ISO-10303-21;
HEADER;
/* Generated by software containing ST-Developer
 * from STEP Tools, Inc. (www.steptools.com) 
 */

FILE_DESCRIPTION(
/* description */ ('CATIA V5 STEP Exchange'),
/* implementation_level */ '2;1');

FILE_NAME(
/* name */ 'F0007673 (stp).stp',
/* time_stamp */ '2025-08-25T14:59:30-05:00',
/* author */ ('ischreiner'),
/* organization */ ('none'),
/* preprocessor_version */ 'ST-DEVELOPER v20',
/* originating_system */ 'Autodesk Inventor 2025',
/* authorisation */ 'none');

FILE_SCHEMA (('AUTOMOTIVE_DESIGN { 1 0 10303 214 3 1 1 }'));
ENDSEC;

DATA;
#10=MECHANICAL_DESIGN_GEOMETRIC_PRESENTATION_REPRESENTATION('',(#298,#299,
#300,#301,#302,#303,#304,#305,#306,#307,#308,#309,#310,#311,#312,#313,#314,
#315,#316,#317,#318,#319,#320,#321),#616);
#11=SHAPE_REPRESENTATION_RELATIONSHIP('SRR','None',#623,#12);
#12=ADVANCED_BREP_SHAPE_REPRESENTATION('',(#13),#615);
#13=MANIFOLD_SOLID_BREP('Solid1',#345);
#14=TOROIDAL_SURFACE('',#382,21.5,0.5);
#15=TOROIDAL_SURFACE('',#397,21.5,0.5);
#16=FACE_BOUND('',#99,.T.);
#17=FACE_BOUND('',#102,.T.);
#18=FACE_BOUND('',#103,.T.);
#19=FACE_BOUND('',#112,.T.);
#20=CYLINDRICAL_SURFACE('',#372,22.25);
#21=CYLINDRICAL_SURFACE('',#376,23.8);
#22=CYLINDRICAL_SURFACE('',#385,21.);
#23=CYLINDRICAL_SURFACE('',#404,23.8);
#24=CYLINDRICAL_SURFACE('',#408,22.25);
#25=LINE('',#531,#44);
#26=LINE('',#534,#45);
#27=LINE('',#539,#46);
#28=LINE('',#542,#47);
#29=LINE('',#546,#48);
#30=LINE('',#557,#49);
#31=LINE('',#563,#50);
#32=LINE('',#566,#51);
#33=LINE('',#571,#52);
#34=LINE('',#574,#53);
#35=LINE('',#576,#54);
#36=LINE('',#577,#55);
#37=LINE('',#580,#56);
#38=LINE('',#581,#57);
#39=LINE('',#595,#58);
#40=LINE('',#598,#59);
#41=LINE('',#602,#60);
#42=LINE('',#606,#61);
#43=LINE('',#610,#62);
#44=VECTOR('',#423,22.05);
#45=VECTOR('',#426,22.25);
#46=VECTOR('',#433,22.25);
#47=VECTOR('',#436,23.8);
#48=VECTOR('',#441,22.25);
#49=VECTOR('',#456,21.);
#50=VECTOR('',#461,1.);
#51=VECTOR('',#464,1.);
#52=VECTOR('',#467,1.);
#53=VECTOR('',#470,1.);
#54=VECTOR('',#473,1.);
#55=VECTOR('',#474,1.);
#56=VECTOR('',#479,1.);
#57=VECTOR('',#480,1.);
#58=VECTOR('',#501,22.25);
#59=VECTOR('',#504,23.8);
#60=VECTOR('',#509,22.25);
#61=VECTOR('',#514,22.25);
#62=VECTOR('',#519,22.05);
#63=CONICAL_SURFACE('',#370,22.05,0.785398163397);
#64=CONICAL_SURFACE('',#374,22.25,0.785398163397);
#65=CONICAL_SURFACE('',#378,22.25,0.785398163397);
#66=CONICAL_SURFACE('',#402,22.25,0.785398163397);
#67=CONICAL_SURFACE('',#406,22.25,0.785398163397);
#68=CONICAL_SURFACE('',#410,22.05,0.785398163397);
#69=FACE_OUTER_BOUND('',#92,.T.);
#70=FACE_OUTER_BOUND('',#93,.T.);
#71=FACE_OUTER_BOUND('',#94,.T.);
#72=FACE_OUTER_BOUND('',#95,.T.);
#73=FACE_OUTER_BOUND('',#96,.T.);
#74=FACE_OUTER_BOUND('',#97,.T.);
#75=FACE_OUTER_BOUND('',#98,.T.);
#76=FACE_OUTER_BOUND('',#100,.T.);
#77=FACE_OUTER_BOUND('',#101,.T.);
#78=FACE_OUTER_BOUND('',#104,.T.);
#79=FACE_OUTER_BOUND('',#105,.T.);
#80=FACE_OUTER_BOUND('',#106,.T.);
#81=FACE_OUTER_BOUND('',#107,.T.);
#82=FACE_OUTER_BOUND('',#108,.T.);
#83=FACE_OUTER_BOUND('',#109,.T.);
#84=FACE_OUTER_BOUND('',#110,.T.);
#85=FACE_OUTER_BOUND('',#111,.T.);
#86=FACE_OUTER_BOUND('',#113,.T.);
#87=FACE_OUTER_BOUND('',#114,.T.);
#88=FACE_OUTER_BOUND('',#115,.T.);
#89=FACE_OUTER_BOUND('',#116,.T.);
#90=FACE_OUTER_BOUND('',#117,.T.);
#91=FACE_OUTER_BOUND('',#118,.T.);
#92=EDGE_LOOP('',(#206));
#93=EDGE_LOOP('',(#207,#208,#209,#210));
#94=EDGE_LOOP('',(#211,#212,#213,#214));
#95=EDGE_LOOP('',(#215,#216,#217,#218));
#96=EDGE_LOOP('',(#219,#220,#221,#222));
#97=EDGE_LOOP('',(#223,#224,#225,#226));
#98=EDGE_LOOP('',(#227));
#99=EDGE_LOOP('',(#228));
#100=EDGE_LOOP('',(#229,#230,#231,#232));
#101=EDGE_LOOP('',(#233,#234,#235,#236));
#102=EDGE_LOOP('',(#237,#238,#239,#240));
#103=EDGE_LOOP('',(#241,#242,#243,#244));
#104=EDGE_LOOP('',(#245,#246,#247,#248));
#105=EDGE_LOOP('',(#249,#250));
#106=EDGE_LOOP('',(#251,#252,#253,#254));
#107=EDGE_LOOP('',(#255,#256));
#108=EDGE_LOOP('',(#257,#258));
#109=EDGE_LOOP('',(#259,#260));
#110=EDGE_LOOP('',(#261,#262,#263,#264));
#111=EDGE_LOOP('',(#265));
#112=EDGE_LOOP('',(#266));
#113=EDGE_LOOP('',(#267,#268,#269,#270));
#114=EDGE_LOOP('',(#271,#272,#273,#274));
#115=EDGE_LOOP('',(#275,#276,#277,#278));
#116=EDGE_LOOP('',(#279,#280,#281,#282));
#117=EDGE_LOOP('',(#283,#284,#285,#286));
#118=EDGE_LOOP('',(#287));
#119=CIRCLE('',#369,22.05);
#120=CIRCLE('',#371,22.25);
#121=CIRCLE('',#373,22.25);
#122=CIRCLE('',#375,23.8);
#123=CIRCLE('',#377,23.8);
#124=CIRCLE('',#379,22.25);
#125=CIRCLE('',#381,21.5);
#126=CIRCLE('',#383,0.5);
#127=CIRCLE('',#384,21.);
#128=CIRCLE('',#386,21.);
#129=CIRCLE('',#387,21.);
#130=CIRCLE('',#388,21.);
#131=CIRCLE('',#389,21.);
#132=CIRCLE('',#390,21.);
#133=CIRCLE('',#398,0.5);
#134=CIRCLE('',#399,21.5);
#135=CIRCLE('',#401,22.25);
#136=CIRCLE('',#403,23.8);
#137=CIRCLE('',#405,23.8);
#138=CIRCLE('',#407,22.25);
#139=CIRCLE('',#409,22.25);
#140=CIRCLE('',#411,22.05);
#141=VERTEX_POINT('',#526);
#142=VERTEX_POINT('',#529);
#143=VERTEX_POINT('',#533);
#144=VERTEX_POINT('',#537);
#145=VERTEX_POINT('',#541);
#146=VERTEX_POINT('',#545);
#147=VERTEX_POINT('',#549);
#148=VERTEX_POINT('',#552);
#149=VERTEX_POINT('',#556);
#150=VERTEX_POINT('',#559);
#151=VERTEX_POINT('',#560);
#152=VERTEX_POINT('',#562);
#153=VERTEX_POINT('',#564);
#154=VERTEX_POINT('',#567);
#155=VERTEX_POINT('',#568);
#156=VERTEX_POINT('',#570);
#157=VERTEX_POINT('',#572);
#158=VERTEX_POINT('',#586);
#159=VERTEX_POINT('',#590);
#160=VERTEX_POINT('',#593);
#161=VERTEX_POINT('',#597);
#162=VERTEX_POINT('',#601);
#163=VERTEX_POINT('',#605);
#164=VERTEX_POINT('',#609);
#165=EDGE_CURVE('',#141,#141,#119,.T.);
#166=EDGE_CURVE('',#142,#142,#120,.F.);
#167=EDGE_CURVE('',#142,#141,#25,.T.);
#168=EDGE_CURVE('',#142,#143,#26,.T.);
#169=EDGE_CURVE('',#143,#143,#121,.T.);
#170=EDGE_CURVE('',#144,#144,#122,.F.);
#171=EDGE_CURVE('',#144,#143,#27,.T.);
#172=EDGE_CURVE('',#144,#145,#28,.T.);
#173=EDGE_CURVE('',#145,#145,#123,.T.);
#174=EDGE_CURVE('',#145,#146,#29,.T.);
#175=EDGE_CURVE('',#146,#146,#124,.T.);
#176=EDGE_CURVE('',#147,#147,#125,.T.);
#177=EDGE_CURVE('',#147,#148,#126,.T.);
#178=EDGE_CURVE('',#148,#148,#127,.T.);
#179=EDGE_CURVE('',#148,#149,#30,.T.);
#180=EDGE_CURVE('',#149,#149,#128,.T.);
#181=EDGE_CURVE('',#150,#151,#129,.T.);
#182=EDGE_CURVE('',#152,#151,#31,.T.);
#183=EDGE_CURVE('',#152,#153,#130,.T.);
#184=EDGE_CURVE('',#153,#150,#32,.T.);
#185=EDGE_CURVE('',#154,#155,#131,.F.);
#186=EDGE_CURVE('',#156,#155,#33,.F.);
#187=EDGE_CURVE('',#156,#157,#132,.T.);
#188=EDGE_CURVE('',#157,#154,#34,.F.);
#189=EDGE_CURVE('',#156,#157,#35,.T.);
#190=EDGE_CURVE('',#155,#154,#36,.T.);
#191=EDGE_CURVE('',#151,#150,#37,.T.);
#192=EDGE_CURVE('',#152,#153,#38,.T.);
#193=EDGE_CURVE('',#149,#158,#133,.T.);
#194=EDGE_CURVE('',#158,#158,#134,.T.);
#195=EDGE_CURVE('',#159,#159,#135,.T.);
#196=EDGE_CURVE('',#160,#160,#136,.F.);
#197=EDGE_CURVE('',#160,#159,#39,.T.);
#198=EDGE_CURVE('',#160,#161,#40,.T.);
#199=EDGE_CURVE('',#161,#161,#137,.T.);
#200=EDGE_CURVE('',#161,#162,#41,.T.);
#201=EDGE_CURVE('',#162,#162,#138,.T.);
#202=EDGE_CURVE('',#162,#163,#42,.T.);
#203=EDGE_CURVE('',#163,#163,#139,.T.);
#204=EDGE_CURVE('',#163,#164,#43,.T.);
#205=EDGE_CURVE('',#164,#164,#140,.T.);
#206=ORIENTED_EDGE('',*,*,#165,.T.);
#207=ORIENTED_EDGE('',*,*,#166,.T.);
#208=ORIENTED_EDGE('',*,*,#167,.T.);
#209=ORIENTED_EDGE('',*,*,#165,.F.);
#210=ORIENTED_EDGE('',*,*,#167,.F.);
#211=ORIENTED_EDGE('',*,*,#166,.F.);
#212=ORIENTED_EDGE('',*,*,#168,.T.);
#213=ORIENTED_EDGE('',*,*,#169,.T.);
#214=ORIENTED_EDGE('',*,*,#168,.F.);
#215=ORIENTED_EDGE('',*,*,#170,.T.);
#216=ORIENTED_EDGE('',*,*,#171,.T.);
#217=ORIENTED_EDGE('',*,*,#169,.F.);
#218=ORIENTED_EDGE('',*,*,#171,.F.);
#219=ORIENTED_EDGE('',*,*,#170,.F.);
#220=ORIENTED_EDGE('',*,*,#172,.T.);
#221=ORIENTED_EDGE('',*,*,#173,.T.);
#222=ORIENTED_EDGE('',*,*,#172,.F.);
#223=ORIENTED_EDGE('',*,*,#173,.F.);
#224=ORIENTED_EDGE('',*,*,#174,.T.);
#225=ORIENTED_EDGE('',*,*,#175,.T.);
#226=ORIENTED_EDGE('',*,*,#174,.F.);
#227=ORIENTED_EDGE('',*,*,#175,.F.);
#228=ORIENTED_EDGE('',*,*,#176,.T.);
#229=ORIENTED_EDGE('',*,*,#176,.F.);
#230=ORIENTED_EDGE('',*,*,#177,.T.);
#231=ORIENTED_EDGE('',*,*,#178,.T.);
#232=ORIENTED_EDGE('',*,*,#177,.F.);
#233=ORIENTED_EDGE('',*,*,#178,.F.);
#234=ORIENTED_EDGE('',*,*,#179,.T.);
#235=ORIENTED_EDGE('',*,*,#180,.T.);
#236=ORIENTED_EDGE('',*,*,#179,.F.);
#237=ORIENTED_EDGE('',*,*,#181,.T.);
#238=ORIENTED_EDGE('',*,*,#182,.F.);
#239=ORIENTED_EDGE('',*,*,#183,.T.);
#240=ORIENTED_EDGE('',*,*,#184,.T.);
#241=ORIENTED_EDGE('',*,*,#185,.T.);
#242=ORIENTED_EDGE('',*,*,#186,.F.);
#243=ORIENTED_EDGE('',*,*,#187,.T.);
#244=ORIENTED_EDGE('',*,*,#188,.T.);
#245=ORIENTED_EDGE('',*,*,#188,.F.);
#246=ORIENTED_EDGE('',*,*,#189,.F.);
#247=ORIENTED_EDGE('',*,*,#186,.T.);
#248=ORIENTED_EDGE('',*,*,#190,.T.);
#249=ORIENTED_EDGE('',*,*,#185,.F.);
#250=ORIENTED_EDGE('',*,*,#190,.F.);
#251=ORIENTED_EDGE('',*,*,#182,.T.);
#252=ORIENTED_EDGE('',*,*,#191,.T.);
#253=ORIENTED_EDGE('',*,*,#184,.F.);
#254=ORIENTED_EDGE('',*,*,#192,.F.);
#255=ORIENTED_EDGE('',*,*,#181,.F.);
#256=ORIENTED_EDGE('',*,*,#191,.F.);
#257=ORIENTED_EDGE('',*,*,#187,.F.);
#258=ORIENTED_EDGE('',*,*,#189,.T.);
#259=ORIENTED_EDGE('',*,*,#183,.F.);
#260=ORIENTED_EDGE('',*,*,#192,.T.);
#261=ORIENTED_EDGE('',*,*,#180,.F.);
#262=ORIENTED_EDGE('',*,*,#193,.T.);
#263=ORIENTED_EDGE('',*,*,#194,.T.);
#264=ORIENTED_EDGE('',*,*,#193,.F.);
#265=ORIENTED_EDGE('',*,*,#195,.T.);
#266=ORIENTED_EDGE('',*,*,#194,.F.);
#267=ORIENTED_EDGE('',*,*,#196,.T.);
#268=ORIENTED_EDGE('',*,*,#197,.T.);
#269=ORIENTED_EDGE('',*,*,#195,.F.);
#270=ORIENTED_EDGE('',*,*,#197,.F.);
#271=ORIENTED_EDGE('',*,*,#196,.F.);
#272=ORIENTED_EDGE('',*,*,#198,.T.);
#273=ORIENTED_EDGE('',*,*,#199,.T.);
#274=ORIENTED_EDGE('',*,*,#198,.F.);
#275=ORIENTED_EDGE('',*,*,#199,.F.);
#276=ORIENTED_EDGE('',*,*,#200,.T.);
#277=ORIENTED_EDGE('',*,*,#201,.T.);
#278=ORIENTED_EDGE('',*,*,#200,.F.);
#279=ORIENTED_EDGE('',*,*,#201,.F.);
#280=ORIENTED_EDGE('',*,*,#202,.T.);
#281=ORIENTED_EDGE('',*,*,#203,.T.);
#282=ORIENTED_EDGE('',*,*,#202,.F.);
#283=ORIENTED_EDGE('',*,*,#203,.F.);
#284=ORIENTED_EDGE('',*,*,#204,.T.);
#285=ORIENTED_EDGE('',*,*,#205,.T.);
#286=ORIENTED_EDGE('',*,*,#204,.F.);
#287=ORIENTED_EDGE('',*,*,#205,.F.);
#288=PLANE('',#368);
#289=PLANE('',#380);
#290=PLANE('',#391);
#291=PLANE('',#392);
#292=PLANE('',#393);
#293=PLANE('',#394);
#294=PLANE('',#395);
#295=PLANE('',#396);
#296=PLANE('',#400);
#297=PLANE('',#412);
#298=STYLED_ITEM('',(#634),#322);
#299=STYLED_ITEM('',(#634),#323);
#300=STYLED_ITEM('',(#634),#324);
#301=STYLED_ITEM('',(#634),#325);
#302=STYLED_ITEM('',(#634),#326);
#303=STYLED_ITEM('',(#634),#327);
#304=STYLED_ITEM('',(#634),#328);
#305=STYLED_ITEM('',(#634),#329);
#306=STYLED_ITEM('',(#634),#330);
#307=STYLED_ITEM('',(#634),#331);
#308=STYLED_ITEM('',(#634),#332);
#309=STYLED_ITEM('',(#634),#333);
#310=STYLED_ITEM('',(#634),#334);
#311=STYLED_ITEM('',(#634),#335);
#312=STYLED_ITEM('',(#634),#336);
#313=STYLED_ITEM('',(#634),#337);
#314=STYLED_ITEM('',(#634),#338);
#315=STYLED_ITEM('',(#634),#339);
#316=STYLED_ITEM('',(#634),#340);
#317=STYLED_ITEM('',(#634),#341);
#318=STYLED_ITEM('',(#634),#342);
#319=STYLED_ITEM('',(#634),#343);
#320=STYLED_ITEM('',(#634),#344);
#321=STYLED_ITEM('',(#633),#13);
#322=ADVANCED_FACE('',(#69),#288,.T.);
#323=ADVANCED_FACE('',(#70),#63,.T.);
#324=ADVANCED_FACE('',(#71),#20,.T.);
#325=ADVANCED_FACE('',(#72),#64,.T.);
#326=ADVANCED_FACE('',(#73),#21,.T.);
#327=ADVANCED_FACE('',(#74),#65,.T.);
#328=ADVANCED_FACE('',(#75,#16),#289,.F.);
#329=ADVANCED_FACE('',(#76),#14,.F.);
#330=ADVANCED_FACE('',(#77,#17,#18),#22,.T.);
#331=ADVANCED_FACE('',(#78),#290,.T.);
#332=ADVANCED_FACE('',(#79),#291,.F.);
#333=ADVANCED_FACE('',(#80),#292,.T.);
#334=ADVANCED_FACE('',(#81),#293,.F.);
#335=ADVANCED_FACE('',(#82),#294,.F.);
#336=ADVANCED_FACE('',(#83),#295,.F.);
#337=ADVANCED_FACE('',(#84),#15,.F.);
#338=ADVANCED_FACE('',(#85,#19),#296,.T.);
#339=ADVANCED_FACE('',(#86),#66,.T.);
#340=ADVANCED_FACE('',(#87),#23,.T.);
#341=ADVANCED_FACE('',(#88),#67,.T.);
#342=ADVANCED_FACE('',(#89),#24,.T.);
#343=ADVANCED_FACE('',(#90),#68,.T.);
#344=ADVANCED_FACE('',(#91),#297,.F.);
#345=CLOSED_SHELL('',(#322,#323,#324,#325,#326,#327,#328,#329,#330,#331,
#332,#333,#334,#335,#336,#337,#338,#339,#340,#341,#342,#343,#344));
#346=DERIVED_UNIT_ELEMENT(#349,1.);
#347=DERIVED_UNIT_ELEMENT(#618,-3.);
#348=DIMENSIONAL_EXPONENTS(0.,1.,0.,0.,0.,0.,0.);
#349=(
CONVERSION_BASED_UNIT('gram',#351)
MASS_UNIT()
NAMED_UNIT(#348)
);
#350=(
MASS_UNIT()
NAMED_UNIT(*)
SI_UNIT(.KILO.,.GRAM.)
);
#351=MASS_MEASURE_WITH_UNIT(MASS_MEASURE(0.001),#350);
#352=DERIVED_UNIT((#346,#347));
#353=MEASURE_REPRESENTATION_ITEM('density measure',
POSITIVE_RATIO_MEASURE(1.),#352);
#354=PROPERTY_DEFINITION_REPRESENTATION(#359,#356);
#355=PROPERTY_DEFINITION_REPRESENTATION(#360,#357);
#356=REPRESENTATION('material name',(#358),#615);
#357=REPRESENTATION('density',(#353),#615);
#358=DESCRIPTIVE_REPRESENTATION_ITEM('Generic','Generic');
#359=PROPERTY_DEFINITION('material property','material name',#625);
#360=PROPERTY_DEFINITION('material property','density of part',#625);
#361=DATE_TIME_ROLE('creation_date');
#362=APPLIED_DATE_AND_TIME_ASSIGNMENT(#363,#361,(#625));
#363=DATE_AND_TIME(#364,#365);
#364=CALENDAR_DATE(2024,2,8);
#365=LOCAL_TIME(0,0,0.,#366);
#366=COORDINATED_UNIVERSAL_TIME_OFFSET(0,0,.BEHIND.);
#367=AXIS2_PLACEMENT_3D('',#524,#413,#414);
#368=AXIS2_PLACEMENT_3D('',#525,#415,#416);
#369=AXIS2_PLACEMENT_3D('',#527,#417,#418);
#370=AXIS2_PLACEMENT_3D('',#528,#419,#420);
#371=AXIS2_PLACEMENT_3D('',#530,#421,#422);
#372=AXIS2_PLACEMENT_3D('',#532,#424,#425);
#373=AXIS2_PLACEMENT_3D('',#535,#427,#428);
#374=AXIS2_PLACEMENT_3D('',#536,#429,#430);
#375=AXIS2_PLACEMENT_3D('',#538,#431,#432);
#376=AXIS2_PLACEMENT_3D('',#540,#434,#435);
#377=AXIS2_PLACEMENT_3D('',#543,#437,#438);
#378=AXIS2_PLACEMENT_3D('',#544,#439,#440);
#379=AXIS2_PLACEMENT_3D('',#547,#442,#443);
#380=AXIS2_PLACEMENT_3D('',#548,#444,#445);
#381=AXIS2_PLACEMENT_3D('',#550,#446,#447);
#382=AXIS2_PLACEMENT_3D('',#551,#448,#449);
#383=AXIS2_PLACEMENT_3D('',#553,#450,#451);
#384=AXIS2_PLACEMENT_3D('',#554,#452,#453);
#385=AXIS2_PLACEMENT_3D('',#555,#454,#455);
#386=AXIS2_PLACEMENT_3D('',#558,#457,#458);
#387=AXIS2_PLACEMENT_3D('',#561,#459,#460);
#388=AXIS2_PLACEMENT_3D('',#565,#462,#463);
#389=AXIS2_PLACEMENT_3D('',#569,#465,#466);
#390=AXIS2_PLACEMENT_3D('',#573,#468,#469);
#391=AXIS2_PLACEMENT_3D('',#575,#471,#472);
#392=AXIS2_PLACEMENT_3D('',#578,#475,#476);
#393=AXIS2_PLACEMENT_3D('',#579,#477,#478);
#394=AXIS2_PLACEMENT_3D('',#582,#481,#482);
#395=AXIS2_PLACEMENT_3D('',#583,#483,#484);
#396=AXIS2_PLACEMENT_3D('',#584,#485,#486);
#397=AXIS2_PLACEMENT_3D('',#585,#487,#488);
#398=AXIS2_PLACEMENT_3D('',#587,#489,#490);
#399=AXIS2_PLACEMENT_3D('',#588,#491,#492);
#400=AXIS2_PLACEMENT_3D('',#589,#493,#494);
#401=AXIS2_PLACEMENT_3D('',#591,#495,#496);
#402=AXIS2_PLACEMENT_3D('',#592,#497,#498);
#403=AXIS2_PLACEMENT_3D('',#594,#499,#500);
#404=AXIS2_PLACEMENT_3D('',#596,#502,#503);
#405=AXIS2_PLACEMENT_3D('',#599,#505,#506);
#406=AXIS2_PLACEMENT_3D('',#600,#507,#508);
#407=AXIS2_PLACEMENT_3D('',#603,#510,#511);
#408=AXIS2_PLACEMENT_3D('',#604,#512,#513);
#409=AXIS2_PLACEMENT_3D('',#607,#515,#516);
#410=AXIS2_PLACEMENT_3D('',#608,#517,#518);
#411=AXIS2_PLACEMENT_3D('',#611,#520,#521);
#412=AXIS2_PLACEMENT_3D('',#612,#522,#523);
#413=DIRECTION('axis',(0.,0.,1.));
#414=DIRECTION('refdir',(1.,0.,0.));
#415=DIRECTION('center_axis',(0.,1.,0.));
#416=DIRECTION('ref_axis',(1.,0.,0.));
#417=DIRECTION('center_axis',(0.,1.,0.));
#418=DIRECTION('ref_axis',(0.,0.,-1.));
#419=DIRECTION('center_axis',(0.,-1.,0.));
#420=DIRECTION('ref_axis',(6.12323399574E-17,0.,1.));
#421=DIRECTION('center_axis',(0.,-1.,0.));
#422=DIRECTION('ref_axis',(0.,0.,1.));
#423=DIRECTION('',(-4.32978028117324E-17,0.707106781186865,0.70710678118623));
#424=DIRECTION('center_axis',(0.,1.,0.));
#425=DIRECTION('ref_axis',(-1.83697019872E-16,0.,1.));
#426=DIRECTION('',(0.,-1.,0.));
#427=DIRECTION('center_axis',(0.,1.,0.));
#428=DIRECTION('ref_axis',(0.,0.,-1.));
#429=DIRECTION('center_axis',(0.,-1.,0.));
#430=DIRECTION('ref_axis',(6.12323399574E-17,0.,1.));
#431=DIRECTION('center_axis',(0.,-1.,0.));
#432=DIRECTION('ref_axis',(0.,0.,1.));
#433=DIRECTION('',(-4.32978028117324E-17,0.707106781186865,0.70710678118623));
#434=DIRECTION('center_axis',(0.,1.,0.));
#435=DIRECTION('ref_axis',(-1.83697019872E-16,0.,1.));
#436=DIRECTION('',(0.,-1.,0.));
#437=DIRECTION('center_axis',(0.,1.,0.));
#438=DIRECTION('ref_axis',(0.,0.,-1.));
#439=DIRECTION('center_axis',(0.,1.,0.));
#440=DIRECTION('ref_axis',(-1.83697019872E-16,0.,1.));
#441=DIRECTION('',(-4.32978028116824E-17,-0.707106781186865,0.70710678118623));
#442=DIRECTION('center_axis',(0.,1.,0.));
#443=DIRECTION('ref_axis',(0.,0.,-1.));
#444=DIRECTION('center_axis',(0.,1.,0.));
#445=DIRECTION('ref_axis',(1.,0.,0.));
#446=DIRECTION('center_axis',(0.,1.,0.));
#447=DIRECTION('ref_axis',(0.,0.,-1.));
#448=DIRECTION('center_axis',(0.,1.,0.));
#449=DIRECTION('ref_axis',(-1.83697019872E-16,0.,1.));
#450=DIRECTION('center_axis',(1.,0.,6.12323399572647E-17));
#451=DIRECTION('ref_axis',(6.12323399572647E-17,0.,-1.));
#452=DIRECTION('center_axis',(0.,1.,0.));
#453=DIRECTION('ref_axis',(0.,0.,-1.));
#454=DIRECTION('center_axis',(0.,1.,0.));
#455=DIRECTION('ref_axis',(-1.83697019872E-16,0.,1.));
#456=DIRECTION('',(0.,-1.,0.));
#457=DIRECTION('center_axis',(0.,1.,0.));
#458=DIRECTION('ref_axis',(0.,0.,-1.));
#459=DIRECTION('center_axis',(0.,-1.,0.));
#460=DIRECTION('ref_axis',(0.,0.,1.));
#461=DIRECTION('',(0.,-1.,0.));
#462=DIRECTION('center_axis',(0.,1.,0.));
#463=DIRECTION('ref_axis',(0.,0.,-1.));
#464=DIRECTION('',(0.,-1.,0.));
#465=DIRECTION('center_axis',(0.,1.,0.));
#466=DIRECTION('ref_axis',(0.,0.,-1.));
#467=DIRECTION('',(0.,1.,0.));
#468=DIRECTION('center_axis',(0.,1.,0.));
#469=DIRECTION('ref_axis',(0.,0.,-1.));
#470=DIRECTION('',(0.,1.,0.));
#471=DIRECTION('center_axis',(-1.,0.,-1.22464679915E-16));
#472=DIRECTION('ref_axis',(0.,-1.,0.));
#473=DIRECTION('',(0.,0.,1.));
#474=DIRECTION('',(0.,0.,1.));
#475=DIRECTION('center_axis',(0.,-1.,0.));
#476=DIRECTION('ref_axis',(-1.,0.,0.));
#477=DIRECTION('center_axis',(1.,0.,0.));
#478=DIRECTION('ref_axis',(0.,-1.,0.));
#479=DIRECTION('',(0.,0.,-1.));
#480=DIRECTION('',(0.,0.,-1.));
#481=DIRECTION('center_axis',(0.,-1.,0.));
#482=DIRECTION('ref_axis',(-1.,0.,0.));
#483=DIRECTION('center_axis',(0.,1.,0.));
#484=DIRECTION('ref_axis',(1.,0.,0.));
#485=DIRECTION('center_axis',(0.,1.,0.));
#486=DIRECTION('ref_axis',(1.,0.,0.));
#487=DIRECTION('center_axis',(0.,1.,0.));
#488=DIRECTION('ref_axis',(-1.83697019872E-16,0.,1.));
#489=DIRECTION('center_axis',(1.,0.,6.12323399572647E-17));
#490=DIRECTION('ref_axis',(6.12323399572647E-17,0.,-1.));
#491=DIRECTION('center_axis',(0.,1.,0.));
#492=DIRECTION('ref_axis',(0.,0.,-1.));
#493=DIRECTION('center_axis',(0.,1.,0.));
#494=DIRECTION('ref_axis',(1.,0.,0.));
#495=DIRECTION('center_axis',(0.,1.,0.));
#496=DIRECTION('ref_axis',(0.,0.,-1.));
#497=DIRECTION('center_axis',(0.,-1.,0.));
#498=DIRECTION('ref_axis',(6.12323399574E-17,0.,1.));
#499=DIRECTION('center_axis',(0.,-1.,0.));
#500=DIRECTION('ref_axis',(0.,0.,1.));
#501=DIRECTION('',(-4.32978028117324E-17,0.707106781186865,0.70710678118623));
#502=DIRECTION('center_axis',(0.,1.,0.));
#503=DIRECTION('ref_axis',(-1.83697019872E-16,0.,1.));
#504=DIRECTION('',(0.,-1.,0.));
#505=DIRECTION('center_axis',(0.,1.,0.));
#506=DIRECTION('ref_axis',(0.,0.,-1.));
#507=DIRECTION('center_axis',(0.,1.,0.));
#508=DIRECTION('ref_axis',(-1.83697019872E-16,0.,1.));
#509=DIRECTION('',(-4.32978028116824E-17,-0.707106781186865,0.70710678118623));
#510=DIRECTION('center_axis',(0.,1.,0.));
#511=DIRECTION('ref_axis',(0.,0.,-1.));
#512=DIRECTION('center_axis',(0.,1.,0.));
#513=DIRECTION('ref_axis',(-1.83697019872E-16,0.,1.));
#514=DIRECTION('',(0.,-1.,0.));
#515=DIRECTION('center_axis',(0.,1.,0.));
#516=DIRECTION('ref_axis',(0.,0.,-1.));
#517=DIRECTION('center_axis',(0.,1.,0.));
#518=DIRECTION('ref_axis',(-1.83697019872E-16,0.,1.));
#519=DIRECTION('',(-4.32978028116824E-17,-0.707106781186865,0.70710678118623));
#520=DIRECTION('center_axis',(0.,1.,0.));
#521=DIRECTION('ref_axis',(0.,0.,-1.));
#522=DIRECTION('center_axis',(0.,1.,0.));
#523=DIRECTION('ref_axis',(1.,0.,0.));
#524=CARTESIAN_POINT('',(0.,0.,0.));
#525=CARTESIAN_POINT('Origin',(0.,45.,17.85));
#526=CARTESIAN_POINT('',(-4.05051928818E-15,45.,-22.05));
#527=CARTESIAN_POINT('Origin',(0.,45.,0.));
#528=CARTESIAN_POINT('Origin',(0.,45.,0.));
#529=CARTESIAN_POINT('',(-4.08725869215E-15,44.8,-22.25));
#530=CARTESIAN_POINT('Origin',(0.,44.8,0.));
#531=CARTESIAN_POINT('',(1.35017309605924E-15,45.,-22.05));
#532=CARTESIAN_POINT('Origin',(0.,22.5000000002,0.));
#533=CARTESIAN_POINT('',(1.36241956404914E-15,43.8,-22.25));
#534=CARTESIAN_POINT('',(1.36241956404914E-15,22.5000000002,-22.25));
#535=CARTESIAN_POINT('Origin',(0.,43.8,0.));
#536=CARTESIAN_POINT('Origin',(0.,43.8,0.));
#537=CARTESIAN_POINT('',(-4.37198907296E-15,42.25,-23.8));
#538=CARTESIAN_POINT('Origin',(0.,42.25,0.));
#539=CARTESIAN_POINT('',(1.36241956405071E-15,43.8,-22.25));
#540=CARTESIAN_POINT('Origin',(0.,22.5000000002,0.));
#541=CARTESIAN_POINT('',(1.4573296909829E-15,33.05,-23.8));
#542=CARTESIAN_POINT('',(1.4573296909829E-15,22.5000000002,-23.8));
#543=CARTESIAN_POINT('Origin',(0.,33.05,0.));
#544=CARTESIAN_POINT('Origin',(0.,31.5,0.));
#545=CARTESIAN_POINT('',(-1.29498720181E-14,31.5,-22.25));
#546=CARTESIAN_POINT('',(1.36241956404914E-15,31.5,-22.25));
#547=CARTESIAN_POINT('Origin',(0.,31.5,0.));
#548=CARTESIAN_POINT('Origin',(0.,31.5,21.5));
#549=CARTESIAN_POINT('',(6.58247654542E-15,31.5,-21.5));
#550=CARTESIAN_POINT('Origin',(0.,31.5,0.));
#551=CARTESIAN_POINT('Origin',(0.,31.,0.));
#552=CARTESIAN_POINT('',(6.42939569552E-15,31.,-21.));
#553=CARTESIAN_POINT('Origin',(1.31649530908119E-15,31.,-21.5));
#554=CARTESIAN_POINT('Origin',(0.,31.,0.));
#555=CARTESIAN_POINT('Origin',(0.,22.5000000002,0.));
#556=CARTESIAN_POINT('',(1.28587913910256E-15,14.,-21.));
#557=CARTESIAN_POINT('',(1.28587913910256E-15,22.5000000002,-21.));
#558=CARTESIAN_POINT('Origin',(0.,14.,0.));
#559=CARTESIAN_POINT('',(19.,18.,-8.94427191));
#560=CARTESIAN_POINT('',(19.,18.,8.94427191));
#561=CARTESIAN_POINT('Origin',(0.,18.,0.));
#562=CARTESIAN_POINT('',(19.,30.,8.94427191));
#563=CARTESIAN_POINT('',(19.,24.,8.94427191));
#564=CARTESIAN_POINT('',(19.,30.,-8.94427191));
#565=CARTESIAN_POINT('Origin',(0.,30.,0.));
#566=CARTESIAN_POINT('',(19.,24.,-8.94427191));
#567=CARTESIAN_POINT('',(-19.,18.,8.94427191));
#568=CARTESIAN_POINT('',(-19.,18.,-8.94427191));
#569=CARTESIAN_POINT('Origin',(0.,18.,0.));
#570=CARTESIAN_POINT('',(-19.,30.,-8.94427191));
#571=CARTESIAN_POINT('',(-19.,22.5,-8.94427191));
#572=CARTESIAN_POINT('',(-19.,30.,8.94427191));
#573=CARTESIAN_POINT('Origin',(0.,30.,0.));
#574=CARTESIAN_POINT('',(-19.,22.5,8.94427191));
#575=CARTESIAN_POINT('Origin',(-19.,30.,-1.43865049868E-15));
#576=CARTESIAN_POINT('',(-19.,30.,0.));
#577=CARTESIAN_POINT('',(-19.,18.,0.));
#578=CARTESIAN_POINT('Origin',(25.,18.,0.));
#579=CARTESIAN_POINT('Origin',(19.,30.,0.));
#580=CARTESIAN_POINT('',(19.,18.,-1.7763568394E-15));
#581=CARTESIAN_POINT('',(19.,30.,-1.7763568394E-15));
#582=CARTESIAN_POINT('Origin',(25.,18.,0.));
#583=CARTESIAN_POINT('Origin',(19.,30.,0.));
#584=CARTESIAN_POINT('Origin',(19.,30.,0.));
#585=CARTESIAN_POINT('Origin',(0.,14.,0.));
#586=CARTESIAN_POINT('',(6.58247654542E-15,13.5,-21.5));
#587=CARTESIAN_POINT('Origin',(1.31649530908119E-15,14.,-21.5));
#588=CARTESIAN_POINT('Origin',(0.,13.5,0.));
#589=CARTESIAN_POINT('Origin',(0.,13.5,22.25));
#590=CARTESIAN_POINT('',(1.36241956405071E-15,13.5,-22.25));
#591=CARTESIAN_POINT('Origin',(0.,13.5,0.));
#592=CARTESIAN_POINT('Origin',(0.,13.5,0.));
#593=CARTESIAN_POINT('',(1.45732969098454E-15,11.9499999999993,-23.7999999999993));
#594=CARTESIAN_POINT('Origin',(0.,11.95,0.));
#595=CARTESIAN_POINT('',(1.36241956405071E-15,13.5,-22.25));
#596=CARTESIAN_POINT('Origin',(0.,22.5000000002,0.));
#597=CARTESIAN_POINT('',(1.4573296909829E-15,2.75,-23.8));
#598=CARTESIAN_POINT('',(1.4573296909829E-15,22.5000000002,-23.8));
#599=CARTESIAN_POINT('Origin',(0.,2.75,0.));
#600=CARTESIAN_POINT('Origin',(0.,1.2,0.));
#601=CARTESIAN_POINT('',(1.36241956404914E-15,1.2,-22.25));
#602=CARTESIAN_POINT('',(1.36241956404914E-15,1.2,-22.25));
#603=CARTESIAN_POINT('Origin',(0.,1.2,0.));
#604=CARTESIAN_POINT('Origin',(0.,22.5000000002,0.));
#605=CARTESIAN_POINT('',(1.36241956404914E-15,0.2,-22.25));
#606=CARTESIAN_POINT('',(1.36241956404914E-15,22.5000000002,-22.25));
#607=CARTESIAN_POINT('Origin',(0.,0.2,0.));
#608=CARTESIAN_POINT('Origin',(0.,0.,0.));
#609=CARTESIAN_POINT('',(1.35017309605769E-15,-2.12084693982756E-15,-22.05));
#610=CARTESIAN_POINT('',(1.35017309605769E-15,0.,-22.05));
#611=CARTESIAN_POINT('Origin',(0.,0.,0.));
#612=CARTESIAN_POINT('Origin',(0.,0.,22.05));
#613=UNCERTAINTY_MEASURE_WITH_UNIT(LENGTH_MEASURE(0.01),#617,
'DISTANCE_ACCURACY_VALUE',
'Maximum model space distance between geometric entities at asserted c
onnectivities');
#614=UNCERTAINTY_MEASURE_WITH_UNIT(LENGTH_MEASURE(0.01),#617,
'DISTANCE_ACCURACY_VALUE',
'Maximum model space distance between geometric entities at asserted c
onnectivities');
#615=(
GEOMETRIC_REPRESENTATION_CONTEXT(3)
GLOBAL_UNCERTAINTY_ASSIGNED_CONTEXT((#613))
GLOBAL_UNIT_ASSIGNED_CONTEXT((#617,#619,#620))
REPRESENTATION_CONTEXT('','3D')
);
#616=(
GEOMETRIC_REPRESENTATION_CONTEXT(3)
GLOBAL_UNCERTAINTY_ASSIGNED_CONTEXT((#614))
GLOBAL_UNIT_ASSIGNED_CONTEXT((#617,#619,#620))
REPRESENTATION_CONTEXT('','3D')
);
#617=(
LENGTH_UNIT()
NAMED_UNIT(*)
SI_UNIT(.MILLI.,.METRE.)
);
#618=(
LENGTH_UNIT()
NAMED_UNIT(*)
SI_UNIT(.CENTI.,.METRE.)
);
#619=(
NAMED_UNIT(*)
PLANE_ANGLE_UNIT()
SI_UNIT($,.RADIAN.)
);
#620=(
NAMED_UNIT(*)
SI_UNIT($,.STERADIAN.)
SOLID_ANGLE_UNIT()
);
#621=SHAPE_DEFINITION_REPRESENTATION(#622,#623);
#622=PRODUCT_DEFINITION_SHAPE('',$,#625);
#623=SHAPE_REPRESENTATION('',(#367),#615);
#624=PRODUCT_DEFINITION_CONTEXT('part definition',#629,'design');
#625=PRODUCT_DEFINITION('F0007673 - TST','F0007673 (stp)',#626,#624);
#626=PRODUCT_DEFINITION_FORMATION(' ',$,#631);
#627=PRODUCT_RELATED_PRODUCT_CATEGORY('F0007673 (stp)','F0007673 (stp)',
(#631));
#628=APPLICATION_PROTOCOL_DEFINITION('international standard',
'automotive_design',2009,#629);
#629=APPLICATION_CONTEXT(
'Core Data for Automotive Mechanical Design Process');
#630=PRODUCT_CONTEXT('part definition',#629,'mechanical');
#631=PRODUCT('F0007673 - TST','F0007673 (stp)','CATIA V5 STEP Exchange',
(#630));
#632=PRESENTATION_STYLE_ASSIGNMENT((#635));
#633=PRESENTATION_STYLE_ASSIGNMENT((#636));
#634=PRESENTATION_STYLE_ASSIGNMENT((#637));
#635=SURFACE_STYLE_USAGE(.BOTH.,#644);
#636=SURFACE_STYLE_USAGE(.BOTH.,#645);
#637=SURFACE_STYLE_USAGE(.BOTH.,#646);
#638=SURFACE_STYLE_RENDERING_WITH_PROPERTIES($,#656,(#641));
#639=SURFACE_STYLE_RENDERING_WITH_PROPERTIES($,#657,(#642));
#640=SURFACE_STYLE_RENDERING_WITH_PROPERTIES($,#658,(#643));
#641=SURFACE_STYLE_TRANSPARENT(0.);
#642=SURFACE_STYLE_TRANSPARENT(0.);
#643=SURFACE_STYLE_TRANSPARENT(0.);
#644=SURFACE_SIDE_STYLE('',(#647,#638));
#645=SURFACE_SIDE_STYLE('',(#648,#639));
#646=SURFACE_SIDE_STYLE('',(#649,#640));
#647=SURFACE_STYLE_FILL_AREA(#650);
#648=SURFACE_STYLE_FILL_AREA(#651);
#649=SURFACE_STYLE_FILL_AREA(#652);
#650=FILL_AREA_STYLE('',(#653));
#651=FILL_AREA_STYLE('',(#654));
#652=FILL_AREA_STYLE('',(#655));
#653=FILL_AREA_STYLE_COLOUR('',#656);
#654=FILL_AREA_STYLE_COLOUR('',#657);
#655=FILL_AREA_STYLE_COLOUR('',#658);
#656=COLOUR_RGB('',0.749019607843137,0.749019607843137,0.749019607843137);
#657=COLOUR_RGB('',0.823529411764706,0.823529411764706,1.);
#658=COLOUR_RGB('',1.,0.745098039215686,0.27843137254902);
ENDSEC;
END-ISO-10303-21;
