ISO-10303-21;
HEADER;
FILE_DESCRIPTION(('CATIA V5 STEP Exchange'),'2;1');

FILE_NAME('C:\\Theorem\\CAD_17.3_TSCA5CVW_WIN64.03\\Catia_V5_Setup\\Shared\\w2i1j519\\STEP_887120_-_TST.stp','2017-07-04T13:22:47+00:00',('none'),('none'),'CATIA Version 5-6 Release 2014 SP5','CATIA V5 STEP AP203','none');

FILE_SCHEMA(('CONFIG_CONTROL_DESIGN'));

ENDSEC;
DATA;
#5=PRODUCT('887120 - TST','','',(#2)) ;
#1=APPLICATION_CONTEXT('configuration controlled 3D design of mechanical parts and assemblies') ;
#14=PRODUCT_DEFINITION('',' ',#6,#3) ;
#16=SECURITY_CLASSIFICATION(' ',' ',#15) ;
#15=SECURITY_CLASSIFICATION_LEVEL('unclassified') ;
#46=CARTESIAN_POINT(' ',(0.,0.,0.)) ;
#51=CARTESIAN_POINT('Axis2P3D Location',(0.,0.,11.)) ;
#56=CARTESIAN_POINT('Axis2P3D Location',(0.,0.,0.)) ;
#60=CARTESIAN_POINT('Vertex',(4.19497346279,7.67884741654,0.)) ;
#62=CARTESIAN_POINT('Vertex',(-4.19497346279,-7.67884741654,0.)) ;
#65=CARTESIAN_POINT('Line Origine',(4.19497346279,7.67884741654,0.5)) ;
#69=CARTESIAN_POINT('Vertex',(4.19497346279,7.67884741654,1.)) ;
#72=CARTESIAN_POINT('Axis2P3D Location',(0.,0.,1.)) ;
#76=CARTESIAN_POINT('Vertex',(-4.19497346279,-7.67884741654,1.)) ;
#79=CARTESIAN_POINT('Line Origine',(-4.19497346279,-7.67884741654,0.5)) ;
#91=CARTESIAN_POINT('Axis2P3D Location',(0.,0.,0.)) ;
#96=CARTESIAN_POINT('Axis2P3D Location',(0.,0.,1.)) ;
#108=CARTESIAN_POINT('Axis2P3D Location',(0.,0.,11.)) ;
#113=CARTESIAN_POINT('Axis2P3D Location',(0.,0.,1.)) ;
#117=CARTESIAN_POINT('Vertex',(3.76349047804,6.88902311084,1.)) ;
#119=CARTESIAN_POINT('Vertex',(-3.76349047804,-6.88902311084,1.)) ;
#122=CARTESIAN_POINT('Line Origine',(3.76349047804,6.88902311084,10.4736860279)) ;
#126=CARTESIAN_POINT('Vertex',(3.76349047804,6.88902311084,19.9473720558)) ;
#129=CARTESIAN_POINT('Axis2P3D Location',(0.,0.,19.9473720558)) ;
#133=CARTESIAN_POINT('Vertex',(-3.76349047804,-6.88902311084,19.9473720558)) ;
#136=CARTESIAN_POINT('Line Origine',(-3.76349047804,-6.88902311084,10.4736860279)) ;
#148=CARTESIAN_POINT('Axis2P3D Location',(0.,0.,1.)) ;
#153=CARTESIAN_POINT('Axis2P3D Location',(0.,0.,19.9473720558)) ;
#165=CARTESIAN_POINT('Axis2P3D Location',(0.,0.,22.)) ;
#170=CARTESIAN_POINT('Line Origine',(3.63164845493,6.64768790632,20.9736860279)) ;
#174=CARTESIAN_POINT('Vertex',(3.49980643181,6.4063527018,22.)) ;
#177=CARTESIAN_POINT('Axis2P3D Location',(0.,0.,22.)) ;
#181=CARTESIAN_POINT('Vertex',(-3.49980643181,-6.4063527018,22.)) ;
#184=CARTESIAN_POINT('Line Origine',(-3.63164845493,-6.64768790632,20.9736860279)) ;
#196=CARTESIAN_POINT('Axis2P3D Location',(0.,0.,22.)) ;
#208=CARTESIAN_POINT('Axis2P3D Location',(0.,0.,0.)) ;
#218=CARTESIAN_POINT('Axis2P3D Location',(0.,8.75,1.)) ;
#232=CARTESIAN_POINT('Axis2P3D Location',(0.,7.3,22.)) ;
#52=DIRECTION('Axis2P3D Direction',(0.,0.,-1.)) ;
#53=DIRECTION('Axis2P3D XDirection',(0.479425538604,0.87758256189,0.)) ;
#57=DIRECTION('Axis2P3D Direction',(0.,0.,-1.)) ;
#66=DIRECTION('Vector Direction',(0.,0.,-1.)) ;
#73=DIRECTION('Axis2P3D Direction',(0.,0.,-1.)) ;
#80=DIRECTION('Vector Direction',(0.,0.,-1.)) ;
#92=DIRECTION('Axis2P3D Direction',(0.,0.,-1.)) ;
#97=DIRECTION('Axis2P3D Direction',(0.,0.,-1.)) ;
#109=DIRECTION('Axis2P3D Direction',(0.,0.,-1.)) ;
#110=DIRECTION('Axis2P3D XDirection',(0.479425538604,0.87758256189,0.)) ;
#114=DIRECTION('Axis2P3D Direction',(0.,0.,-1.)) ;
#123=DIRECTION('Vector Direction',(0.,0.,-1.)) ;
#130=DIRECTION('Axis2P3D Direction',(0.,0.,-1.)) ;
#137=DIRECTION('Vector Direction',(0.,0.,-1.)) ;
#149=DIRECTION('Axis2P3D Direction',(0.,0.,-1.)) ;
#154=DIRECTION('Axis2P3D Direction',(0.,0.,-1.)) ;
#166=DIRECTION('Axis2P3D Direction',(0.,0.,-1.)) ;
#167=DIRECTION('Axis2P3D XDirection',(0.479425538604,0.87758256189,0.)) ;
#171=DIRECTION('Vector Direction',(0.124084460099,0.227135080667,-0.965925826289)) ;
#178=DIRECTION('Axis2P3D Direction',(0.,0.,-1.)) ;
#185=DIRECTION('Vector Direction',(-0.124084460099,-0.227135080667,-0.965925826289)) ;
#197=DIRECTION('Axis2P3D Direction',(0.,0.,-1.)) ;
#209=DIRECTION('Axis2P3D Direction',(0.,0.,-1.)) ;
#210=DIRECTION('Axis2P3D XDirection',(1.,0.,0.)) ;
#219=DIRECTION('Axis2P3D Direction',(0.,0.,-1.)) ;
#220=DIRECTION('Axis2P3D XDirection',(1.,0.,0.)) ;
#233=DIRECTION('Axis2P3D Direction',(0.,0.,-1.)) ;
#234=DIRECTION('Axis2P3D XDirection',(1.,0.,0.)) ;
#47=AXIS2_PLACEMENT_3D(' ',#46,$,$) ;
#54=AXIS2_PLACEMENT_3D('Cylinder Axis2P3D',#51,#52,#53) ;
#58=AXIS2_PLACEMENT_3D('Circle Axis2P3D',#56,#57,$) ;
#74=AXIS2_PLACEMENT_3D('Circle Axis2P3D',#72,#73,$) ;
#93=AXIS2_PLACEMENT_3D('Circle Axis2P3D',#91,#92,$) ;
#98=AXIS2_PLACEMENT_3D('Circle Axis2P3D',#96,#97,$) ;
#111=AXIS2_PLACEMENT_3D('Cylinder Axis2P3D',#108,#109,#110) ;
#115=AXIS2_PLACEMENT_3D('Circle Axis2P3D',#113,#114,$) ;
#131=AXIS2_PLACEMENT_3D('Circle Axis2P3D',#129,#130,$) ;
#150=AXIS2_PLACEMENT_3D('Circle Axis2P3D',#148,#149,$) ;
#155=AXIS2_PLACEMENT_3D('Circle Axis2P3D',#153,#154,$) ;
#168=AXIS2_PLACEMENT_3D('Cone Axis2P3D',#165,#166,#167) ;
#179=AXIS2_PLACEMENT_3D('Circle Axis2P3D',#177,#178,$) ;
#198=AXIS2_PLACEMENT_3D('Circle Axis2P3D',#196,#197,$) ;
#211=AXIS2_PLACEMENT_3D('Plane Axis2P3D',#208,#209,#210) ;
#221=AXIS2_PLACEMENT_3D('Plane Axis2P3D',#218,#219,#220) ;
#235=AXIS2_PLACEMENT_3D('Plane Axis2P3D',#232,#233,#234) ;
#40=PRODUCT_DEFINITION_SHAPE(' ',' ',#14) ;
#31=APPROVAL_PERSON_ORGANIZATION(#25,#21,#19) ;
#25=PERSON_AND_ORGANIZATION(#22,#23) ;
#22=PERSON(' ',' ',' ',$,$,$) ;
#23=ORGANIZATION(' ',' ',' ') ;
#21=APPROVAL(#20,' ') ;
#20=APPROVAL_STATUS('not_yet_approved') ;
#19=APPROVAL_ROLE('APPROVER') ;
#13=DATE_AND_TIME(#11,#12) ;
#12=LOCAL_TIME(15,22,47.,#10) ;
#10=COORDINATED_UNIVERSAL_TIME_OFFSET(0,0,.AHEAD.) ;
#85=ORIENTED_EDGE('',*,*,#64,.F.) ;
#86=ORIENTED_EDGE('',*,*,#71,.T.) ;
#87=ORIENTED_EDGE('',*,*,#78,.T.) ;
#88=ORIENTED_EDGE('',*,*,#83,.F.) ;
#102=ORIENTED_EDGE('',*,*,#95,.F.) ;
#103=ORIENTED_EDGE('',*,*,#83,.T.) ;
#104=ORIENTED_EDGE('',*,*,#100,.T.) ;
#105=ORIENTED_EDGE('',*,*,#71,.F.) ;
#142=ORIENTED_EDGE('',*,*,#121,.F.) ;
#143=ORIENTED_EDGE('',*,*,#128,.T.) ;
#144=ORIENTED_EDGE('',*,*,#135,.T.) ;
#145=ORIENTED_EDGE('',*,*,#140,.F.) ;
#159=ORIENTED_EDGE('',*,*,#152,.F.) ;
#160=ORIENTED_EDGE('',*,*,#140,.T.) ;
#161=ORIENTED_EDGE('',*,*,#157,.T.) ;
#162=ORIENTED_EDGE('',*,*,#128,.F.) ;
#190=ORIENTED_EDGE('',*,*,#135,.F.) ;
#191=ORIENTED_EDGE('',*,*,#176,.T.) ;
#192=ORIENTED_EDGE('',*,*,#183,.T.) ;
#193=ORIENTED_EDGE('',*,*,#188,.F.) ;
#202=ORIENTED_EDGE('',*,*,#157,.F.) ;
#203=ORIENTED_EDGE('',*,*,#188,.T.) ;
#204=ORIENTED_EDGE('',*,*,#200,.T.) ;
#205=ORIENTED_EDGE('',*,*,#176,.F.) ;
#214=ORIENTED_EDGE('',*,*,#64,.T.) ;
#215=ORIENTED_EDGE('',*,*,#95,.T.) ;
#224=ORIENTED_EDGE('',*,*,#78,.F.) ;
#225=ORIENTED_EDGE('',*,*,#100,.F.) ;
#228=ORIENTED_EDGE('',*,*,#152,.T.) ;
#229=ORIENTED_EDGE('',*,*,#121,.T.) ;
#238=ORIENTED_EDGE('',*,*,#183,.F.) ;
#239=ORIENTED_EDGE('',*,*,#200,.F.) ;
#230=FACE_BOUND('',#227,.T.) ;
#50=CLOSED_SHELL('Closed Shell',(#90,#107,#147,#164,#195,#207,#217,#231,#241)) ;
#67=VECTOR('Line Direction',#66,1.) ;
#81=VECTOR('Line Direction',#80,1.) ;
#124=VECTOR('Line Direction',#123,1.) ;
#138=VECTOR('Line Direction',#137,1.) ;
#172=VECTOR('Line Direction',#171,1.) ;
#186=VECTOR('Line Direction',#185,1.) ;
#243=ADVANCED_BREP_SHAPE_REPRESENTATION('NONE',(#242),#45) ;
#48=SHAPE_REPRESENTATION(' ',(#47),#45) ;
#90=ADVANCED_FACE('PartBody',(#89),#55,.T.) ;
#107=ADVANCED_FACE('PartBody',(#106),#55,.T.) ;
#147=ADVANCED_FACE('PartBody',(#146),#112,.T.) ;
#164=ADVANCED_FACE('PartBody',(#163),#112,.T.) ;
#195=ADVANCED_FACE('PartBody',(#194),#169,.T.) ;
#207=ADVANCED_FACE('PartBody',(#206),#169,.T.) ;
#217=ADVANCED_FACE('PartBody',(#216),#212,.T.) ;
#231=ADVANCED_FACE('PartBody',(#226,#230),#222,.F.) ;
#241=ADVANCED_FACE('PartBody',(#240),#236,.F.) ;
#4=APPLICATION_PROTOCOL_DEFINITION('international standard','config_control_design',1994,#1) ;
#32=APPROVAL_DATE_TIME(#13,#21) ;
#242=MANIFOLD_SOLID_BREP('PartBody',#50) ;
#11=CALENDAR_DATE(2017,4,7) ;
#30=CC_DESIGN_APPROVAL(#21,(#16,#6,#14)) ;
#18=CC_DESIGN_DATE_AND_TIME_ASSIGNMENT(#13,#17,(#16)) ;
#29=CC_DESIGN_DATE_AND_TIME_ASSIGNMENT(#13,#28,(#14)) ;
#17=DATE_TIME_ROLE('classification_date') ;
#28=DATE_TIME_ROLE('creation_date') ;
#27=CC_DESIGN_PERSON_AND_ORGANIZATION_ASSIGNMENT(#25,#26,(#16)) ;
#33=CC_DESIGN_PERSON_AND_ORGANIZATION_ASSIGNMENT(#25,#34,(#6)) ;
#35=CC_DESIGN_PERSON_AND_ORGANIZATION_ASSIGNMENT(#25,#36,(#6,#14)) ;
#37=CC_DESIGN_PERSON_AND_ORGANIZATION_ASSIGNMENT(#25,#38,(#5)) ;
#26=PERSON_AND_ORGANIZATION_ROLE('classification_officer') ;
#34=PERSON_AND_ORGANIZATION_ROLE('design_supplier') ;
#36=PERSON_AND_ORGANIZATION_ROLE('creator') ;
#38=PERSON_AND_ORGANIZATION_ROLE('design_owner') ;
#39=CC_DESIGN_SECURITY_CLASSIFICATION(#16,(#6)) ;
#59=CIRCLE('generated circle',#58,8.75) ;
#75=CIRCLE('generated circle',#74,8.75) ;
#94=CIRCLE('generated circle',#93,8.75) ;
#99=CIRCLE('generated circle',#98,8.75) ;
#116=CIRCLE('generated circle',#115,7.85) ;
#132=CIRCLE('generated circle',#131,7.85) ;
#151=CIRCLE('generated circle',#150,7.85) ;
#156=CIRCLE('generated circle',#155,7.85) ;
#180=CIRCLE('generated circle',#179,7.3) ;
#199=CIRCLE('generated circle',#198,7.3) ;
#169=CONICAL_SURFACE('Cone',#168,7.3,0.261799387799) ;
#244=SHAPE_REPRESENTATION_RELATIONSHIP(' ',' ',#48,#243) ;
#55=CYLINDRICAL_SURFACE('generated cylinder',#54,8.75) ;
#112=CYLINDRICAL_SURFACE('generated cylinder',#111,7.85) ;
#3=DESIGN_CONTEXT(' ',#1,'design') ;
#64=EDGE_CURVE('',#61,#63,#59,.T.) ;
#71=EDGE_CURVE('',#61,#70,#68,.F.) ;
#78=EDGE_CURVE('',#70,#77,#75,.T.) ;
#83=EDGE_CURVE('',#63,#77,#82,.F.) ;
#95=EDGE_CURVE('',#63,#61,#94,.T.) ;
#100=EDGE_CURVE('',#77,#70,#99,.T.) ;
#121=EDGE_CURVE('',#118,#120,#116,.T.) ;
#128=EDGE_CURVE('',#118,#127,#125,.F.) ;
#135=EDGE_CURVE('',#127,#134,#132,.T.) ;
#140=EDGE_CURVE('',#120,#134,#139,.F.) ;
#152=EDGE_CURVE('',#120,#118,#151,.T.) ;
#157=EDGE_CURVE('',#134,#127,#156,.T.) ;
#176=EDGE_CURVE('',#127,#175,#173,.F.) ;
#183=EDGE_CURVE('',#175,#182,#180,.T.) ;
#188=EDGE_CURVE('',#134,#182,#187,.F.) ;
#200=EDGE_CURVE('',#182,#175,#199,.T.) ;
#84=EDGE_LOOP('',(#85,#86,#87,#88)) ;
#101=EDGE_LOOP('',(#102,#103,#104,#105)) ;
#141=EDGE_LOOP('',(#142,#143,#144,#145)) ;
#158=EDGE_LOOP('',(#159,#160,#161,#162)) ;
#189=EDGE_LOOP('',(#190,#191,#192,#193)) ;
#201=EDGE_LOOP('',(#202,#203,#204,#205)) ;
#213=EDGE_LOOP('',(#214,#215)) ;
#223=EDGE_LOOP('',(#224,#225)) ;
#227=EDGE_LOOP('',(#228,#229)) ;
#237=EDGE_LOOP('',(#238,#239)) ;
#89=FACE_OUTER_BOUND('',#84,.T.) ;
#106=FACE_OUTER_BOUND('',#101,.T.) ;
#146=FACE_OUTER_BOUND('',#141,.T.) ;
#163=FACE_OUTER_BOUND('',#158,.T.) ;
#194=FACE_OUTER_BOUND('',#189,.T.) ;
#206=FACE_OUTER_BOUND('',#201,.T.) ;
#216=FACE_OUTER_BOUND('',#213,.T.) ;
#226=FACE_OUTER_BOUND('',#223,.T.) ;
#240=FACE_OUTER_BOUND('',#237,.T.) ;
#44=UNCERTAINTY_MEASURE_WITH_UNIT(LENGTH_MEASURE(0.005),#41,'distance_accuracy_value','CONFUSED CURVE UNCERTAINTY') ;
#68=LINE('Line',#65,#67) ;
#82=LINE('Line',#79,#81) ;
#125=LINE('Line',#122,#124) ;
#139=LINE('Line',#136,#138) ;
#173=LINE('Line',#170,#172) ;
#187=LINE('Line',#184,#186) ;
#2=MECHANICAL_CONTEXT(' ',#1,'mechanical') ;
#24=PERSONAL_ADDRESS(' ',' ',' ',' ',' ',' ',' ',' ',' ',' ',' ',' ',(#22),' ') ;
#212=PLANE('',#211) ;
#222=PLANE('',#221) ;
#236=PLANE('',#235) ;
#7=PRODUCT_CATEGORY('part',$) ;
#9=PRODUCT_CATEGORY_RELATIONSHIP(' ',' ',#7,#8) ;
#6=PRODUCT_DEFINITION_FORMATION_WITH_SPECIFIED_SOURCE('',' ',#5,.NOT_KNOWN.) ;
#8=PRODUCT_RELATED_PRODUCT_CATEGORY('detail',$,(#5)) ;
#49=SHAPE_DEFINITION_REPRESENTATION(#40,#48) ;
#61=VERTEX_POINT('',#60) ;
#63=VERTEX_POINT('',#62) ;
#70=VERTEX_POINT('',#69) ;
#77=VERTEX_POINT('',#76) ;
#118=VERTEX_POINT('',#117) ;
#120=VERTEX_POINT('',#119) ;
#127=VERTEX_POINT('',#126) ;
#134=VERTEX_POINT('',#133) ;
#175=VERTEX_POINT('',#174) ;
#182=VERTEX_POINT('',#181) ;
#41=(LENGTH_UNIT()NAMED_UNIT(*)SI_UNIT(.MILLI.,.METRE.)) ;
#42=(NAMED_UNIT(*)PLANE_ANGLE_UNIT()SI_UNIT($,.RADIAN.)) ;
#43=(NAMED_UNIT(*)SI_UNIT($,.STERADIAN.)SOLID_ANGLE_UNIT()) ;
#45=(GEOMETRIC_REPRESENTATION_CONTEXT(3)GLOBAL_UNCERTAINTY_ASSIGNED_CONTEXT((#44))GLOBAL_UNIT_ASSIGNED_CONTEXT((#41,#42,#43))REPRESENTATION_CONTEXT(' ',' ')) ;
ENDSEC;
END-ISO-10303-21;
