ISO-10303-21;
HEADER;
FILE_DESCRIPTION(('CATIA V5 STEP Exchange','CAx-IF Rec.Pracs.--- Model Styling and Organization---1.4--- 2014-01-23','CAx-IF Rec.Pracs.---3D Tessellated Data Validation Properties---0.5---2014-09-14'),'2;1');

FILE_NAME('C:\\PTC\\Shared\\w2i1j500\\STEP_750450_-_TST.stp','2020-05-26T14:47:02+00:00',('none'),('none'),'CATIA Version 5-6 Release 2019 SP3','CATIA V5 STEP AP242 v1','none');

FILE_SCHEMA(('AP242_MANAGED_MODEL_BASED_3D_ENGINEERING_MIM_LF  {1 0 10303 442 1 1 4}'));

ENDSEC;
DATA;
#5=PRODUCT('750450 - TST','','',(#2)) ;
#2=PRODUCT_CONTEXT(' ',#1,'mechanical') ;
#1=APPLICATION_CONTEXT('managed model based 3d engineering') ;
#10=PRODUCT_DEFINITION('',' ',#6,#3) ;
#3=PRODUCT_DEFINITION_CONTEXT('part definition',#1,' ') ;
#11=PRODUCT_DEFINITION_SHAPE(' ',' ',#10) ;
#308=MECHANICAL_DESIGN_GEOMETRIC_PRESENTATION_REPRESENTATION(' ',(#29),#16) ;
#7=PRODUCT_CATEGORY('part','specification') ;
#19=SHAPE_REPRESENTATION(' ',(#18),#16) ;
#17=CARTESIAN_POINT(' ',(0.,0.,0.)) ;
#31=CARTESIAN_POINT('Axis2P3D Location',(48.,0.,0.)) ;
#36=CARTESIAN_POINT('Line Origine',(0.,0.,36.)) ;
#40=CARTESIAN_POINT('Vertex',(0.,0.,0.)) ;
#42=CARTESIAN_POINT('Vertex',(0.,0.,72.)) ;
#45=CARTESIAN_POINT('Line Origine',(24.,0.,0.)) ;
#49=CARTESIAN_POINT('Vertex',(48.,0.,0.)) ;
#52=CARTESIAN_POINT('Line Origine',(48.,0.,36.)) ;
#56=CARTESIAN_POINT('Vertex',(48.,0.,72.)) ;
#59=CARTESIAN_POINT('Line Origine',(24.,0.,72.)) ;
#71=CARTESIAN_POINT('Axis2P3D Location',(48.,21.,0.)) ;
#76=CARTESIAN_POINT('Line Origine',(48.,10.5,0.)) ;
#80=CARTESIAN_POINT('Vertex',(48.,21.,0.)) ;
#83=CARTESIAN_POINT('Line Origine',(48.,21.,36.)) ;
#87=CARTESIAN_POINT('Vertex',(48.,21.,72.)) ;
#90=CARTESIAN_POINT('Line Origine',(48.,10.5,72.)) ;
#102=CARTESIAN_POINT('Axis2P3D Location',(60.,21.,0.)) ;
#107=CARTESIAN_POINT('Line Origine',(54.,21.,0.)) ;
#111=CARTESIAN_POINT('Vertex',(60.,21.,0.)) ;
#114=CARTESIAN_POINT('Line Origine',(60.,21.,36.)) ;
#118=CARTESIAN_POINT('Vertex',(60.,21.,72.)) ;
#121=CARTESIAN_POINT('Line Origine',(54.,21.,72.)) ;
#133=CARTESIAN_POINT('Axis2P3D Location',(60.,69.,0.)) ;
#138=CARTESIAN_POINT('Line Origine',(60.,45.,0.)) ;
#142=CARTESIAN_POINT('Vertex',(60.,69.,0.)) ;
#145=CARTESIAN_POINT('Line Origine',(60.,69.,36.)) ;
#149=CARTESIAN_POINT('Vertex',(60.,69.,72.)) ;
#152=CARTESIAN_POINT('Line Origine',(60.,45.,72.)) ;
#164=CARTESIAN_POINT('Axis2P3D Location',(48.,69.,0.)) ;
#169=CARTESIAN_POINT('Line Origine',(54.,69.,0.)) ;
#173=CARTESIAN_POINT('Vertex',(48.,69.,0.)) ;
#176=CARTESIAN_POINT('Line Origine',(48.,69.,36.)) ;
#180=CARTESIAN_POINT('Vertex',(48.,69.,72.)) ;
#183=CARTESIAN_POINT('Line Origine',(54.,69.,72.)) ;
#195=CARTESIAN_POINT('Line Origine',(48.,79.5,0.)) ;
#199=CARTESIAN_POINT('Vertex',(48.,90.,0.)) ;
#202=CARTESIAN_POINT('Line Origine',(48.,90.,36.)) ;
#206=CARTESIAN_POINT('Vertex',(48.,90.,72.)) ;
#209=CARTESIAN_POINT('Line Origine',(48.,79.5,72.)) ;
#221=CARTESIAN_POINT('Axis2P3D Location',(0.,90.,0.)) ;
#226=CARTESIAN_POINT('Line Origine',(24.,90.,0.)) ;
#230=CARTESIAN_POINT('Vertex',(0.,90.,0.)) ;
#233=CARTESIAN_POINT('Line Origine',(0.,90.,36.)) ;
#237=CARTESIAN_POINT('Vertex',(0.,90.,72.)) ;
#240=CARTESIAN_POINT('Line Origine',(24.,90.,72.)) ;
#252=CARTESIAN_POINT('Axis2P3D Location',(0.,0.,0.)) ;
#257=CARTESIAN_POINT('Line Origine',(0.,45.,0.)) ;
#262=CARTESIAN_POINT('Line Origine',(0.,45.,72.)) ;
#274=CARTESIAN_POINT('Axis2P3D Location',(0.,0.,0.)) ;
#290=CARTESIAN_POINT('Axis2P3D Location',(0.,0.,72.)) ;
#8=PRODUCT_RELATED_PRODUCT_CATEGORY('part',$,(#5)) ;
#15=UNCERTAINTY_MEASURE_WITH_UNIT(LENGTH_MEASURE(0.005),#12,'distance_accuracy_value','CONFUSED CURVE UNCERTAINTY') ;
#29=STYLED_ITEM(' ',(#28),#21) ;
#28=PRESENTATION_STYLE_ASSIGNMENT((#27)) ;
#27=SURFACE_STYLE_USAGE(.BOTH.,#26) ;
#26=SURFACE_SIDE_STYLE(' ',(#25)) ;
#25=SURFACE_STYLE_FILL_AREA(#24) ;
#24=FILL_AREA_STYLE(' ',(#23)) ;
#23=FILL_AREA_STYLE_COLOUR(' ',#22) ;
#38=VECTOR('Line Direction',#37,1.) ;
#47=VECTOR('Line Direction',#46,1.) ;
#54=VECTOR('Line Direction',#53,1.) ;
#61=VECTOR('Line Direction',#60,1.) ;
#78=VECTOR('Line Direction',#77,1.) ;
#85=VECTOR('Line Direction',#84,1.) ;
#92=VECTOR('Line Direction',#91,1.) ;
#109=VECTOR('Line Direction',#108,1.) ;
#116=VECTOR('Line Direction',#115,1.) ;
#123=VECTOR('Line Direction',#122,1.) ;
#140=VECTOR('Line Direction',#139,1.) ;
#147=VECTOR('Line Direction',#146,1.) ;
#154=VECTOR('Line Direction',#153,1.) ;
#171=VECTOR('Line Direction',#170,1.) ;
#178=VECTOR('Line Direction',#177,1.) ;
#185=VECTOR('Line Direction',#184,1.) ;
#197=VECTOR('Line Direction',#196,1.) ;
#204=VECTOR('Line Direction',#203,1.) ;
#211=VECTOR('Line Direction',#210,1.) ;
#228=VECTOR('Line Direction',#227,1.) ;
#235=VECTOR('Line Direction',#234,1.) ;
#242=VECTOR('Line Direction',#241,1.) ;
#259=VECTOR('Line Direction',#258,1.) ;
#264=VECTOR('Line Direction',#263,1.) ;
#32=DIRECTION('Axis2P3D Direction',(0.,1.,-0.)) ;
#33=DIRECTION('Axis2P3D XDirection',(-1.,0.,0.)) ;
#37=DIRECTION('Vector Direction',(0.,0.,1.)) ;
#46=DIRECTION('Vector Direction',(-1.,0.,0.)) ;
#53=DIRECTION('Vector Direction',(0.,0.,1.)) ;
#60=DIRECTION('Vector Direction',(-1.,0.,0.)) ;
#72=DIRECTION('Axis2P3D Direction',(-1.,0.,0.)) ;
#73=DIRECTION('Axis2P3D XDirection',(0.,-1.,0.)) ;
#77=DIRECTION('Vector Direction',(0.,-1.,0.)) ;
#84=DIRECTION('Vector Direction',(0.,0.,1.)) ;
#91=DIRECTION('Vector Direction',(0.,-1.,0.)) ;
#103=DIRECTION('Axis2P3D Direction',(0.,1.,-0.)) ;
#104=DIRECTION('Axis2P3D XDirection',(-1.,0.,0.)) ;
#108=DIRECTION('Vector Direction',(-1.,0.,0.)) ;
#115=DIRECTION('Vector Direction',(0.,0.,1.)) ;
#122=DIRECTION('Vector Direction',(-1.,0.,0.)) ;
#134=DIRECTION('Axis2P3D Direction',(-1.,0.,0.)) ;
#135=DIRECTION('Axis2P3D XDirection',(0.,-1.,0.)) ;
#139=DIRECTION('Vector Direction',(0.,-1.,0.)) ;
#146=DIRECTION('Vector Direction',(0.,0.,1.)) ;
#153=DIRECTION('Vector Direction',(0.,-1.,0.)) ;
#165=DIRECTION('Axis2P3D Direction',(0.,-1.,0.)) ;
#166=DIRECTION('Axis2P3D XDirection',(1.,0.,0.)) ;
#170=DIRECTION('Vector Direction',(1.,0.,0.)) ;
#177=DIRECTION('Vector Direction',(0.,0.,1.)) ;
#184=DIRECTION('Vector Direction',(1.,0.,0.)) ;
#196=DIRECTION('Vector Direction',(0.,-1.,0.)) ;
#203=DIRECTION('Vector Direction',(0.,0.,1.)) ;
#210=DIRECTION('Vector Direction',(0.,-1.,0.)) ;
#222=DIRECTION('Axis2P3D Direction',(0.,-1.,0.)) ;
#223=DIRECTION('Axis2P3D XDirection',(1.,0.,0.)) ;
#227=DIRECTION('Vector Direction',(1.,0.,0.)) ;
#234=DIRECTION('Vector Direction',(0.,0.,1.)) ;
#241=DIRECTION('Vector Direction',(1.,0.,0.)) ;
#253=DIRECTION('Axis2P3D Direction',(1.,0.,0.)) ;
#254=DIRECTION('Axis2P3D XDirection',(0.,1.,0.)) ;
#258=DIRECTION('Vector Direction',(0.,1.,0.)) ;
#263=DIRECTION('Vector Direction',(0.,1.,0.)) ;
#275=DIRECTION('Axis2P3D Direction',(0.,0.,1.)) ;
#276=DIRECTION('Axis2P3D XDirection',(1.,0.,0.)) ;
#291=DIRECTION('Axis2P3D Direction',(0.,0.,1.)) ;
#292=DIRECTION('Axis2P3D XDirection',(1.,0.,0.)) ;
#307=SHAPE_REPRESENTATION_RELATIONSHIP(' ',' ',#19,#306) ;
#18=AXIS2_PLACEMENT_3D(' ',#17,$,$) ;
#34=AXIS2_PLACEMENT_3D('Plane Axis2P3D',#31,#32,#33) ;
#74=AXIS2_PLACEMENT_3D('Plane Axis2P3D',#71,#72,#73) ;
#105=AXIS2_PLACEMENT_3D('Plane Axis2P3D',#102,#103,#104) ;
#136=AXIS2_PLACEMENT_3D('Plane Axis2P3D',#133,#134,#135) ;
#167=AXIS2_PLACEMENT_3D('Plane Axis2P3D',#164,#165,#166) ;
#224=AXIS2_PLACEMENT_3D('Plane Axis2P3D',#221,#222,#223) ;
#255=AXIS2_PLACEMENT_3D('Plane Axis2P3D',#252,#253,#254) ;
#277=AXIS2_PLACEMENT_3D('Plane Axis2P3D',#274,#275,#276) ;
#293=AXIS2_PLACEMENT_3D('Plane Axis2P3D',#290,#291,#292) ;
#39=LINE('Line',#36,#38) ;
#48=LINE('Line',#45,#47) ;
#55=LINE('Line',#52,#54) ;
#62=LINE('Line',#59,#61) ;
#79=LINE('Line',#76,#78) ;
#86=LINE('Line',#83,#85) ;
#93=LINE('Line',#90,#92) ;
#110=LINE('Line',#107,#109) ;
#117=LINE('Line',#114,#116) ;
#124=LINE('Line',#121,#123) ;
#141=LINE('Line',#138,#140) ;
#148=LINE('Line',#145,#147) ;
#155=LINE('Line',#152,#154) ;
#172=LINE('Line',#169,#171) ;
#179=LINE('Line',#176,#178) ;
#186=LINE('Line',#183,#185) ;
#198=LINE('Line',#195,#197) ;
#205=LINE('Line',#202,#204) ;
#212=LINE('Line',#209,#211) ;
#229=LINE('Line',#226,#228) ;
#236=LINE('Line',#233,#235) ;
#243=LINE('Line',#240,#242) ;
#260=LINE('Line',#257,#259) ;
#265=LINE('Line',#262,#264) ;
#35=PLANE('',#34) ;
#75=PLANE('',#74) ;
#106=PLANE('',#105) ;
#137=PLANE('',#136) ;
#168=PLANE('',#167) ;
#225=PLANE('',#224) ;
#256=PLANE('',#255) ;
#278=PLANE('',#277) ;
#294=PLANE('',#293) ;
#44=EDGE_CURVE('',#41,#43,#39,.T.) ;
#51=EDGE_CURVE('',#41,#50,#48,.F.) ;
#58=EDGE_CURVE('',#50,#57,#55,.T.) ;
#63=EDGE_CURVE('',#43,#57,#62,.F.) ;
#82=EDGE_CURVE('',#50,#81,#79,.F.) ;
#89=EDGE_CURVE('',#81,#88,#86,.T.) ;
#94=EDGE_CURVE('',#57,#88,#93,.F.) ;
#113=EDGE_CURVE('',#81,#112,#110,.F.) ;
#120=EDGE_CURVE('',#112,#119,#117,.T.) ;
#125=EDGE_CURVE('',#88,#119,#124,.F.) ;
#144=EDGE_CURVE('',#112,#143,#141,.F.) ;
#151=EDGE_CURVE('',#143,#150,#148,.T.) ;
#156=EDGE_CURVE('',#119,#150,#155,.F.) ;
#175=EDGE_CURVE('',#143,#174,#172,.F.) ;
#182=EDGE_CURVE('',#174,#181,#179,.T.) ;
#187=EDGE_CURVE('',#150,#181,#186,.F.) ;
#201=EDGE_CURVE('',#174,#200,#198,.F.) ;
#208=EDGE_CURVE('',#200,#207,#205,.T.) ;
#213=EDGE_CURVE('',#181,#207,#212,.F.) ;
#232=EDGE_CURVE('',#200,#231,#229,.F.) ;
#239=EDGE_CURVE('',#231,#238,#236,.T.) ;
#244=EDGE_CURVE('',#207,#238,#243,.F.) ;
#261=EDGE_CURVE('',#231,#41,#260,.F.) ;
#266=EDGE_CURVE('',#238,#43,#265,.F.) ;
#30=CLOSED_SHELL('Closed Shell',(#70,#101,#132,#163,#194,#220,#251,#273,#289,#305)) ;
#65=ORIENTED_EDGE('',*,*,#44,.F.) ;
#66=ORIENTED_EDGE('',*,*,#51,.T.) ;
#67=ORIENTED_EDGE('',*,*,#58,.T.) ;
#68=ORIENTED_EDGE('',*,*,#63,.F.) ;
#96=ORIENTED_EDGE('',*,*,#58,.F.) ;
#97=ORIENTED_EDGE('',*,*,#82,.T.) ;
#98=ORIENTED_EDGE('',*,*,#89,.T.) ;
#99=ORIENTED_EDGE('',*,*,#94,.F.) ;
#127=ORIENTED_EDGE('',*,*,#89,.F.) ;
#128=ORIENTED_EDGE('',*,*,#113,.T.) ;
#129=ORIENTED_EDGE('',*,*,#120,.T.) ;
#130=ORIENTED_EDGE('',*,*,#125,.F.) ;
#158=ORIENTED_EDGE('',*,*,#120,.F.) ;
#159=ORIENTED_EDGE('',*,*,#144,.T.) ;
#160=ORIENTED_EDGE('',*,*,#151,.T.) ;
#161=ORIENTED_EDGE('',*,*,#156,.F.) ;
#189=ORIENTED_EDGE('',*,*,#151,.F.) ;
#190=ORIENTED_EDGE('',*,*,#175,.T.) ;
#191=ORIENTED_EDGE('',*,*,#182,.T.) ;
#192=ORIENTED_EDGE('',*,*,#187,.F.) ;
#215=ORIENTED_EDGE('',*,*,#182,.F.) ;
#216=ORIENTED_EDGE('',*,*,#201,.T.) ;
#217=ORIENTED_EDGE('',*,*,#208,.T.) ;
#218=ORIENTED_EDGE('',*,*,#213,.F.) ;
#246=ORIENTED_EDGE('',*,*,#208,.F.) ;
#247=ORIENTED_EDGE('',*,*,#232,.T.) ;
#248=ORIENTED_EDGE('',*,*,#239,.T.) ;
#249=ORIENTED_EDGE('',*,*,#244,.F.) ;
#268=ORIENTED_EDGE('',*,*,#239,.F.) ;
#269=ORIENTED_EDGE('',*,*,#261,.T.) ;
#270=ORIENTED_EDGE('',*,*,#44,.T.) ;
#271=ORIENTED_EDGE('',*,*,#266,.F.) ;
#280=ORIENTED_EDGE('',*,*,#261,.F.) ;
#281=ORIENTED_EDGE('',*,*,#232,.F.) ;
#282=ORIENTED_EDGE('',*,*,#201,.F.) ;
#283=ORIENTED_EDGE('',*,*,#175,.F.) ;
#284=ORIENTED_EDGE('',*,*,#144,.F.) ;
#285=ORIENTED_EDGE('',*,*,#113,.F.) ;
#286=ORIENTED_EDGE('',*,*,#82,.F.) ;
#287=ORIENTED_EDGE('',*,*,#51,.F.) ;
#296=ORIENTED_EDGE('',*,*,#63,.T.) ;
#297=ORIENTED_EDGE('',*,*,#94,.T.) ;
#298=ORIENTED_EDGE('',*,*,#125,.T.) ;
#299=ORIENTED_EDGE('',*,*,#156,.T.) ;
#300=ORIENTED_EDGE('',*,*,#187,.T.) ;
#301=ORIENTED_EDGE('',*,*,#213,.T.) ;
#302=ORIENTED_EDGE('',*,*,#244,.T.) ;
#303=ORIENTED_EDGE('',*,*,#266,.T.) ;
#64=EDGE_LOOP('',(#65,#66,#67,#68)) ;
#95=EDGE_LOOP('',(#96,#97,#98,#99)) ;
#126=EDGE_LOOP('',(#127,#128,#129,#130)) ;
#157=EDGE_LOOP('',(#158,#159,#160,#161)) ;
#188=EDGE_LOOP('',(#189,#190,#191,#192)) ;
#214=EDGE_LOOP('',(#215,#216,#217,#218)) ;
#245=EDGE_LOOP('',(#246,#247,#248,#249)) ;
#267=EDGE_LOOP('',(#268,#269,#270,#271)) ;
#279=EDGE_LOOP('',(#280,#281,#282,#283,#284,#285,#286,#287)) ;
#295=EDGE_LOOP('',(#296,#297,#298,#299,#300,#301,#302,#303)) ;
#21=MANIFOLD_SOLID_BREP('PartBody',#30) ;
#41=VERTEX_POINT('',#40) ;
#43=VERTEX_POINT('',#42) ;
#50=VERTEX_POINT('',#49) ;
#57=VERTEX_POINT('',#56) ;
#81=VERTEX_POINT('',#80) ;
#88=VERTEX_POINT('',#87) ;
#112=VERTEX_POINT('',#111) ;
#119=VERTEX_POINT('',#118) ;
#143=VERTEX_POINT('',#142) ;
#150=VERTEX_POINT('',#149) ;
#174=VERTEX_POINT('',#173) ;
#181=VERTEX_POINT('',#180) ;
#200=VERTEX_POINT('',#199) ;
#207=VERTEX_POINT('',#206) ;
#231=VERTEX_POINT('',#230) ;
#238=VERTEX_POINT('',#237) ;
#306=ADVANCED_BREP_SHAPE_REPRESENTATION('NONE',(#21),#16) ;
#70=ADVANCED_FACE('PartBody',(#69),#35,.F.) ;
#101=ADVANCED_FACE('PartBody',(#100),#75,.F.) ;
#132=ADVANCED_FACE('PartBody',(#131),#106,.F.) ;
#163=ADVANCED_FACE('PartBody',(#162),#137,.F.) ;
#194=ADVANCED_FACE('PartBody',(#193),#168,.F.) ;
#220=ADVANCED_FACE('PartBody',(#219),#75,.F.) ;
#251=ADVANCED_FACE('PartBody',(#250),#225,.F.) ;
#273=ADVANCED_FACE('PartBody',(#272),#256,.F.) ;
#289=ADVANCED_FACE('PartBody',(#288),#278,.F.) ;
#305=ADVANCED_FACE('PartBody',(#304),#294,.T.) ;
#4=APPLICATION_PROTOCOL_DEFINITION('international standard','ap242_managed_model_based_3d_engineering',2014,#1) ;
#22=COLOUR_RGB('Colour',0.823529411765,0.823529411765,1.) ;
#69=FACE_OUTER_BOUND('',#64,.T.) ;
#100=FACE_OUTER_BOUND('',#95,.T.) ;
#131=FACE_OUTER_BOUND('',#126,.T.) ;
#162=FACE_OUTER_BOUND('',#157,.T.) ;
#193=FACE_OUTER_BOUND('',#188,.T.) ;
#219=FACE_OUTER_BOUND('',#214,.T.) ;
#250=FACE_OUTER_BOUND('',#245,.T.) ;
#272=FACE_OUTER_BOUND('',#267,.T.) ;
#288=FACE_OUTER_BOUND('',#279,.T.) ;
#304=FACE_OUTER_BOUND('',#295,.T.) ;
#9=PRODUCT_CATEGORY_RELATIONSHIP(' ',' ',#7,#8) ;
#6=PRODUCT_DEFINITION_FORMATION_WITH_SPECIFIED_SOURCE('',' ',#5,.NOT_KNOWN.) ;
#20=SHAPE_DEFINITION_REPRESENTATION(#11,#19) ;
#12=(LENGTH_UNIT()NAMED_UNIT(*)SI_UNIT(.MILLI.,.METRE.)) ;
#13=(NAMED_UNIT(*)PLANE_ANGLE_UNIT()SI_UNIT($,.RADIAN.)) ;
#14=(NAMED_UNIT(*)SI_UNIT($,.STERADIAN.)SOLID_ANGLE_UNIT()) ;
#16=(GEOMETRIC_REPRESENTATION_CONTEXT(3)GLOBAL_UNCERTAINTY_ASSIGNED_CONTEXT((#15))GLOBAL_UNIT_ASSIGNED_CONTEXT((#12,#13,#14))REPRESENTATION_CONTEXT(' ',' ')) ;
ENDSEC;
END-ISO-10303-21;
