  0
SECTION
  2
HEADER
  9
$ACADVER
  1
AC1027
  9
$ACADMAINTVER
 70
    20
  9
$DWGCODEPAGE
  3
ANSI_1252
  9
$REQUIREDVERSIONS
160
                 0
  9
$INSBASE
 10
0.0
 20
0.0
 30
0.0
  9
$EXTMIN
 10
765.9843888952949
 20
1696.995878720055
 30
-0.00000001
  9
$EXTMAX
 10
1213.864353943102
 20
2093.999999999995
 30
0.00000001
  9
$LIMMIN
 10
0.0
 20
0.0
  9
$LIMMAX
 10
12.0
 20
9.0
  9
$ORTHOMODE
 70
     0
  9
$REGENMODE
 70
     1
  9
$FILLMODE
 70
     1
  9
$QTEXTMODE
 70
     0
  9
$MIRRTEXT
 70
     0
  9
$LTSCALE
 40
1.0
  9
$ATTMODE
 70
     1
  9
$TEXTSIZE
 40
0.2
  9
$TRACEWID
 40
0.05
  9
$TEXTSTYLE
  7
Standard
  9
$CLAYER
  8
0
  9
$CELTYPE
  6
ByLayer
  9
$CECOLOR
 62
   256
  9
$CELTSCALE
 40
1.0
  9
$DISPSILH
 70
     0
  9
$DIMSCALE
 40
1.0
  9
$DIMASZ
 40
0.18
  9
$DIMEXO
 40
0.0625
  9
$DIMDLI
 40
0.38
  9
$DIMRND
 40
0.0
  9
$DIMDLE
 40
0.0
  9
$DIMEXE
 40
0.18
  9
$DIMTP
 40
0.0
  9
$DIMTM
 40
0.0
  9
$DIMTXT
 40
0.18
  9
$DIMCEN
 40
0.09
  9
$DIMTSZ
 40
0.0
  9
$DIMTOL
 70
     0
  9
$DIMLIM
 70
     0
  9
$DIMTIH
 70
     1
  9
$DIMTOH
 70
     1
  9
$DIMSE1
 70
     0
  9
$DIMSE2
 70
     0
  9
$DIMTAD
 70
     0
  9
$DIMZIN
 70
     0
  9
$DIMBLK
  1

  9
$DIMASO
 70
     1
  9
$DIMSHO
 70
     1
  9
$DIMPOST
  1

  9
$DIMAPOST
  1

  9
$DIMALT
 70
     0
  9
$DIMALTD
 70
     2
  9
$DIMALTF
 40
25.4
  9
$DIMLFAC
 40
1.0
  9
$DIMTOFL
 70
     0
  9
$DIMTVP
 40
0.0
  9
$DIMTIX
 70
     0
  9
$DIMSOXD
 70
     0
  9
$DIMSAH
 70
     0
  9
$DIMBLK1
  1

  9
$DIMBLK2
  1

  9
$DIMSTYLE
  2
Standard
  9
$DIMCLRD
 70
     0
  9
$DIMCLRE
 70
     0
  9
$DIMCLRT
 70
     0
  9
$DIMTFAC
 40
1.0
  9
$DIMGAP
 40
0.09
  9
$DIMJUST
 70
     0
  9
$DIMSD1
 70
     0
  9
$DIMSD2
 70
     0
  9
$DIMTOLJ
 70
     1
  9
$DIMTZIN
 70
     0
  9
$DIMALTZ
 70
     0
  9
$DIMALTTZ
 70
     0
  9
$DIMUPT
 70
     0
  9
$DIMDEC
 70
     4
  9
$DIMTDEC
 70
     4
  9
$DIMALTU
 70
     2
  9
$DIMALTTD
 70
     2
  9
$DIMTXSTY
  7
Standard
  9
$DIMAUNIT
 70
     0
  9
$DIMADEC
 70
     0
  9
$DIMALTRND
 40
0.0
  9
$DIMAZIN
 70
     0
  9
$DIMDSEP
 70
    46
  9
$DIMATFIT
 70
     3
  9
$DIMFRAC
 70
     0
  9
$DIMLDRBLK
  1

  9
$DIMLUNIT
 70
     2
  9
$DIMLWD
 70
    -2
  9
$DIMLWE
 70
    -2
  9
$DIMTMOVE
 70
     0
  9
$DIMFXL
 40
1.0
  9
$DIMFXLON
 70
     0
  9
$DIMJOGANG
 40
0.7853981633974483
  9
$DIMTFILL
 70
     0
  9
$DIMTFILLCLR
 70
     0
  9
$DIMARCSYM
 70
     0
  9
$DIMLTYPE
  6

  9
$DIMLTEX1
  6

  9
$DIMLTEX2
  6

  9
$DIMTXTDIRECTION
 70
     0
  9
$LUNITS
 70
     2
  9
$LUPREC
 70
     4
  9
$SKETCHINC
 40
0.1
  9
$FILLETRAD
 40
0.0
  9
$AUNITS
 70
     0
  9
$AUPREC
 70
     0
  9
$MENU
  1
.
  9
$ELEVATION
 40
0.0
  9
$PELEVATION
 40
0.0
  9
$THICKNESS
 40
0.0
  9
$LIMCHECK
 70
     0
  9
$CHAMFERA
 40
0.0
  9
$CHAMFERB
 40
0.0
  9
$CHAMFERC
 40
0.0
  9
$CHAMFERD
 40
0.0
  9
$SKPOLY
 70
     0
  9
$TDCREATE
 40
2457561.673982246
  9
$TDUCREATE
 40
2457561.590648912
  9
$TDUPDATE
 40
2457561.673982246
  9
$TDUUPDATE
 40
2457561.590648912
  9
$TDINDWG
 40
0.0000047801
  9
$TDUSRTIMER
 40
0.0000047801
  9
$USRTIMER
 70
     1
  9
$ANGBASE
 50
0.0
  9
$ANGDIR
 70
     0
  9
$PDMODE
 70
     0
  9
$PDSIZE
 40
0.0
  9
$PLINEWID
 40
0.0
  9
$SPLFRAME
 70
     0
  9
$SPLINETYPE
 70
     6
  9
$SPLINESEGS
 70
     8
  9
$HANDSEED
  5
18C
  9
$SURFTAB1
 70
     6
  9
$SURFTAB2
 70
     6
  9
$SURFTYPE
 70
     6
  9
$SURFU
 70
     6
  9
$SURFV
 70
     6
  9
$UCSBASE
  2

  9
$UCSNAME
  2

  9
$UCSORG
 10
0.0
 20
0.0
 30
0.0
  9
$UCSXDIR
 10
1.0
 20
0.0
 30
0.0
  9
$UCSYDIR
 10
0.0
 20
1.0
 30
0.0
  9
$UCSORTHOREF
  2

  9
$UCSORTHOVIEW
 70
     0
  9
$UCSORGTOP
 10
0.0
 20
0.0
 30
0.0
  9
$UCSORGBOTTOM
 10
0.0
 20
0.0
 30
0.0
  9
$UCSORGLEFT
 10
0.0
 20
0.0
 30
0.0
  9
$UCSORGRIGHT
 10
0.0
 20
0.0
 30
0.0
  9
$UCSORGFRONT
 10
0.0
 20
0.0
 30
0.0
  9
$UCSORGBACK
 10
0.0
 20
0.0
 30
0.0
  9
$PUCSBASE
  2

  9
$PUCSNAME
  2

  9
$PUCSORG
 10
0.0
 20
0.0
 30
0.0
  9
$PUCSXDIR
 10
1.0
 20
0.0
 30
0.0
  9
$PUCSYDIR
 10
0.0
 20
1.0
 30
0.0
  9
$PUCSORTHOREF
  2

  9
$PUCSORTHOVIEW
 70
     0
  9
$PUCSORGTOP
 10
0.0
 20
0.0
 30
0.0
  9
$PUCSORGBOTTOM
 10
0.0
 20
0.0
 30
0.0
  9
$PUCSORGLEFT
 10
0.0
 20
0.0
 30
0.0
  9
$PUCSORGRIGHT
 10
0.0
 20
0.0
 30
0.0
  9
$PUCSORGFRONT
 10
0.0
 20
0.0
 30
0.0
  9
$PUCSORGBACK
 10
0.0
 20
0.0
 30
0.0
  9
$USERI1
 70
     0
  9
$USERI2
 70
     0
  9
$USERI3
 70
     0
  9
$USERI4
 70
     0
  9
$USERI5
 70
     0
  9
$USERR1
 40
0.0
  9
$USERR2
 40
0.0
  9
$USERR3
 40
0.0
  9
$USERR4
 40
0.0
  9
$USERR5
 40
0.0
  9
$WORLDVIEW
 70
     1
  9
$SHADEDGE
 70
     3
  9
$SHADEDIF
 70
    70
  9
$TILEMODE
 70
     1
  9
$MAXACTVP
 70
    64
  9
$PINSBASE
 10
0.0
 20
0.0
 30
0.0
  9
$PLIMCHECK
 70
     0
  9
$PEXTMIN
 10
1.000000000000000E+20
 20
1.000000000000000E+20
 30
1.000000000000000E+20
  9
$PEXTMAX
 10
-1.000000000000000E+20
 20
-1.000000000000000E+20
 30
-1.000000000000000E+20
  9
$PLIMMIN
 10
0.0
 20
0.0
  9
$PLIMMAX
 10
12.0
 20
9.0
  9
$UNITMODE
 70
     0
  9
$VISRETAIN
 70
     1
  9
$PLINEGEN
 70
     0
  9
$PSLTSCALE
 70
     1
  9
$TREEDEPTH
 70
  3020
  9
$CMLSTYLE
  2
Standard
  9
$CMLJUST
 70
     0
  9
$CMLSCALE
 40
1.0
  9
$PROXYGRAPHICS
 70
     1
  9
$MEASUREMENT
 70
     1
  9
$CELWEIGHT
370
    -1
  9
$ENDCAPS
280
     0
  9
$JOINSTYLE
280
     0
  9
$LWDISPLAY
290
     0
  9
$INSUNITS
 70
     4
  9
$HYPERLINKBASE
  1

  9
$STYLESHEET
  1

  9
$XEDIT
290
     1
  9
$CEPSNTYPE
380
     0
  9
$PSTYLEMODE
290
     1
  9
$FINGERPRINTGUID
  2
{69A4CC79-6B13-4406-B463-787E0FF275C5}
  9
$VERSIONGUID
  2
{CED91BBE-1CE9-4FE9-9C9A-B78C5E728963}
  9
$EXTNAMES
290
     1
  9
$PSVPSCALE
 40
0.0
  9
$OLESTARTUP
290
     0
  9
$SORTENTS
280
   127
  9
$INDEXCTL
280
     0
  9
$HIDETEXT
280
     1
  9
$XCLIPFRAME
280
     2
  9
$HALOGAP
280
     0
  9
$OBSCOLOR
 70
   257
  9
$OBSLTYPE
280
     0
  9
$INTERSECTIONDISPLAY
280
     0
  9
$INTERSECTIONCOLOR
 70
   257
  9
$DIMASSOC
280
     2
  9
$PROJECTNAME
  1

  9
$CAMERADISPLAY
290
     0
  9
$LENSLENGTH
 40
50.0
  9
$CAMERAHEIGHT
 40
0.0
  9
$STEPSPERSEC
 40
2.0
  9
$STEPSIZE
 40
6.0
  9
$3DDWFPREC
 40
2.0
  9
$PSOLWIDTH
 40
0.25
  9
$PSOLHEIGHT
 40
4.0
  9
$LOFTANG1
 40
1.570796326794896
  9
$LOFTANG2
 40
1.570796326794896
  9
$LOFTMAG1
 40
0.0
  9
$LOFTMAG2
 40
0.0
  9
$LOFTPARAM
 70
     7
  9
$LOFTNORMALS
280
     1
  9
$LATITUDE
 40
37.795
  9
$LONGITUDE
 40
-122.394
  9
$NORTHDIRECTION
 40
0.0
  9
$TIMEZONE
 70
 -8000
  9
$LIGHTGLYPHDISPLAY
280
     1
  9
$TILEMODELIGHTSYNCH
280
     1
  9
$CMATERIAL
347
11
  9
$SOLIDHIST
280
     0
  9
$SHOWHIST
280
     1
  9
$DWFFRAME
280
     2
  9
$DGNFRAME
280
     0
  9
$REALWORLDSCALE
290
     1
  9
$INTERFERECOLOR
 62
     1
  9
$INTERFEREOBJVS
345
33
  9
$INTERFEREVPVS
346
30
  9
$CSHADOW
280
     0
  9
$SHADOWPLANELOCATION
 40
0.0
  0
ENDSEC
  0
SECTION
  2
CLASSES
  0
CLASS
  1
ACDBDICTIONARYWDFLT
  2
AcDbDictionaryWithDefault
  3
ObjectDBX Classes
 90
        0
 91
        1
280
     0
281
     0
  0
CLASS
  1
MATERIAL
  2
AcDbMaterial
  3
ObjectDBX Classes
 90
     1153
 91
        3
280
     0
281
     0
  0
CLASS
  1
VISUALSTYLE
  2
AcDbVisualStyle
  3
ObjectDBX Classes
 90
     4095
 91
       24
280
     0
281
     0
  0
CLASS
  1
SCALE
  2
AcDbScale
  3
ObjectDBX Classes
 90
     1153
 91
       17
280
     0
281
     0
  0
CLASS
  1
TABLESTYLE
  2
AcDbTableStyle
  3
ObjectDBX Classes
 90
     4095
 91
        1
280
     0
281
     0
  0
CLASS
  1
MLEADERSTYLE
  2
AcDbMLeaderStyle
  3
ACDB_MLEADERSTYLE_CLASS
 90
     4095
 91
        1
280
     0
281
     0
  0
CLASS
  1
ACDBSECTIONVIEWSTYLE
  2
AcDbSectionViewStyle
  3
ObjectDBX Classes
 90
     1025
 91
        1
280
     0
281
     0
  0
CLASS
  1
ACDBDETAILVIEWSTYLE
  2
AcDbDetailViewStyle
  3
ObjectDBX Classes
 90
     1025
 91
        1
280
     0
281
     0
  0
CLASS
  1
RASTERVARIABLES
  2
AcDbRasterVariables
  3
ISM
 90
        0
 91
        1
280
     0
281
     0
  0
CLASS
  1
DICTIONARYVAR
  2
AcDbDictionaryVar
  3
ObjectDBX Classes
 90
        0
 91
        5
280
     0
281
     0
  0
CLASS
  1
CELLSTYLEMAP
  2
AcDbCellStyleMap
  3
ObjectDBX Classes
 90
     1152
 91
        2
280
     0
281
     0
  0
CLASS
  1
SORTENTSTABLE
  2
AcDbSortentsTable
  3
ObjectDBX Classes
 90
        0
 91
        1
280
     0
281
     0
  0
ENDSEC
  0
SECTION
  2
TABLES
  0
TABLE
  2
VPORT
  5
8
330
0
100
AcDbSymbolTable
 70
     1
  0
VPORT
  5
57
330
8
100
AcDbSymbolTableRecord
100
AcDbViewportTableRecord
  2
*Active
 70
     0
 10
0.0
 20
0.0
 11
1.0
 21
1.0
 12
989.9243714191984
 22
1895.497939360025
 13
0.0
 23
0.0
 14
1.0
 24
1.0
 15
0.0
 25
0.0
 16
0.0
 26
0.0
 36
1.0
 17
0.0
 27
0.0
 37
0.0
 40
397.0041212799397
 41
1.128149409643012
 42
50.0
 43
0.0
 44
0.0
 50
0.0
 51
0.0
 71
     0
 72
  1000
 73
     1
 74
     1
 75
     0
 76
     0
 77
     0
 78
     0
281
     0
 65
     1
110
0.0
120
0.0
130
0.0
111
1.0
121
0.0
131
0.0
112
0.0
122
1.0
132
0.0
 79
     0
146
0.0
 60
     3
 61
     5
292
     1
282
     1
141
0.0
142
0.0
 63
   250
421
  3355443
  0
ENDTAB
  0
TABLE
  2
LTYPE
  5
5
330
0
100
AcDbSymbolTable
 70
     3
  0
LTYPE
  5
5B
330
5
100
AcDbSymbolTableRecord
100
AcDbLinetypeTableRecord
  2
ByBlock
 70
     0
  3

 72
    65
 73
     0
 40
0.0
  0
LTYPE
  5
5C
330
5
100
AcDbSymbolTableRecord
100
AcDbLinetypeTableRecord
  2
ByLayer
 70
     0
  3

 72
    65
 73
     0
 40
0.0
  0
LTYPE
  5
5D
330
5
100
AcDbSymbolTableRecord
100
AcDbLinetypeTableRecord
  2
Continuous
 70
     0
  3
Solid line
 72
    65
 73
     0
 40
0.0
  0
LTYPE
  5
69
330
5
100
AcDbSymbolTableRecord
100
AcDbLinetypeTableRecord
  2
PHANTOM2
 70
     0
  3
___ _ _ ___ _ _ ___ _ _ ___ _ _
 72
    65
 73
     6
 40
1.25
 49
0.625
 74
     0
 49
-0.125
 74
     0
 49
0.125
 74
     0
 49
-0.125
 74
     0
 49
0.125
 74
     0
 49
-0.125
 74
     0
  0
LTYPE
  5
86
330
5
100
AcDbSymbolTableRecord
100
AcDbLinetypeTableRecord
  2
Nascosto 1_5 mm
 70
     0
  3

 72
    65
 73
     2
 40
2.2
 49
1.5
 74
     0
 49
-0.7000000000000001
 74
     0
  0
ENDTAB
  0
TABLE
  2
LAYER
  5
2
330
0
100
AcDbSymbolTable
 70
     3
  0
LAYER
  5
54
330
2
100
AcDbSymbolTableRecord
100
AcDbLayerTableRecord
  2
0
 70
     0
 62
     7
  6
Continuous
370
    -3
390
F
347
21
348
0
  0
LAYER
  5
85
330
2
100
AcDbSymbolTableRecord
100
AcDbLayerTableRecord
  2
P-SANR-FIXT
 70
     0
 62
     6
  6
Continuous
370
    18
390
F
347
21
348
0
  0
ENDTAB
  0
TABLE
  2
STYLE
  5
3
330
0
100
AcDbSymbolTable
 70
     2
  0
STYLE
  5
55
330
3
100
AcDbSymbolTableRecord
100
AcDbTextStyleTableRecord
  2
Standard
 70
     0
 40
0.0
 41
1.0
 50
0.0
 71
     0
 42
0.2
  3
txt
  4

  0
STYLE
  5
5A
330
3
100
AcDbSymbolTableRecord
100
AcDbTextStyleTableRecord
  2
Annotative
 70
     0
 40
0.0
 41
1.0
 50
0.0
 71
     0
 42
0.2
  3
txt
  4

1001
AcadAnnotative
1000
AnnotativeData
1002
{
1070
     1
1070
     1
1002
}
  0
ENDTAB
  0
TABLE
  2
VIEW
  5
6
330
0
100
AcDbSymbolTable
 70
     0
  0
ENDTAB
  0
TABLE
  2
UCS
  5
7
330
0
100
AcDbSymbolTable
 70
     0
  0
ENDTAB
  0
TABLE
  2
APPID
  5
9
330
0
100
AcDbSymbolTable
 70
     3
  0
APPID
  5
56
330
9
100
AcDbSymbolTableRecord
100
AcDbRegAppTableRecord
  2
ACAD
 70
     0
  0
APPID
  5
5E
330
9
100
AcDbSymbolTableRecord
100
AcDbRegAppTableRecord
  2
AcadAnnotative
 70
     0
  0
APPID
  5
79
330
9
100
AcDbSymbolTableRecord
100
AcDbRegAppTableRecord
  2
REVIT
 70
     0
  0
ENDTAB
  0
TABLE
  2
DIMSTYLE
  5
A
330
0
100
AcDbSymbolTable
 70
     2
100
AcDbDimStyleTable
 71
     0
  0
DIMSTYLE
105
58
330
A
100
AcDbSymbolTableRecord
100
AcDbDimStyleTableRecord
  2
Standard
 70
     0
340
55
  0
DIMSTYLE
105
59
330
A
100
AcDbSymbolTableRecord
100
AcDbDimStyleTableRecord
  2
Annotative
 70
     0
340
55
1001
AcadAnnotative
1000
AnnotativeData
1002
{
1070
     1
1070
     1
1002
}
  0
ENDTAB
  0
TABLE
  2
BLOCK_RECORD
  5
1
330
0
100
AcDbSymbolTable
 70
     4
  0
BLOCK_RECORD
  5
71
102
{ACAD_XDICTIONARY
360
187
102
}
330
1
100
AcDbSymbolTableRecord
100
AcDbBlockTableRecord
  2
*Model_Space
340
74
 70
     0
280
     1
281
     0
  0
BLOCK_RECORD
  5
6D
330
1
100
AcDbSymbolTableRecord
100
AcDbBlockTableRecord
  2
*Paper_Space
340
70
 70
     0
280
     1
281
     0
  0
BLOCK_RECORD
  5
75
330
1
100
AcDbSymbolTableRecord
100
AcDbBlockTableRecord
  2
*Paper_Space0
340
78
 70
     0
280
     1
281
     0
  0
BLOCK_RECORD
  5
87
330
1
100
AcDbSymbolTableRecord
100
AcDbBlockTableRecord
  2
Automatic flow rate regulator valve_Caleffi_121 DN15 - 1_2__-859151-Est - Idraulica
340
0
102
{BLKREFS
331
FE
102
}
 70
     0
280
     1
281
     0
  0
BLOCK_RECORD
  5
FF
330
1
100
AcDbSymbolTableRecord
100
AcDbBlockTableRecord
  2
Automatic flow rate regulator valve_Caleffi_121 DN15 - 1_2__-V1-Est - Idraulica
340
0
102
{BLKREFS
331
12D
102
}
 70
     0
280
     1
281
     0
  0
BLOCK_RECORD
  5
12E
330
1
100
AcDbSymbolTableRecord
100
AcDbBlockTableRecord
  2
Automatic flow rate regulator valve_Caleffi_121 DN15 - 1_2__-V2-Est - Idraulica
340
0
102
{BLKREFS
331
181
102
}
 70
     0
280
     1
281
     0
  0
ENDTAB
  0
ENDSEC
  0
SECTION
  2
BLOCKS
  0
BLOCK
  5
72
330
71
100
AcDbEntity
  8
0
100
AcDbBlockBegin
  2
*Model_Space
 70
     0
 10
0.0
 20
0.0
 30
0.0
  3
*Model_Space
  1

  0
ENDBLK
  5
73
330
71
100
AcDbEntity
  8
0
100
AcDbBlockEnd
  0
BLOCK
  5
6E
330
6D
100
AcDbEntity
 67
     1
  8
0
100
AcDbBlockBegin
  2
*Paper_Space
 70
     0
 10
0.0
 20
0.0
 30
0.0
  3
*Paper_Space
  1

  0
ENDBLK
  5
6F
330
6D
100
AcDbEntity
 67
     1
  8
0
100
AcDbBlockEnd
  0
BLOCK
  5
76
330
75
100
AcDbEntity
 67
     1
  8
0
100
AcDbBlockBegin
  2
*Paper_Space0
 70
     0
 10
0.0
 20
0.0
 30
0.0
  3
*Paper_Space0
  1

  0
ENDBLK
  5
77
330
75
100
AcDbEntity
 67
     1
  8
0
100
AcDbBlockEnd
  0
BLOCK
  5
FC
330
87
100
AcDbEntity
  8
0
100
AcDbBlockBegin
  2
Automatic flow rate regulator valve_Caleffi_121 DN15 - 1_2__-859151-Est - Idraulica
 70
     0
 10
0.0
 20
0.0
 30
0.0
  3
Automatic flow rate regulator valve_Caleffi_121 DN15 - 1_2__-859151-Est - Idraulica
  1

  0
LINE
  5
88
330
87
100
AcDbEntity
  8
P-SANR-FIXT
100
AcDbLine
 10
771.9094534255947
 20
2081.018546870589
 30
0.0
 11
765.9843888952967
 21
2081.018546870589
 31
0.0
  0
LINE
  5
89
330
87
100
AcDbEntity
  8
P-SANR-FIXT
100
AcDbLine
 10
765.9843888952967
 20
2076.01854687059
 30
0.0
 11
771.6963852437766
 21
2076.01854687059
 31
0.0
  0
LINE
  5
8A
330
87
100
AcDbEntity
  8
P-SANR-FIXT
100
AcDbLine
 10
771.962640348721
 20
2058.799999999995
 30
0.0
 11
771.962640348721
 21
2057.799999999995
 31
0.0
  0
LINE
  5
8B
330
87
100
AcDbEntity
  8
P-SANR-FIXT
100
AcDbLine
 10
771.962640348721
 20
2057.799999999995
 30
0.0
 11
770.9626403487211
 21
2057.799999999995
 31
0.0
  0
LINE
  5
8C
330
87
100
AcDbEntity
  8
P-SANR-FIXT
100
AcDbLine
 10
770.9626403487211
 20
2057.799999999995
 30
0.0
 11
770.962640348721
 21
2027.999999999995
 31
0.0
  0
ARC
  5
8D
330
87
100
AcDbEntity
  8
P-SANR-FIXT
100
AcDbCircle
 10
775.962640348721
 20
2027.999999999995
 30
0.0
 40
5.0
100
AcDbArc
 50
180.0
 51
269.9999999999983
  0
LINE
  5
8E
330
87
100
AcDbEntity
  8
P-SANR-FIXT
100
AcDbLine
 10
775.9626403487209
 20
2022.999999999996
 30
0.0
 11
853.1626403487209
 21
2022.999999999995
 31
0.0
  0
ARC
  5
8F
330
87
100
AcDbEntity
  8
P-SANR-FIXT
100
AcDbCircle
 10
853.1626403487209
 20
2027.999999999995
 30
0.0
 40
5.000000000000113
100
AcDbArc
 50
269.9999999999997
 51
0.0
  0
LINE
  5
90
330
87
100
AcDbEntity
  8
P-SANR-FIXT
100
AcDbLine
 10
858.1626403487211
 20
2027.999999999995
 30
0.0
 11
858.1626403487211
 21
2057.799999999994
 31
0.0
  0
LINE
  5
91
330
87
100
AcDbEntity
  8
P-SANR-FIXT
100
AcDbLine
 10
858.1626403487211
 20
2057.799999999994
 30
0.0
 11
857.1626403487211
 21
2057.799999999994
 31
0.0
  0
LINE
  5
92
330
87
100
AcDbEntity
  8
P-SANR-FIXT
100
AcDbLine
 10
857.1626403487211
 20
2057.799999999994
 30
0.0
 11
857.1626403487211
 21
2058.799999999995
 31
0.0
  0
LINE
  5
93
330
87
100
AcDbEntity
  8
P-SANR-FIXT
100
AcDbLine
 10
857.1626403487211
 20
2058.799999999995
 30
0.0
 11
771.962640348721
 21
2058.799999999995
 31
0.0
  0
LINE
  5
94
330
87
100
AcDbEntity
  8
P-SANR-FIXT
100
AcDbLine
 10
765.984388895295
 20
2076.018546870589
 30
0.0
 11
765.984388895295
 21
2081.018546870589
 31
0.0
  0
LINE
  5
95
330
87
100
AcDbEntity
  8
P-SANR-FIXT
100
AcDbLine
 10
858.1626403487231
 20
2058.799999999996
 30
0.0
 11
856.7240329057412
 21
2092.559321328633
 31
0.0
  0
LINE
  5
96
330
87
100
AcDbEntity
  8
P-SANR-FIXT
100
AcDbLine
 10
772.4012477917044
 20
2092.559321328633
 30
0.0
 11
770.9626403487228
 21
2058.799999999996
 31
0.0
  0
LINE
  5
97
330
87
100
AcDbEntity
  8
P-SANR-FIXT
100
AcDbLine
 10
852.1626403487211
 20
2093.999999999994
 30
0.0
 11
855.7408449053946
 21
2093.999999999994
 31
0.0
  0
LINE
  5
98
330
87
100
AcDbEntity
  8
P-SANR-FIXT
100
AcDbLine
 10
773.3844357920477
 20
2093.999999999995
 30
0.0
 11
776.9626403487211
 21
2093.999999999995
 31
0.0
  0
LINE
  5
99
330
87
100
AcDbEntity
  8
P-SANR-FIXT
100
AcDbLine
 10
776.9626403487211
 20
2093.999999999995
 30
0.0
 11
852.1626403487212
 21
2093.999999999994
 31
0.0
  0
LINE
  5
9A
330
87
100
AcDbEntity
  8
P-SANR-FIXT
100
AcDbLine
 10
858.1626403487211
 20
2058.799999999995
 30
0.0
 11
857.1791383225908
 21
2058.799999999995
 31
0.0
  0
SPLINE
  5
9B
330
87
100
AcDbEntity
  8
P-SANR-FIXT
100
AcDbSpline
210
0.0
220
0.0
230
1.0
 70
     8
 71
     3
 72
    11
 73
     7
 74
     0
 42
0.000000001
 43
0.0000000001
 40
-1.0
 40
-1.0
 40
-1.0
 40
-1.0
 40
-0.7857142857142857
 40
-0.5714285714285714
 40
-0.2857142857142857
 40
0.0
 40
0.0
 40
0.0
 40
0.0
 10
856.7240329057394
 20
2092.559321328631
 30
0.0
 10
856.7243148064161
 20
2092.55395468801
 30
0.0
 10
856.5531761777169
 20
2092.547029471147
 30
0.0
 10
855.7271984626526
 20
2092.548660698948
 30
0.0
 10
854.2418786112232
 20
2092.567849481743
 30
0.0
 10
852.8952611468904
 20
2092.591878664051
 30
0.0
 10
852.2220657745863
 20
2092.605483339692
 30
0.0
  0
LINE
  5
9C
330
87
100
AcDbEntity
  8
P-SANR-FIXT
100
AcDbLine
 10
771.9461423748513
 20
2058.799999999995
 30
0.0
 11
770.9626403487211
 21
2058.799999999995
 31
0.0
  0
LWPOLYLINE
  5
9D
330
87
100
AcDbEntity
  8
P-SANR-FIXT
100
AcDbPolyline
 90
        8
 70
   128
 43
0.0
 10
776.9032400411604
 20
2092.606072782572
 10
775.9016560354441
 20
2092.586501494929
 10
774.9500205966279
 20
2092.570368259294
 10
774.0961073449742
 20
2092.558106355347
 10
773.3829054000307
 20
2092.550530765528
 10
772.846388325393
 20
2092.548161789756
 10
772.5136048453463
 20
2092.551164776406
 10
772.4012477917027
 20
2092.559321328632
  0
LINE
  5
9E
330
87
100
AcDbEntity
  8
P-SANR-FIXT
100
AcDbLine
 10
853.6626403487211
 20
2058.799999999995
 30
0.0
 11
775.462640348721
 21
2058.799999999995
 31
0.0
  0
LINE
  5
9F
330
87
100
AcDbEntity
  8
P-SANR-FIXT
100
AcDbLine
 10
776.9032400411605
 20
2092.606072782572
 30
0.0
 11
852.2220657745863
 21
2092.606072782572
 31
0.0
  0
LINE
  5
A0
330
87
100
AcDbEntity
  8
P-SANR-FIXT
100
AcDbLine
 10
830.6664074431106
 20
2018.999999999996
 30
0.0
 11
830.6664074431106
 21
2022.999999999996
 31
0.0
  0
LINE
  5
A1
330
87
100
AcDbEntity
  8
P-SANR-FIXT
100
AcDbLine
 10
823.6664074431104
 20
2022.999999999996
 30
0.0
 11
823.6664074431104
 21
2020.499999999996
 31
0.0
  0
LINE
  5
A2
330
87
100
AcDbEntity
  8
P-SANR-FIXT
100
AcDbLine
 10
792.6664074431122
 20
1975.999999999967
 30
0.0
 11
795.708754354089
 21
1975.463552154886
 31
0.0
  0
LINE
  5
A3
330
87
100
AcDbEntity
  8
P-SANR-FIXT
100
AcDbLine
 10
830.6240605321317
 20
1975.463552154886
 30
0.0
 11
833.6664074431084
 21
1975.999999999967
 31
0.0
  0
LINE
  5
A4
330
87
100
AcDbEntity
  8
P-SANR-FIXT
100
AcDbLine
 10
833.6664074431105
 20
1978.699999999995
 30
0.0
 11
833.6664074431105
 21
1984.499999999996
 31
0.0
  0
LINE
  5
A5
330
87
100
AcDbEntity
  8
P-SANR-FIXT
100
AcDbLine
 10
792.6664074431101
 20
1984.499999999996
 30
0.0
 11
792.6664074431101
 21
1978.699999999995
 31
0.0
  0
LINE
  5
A6
330
87
100
AcDbEntity
  8
P-SANR-FIXT
100
AcDbLine
 10
841.2984582506792
 20
2015.999999999996
 30
0.0
 11
840.1437577122999
 21
2015.999999999996
 31
0.0
  0
LINE
  5
A7
330
87
100
AcDbEntity
  8
P-SANR-FIXT
100
AcDbLine
 10
840.1437577122999
 20
1983.999999999996
 30
0.0
 11
841.2984582506792
 21
1983.999999999996
 31
0.0
  0
LINE
  5
A8
330
87
100
AcDbEntity
  8
P-SANR-FIXT
100
AcDbLine
 10
839.2777323085155
 20
2015.499999999996
 30
0.0
 11
833.2374752549759
 21
2015.499999999996
 31
0.0
  0
LINE
  5
A9
330
87
100
AcDbEntity
  8
P-SANR-FIXT
100
AcDbLine
 10
793.0953396312447
 20
2015.499999999996
 30
0.0
 11
787.0550825777052
 21
2015.499999999996
 31
0.0
  0
LINE
  5
AA
330
87
100
AcDbEntity
  8
P-SANR-FIXT
100
AcDbLine
 10
787.0550825777052
 20
1984.499999999996
 30
0.0
 11
792.6664074431101
 21
1984.499999999996
 31
0.0
  0
LINE
  5
AB
330
87
100
AcDbEntity
  8
P-SANR-FIXT
100
AcDbLine
 10
833.6664074431105
 20
1984.499999999996
 30
0.0
 11
839.2777323085155
 21
1984.499999999996
 31
0.0
  0
LINE
  5
AC
330
87
100
AcDbEntity
  8
P-SANR-FIXT
100
AcDbLine
 10
819.6664074431105
 20
2020.479101644633
 30
0.0
 11
819.6664074431105
 21
2022.999999999996
 31
0.0
  0
LINE
  5
AD
330
87
100
AcDbEntity
  8
P-SANR-FIXT
100
AcDbLine
 10
806.6664074431106
 20
2022.999999999996
 30
0.0
 11
806.6664074431106
 21
2020.479101644633
 31
0.0
  0
LINE
  5
AE
330
87
100
AcDbEntity
  8
P-SANR-FIXT
100
AcDbLine
 10
796.8164074431103
 20
2022.999999999996
 30
0.0
 11
796.8164074431103
 21
2019.710253348417
 31
0.0
  0
LWPOLYLINE
  5
AF
330
87
100
AcDbEntity
  8
P-SANR-FIXT
100
AcDbPolyline
 90
       28
 70
   128
 43
0.0
 10
840.1437577122999
 20
1983.999999999996
 10
840.1230703172547
 20
1984.034231832612
 10
840.1010305617246
 20
1984.06760900826
 10
840.077673704617
 20
1984.100078130578
 10
840.0530371119208
 20
1984.131587255897
 10
840.0271601969286
 20
1984.162085976338
 10
840.0000843571842
 20
1984.191525500454
 10
839.9718529082559
 20
1984.219858731287
 10
839.9425110144388
 20
1984.247040341712
 10
839.9121056165043
 20
1984.27302684695
 10
839.8806853566027
 20
1984.297776674136
 10
839.8483005004472
 20
1984.321250228827
 10
839.8150028568995
 20
1984.343409958343
 10
839.7808456950858
 20
1984.364220411843
 10
839.7458836591789
 20
1984.383648297042
 10
839.7101726809779
 20
1984.401662533467
 10
839.6737698904297
 20
1984.418234302182
 10
839.6367335242342
 20
1984.433337091894
 10
839.5991228326764
 20
1984.44694674136
 10
839.5609979848396
 20
1984.459041478044
 10
839.5224199723475
 20
1984.469601952948
 10
839.4834505117904
 20
1984.478611271564
 10
839.4441519459922
 20
1984.486055020906
 10
839.4045871442752
 20
1984.491921292561
 10
839.3648194018819
 20
1984.496200701746
 10
839.3249123387167
 20
1984.498886402321
 10
839.2849297975676
 20
1984.499974097736
 10
839.2777323085155
 20
1984.499999999996
  0
LWPOLYLINE
  5
B0
330
87
100
AcDbEntity
  8
P-SANR-FIXT
100
AcDbPolyline
 90
       28
 70
   128
 43
0.0
 10
839.2777323085155
 20
2015.499999999996
 10
839.3177216427021
 20
2015.500799893335
 10
839.3576470024846
 20
2015.503198293694
 10
839.3974445158045
 20
2015.507191364142
 10
839.4370505151298
 20
2015.512772716621
 10
839.4764016393105
 20
2015.519933422154
 10
839.5154349349425
 20
2015.528662025144
 10
839.5540879570797
 20
2015.538944561685
 10
839.5922988691316
 20
2015.550764581913
 10
839.6300065417905
 20
2015.564103176318
 10
839.6671506508241
 20
2015.578939005993
 10
839.7036717735815
 20
2015.595248336776
 10
839.739511484057
 20
2015.613005077216
 10
839.7746124463592
 20
2015.632180820318
 10
839.8089185064364
 20
2015.652744888983
 10
839.8423747819107
 20
2015.674664385086
 10
839.8749277498778
 20
2015.697904242112
 10
839.9065253325339
 20
2015.722427281245
 10
839.9371169804869
 20
2015.748194270855
 10
839.966653753626
 20
2015.775163989255
 10
839.9950883994151
 20
2015.803293290649
 10
840.0223754284864
 20
2015.832537174155
 10
840.0484711874145
 20
2015.862848855798
 10
840.0733339285519
 20
2015.894179843352
 10
840.0969238768166
 20
2015.926480013924
 10
840.1192032933234
 20
2015.959697694128
 10
840.1401365357589
 20
2015.993779742763
 10
840.1437577122999
 20
2015.999999999996
  0
LWPOLYLINE
  5
B1
330
87
100
AcDbEntity
  8
P-SANR-FIXT
100
AcDbPolyline
 90
       21
 70
   128
 43
0.0
 10
793.0953396312447
 20
2015.499999999996
 10
793.2009690667537
 20
2015.780767560434
 10
793.3177417177842
 20
2016.057086485973
 10
793.4454707730042
 20
2016.328514725278
 10
793.5839518931731
 20
2016.594618051069
 10
793.7329635380396
 20
2016.854970754789
 10
793.8922673207594
 20
2017.109156327651
 10
794.061608389263
 20
2017.356768126962
 10
794.2407158339651
 20
2017.597410026664
 10
794.4293031211617
 20
2017.830697051052
 10
794.6270685514232
 20
2018.056255990652
 10
794.8336957422488
 20
2018.273725999277
 10
795.0488541342114
 20
2018.482759171305
 10
795.2721995197813
 20
2018.683021098253
 10
795.503374593987
 20
2018.874191403755
 10
795.7420095260238
 20
2019.055964256106
 10
795.9877225509068
 20
2019.228048857517
 10
796.240120580212
 20
2019.390169909336
 10
796.4987998309347
 20
2019.542068052464
 10
796.7633464714556
 20
2019.683500282273
 10
796.8164074431103
 20
2019.710253348417
  0
LWPOLYLINE
  5
B2
330
87
100
AcDbEntity
  8
P-SANR-FIXT
100
AcDbPolyline
 90
       16
 70
   128
 43
0.0
 10
830.6664074431106
 20
2018.999999999996
 10
830.9027439282045
 20
2018.815248636122
 10
831.1315032852871
 20
2018.621194114951
 10
831.3523195481863
 20
2018.418146882319
 10
831.5648394579861
 20
2018.206431770486
 10
831.7687230281663
 20
2017.986387478466
 10
831.9636440885073
 20
2017.758366030186
 10
832.1492908068934
 20
2017.522732211322
 10
832.325366188178
 20
2017.279862985718
 10
832.4915885493117
 20
2017.030146892325
 10
832.6476919699754
 20
2016.773983423624
 10
832.7934267179962
 20
2016.511782386519
 10
832.9285596488661
 20
2016.243963246735
 10
833.0528745787223
 20
2015.970954457765
 10
833.1661726301961
 20
2015.693192775433
 10
833.2374752549759
 20
2015.499999999996
  0
LWPOLYLINE
  5
B3
330
87
100
AcDbEntity
  8
P-SANR-FIXT
100
AcDbPolyline
 90
       17
 70
   128
 43
0.0
 10
806.6672320377261
 20
2020.499999999996
 10
806.2507347615159
 20
2020.499999999996
 10
805.8160686805349
 20
2020.499999999996
 10
805.393161573585
 20
2020.499999999996
 10
804.9826900018226
 20
2020.499999999996
 10
804.5853106321995
 20
2020.499999999996
 10
804.2016591869376
 20
2020.499999999996
 10
803.8323494265078
 20
2020.499999999996
 10
803.4779721677452
 20
2020.499999999996
 10
803.139094338667
 20
2020.499999999996
 10
802.81625807151
 20
2020.499999999996
 10
802.5099798354334
 20
2020.499999999996
 10
802.2207496102792
 20
2020.499999999996
 10
801.9490301027085
 20
2020.499999999996
 10
801.6952560059692
 20
2020.499999999996
 10
801.4598333044812
 20
2020.499999999996
 10
801.3683750357028
 20
2020.499999999996
  0
LWPOLYLINE
  5
B4
330
87
100
AcDbEntity
  8
P-SANR-FIXT
100
AcDbPolyline
 90
       21
 70
   128
 43
0.0
 10
825.7646217288247
 20
2020.499999999996
 10
825.6262977848427
 20
2020.499999999996
 10
825.4680406742822
 20
2020.499999999996
 10
825.2901035747605
 20
2020.499999999996
 10
825.0927711476785
 20
2020.499999999996
 10
824.8763590828245
 20
2020.499999999996
 10
824.6412135933368
 20
2020.499999999996
 10
824.3877108618367
 20
2020.499999999996
 10
824.116256438617
 20
2020.499999999996
 10
823.8272845928479
 20
2020.499999999996
 10
823.5212576178383
 20
2020.499999999996
 10
823.1986650914659
 20
2020.499999999996
 10
822.860023092957
 20
2020.499999999996
 10
822.5058733772696
 20
2020.499999999996
 10
822.1367825084007
 20
2020.499999999996
 10
821.753340953005
 20
2020.499999999996
 10
821.3561621357751
 20
2020.499999999996
 10
820.9458814580914
 20
2020.499999999996
 10
820.5231552815162
 20
2020.499999999996
 10
820.0886598777554
 20
2020.499999999996
 10
819.6655757298087
 20
2020.499999999996
  0
LINE
  5
B5
330
87
100
AcDbEntity
  8
P-SANR-FIXT
100
AcDbLine
 10
792.6664074431122
 20
1978.699999999995
 30
0.0
 11
792.6664074431122
 21
1975.999999999967
 31
0.0
  0
LINE
  5
B6
330
87
100
AcDbEntity
  8
P-SANR-FIXT
100
AcDbLine
 10
833.6664074431084
 20
1975.999999999967
 30
0.0
 11
833.6664074431084
 21
1978.699999999995
 31
0.0
  0
LWPOLYLINE
  5
B7
330
87
100
AcDbEntity
  8
P-SANR-FIXT
100
AcDbPolyline
 90
       28
 70
   128
 43
0.0
 10
787.0550825777052
 20
1984.499999999996
 10
787.0150932435184
 20
1984.499200106657
 10
786.975167883736
 20
1984.496801706298
 10
786.935370370416
 20
1984.49280863585
 10
786.8957643710908
 20
1984.487227283371
 10
786.85641324691
 20
1984.480066577837
 10
786.817379951278
 20
1984.471337974848
 10
786.7787269291409
 20
1984.461055438307
 10
786.740516017089
 20
1984.449235418078
 10
786.70280834443
 20
1984.435896823674
 10
786.6656642353964
 20
1984.421060993999
 10
786.629143112639
 20
1984.404751663216
 10
786.5933034021637
 20
1984.386994922775
 10
786.5582024398613
 20
1984.367819179674
 10
786.5238963797842
 20
1984.347255111009
 10
786.49044010431
 20
1984.325335614906
 10
786.4578871363428
 20
1984.30209575788
 10
786.4262895536867
 20
1984.277572718747
 10
786.3956979057337
 20
1984.251805729137
 10
786.3661611325945
 20
1984.224836010736
 10
786.3377264868057
 20
1984.196706709343
 10
786.3104394577342
 20
1984.167462825837
 10
786.2843436988062
 20
1984.137151144194
 10
786.2594809576687
 20
1984.105820156639
 10
786.2358910094042
 20
1984.073519986068
 10
786.2136115928973
 20
1984.040302305864
 10
786.1926783504617
 20
1984.006220257228
 10
786.1890571739207
 20
1983.999999999996
  0
LWPOLYLINE
  5
B8
330
87
100
AcDbEntity
  8
P-SANR-FIXT
100
AcDbPolyline
 90
       28
 70
   128
 43
0.0
 10
786.1890571739207
 20
2015.999999999996
 10
786.2097445689658
 20
2015.965768167379
 10
786.2317843244958
 20
2015.932390991732
 10
786.2551411816034
 20
2015.899921869414
 10
786.2797777742997
 20
2015.868412744095
 10
786.305654689292
 20
2015.837914023654
 10
786.3327305290363
 20
2015.808474499538
 10
786.3609619779648
 20
2015.780141268705
 10
786.3903038717818
 20
2015.75295965828
 10
786.4207092697165
 20
2015.726973153042
 10
786.452129529618
 20
2015.702223325856
 10
786.4845143857734
 20
2015.678749771165
 10
786.5178120293211
 20
2015.656590041649
 10
786.5519691911348
 20
2015.635779588148
 10
786.5869312270417
 20
2015.61635170295
 10
786.6226422052427
 20
2015.598337466526
 10
786.6590449957908
 20
2015.58176569781
 10
786.6960813619864
 20
2015.566662908098
 10
786.7336920535441
 20
2015.553053258632
 10
786.771816901381
 20
2015.540958521948
 10
786.8103949138732
 20
2015.530398047044
 10
786.8493643744302
 20
2015.521388728427
 10
786.8886629402283
 20
2015.513944979086
 10
786.9282277419454
 20
2015.508078707431
 10
786.9679954843388
 20
2015.503799298245
 10
787.0079025475039
 20
2015.501113597671
 10
787.0478850886528
 20
2015.500025902256
 10
787.0550825777052
 20
2015.499999999996
  0
LINE
  5
B9
330
87
100
AcDbEntity
  8
P-SANR-FIXT
100
AcDbLine
 10
786.1890571739207
 20
2015.999999999996
 30
0.0
 11
785.0343566355414
 21
2015.999999999996
 31
0.0
  0
LINE
  5
BA
330
87
100
AcDbEntity
  8
P-SANR-FIXT
100
AcDbLine
 10
785.0343566355414
 20
1983.999999999996
 30
0.0
 11
786.1890571739207
 21
1983.999999999996
 31
0.0
  0
LINE
  5
BB
330
87
100
AcDbEntity
  8
P-SANR-FIXT
100
AcDbLine
 10
852.1664074431086
 20
2000.858571571452
 30
0.0
 11
852.1664074431086
 21
1999.141428428538
 31
0.0
  0
LINE
  5
BC
330
87
100
AcDbEntity
  8
P-SANR-FIXT
100
AcDbLine
 10
852.1664074431086
 20
1999.141428428538
 30
0.0
 11
852.1664074431086
 21
1984.858571571452
 31
0.0
  0
LINE
  5
BD
330
87
100
AcDbEntity
  8
P-SANR-FIXT
100
AcDbLine
 10
852.1664074431086
 20
1984.858571571452
 30
0.0
 11
852.1664074431086
 21
1983.999999999995
 31
0.0
  0
LINE
  5
BE
330
87
100
AcDbEntity
  8
P-SANR-FIXT
100
AcDbLine
 10
852.1664074431086
 20
2015.999999999996
 30
0.0
 11
852.1664074431086
 21
2015.141428428538
 31
0.0
  0
LINE
  5
BF
330
87
100
AcDbEntity
  8
P-SANR-FIXT
100
AcDbLine
 10
852.1664074431086
 20
2015.141428428538
 30
0.0
 11
852.1664074431086
 21
2000.858571571452
 31
0.0
  0
LINE
  5
C0
330
87
100
AcDbEntity
  8
P-SANR-FIXT
100
AcDbLine
 10
833.6664074431066
 20
1975.999999999966
 30
0.0
 11
792.6664074431105
 21
1975.999999999966
 31
0.0
  0
LINE
  5
C1
330
87
100
AcDbEntity
  8
P-SANR-FIXT
100
AcDbLine
 10
797.1664074431054
 20
1975.463552154886
 30
0.0
 11
799.1184955280409
 21
1975.463552154886
 31
0.0
  0
LINE
  5
C2
330
87
100
AcDbEntity
  8
P-SANR-FIXT
100
AcDbLine
 10
811.2143193581726
 20
1975.463552154886
 30
0.0
 11
815.1184955280442
 21
1975.463552154886
 31
0.0
  0
LINE
  5
C3
330
87
100
AcDbEntity
  8
P-SANR-FIXT
100
AcDbLine
 10
827.2143193581758
 20
1975.463552154886
 30
0.0
 11
829.1664074431116
 21
1975.463552154886
 31
0.0
  0
SPLINE
  5
C4
330
87
100
AcDbEntity
  8
P-SANR-FIXT
100
AcDbSpline
210
0.0
220
0.0
230
1.0
 70
     8
 71
     3
 72
    37
 73
    33
 74
     0
 42
0.000000001
 43
0.0000000001
 40
0.0
 40
0.0
 40
0.0
 40
0.0
 40
0.0555555555555556
 40
0.1111111111111111
 40
0.1666666666666666
 40
0.1944444444444444
 40
0.2222222222222222
 40
0.3333333333333333
 40
0.3611111111111111
 40
0.3888888888888888
 40
0.4166666666666666
 40
0.4444444444444445
 40
0.4583333333333333
 40
0.4722222222222223
 40
0.5
 40
0.5277777777777778
 40
0.5555555555555556
 40
0.5833333333333334
 40
0.6111111111111112
 40
0.6388888888888889
 40
0.6666666666666666
 40
0.6944444444444445
 40
0.7222222222222223
 40
0.75
 40
0.7638888888888889
 40
0.7777777777777778
 40
0.7916666666666668
 40
0.8055555555555555
 40
0.8333333333333332
 40
0.861111111111111
 40
0.8888888888888889
 40
1.0
 40
1.0
 40
1.0
 40
1.0
 10
833.6664074431086
 20
1984.499999999995
 30
0.0
 10
833.6664074431086
 20
1984.513028094022
 30
0.0
 10
833.5733975413816
 20
1984.641985165351
 30
0.0
 10
833.1895183404935
 20
1985.129505937087
 30
0.0
 10
832.6864999643428
 20
1985.817387930203
 30
0.0
 10
832.1943187159167
 20
1986.510090088373
 30
0.0
 10
831.3910132033694
 20
1987.64332613768
 30
0.0
 10
830.4335664102756
 20
1989.084669797574
 30
0.0
 10
829.4664949402628
 20
1990.734224587192
 30
0.0
 10
828.9775036538626
 20
1991.609143233094
 30
0.0
 10
828.5040115651563
 20
1992.529221718896
 30
0.0
 10
828.1415595798099
 20
1993.329688981997
 30
0.0
 10
827.8706531044232
 20
1993.994097718193
 30
0.0
 10
827.6029895486919
 20
1994.678960546407
 30
0.0
 10
827.2895421930211
 20
1995.564472523727
 30
0.0
 10
826.9721051285113
 20
1996.662533118593
 30
0.0
 10
826.7490384372786
 20
1997.768173385074
 30
0.0
 10
826.629160071072
 20
1998.908403879754
 30
0.0
 10
826.5924834318713
 20
2000.090602288588
 30
0.0
 10
826.6456590480638
 20
2001.271775270772
 30
0.0
 10
826.779642609488
 20
2002.409377469778
 30
0.0
 10
827.0137952062018
 20
2003.509442618728
 30
0.0
 10
827.3406934898085
 20
2004.599208125754
 30
0.0
 10
827.6605481956499
 20
2005.477210503343
 30
0.0
 10
827.9323300544444
 20
2006.156287908651
 30
0.0
 10
828.1387842482669
 20
2006.65095700463
 30
0.0
 10
828.3522556135292
 20
2007.132931500922
 30
0.0
 10
828.6531096640342
 20
2007.763021312448
 30
0.0
 10
829.0486568135023
 20
2008.523849992717
 30
0.0
 10
829.5386286087394
 20
2009.391957995386
 30
0.0
 10
830.5064791237624
 20
2011.029767261608
 30
0.0
 10
831.2893118972921
 20
2012.193745196108
 30
0.0
 10
831.8479491353778
 20
2012.999999999995
 30
0.0
  0
SPLINE
  5
C5
330
87
100
AcDbEntity
  8
P-SANR-FIXT
100
AcDbSpline
210
0.0
220
0.0
230
1.0
 70
     8
 71
     3
 72
    37
 73
    33
 74
     0
 42
0.000000001
 43
0.0000000001
 40
0.0
 40
0.0
 40
0.0
 40
0.0
 40
0.1111111111111111
 40
0.1388888888888889
 40
0.1666666666666666
 40
0.1944444444444444
 40
0.2222222222222222
 40
0.2361111111111111
 40
0.25
 40
0.2777777777777778
 40
0.3055555555555556
 40
0.3333333333333333
 40
0.3611111111111111
 40
0.3888888888888888
 40
0.4166666666666666
 40
0.4444444444444445
 40
0.4722222222222223
 40
0.5
 40
0.5277777777777778
 40
0.5416666666666668
 40
0.5555555555555556
 40
0.5694444444444445
 40
0.5833333333333334
 40
0.6111111111111112
 40
0.6388888888888889
 40
0.6666666666666666
 40
0.7777777777777778
 40
0.8055555555555555
 40
0.8333333333333332
 40
0.8888888888888889
 40
0.9444444444444444
 40
1.0
 40
1.0
 40
1.0
 40
1.0
 10
794.4848657508389
 20
2012.999999999995
 30
0.0
 10
795.0435029889249
 20
2012.193745196108
 30
0.0
 10
795.8262566950805
 20
2011.029805377197
 30
0.0
 10
796.7942495313766
 20
2009.391927502914
 30
0.0
 10
797.283912963856
 20
2008.523968151045
 30
0.0
 10
797.7597318336131
 20
2007.610413435557
 30
0.0
 10
798.1256888689462
 20
2006.815617097987
 30
0.0
 10
798.4003969973055
 20
2006.156330250558
 30
0.0
 10
798.6723174017678
 20
2005.477186057205
 30
0.0
 10
798.9921041679421
 20
2004.599216431465
 30
0.0
 10
799.3190242947491
 20
2003.509440392393
 30
0.0
 10
799.5531710462613
 20
2002.409378069408
 30
0.0
 10
799.687156145291
 20
2001.271775098589
 30
0.0
 10
799.7403314562636
 20
2000.090602377695
 30
0.0
 10
799.7036545003369
 20
1998.908403695512
 30
0.0
 10
799.5837777062543
 20
1997.768174032935
 30
0.0
 10
799.3607050432516
 20
1996.662530711391
 30
0.0
 10
799.0432902936983
 20
1995.564481504674
 30
0.0
 10
798.7297735313139
 20
1994.678934112744
 30
0.0
 10
798.4622515128744
 20
1993.994143502595
 30
0.0
 10
798.258639422821
 20
1993.495616407582
 30
0.0
 10
798.0475547909202
 20
1993.010155326211
 30
0.0
 10
797.7491488875346
 20
1992.375498193614
 30
0.0
 10
797.3555616077748
 20
1991.609270984664
 30
0.0
 10
796.8662554218469
 20
1990.734191664408
 30
0.0
 10
795.8993284420653
 20
1989.084710599494
 30
0.0
 10
794.9417945089513
 20
1987.643322477271
 30
0.0
 10
794.1384970012085
 20
1986.510090512335
 30
0.0
 10
793.6463144420541
 20
1985.81738768538
 30
0.0
 10
793.1432967095645
 20
1985.129506020685
 30
0.0
 10
792.7594172980235
 20
1984.641985141466
 30
0.0
 10
792.6664074431085
 20
1984.513028094022
 30
0.0
 10
792.6664074431085
 20
1984.499999999995
 30
0.0
  0
LINE
  5
C6
330
87
100
AcDbEntity
  8
P-SANR-FIXT
100
AcDbLine
 10
840.1437577122981
 20
2015.999999999995
 30
0.0
 11
840.1437577122981
 21
1983.999999999995
 31
0.0
  0
SPLINE
  5
C7
330
87
100
AcDbEntity
  8
P-SANR-FIXT
100
AcDbSpline
210
0.0
220
0.0
230
1.0
 70
     8
 71
     3
 72
    11
 73
     7
 74
     0
 42
0.000000001
 43
0.0000000001
 40
0.0
 40
0.0
 40
0.0
 40
0.0
 40
0.3333333333333333
 40
0.5
 40
0.6666666666666666
 40
1.0
 40
1.0
 40
1.0
 40
1.0
 10
833.2374752549741
 20
2015.499999999995
 30
0.0
 10
833.2448425058682
 20
2015.499999999995
 30
0.0
 10
833.1755949808551
 20
2015.351054308794
 30
0.0
 10
832.9540486045992
 20
2014.865326856521
 30
0.0
 10
832.6149775399365
 20
2014.199199366756
 30
0.0
 10
832.1931559497036
 20
2013.519689833209
 30
0.0
 10
831.8479491353778
 20
2012.999999999995
 30
0.0
  0
SPLINE
  5
C8
330
87
100
AcDbEntity
  8
P-SANR-FIXT
100
AcDbSpline
210
0.0
220
0.0
230
1.0
 70
     8
 71
     3
 72
    30
 73
    26
 74
     0
 42
0.000000001
 43
0.0000000001
 40
0.0
 40
0.0
 40
0.0
 40
0.0
 40
0.125
 40
0.1875
 40
0.25
 40
0.28125
 40
0.3125
 40
0.34375
 40
0.375
 40
0.40625
 40
0.4375
 40
0.46875
 40
0.5
 40
0.53125
 40
0.5625
 40
0.59375
 40
0.625
 40
0.65625
 40
0.6875
 40
0.71875
 40
0.75
 40
0.78125
 40
0.8125
 40
0.875
 40
1.0
 40
1.0
 40
1.0
 40
1.0
 10
825.7646217288229
 20
2020.499999999995
 30
0.0
 10
826.0382672922613
 20
2020.499142680691
 30
0.0
 10
826.4687788447053
 20
2020.473960386729
 30
0.0
 10
827.0555745278022
 20
2020.385712623068
 30
0.0
 10
827.4209340074866
 20
2020.312222996507
 30
0.0
 10
827.7079027312217
 20
2020.244397807244
 30
0.0
 10
827.9199803460908
 20
2020.187569280864
 30
0.0
 10
828.1282436263509
 20
2020.126914218644
 30
0.0
 10
828.3322716322832
 20
2020.064466675592
 30
0.0
 10
828.5309750489574
 20
2019.999080892045
 30
0.0
 10
828.7236400239649
 20
2019.929774243061
 30
0.0
 10
828.910146302898
 20
2019.858745275841
 30
0.0
 10
829.090429686833
 20
2019.788286830013
 30
0.0
 10
829.2634794276967
 20
2019.717133403345
 30
0.0
 10
829.4284654721387
 20
2019.644196786003
 30
0.0
 10
829.5854140954924
 20
2019.571890266603
 30
0.0
 10
829.7342304642324
 20
2019.502731793291
 30
0.0
 10
829.8740649843578
 20
2019.435319177629
 30
0.0
 10
830.0040709239896
 20
2019.368455651912
 30
0.0
 10
830.1240878859465
 20
2019.304833936385
 30
0.0
 10
830.2337401063095
 20
2019.247149361984
 30
0.0
 10
830.332471309819
 20
2019.194197328932
 30
0.0
 10
830.4485117645207
 20
2019.127743279288
 30
0.0
 10
830.6086288162177
 20
2019.034531994953
 30
0.0
 10
830.6664074431086
 20
2019.003038139073
 30
0.0
 10
830.6664074431086
 20
2018.999999999995
 30
0.0
  0
SPLINE
  5
C9
330
87
100
AcDbEntity
  8
P-SANR-FIXT
100
AcDbSpline
210
0.0
220
0.0
230
1.0
 70
     8
 71
     3
 72
    49
 73
    45
 74
     0
 42
0.000000001
 43
0.0000000001
 40
0.0
 40
0.0
 40
0.0
 40
0.0
 40
0.0555555555555556
 40
0.0833333333333333
 40
0.1111111111111111
 40
0.1388888888888889
 40
0.1666666666666666
 40
0.1944444444444444
 40
0.2083333333333333
 40
0.2222222222222222
 40
0.2361111111111111
 40
0.25
 40
0.2777777777777778
 40
0.3055555555555556
 40
0.3194444444444444
 40
0.3333333333333333
 40
0.3472222222222222
 40
0.3611111111111111
 40
0.3888888888888888
 40
0.4166666666666666
 40
0.4444444444444445
 40
0.4722222222222223
 40
0.5
 40
0.5277777777777778
 40
0.5555555555555556
 40
0.5833333333333334
 40
0.6111111111111112
 40
0.6388888888888889
 40
0.6527777777777777
 40
0.6666666666666666
 40
0.6805555555555556
 40
0.6944444444444445
 40
0.7222222222222223
 40
0.75
 40
0.7638888888888889
 40
0.7777777777777778
 40
0.7916666666666668
 40
0.8055555555555555
 40
0.8333333333333332
 40
0.861111111111111
 40
0.8888888888888889
 40
0.9166666666666666
 40
0.9444444444444444
 40
1.0
 40
1.0
 40
1.0
 40
1.0
 10
806.6664074431084
 20
2020.479101644633
 30
0.0
 10
806.6664074431084
 20
2020.439695817403
 30
0.0
 10
806.7185570832778
 20
2020.363332677083
 30
0.0
 10
806.8868090679796
 20
2020.225833928789
 30
0.0
 10
807.0605412204374
 20
2020.10721411146
 30
0.0
 10
807.2789935661777
 20
2019.963719106723
 30
0.0
 10
807.5393995043032
 20
2019.796992689973
 30
0.0
 10
807.790102161881
 20
2019.650345077426
 30
0.0
 10
808.0101030127305
 20
2019.53314744511
 30
0.0
 10
808.1848642760789
 20
2019.447971375678
 30
0.0
 10
808.3685306096102
 20
2019.361994934704
 30
0.0
 10
808.6241034128626
 20
2019.241792317003
 30
0.0
 10
808.9637015580686
 20
2019.087839558818
 30
0.0
 10
809.3295572935115
 20
2018.938508864208
 30
0.0
 10
809.6379177483633
 20
2018.827523430628
 30
0.0
 10
809.8771694052349
 20
2018.751273530431
 30
0.0
 10
810.1239114744423
 20
2018.678422110243
 30
0.0
 10
810.4616060593789
 20
2018.581003101417
 30
0.0
 10
810.8991205592904
 20
2018.465817667536
 30
0.0
 10
811.4449128545997
 20
2018.348549042803
 30
0.0
 10
812.0059819298713
 20
2018.267467765405
 30
0.0
 10
812.5817158583098
 20
2018.224437053156
 30
0.0
 10
813.167379299845
 20
2018.208964977071
 30
0.0
 10
813.753060501892
 20
2018.224553639185
 30
0.0
 10
814.3288192916163
 20
2018.26770097162
 30
0.0
 10
814.8900013508658
 20
2018.34892755513
 30
0.0
 10
815.4359696958609
 20
2018.466361109742
 30
0.0
 10
815.8735808730883
 20
2018.581666666508
 30
0.0
 10
816.2112840727091
 20
2018.679155950564
 30
0.0
 10
816.4579859500546
 20
2018.752041771028
 30
0.0
 10
816.6971554870531
 20
2018.828307838125
 30
0.0
 10
817.0053744855064
 20
2018.939298407547
 30
0.0
 10
817.3709999041024
 20
2019.088606227251
 30
0.0
 10
817.7103342198877
 20
2019.242509449158
 30
0.0
 10
817.9656922947744
 20
2019.362662031802
 30
0.0
 10
818.1492034617587
 20
2019.448600036909
 30
0.0
 10
818.3238035786857
 20
2019.533727894021
 30
0.0
 10
818.5435750267613
 20
2019.650840182969
 30
0.0
 10
818.7939976248514
 20
2019.797360088492
 30
0.0
 10
819.0541315940665
 20
2019.963931881341
 30
0.0
 10
819.2724160767959
 20
2020.107316552423
 30
0.0
 10
819.4460619654584
 20
2020.225875806102
 30
0.0
 10
819.614254231795
 20
2020.363319030218
 30
0.0
 10
819.6664074431085
 20
2020.439680476739
 30
0.0
 10
819.6664074431085
 20
2020.479101644633
 30
0.0
  0
SPLINE
  5
CA
330
87
100
AcDbEntity
  8
P-SANR-FIXT
100
AcDbSpline
210
0.0
220
0.0
230
1.0
 70
     8
 71
     3
 72
    21
 73
    17
 74
     0
 42
0.000000001
 43
0.0000000001
 40
0.0
 40
0.0
 40
0.0
 40
0.0
 40
0.1666666666666666
 40
0.25
 40
0.3333333333333333
 40
0.4166666666666666
 40
0.4583333333333333
 40
0.5
 40
0.5416666666666666
 40
0.5833333333333333
 40
0.625
 40
0.6666666666666666
 40
0.7083333333333333
 40
0.75
 40
0.8333333333333333
 40
1.0
 40
1.0
 40
1.0
 40
1.0
 10
796.8164074431085
 20
2019.710253348417
 30
0.0
 10
796.8164074431085
 20
2019.712252637666
 30
0.0
 10
796.8922763771981
 20
2019.734866406025
 30
0.0
 10
797.1393734033967
 20
2019.814488858906
 30
0.0
 10
797.3945563098532
 20
2019.89050193163
 30
0.0
 10
797.66156519957
 20
2019.965449251482
 30
0.0
 10
797.9056450401409
 20
2020.031378462975
 30
0.0
 10
798.1035462549329
 20
2020.079776600889
 30
0.0
 10
798.3154683756112
 20
2020.129050033972
 30
0.0
 10
798.5405726978796
 20
2020.180406410271
 30
0.0
 10
798.7784054242874
 20
2020.230874209921
 30
0.0
 10
799.0285279856829
 20
2020.277338218856
 30
0.0
 10
799.2901193041424
 20
2020.321437167718
 30
0.0
 10
799.6527711742103
 20
2020.379484536017
 30
0.0
 10
800.3216374758453
 20
2020.463478848254
 30
0.0
 10
800.9433983498141
 20
2020.49373809536
 30
0.0
 10
801.368375035701
 20
2020.499999999995
 30
0.0
  0
SPLINE
  5
CB
330
87
100
AcDbEntity
  8
P-SANR-FIXT
100
AcDbSpline
210
0.0
220
0.0
230
1.0
 70
     8
 71
     3
 72
    11
 73
     7
 74
     0
 42
0.000000001
 43
0.0000000001
 40
0.0
 40
0.0
 40
0.0
 40
0.0
 40
0.3333333333333333
 40
0.5
 40
0.6666666666666666
 40
1.0
 40
1.0
 40
1.0
 40
1.0
 10
794.484865750839
 20
2012.999999999995
 30
0.0
 10
794.1396589365132
 20
2013.519689833209
 30
0.0
 10
793.7178373462804
 20
2014.199199366756
 30
0.0
 10
793.3787662816178
 20
2014.865326856522
 30
0.0
 10
793.1572199053618
 20
2015.351054308794
 30
0.0
 10
793.0879723803489
 20
2015.499999999995
 30
0.0
 10
793.0953396312429
 20
2015.499999999995
 30
0.0
  0
LINE
  5
CC
330
87
100
AcDbEntity
  8
P-SANR-FIXT
100
AcDbLine
 10
799.1184955280414
 20
1975.463552154886
 30
0.0
 11
811.2143193581726
 21
1975.463552154886
 31
0.0
  0
LINE
  5
CD
330
87
100
AcDbEntity
  8
P-SANR-FIXT
100
AcDbLine
 10
815.1184955280442
 20
1975.463552154886
 30
0.0
 11
827.2143193581754
 21
1975.463552154886
 31
0.0
  0
LINE
  5
CE
330
87
100
AcDbEntity
  8
P-SANR-FIXT
100
AcDbLine
 10
795.7087543540873
 20
1975.463552154886
 30
0.0
 11
797.1664074431057
 21
1975.463552154886
 31
0.0
  0
LINE
  5
CF
330
87
100
AcDbEntity
  8
P-SANR-FIXT
100
AcDbLine
 10
829.166407443111
 20
1975.463552154886
 30
0.0
 11
830.6240605321297
 21
1975.463552154886
 31
0.0
  0
LINE
  5
D0
330
87
100
AcDbEntity
  8
P-SANR-FIXT
100
AcDbLine
 10
829.166407443111
 20
1968.499999999967
 30
0.0
 11
827.2143193581765
 21
1968.499999999967
 31
0.0
  0
LINE
  5
D1
330
87
100
AcDbEntity
  8
P-SANR-FIXT
100
AcDbLine
 10
827.2143193581765
 20
1968.499999999967
 30
0.0
 11
815.1184955280429
 21
1968.499999999967
 31
0.0
  0
LINE
  5
D2
330
87
100
AcDbEntity
  8
P-SANR-FIXT
100
AcDbLine
 10
815.1184955280429
 20
1968.499999999967
 30
0.0
 11
811.2143193581738
 21
1968.499999999967
 31
0.0
  0
LINE
  5
D3
330
87
100
AcDbEntity
  8
P-SANR-FIXT
100
AcDbLine
 10
811.2143193581738
 20
1968.499999999967
 30
0.0
 11
799.1184955280402
 21
1968.499999999967
 31
0.0
  0
LINE
  5
D4
330
87
100
AcDbEntity
  8
P-SANR-FIXT
100
AcDbLine
 10
799.1184955280402
 20
1968.499999999967
 30
0.0
 11
797.1664074431057
 21
1968.499999999967
 31
0.0
  0
LINE
  5
D5
330
87
100
AcDbEntity
  8
P-SANR-FIXT
100
AcDbLine
 10
797.1664074431056
 20
1968.499999999967
 30
0.0
 11
797.1664074431056
 21
1975.463552154886
 31
0.0
  0
LINE
  5
D6
330
87
100
AcDbEntity
  8
P-SANR-FIXT
100
AcDbLine
 10
799.1184955280402
 20
1968.499999999967
 30
0.0
 11
799.1184955280402
 21
1975.463552154886
 31
0.0
  0
LINE
  5
D7
330
87
100
AcDbEntity
  8
P-SANR-FIXT
100
AcDbLine
 10
811.2143193581736
 20
1968.499999999967
 30
0.0
 11
811.2143193581736
 21
1975.463552154886
 31
0.0
  0
LINE
  5
D8
330
87
100
AcDbEntity
  8
P-SANR-FIXT
100
AcDbLine
 10
815.1184955280429
 20
1968.499999999967
 30
0.0
 11
815.1184955280429
 21
1975.463552154886
 31
0.0
  0
LINE
  5
D9
330
87
100
AcDbEntity
  8
P-SANR-FIXT
100
AcDbLine
 10
827.2143193581765
 20
1968.499999999967
 30
0.0
 11
827.2143193581765
 21
1975.463552154886
 31
0.0
  0
LINE
  5
DA
330
87
100
AcDbEntity
  8
P-SANR-FIXT
100
AcDbLine
 10
829.166407443111
 20
1968.499999999967
 30
0.0
 11
829.166407443111
 21
1975.463552154886
 31
0.0
  0
LINE
  5
DB
330
87
100
AcDbEntity
  8
P-SANR-FIXT
100
AcDbLine
 10
841.2984582506775
 20
2015.141428428538
 30
0.0
 11
841.2984582506775
 21
2015.999999999995
 31
0.0
  0
LINE
  5
DC
330
87
100
AcDbEntity
  8
P-SANR-FIXT
100
AcDbLine
 10
841.2984582506775
 20
2007.999999999995
 30
0.0
 11
841.2984582506775
 21
2015.141428428538
 31
0.0
  0
LINE
  5
DD
330
87
100
AcDbEntity
  8
P-SANR-FIXT
100
AcDbLine
 10
841.2984582506775
 20
1983.999999999995
 30
0.0
 11
841.2984582506775
 21
1984.858571571452
 31
0.0
  0
LINE
  5
DE
330
87
100
AcDbEntity
  8
P-SANR-FIXT
100
AcDbLine
 10
841.2984582506775
 20
1984.858571571452
 30
0.0
 11
841.2984582506775
 21
1991.999999999995
 31
0.0
  0
LINE
  5
DF
330
87
100
AcDbEntity
  8
P-SANR-FIXT
100
AcDbLine
 10
841.2984582506775
 20
1999.141428428538
 30
0.0
 11
841.2984582506775
 21
2000.858571571452
 31
0.0
  0
LINE
  5
E0
330
87
100
AcDbEntity
  8
P-SANR-FIXT
100
AcDbLine
 10
841.2984582506775
 20
2000.858571571452
 30
0.0
 11
841.2984582506775
 21
2007.999999999995
 31
0.0
  0
LINE
  5
E1
330
87
100
AcDbEntity
  8
P-SANR-FIXT
100
AcDbLine
 10
841.2984582506775
 20
1991.999999999995
 30
0.0
 11
841.2984582506775
 21
1999.141428428538
 31
0.0
  0
LINE
  5
E2
330
87
100
AcDbEntity
  8
P-SANR-FIXT
100
AcDbLine
 10
852.1664074431086
 20
2000.858571571452
 30
0.0
 11
841.2984582506775
 21
2000.858571571452
 31
0.0
  0
LINE
  5
E3
330
87
100
AcDbEntity
  8
P-SANR-FIXT
100
AcDbLine
 10
841.2984582506775
 20
1999.141428428538
 30
0.0
 11
852.1664074431086
 21
1999.141428428538
 31
0.0
  0
LINE
  5
E4
330
87
100
AcDbEntity
  8
P-SANR-FIXT
100
AcDbLine
 10
841.2984582506775
 20
1984.858571571452
 30
0.0
 11
852.1664074431086
 21
1984.858571571452
 31
0.0
  0
LINE
  5
E5
330
87
100
AcDbEntity
  8
P-SANR-FIXT
100
AcDbLine
 10
841.2984582506775
 20
1983.999999999995
 30
0.0
 11
852.1664074431086
 21
1983.999999999995
 31
0.0
  0
LINE
  5
E6
330
87
100
AcDbEntity
  8
P-SANR-FIXT
100
AcDbLine
 10
841.2984582506775
 20
2015.999999999996
 30
0.0
 11
852.1664074431086
 21
2015.999999999996
 31
0.0
  0
LINE
  5
E7
330
87
100
AcDbEntity
  8
P-SANR-FIXT
100
AcDbLine
 10
841.2984582506775
 20
2015.141428428538
 30
0.0
 11
852.1664074431086
 21
2015.141428428538
 31
0.0
  0
LINE
  5
E8
330
87
100
AcDbEntity
  8
P-SANR-FIXT
100
AcDbLine
 10
786.189057173919
 20
2015.999999999995
 30
0.0
 11
786.189057173919
 21
1983.999999999995
 31
0.0
  0
LINE
  5
E9
330
87
100
AcDbEntity
  8
P-SANR-FIXT
100
AcDbLine
 10
785.0343566355397
 20
2008.436069208811
 30
0.0
 11
785.0343566355397
 21
2007.999999999995
 31
0.0
  0
LINE
  5
EA
330
87
100
AcDbEntity
  8
P-SANR-FIXT
100
AcDbLine
 10
774.1664074431086
 20
2000.858571571452
 30
0.0
 11
774.1664074431085
 21
2015.141428428538
 31
0.0
  0
LINE
  5
EB
330
87
100
AcDbEntity
  8
P-SANR-FIXT
100
AcDbLine
 10
774.1664074431085
 20
2015.141428428538
 30
0.0
 11
774.1664074431085
 21
2015.999999999995
 31
0.0
  0
LINE
  5
EC
330
87
100
AcDbEntity
  8
P-SANR-FIXT
100
AcDbLine
 10
774.1664074431085
 20
1983.999999999995
 30
0.0
 11
774.1664074431085
 21
1984.858571571452
 31
0.0
  0
LINE
  5
ED
330
87
100
AcDbEntity
  8
P-SANR-FIXT
100
AcDbLine
 10
774.1664074431085
 20
1984.858571571452
 30
0.0
 11
774.1664074431086
 21
1999.141428428538
 31
0.0
  0
LINE
  5
EE
330
87
100
AcDbEntity
  8
P-SANR-FIXT
100
AcDbLine
 10
774.1664074431086
 20
1999.141428428537
 30
0.0
 11
774.1664074431086
 21
2000.858571571452
 31
0.0
  0
LINE
  5
EF
330
87
100
AcDbEntity
  8
P-SANR-FIXT
100
AcDbLine
 10
785.0343566355397
 20
2000.858571571452
 30
0.0
 11
785.0343566355397
 21
1999.141428428538
 31
0.0
  0
LINE
  5
F0
330
87
100
AcDbEntity
  8
P-SANR-FIXT
100
AcDbLine
 10
785.0343566355397
 20
1999.141428428538
 30
0.0
 11
785.0343566355397
 21
1991.999999999995
 31
0.0
  0
LINE
  5
F1
330
87
100
AcDbEntity
  8
P-SANR-FIXT
100
AcDbLine
 10
785.0343566355397
 20
2007.999999999995
 30
0.0
 11
785.0343566355397
 21
2000.858571571452
 31
0.0
  0
LINE
  5
F2
330
87
100
AcDbEntity
  8
P-SANR-FIXT
100
AcDbLine
 10
785.0343566355396
 20
1984.858571571452
 30
0.0
 11
785.0343566355396
 21
1983.999999999995
 31
0.0
  0
LINE
  5
F3
330
87
100
AcDbEntity
  8
P-SANR-FIXT
100
AcDbLine
 10
785.0343566355397
 20
1991.999999999995
 30
0.0
 11
785.0343566355396
 21
1984.858571571452
 31
0.0
  0
LINE
  5
F4
330
87
100
AcDbEntity
  8
P-SANR-FIXT
100
AcDbLine
 10
785.0343566355396
 20
2015.999999999995
 30
0.0
 11
785.0343566355396
 21
2015.141428428538
 31
0.0
  0
LINE
  5
F5
330
87
100
AcDbEntity
  8
P-SANR-FIXT
100
AcDbLine
 10
785.0343566355396
 20
2015.141428428538
 30
0.0
 11
785.0343566355397
 21
2007.999999999995
 31
0.0
  0
LINE
  5
F6
330
87
100
AcDbEntity
  8
P-SANR-FIXT
100
AcDbLine
 10
774.1664074431086
 20
1999.141428428537
 30
0.0
 11
785.0343566355397
 21
1999.141428428537
 31
0.0
  0
LINE
  5
F7
330
87
100
AcDbEntity
  8
P-SANR-FIXT
100
AcDbLine
 10
774.1664074431085
 20
1984.858571571452
 30
0.0
 11
785.0343566355396
 21
1984.858571571452
 31
0.0
  0
LINE
  5
F8
330
87
100
AcDbEntity
  8
P-SANR-FIXT
100
AcDbLine
 10
774.1664074431085
 20
1983.999999999995
 30
0.0
 11
785.0343566355396
 21
1983.999999999995
 31
0.0
  0
LINE
  5
F9
330
87
100
AcDbEntity
  8
P-SANR-FIXT
100
AcDbLine
 10
774.1664074431085
 20
2015.999999999996
 30
0.0
 11
785.0343566355396
 21
2015.999999999996
 31
0.0
  0
LINE
  5
FA
330
87
100
AcDbEntity
  8
P-SANR-FIXT
100
AcDbLine
 10
774.1664074431085
 20
2015.141428428538
 30
0.0
 11
785.0343566355396
 21
2015.141428428538
 31
0.0
  0
LINE
  5
FB
330
87
100
AcDbEntity
  8
P-SANR-FIXT
100
AcDbLine
 10
785.0343566355397
 20
2000.858571571452
 30
0.0
 11
774.1664074431086
 21
2000.858571571452
 31
0.0
  0
ENDBLK
  5
FD
330
87
100
AcDbEntity
  8
0
100
AcDbBlockEnd
  0
BLOCK
  5
12B
330
FF
100
AcDbEntity
  8
0
100
AcDbBlockBegin
  2
Automatic flow rate regulator valve_Caleffi_121 DN15 - 1_2__-V1-Est - Idraulica
 70
     0
 10
0.0
 20
0.0
 30
0.0
  3
Automatic flow rate regulator valve_Caleffi_121 DN15 - 1_2__-V1-Est - Idraulica
  1

  0
LINE
  5
100
330
FF
100
AcDbEntity
  8
P-SANR-FIXT
100
AcDbLine
 10
771.818260063782
 20
1729.495878730057
 30
0.0
 11
765.9843888952966
 21
1729.495878730057
 31
0.0
  0
LINE
  5
101
330
FF
100
AcDbEntity
  8
P-SANR-FIXT
100
AcDbLine
 10
765.9843888952966
 20
1724.495878730058
 30
0.0
 11
771.818260063782
 21
1724.495878730057
 31
0.0
  0
LINE
  5
102
330
FF
100
AcDbEntity
  8
P-SANR-FIXT
100
AcDbLine
 10
771.9626403487206
 20
1696.995878730057
 30
0.0
 11
770.9626403487207
 21
1696.995878730057
 31
0.0
  0
LINE
  5
103
330
FF
100
AcDbEntity
  8
P-SANR-FIXT
100
AcDbLine
 10
858.1626403487206
 20
1696.995878730056
 30
0.0
 11
857.1626403487206
 21
1696.995878730056
 31
0.0
  0
LINE
  5
104
330
FF
100
AcDbEntity
  8
P-SANR-FIXT
100
AcDbLine
 10
857.1626403487206
 20
1696.995878730056
 30
0.0
 11
771.9626403487206
 21
1696.995878730057
 31
0.0
  0
LINE
  5
105
330
FF
100
AcDbEntity
  8
P-SANR-FIXT
100
AcDbLine
 10
771.9626403487209
 20
1756.995878730057
 30
0.0
 11
857.1626403487208
 21
1756.995878730057
 31
0.0
  0
LINE
  5
106
330
FF
100
AcDbEntity
  8
P-SANR-FIXT
100
AcDbLine
 10
857.1626403487208
 20
1756.995878730057
 30
0.0
 11
858.1626403487209
 21
1756.995878730057
 31
0.0
  0
LINE
  5
107
330
FF
100
AcDbEntity
  8
P-SANR-FIXT
100
AcDbLine
 10
770.962640348721
 20
1756.995878730057
 30
0.0
 11
771.9626403487209
 21
1756.995878730057
 31
0.0
  0
LINE
  5
108
330
FF
100
AcDbEntity
  8
P-SANR-FIXT
100
AcDbLine
 10
771.9626403487206
 20
1696.995878730057
 30
0.0
 11
771.9626403487206
 21
1698.70140607798
 31
0.0
  0
LINE
  5
109
330
FF
100
AcDbEntity
  8
P-SANR-FIXT
100
AcDbLine
 10
771.9626403487209
 20
1755.290351382134
 30
0.0
 11
771.9626403487209
 21
1756.995878730057
 31
0.0
  0
LINE
  5
10A
330
FF
100
AcDbEntity
  8
P-SANR-FIXT
100
AcDbLine
 10
770.962640348721
 20
1756.995878730057
 30
0.0
 11
770.962640348721
 21
1752.495878730059
 31
0.0
  0
LINE
  5
10B
330
FF
100
AcDbEntity
  8
P-SANR-FIXT
100
AcDbLine
 10
770.9626403487207
 20
1701.495878730055
 30
0.0
 11
770.9626403487207
 21
1696.995878730057
 31
0.0
  0
LINE
  5
10C
330
FF
100
AcDbEntity
  8
P-SANR-FIXT
100
AcDbLine
 10
858.1626403487209
 20
1756.995878730057
 30
0.0
 11
858.1626403487209
 21
1752.495878730058
 31
0.0
  0
LINE
  5
10D
330
FF
100
AcDbEntity
  8
P-SANR-FIXT
100
AcDbLine
 10
858.1626403487206
 20
1701.495878730054
 30
0.0
 11
858.1626403487206
 21
1696.995878730056
 31
0.0
  0
LINE
  5
10E
330
FF
100
AcDbEntity
  8
P-SANR-FIXT
100
AcDbLine
 10
857.1626403487208
 20
1756.995878730057
 30
0.0
 11
857.1626403487208
 21
1755.290351382134
 31
0.0
  0
LINE
  5
10F
330
FF
100
AcDbEntity
  8
P-SANR-FIXT
100
AcDbLine
 10
857.1626403487206
 20
1698.70140607798
 30
0.0
 11
857.1626403487206
 21
1696.995878730056
 31
0.0
  0
LINE
  5
110
330
FF
100
AcDbEntity
  8
P-SANR-FIXT
100
AcDbLine
 10
765.9843888952949
 20
1724.495878730057
 30
0.0
 11
765.9843888952949
 21
1726.995878730057
 31
0.0
  0
LINE
  5
111
330
FF
100
AcDbEntity
  8
P-SANR-FIXT
100
AcDbLine
 10
765.9843888952949
 20
1726.995878730057
 30
0.0
 11
765.9843888952949
 21
1729.495878730057
 31
0.0
  0
ARC
  5
112
330
FF
100
AcDbEntity
  8
P-SANR-FIXT
100
AcDbCircle
 10
852.1626403487205
 20
1702.243003619116
 30
0.0
 40
3.578204556673165
100
AcDbArc
 50
269.9999999999978
 51
359.9999999999978
  0
LINE
  5
113
330
FF
100
AcDbEntity
  8
P-SANR-FIXT
100
AcDbLine
 10
855.7408449053941
 20
1702.243003619115
 30
0.0
 11
855.7408449053944
 21
1751.748753840998
 31
0.0
  0
ARC
  5
114
330
FF
100
AcDbEntity
  8
P-SANR-FIXT
100
AcDbCircle
 10
852.1626403487211
 20
1751.748753840998
 30
0.0
 40
3.578204556673128
100
AcDbArc
 50
359.9999999999978
 51
89.99999999999818
  0
LINE
  5
115
330
FF
100
AcDbEntity
  8
P-SANR-FIXT
100
AcDbLine
 10
852.1626403487211
 20
1755.326958397671
 30
0.0
 11
776.962640348721
 21
1755.326958397672
 31
0.0
  0
ARC
  5
116
330
FF
100
AcDbEntity
  8
P-SANR-FIXT
100
AcDbCircle
 10
776.9626403487211
 20
1751.748753840998
 30
0.0
 40
3.57820455667337
100
AcDbArc
 50
90.0000000000009
 51
180.0000000000009
  0
LINE
  5
117
330
FF
100
AcDbEntity
  8
P-SANR-FIXT
100
AcDbLine
 10
773.3844357920477
 20
1751.748753840998
 30
0.0
 11
773.3844357920474
 21
1702.243003619116
 31
0.0
  0
ARC
  5
118
330
FF
100
AcDbEntity
  8
P-SANR-FIXT
100
AcDbCircle
 10
776.9626403487206
 20
1702.243003619116
 30
0.0
 40
3.578204556673313
100
AcDbArc
 50
180.0
 51
269.9999999999997
  0
LINE
  5
119
330
FF
100
AcDbEntity
  8
P-SANR-FIXT
100
AcDbLine
 10
776.9626403487206
 20
1698.664799062442
 30
0.0
 11
852.1626403487205
 21
1698.664799062442
 31
0.0
  0
ARC
  5
11A
330
FF
100
AcDbEntity
  8
P-SANR-FIXT
100
AcDbCircle
 10
853.6626403487208
 20
1701.495878730055
 30
0.0
 40
4.499999999999816
100
AcDbArc
 50
269.9999999999982
 51
359.9999999999982
  0
SPLINE
  5
11B
330
FF
100
AcDbEntity
  8
P-SANR-FIXT
100
AcDbSpline
210
0.0
220
0.0
230
1.0
 70
     8
 71
     3
 72
    11
 73
     7
 74
     0
 42
0.000000001
 43
0.0000000001
 40
-1.0
 40
-1.0
 40
-1.0
 40
-1.0
 40
-0.7857142857142857
 40
-0.5714285714285714
 40
-0.2857142857142857
 40
-0.0000029243439268
 40
-0.0000029243439268
 40
-0.0000029243439268
 40
-0.0000029243439268
 10
856.7240329057391
 20
1702.212425014214
 30
0.0
 10
856.7243148064155
 20
1701.708080907087
 30
0.0
 10
856.5531761777165
 20
1700.698127699896
 30
0.0
 10
855.7271984626522
 20
1699.202696460707
 30
0.0
 10
854.2418841394233
 20
1698.019409470899
 30
0.0
 10
852.895274929787
 20
1697.712953588664
 30
0.0
 10
852.2220864454613
 20
1697.713404795408
 30
0.0
  0
ARC
  5
11C
330
FF
100
AcDbEntity
  8
P-SANR-FIXT
100
AcDbCircle
 10
775.4626403487207
 20
1701.495878730055
 30
0.0
 40
4.499999999999886
100
AcDbArc
 50
179.9999999999986
 51
269.9999999999982
  0
LWPOLYLINE
  5
11D
330
FF
100
AcDbEntity
  8
P-SANR-FIXT
100
AcDbPolyline
 90
        8
 70
   128
 43
0.0
 10
776.90324004116
 20
1697.713417320318
 10
775.9016560354437
 20
1697.825690732076
 10
774.9500205966276
 20
1698.157924584095
 10
774.0961073449739
 20
1698.693666849296
 10
773.3829054000302
 20
1699.406190928046
 10
772.8463883253925
 20
1700.25976118809
 10
772.5136048453459
 20
1701.211432540217
 10
772.4012477902323
 20
1702.212421768875
  0
LINE
  5
11E
330
FF
100
AcDbEntity
  8
P-SANR-FIXT
100
AcDbLine
 10
853.6626403487208
 20
1696.995878730055
 30
0.0
 11
775.4626403487207
 21
1696.995878730055
 31
0.0
  0
LINE
  5
11F
330
FF
100
AcDbEntity
  8
P-SANR-FIXT
100
AcDbLine
 10
776.9032400411601
 20
1697.713417320318
 30
0.0
 11
852.2220657745858
 21
1697.713417320318
 31
0.0
  0
LINE
  5
120
330
FF
100
AcDbEntity
  8
P-SANR-FIXT
100
AcDbLine
 10
858.1626403487211
 20
1752.495878730058
 30
0.0
 11
858.1626403487206
 21
1701.495878730054
 31
0.0
  0
LINE
  5
121
330
FF
100
AcDbEntity
  8
P-SANR-FIXT
100
AcDbLine
 10
856.724026080217
 20
1751.779332445899
 30
0.0
 11
856.7240260802169
 21
1702.212425014214
 31
0.0
  0
ARC
  5
122
330
FF
100
AcDbEntity
  8
P-SANR-FIXT
100
AcDbCircle
 10
853.6626403487209
 20
1752.495878730059
 30
0.0
 40
4.500000000000113
100
AcDbArc
 50
359.9999999999968
 51
89.99999999999712
  0
LWPOLYLINE
  5
123
330
FF
100
AcDbEntity
  8
P-SANR-FIXT
100
AcDbPolyline
 90
        8
 70
   128
 43
0.0
 10
852.2220406562817
 20
1756.278340139795
 10
853.2227711640242
 20
1756.166260848776
 10
854.1745264570268
 20
1755.834185442219
 10
855.0285706208704
 20
1755.298570594024
 10
855.7419067068396
 20
1754.586153628544
 10
856.2785629220806
 20
1753.732680282122
 10
856.6114992500693
 20
1752.781099699542
 10
856.7240329072093
 20
1751.77933569248
  0
LINE
  5
124
330
FF
100
AcDbEntity
  8
P-SANR-FIXT
100
AcDbLine
 10
775.462640348721
 20
1756.995878730059
 30
0.0
 11
853.6626403487211
 21
1756.995878730058
 31
0.0
  0
LINE
  5
125
330
FF
100
AcDbEntity
  8
P-SANR-FIXT
100
AcDbLine
 10
852.2220406562817
 20
1756.278340139795
 30
0.0
 11
776.9032149228558
 21
1756.278340139796
 31
0.0
  0
ARC
  5
126
330
FF
100
AcDbEntity
  8
P-SANR-FIXT
100
AcDbCircle
 10
775.462640348721
 20
1752.495878730059
 30
0.0
 40
4.499999999999886
100
AcDbArc
 50
89.99999999999856
 51
179.9999999999985
  0
LWPOLYLINE
  5
127
330
FF
100
AcDbEntity
  8
P-SANR-FIXT
100
AcDbPolyline
 90
        8
 70
   128
 43
0.0
 10
776.9031942492339
 20
1756.278352659622
 10
775.9016265042547
 20
1756.166060008302
 10
774.9499970664929
 20
1755.83382156547
 10
774.0960902621308
 20
1755.298077004496
 10
773.3828944387725
 20
1754.585552796315
 10
772.84638255133
 20
1753.731984281172
 10
772.5136028360461
 20
1752.780316101158
 10
772.401254617225
 20
1751.779329046221
  0
LINE
  5
128
330
FF
100
AcDbEntity
  8
P-SANR-FIXT
100
AcDbLine
 10
770.9626403487207
 20
1701.495878730055
 30
0.0
 11
770.9626403487208
 21
1724.495878730057
 31
0.0
  0
LINE
  5
129
330
FF
100
AcDbEntity
  8
P-SANR-FIXT
100
AcDbLine
 10
770.9626403487208
 20
1729.495878730057
 30
0.0
 11
770.962640348721
 21
1752.495878730059
 31
0.0
  0
LINE
  5
12A
330
FF
100
AcDbEntity
  8
P-SANR-FIXT
100
AcDbLine
 10
772.4012546172246
 20
1702.212425014215
 30
0.0
 11
772.401254617225
 21
1751.779329046221
 31
0.0
  0
ENDBLK
  5
12C
330
FF
100
AcDbEntity
  8
0
100
AcDbBlockEnd
  0
BLOCK
  5
17F
330
12E
100
AcDbEntity
  8
0
100
AcDbBlockBegin
  2
Automatic flow rate regulator valve_Caleffi_121 DN15 - 1_2__-V2-Est - Idraulica
 70
     0
 10
0.0
 20
0.0
 30
0.0
  3
Automatic flow rate regulator valve_Caleffi_121 DN15 - 1_2__-V2-Est - Idraulica
  1

  0
LINE
  5
12F
330
12E
100
AcDbEntity
  8
P-SANR-FIXT
100
AcDbLine
 10
1153.8643539431
 20
2022.982558850012
 30
0.0
 11
1213.864353943099
 21
2022.982558850012
 31
0.0
  0
LINE
  5
130
330
12E
100
AcDbEntity
  8
P-SANR-FIXT
100
AcDbLine
 10
1213.864353943097
 20
2058.782558850011
 30
0.0
 11
1213.864353943097
 21
2057.782558850011
 31
0.0
  0
LINE
  5
131
330
12E
100
AcDbEntity
  8
P-SANR-FIXT
100
AcDbLine
 10
1213.864353943097
 20
2057.782558850011
 30
0.0
 11
1213.864353943097
 21
2027.982558850011
 31
0.0
  0
LINE
  5
132
330
12E
100
AcDbEntity
  8
P-SANR-FIXT
100
AcDbLine
 10
1213.864353943097
 20
2027.982558850011
 30
0.0
 11
1213.864353943097
 21
2022.982558850011
 31
0.0
  0
LINE
  5
133
330
12E
100
AcDbEntity
  8
P-SANR-FIXT
100
AcDbLine
 10
1153.864353943097
 20
2022.982558850011
 30
0.0
 11
1153.864353943097
 21
2027.982558850011
 31
0.0
  0
LINE
  5
134
330
12E
100
AcDbEntity
  8
P-SANR-FIXT
100
AcDbLine
 10
1153.864353943097
 20
2027.982558850011
 30
0.0
 11
1153.864353943097
 21
2057.782558850011
 31
0.0
  0
LINE
  5
135
330
12E
100
AcDbEntity
  8
P-SANR-FIXT
100
AcDbLine
 10
1153.864353943097
 20
2057.782558850011
 30
0.0
 11
1153.864353943097
 21
2058.782558850011
 31
0.0
  0
LINE
  5
136
330
12E
100
AcDbEntity
  8
P-SANR-FIXT
100
AcDbLine
 10
1213.864353943097
 20
2058.782558850011
 30
0.0
 11
1212.158826595174
 21
2058.782558850011
 31
0.0
  0
LINE
  5
137
330
12E
100
AcDbEntity
  8
P-SANR-FIXT
100
AcDbLine
 10
1155.56988129102
 20
2058.782558850011
 30
0.0
 11
1153.864353943097
 21
2058.782558850011
 31
0.0
  0
LINE
  5
138
330
12E
100
AcDbEntity
  8
P-SANR-FIXT
100
AcDbLine
 10
1153.864353943097
 20
2057.782558850011
 30
0.0
 11
1213.864353943097
 21
2057.782558850011
 31
0.0
  0
ARC
  5
139
330
12E
100
AcDbEntity
  8
P-SANR-FIXT
100
AcDbCircle
 10
1183.864353943097
 20
2078.501105720604
 30
0.0
 40
2.5
100
AcDbArc
 50
269.9999999999997
 51
90.0
  0
ARC
  5
13A
330
12E
100
AcDbEntity
  8
P-SANR-FIXT
100
AcDbCircle
 10
1183.864353943097
 20
2078.501105720604
 30
0.0
 40
2.5
100
AcDbArc
 50
90.0
 51
269.9999999999997
  0
LINE
  5
13B
330
12E
100
AcDbEntity
  8
P-SANR-FIXT
100
AcDbLine
 10
1213.864353943102
 20
2058.782558850012
 30
0.0
 11
1213.146815352839
 21
2092.588631632589
 31
0.0
  0
LINE
  5
13C
330
12E
100
AcDbEntity
  8
P-SANR-FIXT
100
AcDbLine
 10
1154.581880022353
 20
2092.588042189708
 30
0.0
 11
1153.864353943097
 21
2058.782558850012
 31
0.0
  0
LINE
  5
13D
330
12E
100
AcDbEntity
  8
P-SANR-FIXT
100
AcDbLine
 10
1155.533274275483
 20
2093.982558850011
 30
0.0
 11
1159.111478832156
 21
2093.982558850011
 31
0.0
  0
LINE
  5
13E
330
12E
100
AcDbEntity
  8
P-SANR-FIXT
100
AcDbLine
 10
1159.111478832156
 20
2093.982558850011
 30
0.0
 11
1208.617229054039
 21
2093.982558850011
 31
0.0
  0
LINE
  5
13F
330
12E
100
AcDbEntity
  8
P-SANR-FIXT
100
AcDbLine
 10
1208.617229054039
 20
2093.982558850011
 30
0.0
 11
1212.195433610712
 21
2093.982558850011
 31
0.0
  0
LINE
  5
140
330
12E
100
AcDbEntity
  8
P-SANR-FIXT
100
AcDbLine
 10
1212.172243185888
 20
2058.782558850011
 30
0.0
 11
1209.364353943099
 21
2058.782558850011
 31
0.0
  0
LWPOLYLINE
  5
141
330
12E
100
AcDbEntity
  8
P-SANR-FIXT
100
AcDbPolyline
 90
        8
 70
   128
 43
0.0
 10
1213.146815352836
 20
2092.588631632589
 10
1213.034541941079
 20
2092.569060344944
 10
1212.702308089059
 20
2092.55292710931
 10
1212.166565823858
 20
2092.540665205362
 10
1211.454041745108
 20
2092.533089615544
 10
1210.600471485064
 20
2092.530720639772
 10
1209.648800132937
 20
2092.533723626422
 10
1208.647807658939
 20
2092.541880178647
  0
LINE
  5
142
330
12E
100
AcDbEntity
  8
P-SANR-FIXT
100
AcDbLine
 10
1158.364353943095
 20
2058.782558850011
 30
0.0
 11
1155.556464700306
 21
2058.782558850011
 31
0.0
  0
LWPOLYLINE
  5
143
330
12E
100
AcDbEntity
  8
P-SANR-FIXT
100
AcDbPolyline
 90
        8
 70
   128
 43
0.0
 10
1154.581880022351
 20
2092.588042189707
 10
1154.694172664852
 20
2092.569059812987
 10
1155.026411107684
 20
2092.552926738328
 10
1155.562155668658
 20
2092.540664988477
 10
1156.27467987684
 20
2092.533089528038
 10
1157.128248391982
 20
2092.530720643998
 10
1158.079916571996
 20
2092.533723677004
 10
1159.080903626933
 20
2092.542040350904
  0
LINE
  5
144
330
12E
100
AcDbEntity
  8
P-SANR-FIXT
100
AcDbLine
 10
1209.364353943099
 20
2058.782558850011
 30
0.0
 11
1158.364353943095
 21
2058.782558850011
 31
0.0
  0
LINE
  5
145
330
12E
100
AcDbEntity
  8
P-SANR-FIXT
100
AcDbLine
 10
1208.64780765894
 20
2092.542040350904
 30
0.0
 11
1159.080903626933
 21
2092.542040350904
 31
0.0
  0
LINE
  5
146
330
12E
100
AcDbEntity
  8
P-SANR-FIXT
100
AcDbLine
 10
1163.364353943102
 20
1975.982558849983
 30
0.0
 11
1166.406700854078
 21
1975.446111004902
 31
0.0
  0
LINE
  5
147
330
12E
100
AcDbEntity
  8
P-SANR-FIXT
100
AcDbLine
 10
1201.322007032122
 20
1975.446111004902
 30
0.0
 11
1204.364353943098
 21
1975.982558849983
 31
0.0
  0
LINE
  5
148
330
12E
100
AcDbEntity
  8
P-SANR-FIXT
100
AcDbLine
 10
1163.3643539431
 20
2012.982558850012
 30
0.0
 11
1163.3643539431
 21
1978.682558850012
 31
0.0
  0
LINE
  5
149
330
12E
100
AcDbEntity
  8
P-SANR-FIXT
100
AcDbLine
 10
1204.3643539431
 20
1978.682558850012
 30
0.0
 11
1204.3643539431
 21
2012.982558850012
 31
0.0
  0
LINE
  5
14A
330
12E
100
AcDbEntity
  8
P-SANR-FIXT
100
AcDbLine
 10
1202.2643539431
 20
2018.196700561828
 30
0.0
 11
1202.2643539431
 21
2022.982558850012
 31
0.0
  0
LINE
  5
14B
330
12E
100
AcDbEntity
  8
P-SANR-FIXT
100
AcDbLine
 10
1178.3143539431
 20
2022.982558850012
 30
0.0
 11
1178.3143539431
 21
2020.482558850012
 31
0.0
  0
LINE
  5
14C
330
12E
100
AcDbEntity
  8
P-SANR-FIXT
100
AcDbLine
 10
1189.4143539431
 20
2020.482558850012
 30
0.0
 11
1189.4143539431
 21
2022.982558850012
 31
0.0
  0
LWPOLYLINE
  5
14D
330
12E
100
AcDbEntity
  8
P-SANR-FIXT
100
AcDbPolyline
 90
       41
 70
   128
 43
0.0
 10
1163.3643539431
 20
2012.982558850012
 10
1163.370353143142
 20
2013.282478856411
 10
1163.38834114583
 20
2013.581919054781
 10
1163.418289174196
 20
2013.880400404679
 10
1163.460149317782
 20
2014.177445399619
 10
1163.51385460929
 20
2014.472578830975
 10
1163.57931913171
 20
2014.765328548215
 10
1163.656438155769
 20
2015.055226214243
 10
1163.745088307481
 20
2015.341808054632
 10
1163.845127765515
 20
2015.624615599575
 10
1163.956396488078
 20
2015.903196417327
 10
1164.07871646895
 20
2016.177104838007
 10
1164.211892022255
 20
2016.445902666573
 10
1164.355710095517
 20
2016.70915988384
 10
1164.509940610499
 20
2016.966455334419
 10
1164.674336831277
 20
2017.217377400474
 10
1164.848635758968
 20
2017.46152466023
 10
1165.032558552468
 20
2017.69850653015
 10
1165.225810974543
 20
2017.927943889798
 10
1165.428083862543
 20
2018.149469688341
 10
1165.639053622996
 20
2018.362729531758
 10
1165.85838274929
 20
2018.567382249793
 10
1166.08572036161
 20
2018.763100441754
 10
1166.320702768274
 20
2018.949571000284
 10
1166.562954047556
 20
2019.126495612269
 10
1166.812086649088
 20
2019.293591236071
 10
1167.067702013854
 20
2019.450590554336
 10
1167.329391211797
 20
2019.597242401649
 10
1167.596735596025
 20
2019.733312166335
 10
1167.869307472553
 20
2019.8585821658
 10
1168.146670784524
 20
2019.972851994766
 10
1168.428381809809
 20
2020.075938845883
 10
1168.71398987086
 20
2020.167677802181
 10
1169.003038055707
 20
2020.247922100899
 10
1169.295063948914
 20
2020.316543368276
 10
1169.589600371348
 20
2020.373431824925
 10
1169.886176127564
 20
2020.418496461449
 10
1170.184316759618
 20
2020.451665184044
 10
1170.483545306098
 20
2020.472884929828
 10
1170.783383065163
 20
2020.482121751737
 10
1170.8643539431
 20
2020.482558850012
  0
LWPOLYLINE
  5
14E
330
12E
100
AcDbEntity
  8
P-SANR-FIXT
100
AcDbPolyline
 90
       30
 70
   128
 43
0.0
 10
1178.404827286533
 20
2020.482558850012
 10
1177.937398864855
 20
2020.482558850012
 10
1177.479452306953
 20
2020.482558850012
 10
1177.031720229629
 20
2020.482558850012
 10
1176.594918908695
 20
2020.482558850012
 10
1176.169747133087
 20
2020.482558850012
 10
1175.756885086946
 20
2020.482558850012
 10
1175.356993261474
 20
2020.482558850012
 10
1174.970711398286
 20
2020.482558850012
 10
1174.598657465959
 20
2020.482558850012
 10
1174.24142667142
 20
2020.482558850012
 10
1173.899590507735
 20
2020.482558850012
 10
1173.573695839842
 20
2020.482558850012
 10
1173.264264029692
 20
2020.482558850012
 10
1172.971790102171
 20
2020.482558850012
 10
1172.696741953173
 20
2020.482558850012
 10
1172.439559601062
 20
2020.482558850012
 10
1172.200654482738
 20
2020.482558850012
 10
1171.980408795428
 20
2020.482558850012
 10
1171.779174885248
 20
2020.482558850012
 10
1171.597274683526
 20
2020.482558850012
 10
1171.434999191782
 20
2020.482558850012
 10
1171.292608016187
 20
2020.482558850012
 10
1171.170328952244
 20
2020.482558850012
 10
1171.068357620373
 20
2020.482558850012
 10
1170.986857152952
 20
2020.482558850012
 10
1170.925957933341
 20
2020.482558850012
 10
1170.885757387303
 20
2020.482558850012
 10
1170.866319827134
 20
2020.482558850012
 10
1170.8643539431
 20
2020.482558850012
  0
LWPOLYLINE
  5
14F
330
12E
100
AcDbEntity
  8
P-SANR-FIXT
100
AcDbPolyline
 90
       30
 70
   128
 43
0.0
 10
1170.8643539431
 20
2020.482558850012
 10
1170.874752556507
 20
2020.482558850012
 10
1170.905931761166
 20
2020.482558850012
 10
1170.957841676999
 20
2020.482558850012
 10
1171.030399259217
 20
2020.482558850012
 10
1171.123488431164
 20
2020.482558850012
 10
1171.236960270023
 20
2020.482558850012
 10
1171.37063324506
 20
2020.482558850012
 10
1171.524293508028
 20
2020.482558850012
 10
1171.697695235286
 20
2020.482558850012
 10
1171.890561021062
 20
2020.482558850012
 10
1172.10258232124
 20
2020.482558850012
 10
1172.333419946969
 20
2020.482558850012
 10
1172.58270460729
 20
2020.482558850012
 10
1172.850037499925
 20
2020.482558850012
 10
1173.134990949274
 20
2020.482558850012
 10
1173.437109090604
 20
2020.482558850012
 10
1173.755908599338
 20
2020.482558850012
 10
1174.090879464268
 20
2020.482558850012
 10
1174.441485803468
 20
2020.482558850012
 10
1174.807166721587
 20
2020.482558850012
 10
1175.187337207163
 20
2020.482558850012
 10
1175.581389068518
 20
2020.482558850012
 10
1175.988691906735
 20
2020.482558850012
 10
1176.408594124158
 20
2020.482558850012
 10
1176.840423966814
 20
2020.482558850012
 10
1177.283490599074
 20
2020.482558850012
 10
1177.737085208841
 20
2020.482558850012
 10
1178.200482141503
 20
2020.482558850012
 10
1178.327721732852
 20
2020.482558850012
  0
LWPOLYLINE
  5
150
330
12E
100
AcDbEntity
  8
P-SANR-FIXT
100
AcDbPolyline
 90
       21
 70
   128
 43
0.0
 10
1202.258607823173
 20
2018.193319358548
 10
1202.462667838768
 20
2017.973438684828
 10
1202.657771746373
 20
2017.745573668037
 10
1202.843607421356
 20
2017.510088843592
 10
1203.019877566279
 20
2017.267360936979
 10
1203.186300186514
 20
2017.01777826107
 10
1203.34260904137
 20
2016.761740094903
 10
1203.488554070022
 20
2016.499656044928
 10
1203.623901791559
 20
2016.231945389714
 10
1203.748435678497
 20
2015.959036409203
 10
1203.861956503186
 20
2015.681365699544
 10
1203.96428265652
 20
2015.399377474642
 10
1204.055250438483
 20
2015.1135228555
 10
1204.13471432003
 20
2014.824259148531
 10
1204.202547175901
 20
2014.532049113959
 10
1204.258640487998
 20
2014.237360225505
 10
1204.302904518986
 20
2013.940663922528
 10
1204.335268455859
 20
2013.642434855819
 10
1204.355680523222
 20
2013.343150128267
 10
1204.364108066121
 20
2013.043288531592
 10
1204.3643539431
 20
2012.982558850012
  0
LWPOLYLINE
  5
151
330
12E
100
AcDbEntity
  8
P-SANR-FIXT
100
AcDbPolyline
 90
       17
 70
   128
 43
0.0
 10
1195.139984195201
 20
2020.482558850012
 10
1194.87223618089
 20
2020.482558850012
 10
1194.586877903222
 20
2020.482558850012
 10
1194.284365874567
 20
2020.482558850012
 10
1193.965184049639
 20
2020.482558850012
 10
1193.629843051269
 20
2020.482558850012
 10
1193.27887935352
 20
2020.482558850012
 10
1192.912854423439
 20
2020.482558850012
 10
1192.532353822833
 20
2020.482558850012
 10
1192.137986271495
 20
2020.482558850012
 10
1191.730382673378
 20
2020.482558850012
 10
1191.31019510729
 20
2020.482558850012
 10
1190.8780957837
 20
2020.482558850012
 10
1190.43477596935
 20
2020.482558850012
 10
1189.980944881374
 20
2020.482558850012
 10
1189.5173285527
 20
2020.482558850012
 10
1189.323880599667
 20
2020.482558850012
  0
LINE
  5
152
330
12E
100
AcDbEntity
  8
P-SANR-FIXT
100
AcDbLine
 10
1163.364353943102
 20
1978.682558850012
 30
0.0
 11
1163.364353943102
 21
1975.982558849983
 31
0.0
  0
LINE
  5
153
330
12E
100
AcDbEntity
  8
P-SANR-FIXT
100
AcDbLine
 10
1204.364353943098
 20
1975.982558849983
 30
0.0
 11
1204.364353943098
 21
1978.682558850012
 31
0.0
  0
LINE
  5
154
330
12E
100
AcDbEntity
  8
P-SANR-FIXT
100
AcDbLine
 10
1201.322007032122
 20
1968.482558849984
 30
0.0
 11
1201.322007032122
 21
1975.446111004902
 31
0.0
  0
LINE
  5
155
330
12E
100
AcDbEntity
  8
P-SANR-FIXT
100
AcDbLine
 10
1166.406700854078
 20
1975.446111004902
 30
0.0
 11
1166.406700854078
 21
1968.482558849984
 31
0.0
  0
LINE
  5
156
330
12E
100
AcDbEntity
  8
P-SANR-FIXT
100
AcDbLine
 10
1183.864353943097
 20
1975.982558849982
 30
0.0
 11
1163.3643539431
 21
1975.982558849982
 31
0.0
  0
LINE
  5
157
330
12E
100
AcDbEntity
  8
P-SANR-FIXT
100
AcDbLine
 10
1166.406700854076
 20
1975.446111004901
 30
0.0
 11
1166.516183910346
 21
1975.446111004901
 31
0.0
  0
LINE
  5
158
330
12E
100
AcDbEntity
  8
P-SANR-FIXT
100
AcDbLine
 10
1173.499711054743
 20
1975.446111004901
 30
0.0
 11
1176.880826798701
 21
1975.446111004901
 31
0.0
  0
LINE
  5
159
330
12E
100
AcDbEntity
  8
P-SANR-FIXT
100
AcDbLine
 10
1204.364353943096
 20
1975.982558849982
 30
0.0
 11
1183.864353943097
 21
1975.982558849982
 31
0.0
  0
LINE
  5
15A
330
12E
100
AcDbEntity
  8
P-SANR-FIXT
100
AcDbLine
 10
1190.847881087494
 20
1975.446111004901
 30
0.0
 11
1194.228996831453
 21
1975.446111004901
 31
0.0
  0
LINE
  5
15B
330
12E
100
AcDbEntity
  8
P-SANR-FIXT
100
AcDbLine
 10
1201.21252397585
 20
1975.446111004901
 30
0.0
 11
1201.322007032119
 21
1975.446111004901
 31
0.0
  0
SPLINE
  5
15C
330
12E
100
AcDbEntity
  8
P-SANR-FIXT
100
AcDbSpline
210
0.0
220
0.0
230
1.0
 70
     8
 71
     3
 72
    21
 73
    17
 74
     0
 42
0.000000001
 43
0.0000000001
 40
0.0
 40
0.0
 40
0.0
 40
0.0
 40
0.1666666666666666
 40
0.25
 40
0.2916666666666666
 40
0.3333333333333333
 40
0.375
 40
0.4166666666666666
 40
0.4583333333333333
 40
0.5
 40
0.5416666666666666
 40
0.5833333333333333
 40
0.6666666666666666
 40
0.75
 40
0.8333333333333333
 40
1.0
 40
1.0
 40
1.0
 40
1.0
 10
1178.404827286531
 20
2020.482558850011
 30
0.0
 10
1178.482515432699
 20
2020.476296945376
 30
0.0
 10
1178.673517007814
 20
2020.44603769827
 30
0.0
 10
1179.014746346106
 20
2020.362043386032
 30
0.0
 10
1179.241237742206
 20
2020.303996017734
 30
0.0
 10
1179.426420408079
 20
2020.259897068871
 30
0.0
 10
1179.626097915057
 20
2020.213433059938
 30
0.0
 10
1179.839495749375
 20
2020.162965260287
 30
0.0
 10
1180.066140332473
 20
2020.111608883987
 30
0.0
 10
1180.305614574101
 20
2020.062335450904
 30
0.0
 10
1180.557057481571
 20
2020.013937312991
 30
0.0
 10
1180.906891733719
 20
2019.948008101498
 30
0.0
 10
1181.370176288244
 20
2019.873060781645
 30
0.0
 10
1181.961935708579
 20
2019.797047708921
 30
0.0
 10
1182.786724040287
 20
2019.717425256041
 30
0.0
 10
1183.432760594167
 20
2019.694811487681
 30
0.0
 10
1183.864353943097
 20
2019.692812198432
 30
0.0
  0
SPLINE
  5
15D
330
12E
100
AcDbEntity
  8
P-SANR-FIXT
100
AcDbSpline
210
0.0
220
0.0
230
1.0
 70
     8
 71
     3
 72
    29
 73
    25
 74
     0
 42
0.000000001
 43
0.0000000001
 40
0.0
 40
0.0
 40
0.0
 40
0.0
 40
0.0555555555555556
 40
0.0833333333333333
 40
0.1111111111111111
 40
0.1388888888888889
 40
0.1666666666666666
 40
0.1944444444444444
 40
0.2083333333333333
 40
0.2222222222222222
 40
0.2361111111111111
 40
0.25
 40
0.2777777777777778
 40
0.3055555555555556
 40
0.3194444444444444
 40
0.3333333333333333
 40
0.3472222222222222
 40
0.3611111111111111
 40
0.3888888888888888
 40
0.4166666666666666
 40
0.4444444444444445
 40
0.4722222222222223
 40
0.5
 40
0.5185185185185186
 40
0.5185185185185186
 40
0.5185185185185186
 40
0.5185185185185186
 10
1195.764353943098
 20
2020.461660494648
 30
0.0
 10
1196.151899389916
 20
2020.422254667419
 30
0.0
 10
1196.72961682875
 20
2020.345891527098
 30
0.0
 10
1197.474725725589
 20
2020.208392778804
 30
0.0
 10
1198.017279867422
 20
2020.089772961476
 30
0.0
 10
1198.53809197959
 20
2019.946277956738
 30
0.0
 10
1199.034029848704
 20
2019.779551539989
 30
0.0
 10
1199.425737403182
 20
2019.632903927441
 30
0.0
 10
1199.725219550606
 20
2019.515706295126
 30
0.0
 10
1199.94289368437
 20
2019.430530225693
 30
0.0
 10
1200.152538440745
 20
2019.344553784719
 30
0.0
 10
1200.420238748688
 20
2019.224351167018
 30
0.0
 10
1200.733218938046
 20
2019.070398408834
 30
0.0
 10
1201.016878100382
 20
2018.921067714223
 30
0.0
 10
1201.225664456605
 20
2018.810082280644
 30
0.0
 10
1201.373042782396
 20
2018.733832380447
 30
0.0
 10
1201.510649308955
 20
2018.660980960259
 30
0.0
 10
1201.680150433766
 20
2018.563561951432
 30
0.0
 10
1201.865043281991
 20
2018.448376517552
 30
0.0
 10
1202.041000271103
 20
2018.331107892819
 30
0.0
 10
1202.168617190692
 20
2018.250026615421
 30
0.0
 10
1202.246778050556
 20
2018.206995903171
 30
0.0
 10
1202.270251636309
 20
2018.193242946651
 30
0.0
 10
1202.260389392605
 20
2018.199027320215
 30
0.0
 10
1202.252580099722
 20
2018.203468923439
 30
0.0
  0
SPLINE
  5
15E
330
12E
100
AcDbEntity
  8
P-SANR-FIXT
100
AcDbSpline
210
0.0
220
0.0
230
1.0
 70
     8
 71
     3
 72
     8
 73
     4
 74
     0
 42
0.000000001
 43
0.0000000001
 40
0.5
 40
0.5
 40
0.5
 40
0.5
 40
1.0
 40
1.0
 40
1.0
 40
1.0
 10
1195.451978209542
 20
2020.477235620717
 30
0.0
 10
1195.556080102757
 20
2020.47375256149
 30
0.0
 10
1195.660245530636
 20
2020.4685608528
 30
0.0
 10
1195.764353943098
 20
2020.461660494648
 30
0.0
  0
SPLINE
  5
15F
330
12E
100
AcDbEntity
  8
P-SANR-FIXT
100
AcDbSpline
210
0.0
220
0.0
230
1.0
 70
     8
 71
     3
 72
    21
 73
    17
 74
     0
 42
0.000000001
 43
0.0000000001
 40
0.0
 40
0.0
 40
0.0
 40
0.0
 40
0.1666666666666666
 40
0.25
 40
0.3333333333333333
 40
0.4166666666666666
 40
0.4583333333333333
 40
0.5
 40
0.5416666666666666
 40
0.5833333333333333
 40
0.625
 40
0.6666666666666666
 40
0.7083333333333333
 40
0.75
 40
0.8333333333333333
 40
1.0
 40
1.0
 40
1.0
 40
1.0
 10
1183.864353943097
 20
2019.692812198432
 30
0.0
 10
1184.295947292028
 20
2019.694811487681
 30
0.0
 10
1184.941983845908
 20
2019.717425256041
 30
0.0
 10
1185.766772177616
 20
2019.797047708921
 30
0.0
 10
1186.358531597951
 20
2019.873060781645
 30
0.0
 10
1186.821816152476
 20
2019.948008101498
 30
0.0
 10
1187.171650404624
 20
2020.013937312991
 30
0.0
 10
1187.423093312093
 20
2020.062335450904
 30
0.0
 10
1187.662567553721
 20
2020.111608883987
 30
0.0
 10
1187.88921213682
 20
2020.162965260287
 30
0.0
 10
1188.102609971138
 20
2020.213433059937
 30
0.0
 10
1188.302287478116
 20
2020.259897068871
 30
0.0
 10
1188.487470143989
 20
2020.303996017734
 30
0.0
 10
1188.713961540089
 20
2020.362043386032
 30
0.0
 10
1189.055190878381
 20
2020.44603769827
 30
0.0
 10
1189.246192453496
 20
2020.476296945376
 30
0.0
 10
1189.323880599664
 20
2020.482558850011
 30
0.0
  0
LINE
  5
160
330
12E
100
AcDbEntity
  8
P-SANR-FIXT
100
AcDbLine
 10
1166.516183910346
 20
1975.446111004901
 30
0.0
 11
1173.499711054743
 21
1975.446111004901
 31
0.0
  0
LINE
  5
161
330
12E
100
AcDbEntity
  8
P-SANR-FIXT
100
AcDbLine
 10
1176.880826798701
 20
1975.446111004901
 30
0.0
 11
1183.864353943097
 21
1975.446111004901
 31
0.0
  0
LINE
  5
162
330
12E
100
AcDbEntity
  8
P-SANR-FIXT
100
AcDbLine
 10
1194.228996831452
 20
1975.446111004901
 30
0.0
 11
1201.212523975849
 21
1975.446111004901
 31
0.0
  0
LINE
  5
163
330
12E
100
AcDbEntity
  8
P-SANR-FIXT
100
AcDbLine
 10
1183.864353943097
 20
1975.446111004901
 30
0.0
 11
1190.847881087494
 21
1975.446111004901
 31
0.0
  0
LINE
  5
164
330
12E
100
AcDbEntity
  8
P-SANR-FIXT
100
AcDbLine
 10
1176.8808267987
 20
1968.482558849983
 30
0.0
 11
1173.499711054743
 21
1968.482558849983
 31
0.0
  0
LINE
  5
165
330
12E
100
AcDbEntity
  8
P-SANR-FIXT
100
AcDbLine
 10
1173.499711054743
 20
1968.482558849983
 30
0.0
 11
1166.516183910346
 21
1968.482558849983
 31
0.0
  0
LINE
  5
166
330
12E
100
AcDbEntity
  8
P-SANR-FIXT
100
AcDbLine
 10
1166.516183910346
 20
1968.482558849983
 30
0.0
 11
1166.406700854076
 21
1968.482558849983
 31
0.0
  0
LINE
  5
167
330
12E
100
AcDbEntity
  8
P-SANR-FIXT
100
AcDbLine
 10
1201.322007032119
 20
1968.482558849983
 30
0.0
 11
1201.21252397585
 21
1968.482558849983
 31
0.0
  0
LINE
  5
168
330
12E
100
AcDbEntity
  8
P-SANR-FIXT
100
AcDbLine
 10
1201.21252397585
 20
1968.482558849983
 30
0.0
 11
1194.228996831452
 21
1968.482558849983
 31
0.0
  0
LINE
  5
169
330
12E
100
AcDbEntity
  8
P-SANR-FIXT
100
AcDbLine
 10
1194.228996831452
 20
1968.482558849983
 30
0.0
 11
1190.847881087495
 21
1968.482558849983
 31
0.0
  0
LINE
  5
16A
330
12E
100
AcDbEntity
  8
P-SANR-FIXT
100
AcDbLine
 10
1190.847881087495
 20
1968.482558849983
 30
0.0
 11
1176.8808267987
 21
1968.482558849983
 31
0.0
  0
LINE
  5
16B
330
12E
100
AcDbEntity
  8
P-SANR-FIXT
100
AcDbLine
 10
1176.8808267987
 20
1975.446111004901
 30
0.0
 11
1176.8808267987
 21
1968.482558849983
 31
0.0
  0
LINE
  5
16C
330
12E
100
AcDbEntity
  8
P-SANR-FIXT
100
AcDbLine
 10
1190.847881087495
 20
1968.482558849983
 30
0.0
 11
1190.847881087495
 21
1975.446111004901
 31
0.0
  0
LINE
  5
16D
330
12E
100
AcDbEntity
  8
P-SANR-FIXT
100
AcDbLine
 10
1194.228996831452
 20
1968.482558849983
 30
0.0
 11
1194.228996831452
 21
1975.446111004901
 31
0.0
  0
LINE
  5
16E
330
12E
100
AcDbEntity
  8
P-SANR-FIXT
100
AcDbLine
 10
1201.21252397585
 20
1968.482558849983
 30
0.0
 11
1201.21252397585
 21
1975.446111004901
 31
0.0
  0
LINE
  5
16F
330
12E
100
AcDbEntity
  8
P-SANR-FIXT
100
AcDbLine
 10
1166.516183910346
 20
1968.482558849983
 30
0.0
 11
1166.516183910346
 21
1975.446111004901
 31
0.0
  0
LINE
  5
170
330
12E
100
AcDbEntity
  8
P-SANR-FIXT
100
AcDbLine
 10
1173.499711054743
 20
1968.482558849983
 30
0.0
 11
1173.499711054743
 21
1975.446111004901
 31
0.0
  0
LINE
  5
171
330
12E
100
AcDbEntity
  8
P-SANR-FIXT
100
AcDbLine
 10
1201.843866029266
 20
2000.841130421468
 30
0.0
 11
1193.597654778031
 21
2015.123987278554
 31
0.0
  0
ARC
  5
172
330
12E
100
AcDbEntity
  8
P-SANR-FIXT
100
AcDbCircle
 10
1183.864353943097
 20
1999.982558850011
 30
0.0
 40
17.99999999999993
100
AcDbArc
 50
57.26604445073208
 51
62.73395554926624
  0
LINE
  5
173
330
12E
100
AcDbEntity
  8
P-SANR-FIXT
100
AcDbLine
 10
1192.110565194333
 20
2015.982558850011
 30
0.0
 11
1175.618142691862
 21
2015.98255885001
 31
0.0
  0
ARC
  5
174
330
12E
100
AcDbEntity
  8
P-SANR-FIXT
100
AcDbCircle
 10
1183.864353943097
 20
1999.982558850011
 30
0.0
 40
17.99999999999999
100
AcDbArc
 50
117.2660444507326
 51
122.7339555492667
  0
LINE
  5
175
330
12E
100
AcDbEntity
  8
P-SANR-FIXT
100
AcDbLine
 10
1174.131053108164
 20
2015.123987278554
 30
0.0
 11
1165.884841856929
 21
2000.841130421468
 31
0.0
  0
ARC
  5
176
330
12E
100
AcDbEntity
  8
P-SANR-FIXT
100
AcDbCircle
 10
1183.864353943097
 20
1999.982558850011
 30
0.0
 40
17.99999999999993
100
AcDbArc
 50
177.2660444507329
 51
182.7339555492667
  0
LINE
  5
177
330
12E
100
AcDbEntity
  8
P-SANR-FIXT
100
AcDbLine
 10
1165.884841856929
 20
1999.123987278553
 30
0.0
 11
1174.131053108164
 21
1984.841130421468
 31
0.0
  0
ARC
  5
178
330
12E
100
AcDbEntity
  8
P-SANR-FIXT
100
AcDbCircle
 10
1183.864353943097
 20
1999.982558850011
 30
0.0
 40
18.0
100
AcDbArc
 50
237.2660444507327
 51
242.7339555492672
  0
LINE
  5
179
330
12E
100
AcDbEntity
  8
P-SANR-FIXT
100
AcDbLine
 10
1175.618142691862
 20
1983.98255885001
 30
0.0
 11
1192.110565194333
 21
1983.982558850011
 31
0.0
  0
ARC
  5
17A
330
12E
100
AcDbEntity
  8
P-SANR-FIXT
100
AcDbCircle
 10
1183.864353943097
 20
1999.982558850011
 30
0.0
 40
17.99999999999999
100
AcDbArc
 50
297.2660444507324
 51
302.7339555492672
  0
LINE
  5
17B
330
12E
100
AcDbEntity
  8
P-SANR-FIXT
100
AcDbLine
 10
1193.597654778031
 20
1984.841130421468
 30
0.0
 11
1201.843866029266
 21
1999.123987278554
 31
0.0
  0
ARC
  5
17C
330
12E
100
AcDbEntity
  8
P-SANR-FIXT
100
AcDbCircle
 10
1183.864353943097
 20
1999.982558850011
 30
0.0
 40
17.99999999999991
100
AcDbArc
 50
357.2660444507319
 51
2.733955549266324
  0
ARC
  5
17D
330
12E
100
AcDbEntity
  8
P-SANR-FIXT
100
AcDbCircle
 10
1183.864353943097
 20
1999.982558850011
 30
0.0
 40
9.549999999999954
100
AcDbArc
 50
90.0
 51
269.9999999999997
  0
ARC
  5
17E
330
12E
100
AcDbEntity
  8
P-SANR-FIXT
100
AcDbCircle
 10
1183.864353943097
 20
1999.982558850011
 30
0.0
 40
9.550000000000068
100
AcDbArc
 50
270.0000000000003
 51
89.99999999999934
  0
ENDBLK
  5
180
330
12E
100
AcDbEntity
  8
0
100
AcDbBlockEnd
  0
ENDSEC
  0
SECTION
  2
ENTITIES
  0
INSERT
  5
FE
330
71
100
AcDbEntity
  8
P-SANR-FIXT
100
AcDbBlockReference
  2
Automatic flow rate regulator valve_Caleffi_121 DN15 - 1_2__-859151-Est - Idraulica
 10
0.0
 20
0.0
 30
0.0
1001
REVIT
1002
{
1070
     1
1000
863131
1002
}
1002
{
1070
     5
1000
859151
1002
}
1002
{
1070
     2
1000
-2001160
1002
}
  0
INSERT
  5
12D
330
71
100
AcDbEntity
  8
P-SANR-FIXT
100
AcDbBlockReference
  2
Automatic flow rate regulator valve_Caleffi_121 DN15 - 1_2__-V1-Est - Idraulica
 10
0.0
 20
0.0
 30
0.0
1001
REVIT
1002
{
1070
     1
1000
863152
1002
}
1002
{
1070
     5
1000
859151
1002
}
1002
{
1070
     2
1000
-2001160
1002
}
  0
INSERT
  5
181
330
71
100
AcDbEntity
  8
P-SANR-FIXT
100
AcDbBlockReference
  2
Automatic flow rate regulator valve_Caleffi_121 DN15 - 1_2__-V2-Est - Idraulica
 10
0.0
 20
0.0
 30
0.0
1001
REVIT
1002
{
1070
     1
1000
863172
1002
}
1002
{
1070
     5
1000
859151
1002
}
1002
{
1070
     2
1000
-2001160
1002
}
  0
ENDSEC
  0
SECTION
  2
OBJECTS
  0
DICTIONARY
  5
C
330
0
100
AcDbDictionary
281
     1
  3
ACAD_CIP_PREVIOUS_PRODUCT_INFO
350
7A
  3
ACAD_COLOR
350
63
  3
ACAD_DETAILVIEWSTYLE
350
6B
  3
ACAD_GROUP
350
D
  3
ACAD_IMAGE_VARS
350
7B
  3
ACAD_LAYOUT
350
62
  3
ACAD_MATERIAL
350
10
  3
ACAD_MLEADERSTYLE
350
66
  3
ACAD_MLINESTYLE
350
5F
  3
ACAD_PLOTSETTINGS
350
61
  3
ACAD_PLOTSTYLENAME
350
E
  3
ACAD_SCALELIST
350
42
  3
ACAD_SECTIONVIEWSTYLE
350
68
  3
ACAD_TABLESTYLE
350
64
  3
ACAD_VISUALSTYLE
350
29
  3
ACDB_RECOMPOSE_DATA
350
18B
  3
AcDbVariableDictionary
350
7C
  3
REVIT_DICTIONARY
350
183
  0
DICTIONARY
  5
187
330
71
100
AcDbDictionary
280
     1
281
     1
  3
ACAD_SORTENTS
360
188
  0
XRECORD
  5
7A
102
{ACAD_REACTORS
330
C
102
}
330
C
100
AcDbXrecord
280
     1
300
RVT
300
2013
300
RVT2013
  0
DICTIONARY
  5
63
102
{ACAD_REACTORS
330
C
102
}
330
C
100
AcDbDictionary
281
     1
  0
DICTIONARY
  5
6B
102
{ACAD_REACTORS
330
C
102
}
330
C
100
AcDbDictionary
281
     1
  3
Imperial24
350
6C
  0
DICTIONARY
  5
D
102
{ACAD_REACTORS
330
C
102
}
330
C
100
AcDbDictionary
281
     1
  0
RASTERVARIABLES
  5
7B
102
{ACAD_REACTORS
330
C
102
}
330
C
100
AcDbRasterVariables
 90
        0
 70
     0
 71
     1
 72
     1
  0
DICTIONARY
  5
62
102
{ACAD_REACTORS
330
C
102
}
330
C
100
AcDbDictionary
281
     1
  3
Layout1
350
70
  3
Layout2
350
78
  3
Model
350
74
  0
DICTIONARY
  5
10
102
{ACAD_REACTORS
330
C
102
}
330
C
100
AcDbDictionary
281
     1
  3
ByBlock
350
19
  3
ByLayer
350
11
  3
Global
350
21
  0
DICTIONARY
  5
66
102
{ACAD_REACTORS
330
C
102
}
330
C
100
AcDbDictionary
281
     1
  3
Standard
350
67
  0
DICTIONARY
  5
5F
102
{ACAD_REACTORS
330
C
102
}
330
C
100
AcDbDictionary
281
     1
  3
Standard
350
60
  0
DICTIONARY
  5
61
102
{ACAD_REACTORS
330
C
102
}
330
C
100
AcDbDictionary
281
     1
  0
ACDBDICTIONARYWDFLT
  5
E
102
{ACAD_REACTORS
330
C
102
}
330
C
100
AcDbDictionary
281
     1
  3
Normal
350
F
100
AcDbDictionaryWithDefault
340
F
  0
DICTIONARY
  5
42
102
{ACAD_REACTORS
330
C
102
}
330
C
100
AcDbDictionary
281
     1
  3
A0
350
43
  3
A1
350
44
  3
A2
350
45
  3
A3
350
46
  3
A4
350
47
  3
A5
350
48
  3
A6
350
49
  3
A7
350
4A
  3
A8
350
4B
  3
A9
350
4C
  3
B0
350
4D
  3
B1
350
4E
  3
B2
350
4F
  3
B3
350
50
  3
B4
350
51
  3
B5
350
52
  3
B6
350
53
  0
DICTIONARY
  5
68
102
{ACAD_REACTORS
330
C
102
}
330
C
100
AcDbDictionary
281
     1
  3
Imperial24
350
6A
  0
DICTIONARY
  5
64
102
{ACAD_REACTORS
330
C
102
}
330
C
100
AcDbDictionary
281
     1
  3
Standard
350
65
  0
DICTIONARY
  5
29
102
{ACAD_REACTORS
330
C
102
}
330
C
100
AcDbDictionary
281
     1
  3
2dWireframe
350
2F
  3
Basic
350
2E
  3
Brighten
350
35
  3
ColorChange
350
39
  3
Conceptual
350
32
  3
Dim
350
34
  3
EdgeColorOff
350
41
  3
Facepattern
350
38
  3
Flat
350
2A
  3
FlatWithEdges
350
2B
  3
Gouraud
350
2C
  3
GouraudWithEdges
350
2D
  3
Hidden
350
31
  3
JitterOff
350
3F
  3
Linepattern
350
37
  3
OverhangOff
350
40
  3
Realistic
350
33
  3
Shaded
350
3E
  3
Shaded with edges
350
3D
  3
Shades of Gray
350
3A
  3
Sketchy
350
3B
  3
Thicken
350
36
  3
Wireframe
350
30
  3
X-Ray
350
3C
  0
XRECORD
  5
18B
102
{ACAD_REACTORS
330
C
102
}
330
C
100
AcDbXrecord
280
     1
 90
        1
330
65
  0
DICTIONARY
  5
7C
102
{ACAD_REACTORS
330
C
102
}
330
C
100
AcDbDictionary
281
     1
  3
CANNOSCALE
350
81
  3
CMLEADERSTYLE
350
7E
  3
CTABLESTYLE
350
7D
  3
CVIEWDETAILSTYLE
350
7F
  3
CVIEWSECTIONSTYLE
350
80
  0
DICTIONARY
  5
183
102
{ACAD_REACTORS
330
C
102
}
330
C
100
AcDbDictionary
281
     1
  3
DRAWING_TOOL
350
186
  3
REVIT_CATEGORY_MAPPING
350
185
  3
REVIT_TYPE_MAPPING
350
184
  0
SORTENTSTABLE
  5
188
102
{ACAD_REACTORS
330
187
102
}
330
187
100
AcDbSortentsTable
330
71
  0
ACDBDETAILVIEWSTYLE
  5
6C
102
{ACAD_REACTORS
330
6B
102
}
330
6B
100
AcDbModelDocViewStyle
 70
     0
  3
Imperial24
290
     1
100
AcDbDetailViewStyle
 70
     0
 71
     0
 90
        3
 71
     1
340
55
 62
   256
 40
0.24
340
0
 62
   256
 40
0.24
300

 40
0.36
280
     3
 71
     2
340
5D
 90
       25
 62
   256
 71
     3
340
55
 62
   256
 40
0.24
 90
        1
 40
0.75
 90
        1
300
%<\AcVar ViewType \f "%tc1">% %<\AcVar ViewDetailId>%\PSCALA %<\AcVar ViewScale \f "%sn">%
 71
     4
340
5D
 90
       25
 62
   256
340
5D
 90
       25
 62
   256
280
     0
  0
LAYOUT
  5
70
102
{ACAD_REACTORS
330
62
102
}
330
62
100
AcDbPlotSettings
  1

  2

  4

  6

 40
0.0
 41
0.0
 42
0.0
 43
0.0
 44
0.0
 45
0.0
 46
0.0
 47
0.0
 48
0.0
 49
0.0
140
0.0
141
0.0
142
1.0
143
1.0
 70
   688
 72
     0
 73
     0
 74
     5
  7

 75
    16
147
1.0
 76
     0
 77
     2
 78
   300
148
0.0
149
0.0
100
AcDbLayout
  1
Layout1
 70
     1
 71
     1
 10
0.0
 20
0.0
 11
12.0
 21
9.0
 12
0.0
 22
0.0
 32
0.0
 14
0.0
 24
0.0
 34
0.0
 15
0.0
 25
0.0
 35
0.0
146
0.0
 13
0.0
 23
0.0
 33
0.0
 16
1.0
 26
0.0
 36
0.0
 17
0.0
 27
1.0
 37
0.0
 76
     0
330
6D
  0
LAYOUT
  5
78
102
{ACAD_REACTORS
330
62
102
}
330
62
100
AcDbPlotSettings
  1

  2

  4

  6

 40
0.0
 41
0.0
 42
0.0
 43
0.0
 44
0.0
 45
0.0
 46
0.0
 47
0.0
 48
0.0
 49
0.0
140
0.0
141
0.0
142
1.0
143
1.0
 70
   688
 72
     0
 73
     0
 74
     5
  7

 75
    16
147
1.0
 76
     0
 77
     2
 78
   300
148
0.0
149
0.0
100
AcDbLayout
  1
Layout2
 70
     1
 71
     2
 10
0.0
 20
0.0
 11
12.0
 21
9.0
 12
0.0
 22
0.0
 32
0.0
 14
0.0
 24
0.0
 34
0.0
 15
0.0
 25
0.0
 35
0.0
146
0.0
 13
0.0
 23
0.0
 33
0.0
 16
1.0
 26
0.0
 36
0.0
 17
0.0
 27
1.0
 37
0.0
 76
     0
330
75
  0
LAYOUT
  5
74
102
{ACAD_REACTORS
330
62
102
}
330
62
100
AcDbPlotSettings
  1

  2

  4

  6

 40
0.0
 41
0.0
 42
0.0
 43
0.0
 44
0.0
 45
0.0
 46
0.0
 47
0.0
 48
0.0
 49
0.0
140
0.0
141
0.0
142
1.0
143
1.0
 70
  1712
 72
     0
 73
     0
 74
     0
  7

 75
     0
147
1.0
 76
     0
 77
     2
 78
   300
148
0.0
149
0.0
100
AcDbLayout
  1
Model
 70
     1
 71
     0
 10
0.0
 20
0.0
 11
12.0
 21
9.0
 12
0.0
 22
0.0
 32
0.0
 14
0.0
 24
0.0
 34
0.0
 15
0.0
 25
0.0
 35
0.0
146
0.0
 13
0.0
 23
0.0
 33
0.0
 16
1.0
 26
0.0
 36
0.0
 17
0.0
 27
1.0
 37
0.0
 76
     0
330
71
  0
MATERIAL
  5
19
102
{ACAD_XDICTIONARY
360
1A
102
}
102
{ACAD_REACTORS
330
10
102
}
330
10
100
AcDbMaterial
  1
ByBlock
 72
     0
 43
0.0208333333333333
 43
0.0
 43
0.0
 43
0.0
 43
0.0
 43
0.0208333333333333
 43
0.0
 43
0.0
 43
0.0
 43
0.0
 43
1.0
 43
0.0
 43
0.0
 43
0.0
 43
0.0
 43
1.0
 77
     0
 47
0.0208333333333333
 47
0.0
 47
0.0
 47
0.0
 47
0.0
 47
0.0208333333333333
 47
0.0
 47
0.0
 47
0.0
 47
0.0
 47
1.0
 47
0.0
 47
0.0
 47
0.0
 47
0.0
 47
1.0
171
     0
 49
0.0208333333333333
 49
0.0
 49
0.0
 49
0.0
 49
0.0
 49
0.0208333333333333
 49
0.0
 49
0.0
 49
0.0
 49
0.0
 49
1.0
 49
0.0
 49
0.0
 49
0.0
 49
0.0
 49
1.0
175
     0
142
0.0208333333333333
142
0.0
142
0.0
142
0.0
142
0.0
142
0.0208333333333333
142
0.0
142
0.0
142
0.0
142
0.0
142
1.0
142
0.0
142
0.0
142
0.0
142
0.0
142
1.0
179
     0
144
0.0208333333333333
144
0.0
144
0.0
144
0.0
144
0.0
144
0.0208333333333333
144
0.0
144
0.0
144
0.0
144
0.0
144
1.0
144
0.0
144
0.0
144
0.0
144
0.0
144
1.0
147
0.0208333333333333
147
0.0
147
0.0
147
0.0
147
0.0
147
0.0208333333333333
147
0.0
147
0.0
147
0.0
147
0.0
147
1.0
147
0.0
147
0.0
147
0.0
147
0.0
147
1.0
  0
MATERIAL
  5
11
102
{ACAD_XDICTIONARY
360
12
102
}
102
{ACAD_REACTORS
330
10
102
}
330
10
100
AcDbMaterial
  1
ByLayer
 72
     0
 43
0.0208333333333333
 43
0.0
 43
0.0
 43
0.0
 43
0.0
 43
0.0208333333333333
 43
0.0
 43
0.0
 43
0.0
 43
0.0
 43
1.0
 43
0.0
 43
0.0
 43
0.0
 43
0.0
 43
1.0
 77
     0
 47
0.0208333333333333
 47
0.0
 47
0.0
 47
0.0
 47
0.0
 47
0.0208333333333333
 47
0.0
 47
0.0
 47
0.0
 47
0.0
 47
1.0
 47
0.0
 47
0.0
 47
0.0
 47
0.0
 47
1.0
171
     0
 49
0.0208333333333333
 49
0.0
 49
0.0
 49
0.0
 49
0.0
 49
0.0208333333333333
 49
0.0
 49
0.0
 49
0.0
 49
0.0
 49
1.0
 49
0.0
 49
0.0
 49
0.0
 49
0.0
 49
1.0
175
     0
142
0.0208333333333333
142
0.0
142
0.0
142
0.0
142
0.0
142
0.0208333333333333
142
0.0
142
0.0
142
0.0
142
0.0
142
1.0
142
0.0
142
0.0
142
0.0
142
0.0
142
1.0
179
     0
144
0.0208333333333333
144
0.0
144
0.0
144
0.0
144
0.0
144
0.0208333333333333
144
0.0
144
0.0
144
0.0
144
0.0
144
1.0
144
0.0
144
0.0
144
0.0
144
0.0
144
1.0
147
0.0208333333333333
147
0.0
147
0.0
147
0.0
147
0.0
147
0.0208333333333333
147
0.0
147
0.0
147
0.0
147
0.0
147
1.0
147
0.0
147
0.0
147
0.0
147
0.0
147
1.0
  0
MATERIAL
  5
21
102
{ACAD_XDICTIONARY
360
22
102
}
102
{ACAD_REACTORS
330
10
102
}
330
10
100
AcDbMaterial
  1
Global
 72
     0
 43
0.0208333333333333
 43
0.0
 43
0.0
 43
0.0
 43
0.0
 43
0.0208333333333333
 43
0.0
 43
0.0
 43
0.0
 43
0.0
 43
1.0
 43
0.0
 43
0.0
 43
0.0
 43
0.0
 43
1.0
 77
     0
 47
0.0208333333333333
 47
0.0
 47
0.0
 47
0.0
 47
0.0
 47
0.0208333333333333
 47
0.0
 47
0.0
 47
0.0
 47
0.0
 47
1.0
 47
0.0
 47
0.0
 47
0.0
 47
0.0
 47
1.0
171
     0
 49
0.0208333333333333
 49
0.0
 49
0.0
 49
0.0
 49
0.0
 49
0.0208333333333333
 49
0.0
 49
0.0
 49
0.0
 49
0.0
 49
1.0
 49
0.0
 49
0.0
 49
0.0
 49
0.0
 49
1.0
175
     0
142
0.0208333333333333
142
0.0
142
0.0
142
0.0
142
0.0
142
0.0208333333333333
142
0.0
142
0.0
142
0.0
142
0.0
142
1.0
142
0.0
142
0.0
142
0.0
142
0.0
142
1.0
179
     0
144
0.0208333333333333
144
0.0
144
0.0
144
0.0
144
0.0
144
0.0208333333333333
144
0.0
144
0.0
144
0.0
144
0.0
144
1.0
144
0.0
144
0.0
144
0.0
144
0.0
144
1.0
147
0.0208333333333333
147
0.0
147
0.0
147
0.0
147
0.0
147
0.0208333333333333
147
0.0
147
0.0
147
0.0
147
0.0
147
1.0
147
0.0
147
0.0
147
0.0
147
0.0
147
1.0
  0
MLEADERSTYLE
  5
67
102
{ACAD_REACTORS
330
66
102
}
330
66
100
AcDbMLeaderStyle
179
     2
170
     2
171
     1
172
     0
 90
        2
 40
0.0
 41
0.0
173
     1
 91
-1056964608
340
5B
 92
       -2
290
     1
 42
0.09
291
     1
 43
0.36
  3
Standard
 44
0.18
300

342
55
174
     1
178
     6
175
     1
176
     0
 93
-1056964608
 45
0.18
292
     0
297
     0
 46
0.18
 94
-1056964608
 47
1.0
 49
1.0
140
1.0
293
     1
141
0.0
294
     1
177
     0
142
1.0
295
     1
296
     0
143
0.125
271
     0
272
     9
273
     9
298
     1
  0
MLINESTYLE
  5
60
102
{ACAD_REACTORS
330
5F
102
}
330
5F
100
AcDbMlineStyle
  2
STANDARD
 70
     0
  3

 62
   256
 51
90.0
 52
90.0
 71
     2
 49
0.5
 62
   256
  6
BYLAYER
 49
-0.5
 62
   256
  6
BYLAYER
  0
ACDBPLACEHOLDER
  5
F
102
{ACAD_REACTORS
330
E
102
}
330
E
  0
SCALE
  5
43
102
{ACAD_REACTORS
330
42
102
}
330
42
100
AcDbScale
 70
     0
300
1:1
140
1.0
141
1.0
290
     1
  0
SCALE
  5
44
102
{ACAD_REACTORS
330
42
102
}
330
42
100
AcDbScale
 70
     0
300
1/128" = 1'-0"
140
0.0078125
141
12.0
290
     0
  0
SCALE
  5
45
102
{ACAD_REACTORS
330
42
102
}
330
42
100
AcDbScale
 70
     0
300
1/64" = 1'-0"
140
0.015625
141
12.0
290
     0
  0
SCALE
  5
46
102
{ACAD_REACTORS
330
42
102
}
330
42
100
AcDbScale
 70
     0
300
1/32" = 1'-0"
140
0.03125
141
12.0
290
     0
  0
SCALE
  5
47
102
{ACAD_REACTORS
330
42
102
}
330
42
100
AcDbScale
 70
     0
300
1/16" = 1'-0"
140
0.0625
141
12.0
290
     0
  0
SCALE
  5
48
102
{ACAD_REACTORS
330
42
102
}
330
42
100
AcDbScale
 70
     0
300
3/32" = 1'-0"
140
0.09375
141
12.0
290
     0
  0
SCALE
  5
49
102
{ACAD_REACTORS
330
42
102
}
330
42
100
AcDbScale
 70
     0
300
1/8" = 1'-0"
140
0.125
141
12.0
290
     0
  0
SCALE
  5
4A
102
{ACAD_REACTORS
330
42
102
}
330
42
100
AcDbScale
 70
     0
300
3/16" = 1'-0"
140
0.1875
141
12.0
290
     0
  0
SCALE
  5
4B
102
{ACAD_REACTORS
330
42
102
}
330
42
100
AcDbScale
 70
     0
300
1/4" = 1'-0"
140
0.25
141
12.0
290
     0
  0
SCALE
  5
4C
102
{ACAD_REACTORS
330
42
102
}
330
42
100
AcDbScale
 70
     0
300
3/8" = 1'-0"
140
0.375
141
12.0
290
     0
  0
SCALE
  5
4D
102
{ACAD_REACTORS
330
42
102
}
330
42
100
AcDbScale
 70
     0
300
1/2" = 1'-0"
140
0.5
141
12.0
290
     0
  0
SCALE
  5
4E
102
{ACAD_REACTORS
330
42
102
}
330
42
100
AcDbScale
 70
     0
300
3/4" = 1'-0"
140
0.75
141
12.0
290
     0
  0
SCALE
  5
4F
102
{ACAD_REACTORS
330
42
102
}
330
42
100
AcDbScale
 70
     0
300
1" = 1'-0"
140
1.0
141
12.0
290
     0
  0
SCALE
  5
50
102
{ACAD_REACTORS
330
42
102
}
330
42
100
AcDbScale
 70
     0
300
1-1/2" = 1'-0"
140
1.5
141
12.0
290
     0
  0
SCALE
  5
51
102
{ACAD_REACTORS
330
42
102
}
330
42
100
AcDbScale
 70
     0
300
3" = 1'-0"
140
3.0
141
12.0
290
     0
  0
SCALE
  5
52
102
{ACAD_REACTORS
330
42
102
}
330
42
100
AcDbScale
 70
     0
300
6" = 1'-0"
140
6.0
141
12.0
290
     0
  0
SCALE
  5
53
102
{ACAD_REACTORS
330
42
102
}
330
42
100
AcDbScale
 70
     0
300
1'-0" = 1'-0"
140
12.0
141
12.0
290
     0
  0
ACDBSECTIONVIEWSTYLE
  5
6A
102
{ACAD_REACTORS
330
68
102
}
330
68
100
AcDbModelDocViewStyle
 70
     0
  3
Imperial24
290
     1
100
AcDbSectionViewStyle
 70
     0
 71
     0
 90
       78
 71
     1
340
55
 62
   256
 40
0.24
340
0
340
0
 62
   256
 40
0.24
300
I, O, Q, S, X, Z
 40
0.48
 90
        3
 40
0.18
 90
        1
 71
     2
340
69
 90
       25
 62
   256
340
5D
 90
       50
 62
   256
 40
0.24
 40
0.0
 40
0.24
 71
     3
340
55
 62
   256
 40
0.24
 90
        1
 40
0.75
 90
        1
300
%<\AcVar ViewType \f "%tc1">% %<\AcVar ViewSectionStartId>%-%<\AcVar ViewSectionEndId>%\PSCALA %<\AcVar ViewScale \f "%sn">%
 71
     4
 62
   256
 62
   257
300
ANSI31
 40
1.0
 90
        0
290
     0
290
     0
 90
        6
 40
0.0
 40
1.570796326794896
 40
0.2617993877991494
 40
1.308996938995747
 40
-0.2617993877991494
 40
1.832595714594046
  0
TABLESTYLE
  5
65
102
{ACAD_XDICTIONARY
360
189
102
}
102
{ACAD_REACTORS
330
64
102
}
330
64
100
AcDbTableStyle
280
     0
  3
Standard
 70
     0
 71
     0
 40
0.06
 41
0.06
280
     0
281
     0
  7
Standard
140
0.18
170
     2
 62
     0
 63
     7
283
     0
 90
      512
 91
        0
  1

274
    -2
284
     1
 64
     0
275
    -2
285
     1
 65
     0
276
    -2
286
     1
 66
     0
277
    -2
287
     1
 67
     0
278
    -2
288
     1
 68
     0
279
    -2
289
     1
 69
     0
  7
Standard
140
0.25
170
     5
 62
     0
 63
     7
283
     0
 90
      512
 91
        0
  1

274
    -2
284
     1
 64
     0
275
    -2
285
     1
 65
     0
276
    -2
286
     1
 66
     0
277
    -2
287
     1
 67
     0
278
    -2
288
     1
 68
     0
279
    -2
289
     1
 69
     0
  7
Standard
140
0.18
170
     5
 62
     0
 63
     7
283
     0
 90
      512
 91
        0
  1

274
    -2
284
     1
 64
     0
275
    -2
285
     1
 65
     0
276
    -2
286
     1
 66
     0
277
    -2
287
     1
 67
     0
278
    -2
288
     1
 68
     0
279
    -2
289
     1
 69
     0
  0
VISUALSTYLE
  5
2F
102
{ACAD_REACTORS
330
29
102
}
330
29
100
AcDbVisualStyle
  2
2dWireframe
 70
     4
177
     3
291
     0
 70
    58
 90
        0
176
     1
 90
        2
176
     1
 90
        0
176
     1
 90
        0
176
     1
 40
0.6
176
     1
 40
30.0
176
     1
 62
     7
420
 16777215
176
     1
 90
        1
176
     1
 90
        4
176
     1
 62
     7
176
     1
 62
   257
176
     1
 90
        1
176
     1
 90
        1
176
     1
 40
1.0
176
     1
 90
        0
176
     1
 62
   257
176
     1
 40
1.0
176
     1
 90
        1
176
     1
 90
        6
176
     1
 90
        2
176
     1
 62
     7
176
     1
 90
        5
176
     1
 90
        0
176
     1
 90
        0
176
     1
290
     0
176
     1
 90
        1
176
     1
 40
0.0
176
     1
 90
        0
176
     1
290
     1
176
     1
290
     1
176
     1
290
     0
176
     1
290
     0
176
     1
290
     0
176
     1
290
     0
176
     1
290
     0
176
     1
290
     0
176
     1
290
     0
176
     1
 90
       50
176
     1
 40
0.0
176
     1
 40
1.0
176
     1
 90
        0
176
     1
 62
    18
420
        0
176
     1
 90
       50
176
     1
 90
        3
176
     1
 62
     5
420
      255
176
     1
290
     0
176
     1
 90
       50
176
     1
 90
       50
176
     1
 90
       50
176
     1
290
     0
176
     1
 90
       50
176
     1
 62
   256
176
     0
 40
1.0
176
     0
 90
        2
176
     1
  1
strokes_ogs.tif
176
     1
290
     0
176
     1
 40
1.0
176
     1
 40
1.0
176
     1
  0
VISUALSTYLE
  5
2E
102
{ACAD_REACTORS
330
29
102
}
330
29
100
AcDbVisualStyle
  2
Basic
 70
     7
177
     3
291
     1
 70
    58
 90
        1
176
     1
 90
        0
176
     1
 90
        1
176
     1
 90
        0
176
     1
 40
0.6
176
     1
 40
30.0
176
     1
 62
     7
420
 16777215
176
     1
 90
        0
176
     1
 90
        4
176
     1
 62
     7
176
     1
 62
   257
176
     1
 90
        1
176
     1
 90
        1
176
     1
 40
1.0
176
     1
 90
        8
176
     1
 62
     7
176
     1
 40
1.0
176
     1
 90
        1
176
     1
 90
        6
176
     1
 90
        2
176
     1
 62
     7
176
     1
 90
        5
176
     1
 90
        0
176
     1
 90
        0
176
     1
290
     0
176
     1
 90
        1
176
     1
 40
0.0
176
     1
 90
        0
176
     1
290
     0
176
     1
290
     1
176
     1
290
     1
176
     1
290
     0
176
     1
290
     0
176
     1
290
     0
176
     1
290
     0
176
     1
290
     0
176
     1
290
     0
176
     1
 90
       50
176
     1
 40
0.0
176
     1
 40
1.0
176
     1
 90
        0
176
     1
 62
    18
420
        0
176
     1
 90
       50
176
     1
 90
        3
176
     1
 62
     5
420
      255
176
     1
290
     0
176
     1
 90
       50
176
     1
 90
       50
176
     1
 90
       50
176
     1
290
     0
176
     1
 90
       50
176
     1
 62
   256
176
     0
 40
1.0
176
     0
 90
        2
176
     1
  1
strokes_ogs.tif
176
     1
290
     0
176
     1
 40
1.0
176
     1
 40
1.0
176
     1
  0
VISUALSTYLE
  5
35
102
{ACAD_REACTORS
330
29
102
}
330
29
100
AcDbVisualStyle
  2
Brighten
 70
    12
177
     3
291
     1
 70
    58
 90
        2
176
     1
 90
        2
176
     1
 90
        0
176
     1
 90
        0
176
     1
 40
0.6
176
     1
 40
30.0
176
     1
 62
     7
420
 16777215
176
     1
 90
        1
176
     1
 90
        4
176
     1
 62
     7
176
     1
 62
   257
176
     1
 90
        1
176
     1
 90
        1
176
     1
 40
1.0
176
     1
 90
        8
176
     1
 62
     7
176
     1
 40
1.0
176
     1
 90
        1
176
     1
 90
        6
176
     1
 90
        2
176
     1
 62
     7
176
     1
 90
        5
176
     1
 90
        0
176
     1
 90
        0
176
     1
290
     0
176
     1
 90
        1
176
     1
 40
50.0
176
     1
 90
        0
176
     1
290
     0
176
     1
290
     1
176
     1
290
     1
176
     1
290
     0
176
     1
290
     0
176
     1
290
     0
176
     1
290
     0
176
     1
290
     0
176
     1
290
     0
176
     1
 90
       50
176
     1
 40
0.0
176
     1
 40
1.0
176
     1
 90
        0
176
     1
 62
    18
420
        0
176
     1
 90
       50
176
     1
 90
        3
176
     1
 62
     5
420
      255
176
     1
290
     0
176
     1
 90
       50
176
     1
 90
       50
176
     1
 90
       50
176
     1
290
     0
176
     1
 90
       50
176
     1
 62
   256
176
     0
 40
1.0
176
     0
 90
        2
176
     1
  1
strokes_ogs.tif
176
     1
290
     0
176
     1
 40
1.0
176
     1
 40
1.0
176
     1
  0
VISUALSTYLE
  5
39
102
{ACAD_REACTORS
330
29
102
}
330
29
100
AcDbVisualStyle
  2
ColorChange
 70
    16
177
     3
291
     1
 70
    58
 90
        2
176
     1
 90
        2
176
     1
 90
        3
176
     1
 90
        0
176
     1
 40
0.6
176
     1
 40
30.0
176
     1
 62
     8
420
  8421504
176
     1
 90
        1
176
     1
 90
        4
176
     1
 62
     7
176
     1
 62
   257
176
     1
 90
        1
176
     1
 90
        1
176
     1
 40
1.0
176
     1
 90
        8
176
     1
 62
     8
420
  8421504
176
     1
 40
1.0
176
     1
 90
        1
176
     1
 90
        6
176
     1
 90
        2
176
     1
 62
     7
176
     1
 90
        5
176
     1
 90
        0
176
     1
 90
        0
176
     1
290
     0
176
     1
 90
        1
176
     1
 40
0.0
176
     1
 90
        0
176
     1
290
     0
176
     1
290
     1
176
     1
290
     1
176
     1
290
     0
176
     1
290
     0
176
     1
290
     0
176
     1
290
     0
176
     1
290
     0
176
     1
290
     0
176
     1
 90
       50
176
     1
 40
0.0
176
     1
 40
1.0
176
     1
 90
        0
176
     1
 62
    18
420
        0
176
     1
 90
       50
176
     1
 90
        3
176
     1
 62
     5
420
      255
176
     1
290
     0
176
     1
 90
       50
176
     1
 90
       50
176
     1
 90
       50
176
     1
290
     0
176
     1
 90
       50
176
     1
 62
   256
176
     0
 40
1.0
176
     0
 90
        2
176
     1
  1
strokes_ogs.tif
176
     1
290
     0
176
     1
 40
1.0
176
     1
 40
1.0
176
     1
  0
VISUALSTYLE
  5
32
102
{ACAD_REACTORS
330
29
102
}
330
29
100
AcDbVisualStyle
  2
Conceptual
 70
     9
177
     3
291
     0
 70
    58
 90
        3
176
     1
 90
        2
176
     1
 90
        0
176
     1
 90
        0
176
     1
 40
0.6
176
     1
 40
30.0
176
     1
 62
     7
420
 16777215
176
     1
 90
        2
176
     1
 90
        2
176
     1
 62
     7
176
     1
 62
   257
176
     1
 90
        1
176
     1
 90
        1
176
     1
 40
179.0
176
     1
 90
        8
176
     1
 62
     7
176
     1
 40
1.0
176
     1
 90
        1
176
     1
 90
        6
176
     1
 90
        2
176
     1
 62
     7
176
     1
 90
        3
176
     1
 90
        0
176
     1
 90
        0
176
     1
290
     0
176
     1
 90
        1
176
     1
 40
0.0
176
     1
 90
        0
176
     1
290
     0
176
     1
290
     1
176
     1
290
     1
176
     1
290
     0
176
     1
290
     0
176
     1
290
     0
176
     1
290
     0
176
     1
290
     0
176
     1
290
     0
176
     1
 90
       50
176
     1
 40
0.0
176
     1
 40
1.0
176
     1
 90
        0
176
     1
 62
    18
420
        0
176
     1
 90
       50
176
     1
 90
        3
176
     1
 62
     5
420
      255
176
     1
290
     0
176
     1
 90
       50
176
     1
 90
       50
176
     1
 90
       50
176
     1
290
     0
176
     1
 90
       50
176
     1
 62
   256
176
     0
 40
1.0
176
     0
 90
        2
176
     1
  1
strokes_ogs.tif
176
     1
290
     0
176
     1
 40
1.0
176
     1
 40
1.0
176
     1
  0
VISUALSTYLE
  5
34
102
{ACAD_REACTORS
330
29
102
}
330
29
100
AcDbVisualStyle
  2
Dim
 70
    11
177
     3
291
     1
 70
    58
 90
        2
176
     1
 90
        2
176
     1
 90
        0
176
     1
 90
        0
176
     1
 40
0.6
176
     1
 40
30.0
176
     1
 62
     7
420
 16777215
176
     1
 90
        1
176
     1
 90
        4
176
     1
 62
     7
176
     1
 62
   257
176
     1
 90
        1
176
     1
 90
        1
176
     1
 40
1.0
176
     1
 90
        8
176
     1
 62
     7
176
     1
 40
1.0
176
     1
 90
        1
176
     1
 90
        6
176
     1
 90
        2
176
     1
 62
     7
176
     1
 90
        5
176
     1
 90
        0
176
     1
 90
        0
176
     1
290
     0
176
     1
 90
        1
176
     1
 40
-50.0
176
     1
 90
        0
176
     1
290
     0
176
     1
290
     1
176
     1
290
     1
176
     1
290
     0
176
     1
290
     0
176
     1
290
     0
176
     1
290
     0
176
     1
290
     0
176
     1
290
     0
176
     1
 90
       50
176
     1
 40
0.0
176
     1
 40
1.0
176
     1
 90
        0
176
     1
 62
    18
420
        0
176
     1
 90
       50
176
     1
 90
        3
176
     1
 62
     5
420
      255
176
     1
290
     0
176
     1
 90
       50
176
     1
 90
       50
176
     1
 90
       50
176
     1
290
     0
176
     1
 90
       50
176
     1
 62
   256
176
     0
 40
1.0
176
     0
 90
        2
176
     1
  1
strokes_ogs.tif
176
     1
290
     0
176
     1
 40
1.0
176
     1
 40
1.0
176
     1
  0
VISUALSTYLE
  5
41
102
{ACAD_REACTORS
330
29
102
}
330
29
100
AcDbVisualStyle
  2
EdgeColorOff
 70
    22
177
     3
291
     1
 70
    58
 90
        2
176
     0
 90
        2
176
     0
 90
        0
176
     0
 90
        0
176
     0
 40
0.6
176
     0
 40
30.0
176
     0
 62
     7
420
 16777215
176
     0
 90
        1
176
     0
 90
        4
176
     0
 62
     7
176
     0
 62
   257
176
     0
 90
        1
176
     0
 90
        1
176
     0
 40
1.0
176
     0
 90
        8
176
     2
 62
     7
176
     0
 40
1.0
176
     0
 90
        1
176
     0
 90
        6
176
     0
 90
        2
176
     0
 62
     7
176
     0
 90
        5
176
     0
 90
        0
176
     0
 90
        0
176
     0
290
     0
176
     0
 90
        1
176
     0
 40
0.0
176
     0
 90
        0
176
     0
290
     0
176
     0
290
     1
176
     0
290
     1
176
     0
290
     0
176
     0
290
     0
176
     0
290
     0
176
     0
290
     0
176
     0
290
     0
176
     0
290
     0
176
     0
 90
       50
176
     0
 40
0.0
176
     0
 40
1.0
176
     0
 90
        0
176
     0
 62
    18
420
        0
176
     0
 90
       50
176
     0
 90
        3
176
     0
 62
     5
420
      255
176
     0
290
     0
176
     0
 90
       50
176
     0
 90
       50
176
     0
 90
       50
176
     0
290
     0
176
     0
 90
       50
176
     0
 62
   256
176
     0
 40
1.0
176
     0
 90
        2
176
     0
  1
strokes_ogs.tif
176
     0
290
     0
176
     0
 40
1.0
176
     0
 40
1.0
176
     0
  0
VISUALSTYLE
  5
38
102
{ACAD_REACTORS
330
29
102
}
330
29
100
AcDbVisualStyle
  2
Facepattern
 70
    15
177
     3
291
     1
 70
    58
 90
        2
176
     1
 90
        2
176
     1
 90
        0
176
     1
 90
        0
176
     1
 40
0.6
176
     1
 40
30.0
176
     1
 62
     7
420
 16777215
176
     1
 90
        1
176
     1
 90
        4
176
     1
 62
     7
176
     1
 62
   257
176
     1
 90
        1
176
     1
 90
        1
176
     1
 40
1.0
176
     1
 90
        8
176
     1
 62
     7
176
     1
 40
1.0
176
     1
 90
        1
176
     1
 90
        6
176
     1
 90
        2
176
     1
 62
     7
176
     1
 90
        5
176
     1
 90
        0
176
     1
 90
        0
176
     1
290
     0
176
     1
 90
        1
176
     1
 40
0.0
176
     1
 90
        0
176
     1
290
     0
176
     1
290
     1
176
     1
290
     1
176
     1
290
     0
176
     1
290
     0
176
     1
290
     0
176
     1
290
     0
176
     1
290
     0
176
     1
290
     0
176
     1
 90
       50
176
     1
 40
0.0
176
     1
 40
1.0
176
     1
 90
        0
176
     1
 62
    18
420
        0
176
     1
 90
       50
176
     1
 90
        3
176
     1
 62
     5
420
      255
176
     1
290
     0
176
     1
 90
       50
176
     1
 90
       50
176
     1
 90
       50
176
     1
290
     0
176
     1
 90
       50
176
     1
 62
   256
176
     0
 40
1.0
176
     0
 90
        2
176
     1
  1
strokes_ogs.tif
176
     1
290
     0
176
     1
 40
1.0
176
     1
 40
1.0
176
     1
  0
VISUALSTYLE
  5
2A
102
{ACAD_REACTORS
330
29
102
}
330
29
100
AcDbVisualStyle
  2
Flat
 70
     0
177
     3
291
     1
 70
    58
 90
        2
176
     1
 90
        1
176
     1
 90
        1
176
     1
 90
        2
176
     1
 40
0.6
176
     1
 40
30.0
176
     1
 62
     7
420
 16777215
176
     1
 90
        0
176
     1
 90
        0
176
     1
 62
     7
176
     1
 62
   257
176
     1
 90
        1
176
     1
 90
        1
176
     1
 40
1.0
176
     1
 90
        8
176
     1
 62
     7
176
     1
 40
1.0
176
     1
 90
        1
176
     1
 90
        6
176
     1
 90
        2
176
     1
 62
     7
176
     1
 90
        5
176
     1
 90
        0
176
     1
 90
        0
176
     1
290
     0
176
     1
 90
       13
176
     1
 40
0.0
176
     1
 90
        0
176
     1
290
     0
176
     1
290
     1
176
     1
290
     1
176
     1
290
     0
176
     1
290
     0
176
     1
290
     0
176
     1
290
     0
176
     1
290
     0
176
     1
290
     0
176
     1
 90
       50
176
     1
 40
0.0
176
     1
 40
1.0
176
     1
 90
        0
176
     1
 62
    18
420
        0
176
     1
 90
       50
176
     1
 90
        3
176
     1
 62
     5
420
      255
176
     1
290
     0
176
     1
 90
       50
176
     1
 90
       50
176
     1
 90
       50
176
     1
290
     0
176
     1
 90
       50
176
     1
 62
   256
176
     0
 40
1.0
176
     0
 90
        2
176
     1
  1
strokes_ogs.tif
176
     1
290
     0
176
     1
 40
1.0
176
     1
 40
1.0
176
     1
  0
VISUALSTYLE
  5
2B
102
{ACAD_REACTORS
330
29
102
}
330
29
100
AcDbVisualStyle
  2
FlatWithEdges
 70
     1
177
     3
291
     1
 70
    58
 90
        2
176
     1
 90
        1
176
     1
 90
        1
176
     1
 90
        2
176
     1
 40
0.6
176
     1
 40
30.0
176
     1
 62
     7
420
 16777215
176
     1
 90
        1
176
     1
 90
        0
176
     1
 62
     7
176
     1
 62
   257
176
     1
 90
        1
176
     1
 90
        1
176
     1
 40
1.0
176
     1
 90
        0
176
     1
 62
   257
176
     1
 40
1.0
176
     1
 90
        1
176
     1
 90
        6
176
     1
 90
        2
176
     1
 62
     7
176
     1
 90
        5
176
     1
 90
        0
176
     1
 90
        0
176
     1
290
     0
176
     1
 90
       13
176
     1
 40
0.0
176
     1
 90
        0
176
     1
290
     0
176
     1
290
     1
176
     1
290
     1
176
     1
290
     0
176
     1
290
     0
176
     1
290
     0
176
     1
290
     0
176
     1
290
     0
176
     1
290
     0
176
     1
 90
       50
176
     1
 40
0.0
176
     1
 40
1.0
176
     1
 90
        0
176
     1
 62
    18
420
        0
176
     1
 90
       50
176
     1
 90
        3
176
     1
 62
     5
420
      255
176
     1
290
     0
176
     1
 90
       50
176
     1
 90
       50
176
     1
 90
       50
176
     1
290
     0
176
     1
 90
       50
176
     1
 62
   256
176
     0
 40
1.0
176
     0
 90
        2
176
     1
  1
strokes_ogs.tif
176
     1
290
     0
176
     1
 40
1.0
176
     1
 40
1.0
176
     1
  0
VISUALSTYLE
  5
2C
102
{ACAD_REACTORS
330
29
102
}
330
29
100
AcDbVisualStyle
  2
Gouraud
 70
     2
177
     3
291
     1
 70
    58
 90
        2
176
     1
 90
        2
176
     1
 90
        1
176
     1
 90
        2
176
     1
 40
0.6
176
     1
 40
30.0
176
     1
 62
     7
420
 16777215
176
     1
 90
        0
176
     1
 90
        0
176
     1
 62
     7
176
     1
 62
   257
176
     1
 90
        1
176
     1
 90
        1
176
     1
 40
1.0
176
     1
 90
        0
176
     1
 62
     7
176
     1
 40
1.0
176
     1
 90
        1
176
     1
 90
        6
176
     1
 90
        2
176
     1
 62
     7
176
     1
 90
        5
176
     1
 90
        0
176
     1
 90
        0
176
     1
290
     0
176
     1
 90
       13
176
     1
 40
0.0
176
     1
 90
        0
176
     1
290
     0
176
     1
290
     1
176
     1
290
     1
176
     1
290
     0
176
     1
290
     0
176
     1
290
     0
176
     1
290
     0
176
     1
290
     0
176
     1
290
     0
176
     1
 90
       50
176
     1
 40
0.0
176
     1
 40
1.0
176
     1
 90
        0
176
     1
 62
    18
420
        0
176
     1
 90
       50
176
     1
 90
        3
176
     1
 62
     5
420
      255
176
     1
290
     0
176
     1
 90
       50
176
     1
 90
       50
176
     1
 90
       50
176
     1
290
     0
176
     1
 90
       50
176
     1
 62
   256
176
     0
 40
1.0
176
     0
 90
        2
176
     1
  1
strokes_ogs.tif
176
     1
290
     0
176
     1
 40
1.0
176
     1
 40
1.0
176
     1
  0
VISUALSTYLE
  5
2D
102
{ACAD_REACTORS
330
29
102
}
330
29
100
AcDbVisualStyle
  2
GouraudWithEdges
 70
     3
177
     3
291
     1
 70
    58
 90
        2
176
     1
 90
        2
176
     1
 90
        1
176
     1
 90
        2
176
     1
 40
0.6
176
     1
 40
30.0
176
     1
 62
     7
420
 16777215
176
     1
 90
        1
176
     1
 90
        0
176
     1
 62
     7
176
     1
 62
   257
176
     1
 90
        1
176
     1
 90
        1
176
     1
 40
1.0
176
     1
 90
        0
176
     1
 62
   257
176
     1
 40
1.0
176
     1
 90
        1
176
     1
 90
        6
176
     1
 90
        2
176
     1
 62
     7
176
     1
 90
        5
176
     1
 90
        0
176
     1
 90
        0
176
     1
290
     0
176
     1
 90
       13
176
     1
 40
0.0
176
     1
 90
        0
176
     1
290
     0
176
     1
290
     1
176
     1
290
     1
176
     1
290
     0
176
     1
290
     0
176
     1
290
     0
176
     1
290
     0
176
     1
290
     0
176
     1
290
     0
176
     1
 90
       50
176
     1
 40
0.0
176
     1
 40
1.0
176
     1
 90
        0
176
     1
 62
    18
420
        0
176
     1
 90
       50
176
     1
 90
        3
176
     1
 62
     5
420
      255
176
     1
290
     0
176
     1
 90
       50
176
     1
 90
       50
176
     1
 90
       50
176
     1
290
     0
176
     1
 90
       50
176
     1
 62
   256
176
     0
 40
1.0
176
     0
 90
        2
176
     1
  1
strokes_ogs.tif
176
     1
290
     0
176
     1
 40
1.0
176
     1
 40
1.0
176
     1
  0
VISUALSTYLE
  5
31
102
{ACAD_REACTORS
330
29
102
}
330
29
100
AcDbVisualStyle
  2
Hidden
 70
     6
177
     3
291
     0
 70
    58
 90
        1
176
     1
 90
        2
176
     1
 90
        2
176
     1
 90
        0
176
     1
 40
0.6
176
     1
 40
30.0
176
     1
 62
     7
420
 16777215
176
     1
 90
        2
176
     1
 90
        2
176
     1
 62
     7
176
     1
 62
   257
176
     1
 90
        2
176
     1
 90
        1
176
     1
 40
40.0
176
     1
 90
        0
176
     1
 62
   257
176
     1
 40
1.0
176
     1
 90
        1
176
     1
 90
        6
176
     1
 90
        2
176
     1
 62
     7
176
     1
 90
        3
176
     1
 90
        0
176
     1
 90
        0
176
     1
290
     0
176
     1
 90
        1
176
     1
 40
0.0
176
     1
 90
        0
176
     1
290
     0
176
     1
290
     1
176
     1
290
     1
176
     1
290
     0
176
     1
290
     0
176
     1
290
     0
176
     1
290
     0
176
     1
290
     0
176
     1
290
     0
176
     1
 90
       50
176
     1
 40
0.0
176
     1
 40
1.0
176
     1
 90
        0
176
     1
 62
    18
420
        0
176
     1
 90
       50
176
     1
 90
        3
176
     1
 62
     5
420
      255
176
     1
290
     0
176
     1
 90
       50
176
     1
 90
       50
176
     1
 90
       50
176
     1
290
     0
176
     1
 90
       50
176
     1
 62
   256
176
     0
 40
1.0
176
     0
 90
        2
176
     1
  1
strokes_ogs.tif
176
     1
290
     0
176
     1
 40
1.0
176
     1
 40
1.0
176
     1
  0
VISUALSTYLE
  5
3F
102
{ACAD_REACTORS
330
29
102
}
330
29
100
AcDbVisualStyle
  2
JitterOff
 70
    20
177
     3
291
     1
 70
    58
 90
        2
176
     0
 90
        2
176
     0
 90
        0
176
     0
 90
        0
176
     0
 40
0.6
176
     0
 40
30.0
176
     0
 62
     7
420
 16777215
176
     0
 90
        1
176
     0
 90
        4
176
     0
 62
     7
176
     0
 62
   257
176
     0
 90
        1
176
     0
 90
        1
176
     0
 40
1.0
176
     0
 90
       10
176
     2
 62
     7
176
     0
 40
1.0
176
     0
 90
        1
176
     0
 90
        6
176
     0
 90
        2
176
     0
 62
     7
176
     0
 90
        5
176
     0
 90
        0
176
     0
 90
        0
176
     0
290
     0
176
     0
 90
        1
176
     0
 40
0.0
176
     0
 90
        0
176
     0
290
     0
176
     0
290
     1
176
     0
290
     1
176
     0
290
     0
176
     0
290
     0
176
     0
290
     0
176
     0
290
     0
176
     0
290
     0
176
     0
290
     0
176
     0
 90
       50
176
     0
 40
0.0
176
     0
 40
1.0
176
     0
 90
        0
176
     0
 62
    18
420
        0
176
     0
 90
       50
176
     0
 90
        3
176
     0
 62
     5
420
      255
176
     0
290
     0
176
     0
 90
       50
176
     0
 90
       50
176
     0
 90
       50
176
     0
290
     0
176
     0
 90
       50
176
     0
 62
   256
176
     0
 40
1.0
176
     0
 90
        2
176
     0
  1
strokes_ogs.tif
176
     0
290
     0
176
     0
 40
1.0
176
     0
 40
1.0
176
     0
  0
VISUALSTYLE
  5
37
102
{ACAD_REACTORS
330
29
102
}
330
29
100
AcDbVisualStyle
  2
Linepattern
 70
    14
177
     3
291
     1
 70
    58
 90
        2
176
     1
 90
        2
176
     1
 90
        0
176
     1
 90
        0
176
     1
 40
0.6
176
     1
 40
30.0
176
     1
 62
     7
420
 16777215
176
     1
 90
        1
176
     1
 90
        4
176
     1
 62
     7
176
     1
 62
   257
176
     1
 90
        7
176
     1
 90
        7
176
     1
 40
1.0
176
     1
 90
        8
176
     1
 62
     7
176
     1
 40
1.0
176
     1
 90
        1
176
     1
 90
        6
176
     1
 90
        2
176
     1
 62
     7
176
     1
 90
        5
176
     1
 90
        0
176
     1
 90
        0
176
     1
290
     0
176
     1
 90
        1
176
     1
 40
0.0
176
     1
 90
        0
176
     1
290
     0
176
     1
290
     1
176
     1
290
     1
176
     1
290
     0
176
     1
290
     0
176
     1
290
     0
176
     1
290
     0
176
     1
290
     0
176
     1
290
     0
176
     1
 90
       50
176
     1
 40
0.0
176
     1
 40
1.0
176
     1
 90
        0
176
     1
 62
    18
420
        0
176
     1
 90
       50
176
     1
 90
        3
176
     1
 62
     5
420
      255
176
     1
290
     0
176
     1
 90
       50
176
     1
 90
       50
176
     1
 90
       50
176
     1
290
     0
176
     1
 90
       50
176
     1
 62
   256
176
     0
 40
1.0
176
     0
 90
        2
176
     1
  1
strokes_ogs.tif
176
     1
290
     0
176
     1
 40
1.0
176
     1
 40
1.0
176
     1
  0
VISUALSTYLE
  5
40
102
{ACAD_REACTORS
330
29
102
}
330
29
100
AcDbVisualStyle
  2
OverhangOff
 70
    21
177
     3
291
     1
 70
    58
 90
        2
176
     0
 90
        2
176
     0
 90
        0
176
     0
 90
        0
176
     0
 40
0.6
176
     0
 40
30.0
176
     0
 62
     7
420
 16777215
176
     0
 90
        1
176
     0
 90
        4
176
     0
 62
     7
176
     0
 62
   257
176
     0
 90
        1
176
     0
 90
        1
176
     0
 40
1.0
176
     0
 90
        9
176
     2
 62
     7
176
     0
 40
1.0
176
     0
 90
        1
176
     0
 90
        6
176
     0
 90
        2
176
     0
 62
     7
176
     0
 90
        5
176
     0
 90
        0
176
     0
 90
        0
176
     0
290
     0
176
     0
 90
        1
176
     0
 40
0.0
176
     0
 90
        0
176
     0
290
     0
176
     0
290
     1
176
     0
290
     1
176
     0
290
     0
176
     0
290
     0
176
     0
290
     0
176
     0
290
     0
176
     0
290
     0
176
     0
290
     0
176
     0
 90
       50
176
     0
 40
0.0
176
     0
 40
1.0
176
     0
 90
        0
176
     0
 62
    18
420
        0
176
     0
 90
       50
176
     0
 90
        3
176
     0
 62
     5
420
      255
176
     0
290
     0
176
     0
 90
       50
176
     0
 90
       50
176
     0
 90
       50
176
     0
290
     0
176
     0
 90
       50
176
     0
 62
   256
176
     0
 40
1.0
176
     0
 90
        2
176
     0
  1
strokes_ogs.tif
176
     0
290
     0
176
     0
 40
1.0
176
     0
 40
1.0
176
     0
  0
VISUALSTYLE
  5
33
102
{ACAD_REACTORS
330
29
102
}
330
29
100
AcDbVisualStyle
  2
Realistic
 70
     8
177
     3
291
     0
 70
    58
 90
        2
176
     1
 90
        3
176
     1
 90
        0
176
     1
 90
        2
176
     1
 40
0.6
176
     1
 40
30.0
176
     1
 62
     7
420
 16777215
176
     1
 90
        0
176
     1
 90
        0
176
     1
 62
     7
176
     1
 62
   257
176
     1
 90
        1
176
     1
 90
        1
176
     1
 40
1.0
176
     1
 90
        8
176
     1
 62
   257
176
     1
 40
1.0
176
     1
 90
        1
176
     1
 90
        6
176
     1
 90
        2
176
     1
 62
     7
176
     1
 90
        3
176
     1
 90
        0
176
     1
 90
        0
176
     1
290
     0
176
     1
 90
       13
176
     1
 40
0.0
176
     1
 90
        0
176
     1
290
     0
176
     1
290
     1
176
     1
290
     1
176
     1
290
     0
176
     1
290
     0
176
     1
290
     0
176
     1
290
     0
176
     1
290
     0
176
     1
290
     0
176
     1
 90
       50
176
     1
 40
0.0
176
     1
 40
1.0
176
     1
 90
        0
176
     1
 62
    18
420
        0
176
     1
 90
       50
176
     1
 90
        3
176
     1
 62
     5
420
      255
176
     1
290
     0
176
     1
 90
       50
176
     1
 90
       50
176
     1
 90
       50
176
     1
290
     0
176
     1
 90
       50
176
     1
 62
   256
176
     0
 40
1.0
176
     0
 90
        2
176
     1
  1
strokes_ogs.tif
176
     1
290
     0
176
     1
 40
1.0
176
     1
 40
1.0
176
     1
  0
VISUALSTYLE
  5
3E
102
{ACAD_REACTORS
330
29
102
}
330
29
100
AcDbVisualStyle
  2
Shaded
 70
    27
177
     3
291
     0
 70
    58
 90
        2
176
     1
 90
        2
176
     1
 90
        1
176
     1
 90
        2
176
     1
 40
0.6
176
     1
 40
30.0
176
     1
 62
     7
420
 16777215
176
     1
 90
        0
176
     1
 90
        4
176
     1
 62
     7
176
     1
 62
   257
176
     1
 90
        1
176
     1
 90
        1
176
     1
 40
1.0
176
     1
 90
        8
176
     1
 62
   257
176
     1
 40
1.0
176
     1
 90
        1
176
     1
 90
        6
176
     1
 90
        2
176
     1
 62
     8
420
  7895160
176
     1
 90
        3
176
     1
 90
        0
176
     1
 90
        0
176
     1
290
     0
176
     1
 90
        5
176
     1
 40
0.0
176
     1
 90
        0
176
     1
290
     0
176
     1
290
     1
176
     1
290
     1
176
     1
290
     0
176
     1
290
     0
176
     1
290
     0
176
     1
290
     0
176
     1
290
     0
176
     1
290
     0
176
     1
 90
       50
176
     1
 40
0.0
176
     1
 40
1.0
176
     1
 90
        0
176
     1
 62
    18
420
        0
176
     1
 90
       50
176
     1
 90
        3
176
     1
 62
     5
420
      255
176
     1
290
     0
176
     1
 90
       50
176
     1
 90
       50
176
     1
 90
       50
176
     1
290
     0
176
     1
 90
       50
176
     1
 62
   256
176
     0
 40
1.0
176
     0
 90
        2
176
     1
  1
strokes_ogs.tif
176
     1
290
     0
176
     1
 40
1.0
176
     1
 40
1.0
176
     1
  0
VISUALSTYLE
  5
3D
102
{ACAD_REACTORS
330
29
102
}
330
29
100
AcDbVisualStyle
  2
Shaded with edges
 70
    26
177
     3
291
     0
 70
    58
 90
        2
176
     1
 90
        2
176
     1
 90
        1
176
     1
 90
        2
176
     1
 40
0.6
176
     1
 40
30.0
176
     1
 62
     7
420
 16777215
176
     1
 90
        1
176
     1
 90
       10
176
     1
 62
     7
176
     1
 62
   257
176
     1
 90
        2
176
     1
 90
        1
176
     1
 40
1.0
176
     1
 90
        8
176
     1
 62
   257
176
     1
 40
1.0
176
     1
 90
        1
176
     1
 90
        6
176
     1
 90
        2
176
     1
 62
     7
176
     1
 90
        3
176
     1
 90
        0
176
     1
 90
        0
176
     1
290
     0
176
     1
 90
        5
176
     1
 40
0.0
176
     1
 90
        0
176
     1
290
     0
176
     1
290
     1
176
     1
290
     1
176
     1
290
     0
176
     1
290
     0
176
     1
290
     0
176
     1
290
     0
176
     1
290
     0
176
     1
290
     0
176
     1
 90
       50
176
     1
 40
0.0
176
     1
 40
1.0
176
     1
 90
        0
176
     1
 62
    18
420
        0
176
     1
 90
       50
176
     1
 90
        3
176
     1
 62
     5
420
      255
176
     1
290
     0
176
     1
 90
       50
176
     1
 90
       50
176
     1
 90
       50
176
     1
290
     0
176
     1
 90
       50
176
     1
 62
   256
176
     0
 40
1.0
176
     0
 90
        2
176
     1
  1
strokes_ogs.tif
176
     1
290
     0
176
     1
 40
1.0
176
     1
 40
1.0
176
     1
  0
VISUALSTYLE
  5
3A
102
{ACAD_REACTORS
330
29
102
}
330
29
100
AcDbVisualStyle
  2
Shades of Gray
 70
    23
177
     3
291
     0
 70
    58
 90
        2
176
     1
 90
        2
176
     1
 90
        3
176
     1
 90
        0
176
     1
 40
0.6
176
     1
 40
30.0
176
     1
 62
     7
420
 16777215
176
     1
 90
        2
176
     1
 90
        2
176
     1
 62
     7
176
     1
 62
     7
176
     1
 90
        1
176
     1
 90
        1
176
     1
 40
40.0
176
     1
 90
        8
176
     1
 62
     7
176
     1
 40
1.0
176
     1
 90
        1
176
     1
 90
        6
176
     1
 90
        2
176
     1
 62
     7
176
     1
 90
        3
176
     1
 90
        0
176
     1
 90
        0
176
     1
290
     0
176
     1
 90
        1
176
     1
 40
0.0
176
     1
 90
        0
176
     1
290
     0
176
     1
290
     1
176
     1
290
     1
176
     1
290
     0
176
     1
290
     0
176
     1
290
     0
176
     1
290
     0
176
     1
290
     0
176
     1
290
     0
176
     1
 90
       50
176
     1
 40
0.0
176
     1
 40
1.0
176
     1
 90
        0
176
     1
 62
    18
420
        0
176
     1
 90
       50
176
     1
 90
        3
176
     1
 62
     5
420
      255
176
     1
290
     0
176
     1
 90
       50
176
     1
 90
       50
176
     1
 90
       50
176
     1
290
     0
176
     1
 90
       50
176
     1
 62
   256
176
     0
 40
1.0
176
     0
 90
        2
176
     1
  1
strokes_ogs.tif
176
     1
290
     0
176
     1
 40
1.0
176
     1
 40
1.0
176
     1
  0
VISUALSTYLE
  5
3B
102
{ACAD_REACTORS
330
29
102
}
330
29
100
AcDbVisualStyle
  2
Sketchy
 70
    24
177
     3
291
     0
 70
    58
 90
        1
176
     1
 90
        2
176
     1
 90
        2
176
     1
 90
        0
176
     1
 40
0.6
176
     1
 40
30.0
176
     1
 62
     7
420
 16777215
176
     1
 90
        2
176
     1
 90
        2
176
     1
 62
     7
176
     1
 62
     7
176
     1
 90
        1
176
     1
 90
        1
176
     1
 40
40.0
176
     1
 90
       11
176
     1
 62
     7
176
     1
 40
1.0
176
     1
 90
        1
176
     1
 90
        6
176
     1
 90
        2
176
     1
 62
     7
176
     1
 90
        6
176
     1
 90
        0
176
     1
 90
        0
176
     1
290
     0
176
     1
 90
        1
176
     1
 40
0.0
176
     1
 90
        0
176
     1
290
     0
176
     1
290
     1
176
     1
290
     1
176
     1
290
     0
176
     1
290
     0
176
     1
290
     0
176
     1
290
     0
176
     1
290
     0
176
     1
290
     0
176
     1
 90
       50
176
     1
 40
0.0
176
     1
 40
1.0
176
     1
 90
        0
176
     1
 62
    18
420
        0
176
     1
 90
       50
176
     1
 90
        3
176
     1
 62
     5
420
      255
176
     1
290
     0
176
     1
 90
       50
176
     1
 90
       50
176
     1
 90
       50
176
     1
290
     0
176
     1
 90
       50
176
     1
 62
   256
176
     0
 40
1.0
176
     0
 90
        2
176
     1
  1
strokes_ogs.tif
176
     1
290
     0
176
     1
 40
1.0
176
     1
 40
1.0
176
     1
  0
VISUALSTYLE
  5
36
102
{ACAD_REACTORS
330
29
102
}
330
29
100
AcDbVisualStyle
  2
Thicken
 70
    13
177
     3
291
     1
 70
    58
 90
        2
176
     1
 90
        2
176
     1
 90
        0
176
     1
 90
        0
176
     1
 40
0.6
176
     1
 40
30.0
176
     1
 62
     7
420
 16777215
176
     1
 90
        1
176
     1
 90
        4
176
     1
 62
     7
176
     1
 62
   257
176
     1
 90
        1
176
     1
 90
        1
176
     1
 40
1.0
176
     1
 90
       12
176
     1
 62
     7
176
     1
 40
1.0
176
     1
 90
        1
176
     1
 90
        6
176
     1
 90
        2
176
     1
 62
     7
176
     1
 90
        5
176
     1
 90
        0
176
     1
 90
        0
176
     1
290
     0
176
     1
 90
        1
176
     1
 40
0.0
176
     1
 90
        0
176
     1
290
     0
176
     1
290
     1
176
     1
290
     1
176
     1
290
     0
176
     1
290
     0
176
     1
290
     0
176
     1
290
     0
176
     1
290
     0
176
     1
290
     0
176
     1
 90
       50
176
     1
 40
0.0
176
     1
 40
1.0
176
     1
 90
        0
176
     1
 62
    18
420
        0
176
     1
 90
       50
176
     1
 90
        3
176
     1
 62
     5
420
      255
176
     1
290
     0
176
     1
 90
       50
176
     1
 90
       50
176
     1
 90
       50
176
     1
290
     0
176
     1
 90
       50
176
     1
 62
   256
176
     0
 40
1.0
176
     0
 90
        2
176
     1
  1
strokes_ogs.tif
176
     1
290
     0
176
     1
 40
1.0
176
     1
 40
1.0
176
     1
  0
VISUALSTYLE
  5
30
102
{ACAD_REACTORS
330
29
102
}
330
29
100
AcDbVisualStyle
  2
Wireframe
 70
     5
177
     3
291
     0
 70
    58
 90
        0
176
     1
 90
        2
176
     1
 90
        0
176
     1
 90
        0
176
     1
 40
0.6
176
     1
 40
30.0
176
     1
 62
     7
420
 16777215
176
     1
 90
        1
176
     1
 90
        4
176
     1
 62
     7
176
     1
 62
   257
176
     1
 90
        1
176
     1
 90
        1
176
     1
 40
1.0
176
     1
 90
        0
176
     1
 62
   257
176
     1
 40
1.0
176
     1
 90
        1
176
     1
 90
        6
176
     1
 90
        2
176
     1
 62
     7
176
     1
 90
        3
176
     1
 90
        0
176
     1
 90
        0
176
     1
290
     0
176
     1
 90
        1
176
     1
 40
0.0
176
     1
 90
        0
176
     1
290
     0
176
     1
290
     1
176
     1
290
     1
176
     1
290
     0
176
     1
290
     0
176
     1
290
     0
176
     1
290
     0
176
     1
290
     0
176
     1
290
     0
176
     1
 90
       50
176
     1
 40
0.0
176
     1
 40
1.0
176
     1
 90
        0
176
     1
 62
    18
420
        0
176
     1
 90
       50
176
     1
 90
        3
176
     1
 62
     5
420
      255
176
     1
290
     0
176
     1
 90
       50
176
     1
 90
       50
176
     1
 90
       50
176
     1
290
     0
176
     1
 90
       50
176
     1
 62
   256
176
     0
 40
1.0
176
     0
 90
        2
176
     1
  1
strokes_ogs.tif
176
     1
290
     0
176
     1
 40
1.0
176
     1
 40
1.0
176
     1
  0
VISUALSTYLE
  5
3C
102
{ACAD_REACTORS
330
29
102
}
330
29
100
AcDbVisualStyle
  2
X-Ray
 70
    25
177
     3
291
     0
 70
    58
 90
        2
176
     1
 90
        2
176
     1
 90
        1
176
     1
 90
        1
176
     1
 40
0.5
176
     1
 40
30.0
176
     1
 62
     7
420
 16777215
176
     1
 90
        1
176
     1
 90
        0
176
     1
 62
     7
176
     1
 62
   257
176
     1
 90
        1
176
     1
 90
        1
176
     1
 40
1.0
176
     1
 90
        8
176
     1
 62
     7
176
     1
 40
1.0
176
     1
 90
        1
176
     1
 90
        6
176
     1
 90
        2
176
     1
 62
     7
176
     1
 90
        3
176
     1
 90
        0
176
     1
 90
        0
176
     1
290
     0
176
     1
 90
       13
176
     1
 40
0.0
176
     1
 90
        0
176
     1
290
     0
176
     1
290
     1
176
     1
290
     1
176
     1
290
     0
176
     1
290
     0
176
     1
290
     0
176
     1
290
     0
176
     1
290
     0
176
     1
290
     0
176
     1
 90
       50
176
     1
 40
0.0
176
     1
 40
1.0
176
     1
 90
        0
176
     1
 62
    18
420
        0
176
     1
 90
       50
176
     1
 90
        3
176
     1
 62
     5
420
      255
176
     1
290
     0
176
     1
 90
       50
176
     1
 90
       50
176
     1
 90
       50
176
     1
290
     0
176
     1
 90
       50
176
     1
 62
   256
176
     0
 40
1.0
176
     0
 90
        2
176
     1
  1
strokes_ogs.tif
176
     1
290
     0
176
     1
 40
1.0
176
     1
 40
1.0
176
     1
  0
DICTIONARYVAR
  5
81
102
{ACAD_REACTORS
330
7C
102
}
330
7C
100
DictionaryVariables
280
     0
  1
1:1
  0
DICTIONARYVAR
  5
7E
102
{ACAD_REACTORS
330
7C
102
}
330
7C
100
DictionaryVariables
280
     0
  1
STANDARD
  0
DICTIONARYVAR
  5
7D
102
{ACAD_REACTORS
330
7C
102
}
330
7C
100
DictionaryVariables
280
     0
  1
STANDARD
  0
DICTIONARYVAR
  5
7F
102
{ACAD_REACTORS
330
7C
102
}
330
7C
100
DictionaryVariables
280
     0
  1
Imperial24
  0
DICTIONARYVAR
  5
80
102
{ACAD_REACTORS
330
7C
102
}
330
7C
100
DictionaryVariables
280
     0
  1
Imperial24
  0
XRECORD
  5
186
102
{ACAD_REACTORS
330
183
102
}
330
183
100
AcDbXrecord
280
     1
  1
BUILDING_ID
  1
Progetto per messa in tavola DXF, DWG
  1
FLOOR_ID
  1
694395
  0
XRECORD
  5
185
102
{ACAD_REACTORS
330
183
102
}
330
183
100
AcDbXrecord
280
     1
  1
-2001160
  1
Apparecchi idraulici
  0
XRECORD
  5
184
102
{ACAD_REACTORS
330
183
102
}
330
183
100
AcDbXrecord
280
     1
  1
859151
  1
Automatic flow rate regulator valve_Caleffi_121 DN15 : 1/2''
  0
DICTIONARY
  5
1A
330
19
100
AcDbDictionary
280
     1
281
     1
  3
BUMPTILE
360
1C
  3
DIFFUSETILE
360
1B
  3
OPACITYTILE
360
1F
  3
REFLECTIONTILE
360
1E
  3
REFRACTIONTILE
360
20
  3
SPECULARTILE
360
1D
  0
DICTIONARY
  5
12
330
11
100
AcDbDictionary
280
     1
281
     1
  3
BUMPTILE
360
14
  3
DIFFUSETILE
360
13
  3
OPACITYTILE
360
17
  3
REFLECTIONTILE
360
16
  3
REFRACTIONTILE
360
18
  3
SPECULARTILE
360
15
  0
DICTIONARY
  5
22
330
21
100
AcDbDictionary
280
     1
281
     1
  3
BUMPTILE
360
24
  3
DIFFUSETILE
360
23
  3
OPACITYTILE
360
27
  3
REFLECTIONTILE
360
26
  3
REFRACTIONTILE
360
28
  3
SPECULARTILE
360
25
  0
DICTIONARY
  5
189
330
65
100
AcDbDictionary
280
     1
281
     1
  3
ACAD_ROUNDTRIP_2008_TABLESTYLE_CELLSTYLEMAP
360
18A
  0
XRECORD
  5
1C
102
{ACAD_REACTORS
330
1A
102
}
330
1A
100
AcDbXrecord
280
     1
270
     1
271
     1
  0
XRECORD
  5
1B
102
{ACAD_REACTORS
330
1A
102
}
330
1A
100
AcDbXrecord
280
     1
270
     1
271
     1
  0
XRECORD
  5
1F
102
{ACAD_REACTORS
330
1A
102
}
330
1A
100
AcDbXrecord
280
     1
270
     1
271
     1
  0
XRECORD
  5
1E
102
{ACAD_REACTORS
330
1A
102
}
330
1A
100
AcDbXrecord
280
     1
270
     1
271
     1
  0
XRECORD
  5
20
102
{ACAD_REACTORS
330
1A
102
}
330
1A
100
AcDbXrecord
280
     1
270
     1
271
     1
  0
XRECORD
  5
1D
102
{ACAD_REACTORS
330
1A
102
}
330
1A
100
AcDbXrecord
280
     1
270
     1
271
     1
  0
XRECORD
  5
14
102
{ACAD_REACTORS
330
12
102
}
330
12
100
AcDbXrecord
280
     1
270
     1
271
     1
  0
XRECORD
  5
13
102
{ACAD_REACTORS
330
12
102
}
330
12
100
AcDbXrecord
280
     1
270
     1
271
     1
  0
XRECORD
  5
17
102
{ACAD_REACTORS
330
12
102
}
330
12
100
AcDbXrecord
280
     1
270
     1
271
     1
  0
XRECORD
  5
16
102
{ACAD_REACTORS
330
12
102
}
330
12
100
AcDbXrecord
280
     1
270
     1
271
     1
  0
XRECORD
  5
18
102
{ACAD_REACTORS
330
12
102
}
330
12
100
AcDbXrecord
280
     1
270
     1
271
     1
  0
XRECORD
  5
15
102
{ACAD_REACTORS
330
12
102
}
330
12
100
AcDbXrecord
280
     1
270
     1
271
     1
  0
XRECORD
  5
24
102
{ACAD_REACTORS
330
22
102
}
330
22
100
AcDbXrecord
280
     1
270
     1
271
     1
  0
XRECORD
  5
23
102
{ACAD_REACTORS
330
22
102
}
330
22
100
AcDbXrecord
280
     1
270
     1
271
     1
  0
XRECORD
  5
27
102
{ACAD_REACTORS
330
22
102
}
330
22
100
AcDbXrecord
280
     1
270
     1
271
     1
  0
XRECORD
  5
26
102
{ACAD_REACTORS
330
22
102
}
330
22
100
AcDbXrecord
280
     1
270
     1
271
     1
  0
XRECORD
  5
28
102
{ACAD_REACTORS
330
22
102
}
330
22
100
AcDbXrecord
280
     1
270
     1
271
     1
  0
XRECORD
  5
25
102
{ACAD_REACTORS
330
22
102
}
330
22
100
AcDbXrecord
280
     1
270
     1
271
     1
  0
CELLSTYLEMAP
  5
18A
102
{ACAD_REACTORS
330
189
102
}
330
189
100
AcDbCellStyleMap
 90
        3
300
CELLSTYLE
  1
TABLEFORMAT_BEGIN
 90
        5
170
     1
 91
        0
 92
    32768
 62
   257
 93
        1
300
CONTENTFORMAT
  1
CONTENTFORMAT_BEGIN
 90
        0
 91
        0
 92
      512
 93
        0
300

 40
0.0
140
1.0
 94
        5
 62
     0
340
55
144
0.25
309
CONTENTFORMAT_END
171
     0
 94
        0
309
TABLEFORMAT_END
  1
CELLSTYLE_BEGIN
 90
        1
 91
        1
300
_TITLE
309
CELLSTYLE_END
300
CELLSTYLE
  1
TABLEFORMAT_BEGIN
 90
        5
170
     1
 91
        0
 92
        0
 62
   257
 93
        1
300
CONTENTFORMAT
  1
CONTENTFORMAT_BEGIN
 90
        0
 91
        0
 92
      512
 93
        0
300

 40
0.0
140
1.0
 94
        5
 62
     0
340
55
144
0.18
309
CONTENTFORMAT_END
171
     0
 94
        0
309
TABLEFORMAT_END
  1
CELLSTYLE_BEGIN
 90
        2
 91
        1
300
_HEADER
309
CELLSTYLE_END
300
CELLSTYLE
  1
TABLEFORMAT_BEGIN
 90
        5
170
     1
 91
        0
 92
        0
 62
   257
 93
        1
300
CONTENTFORMAT
  1
CONTENTFORMAT_BEGIN
 90
        0
 91
        0
 92
      512
 93
        0
300

 40
0.0
140
1.0
 94
        2
 62
     0
340
55
144
0.18
309
CONTENTFORMAT_END
171
     0
 94
        0
309
TABLEFORMAT_END
  1
CELLSTYLE_BEGIN
 90
        3
 91
        2
300
_DATA
309
CELLSTYLE_END
  0
ENDSEC
  0
EOF
