  0
SECTION
  2
HEADER
  9
$ACADVER
  1
AC1027
  9
$ACADMAINTVER
 70
    20
  9
$DWGCODEPAGE
  3
ANSI_1252
  9
$REQUIREDVERSIONS
160
                 0
  9
$INSBASE
 10
0.0
 20
0.0
 30
0.0
  9
$EXTMIN
 10
695.6664074431423
 20
1756.46462873005
 30
-0.00000001
  9
$EXTMAX
 10
1141.114353953097
 20
2139.500000010071
 30
0.00000001
  9
$LIMMIN
 10
0.0
 20
0.0
  9
$LIMMAX
 10
12.0
 20
9.0
  9
$ORTHOMODE
 70
     0
  9
$REGENMODE
 70
     1
  9
$FILLMODE
 70
     1
  9
$QTEXTMODE
 70
     0
  9
$MIRRTEXT
 70
     0
  9
$LTSCALE
 40
1.0
  9
$ATTMODE
 70
     1
  9
$TEXTSIZE
 40
0.2
  9
$TRACEWID
 40
0.05
  9
$TEXTSTYLE
  7
Standard
  9
$CLAYER
  8
0
  9
$CELTYPE
  6
ByLayer
  9
$CECOLOR
 62
   256
  9
$CELTSCALE
 40
1.0
  9
$DISPSILH
 70
     0
  9
$DIMSCALE
 40
1.0
  9
$DIMASZ
 40
0.18
  9
$DIMEXO
 40
0.0625
  9
$DIMDLI
 40
0.38
  9
$DIMRND
 40
0.0
  9
$DIMDLE
 40
0.0
  9
$DIMEXE
 40
0.18
  9
$DIMTP
 40
0.0
  9
$DIMTM
 40
0.0
  9
$DIMTXT
 40
0.18
  9
$DIMCEN
 40
0.09
  9
$DIMTSZ
 40
0.0
  9
$DIMTOL
 70
     0
  9
$DIMLIM
 70
     0
  9
$DIMTIH
 70
     1
  9
$DIMTOH
 70
     1
  9
$DIMSE1
 70
     0
  9
$DIMSE2
 70
     0
  9
$DIMTAD
 70
     0
  9
$DIMZIN
 70
     0
  9
$DIMBLK
  1

  9
$DIMASO
 70
     1
  9
$DIMSHO
 70
     1
  9
$DIMPOST
  1

  9
$DIMAPOST
  1

  9
$DIMALT
 70
     0
  9
$DIMALTD
 70
     2
  9
$DIMALTF
 40
25.4
  9
$DIMLFAC
 40
1.0
  9
$DIMTOFL
 70
     0
  9
$DIMTVP
 40
0.0
  9
$DIMTIX
 70
     0
  9
$DIMSOXD
 70
     0
  9
$DIMSAH
 70
     0
  9
$DIMBLK1
  1

  9
$DIMBLK2
  1

  9
$DIMSTYLE
  2
Standard
  9
$DIMCLRD
 70
     0
  9
$DIMCLRE
 70
     0
  9
$DIMCLRT
 70
     0
  9
$DIMTFAC
 40
1.0
  9
$DIMGAP
 40
0.09
  9
$DIMJUST
 70
     0
  9
$DIMSD1
 70
     0
  9
$DIMSD2
 70
     0
  9
$DIMTOLJ
 70
     1
  9
$DIMTZIN
 70
     0
  9
$DIMALTZ
 70
     0
  9
$DIMALTTZ
 70
     0
  9
$DIMUPT
 70
     0
  9
$DIMDEC
 70
     4
  9
$DIMTDEC
 70
     4
  9
$DIMALTU
 70
     2
  9
$DIMALTTD
 70
     2
  9
$DIMTXSTY
  7
Standard
  9
$DIMAUNIT
 70
     0
  9
$DIMADEC
 70
     0
  9
$DIMALTRND
 40
0.0
  9
$DIMAZIN
 70
     0
  9
$DIMDSEP
 70
    46
  9
$DIMATFIT
 70
     3
  9
$DIMFRAC
 70
     0
  9
$DIMLDRBLK
  1

  9
$DIMLUNIT
 70
     2
  9
$DIMLWD
 70
    -2
  9
$DIMLWE
 70
    -2
  9
$DIMTMOVE
 70
     0
  9
$DIMFXL
 40
1.0
  9
$DIMFXLON
 70
     0
  9
$DIMJOGANG
 40
0.7853981633974483
  9
$DIMTFILL
 70
     0
  9
$DIMTFILLCLR
 70
     0
  9
$DIMARCSYM
 70
     0
  9
$DIMLTYPE
  6

  9
$DIMLTEX1
  6

  9
$DIMLTEX2
  6

  9
$DIMTXTDIRECTION
 70
     0
  9
$LUNITS
 70
     2
  9
$LUPREC
 70
     4
  9
$SKETCHINC
 40
0.1
  9
$FILLETRAD
 40
0.0
  9
$AUNITS
 70
     0
  9
$AUPREC
 70
     0
  9
$MENU
  1
.
  9
$ELEVATION
 40
0.0
  9
$PELEVATION
 40
0.0
  9
$THICKNESS
 40
0.0
  9
$LIMCHECK
 70
     0
  9
$CHAMFERA
 40
0.0
  9
$CHAMFERB
 40
0.0
  9
$CHAMFERC
 40
0.0
  9
$CHAMFERD
 40
0.0
  9
$SKPOLY
 70
     0
  9
$TDCREATE
 40
2457562.378959583
  9
$TDUCREATE
 40
2457562.295626250
  9
$TDUPDATE
 40
2457562.378959583
  9
$TDUUPDATE
 40
2457562.295626250
  9
$TDINDWG
 40
0.0000095139
  9
$TDUSRTIMER
 40
0.0000095139
  9
$USRTIMER
 70
     1
  9
$ANGBASE
 50
0.0
  9
$ANGDIR
 70
     0
  9
$PDMODE
 70
     0
  9
$PDSIZE
 40
0.0
  9
$PLINEWID
 40
0.0
  9
$SPLFRAME
 70
     0
  9
$SPLINETYPE
 70
     6
  9
$SPLINESEGS
 70
     8
  9
$HANDSEED
  5
325
  9
$SURFTAB1
 70
     6
  9
$SURFTAB2
 70
     6
  9
$SURFTYPE
 70
     6
  9
$SURFU
 70
     6
  9
$SURFV
 70
     6
  9
$UCSBASE
  2

  9
$UCSNAME
  2

  9
$UCSORG
 10
0.0
 20
0.0
 30
0.0
  9
$UCSXDIR
 10
1.0
 20
0.0
 30
0.0
  9
$UCSYDIR
 10
0.0
 20
1.0
 30
0.0
  9
$UCSORTHOREF
  2

  9
$UCSORTHOVIEW
 70
     0
  9
$UCSORGTOP
 10
0.0
 20
0.0
 30
0.0
  9
$UCSORGBOTTOM
 10
0.0
 20
0.0
 30
0.0
  9
$UCSORGLEFT
 10
0.0
 20
0.0
 30
0.0
  9
$UCSORGRIGHT
 10
0.0
 20
0.0
 30
0.0
  9
$UCSORGFRONT
 10
0.0
 20
0.0
 30
0.0
  9
$UCSORGBACK
 10
0.0
 20
0.0
 30
0.0
  9
$PUCSBASE
  2

  9
$PUCSNAME
  2

  9
$PUCSORG
 10
0.0
 20
0.0
 30
0.0
  9
$PUCSXDIR
 10
1.0
 20
0.0
 30
0.0
  9
$PUCSYDIR
 10
0.0
 20
1.0
 30
0.0
  9
$PUCSORTHOREF
  2

  9
$PUCSORTHOVIEW
 70
     0
  9
$PUCSORGTOP
 10
0.0
 20
0.0
 30
0.0
  9
$PUCSORGBOTTOM
 10
0.0
 20
0.0
 30
0.0
  9
$PUCSORGLEFT
 10
0.0
 20
0.0
 30
0.0
  9
$PUCSORGRIGHT
 10
0.0
 20
0.0
 30
0.0
  9
$PUCSORGFRONT
 10
0.0
 20
0.0
 30
0.0
  9
$PUCSORGBACK
 10
0.0
 20
0.0
 30
0.0
  9
$USERI1
 70
     0
  9
$USERI2
 70
     0
  9
$USERI3
 70
     0
  9
$USERI4
 70
     0
  9
$USERI5
 70
     0
  9
$USERR1
 40
0.0
  9
$USERR2
 40
0.0
  9
$USERR3
 40
0.0
  9
$USERR4
 40
0.0
  9
$USERR5
 40
0.0
  9
$WORLDVIEW
 70
     1
  9
$SHADEDGE
 70
     3
  9
$SHADEDIF
 70
    70
  9
$TILEMODE
 70
     1
  9
$MAXACTVP
 70
    64
  9
$PINSBASE
 10
0.0
 20
0.0
 30
0.0
  9
$PLIMCHECK
 70
     0
  9
$PEXTMIN
 10
1.000000000000000E+20
 20
1.000000000000000E+20
 30
1.000000000000000E+20
  9
$PEXTMAX
 10
-1.000000000000000E+20
 20
-1.000000000000000E+20
 30
-1.000000000000000E+20
  9
$PLIMMIN
 10
0.0
 20
0.0
  9
$PLIMMAX
 10
12.0
 20
9.0
  9
$UNITMODE
 70
     0
  9
$VISRETAIN
 70
     1
  9
$PLINEGEN
 70
     0
  9
$PSLTSCALE
 70
     1
  9
$TREEDEPTH
 70
  3020
  9
$CMLSTYLE
  2
Standard
  9
$CMLJUST
 70
     0
  9
$CMLSCALE
 40
1.0
  9
$PROXYGRAPHICS
 70
     1
  9
$MEASUREMENT
 70
     1
  9
$CELWEIGHT
370
    -1
  9
$ENDCAPS
280
     0
  9
$JOINSTYLE
280
     0
  9
$LWDISPLAY
290
     0
  9
$INSUNITS
 70
     4
  9
$HYPERLINKBASE
  1

  9
$STYLESHEET
  1

  9
$XEDIT
290
     1
  9
$CEPSNTYPE
380
     0
  9
$PSTYLEMODE
290
     1
  9
$FINGERPRINTGUID
  2
{1CD4DCD0-8C0C-46B7-9B3B-449EFBC228B7}
  9
$VERSIONGUID
  2
{DE7BC143-7F6F-4FF1-B5F9-784DFDAAE655}
  9
$EXTNAMES
290
     1
  9
$PSVPSCALE
 40
0.0
  9
$OLESTARTUP
290
     0
  9
$SORTENTS
280
   127
  9
$INDEXCTL
280
     0
  9
$HIDETEXT
280
     1
  9
$XCLIPFRAME
280
     2
  9
$HALOGAP
280
     0
  9
$OBSCOLOR
 70
   257
  9
$OBSLTYPE
280
     0
  9
$INTERSECTIONDISPLAY
280
     0
  9
$INTERSECTIONCOLOR
 70
   257
  9
$DIMASSOC
280
     2
  9
$PROJECTNAME
  1

  9
$CAMERADISPLAY
290
     0
  9
$LENSLENGTH
 40
50.0
  9
$CAMERAHEIGHT
 40
0.0
  9
$STEPSPERSEC
 40
2.0
  9
$STEPSIZE
 40
6.0
  9
$3DDWFPREC
 40
2.0
  9
$PSOLWIDTH
 40
0.25
  9
$PSOLHEIGHT
 40
4.0
  9
$LOFTANG1
 40
1.570796326794896
  9
$LOFTANG2
 40
1.570796326794896
  9
$LOFTMAG1
 40
0.0
  9
$LOFTMAG2
 40
0.0
  9
$LOFTPARAM
 70
     7
  9
$LOFTNORMALS
280
     1
  9
$LATITUDE
 40
37.795
  9
$LONGITUDE
 40
-122.394
  9
$NORTHDIRECTION
 40
0.0
  9
$TIMEZONE
 70
 -8000
  9
$LIGHTGLYPHDISPLAY
280
     1
  9
$TILEMODELIGHTSYNCH
280
     1
  9
$CMATERIAL
347
11
  9
$SOLIDHIST
280
     0
  9
$SHOWHIST
280
     1
  9
$DWFFRAME
280
     2
  9
$DGNFRAME
280
     0
  9
$REALWORLDSCALE
290
     1
  9
$INTERFERECOLOR
 62
     1
  9
$INTERFEREOBJVS
345
33
  9
$INTERFEREVPVS
346
30
  9
$CSHADOW
280
     0
  9
$SHADOWPLANELOCATION
 40
0.0
  0
ENDSEC
  0
SECTION
  2
CLASSES
  0
CLASS
  1
ACDBDICTIONARYWDFLT
  2
AcDbDictionaryWithDefault
  3
ObjectDBX Classes
 90
        0
 91
        1
280
     0
281
     0
  0
CLASS
  1
MATERIAL
  2
AcDbMaterial
  3
ObjectDBX Classes
 90
     1153
 91
        3
280
     0
281
     0
  0
CLASS
  1
VISUALSTYLE
  2
AcDbVisualStyle
  3
ObjectDBX Classes
 90
     4095
 91
       24
280
     0
281
     0
  0
CLASS
  1
SCALE
  2
AcDbScale
  3
ObjectDBX Classes
 90
     1153
 91
       17
280
     0
281
     0
  0
CLASS
  1
TABLESTYLE
  2
AcDbTableStyle
  3
ObjectDBX Classes
 90
     4095
 91
        1
280
     0
281
     0
  0
CLASS
  1
MLEADERSTYLE
  2
AcDbMLeaderStyle
  3
ACDB_MLEADERSTYLE_CLASS
 90
     4095
 91
        1
280
     0
281
     0
  0
CLASS
  1
ACDBSECTIONVIEWSTYLE
  2
AcDbSectionViewStyle
  3
ObjectDBX Classes
 90
     1025
 91
        1
280
     0
281
     0
  0
CLASS
  1
ACDBDETAILVIEWSTYLE
  2
AcDbDetailViewStyle
  3
ObjectDBX Classes
 90
     1025
 91
        1
280
     0
281
     0
  0
CLASS
  1
RASTERVARIABLES
  2
AcDbRasterVariables
  3
ISM
 90
        0
 91
        1
280
     0
281
     0
  0
CLASS
  1
DICTIONARYVAR
  2
AcDbDictionaryVar
  3
ObjectDBX Classes
 90
        0
 91
        5
280
     0
281
     0
  0
CLASS
  1
CELLSTYLEMAP
  2
AcDbCellStyleMap
  3
ObjectDBX Classes
 90
     1152
 91
        2
280
     0
281
     0
  0
CLASS
  1
SORTENTSTABLE
  2
AcDbSortentsTable
  3
ObjectDBX Classes
 90
        0
 91
        1
280
     0
281
     0
  0
ENDSEC
  0
SECTION
  2
TABLES
  0
TABLE
  2
VPORT
  5
8
330
0
100
AcDbSymbolTable
 70
     1
  0
VPORT
  5
57
330
8
100
AcDbSymbolTableRecord
100
AcDbViewportTableRecord
  2
*Active
 70
     0
 10
0.0
 20
0.0
 11
1.0
 21
1.0
 12
918.3903806981199
 22
1947.982314370061
 13
0.0
 23
0.0
 14
1.0
 24
1.0
 15
0.0
 25
0.0
 16
0.0
 26
0.0
 36
1.0
 17
0.0
 27
0.0
 37
0.0
 40
383.0353712800204
 41
1.162942067259651
 42
50.0
 43
0.0
 44
0.0
 50
0.0
 51
0.0
 71
     0
 72
  1000
 73
     1
 74
     1
 75
     0
 76
     0
 77
     0
 78
     0
281
     0
 65
     1
110
0.0
120
0.0
130
0.0
111
1.0
121
0.0
131
0.0
112
0.0
122
1.0
132
0.0
 79
     0
146
0.0
 60
     3
 61
     5
292
     1
282
     1
141
0.0
142
0.0
 63
   250
421
  3355443
  0
ENDTAB
  0
TABLE
  2
LTYPE
  5
5
330
0
100
AcDbSymbolTable
 70
     3
  0
LTYPE
  5
5B
330
5
100
AcDbSymbolTableRecord
100
AcDbLinetypeTableRecord
  2
ByBlock
 70
     0
  3

 72
    65
 73
     0
 40
0.0
  0
LTYPE
  5
5C
330
5
100
AcDbSymbolTableRecord
100
AcDbLinetypeTableRecord
  2
ByLayer
 70
     0
  3

 72
    65
 73
     0
 40
0.0
  0
LTYPE
  5
5D
330
5
100
AcDbSymbolTableRecord
100
AcDbLinetypeTableRecord
  2
Continuous
 70
     0
  3
Solid line
 72
    65
 73
     0
 40
0.0
  0
LTYPE
  5
69
330
5
100
AcDbSymbolTableRecord
100
AcDbLinetypeTableRecord
  2
PHANTOM2
 70
     0
  3
___ _ _ ___ _ _ ___ _ _ ___ _ _
 72
    65
 73
     6
 40
1.25
 49
0.625
 74
     0
 49
-0.125
 74
     0
 49
0.125
 74
     0
 49
-0.125
 74
     0
 49
0.125
 74
     0
 49
-0.125
 74
     0
  0
LTYPE
  5
86
330
5
100
AcDbSymbolTableRecord
100
AcDbLinetypeTableRecord
  2
Nascosto 1_5 mm
 70
     0
  3

 72
    65
 73
     2
 40
2.2
 49
1.5
 74
     0
 49
-0.7000000000000001
 74
     0
  0
ENDTAB
  0
TABLE
  2
LAYER
  5
2
330
0
100
AcDbSymbolTable
 70
     4
  0
LAYER
  5
54
330
2
100
AcDbSymbolTableRecord
100
AcDbLayerTableRecord
  2
0
 70
     0
 62
     7
  6
Continuous
370
    -3
390
F
347
21
348
0
  0
LAYER
  5
85
330
2
100
AcDbSymbolTableRecord
100
AcDbLayerTableRecord
  2
P-SANR-FIXT
 70
     0
 62
     6
  6
Continuous
370
    18
390
F
347
21
348
0
  0
LAYER
  5
88
330
2
100
AcDbSymbolTableRecord
100
AcDbLayerTableRecord
  2
M-PIPE
 70
     0
 62
     3
  6
Continuous
370
    18
390
F
347
21
348
0
  0
ENDTAB
  0
TABLE
  2
STYLE
  5
3
330
0
100
AcDbSymbolTable
 70
     2
  0
STYLE
  5
55
330
3
100
AcDbSymbolTableRecord
100
AcDbTextStyleTableRecord
  2
Standard
 70
     0
 40
0.0
 41
1.0
 50
0.0
 71
     0
 42
0.2
  3
txt
  4

  0
STYLE
  5
5A
330
3
100
AcDbSymbolTableRecord
100
AcDbTextStyleTableRecord
  2
Annotative
 70
     0
 40
0.0
 41
1.0
 50
0.0
 71
     0
 42
0.2
  3
txt
  4

1001
AcadAnnotative
1000
AnnotativeData
1002
{
1070
     1
1070
     1
1002
}
  0
ENDTAB
  0
TABLE
  2
VIEW
  5
6
330
0
100
AcDbSymbolTable
 70
     0
  0
ENDTAB
  0
TABLE
  2
UCS
  5
7
330
0
100
AcDbSymbolTable
 70
     0
  0
ENDTAB
  0
TABLE
  2
APPID
  5
9
330
0
100
AcDbSymbolTable
 70
     3
  0
APPID
  5
56
330
9
100
AcDbSymbolTableRecord
100
AcDbRegAppTableRecord
  2
ACAD
 70
     0
  0
APPID
  5
5E
330
9
100
AcDbSymbolTableRecord
100
AcDbRegAppTableRecord
  2
AcadAnnotative
 70
     0
  0
APPID
  5
79
330
9
100
AcDbSymbolTableRecord
100
AcDbRegAppTableRecord
  2
REVIT
 70
     0
  0
ENDTAB
  0
TABLE
  2
DIMSTYLE
  5
A
330
0
100
AcDbSymbolTable
 70
     2
100
AcDbDimStyleTable
 71
     0
  0
DIMSTYLE
105
58
330
A
100
AcDbSymbolTableRecord
100
AcDbDimStyleTableRecord
  2
Standard
 70
     0
340
55
  0
DIMSTYLE
105
59
330
A
100
AcDbSymbolTableRecord
100
AcDbDimStyleTableRecord
  2
Annotative
 70
     0
340
55
1001
AcadAnnotative
1000
AnnotativeData
1002
{
1070
     1
1070
     1
1002
}
  0
ENDTAB
  0
TABLE
  2
BLOCK_RECORD
  5
1
330
0
100
AcDbSymbolTable
 70
     4
  0
BLOCK_RECORD
  5
71
102
{ACAD_XDICTIONARY
360
320
102
}
330
1
100
AcDbSymbolTableRecord
100
AcDbBlockTableRecord
  2
*Model_Space
340
74
 70
     0
280
     1
281
     0
  0
BLOCK_RECORD
  5
6D
330
1
100
AcDbSymbolTableRecord
100
AcDbBlockTableRecord
  2
*Paper_Space
340
70
 70
     0
280
     1
281
     0
  0
BLOCK_RECORD
  5
75
330
1
100
AcDbSymbolTableRecord
100
AcDbBlockTableRecord
  2
*Paper_Space0
340
78
 70
     0
280
     1
281
     0
  0
BLOCK_RECORD
  5
87
330
1
100
AcDbSymbolTableRecord
100
AcDbBlockTableRecord
  2
Automatic flow rate regulator valve_Caleffi_121 DN15 - 1_2__-859151-Est - Idraulica
340
0
102
{BLKREFS
331
189
102
}
 70
     0
280
     1
281
     0
  0
BLOCK_RECORD
  5
18A
330
1
100
AcDbSymbolTableRecord
100
AcDbBlockTableRecord
  2
Automatic flow rate regulator valve_Caleffi_121 DN15 - 1_2__-V1-Est - Idraulica
340
0
102
{BLKREFS
331
240
102
}
 70
     0
280
     1
281
     0
  0
BLOCK_RECORD
  5
241
330
1
100
AcDbSymbolTableRecord
100
AcDbBlockTableRecord
  2
Automatic flow rate regulator valve_Caleffi_121 DN15 - 1_2__-V2-Est - Idraulica
340
0
102
{BLKREFS
331
319
102
}
 70
     0
280
     1
281
     0
  0
ENDTAB
  0
ENDSEC
  0
SECTION
  2
BLOCKS
  0
BLOCK
  5
72
330
71
100
AcDbEntity
  8
0
100
AcDbBlockBegin
  2
*Model_Space
 70
     0
 10
0.0
 20
0.0
 30
0.0
  3
*Model_Space
  1

  0
ENDBLK
  5
73
330
71
100
AcDbEntity
  8
0
100
AcDbBlockEnd
  0
BLOCK
  5
6E
330
6D
100
AcDbEntity
 67
     1
  8
0
100
AcDbBlockBegin
  2
*Paper_Space
 70
     0
 10
0.0
 20
0.0
 30
0.0
  3
*Paper_Space
  1

  0
ENDBLK
  5
6F
330
6D
100
AcDbEntity
 67
     1
  8
0
100
AcDbBlockEnd
  0
BLOCK
  5
76
330
75
100
AcDbEntity
 67
     1
  8
0
100
AcDbBlockBegin
  2
*Paper_Space0
 70
     0
 10
0.0
 20
0.0
 30
0.0
  3
*Paper_Space0
  1

  0
ENDBLK
  5
77
330
75
100
AcDbEntity
 67
     1
  8
0
100
AcDbBlockEnd
  0
BLOCK
  5
187
330
87
100
AcDbEntity
  8
0
100
AcDbBlockBegin
  2
Automatic flow rate regulator valve_Caleffi_121 DN15 - 1_2__-859151-Est - Idraulica
 70
     0
 10
0.0
 20
0.0
 30
0.0
  3
Automatic flow rate regulator valve_Caleffi_121 DN15 - 1_2__-859151-Est - Idraulica
  1

  0
LINE
  5
89
330
87
100
AcDbEntity
  8
M-PIPE
100
AcDbLine
 10
887.6664074431934
 20
1967.999999999942
 30
0.0
 11
888.6664074432033
 21
1967.999999999942
 31
0.0
1001
REVIT
1002
{
1070
     3
1000
790271
1002
}
  0
LINE
  5
8A
330
87
100
AcDbEntity
  8
M-PIPE
100
AcDbLine
 10
888.6664074432026
 20
2031.999999999941
 30
0.0
 11
887.6664074431944
 21
2031.999999999941
 31
0.0
1001
REVIT
1002
{
1070
     3
1000
790271
1002
}
  0
LINE
  5
8B
330
87
100
AcDbEntity
  8
M-PIPE
100
AcDbLine
 10
888.6664074432033
 20
1967.999999999941
 30
0.0
 11
888.7076785274009
 21
1968.071483614654
 31
0.0
1001
REVIT
1002
{
1070
     3
1000
790271
1002
}
  0
LINE
  5
8C
330
87
100
AcDbEntity
  8
M-PIPE
100
AcDbLine
 10
888.7233603455715
 20
1968.098645320481
 30
0.0
 11
889.9503275728003
 21
1970.223814897263
 31
0.0
1001
REVIT
1002
{
1070
     3
1000
790271
1002
}
  0
LINE
  5
8D
330
87
100
AcDbEntity
  8
M-PIPE
100
AcDbLine
 10
889.9503275727992
 20
2029.776185102619
 30
0.0
 11
888.7233603455708
 21
2031.901354679401
 31
0.0
1001
REVIT
1002
{
1070
     3
1000
790271
1002
}
  0
LINE
  5
8E
330
87
100
AcDbEntity
  8
M-PIPE
100
AcDbLine
 10
888.7076785273999
 20
2031.928516385228
 30
0.0
 11
888.6664074432026
 21
2031.999999999941
 31
0.0
1001
REVIT
1002
{
1070
     3
1000
790271
1002
}
  0
LWPOLYLINE
  5
8F
330
87
100
AcDbEntity
  8
M-PIPE
100
AcDbPolyline
 90
       54
 70
   128
 43
0.0
 10
894.3711624482014
 20
1970.223814897263
 10
894.3183605574615
 20
1970.311187206909
 10
894.2621069421132
 20
1970.396378115571
 10
894.2024915959411
 20
1970.479251335969
 10
894.1396098907816
 20
1970.55967428863
 10
894.073562423949
 20
1970.637518313985
 10
894.0044548573007
 20
1970.712658878199
 10
893.9323977482013
 20
1970.784975772398
 10
893.8575063726542
 20
1970.85435330498
 10
893.7799005408839
 20
1970.920680486691
 10
893.6997044056667
 20
1970.983851208189
 10
893.6170462637107
 20
1971.043764409797
 10
893.5320583504109
 20
1971.100324243171
 10
893.4448766282985
 20
1971.153440224645
 10
893.3556405695311
 20
1971.203027379979
 10
893.2644929327665
 20
1971.249006380302
 10
893.17157953478
 20
1971.291303669021
 10
893.0770490171878
 20
1971.329851579499
 10
892.9810526086528
 20
1971.364588443302
 10
892.8837438829503
 20
1971.395458688856
 10
892.7852785132834
 20
1971.422412930355
 10
892.6858140232388
 20
1971.445408046763
 10
892.5855095347825
 20
1971.464407250798
 10
892.484525513699
 20
1971.479380147787
 10
892.38302351288
 20
1971.490302784289
 10
892.2811659138739
 20
1971.497157686416
 10
892.179115667111
 20
1971.499933887785
 10
892.0770360312163
 20
1971.498626947068
 10
891.9750903118314
 20
1971.493238955091
 10
891.8734416003601
 20
1971.483778531491
 10
891.7722525130571
 20
1971.470260810929
 10
891.6716849308759
 20
1971.452707418873
 10
891.5718997404947
 20
1971.431146437006
 10
891.4730565769323
 20
1971.4056123583
 10
891.3753135681643
 20
1971.376146031833
 10
891.2788270821543
 20
1971.342794597443
 10
891.1837514766974
 20
1971.30561141031
 10
891.0902388524801
 20
1971.2646559556
 10
890.9984388097532
 20
1971.219993753306
 10
890.9084982090021
 20
1971.171696253423
 10
890.8205609360017
 20
1971.119840721647
 10
890.7347676716298
 20
1971.064510115769
 10
890.6512556668078
 20
1971.005792952954
 10
890.5701585229287
 20
1970.943783168137
 10
890.4916059781225
 20
1970.878579963746
 10
890.4157236997042
 20
1970.810287650997
 10
890.3426330831315
 20
1970.739015483025
 10
890.2724510577998
 20
1970.664877480093
 10
890.2052898999777
 20
1970.587992247191
 10
890.141257053191
 20
1970.50848278429
 10
890.0804549563346
 20
1970.426476289569
 10
890.0229808797936
 20
1970.342103955927
 10
889.9689267698295
 20
1970.255500761099
 10
889.9503275727999
 20
1970.223814897263
1001
REVIT
1002
{
1070
     3
1000
790271
1002
}
  0
LWPOLYLINE
  5
90
330
87
100
AcDbEntity
  8
M-PIPE
100
AcDbPolyline
 90
       54
 70
   128
 43
0.0
 10
889.9503275727992
 20
2029.776185102619
 10
890.0031294635393
 20
2029.688812792974
 10
890.0593830788876
 20
2029.603621884312
 10
890.1189984250596
 20
2029.520748663914
 10
890.1818801302191
 20
2029.440325711253
 10
890.2479275970518
 20
2029.362481685898
 10
890.3170351636999
 20
2029.287341121684
 10
890.3890922727994
 20
2029.215024227484
 10
890.4639836483465
 20
2029.145646694903
 10
890.5415894801164
 20
2029.079319513192
 10
890.621785615334
 20
2029.016148791694
 10
890.7044437572897
 20
2028.956235590086
 10
890.7894316705895
 20
2028.899675756711
 10
890.8766133927022
 20
2028.846559775238
 10
890.9658494514696
 20
2028.796972619904
 10
891.0569970882342
 20
2028.750993619581
 10
891.1499104862206
 20
2028.708696330861
 10
891.2444410038128
 20
2028.670148420383
 10
891.3404374123478
 20
2028.635411556582
 10
891.4377461380503
 20
2028.604541311027
 10
891.5362115077172
 20
2028.577587069528
 10
891.6356759977619
 20
2028.55459195312
 10
891.7359804862181
 20
2028.535592749085
 10
891.8369645073013
 20
2028.520619852096
 10
891.9384665081205
 20
2028.509697215594
 10
892.0403241071268
 20
2028.502842313468
 10
892.1423743538896
 20
2028.500066112098
 10
892.2444539897844
 20
2028.501373052815
 10
892.3463997091692
 20
2028.506761044792
 10
892.4480484206405
 20
2028.516221468391
 10
892.5492375079436
 20
2028.529739188954
 10
892.6498050901248
 20
2028.54729258101
 10
892.7495902805057
 20
2028.568853562877
 10
892.8484334440684
 20
2028.594387641583
 10
892.9461764528364
 20
2028.623853968049
 10
893.0426629388463
 20
2028.65720540244
 10
893.1377385443033
 20
2028.694388589573
 10
893.2312511685207
 20
2028.735344044283
 10
893.3230512112475
 20
2028.780006246577
 10
893.4129918119984
 20
2028.82830374646
 10
893.5009290849988
 20
2028.880159278235
 10
893.5867223493708
 20
2028.935489884114
 10
893.6702343541927
 20
2028.994207046929
 10
893.7513314980719
 20
2029.056216831746
 10
893.8298840428782
 20
2029.121420036137
 10
893.9057663212965
 20
2029.189712348885
 10
893.978856937869
 20
2029.260984516858
 10
894.0490389632008
 20
2029.335122519789
 10
894.116200121023
 20
2029.412007752692
 10
894.1802329678097
 20
2029.491517215593
 10
894.241035064666
 20
2029.573523710314
 10
894.2985091412072
 20
2029.657896043955
 10
894.3525632511711
 20
2029.744499238784
 10
894.3711624482004
 20
2029.776185102619
1001
REVIT
1002
{
1070
     3
1000
790271
1002
}
  0
LINE
  5
91
330
87
100
AcDbEntity
  8
M-PIPE
100
AcDbLine
 10
894.3711624482014
 20
1970.223814897263
 30
0.0
 11
895.3664074432031
 21
1968.499999999942
 31
0.0
1001
REVIT
1002
{
1070
     3
1000
790271
1002
}
  0
LINE
  5
92
330
87
100
AcDbEntity
  8
M-PIPE
100
AcDbLine
 10
895.3664074432023
 20
2031.499999999942
 30
0.0
 11
894.3711624482004
 21
2029.776185102619
 31
0.0
1001
REVIT
1002
{
1070
     3
1000
790271
1002
}
  0
LINE
  5
93
330
87
100
AcDbEntity
  8
M-PIPE
100
AcDbLine
 10
895.3664074432031
 20
1968.499999999942
 30
0.0
 11
908.2664074432035
 21
1968.499999999942
 31
0.0
1001
REVIT
1002
{
1070
     3
1000
790271
1002
}
  0
LINE
  5
94
330
87
100
AcDbEntity
  8
M-PIPE
100
AcDbLine
 10
908.2664074432027
 20
2031.499999999942
 30
0.0
 11
895.3664074432024
 21
2031.499999999942
 31
0.0
1001
REVIT
1002
{
1070
     3
1000
790271
1002
}
  0
LINE
  5
95
330
87
100
AcDbEntity
  8
M-PIPE
100
AcDbLine
 10
908.2664074432035
 20
1969.999999999942
 30
0.0
 11
935.6664074431755
 21
1969.999999999942
 31
0.0
1001
REVIT
1002
{
1070
     3
1000
790271
1002
}
  0
LINE
  5
96
330
87
100
AcDbEntity
  8
M-PIPE
100
AcDbLine
 10
935.6664074431746
 20
2029.999999999942
 30
0.0
 11
908.2664074432027
 21
2029.999999999942
 31
0.0
1001
REVIT
1002
{
1070
     3
1000
790271
1002
}
  0
LINE
  5
97
330
87
100
AcDbEntity
  8
M-PIPE
100
AcDbLine
 10
888.6664074432017
 20
1967.99999999994
 30
0.0
 11
888.6664074432012
 21
1999.99999999994
 31
0.0
1001
REVIT
1002
{
1070
     3
1000
790271
1002
}
  0
LINE
  5
98
330
87
100
AcDbEntity
  8
M-PIPE
100
AcDbLine
 10
888.6664074432012
 20
1999.999999999941
 30
0.0
 11
888.666407443201
 21
2031.999999999941
 31
0.0
1001
REVIT
1002
{
1070
     3
1000
790271
1002
}
  0
SPLINE
  5
99
330
87
100
AcDbEntity
  8
M-PIPE
100
AcDbSpline
210
0.0
220
0.0
230
1.0
 70
     8
 71
     3
 72
     9
 73
     5
 74
     0
 42
0.000000001
 43
0.0000000001
 40
-1.0
 40
-1.0
 40
-1.0
 40
-1.0
 40
-0.5
 40
0.0
 40
0.0
 40
0.0
 40
0.0
 10
895.3664074432015
 20
1968.608059683038
 30
0.0
 10
894.7890766668088
 20
1969.847307764691
 30
0.0
 10
894.211745890416
 20
1972.311740626869
 30
0.0
 10
894.7890766668088
 20
1974.74804688679
 30
0.0
 10
895.3664074432014
 20
1975.959168366185
 30
0.0
1001
REVIT
1002
{
1070
     3
1000
790271
1002
}
  0
SPLINE
  5
9A
330
87
100
AcDbEntity
  8
M-PIPE
100
AcDbSpline
210
0.0
220
0.0
230
1.0
 70
     8
 71
     3
 72
     9
 73
     5
 74
     0
 42
0.000000001
 43
0.0000000001
 40
-1.0
 40
-1.0
 40
-1.0
 40
-1.0
 40
-0.5
 40
0.0
 40
0.0
 40
0.0
 40
0.0
 10
895.3664074432014
 20
1979.645923888365
 30
0.0
 10
894.7890766668146
 20
1982.637733414222
 30
0.0
 10
894.2117458904277
 20
1988.58740065362
 30
0.0
 10
894.7890766668143
 20
1994.469164268384
 30
0.0
 10
895.366407443201
 20
1997.393070169607
 30
0.0
1001
REVIT
1002
{
1070
     3
1000
790271
1002
}
  0
SPLINE
  5
9B
330
87
100
AcDbEntity
  8
M-PIPE
100
AcDbSpline
210
0.0
220
0.0
230
1.0
 70
     8
 71
     3
 72
     9
 73
     5
 74
     0
 42
0.000000001
 43
0.0000000001
 40
-1.0
 40
-1.0
 40
-1.0
 40
-1.0
 40
-0.5
 40
0.0
 40
0.0
 40
0.0
 40
0.0
 10
895.366407443201
 20
2002.606929830315
 30
0.0
 10
894.7890766668191
 20
2005.598739356161
 30
0.0
 10
894.2117458904371
 20
2011.548406595534
 30
0.0
 10
894.7890766668191
 20
2017.430170210273
 30
0.0
 10
895.3664074432007
 20
2020.354076111485
 30
0.0
1001
REVIT
1002
{
1070
     3
1000
790271
1002
}
  0
SPLINE
  5
9C
330
87
100
AcDbEntity
  8
M-PIPE
100
AcDbSpline
210
0.0
220
0.0
230
1.0
 70
     8
 71
     3
 72
     9
 73
     5
 74
     0
 42
0.000000001
 43
0.0000000001
 40
-1.0
 40
-1.0
 40
-1.0
 40
-1.0
 40
-0.5
 40
0.0
 40
0.0
 40
0.0
 40
0.0
 10
895.3664074432007
 20
2024.040831633761
 30
0.0
 10
894.7890766668196
 20
2025.280079715402
 30
0.0
 10
894.2117458904387
 20
2027.744512577555
 30
0.0
 10
894.7890766668196
 20
2030.180818837451
 30
0.0
 10
895.3664074432007
 20
2031.391940316835
 30
0.0
1001
REVIT
1002
{
1070
     3
1000
790271
1002
}
  0
LINE
  5
9D
330
87
100
AcDbEntity
  8
M-PIPE
100
AcDbLine
 10
895.3664074432015
 20
1968.499999999941
 30
0.0
 11
895.3664074432015
 21
1968.608059683038
 31
0.0
1001
REVIT
1002
{
1070
     3
1000
790271
1002
}
  0
LINE
  5
9E
330
87
100
AcDbEntity
  8
M-PIPE
100
AcDbLine
 10
908.2664074432019
 20
1968.608059683038
 30
0.0
 11
895.3664074432015
 21
1968.608059683038
 31
0.0
1001
REVIT
1002
{
1070
     3
1000
790271
1002
}
  0
LINE
  5
9F
330
87
100
AcDbEntity
  8
M-PIPE
100
AcDbLine
 10
895.3664074432014
 20
1975.959168366185
 30
0.0
 11
895.3664074432014
 21
1979.645923888364
 31
0.0
1001
REVIT
1002
{
1070
     3
1000
790271
1002
}
  0
LINE
  5
A0
330
87
100
AcDbEntity
  8
M-PIPE
100
AcDbLine
 10
895.3664074432015
 20
1975.959168366184
 30
0.0
 11
908.2664074432015
 21
1975.959168366185
 31
0.0
1001
REVIT
1002
{
1070
     3
1000
790271
1002
}
  0
LINE
  5
A1
330
87
100
AcDbEntity
  8
M-PIPE
100
AcDbLine
 10
908.2664074432015
 20
1979.645923888364
 30
0.0
 11
895.3664074432014
 21
1979.645923888364
 31
0.0
1001
REVIT
1002
{
1070
     3
1000
790271
1002
}
  0
LINE
  5
A2
330
87
100
AcDbEntity
  8
M-PIPE
100
AcDbLine
 10
895.3664074432012
 20
1997.393070169607
 30
0.0
 11
895.3664074432012
 21
1999.99999999994
 31
0.0
1001
REVIT
1002
{
1070
     3
1000
790271
1002
}
  0
LINE
  5
A3
330
87
100
AcDbEntity
  8
M-PIPE
100
AcDbLine
 10
895.366407443201
 20
1997.393070169608
 30
0.0
 11
908.2664074432013
 21
1997.393070169608
 31
0.0
1001
REVIT
1002
{
1070
     3
1000
790271
1002
}
  0
LINE
  5
A4
330
87
100
AcDbEntity
  8
M-PIPE
100
AcDbLine
 10
908.2664074432011
 20
2002.606929830314
 30
0.0
 11
895.366407443201
 21
2002.606929830314
 31
0.0
1001
REVIT
1002
{
1070
     3
1000
790271
1002
}
  0
LINE
  5
A5
330
87
100
AcDbEntity
  8
M-PIPE
100
AcDbLine
 10
895.366407443201
 20
1999.999999999941
 30
0.0
 11
895.366407443201
 21
2002.606929830315
 31
0.0
1001
REVIT
1002
{
1070
     3
1000
790271
1002
}
  0
LINE
  5
A6
330
87
100
AcDbEntity
  8
M-PIPE
100
AcDbLine
 10
895.3664074432008
 20
2020.354076111485
 30
0.0
 11
895.3664074432007
 21
2024.04083163376
 31
0.0
1001
REVIT
1002
{
1070
     3
1000
790271
1002
}
  0
LINE
  5
A7
330
87
100
AcDbEntity
  8
M-PIPE
100
AcDbLine
 10
895.3664074432008
 20
2020.354076111487
 30
0.0
 11
908.266407443201
 21
2020.354076111487
 31
0.0
1001
REVIT
1002
{
1070
     3
1000
790271
1002
}
  0
LINE
  5
A8
330
87
100
AcDbEntity
  8
M-PIPE
100
AcDbLine
 10
908.266407443201
 20
2024.040831633759
 30
0.0
 11
895.3664074432007
 21
2024.040831633759
 31
0.0
1001
REVIT
1002
{
1070
     3
1000
790271
1002
}
  0
LINE
  5
A9
330
87
100
AcDbEntity
  8
M-PIPE
100
AcDbLine
 10
895.3664074432007
 20
2031.391940316835
 30
0.0
 11
895.3664074432007
 21
2031.49999999994
 31
0.0
1001
REVIT
1002
{
1070
     3
1000
790271
1002
}
  0
LINE
  5
AA
330
87
100
AcDbEntity
  8
M-PIPE
100
AcDbLine
 10
895.3664074432007
 20
2031.391940316835
 30
0.0
 11
908.2664074432008
 21
2031.391940316835
 31
0.0
1001
REVIT
1002
{
1070
     3
1000
790271
1002
}
  0
LINE
  5
AB
330
87
100
AcDbEntity
  8
M-PIPE
100
AcDbLine
 10
908.2664074432013
 20
1997.393070169607
 30
0.0
 11
908.2664074432011
 21
1999.999999999941
 31
0.0
1001
REVIT
1002
{
1070
     3
1000
790271
1002
}
  0
LINE
  5
AC
330
87
100
AcDbEntity
  8
M-PIPE
100
AcDbLine
 10
908.2664074432013
 20
1997.393070169607
 30
0.0
 11
908.2664074432013
 21
1989.429928444537
 31
0.0
1001
REVIT
1002
{
1070
     3
1000
790271
1002
}
  0
LINE
  5
AD
330
87
100
AcDbEntity
  8
M-PIPE
100
AcDbLine
 10
908.2664074432013
 20
1988.519497028988
 30
0.0
 11
908.2664074432015
 21
1979.645923888365
 31
0.0
1001
REVIT
1002
{
1070
     3
1000
790271
1002
}
  0
LINE
  5
AE
330
87
100
AcDbEntity
  8
M-PIPE
100
AcDbLine
 10
908.2664074432015
 20
1975.959168366185
 30
0.0
 11
908.2664074432015
 21
1979.645923888365
 31
0.0
1001
REVIT
1002
{
1070
     3
1000
790271
1002
}
  0
LINE
  5
AF
330
87
100
AcDbEntity
  8
M-PIPE
100
AcDbLine
 10
908.2664074432015
 20
1975.959168366185
 30
0.0
 11
908.2664074432019
 21
1968.608059683038
 31
0.0
1001
REVIT
1002
{
1070
     3
1000
790271
1002
}
  0
LINE
  5
B0
330
87
100
AcDbEntity
  8
M-PIPE
100
AcDbLine
 10
908.2664074432019
 20
1968.499999999941
 30
0.0
 11
908.2664074432019
 21
1968.608059683038
 31
0.0
1001
REVIT
1002
{
1070
     3
1000
790271
1002
}
  0
LINE
  5
B1
330
87
100
AcDbEntity
  8
M-PIPE
100
AcDbLine
 10
908.2664074432008
 20
2031.391940316835
 30
0.0
 11
908.2664074432008
 21
2031.49999999994
 31
0.0
1001
REVIT
1002
{
1070
     3
1000
790271
1002
}
  0
LINE
  5
B2
330
87
100
AcDbEntity
  8
M-PIPE
100
AcDbLine
 10
908.2664074432008
 20
2031.391940316835
 30
0.0
 11
908.266407443201
 21
2024.04083163376
 31
0.0
1001
REVIT
1002
{
1070
     3
1000
790271
1002
}
  0
LINE
  5
B3
330
87
100
AcDbEntity
  8
M-PIPE
100
AcDbLine
 10
908.266407443201
 20
2020.354076111486
 30
0.0
 11
908.266407443201
 21
2024.04083163376
 31
0.0
1001
REVIT
1002
{
1070
     3
1000
790271
1002
}
  0
LINE
  5
B4
330
87
100
AcDbEntity
  8
M-PIPE
100
AcDbLine
 10
908.266407443201
 20
2020.354076111486
 30
0.0
 11
908.2664074432011
 21
2002.606929830315
 31
0.0
1001
REVIT
1002
{
1070
     3
1000
790271
1002
}
  0
LINE
  5
B5
330
87
100
AcDbEntity
  8
M-PIPE
100
AcDbLine
 10
908.2664074432011
 20
1999.999999999941
 30
0.0
 11
908.2664074432011
 21
2002.606929830315
 31
0.0
1001
REVIT
1002
{
1070
     3
1000
790271
1002
}
  0
LINE
  5
B6
330
87
100
AcDbEntity
  8
M-PIPE
100
AcDbLine
 10
908.2664074432013
 20
1988.519497028988
 30
0.0
 11
908.2664074432013
 21
1989.422122889951
 31
0.0
1001
REVIT
1002
{
1070
     3
1000
790271
1002
}
  0
LINE
  5
B7
330
87
100
AcDbEntity
  8
M-PIPE
100
AcDbLine
 10
935.6664074431735
 20
1969.999999999941
 30
0.0
 11
935.666407443173
 21
1999.999999999941
 31
0.0
1001
REVIT
1002
{
1070
     3
1000
790271
1002
}
  0
LINE
  5
B8
330
87
100
AcDbEntity
  8
M-PIPE
100
AcDbLine
 10
935.666407443173
 20
1999.999999999941
 30
0.0
 11
935.6664074431726
 21
2029.999999999941
 31
0.0
1001
REVIT
1002
{
1070
     3
1000
790271
1002
}
  0
LINE
  5
B9
330
87
100
AcDbEntity
  8
M-PIPE
100
AcDbLine
 10
743.6664074431538
 20
2032.000000000042
 30
0.0
 11
742.666407443117
 21
2032.000000000042
 31
0.0
1001
REVIT
1002
{
1070
     3
1000
790271
1002
}
  0
LINE
  5
BA
330
87
100
AcDbEntity
  8
M-PIPE
100
AcDbLine
 10
742.6664074431163
 20
1968.000000000042
 30
0.0
 11
743.6664074431531
 21
1968.000000000042
 31
0.0
1001
REVIT
1002
{
1070
     3
1000
790271
1002
}
  0
LINE
  5
BB
330
87
100
AcDbEntity
  8
M-PIPE
100
AcDbLine
 10
742.666407443117
 20
2032.000000000042
 30
0.0
 11
742.6251363589194
 21
2031.928516385329
 31
0.0
1001
REVIT
1002
{
1070
     3
1000
790271
1002
}
  0
LINE
  5
BC
330
87
100
AcDbEntity
  8
M-PIPE
100
AcDbLine
 10
742.6094545407488
 20
2031.901354679503
 30
0.0
 11
741.38248731352
 21
2029.77618510272
 31
0.0
1001
REVIT
1002
{
1070
     3
1000
790271
1002
}
  0
LINE
  5
BD
330
87
100
AcDbEntity
  8
M-PIPE
100
AcDbLine
 10
741.3824873135194
 20
1970.223814897364
 30
0.0
 11
742.6094545407481
 21
1968.098645320582
 31
0.0
1001
REVIT
1002
{
1070
     3
1000
790271
1002
}
  0
LINE
  5
BE
330
87
100
AcDbEntity
  8
M-PIPE
100
AcDbLine
 10
742.6251363589187
 20
1968.071483614755
 30
0.0
 11
742.6664074431163
 21
1968.000000000042
 31
0.0
1001
REVIT
1002
{
1070
     3
1000
790271
1002
}
  0
LWPOLYLINE
  5
BF
330
87
100
AcDbEntity
  8
M-PIPE
100
AcDbPolyline
 90
       54
 70
   128
 43
0.0
 10
741.3824873135194
 20
1970.223814897364
 10
741.3296854227796
 20
1970.311187207009
 10
741.2734318074313
 20
1970.396378115672
 10
741.2138164612592
 20
1970.47925133607
 10
741.1509347560996
 20
1970.559674288731
 10
741.084887289267
 20
1970.637518314086
 10
741.0157797226189
 20
1970.7126588783
 10
740.9437226135195
 20
1970.784975772499
 10
740.8688312379724
 20
1970.854353305081
 10
740.7912254062022
 20
1970.920680486791
 10
740.7110292709849
 20
1970.98385120829
 10
740.6283711290289
 20
1971.043764409898
 10
740.5433832157292
 20
1971.100324243272
 10
740.4562014936167
 20
1971.153440224746
 10
740.3669654348491
 20
1971.20302738008
 10
740.2758177980847
 20
1971.249006380402
 10
740.1829044000982
 20
1971.291303669122
 10
740.0883738825061
 20
1971.3298515796
 10
739.992377473971
 20
1971.364588443402
 10
739.8950687482685
 20
1971.395458688957
 10
739.7966033786016
 20
1971.422412930456
 10
739.6971388885569
 20
1971.445408046864
 10
739.5968344001007
 20
1971.464407250899
 10
739.4958503790173
 20
1971.479380147888
 10
739.3943483781982
 20
1971.49030278439
 10
739.2924907791921
 20
1971.497157686517
 10
739.190440532429
 20
1971.499933887886
 10
739.0883608965342
 20
1971.498626947169
 10
738.9864151771495
 20
1971.493238955192
 10
738.8847664656783
 20
1971.483778531592
 10
738.7835773783751
 20
1971.47026081103
 10
738.6830097961941
 20
1971.452707418974
 10
738.583224605813
 20
1971.431146437107
 10
738.4843814422504
 20
1971.405612358401
 10
738.3866384334825
 20
1971.376146031934
 10
738.2901519474724
 20
1971.342794597545
 10
738.1950763420154
 20
1971.305611410411
 10
738.1015637177982
 20
1971.264655955702
 10
738.0097636750713
 20
1971.219993753407
 10
737.9198230743204
 20
1971.171696253524
 10
737.8318858013199
 20
1971.119840721748
 10
737.746092536948
 20
1971.06451011587
 10
737.662580532126
 20
1971.005792953055
 10
737.5814833882467
 20
1970.943783168238
 10
737.5029308434406
 20
1970.878579963846
 10
737.4270485650223
 20
1970.810287651098
 10
737.3539579484497
 20
1970.739015483126
 10
737.2837759231178
 20
1970.664877480194
 10
737.2166147652957
 20
1970.587992247292
 10
737.1525819185091
 20
1970.508482784391
 10
737.0917798216528
 20
1970.42647628967
 10
737.0343057451117
 20
1970.342103956028
 10
736.9802516351478
 20
1970.2555007612
 10
736.9616524381182
 20
1970.223814897364
1001
REVIT
1002
{
1070
     3
1000
790271
1002
}
  0
LWPOLYLINE
  5
C0
330
87
100
AcDbEntity
  8
M-PIPE
100
AcDbPolyline
 90
       54
 70
   128
 43
0.0
 10
736.9616524381188
 20
2029.776185102721
 10
737.0144543288586
 20
2029.688812793075
 10
737.0707079442071
 20
2029.603621884414
 10
737.1303232903793
 20
2029.520748664014
 10
737.1932049955387
 20
2029.440325711354
 10
737.2592524623713
 20
2029.362481685999
 10
737.3283600290194
 20
2029.287341121785
 10
737.4004171381187
 20
2029.215024227585
 10
737.4753085136659
 20
2029.145646695004
 10
737.5529143454362
 20
2029.079319513293
 10
737.6331104806533
 20
2029.016148791795
 10
737.7157686226093
 20
2028.956235590187
 10
737.8007565359091
 20
2028.899675756813
 10
737.8879382580215
 20
2028.846559775339
 10
737.9771743167891
 20
2028.796972620005
 10
738.0683219535536
 20
2028.750993619683
 10
738.1612353515402
 20
2028.708696330962
 10
738.2557658691323
 20
2028.670148420485
 10
738.3517622776674
 20
2028.635411556683
 10
738.4490710033698
 20
2028.604541311128
 10
738.5475363730367
 20
2028.577587069629
 10
738.6470008630814
 20
2028.554591953221
 10
738.7473053515376
 20
2028.535592749186
 10
738.848289372621
 20
2028.520619852197
 10
738.9497913734402
 20
2028.509697215695
 10
739.0516489724461
 20
2028.502842313569
 10
739.1536992192093
 20
2028.500066112199
 10
739.255778855104
 20
2028.501373052916
 10
739.3577245744888
 20
2028.506761044893
 10
739.45937328596
 20
2028.516221468493
 10
739.5605623732631
 20
2028.529739189055
 10
739.6611299554441
 20
2028.547292581111
 10
739.7609151458253
 20
2028.568853562978
 10
739.8597583093878
 20
2028.594387641684
 10
739.9575013181559
 20
2028.62385396815
 10
740.0539878041659
 20
2028.657205402541
 10
740.1490634096229
 20
2028.694388589673
 10
740.2425760338402
 20
2028.735344044383
 10
740.3343760765669
 20
2028.780006246678
 10
740.4243166773179
 20
2028.828303746561
 10
740.5122539503183
 20
2028.880159278337
 10
740.5980472146902
 20
2028.935489884215
 10
740.6815592195123
 20
2028.99420704703
 10
740.7626563633916
 20
2029.056216831847
 10
740.8412089081977
 20
2029.121420036238
 10
740.9170911866159
 20
2029.189712348986
 10
740.9901818031886
 20
2029.260984516959
 10
741.0603638285205
 20
2029.335122519891
 10
741.1275249863425
 20
2029.412007752793
 10
741.1915578331293
 20
2029.491517215694
 10
741.2523599299854
 20
2029.573523710415
 10
741.3098340065265
 20
2029.657896044056
 10
741.3638881164904
 20
2029.744499238884
 10
741.38248731352
 20
2029.776185102721
1001
REVIT
1002
{
1070
     3
1000
790271
1002
}
  0
LINE
  5
C1
330
87
100
AcDbEntity
  8
M-PIPE
100
AcDbLine
 10
736.9616524381188
 20
2029.776185102721
 30
0.0
 11
735.9664074431168
 21
2031.500000000042
 31
0.0
1001
REVIT
1002
{
1070
     3
1000
790271
1002
}
  0
LINE
  5
C2
330
87
100
AcDbEntity
  8
M-PIPE
100
AcDbLine
 10
735.9664074431165
 20
1968.500000000043
 30
0.0
 11
736.9616524381182
 21
1970.223814897364
 31
0.0
1001
REVIT
1002
{
1070
     3
1000
790271
1002
}
  0
LINE
  5
C3
330
87
100
AcDbEntity
  8
M-PIPE
100
AcDbLine
 10
735.9664074431171
 20
2031.500000000042
 30
0.0
 11
723.0664074431171
 21
2031.500000000042
 31
0.0
1001
REVIT
1002
{
1070
     3
1000
790271
1002
}
  0
LINE
  5
C4
330
87
100
AcDbEntity
  8
M-PIPE
100
AcDbLine
 10
723.0664074431164
 20
1968.500000000043
 30
0.0
 11
735.9664074431162
 21
1968.500000000043
 31
0.0
1001
REVIT
1002
{
1070
     3
1000
790271
1002
}
  0
LINE
  5
C5
330
87
100
AcDbEntity
  8
M-PIPE
100
AcDbLine
 10
723.0664074431171
 20
2030.000000000043
 30
0.0
 11
695.666407443145
 21
2030.000000000043
 31
0.0
1001
REVIT
1002
{
1070
     3
1000
790271
1002
}
  0
LINE
  5
C6
330
87
100
AcDbEntity
  8
M-PIPE
100
AcDbLine
 10
695.6664074431444
 20
1970.000000000043
 30
0.0
 11
723.0664074431164
 21
1970.000000000043
 31
0.0
1001
REVIT
1002
{
1070
     3
1000
790271
1002
}
  0
LINE
  5
C7
330
87
100
AcDbEntity
  8
M-PIPE
100
AcDbLine
 10
742.6664074431153
 20
2032.000000000042
 30
0.0
 11
742.6664074431148
 21
1968.000000000041
 31
0.0
1001
REVIT
1002
{
1070
     3
1000
790271
1002
}
  0
SPLINE
  5
C8
330
87
100
AcDbEntity
  8
M-PIPE
100
AcDbSpline
210
0.0
220
0.0
230
1.0
 70
     8
 71
     3
 72
     9
 73
     5
 74
     0
 42
0.000000001
 43
0.0000000001
 40
-1.0
 40
-1.0
 40
-1.0
 40
-1.0
 40
-0.5
 40
0.0
 40
0.0
 40
0.0
 40
0.0
 10
735.9664074431155
 20
2031.391940316936
 30
0.0
 10
736.5437382194975
 20
2030.152692235295
 30
0.0
 10
737.1210689958793
 20
2027.688259373139
 30
0.0
 10
736.5437382194977
 20
2025.251953113241
 30
0.0
 10
735.9664074431159
 20
2024.040831633857
 30
0.0
1001
REVIT
1002
{
1070
     3
1000
790271
1002
}
  0
SPLINE
  5
C9
330
87
100
AcDbEntity
  8
M-PIPE
100
AcDbSpline
210
0.0
220
0.0
230
1.0
 70
     8
 71
     3
 72
     9
 73
     5
 74
     0
 42
0.000000001
 43
0.0000000001
 40
-1.0
 40
-1.0
 40
-1.0
 40
-1.0
 40
-0.5
 40
0.0
 40
0.0
 40
0.0
 40
0.0
 10
735.9664074431159
 20
2020.35407611158
 30
0.0
 10
736.5437382194969
 20
2017.362266585737
 30
0.0
 10
737.1210689958778
 20
2011.412599346368
 30
0.0
 10
736.5437382194969
 20
2005.530835731633
 30
0.0
 10
735.9664074431159
 20
2002.606929830424
 30
0.0
1001
REVIT
1002
{
1070
     3
1000
790271
1002
}
  0
SPLINE
  5
CA
330
87
100
AcDbEntity
  8
M-PIPE
100
AcDbSpline
210
0.0
220
0.0
230
1.0
 70
     8
 71
     3
 72
     9
 73
     5
 74
     0
 42
0.000000001
 43
0.0000000001
 40
-1.0
 40
-1.0
 40
-1.0
 40
-1.0
 40
-0.5
 40
0.0
 40
0.0
 40
0.0
 40
0.0
 10
735.9664074431158
 20
1997.39307016969
 30
0.0
 10
736.5437382195003
 20
1994.401260643838
 30
0.0
 10
737.1210689958849
 20
1988.451593404451
 30
0.0
 10
736.5437382195002
 20
1982.569829789697
 30
0.0
 10
735.9664074431155
 20
1979.64592388848
 30
0.0
1001
REVIT
1002
{
1070
     3
1000
790271
1002
}
  0
SPLINE
  5
CB
330
87
100
AcDbEntity
  8
M-PIPE
100
AcDbSpline
210
0.0
220
0.0
230
1.0
 70
     8
 71
     3
 72
     9
 73
     5
 74
     0
 42
0.000000001
 43
0.0000000001
 40
-1.0
 40
-1.0
 40
-1.0
 40
-1.0
 40
-0.5
 40
0.0
 40
0.0
 40
0.0
 40
0.0
 10
735.9664074431154
 20
1975.959168366275
 30
0.0
 10
736.543738219506
 20
1974.719920284623
 30
0.0
 10
737.1210689958964
 20
1972.255487422449
 30
0.0
 10
736.5437382195056
 20
1969.819181162534
 30
0.0
 10
735.9664074431149
 20
1968.60805968314
 30
0.0
1001
REVIT
1002
{
1070
     3
1000
790271
1002
}
  0
LINE
  5
CC
330
87
100
AcDbEntity
  8
M-PIPE
100
AcDbLine
 10
723.0664074431155
 20
2031.391940316936
 30
0.0
 11
735.9664074431155
 21
2031.391940316936
 31
0.0
1001
REVIT
1002
{
1070
     3
1000
790271
1002
}
  0
LINE
  5
CD
330
87
100
AcDbEntity
  8
M-PIPE
100
AcDbLine
 10
735.9664074431155
 20
2031.500000000042
 30
0.0
 11
735.9664074431155
 21
2031.391940316936
 31
0.0
1001
REVIT
1002
{
1070
     3
1000
790271
1002
}
  0
LINE
  5
CE
330
87
100
AcDbEntity
  8
M-PIPE
100
AcDbLine
 10
735.9664074431147
 20
1968.60805968314
 30
0.0
 11
735.9664074431147
 21
1968.500000000042
 31
0.0
1001
REVIT
1002
{
1070
     3
1000
790271
1002
}
  0
LINE
  5
CF
330
87
100
AcDbEntity
  8
M-PIPE
100
AcDbLine
 10
735.9664074431149
 20
1968.60805968314
 30
0.0
 11
723.0664074431148
 21
1968.60805968314
 31
0.0
1001
REVIT
1002
{
1070
     3
1000
790271
1002
}
  0
LINE
  5
D0
330
87
100
AcDbEntity
  8
M-PIPE
100
AcDbLine
 10
735.9664074431159
 20
2024.040831633857
 30
0.0
 11
735.9664074431159
 21
2020.35407611158
 31
0.0
1001
REVIT
1002
{
1070
     3
1000
790271
1002
}
  0
LINE
  5
D1
330
87
100
AcDbEntity
  8
M-PIPE
100
AcDbLine
 10
735.9664074431159
 20
2024.040831633855
 30
0.0
 11
723.0664074431157
 21
2024.040831633855
 31
0.0
1001
REVIT
1002
{
1070
     3
1000
790271
1002
}
  0
LINE
  5
D2
330
87
100
AcDbEntity
  8
M-PIPE
100
AcDbLine
 10
723.0664074431157
 20
2020.354076111582
 30
0.0
 11
735.9664074431159
 21
2020.354076111582
 31
0.0
1001
REVIT
1002
{
1070
     3
1000
790271
1002
}
  0
LINE
  5
D3
330
87
100
AcDbEntity
  8
M-PIPE
100
AcDbLine
 10
735.9664074431159
 20
2002.606929830424
 30
0.0
 11
735.9664074431158
 21
1997.39307016969
 31
0.0
1001
REVIT
1002
{
1070
     3
1000
790271
1002
}
  0
LINE
  5
D4
330
87
100
AcDbEntity
  8
M-PIPE
100
AcDbLine
 10
735.9664074431159
 20
2002.606929830421
 30
0.0
 11
723.0664074431157
 21
2002.606929830421
 31
0.0
1001
REVIT
1002
{
1070
     3
1000
790271
1002
}
  0
LINE
  5
D5
330
87
100
AcDbEntity
  8
M-PIPE
100
AcDbLine
 10
723.0664074431156
 20
1997.393070169691
 30
0.0
 11
735.9664074431158
 21
1997.393070169691
 31
0.0
1001
REVIT
1002
{
1070
     3
1000
790271
1002
}
  0
LINE
  5
D6
330
87
100
AcDbEntity
  8
M-PIPE
100
AcDbLine
 10
735.9664074431155
 20
1979.64592388848
 30
0.0
 11
735.9664074431154
 21
1975.959168366275
 31
0.0
1001
REVIT
1002
{
1070
     3
1000
790271
1002
}
  0
LINE
  5
D7
330
87
100
AcDbEntity
  8
M-PIPE
100
AcDbLine
 10
735.9664074431155
 20
1979.645923888478
 30
0.0
 11
723.0664074431152
 21
1979.645923888478
 31
0.0
1001
REVIT
1002
{
1070
     3
1000
790271
1002
}
  0
LINE
  5
D8
330
87
100
AcDbEntity
  8
M-PIPE
100
AcDbLine
 10
723.0664074431152
 20
1975.959168366274
 30
0.0
 11
735.9664074431154
 21
1975.959168366274
 31
0.0
1001
REVIT
1002
{
1070
     3
1000
790271
1002
}
  0
LINE
  5
D9
330
87
100
AcDbEntity
  8
M-PIPE
100
AcDbLine
 10
723.0664074431148
 20
1968.60805968314
 30
0.0
 11
723.0664074431148
 21
1968.500000000042
 31
0.0
1001
REVIT
1002
{
1070
     3
1000
790271
1002
}
  0
LINE
  5
DA
330
87
100
AcDbEntity
  8
M-PIPE
100
AcDbLine
 10
723.0664074431148
 20
1968.60805968314
 30
0.0
 11
723.0664074431152
 21
1975.959168366275
 31
0.0
1001
REVIT
1002
{
1070
     3
1000
790271
1002
}
  0
LINE
  5
DB
330
87
100
AcDbEntity
  8
M-PIPE
100
AcDbLine
 10
723.0664074431152
 20
1979.64592388848
 30
0.0
 11
723.0664074431152
 21
1975.959168366275
 31
0.0
1001
REVIT
1002
{
1070
     3
1000
790271
1002
}
  0
LINE
  5
DC
330
87
100
AcDbEntity
  8
M-PIPE
100
AcDbLine
 10
723.0664074431152
 20
1979.645923888479
 30
0.0
 11
723.0664074431155
 21
1988.519497029089
 31
0.0
1001
REVIT
1002
{
1070
     3
1000
790271
1002
}
  0
LINE
  5
DD
330
87
100
AcDbEntity
  8
M-PIPE
100
AcDbLine
 10
723.0664074431155
 20
1989.429928444537
 30
0.0
 11
723.0664074431156
 21
1997.393070169691
 31
0.0
1001
REVIT
1002
{
1070
     3
1000
790271
1002
}
  0
LINE
  5
DE
330
87
100
AcDbEntity
  8
M-PIPE
100
AcDbLine
 10
723.0664074431157
 20
2002.606929830424
 30
0.0
 11
723.0664074431156
 21
1997.393070169691
 31
0.0
1001
REVIT
1002
{
1070
     3
1000
790271
1002
}
  0
LINE
  5
DF
330
87
100
AcDbEntity
  8
M-PIPE
100
AcDbLine
 10
723.0664074431157
 20
2002.606929830423
 30
0.0
 11
723.0664074431157
 21
2020.354076111581
 31
0.0
1001
REVIT
1002
{
1070
     3
1000
790271
1002
}
  0
LINE
  5
E0
330
87
100
AcDbEntity
  8
M-PIPE
100
AcDbLine
 10
723.0664074431157
 20
2024.040831633857
 30
0.0
 11
723.0664074431157
 21
2020.354076111581
 31
0.0
1001
REVIT
1002
{
1070
     3
1000
790271
1002
}
  0
LINE
  5
E1
330
87
100
AcDbEntity
  8
M-PIPE
100
AcDbLine
 10
723.0664074431157
 20
2024.040831633857
 30
0.0
 11
723.0664074431155
 21
2031.391940316936
 31
0.0
1001
REVIT
1002
{
1070
     3
1000
790271
1002
}
  0
LINE
  5
E2
330
87
100
AcDbEntity
  8
M-PIPE
100
AcDbLine
 10
723.0664074431155
 20
2031.500000000042
 30
0.0
 11
723.0664074431155
 21
2031.391940316936
 31
0.0
1001
REVIT
1002
{
1070
     3
1000
790271
1002
}
  0
LINE
  5
E3
330
87
100
AcDbEntity
  8
M-PIPE
100
AcDbLine
 10
723.0664074431155
 20
1989.422122889952
 30
0.0
 11
723.0664074431155
 21
1988.519497029089
 31
0.0
1001
REVIT
1002
{
1070
     3
1000
790271
1002
}
  0
LINE
  5
E4
330
87
100
AcDbEntity
  8
M-PIPE
100
AcDbLine
 10
695.6664074431436
 20
2030.000000000042
 30
0.0
 11
695.6664074431429
 21
1970.000000000042
 31
0.0
1001
REVIT
1002
{
1070
     3
1000
790271
1002
}
  0
LINE
  5
E5
330
87
100
AcDbEntity
  8
M-PIPE
100
AcDbLine
 10
803.8664074431947
 20
2123.415944369272
 30
0.0
 11
803.8664074431945
 21
2122.500000000088
 31
0.0
1001
REVIT
1002
{
1070
     3
1000
923261
1002
}
  0
LINE
  5
E6
330
87
100
AcDbEntity
  8
M-PIPE
100
AcDbLine
 10
827.4664074431948
 20
2122.500000000087
 30
0.0
 11
827.4664074431948
 21
2123.415944369272
 31
0.0
1001
REVIT
1002
{
1070
     3
1000
923261
1002
}
  0
LINE
  5
E7
330
87
100
AcDbEntity
  8
M-PIPE
100
AcDbLine
 10
818.4948345679188
 20
2139.500000000071
 30
0.0
 11
791.9783302734235
 21
2139.500000000071
 31
0.0
1001
REVIT
1002
{
1070
     3
1000
923261
1002
}
  0
LINE
  5
E8
330
87
100
AcDbEntity
  8
M-PIPE
100
AcDbLine
 10
791.9783302734235
 20
2139.500000000071
 30
0.0
 11
791.9783302734234
 21
2135.500000000071
 31
0.0
1001
REVIT
1002
{
1070
     3
1000
923261
1002
}
  0
LINE
  5
E9
330
87
100
AcDbEntity
  8
M-PIPE
100
AcDbLine
 10
791.9783302734234
 20
2135.500000000071
 30
0.0
 11
812.9689415383005
 21
2135.500000000071
 31
0.0
1001
REVIT
1002
{
1070
     3
1000
923261
1002
}
  0
ELLIPSE
  5
EA
330
87
100
AcDbEntity
  8
M-PIPE
100
AcDbEllipse
 10
812.9689415383001
 20
2131.685207133327
 30
0.0
 11
0.0000000000004551
 21
3.814792866744028
 31
0.0
210
0.0
220
0.0
230
1.0
 40
0.707106781186563
 41
4.712388980382026
 42
6.28318530717967
1001
REVIT
1002
{
1070
     3
1000
923261
1002
}
  0
LINE
  5
EB
330
87
100
AcDbEntity
  8
M-PIPE
100
AcDbLine
 10
815.666407443197
 20
2131.685207133317
 30
0.0
 11
815.6664074431809
 21
2123.415944369271
 31
0.0
1001
REVIT
1002
{
1070
     3
1000
923261
1002
}
  0
LINE
  5
EC
330
87
100
AcDbEntity
  8
M-PIPE
100
AcDbLine
 10
815.6664074431809
 20
2123.415944369271
 30
0.0
 11
832.3632407434191
 21
2123.415944369271
 31
0.0
1001
REVIT
1002
{
1070
     3
1000
923261
1002
}
  0
ELLIPSE
  5
ED
330
87
100
AcDbEntity
  8
M-PIPE
100
AcDbEllipse
 10
818.4948345679185
 20
2119.500000000071
 30
0.0
 11
0.0
 21
19.99999999999989
 31
0.0
210
0.0
220
0.0
230
1.0
 40
0.7071067811865462
 41
4.909459318332713
 42
6.283185307179557
1001
REVIT
1002
{
1070
     3
1000
923261
1002
}
  0
ELLIPSE
  5
EE
330
87
100
AcDbEntity
  8
M-PIPE
100
AcDbEllipse
 10
795.9983787898232
 20
2131.685207133327
 30
0.0
 11
0.0000000000002154
 21
3.814792866744028
 31
0.0
210
0.0
220
0.0
230
1.0
 40
0.707106781186563
 41
4.712388980381981
 42
6.283185307179666
1001
REVIT
1002
{
1070
     3
1000
923261
1002
}
  0
LINE
  5
EF
330
87
100
AcDbEntity
  8
M-PIPE
100
AcDbLine
 10
775.0077675249465
 20
2135.500000000072
 30
0.0
 11
775.0077675249465
 21
2139.500000000071
 31
0.0
1001
REVIT
1002
{
1070
     3
1000
923261
1002
}
  0
LINE
  5
F0
330
87
100
AcDbEntity
  8
M-PIPE
100
AcDbLine
 10
798.6958446947038
 20
2123.415944369271
 30
0.0
 11
798.6958446947199
 21
2131.685207133317
 31
0.0
1001
REVIT
1002
{
1070
     3
1000
923261
1002
}
  0
LINE
  5
F1
330
87
100
AcDbEntity
  8
M-PIPE
100
AcDbLine
 10
775.0077675249465
 20
2139.500000000071
 30
0.0
 11
791.9783302734235
 21
2139.500000000071
 31
0.0
1001
REVIT
1002
{
1070
     3
1000
923261
1002
}
  0
LINE
  5
F2
330
87
100
AcDbEntity
  8
M-PIPE
100
AcDbLine
 10
775.0077675249465
 20
2135.500000000072
 30
0.0
 11
791.9783302734234
 21
2135.500000000071
 31
0.0
1001
REVIT
1002
{
1070
     3
1000
923261
1002
}
  0
LINE
  5
F3
330
87
100
AcDbEntity
  8
M-PIPE
100
AcDbLine
 10
798.6958446947038
 20
2123.415944369271
 30
0.0
 11
815.6664074431809
 21
2123.415944369271
 31
0.0
1001
REVIT
1002
{
1070
     3
1000
923261
1002
}
  0
LINE
  5
F4
330
87
100
AcDbEntity
  8
M-PIPE
100
AcDbLine
 10
853.5182691002125
 20
2120.500000000056
 30
0.0
 11
853.5182691002125
 21
2130.499999999994
 31
0.0
1001
REVIT
1002
{
1070
     3
1000
923261
1002
}
  0
LINE
  5
F5
330
87
100
AcDbEntity
  8
M-PIPE
100
AcDbLine
 10
845.5182691002125
 20
2130.499999999994
 30
0.0
 11
845.5182691002125
 21
2120.500000000056
 31
0.0
1001
REVIT
1002
{
1070
     3
1000
923261
1002
}
  0
LINE
  5
F6
330
87
100
AcDbEntity
  8
M-PIPE
100
AcDbLine
 10
857.5182691002124
 20
2130.499999999994
 30
0.0
 11
857.5182691002124
 21
2135.500000000057
 31
0.0
1001
REVIT
1002
{
1070
     3
1000
923261
1002
}
  0
LINE
  5
F7
330
87
100
AcDbEntity
  8
M-PIPE
100
AcDbLine
 10
841.5182691002124
 20
2135.500000000057
 30
0.0
 11
841.5182691002124
 21
2130.499999999994
 31
0.0
1001
REVIT
1002
{
1070
     3
1000
923261
1002
}
  0
LINE
  5
F8
330
87
100
AcDbEntity
  8
M-PIPE
100
AcDbLine
 10
841.5182691002108
 20
2135.500000000056
 30
0.0
 11
857.5182691002108
 21
2135.500000000056
 31
0.0
1001
REVIT
1002
{
1070
     3
1000
923261
1002
}
  0
LINE
  5
F9
330
87
100
AcDbEntity
  8
M-PIPE
100
AcDbLine
 10
857.5182691002108
 20
2130.499999999993
 30
0.0
 11
841.5182691002108
 21
2130.499999999993
 31
0.0
1001
REVIT
1002
{
1070
     3
1000
923261
1002
}
  0
LINE
  5
FA
330
87
100
AcDbEntity
  8
M-PIPE
100
AcDbLine
 10
770.1664074431615
 20
2113.500000000057
 30
0.0
 11
762.1664074431615
 21
2113.500000000057
 31
0.0
1001
REVIT
1002
{
1070
     3
1000
923261
1002
}
  0
LINE
  5
FB
330
87
100
AcDbEntity
  8
M-PIPE
100
AcDbLine
 10
762.1664074431612
 20
2089.500000000057
 30
0.0
 11
770.1664074431612
 21
2089.500000000057
 31
0.0
1001
REVIT
1002
{
1070
     3
1000
923261
1002
}
  0
LINE
  5
FC
330
87
100
AcDbEntity
  8
M-PIPE
100
AcDbLine
 10
757.1664074431606
 20
2093.500000000057
 30
0.0
 11
762.1664074431612
 21
2093.500000000057
 31
0.0
1001
REVIT
1002
{
1070
     3
1000
923261
1002
}
  0
LINE
  5
FD
330
87
100
AcDbEntity
  8
M-PIPE
100
AcDbLine
 10
770.1664074431613
 20
2093.500000000057
 30
0.0
 11
783.1664074431601
 21
2093.500000000057
 31
0.0
1001
REVIT
1002
{
1070
     3
1000
923261
1002
}
  0
LINE
  5
FE
330
87
100
AcDbEntity
  8
M-PIPE
100
AcDbLine
 10
783.1664074431605
 20
2109.500000000057
 30
0.0
 11
770.1664074431615
 21
2109.500000000057
 31
0.0
1001
REVIT
1002
{
1070
     3
1000
923261
1002
}
  0
LINE
  5
FF
330
87
100
AcDbEntity
  8
M-PIPE
100
AcDbLine
 10
762.1664074431613
 20
2109.500000000058
 30
0.0
 11
757.166407443161
 21
2109.500000000058
 31
0.0
1001
REVIT
1002
{
1070
     3
1000
923261
1002
}
  0
LINE
  5
100
330
87
100
AcDbEntity
  8
M-PIPE
100
AcDbLine
 10
770.1664074431599
 20
2113.500000000056
 30
0.0
 11
770.1664074431597
 21
2101.500000000056
 31
0.0
1001
REVIT
1002
{
1070
     3
1000
923261
1002
}
  0
LINE
  5
101
330
87
100
AcDbEntity
  8
M-PIPE
100
AcDbLine
 10
770.1664074431597
 20
2101.500000000056
 30
0.0
 11
770.1664074431595
 21
2089.500000000056
 31
0.0
1001
REVIT
1002
{
1070
     3
1000
923261
1002
}
  0
LINE
  5
102
330
87
100
AcDbEntity
  8
M-PIPE
100
AcDbLine
 10
762.1664074431596
 20
2089.500000000056
 30
0.0
 11
762.1664074431597
 21
2101.500000000056
 31
0.0
1001
REVIT
1002
{
1070
     3
1000
923261
1002
}
  0
LINE
  5
103
330
87
100
AcDbEntity
  8
M-PIPE
100
AcDbLine
 10
762.1664074431597
 20
2101.500000000056
 30
0.0
 11
762.1664074431598
 21
2113.500000000056
 31
0.0
1001
REVIT
1002
{
1070
     3
1000
923261
1002
}
  0
LINE
  5
104
330
87
100
AcDbEntity
  8
M-PIPE
100
AcDbLine
 10
757.1664074431591
 20
2101.500000000056
 30
0.0
 11
757.1664074431593
 21
2109.500000000056
 31
0.0
1001
REVIT
1002
{
1070
     3
1000
923261
1002
}
  0
LINE
  5
105
330
87
100
AcDbEntity
  8
M-PIPE
100
AcDbLine
 10
757.1664074431591
 20
2093.500000000056
 30
0.0
 11
757.1664074431591
 21
2101.500000000056
 31
0.0
1001
REVIT
1002
{
1070
     3
1000
923261
1002
}
  0
LINE
  5
106
330
87
100
AcDbEntity
  8
M-PIPE
100
AcDbLine
 10
857.5182691002122
 20
2052.290000000057
 30
0.0
 11
857.5182691002122
 21
2060.290000000057
 31
0.0
1001
REVIT
1002
{
1070
     3
1000
923261
1002
}
  0
LINE
  5
107
330
87
100
AcDbEntity
  8
M-PIPE
100
AcDbLine
 10
841.5182691002122
 20
2060.290000000057
 30
0.0
 11
841.5182691002122
 21
2052.290000000057
 31
0.0
1001
REVIT
1002
{
1070
     3
1000
923261
1002
}
  0
LINE
  5
108
330
87
100
AcDbEntity
  8
M-PIPE
100
AcDbLine
 10
827.6664074431726
 20
2120.500000000057
 30
0.0
 11
827.6664074431726
 21
2122.500000000057
 31
0.0
1001
REVIT
1002
{
1070
     3
1000
923261
1002
}
  0
LINE
  5
109
330
87
100
AcDbEntity
  8
M-PIPE
100
AcDbLine
 10
803.6664074431724
 20
2122.500000000057
 30
0.0
 11
803.6664074431724
 21
2120.500000000058
 31
0.0
1001
REVIT
1002
{
1070
     3
1000
923261
1002
}
  0
ARC
  5
10A
330
87
100
AcDbEntity
  8
M-PIPE
100
AcDbCircle
 10
803.1664074431592
 20
2080.290000000056
 30
0.0
 40
20.0
100
AcDbArc
 50
180.0
 51
269.9999999999987
1001
REVIT
1002
{
1070
     3
1000
923261
1002
}
  0
LINE
  5
10B
330
87
100
AcDbEntity
  8
M-PIPE
100
AcDbLine
 10
803.166407443159
 20
2060.290000000056
 30
0.0
 11
865.6664074431589
 21
2060.290000000056
 31
0.0
1001
REVIT
1002
{
1070
     3
1000
923261
1002
}
  0
ARC
  5
10C
330
87
100
AcDbEntity
  8
M-PIPE
100
AcDbCircle
 10
865.6664074431594
 20
2093.290000000055
 30
0.0
 40
32.99999999999992
100
AcDbArc
 50
269.9999999999986
 51
359.9999999999987
1001
REVIT
1002
{
1070
     3
1000
923261
1002
}
  0
LINE
  5
10D
330
87
100
AcDbEntity
  8
M-PIPE
100
AcDbLine
 10
898.6664074431592
 20
2093.290000000055
 30
0.0
 11
898.6664074431592
 21
2098.49951915939
 31
0.0
1001
REVIT
1002
{
1070
     3
1000
923261
1002
}
  0
LINE
  5
10E
330
87
100
AcDbEntity
  8
M-PIPE
100
AcDbLine
 10
783.1664074431593
 20
2080.500000000055
 30
0.0
 11
783.1664074431593
 21
2080.290000000056
 31
0.0
1001
REVIT
1002
{
1070
     3
1000
923261
1002
}
  0
ARC
  5
10F
330
87
100
AcDbEntity
  8
M-PIPE
100
AcDbCircle
 10
891.6664074431594
 20
2113.500000000055
 30
0.0
 40
7.000000000000137
100
AcDbArc
 50
359.9999999999992
 51
89.99999999999953
1001
REVIT
1002
{
1070
     3
1000
923261
1002
}
  0
LINE
  5
110
330
87
100
AcDbEntity
  8
M-PIPE
100
AcDbLine
 10
891.6664074431595
 20
2120.500000000055
 30
0.0
 11
783.1664074431594
 21
2120.500000000056
 31
0.0
1001
REVIT
1002
{
1070
     3
1000
923261
1002
}
  0
LINE
  5
111
330
87
100
AcDbEntity
  8
M-PIPE
100
AcDbLine
 10
783.1664074431594
 20
2120.500000000056
 30
0.0
 11
783.1664074431593
 21
2090.612328629041
 31
0.0
1001
REVIT
1002
{
1070
     3
1000
923261
1002
}
  0
LINE
  5
112
330
87
100
AcDbEntity
  8
M-PIPE
100
AcDbLine
 10
898.6664074431596
 20
2108.500000000054
 30
0.0
 11
898.6664074431596
 21
2113.500000000055
 31
0.0
1001
REVIT
1002
{
1070
     3
1000
923261
1002
}
  0
LINE
  5
113
330
87
100
AcDbEntity
  8
M-PIPE
100
AcDbLine
 10
857.5182691002105
 20
2052.290000000056
 30
0.0
 11
841.5182691002105
 21
2052.290000000056
 31
0.0
1001
REVIT
1002
{
1070
     3
1000
923261
1002
}
  0
LINE
  5
114
330
87
100
AcDbEntity
  8
M-PIPE
100
AcDbLine
 10
783.1664074431593
 20
2080.500000000055
 30
0.0
 11
783.1664074431593
 21
2090.612328629041
 31
0.0
1001
REVIT
1002
{
1070
     3
1000
923261
1002
}
  0
ARC
  5
115
330
87
100
AcDbEntity
  8
M-PIPE
100
AcDbCircle
 10
789.1627547930135
 20
2240.492889362595
 30
0.0
 40
160.1052179915262
100
AcDbArc
 50
267.8536254461361
 51
292.1463745538602
1001
REVIT
1002
{
1070
     3
1000
923261
1002
}
  0
ARC
  5
116
330
87
100
AcDbEntity
  8
M-PIPE
100
AcDbCircle
 10
893.8163052506517
 20
1941.530924854704
 30
0.0
 40
157.0457663781111
100
AcDbArc
 50
88.20933210116651
 51
106.3838397345606
1001
REVIT
1002
{
1070
     3
1000
923261
1002
}
  0
LINE
  5
117
330
87
100
AcDbEntity
  8
M-PIPE
100
AcDbLine
 10
898.7236655697513
 20
2098.500000000055
 30
0.0
 11
900.1664074431594
 21
2098.500000000055
 31
0.0
1001
REVIT
1002
{
1070
     3
1000
923261
1002
}
  0
LINE
  5
118
330
87
100
AcDbEntity
  8
M-PIPE
100
AcDbLine
 10
900.1664074431594
 20
2098.500000000055
 30
0.0
 11
900.1664074431594
 21
2108.500000000054
 31
0.0
1001
REVIT
1002
{
1070
     3
1000
923261
1002
}
  0
LINE
  5
119
330
87
100
AcDbEntity
  8
M-PIPE
100
AcDbLine
 10
900.1664074431594
 20
2108.500000000054
 30
0.0
 11
886.1134609974261
 21
2108.500000000054
 31
0.0
1001
REVIT
1002
{
1070
     3
1000
923261
1002
}
  0
ARC
  5
11A
330
87
100
AcDbEntity
  8
M-PIPE
100
AcDbCircle
 10
893.8163052506517
 20
1951.643253483691
 30
0.0
 40
157.0457663781112
100
AcDbArc
 50
92.81139458151663
 51
106.3838397345598
1001
REVIT
1002
{
1070
     3
1000
923261
1002
}
  0
ARC
  5
11B
330
87
100
AcDbEntity
  8
M-PIPE
100
AcDbCircle
 10
789.1627547930135
 20
2250.605217991582
 30
0.0
 40
160.1052179915261
100
AcDbArc
 50
267.8536254461368
 51
292.1463745538611
1001
REVIT
1002
{
1070
     3
1000
923261
1002
}
  0
LINE
  5
11C
330
87
100
AcDbEntity
  8
M-PIPE
100
AcDbLine
 10
803.6664074431708
 20
2122.500000000056
 30
0.0
 11
827.666407443171
 21
2122.500000000056
 31
0.0
1001
REVIT
1002
{
1070
     3
1000
923261
1002
}
  0
LINE
  5
11D
330
87
100
AcDbEntity
  8
M-PIPE
100
AcDbLine
 10
828.1664074431725
 20
2044.499999999996
 30
0.0
 11
828.1664074431725
 21
2060.279999999994
 31
0.0
1001
REVIT
1002
{
1070
     3
1000
923261
1002
}
  0
LINE
  5
11E
330
87
100
AcDbEntity
  8
M-PIPE
100
AcDbLine
 10
803.1664074431725
 20
2060.279999999994
 30
0.0
 11
803.1664074431725
 21
2044.499999999996
 31
0.0
1001
REVIT
1002
{
1070
     3
1000
923261
1002
}
  0
LINE
  5
11F
330
87
100
AcDbEntity
  8
M-PIPE
100
AcDbLine
 10
887.6664074431944
 20
2041.499999999987
 30
0.0
 11
886.223031770222
 21
2043.999999999984
 31
0.0
1001
REVIT
1002
{
1070
     3
1000
790271
1002
}
  0
LINE
  5
120
330
87
100
AcDbEntity
  8
M-PIPE
100
AcDbLine
 10
886.2230317702037
 20
1955.999999999985
 30
0.0
 11
887.6664074431928
 21
1958.500000000011
 31
0.0
1001
REVIT
1002
{
1070
     3
1000
790271
1002
}
  0
LINE
  5
121
330
87
100
AcDbEntity
  8
M-PIPE
100
AcDbLine
 10
860.1097831161768
 20
2043.999999999984
 30
0.0
 11
858.6664074431947
 21
2041.49999999997
 31
0.0
1001
REVIT
1002
{
1070
     3
1000
790271
1002
}
  0
LINE
  5
122
330
87
100
AcDbEntity
  8
M-PIPE
100
AcDbLine
 10
858.6664074431931
 20
1958.500000000029
 30
0.0
 11
860.1097831161936
 21
1955.999999999983
 31
0.0
1001
REVIT
1002
{
1070
     3
1000
790271
1002
}
  0
LINE
  5
123
330
87
100
AcDbEntity
  8
M-PIPE
100
AcDbLine
 10
886.2230317702133
 20
2043.999999999979
 30
0.0
 11
860.1097831161855
 21
2043.999999999979
 31
0.0
1001
REVIT
1002
{
1070
     3
1000
790271
1002
}
  0
LINE
  5
124
330
87
100
AcDbEntity
  8
M-PIPE
100
AcDbLine
 10
860.1097831161855
 20
1955.999999999978
 30
0.0
 11
886.2230317702131
 21
1955.999999999978
 31
0.0
1001
REVIT
1002
{
1070
     3
1000
790271
1002
}
  0
LINE
  5
125
330
87
100
AcDbEntity
  8
M-PIPE
100
AcDbLine
 10
887.6664074431928
 20
2041.499999999986
 30
0.0
 11
887.6664074431928
 21
2035.940054257043
 31
0.0
1001
REVIT
1002
{
1070
     3
1000
790271
1002
}
  0
LINE
  5
126
330
87
100
AcDbEntity
  8
M-PIPE
100
AcDbLine
 10
887.6664074431928
 20
2035.940054257043
 30
0.0
 11
887.6664074431927
 21
2020.749999999992
 31
0.0
1001
REVIT
1002
{
1070
     3
1000
790271
1002
}
  0
LINE
  5
127
330
87
100
AcDbEntity
  8
M-PIPE
100
AcDbLine
 10
887.6664074431927
 20
2020.749999999992
 30
0.0
 11
887.6664074431923
 21
1999.999999999999
 31
0.0
1001
REVIT
1002
{
1070
     3
1000
790271
1002
}
  0
LINE
  5
128
330
87
100
AcDbEntity
  8
M-PIPE
100
AcDbLine
 10
887.6664074431923
 20
2000.0
 30
0.0
 11
887.6664074431916
 21
1964.059945742954
 31
0.0
1001
REVIT
1002
{
1070
     3
1000
790271
1002
}
  0
LINE
  5
129
330
87
100
AcDbEntity
  8
M-PIPE
100
AcDbLine
 10
887.6664074431916
 20
1964.059945742954
 30
0.0
 11
887.6664074431912
 21
1958.500000000009
 31
0.0
1001
REVIT
1002
{
1070
     3
1000
790271
1002
}
  0
LINE
  5
12A
330
87
100
AcDbEntity
  8
M-PIPE
100
AcDbLine
 10
858.6664074431929
 20
2020.749999999984
 30
0.0
 11
858.6664074431931
 21
2035.940054257027
 31
0.0
1001
REVIT
1002
{
1070
     3
1000
790271
1002
}
  0
LINE
  5
12B
330
87
100
AcDbEntity
  8
M-PIPE
100
AcDbLine
 10
858.6664074431931
 20
2035.940054257027
 30
0.0
 11
858.6664074431931
 21
2041.499999999969
 31
0.0
1001
REVIT
1002
{
1070
     3
1000
790271
1002
}
  0
LINE
  5
12C
330
87
100
AcDbEntity
  8
M-PIPE
100
AcDbLine
 10
858.6664074431915
 20
1958.500000000028
 30
0.0
 11
858.6664074431919
 21
1964.059945742969
 31
0.0
1001
REVIT
1002
{
1070
     3
1000
790271
1002
}
  0
LINE
  5
12D
330
87
100
AcDbEntity
  8
M-PIPE
100
AcDbLine
 10
858.6664074431919
 20
1964.059945742969
 30
0.0
 11
858.6664074431924
 21
1999.999999999997
 31
0.0
1001
REVIT
1002
{
1070
     3
1000
790271
1002
}
  0
LINE
  5
12E
330
87
100
AcDbEntity
  8
M-PIPE
100
AcDbLine
 10
858.6664074431924
 20
1999.999999999997
 30
0.0
 11
858.6664074431929
 21
2020.749999999983
 31
0.0
1001
REVIT
1002
{
1070
     3
1000
790271
1002
}
  0
SPLINE
  5
12F
330
87
100
AcDbEntity
  8
M-PIPE
100
AcDbSpline
210
0.0
220
0.0
230
1.0
 70
     8
 71
     3
 72
     9
 73
     5
 74
     0
 42
0.000000001
 43
0.0000000001
 40
0.0
 40
0.0
 40
0.0
 40
0.0
 40
0.5
 40
1.0
 40
1.0
 40
1.0
 40
1.0
 10
886.2230317702083
 20
1985.379808482764
 30
0.0
 10
886.692401308924
 20
1987.752980529648
 30
0.0
 10
887.4023334598041
 20
1992.562851162739
 30
0.0
 10
887.6546517575803
 20
1997.499774874472
 30
0.0
 10
887.6664074431927
 20
2000.0
 30
0.0
1001
REVIT
1002
{
1070
     3
1000
790271
1002
}
  0
SPLINE
  5
130
330
87
100
AcDbEntity
  8
M-PIPE
100
AcDbSpline
210
0.0
220
0.0
230
1.0
 70
     8
 71
     3
 72
     9
 73
     5
 74
     0
 42
0.000000001
 43
0.0000000001
 40
0.0
 40
0.0
 40
0.0
 40
0.0
 40
0.5
 40
1.0
 40
1.0
 40
1.0
 40
1.0
 10
887.6664074431927
 20
2000.0
 30
0.0
 10
887.6546517575805
 20
2002.500225125519
 30
0.0
 10
887.4023334598057
 20
2007.437148837238
 30
0.0
 10
886.6924013089297
 20
2012.247019470315
 30
0.0
 10
886.2230317702168
 20
2014.620191517192
 30
0.0
1001
REVIT
1002
{
1070
     3
1000
790271
1002
}
  0
LINE
  5
131
330
87
100
AcDbEntity
  8
M-PIPE
100
AcDbLine
 10
886.2230317702168
 20
2014.620191517192
 30
0.0
 11
860.1097831161787
 21
2014.620191517192
 31
0.0
1001
REVIT
1002
{
1070
     3
1000
790271
1002
}
  0
SPLINE
  5
132
330
87
100
AcDbEntity
  8
M-PIPE
100
AcDbSpline
210
0.0
220
0.0
230
1.0
 70
     8
 71
     3
 72
     9
 73
     5
 74
     0
 42
0.000000001
 43
0.0000000001
 40
0.0
 40
0.0
 40
0.0
 40
0.0
 40
0.5
 40
1.0
 40
1.0
 40
1.0
 40
1.0
 10
860.1097831161787
 20
2014.620191517192
 30
0.0
 10
859.6404135774669
 20
2012.247019470314
 30
0.0
 10
858.930481426591
 20
2007.437148837237
 30
0.0
 10
858.6781631288099
 20
2002.500225125518
 30
0.0
 10
858.6664074431931
 20
1999.999999999998
 30
0.0
1001
REVIT
1002
{
1070
     3
1000
790271
1002
}
  0
SPLINE
  5
133
330
87
100
AcDbEntity
  8
M-PIPE
100
AcDbSpline
210
0.0
220
0.0
230
1.0
 70
     8
 71
     3
 72
     9
 73
     5
 74
     0
 42
0.000000001
 43
0.0000000001
 40
0.0
 40
0.0
 40
0.0
 40
0.0
 40
0.5
 40
1.0
 40
1.0
 40
1.0
 40
1.0
 10
858.6664074431931
 20
1999.999999999998
 30
0.0
 10
858.6781631288099
 20
1997.499774874471
 30
0.0
 10
858.9304814265924
 20
1992.562851162738
 30
0.0
 10
859.6404135774719
 20
1987.752980529648
 30
0.0
 10
860.109783116186
 20
1985.379808482764
 30
0.0
1001
REVIT
1002
{
1070
     3
1000
790271
1002
}
  0
LINE
  5
134
330
87
100
AcDbEntity
  8
M-PIPE
100
AcDbLine
 10
860.109783116186
 20
1985.379808482764
 30
0.0
 11
886.2230317702083
 21
1985.379808482764
 31
0.0
1001
REVIT
1002
{
1070
     3
1000
790271
1002
}
  0
SPLINE
  5
135
330
87
100
AcDbEntity
  8
M-PIPE
100
AcDbSpline
210
0.0
220
0.0
230
1.0
 70
     8
 71
     3
 72
     9
 73
     5
 74
     0
 42
0.000000001
 43
0.0000000001
 40
0.0
 40
0.0
 40
0.0
 40
0.0
 40
0.5
 40
1.0
 40
1.0
 40
1.0
 40
1.0
 10
886.2230317701991
 20
1956.749849984317
 30
0.0
 10
886.6924013089121
 20
1957.936436007759
 30
0.0
 10
887.4023334597909
 20
1960.341371324302
 30
0.0
 10
887.6546517575746
 20
1962.809833180167
 30
0.0
 10
887.6664074431927
 20
1964.05994574293
 30
0.0
1001
REVIT
1002
{
1070
     3
1000
790271
1002
}
  0
SPLINE
  5
136
330
87
100
AcDbEntity
  8
M-PIPE
100
AcDbSpline
210
0.0
220
0.0
230
1.0
 70
     8
 71
     3
 72
     9
 73
     5
 74
     0
 42
0.000000001
 43
0.0000000001
 40
0.0
 40
0.0
 40
0.0
 40
0.0
 40
0.5
 40
1.0
 40
1.0
 40
1.0
 40
1.0
 10
887.6664074431927
 20
1964.05994574293
 30
0.0
 10
887.6546517575746
 20
1965.31005830569
 30
0.0
 10
887.402333459792
 20
1967.778520161551
 30
0.0
 10
886.6924013089157
 20
1970.183455478091
 30
0.0
 10
886.2230317702042
 20
1971.370041501531
 30
0.0
1001
REVIT
1002
{
1070
     3
1000
790271
1002
}
  0
LINE
  5
137
330
87
100
AcDbEntity
  8
M-PIPE
100
AcDbLine
 10
886.2230317702042
 20
1971.370041501531
 30
0.0
 11
860.1097831161897
 21
1971.370041501531
 31
0.0
1001
REVIT
1002
{
1070
     3
1000
790271
1002
}
  0
SPLINE
  5
138
330
87
100
AcDbEntity
  8
M-PIPE
100
AcDbSpline
210
0.0
220
0.0
230
1.0
 70
     8
 71
     3
 72
     9
 73
     5
 74
     0
 42
0.000000001
 43
0.0000000001
 40
0.0
 40
0.0
 40
0.0
 40
0.0
 40
0.5
 40
1.0
 40
1.0
 40
1.0
 40
1.0
 10
860.1097831161897
 20
1971.370041501531
 30
0.0
 10
859.6404135774795
 20
1970.183455478091
 30
0.0
 10
858.930481426603
 20
1967.778520161551
 30
0.0
 10
858.6781631288149
 20
1965.31005830569
 30
0.0
 10
858.6664074431929
 20
1964.05994574293
 30
0.0
1001
REVIT
1002
{
1070
     3
1000
790271
1002
}
  0
SPLINE
  5
139
330
87
100
AcDbEntity
  8
M-PIPE
100
AcDbSpline
210
0.0
220
0.0
230
1.0
 70
     8
 71
     3
 72
     9
 73
     5
 74
     0
 42
0.000000001
 43
0.0000000001
 40
0.0
 40
0.0
 40
0.0
 40
0.0
 40
0.5
 40
1.0
 40
1.0
 40
1.0
 40
1.0
 10
858.6664074431929
 20
1964.05994574293
 30
0.0
 10
858.6781631288149
 20
1962.809833180167
 30
0.0
 10
858.9304814266037
 20
1960.341371324302
 30
0.0
 10
859.6404135774825
 20
1957.936436007759
 30
0.0
 10
860.109783116194
 20
1956.749849984317
 30
0.0
1001
REVIT
1002
{
1070
     3
1000
790271
1002
}
  0
LINE
  5
13A
330
87
100
AcDbEntity
  8
M-PIPE
100
AcDbLine
 10
860.109783116194
 20
1956.749849984317
 30
0.0
 11
886.2230317701991
 21
1956.749849984317
 31
0.0
1001
REVIT
1002
{
1070
     3
1000
790271
1002
}
  0
SPLINE
  5
13B
330
87
100
AcDbEntity
  8
M-PIPE
100
AcDbSpline
210
0.0
220
0.0
230
1.0
 70
     8
 71
     3
 72
     9
 73
     5
 74
     0
 42
0.000000001
 43
0.0000000001
 40
0.0
 40
0.0
 40
0.0
 40
0.0
 40
0.5
 40
1.0
 40
1.0
 40
1.0
 40
1.0
 10
886.2230317702204
 20
2028.629958498425
 30
0.0
 10
886.6924013089372
 20
2029.816544521866
 30
0.0
 10
887.4023334598161
 20
2032.221479838409
 30
0.0
 10
887.6546517575855
 20
2034.689941694274
 30
0.0
 10
887.6664074431928
 20
2035.940054257036
 30
0.0
1001
REVIT
1002
{
1070
     3
1000
790271
1002
}
  0
SPLINE
  5
13C
330
87
100
AcDbEntity
  8
M-PIPE
100
AcDbSpline
210
0.0
220
0.0
230
1.0
 70
     8
 71
     3
 72
     9
 73
     5
 74
     0
 42
0.000000001
 43
0.0000000001
 40
0.0
 40
0.0
 40
0.0
 40
0.0
 40
0.5
 40
1.0
 40
1.0
 40
1.0
 40
1.0
 10
887.6664074431928
 20
2035.940054257036
 30
0.0
 10
887.6546517575855
 20
2037.190166819798
 30
0.0
 10
887.4023334598167
 20
2039.65862867566
 30
0.0
 10
886.6924013089395
 20
2042.063563992199
 30
0.0
 10
886.2230317702236
 20
2043.250150015639
 30
0.0
1001
REVIT
1002
{
1070
     3
1000
790271
1002
}
  0
LINE
  5
13D
330
87
100
AcDbEntity
  8
M-PIPE
100
AcDbLine
 10
886.2230317702236
 20
2043.250150015639
 30
0.0
 11
860.1097831161721
 21
2043.250150015639
 31
0.0
1001
REVIT
1002
{
1070
     3
1000
790271
1002
}
  0
SPLINE
  5
13E
330
87
100
AcDbEntity
  8
M-PIPE
100
AcDbSpline
210
0.0
220
0.0
230
1.0
 70
     8
 71
     3
 72
     9
 73
     5
 74
     0
 42
0.000000001
 43
0.0000000001
 40
0.0
 40
0.0
 40
0.0
 40
0.0
 40
0.5
 40
1.0
 40
1.0
 40
1.0
 40
1.0
 10
860.1097831161721
 20
2043.250150015639
 30
0.0
 10
859.6404135774582
 20
2042.063563992199
 30
0.0
 10
858.9304814265807
 20
2039.658628675659
 30
0.0
 10
858.6781631288054
 20
2037.190166819797
 30
0.0
 10
858.6664074431931
 20
2035.940054257036
 30
0.0
1001
REVIT
1002
{
1070
     3
1000
790271
1002
}
  0
SPLINE
  5
13F
330
87
100
AcDbEntity
  8
M-PIPE
100
AcDbSpline
210
0.0
220
0.0
230
1.0
 70
     8
 71
     3
 72
     9
 73
     5
 74
     0
 42
0.000000001
 43
0.0000000001
 40
0.0
 40
0.0
 40
0.0
 40
0.0
 40
0.5
 40
1.0
 40
1.0
 40
1.0
 40
1.0
 10
858.6664074431931
 20
2035.940054257036
 30
0.0
 10
858.6781631288054
 20
2034.689941694273
 30
0.0
 10
858.9304814265815
 20
2032.221479838409
 30
0.0
 10
859.6404135774603
 20
2029.816544521866
 30
0.0
 10
860.1097831161753
 20
2028.629958498425
 30
0.0
1001
REVIT
1002
{
1070
     3
1000
790271
1002
}
  0
LINE
  5
140
330
87
100
AcDbEntity
  8
M-PIPE
100
AcDbLine
 10
860.1097831161753
 20
2028.629958498425
 30
0.0
 11
886.2230317702204
 21
2028.629958498425
 31
0.0
1001
REVIT
1002
{
1070
     3
1000
790271
1002
}
  0
LINE
  5
141
330
87
100
AcDbEntity
  8
M-PIPE
100
AcDbLine
 10
886.2230317702183
 20
2028.629958498428
 30
0.0
 11
886.2230317702183
 21
2021.999999999988
 31
0.0
1001
REVIT
1002
{
1070
     3
1000
790271
1002
}
  0
LINE
  5
142
330
87
100
AcDbEntity
  8
M-PIPE
100
AcDbLine
 10
860.1097831161787
 20
2021.999999999989
 30
0.0
 11
860.1097831161789
 21
2028.629958498429
 31
0.0
1001
REVIT
1002
{
1070
     3
1000
790271
1002
}
  0
LINE
  5
143
330
87
100
AcDbEntity
  8
M-PIPE
100
AcDbLine
 10
886.2230317702204
 20
2043.999999999984
 30
0.0
 11
886.2230317702204
 21
2043.250150015644
 31
0.0
1001
REVIT
1002
{
1070
     3
1000
790271
1002
}
  0
LINE
  5
144
330
87
100
AcDbEntity
  8
M-PIPE
100
AcDbLine
 10
886.2230317702021
 20
1956.749849984322
 30
0.0
 11
886.2230317702021
 21
1955.999999999984
 31
0.0
1001
REVIT
1002
{
1070
     3
1000
790271
1002
}
  0
LINE
  5
145
330
87
100
AcDbEntity
  8
M-PIPE
100
AcDbLine
 10
886.2230317702092
 20
1985.379808482765
 30
0.0
 11
886.223031770209
 21
1971.370041501536
 31
0.0
1001
REVIT
1002
{
1070
     3
1000
790271
1002
}
  0
LINE
  5
146
330
87
100
AcDbEntity
  8
M-PIPE
100
AcDbLine
 10
886.223031770217
 20
2021.999999999988
 30
0.0
 11
886.2230317702168
 21
2014.620191517192
 31
0.0
1001
REVIT
1002
{
1070
     3
1000
790271
1002
}
  0
LINE
  5
147
330
87
100
AcDbEntity
  8
M-PIPE
100
AcDbLine
 10
860.1097831161752
 20
2043.250150015644
 30
0.0
 11
860.1097831161752
 21
2043.999999999983
 31
0.0
1001
REVIT
1002
{
1070
     3
1000
790271
1002
}
  0
LINE
  5
148
330
87
100
AcDbEntity
  8
M-PIPE
100
AcDbLine
 10
860.1097831161919
 20
1955.999999999982
 30
0.0
 11
860.1097831161919
 21
1956.74984998432
 31
0.0
1001
REVIT
1002
{
1070
     3
1000
790271
1002
}
  0
LINE
  5
149
330
87
100
AcDbEntity
  8
M-PIPE
100
AcDbLine
 10
860.1097831161883
 20
1971.370041501532
 30
0.0
 11
860.1097831161887
 21
1985.379808482763
 31
0.0
1001
REVIT
1002
{
1070
     3
1000
790271
1002
}
  0
LINE
  5
14A
330
87
100
AcDbEntity
  8
M-PIPE
100
AcDbLine
 10
860.1097831161798
 20
2014.620191517193
 30
0.0
 11
860.1097831161801
 21
2021.99999999999
 31
0.0
1001
REVIT
1002
{
1070
     3
1000
790271
1002
}
  0
LINE
  5
14B
330
87
100
AcDbEntity
  8
M-PIPE
100
AcDbLine
 10
745.1097831161408
 20
2044.000000000007
 30
0.0
 11
743.6664074431534
 21
2041.499999999984
 31
0.0
1001
REVIT
1002
{
1070
     3
1000
790271
1002
}
  0
LINE
  5
14C
330
87
100
AcDbEntity
  8
M-PIPE
100
AcDbLine
 10
772.6664074431531
 20
2041.499999999967
 30
0.0
 11
771.2230317701566
 21
2044.000000000005
 31
0.0
1001
REVIT
1002
{
1070
     3
1000
790271
1002
}
  0
LINE
  5
14D
330
87
100
AcDbEntity
  8
M-PIPE
100
AcDbLine
 10
771.2230317701613
 20
2044.000000000008
 30
0.0
 11
745.1097831161336
 21
2044.000000000008
 31
0.0
1001
REVIT
1002
{
1070
     3
1000
790271
1002
}
  0
LINE
  5
14E
330
87
100
AcDbEntity
  8
M-PIPE
100
AcDbLine
 10
743.6664074431525
 20
1958.500000000008
 30
0.0
 11
745.1097831161282
 21
1956.000000000005
 31
0.0
1001
REVIT
1002
{
1070
     3
1000
790271
1002
}
  0
LINE
  5
14F
330
87
100
AcDbEntity
  8
M-PIPE
100
AcDbLine
 10
771.2230317701651
 20
1956.000000000003
 30
0.0
 11
772.6664074431522
 21
1958.500000000025
 31
0.0
1001
REVIT
1002
{
1070
     3
1000
790271
1002
}
  0
LINE
  5
150
330
87
100
AcDbEntity
  8
M-PIPE
100
AcDbLine
 10
745.1097831161335
 20
1956.000000000008
 30
0.0
 11
771.2230317701612
 21
1956.000000000008
 31
0.0
1001
REVIT
1002
{
1070
     3
1000
790271
1002
}
  0
LINE
  5
151
330
87
100
AcDbEntity
  8
M-PIPE
100
AcDbLine
 10
743.666407443151
 20
1958.500000000007
 30
0.0
 11
743.6664074431515
 21
1964.059945742951
 31
0.0
1001
REVIT
1002
{
1070
     3
1000
790271
1002
}
  0
LINE
  5
152
330
87
100
AcDbEntity
  8
M-PIPE
100
AcDbLine
 10
743.6664074431515
 20
1964.059945742951
 30
0.0
 11
743.6664074431522
 21
1999.999999999994
 31
0.0
1001
REVIT
1002
{
1070
     3
1000
790271
1002
}
  0
LINE
  5
153
330
87
100
AcDbEntity
  8
M-PIPE
100
AcDbLine
 10
743.6664074431522
 20
1999.999999999994
 30
0.0
 11
743.6664074431523
 21
2035.940054257039
 31
0.0
1001
REVIT
1002
{
1070
     3
1000
790271
1002
}
  0
LINE
  5
154
330
87
100
AcDbEntity
  8
M-PIPE
100
AcDbLine
 10
743.6664074431523
 20
2035.940054257039
 30
0.0
 11
743.6664074431519
 21
2041.499999999984
 31
0.0
1001
REVIT
1002
{
1070
     3
1000
790271
1002
}
  0
LINE
  5
155
330
87
100
AcDbEntity
  8
M-PIPE
100
AcDbLine
 10
772.6664074431518
 20
2041.499999999965
 30
0.0
 11
772.6664074431521
 21
2035.940054257023
 31
0.0
1001
REVIT
1002
{
1070
     3
1000
790271
1002
}
  0
LINE
  5
156
330
87
100
AcDbEntity
  8
M-PIPE
100
AcDbLine
 10
772.6664074431521
 20
2035.940054257023
 30
0.0
 11
772.666407443152
 21
1999.999999999996
 31
0.0
1001
REVIT
1002
{
1070
     3
1000
790271
1002
}
  0
LINE
  5
157
330
87
100
AcDbEntity
  8
M-PIPE
100
AcDbLine
 10
772.666407443152
 20
1999.999999999996
 30
0.0
 11
772.6664074431513
 21
1964.059945742967
 31
0.0
1001
REVIT
1002
{
1070
     3
1000
790271
1002
}
  0
LINE
  5
158
330
87
100
AcDbEntity
  8
M-PIPE
100
AcDbLine
 10
772.6664074431513
 20
1964.059945742967
 30
0.0
 11
772.6664074431507
 21
1958.500000000024
 31
0.0
1001
REVIT
1002
{
1070
     3
1000
790271
1002
}
  0
SPLINE
  5
159
330
87
100
AcDbEntity
  8
M-PIPE
100
AcDbSpline
210
0.0
220
0.0
230
1.0
 70
     8
 71
     3
 72
     9
 73
     5
 74
     0
 42
0.000000001
 43
0.0000000001
 40
0.0
 40
0.0
 40
0.0
 40
0.0
 40
0.5
 40
1.0
 40
1.0
 40
1.0
 40
1.0
 10
745.1097831161354
 20
1971.37004150156
 30
0.0
 10
744.6404135774197
 20
1970.183455478118
 30
0.0
 10
743.9304814265398
 20
1967.778520161573
 30
0.0
 10
743.6781631287634
 20
1965.310058305706
 30
0.0
 10
743.6664074431511
 20
1964.059945742943
 30
0.0
1001
REVIT
1002
{
1070
     3
1000
790271
1002
}
  0
SPLINE
  5
15A
330
87
100
AcDbEntity
  8
M-PIPE
100
AcDbSpline
210
0.0
220
0.0
230
1.0
 70
     8
 71
     3
 72
     9
 73
     5
 74
     0
 42
0.000000001
 43
0.0000000001
 40
0.0
 40
0.0
 40
0.0
 40
0.0
 40
0.5
 40
1.0
 40
1.0
 40
1.0
 40
1.0
 10
743.6664074431511
 20
1964.059945742943
 30
0.0
 10
743.6781631287633
 20
1962.809833180182
 30
0.0
 10
743.930481426538
 20
1960.341371324323
 30
0.0
 10
744.6404135774139
 20
1957.936436007785
 30
0.0
 10
745.109783116127
 20
1956.749849984347
 30
0.0
1001
REVIT
1002
{
1070
     3
1000
790271
1002
}
  0
LINE
  5
15B
330
87
100
AcDbEntity
  8
M-PIPE
100
AcDbLine
 10
745.109783116127
 20
1956.749849984347
 30
0.0
 11
771.2230317701651
 21
1956.749849984346
 31
0.0
1001
REVIT
1002
{
1070
     3
1000
790271
1002
}
  0
SPLINE
  5
15C
330
87
100
AcDbEntity
  8
M-PIPE
100
AcDbSpline
210
0.0
220
0.0
230
1.0
 70
     8
 71
     3
 72
     9
 73
     5
 74
     0
 42
0.000000001
 43
0.0000000001
 40
0.0
 40
0.0
 40
0.0
 40
0.0
 40
0.5
 40
1.0
 40
1.0
 40
1.0
 40
1.0
 10
771.2230317701651
 20
1956.749849984346
 30
0.0
 10
771.6924013088767
 20
1957.936436007785
 30
0.0
 10
772.4023334597529
 20
1960.341371324324
 30
0.0
 10
772.6546517575339
 20
1962.809833180184
 30
0.0
 10
772.6664074431509
 20
1964.059945742944
 30
0.0
1001
REVIT
1002
{
1070
     3
1000
790271
1002
}
  0
SPLINE
  5
15D
330
87
100
AcDbEntity
  8
M-PIPE
100
AcDbSpline
210
0.0
220
0.0
230
1.0
 70
     8
 71
     3
 72
     9
 73
     5
 74
     0
 42
0.000000001
 43
0.0000000001
 40
0.0
 40
0.0
 40
0.0
 40
0.0
 40
0.5
 40
1.0
 40
1.0
 40
1.0
 40
1.0
 10
772.6664074431509
 20
1964.059945742944
 30
0.0
 10
772.6546517575339
 20
1965.310058305707
 30
0.0
 10
772.4023334597514
 20
1967.778520161573
 30
0.0
 10
771.6924013088719
 20
1970.183455478118
 30
0.0
 10
771.2230317701578
 20
1971.37004150156
 30
0.0
1001
REVIT
1002
{
1070
     3
1000
790271
1002
}
  0
LINE
  5
15E
330
87
100
AcDbEntity
  8
M-PIPE
100
AcDbLine
 10
771.2230317701578
 20
1971.37004150156
 30
0.0
 11
745.1097831161354
 21
1971.37004150156
 31
0.0
1001
REVIT
1002
{
1070
     3
1000
790271
1002
}
  0
SPLINE
  5
15F
330
87
100
AcDbEntity
  8
M-PIPE
100
AcDbSpline
210
0.0
220
0.0
230
1.0
 70
     8
 71
     3
 72
     9
 73
     5
 74
     0
 42
0.000000001
 43
0.0000000001
 40
0.0
 40
0.0
 40
0.0
 40
0.0
 40
0.5
 40
1.0
 40
1.0
 40
1.0
 40
1.0
 10
745.1097831161446
 20
2014.620191517221
 30
0.0
 10
744.6404135774314
 20
2012.247019470338
 30
0.0
 10
743.9304814265527
 20
2007.43714883725
 30
0.0
 10
743.6781631287691
 20
2002.50022512552
 30
0.0
 10
743.6664074431511
 20
1999.999999999994
 30
0.0
1001
REVIT
1002
{
1070
     3
1000
790271
1002
}
  0
SPLINE
  5
160
330
87
100
AcDbEntity
  8
M-PIPE
100
AcDbSpline
210
0.0
220
0.0
230
1.0
 70
     8
 71
     3
 72
     9
 73
     5
 74
     0
 42
0.000000001
 43
0.0000000001
 40
0.0
 40
0.0
 40
0.0
 40
0.0
 40
0.5
 40
1.0
 40
1.0
 40
1.0
 40
1.0
 10
743.6664074431511
 20
1999.999999999994
 30
0.0
 10
743.6781631287691
 20
1997.499774874474
 30
0.0
 10
743.9304814265518
 20
1992.562851162752
 30
0.0
 10
744.6404135774281
 20
1987.752980529673
 30
0.0
 10
745.1097831161397
 20
1985.379808482793
 30
0.0
1001
REVIT
1002
{
1070
     3
1000
790271
1002
}
  0
LINE
  5
161
330
87
100
AcDbEntity
  8
M-PIPE
100
AcDbLine
 10
745.1097831161397
 20
1985.379808482793
 30
0.0
 11
771.2230317701539
 21
1985.379808482793
 31
0.0
1001
REVIT
1002
{
1070
     3
1000
790271
1002
}
  0
SPLINE
  5
162
330
87
100
AcDbEntity
  8
M-PIPE
100
AcDbSpline
210
0.0
220
0.0
230
1.0
 70
     8
 71
     3
 72
     9
 73
     5
 74
     0
 42
0.000000001
 43
0.0000000001
 40
0.0
 40
0.0
 40
0.0
 40
0.0
 40
0.5
 40
1.0
 40
1.0
 40
1.0
 40
1.0
 10
771.2230317701539
 20
1985.379808482793
 30
0.0
 10
771.6924013088643
 20
1987.752980529673
 30
0.0
 10
772.4023334597407
 20
1992.562851162754
 30
0.0
 10
772.6546517575289
 20
1997.499774874475
 30
0.0
 10
772.6664074431509
 20
1999.999999999995
 30
0.0
1001
REVIT
1002
{
1070
     3
1000
790271
1002
}
  0
SPLINE
  5
163
330
87
100
AcDbEntity
  8
M-PIPE
100
AcDbSpline
210
0.0
220
0.0
230
1.0
 70
     8
 71
     3
 72
     9
 73
     5
 74
     0
 42
0.000000001
 43
0.0000000001
 40
0.0
 40
0.0
 40
0.0
 40
0.0
 40
0.5
 40
1.0
 40
1.0
 40
1.0
 40
1.0
 10
772.6664074431509
 20
1999.999999999995
 30
0.0
 10
772.6546517575289
 20
2002.500225125521
 30
0.0
 10
772.4023334597399
 20
2007.43714883725
 30
0.0
 10
771.6924013088613
 20
2012.247019470338
 30
0.0
 10
771.2230317701495
 20
2014.620191517221
 30
0.0
1001
REVIT
1002
{
1070
     3
1000
790271
1002
}
  0
LINE
  5
164
330
87
100
AcDbEntity
  8
M-PIPE
100
AcDbLine
 10
771.2230317701495
 20
2014.620191517221
 30
0.0
 11
745.1097831161446
 21
2014.620191517221
 31
0.0
1001
REVIT
1002
{
1070
     3
1000
790271
1002
}
  0
SPLINE
  5
165
330
87
100
AcDbEntity
  8
M-PIPE
100
AcDbSpline
210
0.0
220
0.0
230
1.0
 70
     8
 71
     3
 72
     9
 73
     5
 74
     0
 42
0.000000001
 43
0.0000000001
 40
0.0
 40
0.0
 40
0.0
 40
0.0
 40
0.5
 40
1.0
 40
1.0
 40
1.0
 40
1.0
 10
745.1097831161417
 20
2043.250150015669
 30
0.0
 10
744.6404135774303
 20
2042.063563992228
 30
0.0
 10
743.9304814265535
 20
2039.658628675688
 30
0.0
 10
743.6781631287699
 20
2037.190166819827
 30
0.0
 10
743.6664074431512
 20
2035.940054257066
 30
0.0
1001
REVIT
1002
{
1070
     3
1000
790271
1002
}
  0
SPLINE
  5
166
330
87
100
AcDbEntity
  8
M-PIPE
100
AcDbSpline
210
0.0
220
0.0
230
1.0
 70
     8
 71
     3
 72
     9
 73
     5
 74
     0
 42
0.000000001
 43
0.0000000001
 40
0.0
 40
0.0
 40
0.0
 40
0.0
 40
0.5
 40
1.0
 40
1.0
 40
1.0
 40
1.0
 10
743.6664074431512
 20
2035.940054257066
 30
0.0
 10
743.6781631287699
 20
2034.689941694304
 30
0.0
 10
743.9304814265543
 20
2032.221479838439
 30
0.0
 10
744.6404135774326
 20
2029.816544521896
 30
0.0
 10
745.1097831161453
 20
2028.629958498455
 30
0.0
1001
REVIT
1002
{
1070
     3
1000
790271
1002
}
  0
LINE
  5
167
330
87
100
AcDbEntity
  8
M-PIPE
100
AcDbLine
 10
745.1097831161452
 20
2028.629958498455
 30
0.0
 11
771.2230317701491
 21
2028.629958498455
 31
0.0
1001
REVIT
1002
{
1070
     3
1000
790271
1002
}
  0
SPLINE
  5
168
330
87
100
AcDbEntity
  8
M-PIPE
100
AcDbSpline
210
0.0
220
0.0
230
1.0
 70
     8
 71
     3
 72
     9
 73
     5
 74
     0
 42
0.000000001
 43
0.0000000001
 40
0.0
 40
0.0
 40
0.0
 40
0.0
 40
0.5
 40
1.0
 40
1.0
 40
1.0
 40
1.0
 10
771.2230317701491
 20
2028.629958498455
 30
0.0
 10
771.6924013088604
 20
2029.816544521896
 30
0.0
 10
772.4023334597385
 20
2032.22147983844
 30
0.0
 10
772.6546517575282
 20
2034.689941694304
 30
0.0
 10
772.666407443151
 20
2035.940054257066
 30
0.0
1001
REVIT
1002
{
1070
     3
1000
790271
1002
}
  0
SPLINE
  5
169
330
87
100
AcDbEntity
  8
M-PIPE
100
AcDbSpline
210
0.0
220
0.0
230
1.0
 70
     8
 71
     3
 72
     9
 73
     5
 74
     0
 42
0.000000001
 43
0.0000000001
 40
0.0
 40
0.0
 40
0.0
 40
0.0
 40
0.5
 40
1.0
 40
1.0
 40
1.0
 40
1.0
 10
772.666407443151
 20
2035.940054257066
 30
0.0
 10
772.6546517575282
 20
2037.190166819826
 30
0.0
 10
772.4023334597388
 20
2039.658628675688
 30
0.0
 10
771.6924013088623
 20
2042.063563992228
 30
0.0
 10
771.2230317701521
 20
2043.250150015668
 30
0.0
1001
REVIT
1002
{
1070
     3
1000
790271
1002
}
  0
LINE
  5
16A
330
87
100
AcDbEntity
  8
M-PIPE
100
AcDbLine
 10
771.223031770152
 20
2043.250150015668
 30
0.0
 11
745.1097831161417
 21
2043.250150015669
 31
0.0
1001
REVIT
1002
{
1070
     3
1000
790271
1002
}
  0
LINE
  5
16B
330
87
100
AcDbEntity
  8
M-PIPE
100
AcDbLine
 10
745.1097831161392
 20
2043.250150015664
 30
0.0
 11
745.1097831161392
 21
2044.000000000006
 31
0.0
1001
REVIT
1002
{
1070
     3
1000
790271
1002
}
  0
LINE
  5
16C
330
87
100
AcDbEntity
  8
M-PIPE
100
AcDbLine
 10
771.2230317701552
 20
2044.000000000005
 30
0.0
 11
771.2230317701552
 21
2043.250150015663
 31
0.0
1001
REVIT
1002
{
1070
     3
1000
790271
1002
}
  0
LINE
  5
16D
330
87
100
AcDbEntity
  8
M-PIPE
100
AcDbLine
 10
745.1097831161416
 20
2014.620191517219
 30
0.0
 11
745.1097831161416
 21
2028.62995849845
 31
0.0
1001
REVIT
1002
{
1070
     3
1000
790271
1002
}
  0
LINE
  5
16E
330
87
100
AcDbEntity
  8
M-PIPE
100
AcDbLine
 10
745.1097831161346
 20
1971.370041501561
 30
0.0
 11
745.1097831161348
 21
1985.379808482796
 31
0.0
1001
REVIT
1002
{
1070
     3
1000
790271
1002
}
  0
LINE
  5
16F
330
87
100
AcDbEntity
  8
M-PIPE
100
AcDbLine
 10
745.1097831161267
 20
1956.000000000004
 30
0.0
 11
745.1097831161269
 21
1956.749849984347
 31
0.0
1001
REVIT
1002
{
1070
     3
1000
790271
1002
}
  0
LINE
  5
170
330
87
100
AcDbEntity
  8
M-PIPE
100
AcDbLine
 10
771.2230317701518
 20
2028.629958498452
 30
0.0
 11
771.2230317701518
 21
2014.62019151722
 31
0.0
1001
REVIT
1002
{
1070
     3
1000
790271
1002
}
  0
LINE
  5
171
330
87
100
AcDbEntity
  8
M-PIPE
100
AcDbLine
 10
771.2230317701555
 20
1985.379808482794
 30
0.0
 11
771.2230317701552
 21
1971.370041501557
 31
0.0
1001
REVIT
1002
{
1070
     3
1000
790271
1002
}
  0
LINE
  5
172
330
87
100
AcDbEntity
  8
M-PIPE
100
AcDbLine
 10
771.2230317701637
 20
1956.749849984344
 30
0.0
 11
771.2230317701636
 21
1956.000000000002
 31
0.0
1001
REVIT
1002
{
1070
     3
1000
790271
1002
}
  0
LINE
  5
173
330
87
100
AcDbEntity
  8
P-SANR-FIXT
100
AcDbLine
 10
856.6664074431599
 20
2043.999999999996
 30
0.0
 11
828.66640744316
 21
2043.999999999996
 31
0.0
  0
LINE
  5
174
330
87
100
AcDbEntity
  8
P-SANR-FIXT
100
AcDbLine
 10
849.1664074431598
 20
1955.999999999995
 30
0.0
 11
856.6664074431599
 21
1955.999999999995
 31
0.0
  0
LINE
  5
175
330
87
100
AcDbEntity
  8
P-SANR-FIXT
100
AcDbLine
 10
858.6664074431947
 20
2035.499999999997
 30
0.0
 11
856.6664074431599
 21
2035.499999999997
 31
0.0
  0
LINE
  5
176
330
87
100
AcDbEntity
  8
P-SANR-FIXT
100
AcDbLine
 10
856.6664074431599
 20
1964.499999999995
 30
0.0
 11
858.6664074432091
 21
1964.499999999995
 31
0.0
  0
LINE
  5
177
330
87
100
AcDbEntity
  8
P-SANR-FIXT
100
AcDbLine
 10
828.66640744316
 20
2043.999999999996
 30
0.0
 11
828.66640744316
 21
2044.499999999996
 31
0.0
  0
LINE
  5
178
330
87
100
AcDbEntity
  8
P-SANR-FIXT
100
AcDbLine
 10
802.6664074431598
 20
2044.499999999996
 30
0.0
 11
802.6664074431598
 21
2043.999999999996
 31
0.0
  0
LINE
  5
179
330
87
100
AcDbEntity
  8
P-SANR-FIXT
100
AcDbLine
 10
802.6664074431597
 20
2043.999999999996
 30
0.0
 11
774.6664074431597
 21
2043.999999999996
 31
0.0
  0
LINE
  5
17A
330
87
100
AcDbEntity
  8
P-SANR-FIXT
100
AcDbLine
 10
774.6664074431597
 20
1955.999999999996
 30
0.0
 11
782.1664074431598
 21
1955.999999999996
 31
0.0
  0
LINE
  5
17B
330
87
100
AcDbEntity
  8
P-SANR-FIXT
100
AcDbLine
 10
774.6664074431597
 20
2035.499999999996
 30
0.0
 11
772.6664074431369
 21
2035.499999999996
 31
0.0
  0
LINE
  5
17C
330
87
100
AcDbEntity
  8
P-SANR-FIXT
100
AcDbLine
 10
772.6664074431528
 20
1964.499999999995
 30
0.0
 11
774.6664074431597
 21
1964.499999999995
 31
0.0
  0
LINE
  5
17D
330
87
100
AcDbEntity
  8
P-SANR-FIXT
100
AcDbLine
 10
849.1664074431598
 20
1936.999999999996
 30
0.0
 11
849.1664074431598
 21
1955.999999999995
 31
0.0
  0
LINE
  5
17E
330
87
100
AcDbEntity
  8
P-SANR-FIXT
100
AcDbLine
 10
782.1664074431598
 20
1955.999999999996
 30
0.0
 11
782.1664074431598
 21
1936.999999999996
 31
0.0
  0
LINE
  5
17F
330
87
100
AcDbEntity
  8
P-SANR-FIXT
100
AcDbLine
 10
802.6664074431582
 20
2044.499999999995
 30
0.0
 11
828.6664074431582
 21
2044.499999999995
 31
0.0
  0
LINE
  5
180
330
87
100
AcDbEntity
  8
P-SANR-FIXT
100
AcDbLine
 10
856.6664074431583
 20
1955.999999999995
 30
0.0
 11
856.6664074431583
 21
2043.999999999995
 31
0.0
  0
SPLINE
  5
181
330
87
100
AcDbEntity
  8
P-SANR-FIXT
100
AcDbSpline
210
0.0
220
0.0
230
1.0
 70
     8
 71
     3
 72
    17
 73
    13
 74
     0
 42
0.000000001
 43
0.0000000001
 40
0.0
 40
0.0
 40
0.0
 40
0.0
 40
0.1428571428571428
 40
0.2857142857142857
 40
0.3571428571428571
 40
0.4285714285714286
 40
0.5
 40
0.5714285714285714
 40
0.6428571428571428
 40
0.7142857142857144
 40
0.8571428571428571
 40
1.0
 40
1.0
 40
1.0
 40
1.0
 10
802.6664074431582
 20
2043.999999999995
 30
0.0
 10
802.6664074431582
 20
2043.996749014528
 30
0.0
 10
802.8886946379516
 20
2043.934978035903
 30
0.0
 10
803.7030537679274
 20
2043.701629593897
 30
0.0
 10
804.6456692253961
 20
2043.453601968158
 30
0.0
 10
805.4889655360261
 20
2043.247407575645
 30
0.0
 10
806.4575137496435
 20
2043.028558905596
 30
0.0
 10
807.5403292391875
 20
2042.809023432221
 30
0.0
 10
808.7257733033979
 20
2042.5995064261
 30
0.0
 10
810.4238747925943
 20
2042.345947035714
 30
0.0
 10
812.7351125515911
 20
2042.103505446934
 30
0.0
 10
814.6880213180477
 20
2042.039452578758
 30
0.0
 10
815.6664074431581
 20
2042.035699113962
 30
0.0
  0
SPLINE
  5
182
330
87
100
AcDbEntity
  8
P-SANR-FIXT
100
AcDbSpline
210
0.0
220
0.0
230
1.0
 70
     8
 71
     3
 72
    17
 73
    13
 74
     0
 42
0.000000001
 43
0.0000000001
 40
-1.0
 40
-1.0
 40
-1.0
 40
-1.0
 40
-0.8571428571428572
 40
-0.7142857142857144
 40
-0.6428571428571428
 40
-0.5714285714285714
 40
-0.5
 40
-0.4285714285714286
 40
-0.3571428571428571
 40
-0.2857142857142857
 40
-0.1428571428571428
 40
0.0
 40
0.0
 40
0.0
 40
0.0
 10
828.6664074431582
 20
2043.999999999995
 30
0.0
 10
828.6664074431582
 20
2043.996749014528
 30
0.0
 10
828.4441202483648
 20
2043.934978035904
 30
0.0
 10
827.6297611183888
 20
2043.701629593898
 30
0.0
 10
826.6871456609202
 20
2043.453601968159
 30
0.0
 10
825.8438493502904
 20
2043.247407575646
 30
0.0
 10
824.875301136673
 20
2043.028558905596
 30
0.0
 10
823.7924856471289
 20
2042.809023432221
 30
0.0
 10
822.6070415829186
 20
2042.5995064261
 30
0.0
 10
820.9089400937221
 20
2042.345947035715
 30
0.0
 10
818.5977023347254
 20
2042.103505446935
 30
0.0
 10
816.6447935682688
 20
2042.039452578758
 30
0.0
 10
815.6664074431581
 20
2042.035699113962
 30
0.0
  0
LINE
  5
183
330
87
100
AcDbEntity
  8
P-SANR-FIXT
100
AcDbLine
 10
774.6664074431582
 20
2043.999999999995
 30
0.0
 11
774.6664074431582
 21
1955.999999999995
 31
0.0
  0
LINE
  5
184
330
87
100
AcDbEntity
  8
P-SANR-FIXT
100
AcDbLine
 10
849.1664074431582
 20
1936.999999999995
 30
0.0
 11
782.1664074431583
 21
1936.999999999995
 31
0.0
  0
SPLINE
  5
185
330
87
100
AcDbEntity
  8
P-SANR-FIXT
100
AcDbSpline
210
0.0
220
0.0
230
1.0
 70
     8
 71
     3
 72
    34
 73
    30
 74
     0
 42
0.000000001
 43
0.0000000001
 40
-1.0
 40
-1.0
 40
-1.0
 40
-1.0
 40
-0.9285714285714286
 40
-0.8928571428571427
 40
-0.8571428571428571
 40
-0.8214285714285713
 40
-0.7857142857142857
 40
-0.75
 40
-0.7321428571428572
 40
-0.7142857142857144
 40
-0.6964285714285714
 40
-0.6785714285714287
 40
-0.6428571428571428
 40
-0.6071428571428572
 40
-0.5892857142857143
 40
-0.5714285714285714
 40
-0.5535714285714287
 40
-0.5357142857142857
 40
-0.5
 40
-0.4642857142857144
 40
-0.4285714285714286
 40
-0.3928571428571428
 40
-0.3571428571428571
 40
-0.3214285714285714
 40
-0.2857142857142857
 40
-0.25
 40
-0.2142857142857143
 40
-0.1428571428571428
 40
0.0
 40
0.0
 40
0.0
 40
0.0
 10
815.6664074431581
 20
1971.473696348803
 30
0.0
 10
816.9989399728919
 20
1971.428628890085
 30
0.0
 10
818.9757479987068
 20
1971.266317085044
 30
0.0
 10
821.5406245658281
 20
1970.856176257527
 30
0.0
 10
823.4239259421478
 20
1970.460315800228
 30
0.0
 10
825.2578165100322
 20
1969.941769677991
 30
0.0
 10
827.0381417869666
 20
1969.306614127422
 30
0.0
 10
828.4778384600068
 20
1968.722759149171
 30
0.0
 10
829.602739307001
 20
1968.240663196029
 30
0.0
 10
830.4337211080618
 20
1967.880568811824
 30
0.0
 10
831.2489929561452
 20
1967.512220851668
 30
0.0
 10
832.3123350291991
 20
1966.995285299175
 30
0.0
 10
833.6011288198127
 20
1966.318850350042
 30
0.0
 10
834.8411741746106
 20
1965.624615025471
 30
0.0
 10
835.806413526288
 20
1965.072583114465
 30
0.0
 10
836.5183077166225
 20
1964.666476071621
 30
0.0
 10
837.2152577213274
 20
1964.261220929811
 30
0.0
 10
838.1207538050118
 20
1963.711217803792
 30
0.0
 10
839.2114557091503
 20
1963.019607668129
 30
0.0
 10
840.4561357439343
 20
1962.200105005182
 30
0.0
 10
841.6404303607933
 20
1961.423026911179
 30
0.0
 10
842.757212894625
 20
1960.674520449848
 30
0.0
 10
843.7975285701238
 20
1959.93984910212
 30
0.0
 10
844.7609413836524
 20
1959.246251032242
 30
0.0
 10
845.6440613878438
 20
1958.619525427407
 30
0.0
 10
846.4426331649232
 20
1958.049252699707
 30
0.0
 10
847.3849007909686
 20
1957.342872908727
 30
0.0
 10
848.6901653412195
 20
1956.358855336079
 30
0.0
 10
849.1664074431582
 20
1956.026361214624
 30
0.0
 10
849.1664074431582
 20
1955.999999999995
 30
0.0
  0
SPLINE
  5
186
330
87
100
AcDbEntity
  8
P-SANR-FIXT
100
AcDbSpline
210
0.0
220
0.0
230
1.0
 70
     8
 71
     3
 72
    35
 73
    31
 74
     0
 42
0.000000001
 43
0.0000000001
 40
-1.0
 40
-1.0
 40
-1.0
 40
-1.0
 40
-0.8571428571428571
 40
-0.7857142857142856
 40
-0.75
 40
-0.7142857142857143
 40
-0.6785714285714285
 40
-0.6428571428571428
 40
-0.6071428571428572
 40
-0.5714285714285714
 40
-0.5535714285714287
 40
-0.5357142857142857
 40
-0.5
 40
-0.4642857142857144
 40
-0.4464285714285714
 40
-0.4285714285714286
 40
-0.4107142857142857
 40
-0.3928571428571428
 40
-0.3571428571428571
 40
-0.3214285714285714
 40
-0.3035714285714286
 40
-0.2857142857142857
 40
-0.2678571428571428
 40
-0.25
 40
-0.2142857142857143
 40
-0.1785714285714286
 40
-0.1428571428571428
 40
-0.1071428571428571
 40
-0.0714285714285714
 40
0.0
 40
0.0
 40
0.0
 40
0.0
 10
782.1664074431583
 20
1955.999999999995
 30
0.0
 10
782.1664074431583
 20
1956.026361214624
 30
0.0
 10
782.6426497299154
 20
1956.358854445613
 30
0.0
 10
783.9479138489233
 20
1957.342874096015
 30
0.0
 10
784.890182152636
 20
1958.049250621955
 30
0.0
 10
785.6887518505096
 20
1958.61953336739
 30
0.0
 10
786.5718796632748
 20
1959.246221350064
 30
0.0
 10
787.5352633217147
 20
1959.939959890847
 30
0.0
 10
788.5756878089948
 20
1960.674106977118
 30
0.0
 10
789.5060015104903
 20
1961.299492840664
 30
0.0
 10
790.2849693374023
 20
1961.809458041254
 30
0.0
 10
791.0838729894197
 20
1962.337906909869
 30
0.0
 10
792.1214470887568
 20
1963.019184105002
 30
0.0
 10
793.2120501719599
 20
1963.711270365648
 30
0.0
 10
794.1175592194921
 20
1964.261211031098
 30
0.0
 10
794.8145066200658
 20
1964.666478719762
 30
0.0
 10
795.5264015040389
 20
1965.072582420615
 30
0.0
 10
796.4916406284848
 20
1965.624615426435
 30
0.0
 10
797.731686095441
 20
1966.31885021062
 30
0.0
 10
799.0204798535264
 20
1966.995285316477
 30
0.0
 10
800.0838219308475
 20
1967.51222084841
 30
0.0
 10
800.8990937780739
 20
1967.880568812696
 30
0.0
 10
801.7300755793629
 20
1968.240663195801
 30
0.0
 10
802.8549764262823
 20
1968.722759149303
 30
0.0
 10
804.2946730993591
 20
1969.306614127378
 30
0.0
 10
806.0749983762818
 20
1969.941769678004
 30
0.0
 10
807.9088889441694
 20
1970.460315800225
 30
0.0
 10
809.7921903204882
 20
1970.856176257528
 30
0.0
 10
812.3570668876098
 20
1971.266317085044
 30
0.0
 10
814.3338749134246
 20
1971.428628890085
 30
0.0
 10
815.6664074431581
 20
1971.473696348803
 30
0.0
  0
ENDBLK
  5
188
330
87
100
AcDbEntity
  8
0
100
AcDbBlockEnd
  0
BLOCK
  5
23E
330
18A
100
AcDbEntity
  8
0
100
AcDbBlockBegin
  2
Automatic flow rate regulator valve_Caleffi_121 DN15 - 1_2__-V1-Est - Idraulica
 70
     0
 10
0.0
 20
0.0
 30
0.0
  3
Automatic flow rate regulator valve_Caleffi_121 DN15 - 1_2__-V1-Est - Idraulica
  1

  0
LINE
  5
18B
330
18A
100
AcDbEntity
  8
M-PIPE
100
AcDbLine
 10
900.1664074431607
 20
1768.964628730013
 30
0.0
 11
908.2664074432026
 21
1768.964628730013
 31
0.0
1001
REVIT
1002
{
1070
     3
1000
790271
1002
}
  0
LINE
  5
18C
330
18A
100
AcDbEntity
  8
M-PIPE
100
AcDbLine
 10
908.2664074432029
 20
1831.964628730013
 30
0.0
 11
900.1664074431607
 21
1831.964628730013
 31
0.0
1001
REVIT
1002
{
1070
     3
1000
790271
1002
}
  0
LINE
  5
18D
330
18A
100
AcDbEntity
  8
M-PIPE
100
AcDbLine
 10
908.2664074432026
 20
1770.464628730013
 30
0.0
 11
935.6664074431742
 21
1770.464628730013
 31
0.0
1001
REVIT
1002
{
1070
     3
1000
790271
1002
}
  0
LINE
  5
18E
330
18A
100
AcDbEntity
  8
M-PIPE
100
AcDbLine
 10
935.6664074431748
 20
1830.464628730013
 30
0.0
 11
908.2664074432029
 21
1830.464628730013
 31
0.0
1001
REVIT
1002
{
1070
     3
1000
790271
1002
}
  0
LINE
  5
18F
330
18A
100
AcDbEntity
  8
M-PIPE
100
AcDbLine
 10
908.2664074432008
 20
1769.072688413118
 30
0.0
 11
900.1664074431591
 21
1769.072688413118
 31
0.0
1001
REVIT
1002
{
1070
     3
1000
790271
1002
}
  0
LINE
  5
190
330
18A
100
AcDbEntity
  8
M-PIPE
100
AcDbLine
 10
900.1664074431589
 20
1831.856569046913
 30
0.0
 11
908.2664074432013
 21
1831.856569046913
 31
0.0
1001
REVIT
1002
{
1070
     3
1000
790271
1002
}
  0
LINE
  5
191
330
18A
100
AcDbEntity
  8
M-PIPE
100
AcDbLine
 10
900.1664074431593
 20
1776.423797096199
 30
0.0
 11
908.2664074432006
 21
1776.423797096198
 31
0.0
1001
REVIT
1002
{
1070
     3
1000
790271
1002
}
  0
LINE
  5
192
330
18A
100
AcDbEntity
  8
M-PIPE
100
AcDbLine
 10
908.2664074432006
 20
1780.110552618472
 30
0.0
 11
900.1664074431593
 21
1780.110552618472
 31
0.0
1001
REVIT
1002
{
1070
     3
1000
790271
1002
}
  0
LINE
  5
193
330
18A
100
AcDbEntity
  8
M-PIPE
100
AcDbLine
 10
900.1664074431591
 20
1797.857698899633
 30
0.0
 11
908.2664074432006
 21
1797.857698899633
 31
0.0
1001
REVIT
1002
{
1070
     3
1000
790271
1002
}
  0
LINE
  5
194
330
18A
100
AcDbEntity
  8
M-PIPE
100
AcDbLine
 10
908.2664074432006
 20
1803.071558560362
 30
0.0
 11
900.1664074431591
 21
1803.071558560363
 31
0.0
1001
REVIT
1002
{
1070
     3
1000
790271
1002
}
  0
LINE
  5
195
330
18A
100
AcDbEntity
  8
M-PIPE
100
AcDbLine
 10
900.1664074431589
 20
1820.818704841576
 30
0.0
 11
908.2664074432008
 21
1820.818704841576
 31
0.0
1001
REVIT
1002
{
1070
     3
1000
790271
1002
}
  0
LINE
  5
196
330
18A
100
AcDbEntity
  8
M-PIPE
100
AcDbLine
 10
908.2664074432008
 20
1824.50546036378
 30
0.0
 11
900.1664074431587
 21
1824.50546036378
 31
0.0
1001
REVIT
1002
{
1070
     3
1000
790271
1002
}
  0
LINE
  5
197
330
18A
100
AcDbEntity
  8
M-PIPE
100
AcDbLine
 10
908.2664074432013
 20
1831.856569046913
 30
0.0
 11
908.2664074432013
 21
1831.964628730012
 31
0.0
1001
REVIT
1002
{
1070
     3
1000
790271
1002
}
  0
LINE
  5
198
330
18A
100
AcDbEntity
  8
M-PIPE
100
AcDbLine
 10
908.2664074432013
 20
1831.856569046913
 30
0.0
 11
908.2664074432008
 21
1824.505460363779
 31
0.0
1001
REVIT
1002
{
1070
     3
1000
790271
1002
}
  0
LINE
  5
199
330
18A
100
AcDbEntity
  8
M-PIPE
100
AcDbLine
 10
908.2664074432008
 20
1820.818704841574
 30
0.0
 11
908.2664074432008
 21
1824.505460363779
 31
0.0
1001
REVIT
1002
{
1070
     3
1000
790271
1002
}
  0
LINE
  5
19A
330
18A
100
AcDbEntity
  8
M-PIPE
100
AcDbLine
 10
908.2664074432008
 20
1820.818704841574
 30
0.0
 11
908.2664074432006
 21
1803.071558560363
 31
0.0
1001
REVIT
1002
{
1070
     3
1000
790271
1002
}
  0
LINE
  5
19B
330
18A
100
AcDbEntity
  8
M-PIPE
100
AcDbLine
 10
908.2664074432006
 20
1797.85769889963
 30
0.0
 11
908.2664074432006
 21
1803.071558560363
 31
0.0
1001
REVIT
1002
{
1070
     3
1000
790271
1002
}
  0
LINE
  5
19C
330
18A
100
AcDbEntity
  8
M-PIPE
100
AcDbLine
 10
908.2664074432006
 20
1797.857698899631
 30
0.0
 11
908.2664074432006
 21
1780.110552618473
 31
0.0
1001
REVIT
1002
{
1070
     3
1000
790271
1002
}
  0
LINE
  5
19D
330
18A
100
AcDbEntity
  8
M-PIPE
100
AcDbLine
 10
908.2664074432006
 20
1776.423797096197
 30
0.0
 11
908.2664074432006
 21
1780.110552618473
 31
0.0
1001
REVIT
1002
{
1070
     3
1000
790271
1002
}
  0
LINE
  5
19E
330
18A
100
AcDbEntity
  8
M-PIPE
100
AcDbLine
 10
908.2664074432006
 20
1776.423797096197
 30
0.0
 11
908.2664074432008
 21
1769.072688413118
 31
0.0
1001
REVIT
1002
{
1070
     3
1000
790271
1002
}
  0
LINE
  5
19F
330
18A
100
AcDbEntity
  8
M-PIPE
100
AcDbLine
 10
908.2664074432008
 20
1768.964628730013
 30
0.0
 11
908.2664074432008
 21
1769.072688413118
 31
0.0
1001
REVIT
1002
{
1070
     3
1000
790271
1002
}
  0
LINE
  5
1A0
330
18A
100
AcDbEntity
  8
M-PIPE
100
AcDbLine
 10
935.6664074431726
 20
1770.464628730012
 30
0.0
 11
935.6664074431732
 21
1830.464628730012
 31
0.0
1001
REVIT
1002
{
1070
     3
1000
790271
1002
}
  0
LINE
  5
1A1
330
18A
100
AcDbEntity
  8
M-PIPE
100
AcDbLine
 10
743.6664074431523
 20
1832.46462872999
 30
0.0
 11
742.6664074431156
 21
1832.46462872999
 31
0.0
1001
REVIT
1002
{
1070
     3
1000
790271
1002
}
  0
LINE
  5
1A2
330
18A
100
AcDbEntity
  8
M-PIPE
100
AcDbLine
 10
742.6664074431167
 20
1768.46462872999
 30
0.0
 11
743.6664074431535
 21
1768.46462872999
 31
0.0
1001
REVIT
1002
{
1070
     3
1000
790271
1002
}
  0
LINE
  5
1A3
330
18A
100
AcDbEntity
  8
M-PIPE
100
AcDbLine
 10
742.6664074431156
 20
1832.46462872999
 30
0.0
 11
742.6251363589182
 21
1832.393145115277
 31
0.0
1001
REVIT
1002
{
1070
     3
1000
790271
1002
}
  0
LINE
  5
1A4
330
18A
100
AcDbEntity
  8
M-PIPE
100
AcDbLine
 10
742.6094545407476
 20
1832.365983409451
 30
0.0
 11
741.3824873135188
 21
1830.240813832668
 31
0.0
1001
REVIT
1002
{
1070
     3
1000
790271
1002
}
  0
LINE
  5
1A5
330
18A
100
AcDbEntity
  8
M-PIPE
100
AcDbLine
 10
741.38248731352
 20
1770.688443627312
 30
0.0
 11
742.6094545407488
 21
1768.56327405053
 31
0.0
1001
REVIT
1002
{
1070
     3
1000
790271
1002
}
  0
LINE
  5
1A6
330
18A
100
AcDbEntity
  8
M-PIPE
100
AcDbLine
 10
742.6251363589194
 20
1768.536112344704
 30
0.0
 11
742.6664074431167
 21
1768.46462872999
 31
0.0
1001
REVIT
1002
{
1070
     3
1000
790271
1002
}
  0
LWPOLYLINE
  5
1A7
330
18A
100
AcDbEntity
  8
M-PIPE
100
AcDbPolyline
 90
       54
 70
   128
 43
0.0
 10
736.9616524381176
 20
1830.240813832668
 10
737.0144543288575
 20
1830.153441523023
 10
737.0707079442058
 20
1830.068250614361
 10
737.1303232903779
 20
1829.985377393963
 10
737.1932049955375
 20
1829.904954441302
 10
737.25925246237
 20
1829.827110415947
 10
737.3283600290183
 20
1829.751969851733
 10
737.4004171381176
 20
1829.679652957533
 10
737.4753085136648
 20
1829.610275424952
 10
737.5529143454349
 20
1829.543948243241
 10
737.6331104806522
 20
1829.480777521743
 10
737.7157686226082
 20
1829.420864320135
 10
737.800756535908
 20
1829.364304486761
 10
737.8879382580205
 20
1829.311188505286
 10
737.9771743167881
 20
1829.261601349953
 10
738.0683219535525
 20
1829.21562234963
 10
738.161235351539
 20
1829.17332506091
 10
738.2557658691312
 20
1829.134777150433
 10
738.3517622776662
 20
1829.10004028663
 10
738.4490710033688
 20
1829.069170041076
 10
738.5475363730356
 20
1829.042215799576
 10
738.6470008630803
 20
1829.019220683169
 10
738.7473053515365
 20
1829.000221479134
 10
738.84828937262
 20
1828.985248582145
 10
738.949791373439
 20
1828.974325945642
 10
739.0516489724451
 20
1828.967471043516
 10
739.1536992192081
 20
1828.964694842147
 10
739.2557788551028
 20
1828.966001782864
 10
739.3577245744876
 20
1828.971389774841
 10
739.459373285959
 20
1828.980850198441
 10
739.560562373262
 20
1828.994367919003
 10
739.6611299554431
 20
1829.011921311059
 10
739.7609151458242
 20
1829.033482292926
 10
739.8597583093867
 20
1829.059016371632
 10
739.9575013181547
 20
1829.088482698098
 10
740.0539878041647
 20
1829.121834132488
 10
740.1490634096219
 20
1829.159017319622
 10
740.2425760338391
 20
1829.199972774332
 10
740.3343760765658
 20
1829.244634976626
 10
740.4243166773168
 20
1829.292932476509
 10
740.5122539503174
 20
1829.344788008284
 10
740.5980472146891
 20
1829.400118614163
 10
740.6815592195112
 20
1829.458835776978
 10
740.7626563633905
 20
1829.520845561795
 10
740.8412089081966
 20
1829.586048766186
 10
740.9170911866149
 20
1829.654341078935
 10
740.9901818031873
 20
1829.725613246907
 10
741.0603638285193
 20
1829.799751249839
 10
741.1275249863415
 20
1829.876636482741
 10
741.1915578331282
 20
1829.956145945642
 10
741.2523599299844
 20
1830.038152440362
 10
741.3098340065253
 20
1830.122524774004
 10
741.3638881164894
 20
1830.209127968833
 10
741.3824873135188
 20
1830.240813832668
1001
REVIT
1002
{
1070
     3
1000
790271
1002
}
  0
LWPOLYLINE
  5
1A8
330
18A
100
AcDbEntity
  8
M-PIPE
100
AcDbPolyline
 90
       54
 70
   128
 43
0.0
 10
741.38248731352
 20
1770.688443627312
 10
741.3296854227801
 20
1770.775815936957
 10
741.273431807432
 20
1770.86100684562
 10
741.2138164612597
 20
1770.943880066018
 10
741.1509347561
 20
1771.024303018679
 10
741.0848872892677
 20
1771.102147044034
 10
741.0157797226193
 20
1771.177287608248
 10
740.9437226135202
 20
1771.249604502447
 10
740.8688312379729
 20
1771.318982035029
 10
740.7912254062028
 20
1771.385309216739
 10
740.7110292709853
 20
1771.448479938238
 10
740.6283711290297
 20
1771.508393139846
 10
740.5433832157297
 20
1771.56495297322
 10
740.456201493617
 20
1771.618068954694
 10
740.3669654348496
 20
1771.667656110028
 10
740.275817798085
 20
1771.71363511035
 10
740.1829044000987
 20
1771.75593239907
 10
740.0883738825065
 20
1771.794480309548
 10
739.9923774739715
 20
1771.82921717335
 10
739.8950687482689
 20
1771.860087418905
 10
739.796603378602
 20
1771.887041660404
 10
739.6971388885575
 20
1771.910036776812
 10
739.5968344001013
 20
1771.929035980847
 10
739.4958503790178
 20
1771.944008877836
 10
739.3943483781987
 20
1771.954931514338
 10
739.2924907791926
 20
1771.961786416464
 10
739.1904405324295
 20
1771.964562617834
 10
739.0883608965349
 20
1771.963255677117
 10
738.9864151771499
 20
1771.95786768514
 10
738.8847664656788
 20
1771.94840726154
 10
738.7835773783757
 20
1771.934889540978
 10
738.6830097961945
 20
1771.917336148922
 10
738.5832246058137
 20
1771.895775167055
 10
738.4843814422509
 20
1771.870241088349
 10
738.3866384334831
 20
1771.840774761883
 10
738.2901519474729
 20
1771.807423327492
 10
738.1950763420158
 20
1771.770240140359
 10
738.1015637177986
 20
1771.72928468565
 10
738.0097636750719
 20
1771.684622483355
 10
737.9198230743209
 20
1771.636324983472
 10
737.8318858013204
 20
1771.584469451697
 10
737.7460925369485
 20
1771.529138845818
 10
737.6625805321268
 20
1771.470421683003
 10
737.5814833882473
 20
1771.408411898186
 10
737.5029308434412
 20
1771.343208693795
 10
737.4270485650226
 20
1771.274916381047
 10
737.3539579484504
 20
1771.203644213074
 10
737.2837759231185
 20
1771.129506210142
 10
737.2166147652964
 20
1771.052620977239
 10
737.1525819185095
 20
1770.973111514338
 10
737.0917798216534
 20
1770.891105019618
 10
737.0343057451123
 20
1770.806732685976
 10
736.9802516351483
 20
1770.720129491148
 10
736.9616524381188
 20
1770.688443627312
1001
REVIT
1002
{
1070
     3
1000
790271
1002
}
  0
LINE
  5
1A9
330
18A
100
AcDbEntity
  8
M-PIPE
100
AcDbLine
 10
736.9616524381176
 20
1830.240813832668
 30
0.0
 11
735.9664074431159
 21
1831.96462872999
 31
0.0
1001
REVIT
1002
{
1070
     3
1000
790271
1002
}
  0
LINE
  5
1AA
330
18A
100
AcDbEntity
  8
M-PIPE
100
AcDbLine
 10
735.966407443117
 20
1768.964628729991
 30
0.0
 11
736.9616524381188
 21
1770.688443627312
 31
0.0
1001
REVIT
1002
{
1070
     3
1000
790271
1002
}
  0
LINE
  5
1AB
330
18A
100
AcDbEntity
  8
M-PIPE
100
AcDbLine
 10
735.9664074431159
 20
1831.96462872999
 30
0.0
 11
723.0664074431157
 21
1831.96462872999
 31
0.0
1001
REVIT
1002
{
1070
     3
1000
790271
1002
}
  0
LINE
  5
1AC
330
18A
100
AcDbEntity
  8
M-PIPE
100
AcDbLine
 10
723.0664074431166
 20
1768.96462872999
 30
0.0
 11
735.966407443117
 21
1768.964628729991
 31
0.0
1001
REVIT
1002
{
1070
     3
1000
790271
1002
}
  0
LINE
  5
1AD
330
18A
100
AcDbEntity
  8
M-PIPE
100
AcDbLine
 10
723.0664074431157
 20
1830.46462872999
 30
0.0
 11
695.6664074431436
 21
1830.46462872999
 31
0.0
1001
REVIT
1002
{
1070
     3
1000
790271
1002
}
  0
LINE
  5
1AE
330
18A
100
AcDbEntity
  8
M-PIPE
100
AcDbLine
 10
695.6664074431448
 20
1770.464628729989
 30
0.0
 11
723.0664074431166
 21
1770.46462872999
 31
0.0
1001
REVIT
1002
{
1070
     3
1000
790271
1002
}
  0
LINE
  5
1AF
330
18A
100
AcDbEntity
  8
M-PIPE
100
AcDbLine
 10
742.6664074431142
 20
1832.46462872999
 30
0.0
 11
742.666407443115
 21
1800.46462872999
 31
0.0
1001
REVIT
1002
{
1070
     3
1000
790271
1002
}
  0
LINE
  5
1B0
330
18A
100
AcDbEntity
  8
M-PIPE
100
AcDbLine
 10
742.666407443115
 20
1800.46462872999
 30
0.0
 11
742.6664074431153
 21
1768.46462872999
 31
0.0
1001
REVIT
1002
{
1070
     3
1000
790271
1002
}
  0
SPLINE
  5
1B1
330
18A
100
AcDbEntity
  8
M-PIPE
100
AcDbSpline
210
0.0
220
0.0
230
1.0
 70
     8
 71
     3
 72
     9
 73
     5
 74
     0
 42
0.000000001
 43
0.0000000001
 40
-1.0
 40
-1.0
 40
-1.0
 40
-1.0
 40
-0.5
 40
0.0
 40
0.0
 40
0.0
 40
0.0
 10
735.9664074431144
 20
1831.856569046892
 30
0.0
 10
736.5437382195072
 20
1830.617320965238
 30
0.0
 10
737.1210689959
 20
1828.15288810306
 30
0.0
 10
736.5437382195074
 20
1825.71658184314
 30
0.0
 10
735.9664074431147
 20
1824.505460363745
 30
0.0
1001
REVIT
1002
{
1070
     3
1000
790271
1002
}
  0
SPLINE
  5
1B2
330
18A
100
AcDbEntity
  8
M-PIPE
100
AcDbSpline
210
0.0
220
0.0
230
1.0
 70
     8
 71
     3
 72
     9
 73
     5
 74
     0
 42
0.000000001
 43
0.0000000001
 40
-1.0
 40
-1.0
 40
-1.0
 40
-1.0
 40
-0.5
 40
0.0
 40
0.0
 40
0.0
 40
0.0
 10
735.9664074431147
 20
1820.818704841565
 30
0.0
 10
736.5437382195016
 20
1817.826895315708
 30
0.0
 10
737.1210689958884
 20
1811.87722807631
 30
0.0
 10
736.5437382195018
 20
1805.995464461546
 30
0.0
 10
735.9664074431152
 20
1803.071558560323
 30
0.0
1001
REVIT
1002
{
1070
     3
1000
790271
1002
}
  0
SPLINE
  5
1B3
330
18A
100
AcDbEntity
  8
M-PIPE
100
AcDbSpline
210
0.0
220
0.0
230
1.0
 70
     8
 71
     3
 72
     9
 73
     5
 74
     0
 42
0.000000001
 43
0.0000000001
 40
-1.0
 40
-1.0
 40
-1.0
 40
-1.0
 40
-0.5
 40
0.0
 40
0.0
 40
0.0
 40
0.0
 10
735.9664074431154
 20
1797.857698899614
 30
0.0
 10
736.5437382194973
 20
1794.86588937377
 30
0.0
 10
737.1210689958792
 20
1788.916222134396
 30
0.0
 10
736.5437382194974
 20
1783.034458519656
 30
0.0
 10
735.9664074431155
 20
1780.110552618445
 30
0.0
1001
REVIT
1002
{
1070
     3
1000
790271
1002
}
  0
SPLINE
  5
1B4
330
18A
100
AcDbEntity
  8
M-PIPE
100
AcDbSpline
210
0.0
220
0.0
230
1.0
 70
     8
 71
     3
 72
     9
 73
     5
 74
     0
 42
0.000000001
 43
0.0000000001
 40
-1.0
 40
-1.0
 40
-1.0
 40
-1.0
 40
-0.5
 40
0.0
 40
0.0
 40
0.0
 40
0.0
 10
735.9664074431155
 20
1776.423797096169
 30
0.0
 10
736.5437382194966
 20
1775.184549014528
 30
0.0
 10
737.1210689958776
 20
1772.720116152375
 30
0.0
 10
736.5437382194966
 20
1770.283809892479
 30
0.0
 10
735.9664074431155
 20
1769.072688413095
 30
0.0
1001
REVIT
1002
{
1070
     3
1000
790271
1002
}
  0
LINE
  5
1B5
330
18A
100
AcDbEntity
  8
M-PIPE
100
AcDbLine
 10
735.9664074431144
 20
1831.964628729989
 30
0.0
 11
735.9664074431144
 21
1831.856569046892
 31
0.0
1001
REVIT
1002
{
1070
     3
1000
790271
1002
}
  0
LINE
  5
1B6
330
18A
100
AcDbEntity
  8
M-PIPE
100
AcDbLine
 10
723.0664074431143
 20
1831.856569046892
 30
0.0
 11
735.9664074431144
 21
1831.856569046892
 31
0.0
1001
REVIT
1002
{
1070
     3
1000
790271
1002
}
  0
LINE
  5
1B7
330
18A
100
AcDbEntity
  8
M-PIPE
100
AcDbLine
 10
735.9664074431147
 20
1824.505460363745
 30
0.0
 11
735.9664074431147
 21
1820.818704841565
 31
0.0
1001
REVIT
1002
{
1070
     3
1000
790271
1002
}
  0
LINE
  5
1B8
330
18A
100
AcDbEntity
  8
M-PIPE
100
AcDbLine
 10
735.9664074431147
 20
1824.505460363746
 30
0.0
 11
723.0664074431144
 21
1824.505460363745
 31
0.0
1001
REVIT
1002
{
1070
     3
1000
790271
1002
}
  0
LINE
  5
1B9
330
18A
100
AcDbEntity
  8
M-PIPE
100
AcDbLine
 10
723.0664074431147
 20
1820.818704841565
 30
0.0
 11
735.9664074431147
 21
1820.818704841565
 31
0.0
1001
REVIT
1002
{
1070
     3
1000
790271
1002
}
  0
LINE
  5
1BA
330
18A
100
AcDbEntity
  8
M-PIPE
100
AcDbLine
 10
735.9664074431151
 20
1803.071558560323
 30
0.0
 11
735.9664074431151
 21
1800.46462872999
 31
0.0
1001
REVIT
1002
{
1070
     3
1000
790271
1002
}
  0
LINE
  5
1BB
330
18A
100
AcDbEntity
  8
M-PIPE
100
AcDbLine
 10
735.9664074431152
 20
1803.071558560322
 30
0.0
 11
723.0664074431151
 21
1803.071558560322
 31
0.0
1001
REVIT
1002
{
1070
     3
1000
790271
1002
}
  0
LINE
  5
1BC
330
18A
100
AcDbEntity
  8
M-PIPE
100
AcDbLine
 10
723.0664074431151
 20
1797.857698899616
 30
0.0
 11
735.9664074431154
 21
1797.857698899617
 31
0.0
1001
REVIT
1002
{
1070
     3
1000
790271
1002
}
  0
LINE
  5
1BD
330
18A
100
AcDbEntity
  8
M-PIPE
100
AcDbLine
 10
735.9664074431154
 20
1800.464628729989
 30
0.0
 11
735.9664074431154
 21
1797.857698899615
 31
0.0
1001
REVIT
1002
{
1070
     3
1000
790271
1002
}
  0
LINE
  5
1BE
330
18A
100
AcDbEntity
  8
M-PIPE
100
AcDbLine
 10
735.9664074431155
 20
1780.110552618445
 30
0.0
 11
735.9664074431155
 21
1776.423797096169
 31
0.0
1001
REVIT
1002
{
1070
     3
1000
790271
1002
}
  0
LINE
  5
1BF
330
18A
100
AcDbEntity
  8
M-PIPE
100
AcDbLine
 10
735.9664074431155
 20
1780.110552618443
 30
0.0
 11
723.0664074431155
 21
1780.110552618443
 31
0.0
1001
REVIT
1002
{
1070
     3
1000
790271
1002
}
  0
LINE
  5
1C0
330
18A
100
AcDbEntity
  8
M-PIPE
100
AcDbLine
 10
723.0664074431155
 20
1776.423797096171
 30
0.0
 11
735.9664074431155
 21
1776.423797096171
 31
0.0
1001
REVIT
1002
{
1070
     3
1000
790271
1002
}
  0
LINE
  5
1C1
330
18A
100
AcDbEntity
  8
M-PIPE
100
AcDbLine
 10
735.9664074431155
 20
1769.072688413095
 30
0.0
 11
735.9664074431155
 21
1768.96462872999
 31
0.0
1001
REVIT
1002
{
1070
     3
1000
790271
1002
}
  0
LINE
  5
1C2
330
18A
100
AcDbEntity
  8
M-PIPE
100
AcDbLine
 10
735.9664074431155
 20
1769.072688413095
 30
0.0
 11
723.0664074431155
 21
1769.072688413095
 31
0.0
1001
REVIT
1002
{
1070
     3
1000
790271
1002
}
  0
LINE
  5
1C3
330
18A
100
AcDbEntity
  8
M-PIPE
100
AcDbLine
 10
723.0664074431151
 20
1803.071558560323
 30
0.0
 11
723.0664074431151
 21
1800.46462872999
 31
0.0
1001
REVIT
1002
{
1070
     3
1000
790271
1002
}
  0
LINE
  5
1C4
330
18A
100
AcDbEntity
  8
M-PIPE
100
AcDbLine
 10
723.0664074431151
 20
1803.071558560322
 30
0.0
 11
723.0664074431147
 21
1820.818704841565
 31
0.0
1001
REVIT
1002
{
1070
     3
1000
790271
1002
}
  0
LINE
  5
1C5
330
18A
100
AcDbEntity
  8
M-PIPE
100
AcDbLine
 10
723.0664074431144
 20
1824.505460363745
 30
0.0
 11
723.0664074431147
 21
1820.818704841565
 31
0.0
1001
REVIT
1002
{
1070
     3
1000
790271
1002
}
  0
LINE
  5
1C6
330
18A
100
AcDbEntity
  8
M-PIPE
100
AcDbLine
 10
723.0664074431144
 20
1824.505460363745
 30
0.0
 11
723.0664074431143
 21
1831.856569046892
 31
0.0
1001
REVIT
1002
{
1070
     3
1000
790271
1002
}
  0
LINE
  5
1C7
330
18A
100
AcDbEntity
  8
M-PIPE
100
AcDbLine
 10
723.0664074431143
 20
1831.964628729989
 30
0.0
 11
723.0664074431143
 21
1831.856569046892
 31
0.0
1001
REVIT
1002
{
1070
     3
1000
790271
1002
}
  0
LINE
  5
1C8
330
18A
100
AcDbEntity
  8
M-PIPE
100
AcDbLine
 10
723.0664074431155
 20
1769.072688413095
 30
0.0
 11
723.0664074431152
 21
1768.96462872999
 31
0.0
1001
REVIT
1002
{
1070
     3
1000
790271
1002
}
  0
LINE
  5
1C9
330
18A
100
AcDbEntity
  8
M-PIPE
100
AcDbLine
 10
723.0664074431155
 20
1769.072688413095
 30
0.0
 11
723.0664074431155
 21
1776.423797096169
 31
0.0
1001
REVIT
1002
{
1070
     3
1000
790271
1002
}
  0
LINE
  5
1CA
330
18A
100
AcDbEntity
  8
M-PIPE
100
AcDbLine
 10
723.0664074431155
 20
1780.110552618445
 30
0.0
 11
723.0664074431155
 21
1776.423797096169
 31
0.0
1001
REVIT
1002
{
1070
     3
1000
790271
1002
}
  0
LINE
  5
1CB
330
18A
100
AcDbEntity
  8
M-PIPE
100
AcDbLine
 10
723.0664074431155
 20
1780.110552618445
 30
0.0
 11
723.0664074431151
 21
1797.857698899615
 31
0.0
1001
REVIT
1002
{
1070
     3
1000
790271
1002
}
  0
LINE
  5
1CC
330
18A
100
AcDbEntity
  8
M-PIPE
100
AcDbLine
 10
723.0664074431151
 20
1800.464628729989
 30
0.0
 11
723.0664074431151
 21
1797.857698899615
 31
0.0
1001
REVIT
1002
{
1070
     3
1000
790271
1002
}
  0
LINE
  5
1CD
330
18A
100
AcDbEntity
  8
M-PIPE
100
AcDbLine
 10
695.6664074431423
 20
1830.464628729988
 30
0.0
 11
695.6664074431434
 21
1800.464628729989
 31
0.0
1001
REVIT
1002
{
1070
     3
1000
790271
1002
}
  0
LINE
  5
1CE
330
18A
100
AcDbEntity
  8
M-PIPE
100
AcDbLine
 10
695.6664074431434
 20
1800.464628729988
 30
0.0
 11
695.6664074431435
 21
1770.464628729988
 31
0.0
1001
REVIT
1002
{
1070
     3
1000
790271
1002
}
  0
LINE
  5
1CF
330
18A
100
AcDbEntity
  8
M-PIPE
100
AcDbLine
 10
818.4948345679185
 20
1786.322493106304
 30
0.0
 11
791.9783302734234
 21
1759.805988811808
 31
0.0
1001
REVIT
1002
{
1070
     3
1000
923261
1002
}
  0
LINE
  5
1D0
330
18A
100
AcDbEntity
  8
M-PIPE
100
AcDbLine
 10
832.3632407434189
 20
1800.190899281805
 30
0.0
 11
818.4948345679185
 21
1786.322493106304
 31
0.0
1001
REVIT
1002
{
1070
     3
1000
923261
1002
}
  0
LINE
  5
1D1
330
18A
100
AcDbEntity
  8
M-PIPE
100
AcDbLine
 10
775.0077675249463
 20
1776.776551560285
 30
0.0
 11
801.5242718194414
 21
1803.293055854781
 31
0.0
1001
REVIT
1002
{
1070
     3
1000
923261
1002
}
  0
LINE
  5
1D2
330
18A
100
AcDbEntity
  8
M-PIPE
100
AcDbLine
 10
801.5242718194414
 20
1803.293055854781
 30
0.0
 11
815.3926779949419
 21
1817.161462030282
 31
0.0
1001
REVIT
1002
{
1070
     3
1000
923261
1002
}
  0
LINE
  5
1D3
330
18A
100
AcDbEntity
  8
M-PIPE
100
AcDbLine
 10
832.3632407434189
 20
1800.190899281805
 30
0.0
 11
825.357964425472
 21
1807.196175599752
 31
0.0
1001
REVIT
1002
{
1070
     3
1000
923261
1002
}
  0
SPLINE
  5
1D4
330
18A
100
AcDbEntity
  8
M-PIPE
100
AcDbSpline
210
0.0
220
0.0
230
1.0
 70
     8
 71
     3
 72
     9
 73
     5
 74
     0
 42
0.000000001
 43
0.0000000001
 40
0.0
 40
0.0
 40
0.0
 40
0.0
 40
0.5
 40
1.0
 40
1.0
 40
1.0
 40
1.0
 10
825.357964425472
 20
1807.196175599752
 30
0.0
 10
825.2471643164128
 20
1807.359233704959
 30
0.0
 10
825.0002404582714
 20
1807.693982950222
 30
0.0
 10
824.7062662852371
 20
1808.049595230333
 30
0.0
 10
824.5482450366669
 20
1808.233345545771
 30
0.0
1001
REVIT
1002
{
1070
     3
1000
923261
1002
}
  0
LINE
  5
1D5
330
18A
100
AcDbEntity
  8
M-PIPE
100
AcDbLine
 10
823.9921019477222
 20
1808.790323234562
 30
0.0
 11
824.5482450366669
 21
1808.233345545771
 31
0.0
1001
REVIT
1002
{
1070
     3
1000
923261
1002
}
  0
LINE
  5
1D6
330
18A
100
AcDbEntity
  8
M-PIPE
100
AcDbLine
 10
823.4351242589317
 20
1809.346466323506
 30
0.0
 11
823.9921019477222
 21
1808.790323234562
 31
0.0
1001
REVIT
1002
{
1070
     3
1000
923261
1002
}
  0
SPLINE
  5
1D7
330
18A
100
AcDbEntity
  8
M-PIPE
100
AcDbSpline
210
0.0
220
0.0
230
1.0
 70
     8
 71
     3
 72
     9
 73
     5
 74
     0
 42
0.000000001
 43
0.0000000001
 40
0.0
 40
0.0
 40
0.0
 40
0.0
 40
0.5
 40
1.0
 40
1.0
 40
1.0
 40
1.0
 10
823.4351242589317
 20
1809.346466323506
 30
0.0
 10
823.2513739434935
 20
1809.504487572077
 30
0.0
 10
822.8957616633822
 20
1809.798461745111
 30
0.0
 10
822.5610124181196
 20
1810.045385603252
 30
0.0
 10
822.3979543129123
 20
1810.156185712311
 30
0.0
1001
REVIT
1002
{
1070
     3
1000
923261
1002
}
  0
LINE
  5
1D8
330
18A
100
AcDbEntity
  8
M-PIPE
100
AcDbLine
 10
822.3979543129123
 20
1810.156185712311
 30
0.0
 11
815.3926779949419
 21
1817.161462030282
 31
0.0
1001
REVIT
1002
{
1070
     3
1000
923261
1002
}
  0
LINE
  5
1D9
330
18A
100
AcDbEntity
  8
M-PIPE
100
AcDbLine
 10
775.0077675249463
 20
1776.776551560285
 30
0.0
 11
791.9783302734234
 21
1759.805988811808
 31
0.0
1001
REVIT
1002
{
1070
     3
1000
923261
1002
}
  0
ARC
  5
1DA
330
18A
100
AcDbEntity
  8
M-PIPE
100
AcDbCircle
 10
849.5182691002106
 20
1787.464628730051
 30
0.0
 40
7.999999999999886
100
AcDbArc
 50
180.0
 51
359.999999999998
1001
REVIT
1002
{
1070
     3
1000
923261
1002
}
  0
ARC
  5
1DB
330
18A
100
AcDbEntity
  8
M-PIPE
100
AcDbCircle
 10
849.5182691002106
 20
1787.464628730051
 30
0.0
 40
7.999999999999762
100
AcDbArc
 50
0.0000000000004071
 51
180.0000000000004
1001
REVIT
1002
{
1070
     3
1000
923261
1002
}
  0
LINE
  5
1DC
330
18A
100
AcDbEntity
  8
M-PIPE
100
AcDbLine
 10
762.166407443161
 20
1788.464628730052
 30
0.0
 11
770.1664074431611
 21
1788.464628730052
 31
0.0
1001
REVIT
1002
{
1070
     3
1000
923261
1002
}
  0
LINE
  5
1DD
330
18A
100
AcDbEntity
  8
M-PIPE
100
AcDbLine
 10
770.1664074431609
 20
1812.464628730052
 30
0.0
 11
762.1664074431607
 21
1812.464628730052
 31
0.0
1001
REVIT
1002
{
1070
     3
1000
923261
1002
}
  0
LINE
  5
1DE
330
18A
100
AcDbEntity
  8
M-PIPE
100
AcDbLine
 10
757.1664074431603
 20
1792.464628730051
 30
0.0
 11
762.1664074431609
 21
1792.464628730051
 31
0.0
1001
REVIT
1002
{
1070
     3
1000
923261
1002
}
  0
LINE
  5
1DF
330
18A
100
AcDbEntity
  8
M-PIPE
100
AcDbLine
 10
770.1664074431611
 20
1792.464628730051
 30
0.0
 11
783.1664074431605
 21
1792.464628730051
 31
0.0
1001
REVIT
1002
{
1070
     3
1000
923261
1002
}
  0
LINE
  5
1E0
330
18A
100
AcDbEntity
  8
M-PIPE
100
AcDbLine
 10
783.1664074431605
 20
1808.464628730052
 30
0.0
 11
770.1664074431612
 21
1808.464628730052
 31
0.0
1001
REVIT
1002
{
1070
     3
1000
923261
1002
}
  0
LINE
  5
1E1
330
18A
100
AcDbEntity
  8
M-PIPE
100
AcDbLine
 10
762.1664074431609
 20
1808.464628730052
 30
0.0
 11
757.1664074431605
 21
1808.464628730052
 31
0.0
1001
REVIT
1002
{
1070
     3
1000
923261
1002
}
  0
LINE
  5
1E2
330
18A
100
AcDbEntity
  8
M-PIPE
100
AcDbLine
 10
770.1664074431593
 20
1812.464628730051
 30
0.0
 11
770.1664074431595
 21
1788.464628730051
 31
0.0
1001
REVIT
1002
{
1070
     3
1000
923261
1002
}
  0
LINE
  5
1E3
330
18A
100
AcDbEntity
  8
M-PIPE
100
AcDbLine
 10
762.1664074431596
 20
1788.464628730051
 30
0.0
 11
762.1664074431594
 21
1812.464628730051
 31
0.0
1001
REVIT
1002
{
1070
     3
1000
923261
1002
}
  0
LINE
  5
1E4
330
18A
100
AcDbEntity
  8
M-PIPE
100
AcDbLine
 10
757.1664074431588
 20
1792.464628730051
 30
0.0
 11
757.1664074431588
 21
1808.464628730051
 31
0.0
1001
REVIT
1002
{
1070
     3
1000
923261
1002
}
  0
LINE
  5
1E5
330
18A
100
AcDbEntity
  8
M-PIPE
100
AcDbLine
 10
898.6664074431608
 20
1767.464628730052
 30
0.0
 11
898.6664074431605
 21
1833.464628730052
 31
0.0
1001
REVIT
1002
{
1070
     3
1000
923261
1002
}
  0
LINE
  5
1E6
330
18A
100
AcDbEntity
  8
M-PIPE
100
AcDbLine
 10
898.6664074431592
 20
1767.464628730051
 30
0.0
 11
891.6664074431594
 21
1767.464628730051
 31
0.0
1001
REVIT
1002
{
1070
     3
1000
923261
1002
}
  0
LINE
  5
1E7
330
18A
100
AcDbEntity
  8
M-PIPE
100
AcDbLine
 10
891.6664074431594
 20
1767.464628730051
 30
0.0
 11
799.6369701916656
 21
1767.464628730051
 31
0.0
1001
REVIT
1002
{
1070
     3
1000
923261
1002
}
  0
LINE
  5
1E8
330
18A
100
AcDbEntity
  8
M-PIPE
100
AcDbLine
 10
784.3196903551811
 20
1767.464628730051
 30
0.0
 11
783.1664074431593
 21
1767.464628730051
 31
0.0
1001
REVIT
1002
{
1070
     3
1000
923261
1002
}
  0
LINE
  5
1E9
330
18A
100
AcDbEntity
  8
M-PIPE
100
AcDbLine
 10
783.1664074431588
 20
1833.464628730051
 30
0.0
 11
891.6664074431588
 21
1833.464628730051
 31
0.0
1001
REVIT
1002
{
1070
     3
1000
923261
1002
}
  0
LINE
  5
1EA
330
18A
100
AcDbEntity
  8
M-PIPE
100
AcDbLine
 10
891.6664074431588
 20
1833.464628730051
 30
0.0
 11
898.6664074431589
 21
1833.464628730051
 31
0.0
1001
REVIT
1002
{
1070
     3
1000
923261
1002
}
  0
LINE
  5
1EB
330
18A
100
AcDbEntity
  8
M-PIPE
100
AcDbLine
 10
783.1664074431592
 20
1766.464628730051
 30
0.0
 11
783.1664074431592
 21
1767.464628730051
 31
0.0
1001
REVIT
1002
{
1070
     3
1000
923261
1002
}
  0
LINE
  5
1EC
330
18A
100
AcDbEntity
  8
M-PIPE
100
AcDbLine
 10
783.1664074431588
 20
1833.464628730051
 30
0.0
 11
783.1664074431592
 21
1784.935191478498
 31
0.0
1001
REVIT
1002
{
1070
     3
1000
923261
1002
}
  0
LINE
  5
1ED
330
18A
100
AcDbEntity
  8
M-PIPE
100
AcDbLine
 10
783.1664074431592
 20
1768.617911642072
 30
0.0
 11
783.1664074431593
 21
1767.464628730051
 31
0.0
1001
REVIT
1002
{
1070
     3
1000
923261
1002
}
  0
LINE
  5
1EE
330
18A
100
AcDbEntity
  8
M-PIPE
100
AcDbLine
 10
783.1664074431586
 20
1833.464628730051
 30
0.0
 11
783.1664074431586
 21
1834.464628730051
 31
0.0
1001
REVIT
1002
{
1070
     3
1000
923261
1002
}
  0
LINE
  5
1EF
330
18A
100
AcDbEntity
  8
M-PIPE
100
AcDbLine
 10
900.1664074431593
 20
1766.464628730052
 30
0.0
 11
886.1134609974259
 21
1766.464628730052
 31
0.0
1001
REVIT
1002
{
1070
     3
1000
923261
1002
}
  0
LINE
  5
1F0
330
18A
100
AcDbEntity
  8
M-PIPE
100
AcDbLine
 10
886.1134609974268
 20
1766.464628730052
 30
0.0
 11
849.5182691002002
 21
1766.464628730051
 31
0.0
1001
REVIT
1002
{
1070
     3
1000
923261
1002
}
  0
LINE
  5
1F1
330
18A
100
AcDbEntity
  8
M-PIPE
100
AcDbLine
 10
849.5182691002007
 20
1766.464628730051
 30
0.0
 11
798.6430530177874
 21
1766.464628730051
 31
0.0
1001
REVIT
1002
{
1070
     3
1000
923261
1002
}
  0
LINE
  5
1F2
330
18A
100
AcDbEntity
  8
M-PIPE
100
AcDbLine
 10
785.3191098953484
 20
1766.464628730051
 30
0.0
 11
783.1664074431592
 21
1766.464628730051
 31
0.0
1001
REVIT
1002
{
1070
     3
1000
923261
1002
}
  0
LINE
  5
1F3
330
18A
100
AcDbEntity
  8
M-PIPE
100
AcDbLine
 10
783.1664074431576
 20
1834.464628730051
 30
0.0
 11
849.5182691001991
 21
1834.464628730051
 31
0.0
1001
REVIT
1002
{
1070
     3
1000
923261
1002
}
  0
LINE
  5
1F4
330
18A
100
AcDbEntity
  8
M-PIPE
100
AcDbLine
 10
849.5182691001986
 20
1834.464628730051
 30
0.0
 11
886.1134609974254
 21
1834.464628730051
 31
0.0
1001
REVIT
1002
{
1070
     3
1000
923261
1002
}
  0
LINE
  5
1F5
330
18A
100
AcDbEntity
  8
M-PIPE
100
AcDbLine
 10
886.1134609974254
 20
1834.464628730051
 30
0.0
 11
900.1664074431587
 21
1834.464628730051
 31
0.0
1001
REVIT
1002
{
1070
     3
1000
923261
1002
}
  0
LINE
  5
1F6
330
18A
100
AcDbEntity
  8
M-PIPE
100
AcDbLine
 10
900.1664074431587
 20
1834.464628730051
 30
0.0
 11
900.1664074431593
 21
1766.464628730052
 31
0.0
1001
REVIT
1002
{
1070
     3
1000
923261
1002
}
  0
LINE
  5
1F7
330
18A
100
AcDbEntity
  8
M-PIPE
100
AcDbLine
 10
886.1134609974268
 20
1767.464628730051
 30
0.0
 11
886.1134609974268
 21
1766.464628730052
 31
0.0
1001
REVIT
1002
{
1070
     3
1000
923261
1002
}
  0
LINE
  5
1F8
330
18A
100
AcDbEntity
  8
M-PIPE
100
AcDbLine
 10
886.1134609974264
 20
1834.464628730051
 30
0.0
 11
886.1134609974264
 21
1833.464628730051
 31
0.0
1001
REVIT
1002
{
1070
     3
1000
923261
1002
}
  0
LINE
  5
1F9
330
18A
100
AcDbEntity
  8
M-PIPE
100
AcDbLine
 10
849.5182691002007
 20
1767.464628730051
 30
0.0
 11
849.5182691002007
 21
1766.464628730051
 31
0.0
1001
REVIT
1002
{
1070
     3
1000
923261
1002
}
  0
LINE
  5
1FA
330
18A
100
AcDbEntity
  8
M-PIPE
100
AcDbLine
 10
849.5182691002
 20
1834.464628730051
 30
0.0
 11
849.5182691002
 21
1833.464628730051
 31
0.0
1001
REVIT
1002
{
1070
     3
1000
923261
1002
}
  0
ARC
  5
1FB
330
18A
100
AcDbEntity
  8
M-PIPE
100
AcDbCircle
 10
815.6664074431708
 20
1800.464628730035
 30
0.0
 40
11.99999999999996
100
AcDbArc
 50
30.48057830518845
 51
59.51942169481073
1001
REVIT
1002
{
1070
     3
1000
923261
1002
}
  0
LINE
  5
1FC
330
18A
100
AcDbEntity
  8
M-PIPE
100
AcDbLine
 10
887.6664074431914
 20
1841.964628730048
 30
0.0
 11
887.666407443192
 21
1834.464979990866
 31
0.0
1001
REVIT
1002
{
1070
     3
1000
790271
1002
}
  0
LINE
  5
1FD
330
18A
100
AcDbEntity
  8
M-PIPE
100
AcDbLine
 10
887.6664074431927
 20
1766.464277469236
 30
0.0
 11
887.6664074431927
 21
1764.524574473016
 31
0.0
1001
REVIT
1002
{
1070
     3
1000
790271
1002
}
  0
LINE
  5
1FE
330
18A
100
AcDbEntity
  8
M-PIPE
100
AcDbLine
 10
887.6664074431927
 20
1764.524574473015
 30
0.0
 11
887.6664074431921
 21
1758.964628730071
 31
0.0
1001
REVIT
1002
{
1070
     3
1000
790271
1002
}
  0
LINE
  5
1FF
330
18A
100
AcDbEntity
  8
M-PIPE
100
AcDbLine
 10
858.6664074431928
 20
1764.52457447303
 30
0.0
 11
858.6664074431929
 21
1766.464277469235
 31
0.0
1001
REVIT
1002
{
1070
     3
1000
790271
1002
}
  0
LINE
  5
200
330
18A
100
AcDbEntity
  8
M-PIPE
100
AcDbLine
 10
858.6664074431922
 20
1834.464979990866
 30
0.0
 11
858.6664074431917
 21
1841.964628730029
 31
0.0
1001
REVIT
1002
{
1070
     3
1000
790271
1002
}
  0
LINE
  5
201
330
18A
100
AcDbEntity
  8
M-PIPE
100
AcDbLine
 10
858.6664074431924
 20
1758.964628730089
 30
0.0
 11
858.6664074431928
 21
1764.52457447303
 31
0.0
1001
REVIT
1002
{
1070
     3
1000
790271
1002
}
  0
SPLINE
  5
202
330
18A
100
AcDbEntity
  8
M-PIPE
100
AcDbSpline
210
0.0
220
0.0
230
1.0
 70
    24
 71
     3
 72
     9
 73
     5
 74
     0
 42
0.000000001
 43
0.0000000001
 40
0.0
 40
0.0
 40
0.0
 40
0.0
 40
0.5
 40
1.0
 40
1.0
 40
1.0
 40
1.0
 10
887.6664074431927
 20
1758.964628730061
 30
0.0
 10
887.6546517575803
 20
1758.964628730061
 30
0.0
 10
887.4023334598055
 20
1758.964628730061
 30
0.0
 10
886.6924013089297
 20
1758.964628730062
 30
0.0
 10
886.2230317702167
 20
1758.964628730062
 30
0.0
1001
REVIT
1002
{
1070
     3
1000
790271
1002
}
  0
LINE
  5
203
330
18A
100
AcDbEntity
  8
M-PIPE
100
AcDbLine
 10
886.2230317702167
 20
1758.964628730062
 30
0.0
 11
860.1097831161785
 21
1758.964628730061
 31
0.0
1001
REVIT
1002
{
1070
     3
1000
790271
1002
}
  0
SPLINE
  5
204
330
18A
100
AcDbEntity
  8
M-PIPE
100
AcDbSpline
210
0.0
220
0.0
230
1.0
 70
    24
 71
     3
 72
     9
 73
     5
 74
     0
 42
0.000000001
 43
0.0000000001
 40
0.0
 40
0.0
 40
0.0
 40
0.0
 40
0.5
 40
1.0
 40
1.0
 40
1.0
 40
1.0
 10
860.1097831161785
 20
1758.964628730061
 30
0.0
 10
859.6404135774667
 20
1758.964628730061
 30
0.0
 10
858.9304814265908
 20
1758.964628730061
 30
0.0
 10
858.6781631288097
 20
1758.964628730061
 30
0.0
 10
858.6664074431929
 20
1758.964628730061
 30
0.0
1001
REVIT
1002
{
1070
     3
1000
790271
1002
}
  0
SPLINE
  5
205
330
18A
100
AcDbEntity
  8
M-PIPE
100
AcDbSpline
210
0.0
220
0.0
230
1.0
 70
    24
 71
     3
 72
     9
 73
     5
 74
     0
 42
0.000000001
 43
0.0000000001
 40
0.0
 40
0.0
 40
0.0
 40
0.0
 40
0.5
 40
1.0
 40
1.0
 40
1.0
 40
1.0
 10
886.2230317702135
 20
1841.964628730062
 30
0.0
 10
886.692401308926
 20
1841.964628730062
 30
0.0
 10
887.4023334598016
 20
1841.964628730062
 30
0.0
 10
887.6546517575784
 20
1841.964628730062
 30
0.0
 10
887.666407443192
 20
1841.964628730062
 30
0.0
1001
REVIT
1002
{
1070
     3
1000
790271
1002
}
  0
SPLINE
  5
206
330
18A
100
AcDbEntity
  8
M-PIPE
100
AcDbSpline
210
0.0
220
0.0
230
1.0
 70
    24
 71
     3
 72
     9
 73
     5
 74
     0
 42
0.000000001
 43
0.0000000001
 40
0.0
 40
0.0
 40
0.0
 40
0.0
 40
0.5
 40
1.0
 40
1.0
 40
1.0
 40
1.0
 10
858.6664074431922
 20
1841.964628730061
 30
0.0
 10
858.6781631288104
 20
1841.964628730061
 30
0.0
 10
858.9304814265933
 20
1841.964628730061
 30
0.0
 10
859.640413577469
 20
1841.964628730062
 30
0.0
 10
860.1097831161803
 20
1841.964628730062
 30
0.0
1001
REVIT
1002
{
1070
     3
1000
790271
1002
}
  0
LINE
  5
207
330
18A
100
AcDbEntity
  8
M-PIPE
100
AcDbLine
 10
860.1097831161803
 20
1841.964628730062
 30
0.0
 11
886.2230317702135
 21
1841.964628730062
 31
0.0
1001
REVIT
1002
{
1070
     3
1000
790271
1002
}
  0
LINE
  5
208
330
18A
100
AcDbEntity
  8
M-PIPE
100
AcDbLine
 10
886.2230317702183
 20
1766.438120213175
 30
0.0
 11
886.2230317702183
 21
1762.359510963551
 31
0.0
1001
REVIT
1002
{
1070
     3
1000
790271
1002
}
  0
LINE
  5
209
330
18A
100
AcDbEntity
  8
M-PIPE
100
AcDbLine
 10
860.1097831161785
 20
1762.359510963548
 30
0.0
 11
860.1097831161785
 21
1766.438120213173
 31
0.0
1001
REVIT
1002
{
1070
     3
1000
790271
1002
}
  0
LINE
  5
20A
330
18A
100
AcDbEntity
  8
M-PIPE
100
AcDbLine
 10
886.2230317702127
 20
1841.964628730063
 30
0.0
 11
886.2230317702131
 21
1834.491137246931
 31
0.0
1001
REVIT
1002
{
1070
     3
1000
790271
1002
}
  0
LINE
  5
20B
330
18A
100
AcDbEntity
  8
M-PIPE
100
AcDbLine
 10
886.2230317702168
 20
1762.359510963548
 30
0.0
 11
886.2230317702168
 21
1758.964628730062
 31
0.0
1001
REVIT
1002
{
1070
     3
1000
790271
1002
}
  0
LINE
  5
20C
330
18A
100
AcDbEntity
  8
M-PIPE
100
AcDbLine
 10
860.1097831161782
 20
1834.491137246927
 30
0.0
 11
860.1097831161778
 21
1841.964628730057
 31
0.0
1001
REVIT
1002
{
1070
     3
1000
790271
1002
}
  0
LINE
  5
20D
330
18A
100
AcDbEntity
  8
M-PIPE
100
AcDbLine
 10
860.1097831161798
 20
1758.964628730059
 30
0.0
 11
860.1097831161798
 21
1762.359510963546
 31
0.0
1001
REVIT
1002
{
1070
     3
1000
790271
1002
}
  0
LINE
  5
20E
330
18A
100
AcDbEntity
  8
M-PIPE
100
AcDbLine
 10
743.6664074431518
 20
1800.46462873005
 30
0.0
 11
743.6664074431512
 21
1821.214628730045
 31
0.0
1001
REVIT
1002
{
1070
     3
1000
790271
1002
}
  0
LINE
  5
20F
330
18A
100
AcDbEntity
  8
M-PIPE
100
AcDbLine
 10
743.6664074431512
 20
1821.214628730044
 30
0.0
 11
743.6664074431504
 21
1841.964628730038
 31
0.0
1001
REVIT
1002
{
1070
     3
1000
790271
1002
}
  0
LINE
  5
210
330
18A
100
AcDbEntity
  8
M-PIPE
100
AcDbLine
 10
743.6664074431519
 20
1758.964628730062
 30
0.0
 11
743.6664074431519
 21
1779.714628730056
 31
0.0
1001
REVIT
1002
{
1070
     3
1000
790271
1002
}
  0
LINE
  5
211
330
18A
100
AcDbEntity
  8
M-PIPE
100
AcDbLine
 10
743.6664074431519
 20
1779.714628730056
 30
0.0
 11
743.6664074431518
 21
1800.46462873005
 31
0.0
1001
REVIT
1002
{
1070
     3
1000
790271
1002
}
  0
SPLINE
  5
212
330
18A
100
AcDbEntity
  8
M-PIPE
100
AcDbSpline
210
0.0
220
0.0
230
1.0
 70
     8
 71
     3
 72
     9
 73
     5
 74
     0
 42
0.000000001
 43
0.0000000001
 40
0.0
 40
0.0
 40
0.0
 40
0.0
 40
0.5
 40
1.0
 40
1.0
 40
1.0
 40
1.0
 10
745.1097831161291
 20
1833.876085992134
 30
0.0
 10
744.6404135774168
 20
1831.820858711987
 30
0.0
 10
743.9304814265412
 20
1827.655388554826
 30
0.0
 10
743.6781631287644
 20
1823.379887203932
 30
0.0
 10
743.6664074431506
 20
1821.214628730052
 30
0.0
1001
REVIT
1002
{
1070
     3
1000
790271
1002
}
  0
SPLINE
  5
213
330
18A
100
AcDbEntity
  8
M-PIPE
100
AcDbSpline
210
0.0
220
0.0
230
1.0
 70
     8
 71
     3
 72
     9
 73
     5
 74
     0
 42
0.000000001
 43
0.0000000001
 40
0.0
 40
0.0
 40
0.0
 40
0.0
 40
0.5
 40
1.0
 40
1.0
 40
1.0
 40
1.0
 10
743.6664074431506
 20
1821.214628730052
 30
0.0
 10
743.6781631287645
 20
1819.049370256166
 30
0.0
 10
743.9304814265427
 20
1814.773868905259
 30
0.0
 10
744.6404135774226
 20
1810.608398748086
 30
0.0
 10
745.1097831161376
 20
1808.553171467933
 30
0.0
1001
REVIT
1002
{
1070
     3
1000
790271
1002
}
  0
LINE
  5
214
330
18A
100
AcDbEntity
  8
M-PIPE
100
AcDbLine
 10
745.1097831161376
 20
1808.553171467933
 30
0.0
 11
762.1664074431596
 21
1808.553171467934
 31
0.0
1001
REVIT
1002
{
1070
     3
1000
790271
1002
}
  0
LINE
  5
215
330
18A
100
AcDbEntity
  8
M-PIPE
100
AcDbLine
 10
770.1664074431597
 20
1808.553171467934
 30
0.0
 11
771.2230317701551
 21
1808.553171467934
 31
0.0
1001
REVIT
1002
{
1070
     3
1000
790271
1002
}
  0
SPLINE
  5
216
330
18A
100
AcDbEntity
  8
M-PIPE
100
AcDbSpline
210
0.0
220
0.0
230
1.0
 70
     8
 71
     3
 72
     9
 73
     5
 74
     0
 42
0.000000001
 43
0.0000000001
 40
0.0
 40
0.0
 40
0.0
 40
0.0
 40
0.5
 40
1.0
 40
1.0
 40
1.0
 40
1.0
 10
771.2230317701551
 20
1808.553171467934
 30
0.0
 10
771.6924013088686
 20
1810.608398748086
 30
0.0
 10
772.402333459748
 20
1814.773868905259
 30
0.0
 10
772.6546517575322
 20
1819.049370256165
 30
0.0
 10
772.6664074431504
 20
1821.214628730051
 30
0.0
1001
REVIT
1002
{
1070
     3
1000
790271
1002
}
  0
SPLINE
  5
217
330
18A
100
AcDbEntity
  8
M-PIPE
100
AcDbSpline
210
0.0
220
0.0
230
1.0
 70
     8
 71
     3
 72
     9
 73
     5
 74
     0
 42
0.000000001
 43
0.0000000001
 40
0.0
 40
0.0
 40
0.0
 40
0.0
 40
0.5
 40
1.0
 40
1.0
 40
1.0
 40
1.0
 10
772.6664074431504
 20
1821.214628730051
 30
0.0
 10
772.6546517575322
 20
1823.379887203931
 30
0.0
 10
772.4023334597494
 20
1827.655388554825
 30
0.0
 10
771.6924013088736
 20
1831.820858711986
 30
0.0
 10
771.2230317701623
 20
1833.876085992134
 30
0.0
1001
REVIT
1002
{
1070
     3
1000
790271
1002
}
  0
LINE
  5
218
330
18A
100
AcDbEntity
  8
M-PIPE
100
AcDbLine
 10
771.2230317701623
 20
1833.876085992134
 30
0.0
 11
745.1097831161291
 21
1833.876085992134
 31
0.0
1001
REVIT
1002
{
1070
     3
1000
790271
1002
}
  0
LINE
  5
219
330
18A
100
AcDbEntity
  8
M-PIPE
100
AcDbLine
 10
772.6664074431502
 20
1841.964628730021
 30
0.0
 11
772.666407443151
 21
1821.214628730035
 31
0.0
1001
REVIT
1002
{
1070
     3
1000
790271
1002
}
  0
LINE
  5
21A
330
18A
100
AcDbEntity
  8
M-PIPE
100
AcDbLine
 10
772.666407443151
 20
1821.214628730035
 30
0.0
 11
772.6664074431514
 21
1808.470367265521
 31
0.0
1001
REVIT
1002
{
1070
     3
1000
790271
1002
}
  0
LINE
  5
21B
330
18A
100
AcDbEntity
  8
M-PIPE
100
AcDbLine
 10
772.6664074431515
 20
1792.458890194581
 30
0.0
 11
772.6664074431518
 21
1779.714628730065
 31
0.0
1001
REVIT
1002
{
1070
     3
1000
790271
1002
}
  0
LINE
  5
21C
330
18A
100
AcDbEntity
  8
M-PIPE
100
AcDbLine
 10
772.6664074431518
 20
1779.714628730065
 30
0.0
 11
772.6664074431518
 21
1758.96462873008
 31
0.0
1001
REVIT
1002
{
1070
     3
1000
790271
1002
}
  0
SPLINE
  5
21D
330
18A
100
AcDbEntity
  8
M-PIPE
100
AcDbSpline
210
0.0
220
0.0
230
1.0
 70
    24
 71
     3
 72
     9
 73
     5
 74
     0
 42
0.000000001
 43
0.0000000001
 40
0.0
 40
0.0
 40
0.0
 40
0.0
 40
0.5
 40
1.0
 40
1.0
 40
1.0
 40
1.0
 10
745.1097831161445
 20
1758.964628730034
 30
0.0
 10
744.6404135774313
 20
1758.964628730034
 30
0.0
 10
743.9304814265526
 20
1758.964628730034
 30
0.0
 10
743.678163128769
 20
1758.964628730034
 30
0.0
 10
743.666407443151
 20
1758.964628730034
 30
0.0
1001
REVIT
1002
{
1070
     3
1000
790271
1002
}
  0
SPLINE
  5
21E
330
18A
100
AcDbEntity
  8
M-PIPE
100
AcDbSpline
210
0.0
220
0.0
230
1.0
 70
    24
 71
     3
 72
     9
 73
     5
 74
     0
 42
0.000000001
 43
0.0000000001
 40
0.0
 40
0.0
 40
0.0
 40
0.0
 40
0.5
 40
1.0
 40
1.0
 40
1.0
 40
1.0
 10
772.6664074431507
 20
1758.964628730034
 30
0.0
 10
772.6546517575286
 20
1758.964628730034
 30
0.0
 10
772.4023334597398
 20
1758.964628730034
 30
0.0
 10
771.6924013088612
 20
1758.964628730034
 30
0.0
 10
771.2230317701494
 20
1758.964628730034
 30
0.0
1001
REVIT
1002
{
1070
     3
1000
790271
1002
}
  0
LINE
  5
21F
330
18A
100
AcDbEntity
  8
M-PIPE
100
AcDbLine
 10
771.2230317701494
 20
1758.964628730034
 30
0.0
 11
745.1097831161445
 21
1758.964628730034
 31
0.0
1001
REVIT
1002
{
1070
     3
1000
790271
1002
}
  0
SPLINE
  5
220
330
18A
100
AcDbEntity
  8
M-PIPE
100
AcDbSpline
210
0.0
220
0.0
230
1.0
 70
     8
 71
     3
 72
     9
 73
     5
 74
     0
 42
0.000000001
 43
0.0000000001
 40
0.0
 40
0.0
 40
0.0
 40
0.0
 40
0.5
 40
1.0
 40
1.0
 40
1.0
 40
1.0
 10
745.1097831161414
 20
1792.376085992134
 30
0.0
 10
744.6404135774299
 20
1790.320858711985
 30
0.0
 10
743.9304814265534
 20
1786.15538855482
 30
0.0
 10
743.6781631287695
 20
1781.879887203922
 30
0.0
 10
743.666407443151
 20
1779.714628730041
 30
0.0
1001
REVIT
1002
{
1070
     3
1000
790271
1002
}
  0
SPLINE
  5
221
330
18A
100
AcDbEntity
  8
M-PIPE
100
AcDbSpline
210
0.0
220
0.0
230
1.0
 70
     8
 71
     3
 72
     9
 73
     5
 74
     0
 42
0.000000001
 43
0.0000000001
 40
0.0
 40
0.0
 40
0.0
 40
0.0
 40
0.5
 40
1.0
 40
1.0
 40
1.0
 40
1.0
 10
743.666407443151
 20
1779.714628730041
 30
0.0
 10
743.6781631287695
 20
1777.549370256156
 30
0.0
 10
743.9304814265541
 20
1773.273868905254
 30
0.0
 10
744.6404135774322
 20
1769.108398748085
 30
0.0
 10
745.1097831161452
 20
1767.053171467933
 30
0.0
1001
REVIT
1002
{
1070
     3
1000
790271
1002
}
  0
LINE
  5
222
330
18A
100
AcDbEntity
  8
M-PIPE
100
AcDbLine
 10
745.1097831161449
 20
1767.053171467933
 30
0.0
 11
771.2230317701489
 21
1767.053171467933
 31
0.0
1001
REVIT
1002
{
1070
     3
1000
790271
1002
}
  0
SPLINE
  5
223
330
18A
100
AcDbEntity
  8
M-PIPE
100
AcDbSpline
210
0.0
220
0.0
230
1.0
 70
     8
 71
     3
 72
     9
 73
     5
 74
     0
 42
0.000000001
 43
0.0000000001
 40
0.0
 40
0.0
 40
0.0
 40
0.0
 40
0.5
 40
1.0
 40
1.0
 40
1.0
 40
1.0
 10
771.2230317701489
 20
1767.053171467934
 30
0.0
 10
771.69240130886
 20
1769.108398748085
 30
0.0
 10
772.4023334597383
 20
1773.273868905254
 30
0.0
 10
772.6546517575281
 20
1777.549370256156
 30
0.0
 10
772.6664074431507
 20
1779.71462873004
 30
0.0
1001
REVIT
1002
{
1070
     3
1000
790271
1002
}
  0
SPLINE
  5
224
330
18A
100
AcDbEntity
  8
M-PIPE
100
AcDbSpline
210
0.0
220
0.0
230
1.0
 70
     8
 71
     3
 72
     9
 73
     5
 74
     0
 42
0.000000001
 43
0.0000000001
 40
0.0
 40
0.0
 40
0.0
 40
0.0
 40
0.5
 40
1.0
 40
1.0
 40
1.0
 40
1.0
 10
772.6664074431507
 20
1779.71462873004
 30
0.0
 10
772.6546517575281
 20
1781.879887203922
 30
0.0
 10
772.4023334597387
 20
1786.15538855482
 30
0.0
 10
771.692401308862
 20
1790.320858711985
 30
0.0
 10
771.2230317701518
 20
1792.376085992134
 30
0.0
1001
REVIT
1002
{
1070
     3
1000
790271
1002
}
  0
LINE
  5
225
330
18A
100
AcDbEntity
  8
M-PIPE
100
AcDbLine
 10
771.2230317701517
 20
1792.376085992134
 30
0.0
 11
770.1664074431595
 21
1792.376085992134
 31
0.0
1001
REVIT
1002
{
1070
     3
1000
790271
1002
}
  0
LINE
  5
226
330
18A
100
AcDbEntity
  8
M-PIPE
100
AcDbLine
 10
762.1664074431596
 20
1792.376085992134
 30
0.0
 11
745.1097831161414
 21
1792.376085992134
 31
0.0
1001
REVIT
1002
{
1070
     3
1000
790271
1002
}
  0
SPLINE
  5
227
330
18A
100
AcDbEntity
  8
M-PIPE
100
AcDbSpline
210
0.0
220
0.0
230
1.0
 70
    24
 71
     3
 72
     9
 73
     5
 74
     0
 42
0.000000001
 43
0.0000000001
 40
0.0
 40
0.0
 40
0.0
 40
0.0
 40
0.5
 40
1.0
 40
1.0
 40
1.0
 40
1.0
 10
743.6664074431504
 20
1841.964628730034
 30
0.0
 10
743.6781631287585
 20
1841.964628730034
 30
0.0
 10
743.9304814265291
 20
1841.964628730034
 30
0.0
 10
744.6404135774082
 20
1841.964628730034
 30
0.0
 10
745.1097831161249
 20
1841.964628730034
 30
0.0
1001
REVIT
1002
{
1070
     3
1000
790271
1002
}
  0
LINE
  5
228
330
18A
100
AcDbEntity
  8
M-PIPE
100
AcDbLine
 10
745.1097831161249
 20
1841.964628730034
 30
0.0
 11
771.223031770166
 21
1841.964628730034
 31
0.0
1001
REVIT
1002
{
1070
     3
1000
790271
1002
}
  0
SPLINE
  5
229
330
18A
100
AcDbEntity
  8
M-PIPE
100
AcDbSpline
210
0.0
220
0.0
230
1.0
 70
    24
 71
     3
 72
     9
 73
     5
 74
     0
 42
0.000000001
 43
0.0000000001
 40
0.0
 40
0.0
 40
0.0
 40
0.0
 40
0.5
 40
1.0
 40
1.0
 40
1.0
 40
1.0
 10
771.223031770166
 20
1841.964628730034
 30
0.0
 10
771.6924013088811
 20
1841.964628730034
 30
0.0
 10
772.40233345976
 20
1841.964628730034
 30
0.0
 10
772.6546517575372
 20
1841.964628730034
 30
0.0
 10
772.6664074431502
 20
1841.964628730034
 30
0.0
1001
REVIT
1002
{
1070
     3
1000
790271
1002
}
  0
LINE
  5
22A
330
18A
100
AcDbEntity
  8
M-PIPE
100
AcDbLine
 10
745.1097831161391
 20
1792.376085992135
 30
0.0
 11
745.1097831161389
 21
1800.464628730044
 31
0.0
1001
REVIT
1002
{
1070
     3
1000
790271
1002
}
  0
LINE
  5
22B
330
18A
100
AcDbEntity
  8
M-PIPE
100
AcDbLine
 10
771.223031770155
 20
1792.464011180675
 30
0.0
 11
771.223031770155
 21
1792.376085992135
 31
0.0
1001
REVIT
1002
{
1070
     3
1000
790271
1002
}
  0
LINE
  5
22C
330
18A
100
AcDbEntity
  8
M-PIPE
100
AcDbLine
 10
745.1097831161297
 20
1833.876085992134
 30
0.0
 11
745.1097831161295
 21
1841.964628730041
 31
0.0
1001
REVIT
1002
{
1070
     3
1000
790271
1002
}
  0
LINE
  5
22D
330
18A
100
AcDbEntity
  8
M-PIPE
100
AcDbLine
 10
745.1097831161377
 20
1800.464628730045
 30
0.0
 11
745.1097831161376
 21
1808.553171467933
 31
0.0
1001
REVIT
1002
{
1070
     3
1000
790271
1002
}
  0
LINE
  5
22E
330
18A
100
AcDbEntity
  8
M-PIPE
100
AcDbLine
 10
745.1097831161414
 20
1758.964628730038
 30
0.0
 11
745.1097831161414
 21
1767.053171467938
 31
0.0
1001
REVIT
1002
{
1070
     3
1000
790271
1002
}
  0
LINE
  5
22F
330
18A
100
AcDbEntity
  8
M-PIPE
100
AcDbLine
 10
771.2230317701644
 20
1841.964628730037
 30
0.0
 11
771.2230317701648
 21
1833.876085992131
 31
0.0
1001
REVIT
1002
{
1070
     3
1000
790271
1002
}
  0
LINE
  5
230
330
18A
100
AcDbEntity
  8
M-PIPE
100
AcDbLine
 10
771.2230317701562
 20
1808.553171467934
 30
0.0
 11
771.2230317701562
 21
1808.465246279426
 31
0.0
1001
REVIT
1002
{
1070
     3
1000
790271
1002
}
  0
LINE
  5
231
330
18A
100
AcDbEntity
  8
M-PIPE
100
AcDbLine
 10
771.2230317701517
 20
1767.053171467937
 30
0.0
 11
771.2230317701517
 21
1758.964628730038
 31
0.0
1001
REVIT
1002
{
1070
     3
1000
790271
1002
}
  0
LINE
  5
232
330
18A
100
AcDbEntity
  8
P-SANR-FIXT
100
AcDbLine
 10
856.6664074431592
 20
1844.464628730052
 30
0.0
 11
815.666407443159
 21
1844.464628730051
 31
0.0
  0
LINE
  5
233
330
18A
100
AcDbEntity
  8
P-SANR-FIXT
100
AcDbLine
 10
815.6664074431597
 20
1756.464628730051
 30
0.0
 11
856.6664074431598
 21
1756.464628730051
 31
0.0
  0
LINE
  5
234
330
18A
100
AcDbEntity
  8
P-SANR-FIXT
100
AcDbLine
 10
858.6664074431936
 20
1835.964628730052
 30
0.0
 11
856.6664074431592
 21
1835.964628730052
 31
0.0
  0
LINE
  5
235
330
18A
100
AcDbEntity
  8
P-SANR-FIXT
100
AcDbLine
 10
856.6664074431598
 20
1764.964628730051
 30
0.0
 11
858.6664074432075
 21
1764.964628730051
 31
0.0
  0
LINE
  5
236
330
18A
100
AcDbEntity
  8
P-SANR-FIXT
100
AcDbLine
 10
815.666407443159
 20
1844.464628730051
 30
0.0
 11
774.666407443159
 21
1844.464628730051
 31
0.0
  0
LINE
  5
237
330
18A
100
AcDbEntity
  8
P-SANR-FIXT
100
AcDbLine
 10
774.6664074431597
 20
1756.464628730051
 30
0.0
 11
815.6664074431597
 21
1756.464628730051
 31
0.0
  0
LINE
  5
238
330
18A
100
AcDbEntity
  8
P-SANR-FIXT
100
AcDbLine
 10
774.6664074431592
 20
1835.964628730051
 30
0.0
 11
772.6664074431518
 21
1835.964628730051
 31
0.0
  0
LINE
  5
239
330
18A
100
AcDbEntity
  8
P-SANR-FIXT
100
AcDbLine
 10
772.6664074431535
 20
1764.964628730051
 30
0.0
 11
774.6664074431598
 21
1764.964628730051
 31
0.0
  0
LINE
  5
23A
330
18A
100
AcDbEntity
  8
P-SANR-FIXT
100
AcDbLine
 10
856.6664074431578
 20
1834.479124147878
 30
0.0
 11
856.6664074431578
 21
1844.464628730051
 31
0.0
  0
LINE
  5
23B
330
18A
100
AcDbEntity
  8
P-SANR-FIXT
100
AcDbLine
 10
856.6664074431583
 20
1756.46462873005
 30
0.0
 11
856.6664074431583
 21
1766.450133312224
 31
0.0
  0
LINE
  5
23C
330
18A
100
AcDbEntity
  8
P-SANR-FIXT
100
AcDbLine
 10
774.6664074431577
 20
1844.46462873005
 30
0.0
 11
774.666407443158
 21
1808.467605975417
 31
0.0
  0
LINE
  5
23D
330
18A
100
AcDbEntity
  8
P-SANR-FIXT
100
AcDbLine
 10
774.666407443158
 20
1792.461651484685
 30
0.0
 11
774.6664074431582
 21
1756.46462873005
 31
0.0
  0
ENDBLK
  5
23F
330
18A
100
AcDbEntity
  8
0
100
AcDbBlockEnd
  0
BLOCK
  5
317
330
241
100
AcDbEntity
  8
0
100
AcDbBlockBegin
  2
Automatic flow rate regulator valve_Caleffi_121 DN15 - 1_2__-V2-Est - Idraulica
 70
     0
 10
0.0
 20
0.0
 30
0.0
  3
Automatic flow rate regulator valve_Caleffi_121 DN15 - 1_2__-V2-Est - Idraulica
  1

  0
ARC
  5
242
330
241
100
AcDbEntity
  8
M-PIPE
100
AcDbCircle
 10
1097.114353943157
 20
1999.982558850057
 30
0.0
 40
32.0
100
AcDbArc
 50
90.0000000000004
 51
270.0000000000001
1001
REVIT
1002
{
1070
     3
1000
790271
1002
}
  0
ARC
  5
243
330
241
100
AcDbEntity
  8
M-PIPE
100
AcDbCircle
 10
1097.114353943157
 20
1999.982558850057
 30
0.0
 40
32.00000000000027
100
AcDbArc
 50
270.0000000000002
 51
89.9999999999998
1001
REVIT
1002
{
1070
     3
1000
790271
1002
}
  0
ARC
  5
244
330
241
100
AcDbEntity
  8
M-PIPE
100
AcDbCircle
 10
1097.114353943157
 20
1999.982558850057
 30
0.0
 40
31.4999999999997
100
AcDbArc
 50
224.8701358766564
 51
225.0000000000068
1001
REVIT
1002
{
1070
     3
1000
790271
1002
}
  0
LINE
  5
245
330
241
100
AcDbEntity
  8
M-PIPE
100
AcDbLine
 10
1065.614364560951
 20
1999.956695345023
 30
0.0
 11
1065.614353943157
 21
1999.982558850072
 31
0.0
1001
REVIT
1002
{
1070
     3
1000
790271
1002
}
  0
ARC
  5
246
330
241
100
AcDbEntity
  8
M-PIPE
100
AcDbCircle
 10
1097.114353943157
 20
1999.982558850057
 30
0.0
 40
31.49999999999953
100
AcDbArc
 50
44.80491012980023
 51
44.99999999999356
1001
REVIT
1002
{
1070
     3
1000
790271
1002
}
  0
LINE
  5
247
330
241
100
AcDbEntity
  8
M-PIPE
100
AcDbLine
 10
1128.614353943157
 20
1999.982558850073
 30
0.0
 11
1128.614330015357
 21
1999.943732946411
 31
0.0
1001
REVIT
1002
{
1070
     3
1000
790271
1002
}
  0
ARC
  5
248
330
241
100
AcDbEntity
  8
M-PIPE
100
AcDbCircle
 10
1097.114353943157
 20
1999.982558850058
 30
0.0
 40
31.49999999999967
100
AcDbArc
 50
90.00000000000042
 51
94.74720983808529
1001
REVIT
1002
{
1070
     3
1000
790271
1002
}
  0
LINE
  5
249
330
241
100
AcDbEntity
  8
M-PIPE
100
AcDbLine
 10
1094.507424112824
 20
2031.374499166956
 30
0.0
 11
1076.760277831581
 21
2024.023390483845
 31
0.0
1001
REVIT
1002
{
1070
     3
1000
790271
1002
}
  0
ARC
  5
24A
330
241
100
AcDbEntity
  8
M-PIPE
100
AcDbCircle
 10
1097.114353943157
 20
1999.982558850058
 30
0.0
 40
31.49999999999971
100
AcDbArc
 50
130.2527901619149
 51
139.7472098379935
1001
REVIT
1002
{
1070
     3
1000
790271
1002
}
  0
LINE
  5
24B
330
241
100
AcDbEntity
  8
M-PIPE
100
AcDbLine
 10
1073.073522309402
 20
2020.336634961672
 30
0.0
 11
1065.722413626255
 21
2002.589488680341
 31
0.0
1001
REVIT
1002
{
1070
     3
1000
790271
1002
}
  0
ARC
  5
24C
330
241
100
AcDbEntity
  8
M-PIPE
100
AcDbCircle
 10
1097.114353943157
 20
1999.982558850058
 30
0.0
 40
31.49999999999954
100
AcDbArc
 50
175.2527901620081
 51
184.7472098379376
1001
REVIT
1002
{
1070
     3
1000
790271
1002
}
  0
LINE
  5
24D
330
241
100
AcDbEntity
  8
M-PIPE
100
AcDbLine
 10
1065.722413626252
 20
1997.375629019805
 30
0.0
 11
1073.073522309421
 21
1979.628482738419
 31
0.0
1001
REVIT
1002
{
1070
     3
1000
790271
1002
}
  0
ARC
  5
24E
330
241
100
AcDbEntity
  8
M-PIPE
100
AcDbCircle
 10
1097.114353943157
 20
1999.982558850058
 30
0.0
 40
31.49999999999972
100
AcDbArc
 50
220.2527901620633
 51
229.7472098379509
1001
REVIT
1002
{
1070
     3
1000
790271
1002
}
  0
LINE
  5
24F
330
241
100
AcDbEntity
  8
M-PIPE
100
AcDbLine
 10
1076.760277831525
 20
1975.941727216317
 30
0.0
 11
1094.507424112898
 21
1968.590618533153
 31
0.0
1001
REVIT
1002
{
1070
     3
1000
790271
1002
}
  0
ARC
  5
250
330
241
100
AcDbEntity
  8
M-PIPE
100
AcDbCircle
 10
1097.114353943157
 20
1999.982558850058
 30
0.0
 40
31.50000000000003
100
AcDbArc
 50
265.2527901620498
 51
270.0000000000002
1001
REVIT
1002
{
1070
     3
1000
790271
1002
}
  0
ARC
  5
251
330
241
100
AcDbEntity
  8
M-PIPE
100
AcDbCircle
 10
1097.114353943157
 20
1999.982558850058
 30
0.0
 40
31.49999999999968
100
AcDbArc
 50
270.0000000000001
 51
274.7472098380252
1001
REVIT
1002
{
1070
     3
1000
790271
1002
}
  0
LINE
  5
252
330
241
100
AcDbEntity
  8
M-PIPE
100
AcDbLine
 10
1099.721283773458
 20
1968.590618533156
 30
0.0
 11
1117.468430054758
 21
1975.94172721629
 31
0.0
1001
REVIT
1002
{
1070
     3
1000
790271
1002
}
  0
ARC
  5
253
330
241
100
AcDbEntity
  8
M-PIPE
100
AcDbCircle
 10
1097.114353943157
 20
1999.982558850058
 30
0.0
 40
31.49999999999973
100
AcDbArc
 50
310.2527901619749
 51
319.7472098381171
1001
REVIT
1002
{
1070
     3
1000
790271
1002
}
  0
LINE
  5
254
330
241
100
AcDbEntity
  8
M-PIPE
100
AcDbLine
 10
1121.155185576957
 20
1979.628482738495
 30
0.0
 11
1128.506294260054
 21
1997.375629019706
 31
0.0
1001
REVIT
1002
{
1070
     3
1000
790271
1002
}
  0
ARC
  5
255
330
241
100
AcDbEntity
  8
M-PIPE
100
AcDbCircle
 10
1097.114353943157
 20
1999.982558850058
 30
0.0
 40
31.49999999999981
100
AcDbArc
 50
355.2527901618824
 51
4.747209838172834
1001
REVIT
1002
{
1070
     3
1000
790271
1002
}
  0
LINE
  5
256
330
241
100
AcDbEntity
  8
M-PIPE
100
AcDbLine
 10
1128.506294260051
 20
2002.589488680439
 30
0.0
 11
1121.155185576977
 21
2020.336634961596
 31
0.0
1001
REVIT
1002
{
1070
     3
1000
790271
1002
}
  0
ARC
  5
257
330
241
100
AcDbEntity
  8
M-PIPE
100
AcDbCircle
 10
1097.114353943157
 20
1999.982558850058
 30
0.0
 40
31.49999999999972
100
AcDbArc
 50
40.25279016182722
 51
49.74720983815959
1001
REVIT
1002
{
1070
     3
1000
790271
1002
}
  0
LINE
  5
258
330
241
100
AcDbEntity
  8
M-PIPE
100
AcDbLine
 10
1117.468430054702
 20
2024.023390483872
 30
0.0
 11
1099.721283773531
 21
2031.374499166952
 31
0.0
1001
REVIT
1002
{
1070
     3
1000
790271
1002
}
  0
ARC
  5
259
330
241
100
AcDbEntity
  8
M-PIPE
100
AcDbCircle
 10
1097.114353943157
 20
1999.982558850058
 30
0.0
 40
31.49999999999982
100
AcDbArc
 50
85.25279016184065
 51
89.99999999999978
1001
REVIT
1002
{
1070
     3
1000
790271
1002
}
  0
ARC
  5
25A
330
241
100
AcDbEntity
  8
M-PIPE
100
AcDbCircle
 10
1097.114353943157
 20
1999.982558850058
 30
0.0
 40
30.00000000000011
100
AcDbArc
 50
90.00000000000067
 51
269.9999999999998
1001
REVIT
1002
{
1070
     3
1000
790271
1002
}
  0
ARC
  5
25B
330
241
100
AcDbEntity
  8
M-PIPE
100
AcDbCircle
 10
1097.114353943157
 20
1999.982558850058
 30
0.0
 40
29.99999999999977
100
AcDbArc
 50
269.9999999999997
 51
90.0
1001
REVIT
1002
{
1070
     3
1000
790271
1002
}
  0
LINE
  5
25C
330
241
100
AcDbEntity
  8
M-PIPE
100
AcDbLine
 10
1085.314353943118
 20
2123.398503219287
 30
0.0
 11
1085.314353943118
 21
2122.482558850103
 31
0.0
1001
REVIT
1002
{
1070
     3
1000
923261
1002
}
  0
LINE
  5
25D
330
241
100
AcDbEntity
  8
M-PIPE
100
AcDbLine
 10
1108.914353943118
 20
2122.482558850121
 30
0.0
 11
1108.914353943118
 21
2123.398503219287
 31
0.0
1001
REVIT
1002
{
1070
     3
1000
923261
1002
}
  0
LINE
  5
25E
330
241
100
AcDbEntity
  8
M-PIPE
100
AcDbLine
 10
1137.772993861339
 20
2139.482558850087
 30
0.0
 11
1137.772993861339
 21
2135.482558850087
 31
0.0
1001
REVIT
1002
{
1070
     3
1000
923261
1002
}
  0
ELLIPSE
  5
25F
330
241
100
AcDbEntity
  8
M-PIPE
100
AcDbEllipse
 10
1116.782382596463
 20
2131.667765983343
 30
0.0
 11
0.0
 21
3.814792866744028
 31
0.0
210
0.0
220
0.0
230
1.0
 40
0.7071067811865927
 41
0.0000000000000016
 42
1.570796326797633
1001
REVIT
1002
{
1070
     3
1000
923261
1002
}
  0
LINE
  5
260
330
241
100
AcDbEntity
  8
M-PIPE
100
AcDbLine
 10
1114.084916691566
 20
2131.667765983332
 30
0.0
 11
1114.084916691582
 21
2123.398503219287
 31
0.0
1001
REVIT
1002
{
1070
     3
1000
923261
1002
}
  0
ELLIPSE
  5
261
330
241
100
AcDbEntity
  8
M-PIPE
100
AcDbEllipse
 10
1099.811819847986
 20
2131.667765983343
 30
0.0
 11
0.0000000000002399
 21
3.814792866744028
 31
0.0
210
0.0
220
0.0
230
1.0
 40
0.7071067811865927
 41
0.000000000000089
 42
1.570796326797682
1001
REVIT
1002
{
1070
     3
1000
923261
1002
}
  0
LINE
  5
262
330
241
100
AcDbEntity
  8
M-PIPE
100
AcDbLine
 10
1099.811819847986
 20
2135.482558850087
 30
0.0
 11
1120.802431112863
 21
2135.482558850087
 31
0.0
1001
REVIT
1002
{
1070
     3
1000
923261
1002
}
  0
LINE
  5
263
330
241
100
AcDbEntity
  8
M-PIPE
100
AcDbLine
 10
1120.802431112863
 20
2135.482558850087
 30
0.0
 11
1120.802431112863
 21
2139.482558850087
 31
0.0
1001
REVIT
1002
{
1070
     3
1000
923261
1002
}
  0
LINE
  5
264
330
241
100
AcDbEntity
  8
M-PIPE
100
AcDbLine
 10
1120.802431112863
 20
2139.482558850087
 30
0.0
 11
1094.285926818368
 21
2139.482558850087
 31
0.0
1001
REVIT
1002
{
1070
     3
1000
923261
1002
}
  0
ELLIPSE
  5
265
330
241
100
AcDbEntity
  8
M-PIPE
100
AcDbEllipse
 10
1094.285926818367
 20
2119.482558850087
 30
0.0
 11
0.0000000000009116
 21
20.00000000000046
 31
0.0
210
0.0
220
0.0
230
1.0
 40
0.7071067811865144
 41
0.0000000000000323
 42
1.373725988846907
1001
REVIT
1002
{
1070
     3
1000
923261
1002
}
  0
LINE
  5
266
330
241
100
AcDbEntity
  8
M-PIPE
100
AcDbLine
 10
1080.417520642867
 20
2123.398503219287
 30
0.0
 11
1097.114353943105
 21
2123.398503219287
 31
0.0
1001
REVIT
1002
{
1070
     3
1000
923261
1002
}
  0
LINE
  5
267
330
241
100
AcDbEntity
  8
M-PIPE
100
AcDbLine
 10
1097.114353943105
 20
2123.398503219287
 30
0.0
 11
1097.114353943089
 21
2131.667765983333
 31
0.0
1001
REVIT
1002
{
1070
     3
1000
923261
1002
}
  0
LINE
  5
268
330
241
100
AcDbEntity
  8
M-PIPE
100
AcDbLine
 10
1120.802431112863
 20
2139.482558850087
 30
0.0
 11
1137.772993861339
 21
2139.482558850087
 31
0.0
1001
REVIT
1002
{
1070
     3
1000
923261
1002
}
  0
LINE
  5
269
330
241
100
AcDbEntity
  8
M-PIPE
100
AcDbLine
 10
1120.802431112863
 20
2135.482558850087
 30
0.0
 11
1137.772993861339
 21
2135.482558850087
 31
0.0
1001
REVIT
1002
{
1070
     3
1000
923261
1002
}
  0
LINE
  5
26A
330
241
100
AcDbEntity
  8
M-PIPE
100
AcDbLine
 10
1097.114353943105
 20
2123.398503219287
 30
0.0
 11
1114.084916691582
 21
2123.398503219287
 31
0.0
1001
REVIT
1002
{
1070
     3
1000
923261
1002
}
  0
LINE
  5
26B
330
241
100
AcDbEntity
  8
M-PIPE
100
AcDbLine
 10
1114.1143539431
 20
2120.482558850072
 30
0.0
 11
1114.1143539431
 21
2123.398503219287
 31
0.0
1001
REVIT
1002
{
1070
     3
1000
923261
1002
}
  0
LINE
  5
26C
330
241
100
AcDbEntity
  8
M-PIPE
100
AcDbLine
 10
1118.1143539431
 20
2130.48255885001
 30
0.0
 11
1118.1143539431
 21
2135.482558850073
 31
0.0
1001
REVIT
1002
{
1070
     3
1000
923261
1002
}
  0
LINE
  5
26D
330
241
100
AcDbEntity
  8
M-PIPE
100
AcDbLine
 10
1118.114353943098
 20
2130.482558850008
 30
0.0
 11
1114.085875228721
 21
2130.482558850008
 31
0.0
1001
REVIT
1002
{
1070
     3
1000
923261
1002
}
  0
ARC
  5
26E
330
241
100
AcDbEntity
  8
M-PIPE
100
AcDbCircle
 10
1097.114353943097
 20
2101.482558850072
 30
0.0
 40
12.00000000000011
100
AcDbArc
 50
179.9999999999994
 51
359.9999999999991
1001
REVIT
1002
{
1070
     3
1000
923261
1002
}
  0
ARC
  5
26F
330
241
100
AcDbEntity
  8
M-PIPE
100
AcDbCircle
 10
1097.114353943097
 20
2101.482558850072
 30
0.0
 40
12.0
100
AcDbArc
 50
0.0
 51
180.0
1001
REVIT
1002
{
1070
     3
1000
923261
1002
}
  0
ARC
  5
270
330
241
100
AcDbEntity
  8
M-PIPE
100
AcDbCircle
 10
1097.114353943097
 20
2101.482558850072
 30
0.0
 40
8.0
100
AcDbArc
 50
0.0
 51
180.0
1001
REVIT
1002
{
1070
     3
1000
923261
1002
}
  0
ARC
  5
271
330
241
100
AcDbEntity
  8
M-PIPE
100
AcDbCircle
 10
1097.114353943097
 20
2101.482558850072
 30
0.0
 40
8.0
100
AcDbArc
 50
180.0
 51
0.0
1001
REVIT
1002
{
1070
     3
1000
923261
1002
}
  0
LINE
  5
272
330
241
100
AcDbEntity
  8
M-PIPE
100
AcDbLine
 10
1064.114353943098
 20
2060.272558850073
 30
0.0
 11
1130.114353943098
 21
2060.272558850073
 31
0.0
1001
REVIT
1002
{
1070
     3
1000
923261
1002
}
  0
LINE
  5
273
330
241
100
AcDbEntity
  8
M-PIPE
100
AcDbLine
 10
1118.1143539431
 20
2052.272558850072
 30
0.0
 11
1118.1143539431
 21
2060.272558850072
 31
0.0
1001
REVIT
1002
{
1070
     3
1000
923261
1002
}
  0
LINE
  5
274
330
241
100
AcDbEntity
  8
M-PIPE
100
AcDbLine
 10
1063.114353943099
 20
2080.370230221086
 30
0.0
 11
1064.114353943099
 21
2080.370230221086
 31
0.0
1001
REVIT
1002
{
1070
     3
1000
923261
1002
}
  0
LINE
  5
275
330
241
100
AcDbEntity
  8
M-PIPE
100
AcDbLine
 10
1130.114353943099
 20
2080.370230221086
 30
0.0
 11
1131.114353943099
 21
2080.370230221086
 31
0.0
1001
REVIT
1002
{
1070
     3
1000
923261
1002
}
  0
LINE
  5
276
330
241
100
AcDbEntity
  8
M-PIPE
100
AcDbLine
 10
1109.114353943115
 20
2120.482558850073
 30
0.0
 11
1109.114353943115
 21
2122.482558850073
 31
0.0
1001
REVIT
1002
{
1070
     3
1000
923261
1002
}
  0
LINE
  5
277
330
241
100
AcDbEntity
  8
M-PIPE
100
AcDbLine
 10
1085.114353943115
 20
2122.482558850073
 30
0.0
 11
1085.114353943115
 21
2120.482558850073
 31
0.0
1001
REVIT
1002
{
1070
     3
1000
923261
1002
}
  0
LINE
  5
278
330
241
100
AcDbEntity
  8
M-PIPE
100
AcDbLine
 10
1130.114353943097
 20
2080.272558850071
 30
0.0
 11
1130.114353943096
 21
2060.272558850071
 31
0.0
1001
REVIT
1002
{
1070
     3
1000
923261
1002
}
  0
LINE
  5
279
330
241
100
AcDbEntity
  8
M-PIPE
100
AcDbLine
 10
1130.114353943097
 20
2080.48255885007
 30
0.0
 11
1130.114353943097
 21
2080.272558850071
 31
0.0
1001
REVIT
1002
{
1070
     3
1000
923261
1002
}
  0
LINE
  5
27A
330
241
100
AcDbEntity
  8
M-PIPE
100
AcDbLine
 10
1130.114353943097
 20
2120.482558850072
 30
0.0
 11
1130.114353943097
 21
2090.594887479057
 31
0.0
1001
REVIT
1002
{
1070
     3
1000
923261
1002
}
  0
LINE
  5
27B
330
241
100
AcDbEntity
  8
M-PIPE
100
AcDbLine
 10
1064.114353943097
 20
2090.594887479058
 30
0.0
 11
1064.114353943097
 21
2120.482558850072
 31
0.0
1001
REVIT
1002
{
1070
     3
1000
923261
1002
}
  0
LINE
  5
27C
330
241
100
AcDbEntity
  8
M-PIPE
100
AcDbLine
 10
1064.114353943097
 20
2060.272558850072
 30
0.0
 11
1064.114353943097
 21
2080.272558850072
 31
0.0
1001
REVIT
1002
{
1070
     3
1000
923261
1002
}
  0
LINE
  5
27D
330
241
100
AcDbEntity
  8
M-PIPE
100
AcDbLine
 10
1064.114353943097
 20
2080.272558850072
 30
0.0
 11
1064.114353943097
 21
2080.482558850071
 31
0.0
1001
REVIT
1002
{
1070
     3
1000
923261
1002
}
  0
LINE
  5
27E
330
241
100
AcDbEntity
  8
M-PIPE
100
AcDbLine
 10
1131.114353943097
 20
2090.594887479057
 30
0.0
 11
1130.114353943097
 21
2090.594887479057
 31
0.0
1001
REVIT
1002
{
1070
     3
1000
923261
1002
}
  0
LINE
  5
27F
330
241
100
AcDbEntity
  8
M-PIPE
100
AcDbLine
 10
1064.114353943097
 20
2120.482558850072
 30
0.0
 11
1130.114353943097
 21
2120.482558850072
 31
0.0
1001
REVIT
1002
{
1070
     3
1000
923261
1002
}
  0
LINE
  5
280
330
241
100
AcDbEntity
  8
M-PIPE
100
AcDbLine
 10
1064.114353943097
 20
2090.594887479058
 30
0.0
 11
1063.114353943097
 21
2090.594887479058
 31
0.0
1001
REVIT
1002
{
1070
     3
1000
923261
1002
}
  0
LINE
  5
281
330
241
100
AcDbEntity
  8
M-PIPE
100
AcDbLine
 10
1110.114353943098
 20
2052.272558850072
 30
0.0
 11
1109.613251448148
 21
2052.272558850072
 31
0.0
1001
REVIT
1002
{
1070
     3
1000
923261
1002
}
  0
LINE
  5
282
330
241
100
AcDbEntity
  8
M-PIPE
100
AcDbLine
 10
1118.114353943098
 20
2052.272558850072
 30
0.0
 11
1110.114353943098
 21
2052.272558850072
 31
0.0
1001
REVIT
1002
{
1070
     3
1000
923261
1002
}
  0
LINE
  5
283
330
241
100
AcDbEntity
  8
M-PIPE
100
AcDbLine
 10
1131.114353943097
 20
2080.48255885007
 30
0.0
 11
1131.114353943097
 21
2090.594887479057
 31
0.0
1001
REVIT
1002
{
1070
     3
1000
923261
1002
}
  0
LINE
  5
284
330
241
100
AcDbEntity
  8
M-PIPE
100
AcDbLine
 10
1131.114353943097
 20
2080.48255885007
 30
0.0
 11
1131.114353943097
 21
2080.458477585899
 31
0.0
1001
REVIT
1002
{
1070
     3
1000
923261
1002
}
  0
LINE
  5
285
330
241
100
AcDbEntity
  8
M-PIPE
100
AcDbLine
 10
1131.114353943098
 20
2108.48255885007
 30
0.0
 11
1131.114353943098
 21
2102.294510909428
 31
0.0
1001
REVIT
1002
{
1070
     3
1000
923261
1002
}
  0
LINE
  5
286
330
241
100
AcDbEntity
  8
M-PIPE
100
AcDbLine
 10
1131.114353943098
 20
2102.294510909428
 30
0.0
 11
1131.114353943097
 21
2090.58286834939
 31
0.0
1001
REVIT
1002
{
1070
     3
1000
923261
1002
}
  0
LINE
  5
287
330
241
100
AcDbEntity
  8
M-PIPE
100
AcDbLine
 10
1063.114353943097
 20
2090.582868349391
 30
0.0
 11
1063.114353943097
 21
2102.294510909429
 31
0.0
1001
REVIT
1002
{
1070
     3
1000
923261
1002
}
  0
LINE
  5
288
330
241
100
AcDbEntity
  8
M-PIPE
100
AcDbLine
 10
1063.114353943098
 20
2102.294510909429
 30
0.0
 11
1063.114353943098
 21
2108.482558850071
 31
0.0
1001
REVIT
1002
{
1070
     3
1000
923261
1002
}
  0
LINE
  5
289
330
241
100
AcDbEntity
  8
M-PIPE
100
AcDbLine
 10
1063.114353943097
 20
2080.4584775859
 30
0.0
 11
1063.114353943097
 21
2080.482558850071
 31
0.0
1001
REVIT
1002
{
1070
     3
1000
923261
1002
}
  0
LINE
  5
28A
330
241
100
AcDbEntity
  8
M-PIPE
100
AcDbLine
 10
1063.114353943097
 20
2090.594887479058
 30
0.0
 11
1063.114353943097
 21
2080.482558850071
 31
0.0
1001
REVIT
1002
{
1070
     3
1000
923261
1002
}
  0
LINE
  5
28B
330
241
100
AcDbEntity
  8
M-PIPE
100
AcDbLine
 10
1130.114353943097
 20
2080.48255885007
 30
0.0
 11
1131.114353943097
 21
2080.48255885007
 31
0.0
1001
REVIT
1002
{
1070
     3
1000
923261
1002
}
  0
LINE
  5
28C
330
241
100
AcDbEntity
  8
M-PIPE
100
AcDbLine
 10
1063.114353943097
 20
2080.482558850071
 30
0.0
 11
1064.114353943097
 21
2080.482558850071
 31
0.0
1001
REVIT
1002
{
1070
     3
1000
923261
1002
}
  0
LINE
  5
28D
330
241
100
AcDbEntity
  8
M-PIPE
100
AcDbLine
 10
1130.114353943098
 20
2108.48255885007
 30
0.0
 11
1131.114353943098
 21
2108.48255885007
 31
0.0
1001
REVIT
1002
{
1070
     3
1000
923261
1002
}
  0
LINE
  5
28E
330
241
100
AcDbEntity
  8
M-PIPE
100
AcDbLine
 10
1063.114353943098
 20
2108.482558850071
 30
0.0
 11
1064.114353943098
 21
2108.482558850071
 31
0.0
1001
REVIT
1002
{
1070
     3
1000
923261
1002
}
  0
LINE
  5
28F
330
241
100
AcDbEntity
  8
M-PIPE
100
AcDbLine
 10
1130.114353943097
 20
2102.294510909428
 30
0.0
 11
1131.114353943098
 21
2102.294510909428
 31
0.0
1001
REVIT
1002
{
1070
     3
1000
923261
1002
}
  0
LINE
  5
290
330
241
100
AcDbEntity
  8
M-PIPE
100
AcDbLine
 10
1063.114353943097
 20
2102.294510909429
 30
0.0
 11
1064.114353943097
 21
2102.294510909429
 31
0.0
1001
REVIT
1002
{
1070
     3
1000
923261
1002
}
  0
LINE
  5
291
330
241
100
AcDbEntity
  8
M-PIPE
100
AcDbLine
 10
1097.114353943113
 20
2122.482558850072
 30
0.0
 11
1109.114353943113
 21
2122.482558850072
 31
0.0
1001
REVIT
1002
{
1070
     3
1000
923261
1002
}
  0
LINE
  5
292
330
241
100
AcDbEntity
  8
M-PIPE
100
AcDbLine
 10
1085.114353943113
 20
2122.482558850072
 30
0.0
 11
1097.114353943113
 21
2122.482558850072
 31
0.0
1001
REVIT
1002
{
1070
     3
1000
923261
1002
}
  0
LINE
  5
293
330
241
100
AcDbEntity
  8
M-PIPE
100
AcDbLine
 10
1109.614353943115
 20
2044.482558850011
 30
0.0
 11
1109.614353943115
 21
2060.26255885001
 31
0.0
1001
REVIT
1002
{
1070
     3
1000
923261
1002
}
  0
LINE
  5
294
330
241
100
AcDbEntity
  8
M-PIPE
100
AcDbLine
 10
1084.614353943115
 20
2060.26255885001
 30
0.0
 11
1084.614353943115
 21
2044.482558850011
 31
0.0
1001
REVIT
1002
{
1070
     3
1000
923261
1002
}
  0
LINE
  5
295
330
241
100
AcDbEntity
  8
M-PIPE
100
AcDbLine
 10
1089.917020027089
 20
2043.372558850009
 30
0.0
 11
1089.830507099412
 21
2043.372558850009
 31
0.0
1001
REVIT
1002
{
1070
     3
1000
923261
1002
}
  0
LINE
  5
296
330
241
100
AcDbEntity
  8
M-PIPE
100
AcDbLine
 10
1104.398200786782
 20
2043.372558850009
 30
0.0
 11
1104.311687859105
 21
2043.372558850009
 31
0.0
1001
REVIT
1002
{
1070
     3
1000
923261
1002
}
  0
LINE
  5
297
330
241
100
AcDbEntity
  8
M-PIPE
100
AcDbLine
 10
1098.547203161233
 20
2060.262558850009
 30
0.0
 11
1097.114353943113
 21
2060.262558850009
 31
0.0
1001
REVIT
1002
{
1070
     3
1000
923261
1002
}
  0
LINE
  5
298
330
241
100
AcDbEntity
  8
M-PIPE
100
AcDbLine
 10
1097.114353943113
 20
2060.262558850009
 30
0.0
 11
1094.943751722276
 21
2060.262558850009
 31
0.0
1001
REVIT
1002
{
1070
     3
1000
923261
1002
}
  0
ARC
  5
299
330
241
100
AcDbEntity
  8
M-PIPE
100
AcDbCircle
 10
1097.114353943097
 20
1999.982558850011
 30
0.0
 40
41.49999999998806
100
AcDbArc
 50
89.99999999999984
 51
120.0000000000009
1001
REVIT
1002
{
1070
     3
1000
790271
1002
}
  0
ARC
  5
29A
330
241
100
AcDbEntity
  8
M-PIPE
100
AcDbCircle
 10
1097.114353943097
 20
1999.982558850011
 30
0.0
 40
41.49999999998827
100
AcDbArc
 50
120.0000000000006
 51
180.0
1001
REVIT
1002
{
1070
     3
1000
790271
1002
}
  0
ARC
  5
29B
330
241
100
AcDbEntity
  8
M-PIPE
100
AcDbCircle
 10
1097.114353943097
 20
1999.982558850011
 30
0.0
 40
41.49999999998828
100
AcDbArc
 50
179.9999999999998
 51
239.9999999999982
1001
REVIT
1002
{
1070
     3
1000
790271
1002
}
  0
ARC
  5
29C
330
241
100
AcDbEntity
  8
M-PIPE
100
AcDbCircle
 10
1097.114353943097
 20
1999.982558850011
 30
0.0
 40
41.4999999999879
100
AcDbArc
 50
239.999999999998
 51
269.9999999999993
1001
REVIT
1002
{
1070
     3
1000
790271
1002
}
  0
ARC
  5
29D
330
241
100
AcDbEntity
  8
M-PIPE
100
AcDbCircle
 10
1097.114353943097
 20
1999.982558850011
 30
0.0
 40
41.49999999998818
100
AcDbArc
 50
270.0000000000002
 51
299.9999999999982
1001
REVIT
1002
{
1070
     3
1000
790271
1002
}
  0
ARC
  5
29E
330
241
100
AcDbEntity
  8
M-PIPE
100
AcDbCircle
 10
1097.114353943097
 20
1999.982558850011
 30
0.0
 40
41.49999999998795
100
AcDbArc
 50
299.9999999999976
 51
359.9999999999984
1001
REVIT
1002
{
1070
     3
1000
790271
1002
}
  0
ARC
  5
29F
330
241
100
AcDbEntity
  8
M-PIPE
100
AcDbCircle
 10
1097.114353943097
 20
1999.982558850011
 30
0.0
 40
41.49999999998818
100
AcDbArc
 50
359.9999999999984
 51
60.00000000000032
1001
REVIT
1002
{
1070
     3
1000
790271
1002
}
  0
ARC
  5
2A0
330
241
100
AcDbEntity
  8
M-PIPE
100
AcDbCircle
 10
1097.114353943097
 20
1999.982558850011
 30
0.0
 40
41.49999999998812
100
AcDbArc
 50
60.00000000000032
 51
90.0
1001
REVIT
1002
{
1070
     3
1000
790271
1002
}
  0
ARC
  5
2A1
330
241
100
AcDbEntity
  8
M-PIPE
100
AcDbCircle
 10
1097.114353943157
 20
1999.982558850057
 30
0.0
 40
31.99999999999989
100
AcDbArc
 50
264.9999999999998
 51
265.4989141705203
1001
REVIT
1002
{
1070
     3
1000
790271
1002
}
  0
ARC
  5
2A2
330
241
100
AcDbEntity
  8
M-PIPE
100
AcDbCircle
 10
1097.114353943157
 20
1999.982558850057
 30
0.0
 40
31.99999999999981
100
AcDbArc
 50
259.9999999999998
 51
260.9950993195394
1001
REVIT
1002
{
1070
     3
1000
790271
1002
}
  0
ARC
  5
2A3
330
241
100
AcDbEntity
  8
M-PIPE
100
AcDbCircle
 10
1097.114353943157
 20
1999.982558850057
 30
0.0
 40
31.99999999999974
100
AcDbArc
 50
255.0
 51
256.4895751335277
1001
REVIT
1002
{
1070
     3
1000
790271
1002
}
  0
ARC
  5
2A4
330
241
100
AcDbEntity
  8
M-PIPE
100
AcDbCircle
 10
1097.114353943157
 20
1999.982558850057
 30
0.0
 40
31.99999999999993
100
AcDbArc
 50
242.9728913627058
 51
251.9833361371146
1001
REVIT
1002
{
1070
     3
1000
790271
1002
}
  0
ARC
  5
2A5
330
241
100
AcDbEntity
  8
M-PIPE
100
AcDbCircle
 10
1097.114353943157
 20
1999.982558850057
 30
0.0
 40
31.99999999999976
100
AcDbArc
 50
238.4710753991533
 51
239.9999999999998
1001
REVIT
1002
{
1070
     3
1000
790271
1002
}
  0
ARC
  5
2A6
330
241
100
AcDbEntity
  8
M-PIPE
100
AcDbCircle
 10
1097.114353943157
 20
1999.982558850057
 30
0.0
 40
31.99999999999987
100
AcDbArc
 50
233.973517189735
 51
234.9999999999998
1001
REVIT
1002
{
1070
     3
1000
790271
1002
}
  0
ARC
  5
2A7
330
241
100
AcDbEntity
  8
M-PIPE
100
AcDbCircle
 10
1097.114353943157
 20
1999.982558850057
 30
0.0
 40
31.99999999999996
100
AcDbArc
 50
229.4822353515824
 51
229.9999999999998
1001
REVIT
1002
{
1070
     3
1000
790271
1002
}
  0
ARC
  5
2A8
330
241
100
AcDbEntity
  8
M-PIPE
100
AcDbCircle
 10
1097.114353943157
 20
1999.982558850057
 30
0.0
 40
31.99999999999983
100
AcDbArc
 50
219.9999999999997
 51
220.5177646484184
1001
REVIT
1002
{
1070
     3
1000
790271
1002
}
  0
ARC
  5
2A9
330
241
100
AcDbEntity
  8
M-PIPE
100
AcDbCircle
 10
1097.114353943157
 20
1999.982558850057
 30
0.0
 40
31.99999999999986
100
AcDbArc
 50
214.9999999999999
 51
216.0264828102653
1001
REVIT
1002
{
1070
     3
1000
790271
1002
}
  0
ARC
  5
2AA
330
241
100
AcDbEntity
  8
M-PIPE
100
AcDbCircle
 10
1097.114353943157
 20
1999.982558850057
 30
0.0
 40
31.99999999999999
100
AcDbArc
 50
210.0
 51
211.5289246008472
1001
REVIT
1002
{
1070
     3
1000
790271
1002
}
  0
ARC
  5
2AB
330
241
100
AcDbEntity
  8
M-PIPE
100
AcDbCircle
 10
1097.114353943157
 20
1999.982558850057
 30
0.0
 40
31.99999999999981
100
AcDbArc
 50
198.0166638628856
 51
207.0271086372943
1001
REVIT
1002
{
1070
     3
1000
790271
1002
}
  0
ARC
  5
2AC
330
241
100
AcDbEntity
  8
M-PIPE
100
AcDbCircle
 10
1097.114353943157
 20
1999.982558850057
 30
0.0
 40
31.99999999999998
100
AcDbArc
 50
193.5104248664724
 51
194.9999999999997
1001
REVIT
1002
{
1070
     3
1000
790271
1002
}
  0
ARC
  5
2AD
330
241
100
AcDbEntity
  8
M-PIPE
100
AcDbCircle
 10
1097.114353943157
 20
1999.982558850057
 30
0.0
 40
31.99999999999971
100
AcDbArc
 50
189.0049006804611
 51
189.9999999999995
1001
REVIT
1002
{
1070
     3
1000
790271
1002
}
  0
ARC
  5
2AE
330
241
100
AcDbEntity
  8
M-PIPE
100
AcDbCircle
 10
1097.114353943157
 20
1999.982558850057
 30
0.0
 40
31.99999999999989
100
AcDbArc
 50
184.5010858294797
 51
184.9999999999998
1001
REVIT
1002
{
1070
     3
1000
790271
1002
}
  0
ARC
  5
2AF
330
241
100
AcDbEntity
  8
M-PIPE
100
AcDbCircle
 10
1097.114353943157
 20
1999.982558850057
 30
0.0
 40
31.99999999999984
100
AcDbArc
 50
174.9999999999998
 51
175.4989141705219
1001
REVIT
1002
{
1070
     3
1000
790271
1002
}
  0
ARC
  5
2B0
330
241
100
AcDbEntity
  8
M-PIPE
100
AcDbCircle
 10
1097.114353943157
 20
1999.982558850057
 30
0.0
 40
31.99999999999974
100
AcDbArc
 50
170.0000000000001
 51
170.9950993195405
1001
REVIT
1002
{
1070
     3
1000
790271
1002
}
  0
ARC
  5
2B1
330
241
100
AcDbEntity
  8
M-PIPE
100
AcDbCircle
 10
1097.114353943157
 20
1999.982558850057
 30
0.0
 40
31.99999999999981
100
AcDbArc
 50
165.0
 51
166.489575133529
1001
REVIT
1002
{
1070
     3
1000
790271
1002
}
  0
ARC
  5
2B2
330
241
100
AcDbEntity
  8
M-PIPE
100
AcDbCircle
 10
1097.114353943157
 20
1999.982558850057
 30
0.0
 40
31.9999999999998
100
AcDbArc
 50
152.9728913627073
 51
161.9833361371159
1001
REVIT
1002
{
1070
     3
1000
790271
1002
}
  0
ARC
  5
2B3
330
241
100
AcDbEntity
  8
M-PIPE
100
AcDbCircle
 10
1097.114353943157
 20
1999.982558850057
 30
0.0
 40
31.99999999999976
100
AcDbArc
 50
148.4710753991545
 51
150.0000000000003
1001
REVIT
1002
{
1070
     3
1000
790271
1002
}
  0
ARC
  5
2B4
330
241
100
AcDbEntity
  8
M-PIPE
100
AcDbCircle
 10
1097.114353943157
 20
1999.982558850057
 30
0.0
 40
31.99999999999987
100
AcDbArc
 50
143.9735171897361
 51
145.0000000000002
1001
REVIT
1002
{
1070
     3
1000
790271
1002
}
  0
ARC
  5
2B5
330
241
100
AcDbEntity
  8
M-PIPE
100
AcDbCircle
 10
1097.114353943157
 20
1999.982558850057
 30
0.0
 40
31.99999999999964
100
AcDbArc
 50
139.4822353515832
 51
140.0000000000002
1001
REVIT
1002
{
1070
     3
1000
790271
1002
}
  0
ARC
  5
2B6
330
241
100
AcDbEntity
  8
M-PIPE
100
AcDbCircle
 10
1097.114353943157
 20
1999.982558850057
 30
0.0
 40
31.99999999999997
100
AcDbArc
 50
130.0000000000001
 51
130.517764648419
1001
REVIT
1002
{
1070
     3
1000
790271
1002
}
  0
ARC
  5
2B7
330
241
100
AcDbEntity
  8
M-PIPE
100
AcDbCircle
 10
1097.114353943157
 20
1999.982558850057
 30
0.0
 40
31.99999999999967
100
AcDbArc
 50
125.0000000000004
 51
126.026482810266
1001
REVIT
1002
{
1070
     3
1000
790271
1002
}
  0
ARC
  5
2B8
330
241
100
AcDbEntity
  8
M-PIPE
100
AcDbCircle
 10
1097.114353943157
 20
1999.982558850057
 30
0.0
 40
31.9999999999998
100
AcDbArc
 50
120.0000000000002
 51
121.5289246008479
1001
REVIT
1002
{
1070
     3
1000
790271
1002
}
  0
ARC
  5
2B9
330
241
100
AcDbEntity
  8
M-PIPE
100
AcDbCircle
 10
1097.114353943157
 20
1999.982558850057
 30
0.0
 40
31.99999999999981
100
AcDbArc
 50
108.0166638628859
 51
117.0271086372947
1001
REVIT
1002
{
1070
     3
1000
790271
1002
}
  0
ARC
  5
2BA
330
241
100
AcDbEntity
  8
M-PIPE
100
AcDbCircle
 10
1097.114353943157
 20
1999.982558850057
 30
0.0
 40
31.99999999999976
100
AcDbArc
 50
103.5104248664726
 51
105.0000000000005
1001
REVIT
1002
{
1070
     3
1000
790271
1002
}
  0
ARC
  5
2BB
330
241
100
AcDbEntity
  8
M-PIPE
100
AcDbCircle
 10
1097.114353943157
 20
1999.982558850057
 30
0.0
 40
31.99999999999971
100
AcDbArc
 50
99.00490068046105
 51
100.0000000000003
1001
REVIT
1002
{
1070
     3
1000
790271
1002
}
  0
ARC
  5
2BC
330
241
100
AcDbEntity
  8
M-PIPE
100
AcDbCircle
 10
1097.114353943157
 20
1999.982558850057
 30
0.0
 40
31.99999999999989
100
AcDbArc
 50
94.50108582947978
 51
95.00000000000023
1001
REVIT
1002
{
1070
     3
1000
790271
1002
}
  0
ARC
  5
2BD
330
241
100
AcDbEntity
  8
M-PIPE
100
AcDbCircle
 10
1097.114353943157
 20
1999.982558850057
 30
0.0
 40
31.99999999999989
100
AcDbArc
 50
85.00000000000062
 51
85.49891417052068
1001
REVIT
1002
{
1070
     3
1000
790271
1002
}
  0
ARC
  5
2BE
330
241
100
AcDbEntity
  8
M-PIPE
100
AcDbCircle
 10
1097.114353943157
 20
1999.982558850057
 30
0.0
 40
31.99999999999985
100
AcDbArc
 50
80.0000000000006
 51
80.99509931953937
1001
REVIT
1002
{
1070
     3
1000
790271
1002
}
  0
ARC
  5
2BF
330
241
100
AcDbEntity
  8
M-PIPE
100
AcDbCircle
 10
1097.114353943157
 20
1999.982558850057
 30
0.0
 40
31.99999999999974
100
AcDbArc
 50
75.00000000000054
 51
76.48957513352816
1001
REVIT
1002
{
1070
     3
1000
790271
1002
}
  0
ARC
  5
2C0
330
241
100
AcDbEntity
  8
M-PIPE
100
AcDbCircle
 10
1097.114353943157
 20
1999.982558850057
 30
0.0
 40
31.99999999999979
100
AcDbArc
 50
62.97289136270586
 51
71.98333613711453
1001
REVIT
1002
{
1070
     3
1000
790271
1002
}
  0
ARC
  5
2C1
330
241
100
AcDbEntity
  8
M-PIPE
100
AcDbCircle
 10
1097.114353943157
 20
1999.982558850057
 30
0.0
 40
31.99999999999995
100
AcDbArc
 50
58.47107539915339
 51
60.00000000000052
1001
REVIT
1002
{
1070
     3
1000
790271
1002
}
  0
ARC
  5
2C2
330
241
100
AcDbEntity
  8
M-PIPE
100
AcDbCircle
 10
1097.114353943157
 20
1999.982558850057
 30
0.0
 40
31.99999999999987
100
AcDbArc
 50
53.97351718973474
 51
55.00000000000039
1001
REVIT
1002
{
1070
     3
1000
790271
1002
}
  0
ARC
  5
2C3
330
241
100
AcDbEntity
  8
M-PIPE
100
AcDbCircle
 10
1097.114353943157
 20
1999.982558850057
 30
0.0
 40
31.99999999999981
100
AcDbArc
 50
49.48223535158156
 51
50.00000000000048
1001
REVIT
1002
{
1070
     3
1000
790271
1002
}
  0
ARC
  5
2C4
330
241
100
AcDbEntity
  8
M-PIPE
100
AcDbCircle
 10
1097.114353943157
 20
1999.982558850057
 30
0.0
 40
31.99999999999988
100
AcDbArc
 50
40.0000000000004
 51
40.5177646484176
1001
REVIT
1002
{
1070
     3
1000
790271
1002
}
  0
ARC
  5
2C5
330
241
100
AcDbEntity
  8
M-PIPE
100
AcDbCircle
 10
1097.114353943157
 20
1999.982558850057
 30
0.0
 40
31.99999999999996
100
AcDbArc
 50
35.0000000000003
 51
36.02648281026456
1001
REVIT
1002
{
1070
     3
1000
790271
1002
}
  0
ARC
  5
2C6
330
241
100
AcDbEntity
  8
M-PIPE
100
AcDbCircle
 10
1097.114353943157
 20
1999.982558850057
 30
0.0
 40
31.99999999999983
100
AcDbArc
 50
30.0000000000004
 51
31.52892460084661
1001
REVIT
1002
{
1070
     3
1000
790271
1002
}
  0
ARC
  5
2C7
330
241
100
AcDbEntity
  8
M-PIPE
100
AcDbCircle
 10
1097.114353943157
 20
1999.982558850057
 30
0.0
 40
31.9999999999998
100
AcDbArc
 50
18.01666386288462
 51
27.0271086372935
1001
REVIT
1002
{
1070
     3
1000
790271
1002
}
  0
ARC
  5
2C8
330
241
100
AcDbEntity
  8
M-PIPE
100
AcDbCircle
 10
1097.114353943157
 20
1999.982558850057
 30
0.0
 40
31.99999999999976
100
AcDbArc
 50
13.51042486647129
 51
15.00000000000038
1001
REVIT
1002
{
1070
     3
1000
790271
1002
}
  0
ARC
  5
2C9
330
241
100
AcDbEntity
  8
M-PIPE
100
AcDbCircle
 10
1097.114353943157
 20
1999.982558850057
 30
0.0
 40
31.99999999999975
100
AcDbArc
 50
9.004900680459854
 51
10.00000000000029
1001
REVIT
1002
{
1070
     3
1000
790271
1002
}
  0
ARC
  5
2CA
330
241
100
AcDbEntity
  8
M-PIPE
100
AcDbCircle
 10
1097.114353943157
 20
1999.982558850057
 30
0.0
 40
31.99999999999991
100
AcDbArc
 50
4.501085829478554
 51
5.00000000000066
1001
REVIT
1002
{
1070
     3
1000
790271
1002
}
  0
ARC
  5
2CB
330
241
100
AcDbEntity
  8
M-PIPE
100
AcDbCircle
 10
1097.114353943157
 20
1999.982558850057
 30
0.0
 40
31.9999999999997
100
AcDbArc
 50
354.9999999999998
 51
355.4989141705199
1001
REVIT
1002
{
1070
     3
1000
790271
1002
}
  0
ARC
  5
2CC
330
241
100
AcDbEntity
  8
M-PIPE
100
AcDbCircle
 10
1097.114353943157
 20
1999.982558850057
 30
0.0
 40
31.99999999999966
100
AcDbArc
 50
350.0000000000002
 51
350.9950993195385
1001
REVIT
1002
{
1070
     3
1000
790271
1002
}
  0
ARC
  5
2CD
330
241
100
AcDbEntity
  8
M-PIPE
100
AcDbCircle
 10
1097.114353943157
 20
1999.982558850057
 30
0.0
 40
31.99999999999985
100
AcDbArc
 50
344.9999999999999
 51
346.4895751335269
1001
REVIT
1002
{
1070
     3
1000
790271
1002
}
  0
ARC
  5
2CE
330
241
100
AcDbEntity
  8
M-PIPE
100
AcDbCircle
 10
1097.114353943157
 20
1999.982558850057
 30
0.0
 40
31.99999999999993
100
AcDbArc
 50
332.9728913627047
 51
341.9833361371136
1001
REVIT
1002
{
1070
     3
1000
790271
1002
}
  0
ARC
  5
2CF
330
241
100
AcDbEntity
  8
M-PIPE
100
AcDbCircle
 10
1097.114353943157
 20
1999.982558850057
 30
0.0
 40
31.99999999999984
100
AcDbArc
 50
328.4710753991521
 51
330.0
1001
REVIT
1002
{
1070
     3
1000
790271
1002
}
  0
ARC
  5
2D0
330
241
100
AcDbEntity
  8
M-PIPE
100
AcDbCircle
 10
1097.114353943157
 20
1999.982558850057
 30
0.0
 40
31.99999999999973
100
AcDbArc
 50
323.9735171897341
 51
325.0
1001
REVIT
1002
{
1070
     3
1000
790271
1002
}
  0
ARC
  5
2D1
330
241
100
AcDbEntity
  8
M-PIPE
100
AcDbCircle
 10
1097.114353943157
 20
1999.982558850057
 30
0.0
 40
31.99999999999981
100
AcDbArc
 50
319.4822353515809
 51
320.0000000000002
1001
REVIT
1002
{
1070
     3
1000
790271
1002
}
  0
ARC
  5
2D2
330
241
100
AcDbEntity
  8
M-PIPE
100
AcDbCircle
 10
1097.114353943157
 20
1999.982558850057
 30
0.0
 40
31.99999999999973
100
AcDbArc
 50
310.0000000000002
 51
310.5177646484168
1001
REVIT
1002
{
1070
     3
1000
790271
1002
}
  0
ARC
  5
2D3
330
241
100
AcDbEntity
  8
M-PIPE
100
AcDbCircle
 10
1097.114353943157
 20
1999.982558850057
 30
0.0
 40
31.99999999999982
100
AcDbArc
 50
304.9999999999999
 51
306.0264828102639
1001
REVIT
1002
{
1070
     3
1000
790271
1002
}
  0
ARC
  5
2D4
330
241
100
AcDbEntity
  8
M-PIPE
100
AcDbCircle
 10
1097.114353943157
 20
1999.982558850057
 30
0.0
 40
31.99999999999983
100
AcDbArc
 50
300.0000000000003
 51
301.528924600846
1001
REVIT
1002
{
1070
     3
1000
790271
1002
}
  0
ARC
  5
2D5
330
241
100
AcDbEntity
  8
M-PIPE
100
AcDbCircle
 10
1097.114353943157
 20
1999.982558850057
 30
0.0
 40
32.0
100
AcDbArc
 50
288.0166638628845
 51
297.0271086372933
1001
REVIT
1002
{
1070
     3
1000
790271
1002
}
  0
ARC
  5
2D6
330
241
100
AcDbEntity
  8
M-PIPE
100
AcDbCircle
 10
1097.114353943157
 20
1999.982558850057
 30
0.0
 40
31.99999999999976
100
AcDbArc
 50
283.5104248664716
 51
285.0000000000001
1001
REVIT
1002
{
1070
     3
1000
790271
1002
}
  0
ARC
  5
2D7
330
241
100
AcDbEntity
  8
M-PIPE
100
AcDbCircle
 10
1097.114353943157
 20
1999.982558850057
 30
0.0
 40
31.99999999999975
100
AcDbArc
 50
279.0049006804602
 51
280.0000000000003
1001
REVIT
1002
{
1070
     3
1000
790271
1002
}
  0
ARC
  5
2D8
330
241
100
AcDbEntity
  8
M-PIPE
100
AcDbCircle
 10
1097.114353943157
 20
1999.982558850057
 30
0.0
 40
31.99999999999991
100
AcDbArc
 50
274.501085829479
 51
275.0000000000002
1001
REVIT
1002
{
1070
     3
1000
790271
1002
}
  0
SPLINE
  5
2D9
330
241
100
AcDbEntity
  8
M-PIPE
100
AcDbSpline
210
0.0
220
0.0
230
1.0
 70
    24
 71
     3
 72
     9
 73
     5
 74
     0
 42
0.000000001
 43
0.0000000001
 40
0.0
 40
0.0
 40
0.0
 40
0.0
 40
0.5
 40
1.0
 40
1.0
 40
1.0
 40
1.0
 10
1063.702896681013
 20
2028.612517348471
 30
0.0
 10
1065.75812396116
 20
2029.79910337191
 30
0.0
 10
1069.92359411832
 20
2032.204038688448
 30
0.0
 10
1074.199095469214
 20
2034.672500544307
 30
0.0
 10
1076.364353943095
 20
2035.922613107067
 30
0.0
1001
REVIT
1002
{
1070
     3
1000
790271
1002
}
  0
SPLINE
  5
2DA
330
241
100
AcDbEntity
  8
M-PIPE
100
AcDbSpline
210
0.0
220
0.0
230
1.0
 70
    24
 71
     3
 72
     9
 73
     5
 74
     0
 42
0.000000001
 43
0.0000000001
 40
0.0
 40
0.0
 40
0.0
 40
0.0
 40
0.5
 40
1.0
 40
1.0
 40
1.0
 40
1.0
 10
1076.364353943095
 20
2035.922613107067
 30
0.0
 10
1078.529612416981
 20
2037.17272566983
 30
0.0
 10
1082.805113767888
 20
2039.641187525697
 30
0.0
 10
1086.970583925061
 20
2042.046122842242
 30
0.0
 10
1089.025811205213
 20
2043.232708865684
 30
0.0
1001
REVIT
1002
{
1070
     3
1000
790271
1002
}
  0
SPLINE
  5
2DB
330
241
100
AcDbEntity
  8
M-PIPE
100
AcDbSpline
210
0.0
220
0.0
230
1.0
 70
    24
 71
     3
 72
     9
 73
     5
 74
     0
 42
0.000000001
 43
0.0000000001
 40
0.0
 40
0.0
 40
0.0
 40
0.0
 40
0.5
 40
1.0
 40
1.0
 40
1.0
 40
1.0
 10
1130.525811205214
 20
1971.352600351576
 30
0.0
 10
1128.470583925061
 20
1970.166014328134
 30
0.0
 10
1124.305113767888
 20
1967.761079011589
 30
0.0
 10
1120.029612416981
 20
1965.292617155722
 30
0.0
 10
1117.864353943094
 20
1964.042504592958
 30
0.0
1001
REVIT
1002
{
1070
     3
1000
790271
1002
}
  0
SPLINE
  5
2DC
330
241
100
AcDbEntity
  8
M-PIPE
100
AcDbSpline
210
0.0
220
0.0
230
1.0
 70
    24
 71
     3
 72
     9
 73
     5
 74
     0
 42
0.000000001
 43
0.0000000001
 40
0.0
 40
0.0
 40
0.0
 40
0.0
 40
0.5
 40
1.0
 40
1.0
 40
1.0
 40
1.0
 10
1117.864353943094
 20
1964.042504592958
 30
0.0
 10
1115.699095469214
 20
1962.792392030198
 30
0.0
 10
1111.42359411832
 20
1960.323930174339
 30
0.0
 10
1107.258123961159
 20
1957.918994857801
 30
0.0
 10
1105.202896681012
 20
1956.732408834362
 30
0.0
1001
REVIT
1002
{
1070
     3
1000
790271
1002
}
  0
SPLINE
  5
2DD
330
241
100
AcDbEntity
  8
M-PIPE
100
AcDbSpline
210
0.0
220
0.0
230
1.0
 70
    24
 71
     3
 72
     9
 73
     5
 74
     0
 42
0.000000001
 43
0.0000000001
 40
0.0
 40
0.0
 40
0.0
 40
0.0
 40
0.5
 40
1.0
 40
1.0
 40
1.0
 40
1.0
 10
1138.614353943113
 20
2014.602750367237
 30
0.0
 10
1138.614353943113
 20
2012.229578320353
 30
0.0
 10
1138.614353943113
 20
2007.419707687266
 30
0.0
 10
1138.614353943113
 20
2002.482783975536
 30
0.0
 10
1138.614353943113
 20
1999.98255885001
 30
0.0
1001
REVIT
1002
{
1070
     3
1000
790271
1002
}
  0
SPLINE
  5
2DE
330
241
100
AcDbEntity
  8
M-PIPE
100
AcDbSpline
210
0.0
220
0.0
230
1.0
 70
    24
 71
     3
 72
     9
 73
     5
 74
     0
 42
0.000000001
 43
0.0000000001
 40
0.0
 40
0.0
 40
0.0
 40
0.0
 40
0.5
 40
1.0
 40
1.0
 40
1.0
 40
1.0
 10
1138.614353943113
 20
1999.98255885001
 30
0.0
 10
1138.614353943113
 20
1997.482333724489
 30
0.0
 10
1138.614353943113
 20
1992.545410012768
 30
0.0
 10
1138.614353943113
 20
1987.735539379688
 30
0.0
 10
1138.614353943113
 20
1985.362367332809
 30
0.0
1001
REVIT
1002
{
1070
     3
1000
790271
1002
}
  0
SPLINE
  5
2DF
330
241
100
AcDbEntity
  8
M-PIPE
100
AcDbSpline
210
0.0
220
0.0
230
1.0
 70
    24
 71
     3
 72
     9
 73
     5
 74
     0
 42
0.000000001
 43
0.0000000001
 40
0.0
 40
0.0
 40
0.0
 40
0.0
 40
0.5
 40
1.0
 40
1.0
 40
1.0
 40
1.0
 10
1105.202896681013
 20
2043.232708865684
 30
0.0
 10
1107.258123961162
 20
2042.046122842244
 30
0.0
 10
1111.423594118327
 20
2039.641187525704
 30
0.0
 10
1115.699095469224
 20
2037.172725669842
 30
0.0
 10
1117.864353943106
 20
2035.922613107082
 30
0.0
1001
REVIT
1002
{
1070
     3
1000
790271
1002
}
  0
SPLINE
  5
2E0
330
241
100
AcDbEntity
  8
M-PIPE
100
AcDbSpline
210
0.0
220
0.0
230
1.0
 70
    24
 71
     3
 72
     9
 73
     5
 74
     0
 42
0.000000001
 43
0.0000000001
 40
0.0
 40
0.0
 40
0.0
 40
0.0
 40
0.5
 40
1.0
 40
1.0
 40
1.0
 40
1.0
 10
1117.864353943106
 20
2035.922613107082
 30
0.0
 10
1120.02961241699
 20
2034.672500544319
 30
0.0
 10
1124.305113767893
 20
2032.204038688455
 30
0.0
 10
1128.470583925062
 20
2029.799103371912
 30
0.0
 10
1130.525811205214
 20
2028.612517348471
 30
0.0
1001
REVIT
1002
{
1070
     3
1000
790271
1002
}
  0
SPLINE
  5
2E1
330
241
100
AcDbEntity
  8
M-PIPE
100
AcDbSpline
210
0.0
220
0.0
230
1.0
 70
    24
 71
     3
 72
     9
 73
     5
 74
     0
 42
0.000000001
 43
0.0000000001
 40
0.0
 40
0.0
 40
0.0
 40
0.0
 40
0.5
 40
1.0
 40
1.0
 40
1.0
 40
1.0
 10
1055.614353943113
 20
1985.36236733281
 30
0.0
 10
1055.614353943113
 20
1987.735539379689
 30
0.0
 10
1055.614353943113
 20
1992.545410012767
 30
0.0
 10
1055.614353943113
 20
1997.482333724488
 30
0.0
 10
1055.614353943113
 20
1999.98255885001
 30
0.0
1001
REVIT
1002
{
1070
     3
1000
790271
1002
}
  0
SPLINE
  5
2E2
330
241
100
AcDbEntity
  8
M-PIPE
100
AcDbSpline
210
0.0
220
0.0
230
1.0
 70
    24
 71
     3
 72
     9
 73
     5
 74
     0
 42
0.000000001
 43
0.0000000001
 40
0.0
 40
0.0
 40
0.0
 40
0.0
 40
0.5
 40
1.0
 40
1.0
 40
1.0
 40
1.0
 10
1055.614353943113
 20
1999.98255885001
 30
0.0
 10
1055.614353943113
 20
2002.482783975537
 30
0.0
 10
1055.614353943113
 20
2007.419707687267
 30
0.0
 10
1055.614353943113
 20
2012.229578320354
 30
0.0
 10
1055.614353943113
 20
2014.602750367236
 30
0.0
1001
REVIT
1002
{
1070
     3
1000
790271
1002
}
  0
SPLINE
  5
2E3
330
241
100
AcDbEntity
  8
M-PIPE
100
AcDbSpline
210
0.0
220
0.0
230
1.0
 70
    24
 71
     3
 72
     9
 73
     5
 74
     0
 42
0.000000001
 43
0.0000000001
 40
0.0
 40
0.0
 40
0.0
 40
0.0
 40
0.5
 40
1.0
 40
1.0
 40
1.0
 40
1.0
 10
1089.025811205214
 20
1956.732408834362
 30
0.0
 10
1086.970583925063
 20
1957.918994857803
 30
0.0
 10
1082.805113767894
 20
1960.323930174346
 30
0.0
 10
1078.529612416991
 20
1962.79239203021
 30
0.0
 10
1076.364353943105
 20
1964.042504592973
 30
0.0
1001
REVIT
1002
{
1070
     3
1000
790271
1002
}
  0
SPLINE
  5
2E4
330
241
100
AcDbEntity
  8
M-PIPE
100
AcDbSpline
210
0.0
220
0.0
230
1.0
 70
    24
 71
     3
 72
     9
 73
     5
 74
     0
 42
0.000000001
 43
0.0000000001
 40
0.0
 40
0.0
 40
0.0
 40
0.0
 40
0.5
 40
1.0
 40
1.0
 40
1.0
 40
1.0
 10
1076.364353943105
 20
1964.042504592973
 30
0.0
 10
1074.199095469223
 20
1965.292617155734
 30
0.0
 10
1069.923594118324
 20
1967.761079011596
 30
0.0
 10
1065.758123961161
 20
1970.166014328136
 30
0.0
 10
1063.702896681012
 20
1971.352600351576
 30
0.0
1001
REVIT
1002
{
1070
     3
1000
790271
1002
}
  0
ARC
  5
2E5
330
241
100
AcDbEntity
  8
M-PIPE
100
AcDbCircle
 10
1097.114353943097
 20
1999.982558850011
 30
0.0
 40
43.99999999998863
100
AcDbArc
 50
259.4070433824451
 51
270.0000000000067
1001
REVIT
1002
{
1070
     3
1000
790271
1002
}
  0
ARC
  5
2E6
330
241
100
AcDbEntity
  8
M-PIPE
100
AcDbCircle
 10
1097.114353943097
 20
1999.982558850011
 30
0.0
 40
44.00000000001079
100
AcDbArc
 50
79.40704338240864
 51
89.99999999999259
1001
REVIT
1002
{
1070
     3
1000
790271
1002
}
  0
ARC
  5
2E7
330
241
100
AcDbEntity
  8
M-PIPE
100
AcDbCircle
 10
1097.114353943097
 20
1999.982558850011
 30
0.0
 40
43.99999999998543
100
AcDbArc
 50
199.4070433824183
 51
220.5929566175734
1001
REVIT
1002
{
1070
     3
1000
790271
1002
}
  0
ARC
  5
2E8
330
241
100
AcDbEntity
  8
M-PIPE
100
AcDbCircle
 10
1097.114353943097
 20
1999.982558850011
 30
0.0
 40
43.99999999999656
100
AcDbArc
 50
139.4070433824002
 51
160.5929566175501
1001
REVIT
1002
{
1070
     3
1000
790271
1002
}
  0
ARC
  5
2E9
330
241
100
AcDbEntity
  8
M-PIPE
100
AcDbCircle
 10
1097.114353943097
 20
1999.982558850011
 30
0.0
 40
44.00000000000864
100
AcDbArc
 50
89.99999999999289
 51
100.5929566175488
1001
REVIT
1002
{
1070
     3
1000
790271
1002
}
  0
ARC
  5
2EA
330
241
100
AcDbEntity
  8
M-PIPE
100
AcDbCircle
 10
1097.114353943097
 20
1999.982558850011
 30
0.0
 40
44.00000000001405
100
AcDbArc
 50
19.40704338243533
 51
40.59295661757004
1001
REVIT
1002
{
1070
     3
1000
790271
1002
}
  0
ARC
  5
2EB
330
241
100
AcDbEntity
  8
M-PIPE
100
AcDbCircle
 10
1097.114353943097
 20
1999.982558850011
 30
0.0
 40
44.0000000000031
100
AcDbArc
 50
319.4070433824533
 51
340.5929566175927
1001
REVIT
1002
{
1070
     3
1000
790271
1002
}
  0
ARC
  5
2EC
330
241
100
AcDbEntity
  8
M-PIPE
100
AcDbCircle
 10
1097.114353943097
 20
1999.982558850011
 30
0.0
 40
43.99999999999067
100
AcDbArc
 50
270.000000000008
 51
280.5929566175952
1001
REVIT
1002
{
1070
     3
1000
790271
1002
}
  0
LINE
  5
2ED
330
241
100
AcDbEntity
  8
P-SANR-FIXT
100
AcDbLine
 10
1084.1143539431
 20
2044.482558850011
 30
0.0
 11
1084.1143539431
 21
2042.018257963979
 31
0.0
  0
LINE
  5
2EE
330
241
100
AcDbEntity
  8
P-SANR-FIXT
100
AcDbLine
 10
1110.114353943099
 20
2042.018257963979
 30
0.0
 11
1110.114353943099
 21
2044.482558850011
 31
0.0
  0
LINE
  5
2EF
330
241
100
AcDbEntity
  8
P-SANR-FIXT
100
AcDbLine
 10
1063.6143539431
 20
1971.45625519882
 30
0.0
 11
1063.6143539431
 21
1936.982558850011
 31
0.0
  0
LINE
  5
2F0
330
241
100
AcDbEntity
  8
P-SANR-FIXT
100
AcDbLine
 10
1130.6143539431
 20
1936.982558850011
 30
0.0
 11
1130.6143539431
 21
1971.45625519882
 31
0.0
  0
LINE
  5
2F1
330
241
100
AcDbEntity
  8
P-SANR-FIXT
100
AcDbLine
 10
1084.114353943097
 20
2044.482558850011
 30
0.0
 11
1097.114353943098
 21
2044.482558850011
 31
0.0
  0
LINE
  5
2F2
330
241
100
AcDbEntity
  8
P-SANR-FIXT
100
AcDbLine
 10
1097.114353943098
 20
2044.482558850011
 30
0.0
 11
1110.114353943098
 21
2044.482558850011
 31
0.0
  0
SPLINE
  5
2F3
330
241
100
AcDbEntity
  8
P-SANR-FIXT
100
AcDbSpline
210
0.0
220
0.0
230
1.0
 70
     8
 71
     3
 72
    11
 73
     7
 74
     0
 42
0.000000001
 43
0.0000000001
 40
0.0
 40
0.0
 40
0.0
 40
0.0
 40
0.1428571428571428
 40
0.2857142857142857
 40
0.3571428571428571
 40
0.4285714285714286
 40
0.4285714285714286
 40
0.4285714285714286
 40
0.4285714285714286
 10
1084.114353943097
 20
2042.018257963978
 30
0.0
 10
1084.114353943097
 20
2042.022011428773
 30
0.0
 10
1084.335963838496
 20
2042.08606429695
 30
0.0
 10
1085.148959512198
 20
2042.328505885731
 30
0.0
 10
1086.090206433759
 20
2042.582065276115
 30
0.0
 10
1086.651733131141
 20
2042.721743280196
 30
0.0
 10
1086.953421420705
 20
2042.793252026779
 30
0.0
  0
SPLINE
  5
2F4
330
241
100
AcDbEntity
  8
P-SANR-FIXT
100
AcDbSpline
210
0.0
220
0.0
230
1.0
 70
     8
 71
     3
 72
    11
 73
     7
 74
     0
 42
0.000000001
 43
0.0000000001
 40
0.5
 40
0.5
 40
0.5
 40
0.5
 40
0.5714285714285714
 40
0.6428571428571428
 40
0.7142857142857144
 40
0.8571428571428571
 40
0.8571428571428571
 40
0.8571428571428571
 40
0.8571428571428571
 10
1087.919427480874
 20
2043.01100328839
 30
0.0
 10
1088.261132021045
 20
2043.084067312294
 30
0.0
 10
1088.982814814335
 20
2043.229778369918
 30
0.0
 10
1090.167926903928
 20
2043.436819013275
 30
0.0
 10
1091.868671656095
 20
2043.680709412666
 30
0.0
 10
1093.246886612731
 20
2043.839618080051
 30
0.0
 10
1094.205636006036
 20
2043.886309942173
 30
0.0
  0
SPLINE
  5
2F5
330
241
100
AcDbEntity
  8
P-SANR-FIXT
100
AcDbSpline
210
0.0
220
0.0
230
1.0
 70
     8
 71
     3
 72
     8
 73
     4
 74
     0
 42
0.000000001
 43
0.0000000001
 40
0.9285714285714282
 40
0.9285714285714282
 40
0.9285714285714282
 40
0.9285714285714282
 40
1.0
 40
1.0
 40
1.0
 40
1.0
 10
1095.649302877766
 20
2043.956507438938
 30
0.0
 10
1096.135098397706
 20
2043.972399238582
 30
0.0
 10
1096.624457949912
 20
2043.980933357277
 30
0.0
 10
1097.114353943098
 20
2043.982558850011
 30
0.0
  0
SPLINE
  5
2F6
330
241
100
AcDbEntity
  8
P-SANR-FIXT
100
AcDbSpline
210
0.0
220
0.0
230
1.0
 70
     8
 71
     3
 72
     8
 73
     4
 74
     0
 42
0.000000001
 43
0.0000000001
 40
0.0
 40
0.0
 40
0.0
 40
0.0
 40
0.0714285714285714
 40
0.0714285714285714
 40
0.0714285714285714
 40
0.0714285714285714
 10
1097.114353943098
 20
2043.982558850011
 30
0.0
 10
1097.604249936283
 20
2043.980933357277
 30
0.0
 10
1098.093609488489
 20
2043.972399238582
 30
0.0
 10
1098.579405008429
 20
2043.956507438938
 30
0.0
  0
SPLINE
  5
2F7
330
241
100
AcDbEntity
  8
P-SANR-FIXT
100
AcDbSpline
210
0.0
220
0.0
230
1.0
 70
     8
 71
     3
 72
    11
 73
     7
 74
     0
 42
0.000000001
 43
0.0000000001
 40
0.1428571428571428
 40
0.1428571428571428
 40
0.1428571428571428
 40
0.1428571428571428
 40
0.2857142857142857
 40
0.3571428571428571
 40
0.4285714285714286
 40
0.5
 40
0.5
 40
0.5
 40
0.5
 10
1100.023071880159
 20
2043.886309942173
 30
0.0
 10
1100.974351608394
 20
2043.824197509116
 30
0.0
 10
1102.361698394646
 20
2043.684193248995
 30
0.0
 10
1104.060500596379
 20
2043.436152809704
 30
0.0
 10
1105.245838088471
 20
2043.229996857848
 30
0.0
 10
1105.967891083648
 20
2043.084001642839
 30
0.0
 10
1106.309280405321
 20
2043.01100328839
 30
0.0
  0
SPLINE
  5
2F8
330
241
100
AcDbEntity
  8
P-SANR-FIXT
100
AcDbSpline
210
0.0
220
0.0
230
1.0
 70
     8
 71
     3
 72
    11
 73
     7
 74
     0
 42
0.000000001
 43
0.0000000001
 40
0.5714285714285714
 40
0.5714285714285714
 40
0.5714285714285714
 40
0.5714285714285714
 40
0.6428571428571428
 40
0.7142857142857144
 40
0.8571428571428571
 40
1.0
 40
1.0
 40
1.0
 40
1.0
 10
1107.27528646549
 20
2042.793252026779
 30
0.0
 10
1107.576974755053
 20
2042.721743280196
 30
0.0
 10
1108.138501452436
 20
2042.582065276115
 30
0.0
 10
1109.079748373997
 20
2042.328505885731
 30
0.0
 10
1109.892744047699
 20
2042.08606429695
 30
0.0
 10
1110.114353943098
 20
2042.022011428773
 30
0.0
 10
1110.114353943098
 20
2042.018257963978
 30
0.0
  0
ARC
  5
2F9
330
241
100
AcDbEntity
  8
P-SANR-FIXT
100
AcDbCircle
 10
1097.114353943097
 20
1999.982558850011
 30
0.0
 40
43.99999999999976
100
AcDbArc
 50
264.7020755512317
 51
264.9999999999998
  0
ARC
  5
2FA
330
241
100
AcDbEntity
  8
P-SANR-FIXT
100
AcDbCircle
 10
1097.114353943097
 20
1999.982558850011
 30
0.0
 40
43.99999999999989
100
AcDbArc
 50
220.0
 51
259.9999999999996
  0
ARC
  5
2FB
330
241
100
AcDbEntity
  8
P-SANR-FIXT
100
AcDbCircle
 10
1097.114353943097
 20
1999.982558850011
 30
0.0
 40
43.99999999999971
100
AcDbArc
 50
215.0000000000002
 51
215.3056603979223
  0
ARC
  5
2FC
330
241
100
AcDbEntity
  8
P-SANR-FIXT
100
AcDbCircle
 10
1097.114353943097
 20
1999.982558850011
 30
0.0
 40
43.99999999999995
100
AcDbArc
 50
204.7087185613444
 51
205.0000000000001
  0
ARC
  5
2FD
330
241
100
AcDbEntity
  8
P-SANR-FIXT
100
AcDbCircle
 10
1097.114353943097
 20
1999.982558850011
 30
0.0
 40
43.99999999999986
100
AcDbArc
 50
160.0000000000005
 51
199.9999999999998
  0
ARC
  5
2FE
330
241
100
AcDbEntity
  8
P-SANR-FIXT
100
AcDbCircle
 10
1097.114353943097
 20
1999.982558850011
 30
0.0
 40
43.99999999999969
100
AcDbArc
 50
155.0
 51
155.2912814386218
  0
ARC
  5
2FF
330
241
100
AcDbEntity
  8
P-SANR-FIXT
100
AcDbCircle
 10
1097.114353943097
 20
1999.982558850011
 30
0.0
 40
43.99999999999972
100
AcDbArc
 50
144.6943396020398
 51
145.0000000000003
  0
ARC
  5
300
330
241
100
AcDbEntity
  8
P-SANR-FIXT
100
AcDbCircle
 10
1097.114353943097
 20
1999.982558850011
 30
0.0
 40
43.99999999999958
100
AcDbArc
 50
100.0000000000003
 51
140.0000000000004
  0
ARC
  5
301
330
241
100
AcDbEntity
  8
P-SANR-FIXT
100
AcDbCircle
 10
1097.114353943097
 20
1999.982558850011
 30
0.0
 40
43.99999999999955
100
AcDbArc
 50
95.00000000000044
 51
95.29792444876848
  0
ARC
  5
302
330
241
100
AcDbEntity
  8
P-SANR-FIXT
100
AcDbCircle
 10
1097.114353943097
 20
1999.982558850011
 30
0.0
 40
43.99999999999976
100
AcDbArc
 50
84.70207555120566
 51
85.00000000000019
  0
ARC
  5
303
330
241
100
AcDbEntity
  8
P-SANR-FIXT
100
AcDbCircle
 10
1097.114353943097
 20
1999.982558850011
 30
0.0
 40
43.99999999999966
100
AcDbArc
 50
40.00000000000009
 51
79.99999999999989
  0
ARC
  5
304
330
241
100
AcDbEntity
  8
P-SANR-FIXT
100
AcDbCircle
 10
1097.114353943097
 20
1999.982558850011
 30
0.0
 40
43.99999999999975
100
AcDbArc
 50
34.99999999999991
 51
35.30566039795341
  0
ARC
  5
305
330
241
100
AcDbEntity
  8
P-SANR-FIXT
100
AcDbCircle
 10
1097.114353943097
 20
1999.982558850011
 30
0.0
 40
43.99999999999965
100
AcDbArc
 50
24.70871856137422
 51
24.99999999999993
  0
ARC
  5
306
330
241
100
AcDbEntity
  8
P-SANR-FIXT
100
AcDbCircle
 10
1097.114353943097
 20
1999.982558850011
 30
0.0
 40
43.99999999999977
100
AcDbArc
 50
339.9999999999995
 51
19.9999999999999
  0
ARC
  5
307
330
241
100
AcDbEntity
  8
P-SANR-FIXT
100
AcDbCircle
 10
1097.114353943097
 20
1999.982558850011
 30
0.0
 40
43.99999999999982
100
AcDbArc
 50
334.9999999999996
 51
335.2912814386594
  0
ARC
  5
308
330
241
100
AcDbEntity
  8
P-SANR-FIXT
100
AcDbCircle
 10
1097.114353943097
 20
1999.982558850011
 30
0.0
 40
43.99999999999966
100
AcDbArc
 50
324.6943396020841
 51
324.9999999999998
  0
ARC
  5
309
330
241
100
AcDbEntity
  8
P-SANR-FIXT
100
AcDbCircle
 10
1097.114353943097
 20
1999.982558850011
 30
0.0
 40
43.99999999999955
100
AcDbArc
 50
279.9999999999998
 51
319.9999999999997
  0
ARC
  5
30A
330
241
100
AcDbEntity
  8
P-SANR-FIXT
100
AcDbCircle
 10
1097.114353943097
 20
1999.982558850011
 30
0.0
 40
43.99999999999993
100
AcDbArc
 50
274.9999999999997
 51
275.297924448796
  0
LINE
  5
30B
330
241
100
AcDbEntity
  8
P-SANR-FIXT
100
AcDbLine
 10
1097.114353943098
 20
1936.98255885001
 30
0.0
 11
1063.614353943098
 21
1936.98255885001
 31
0.0
  0
SPLINE
  5
30C
330
241
100
AcDbEntity
  8
P-SANR-FIXT
100
AcDbSpline
210
0.0
220
0.0
230
1.0
 70
     8
 71
     3
 72
    10
 73
     6
 74
     0
 42
0.000000001
 43
0.0000000001
 40
-1.0
 40
-1.0
 40
-1.0
 40
-1.0
 40
-0.9285714285714286
 40
-0.8928571428571427
 40
-0.8571428571428571
 40
-0.8571428571428571
 40
-0.8571428571428571
 40
-0.8571428571428571
 10
1063.614353943098
 20
1971.456255198819
 30
0.0
 10
1063.614353943098
 20
1971.411187740101
 30
0.0
 10
1063.733763074772
 20
1971.24887593506
 30
0.0
 10
1064.114500360161
 20
1970.838735107543
 30
0.0
 10
1064.375663360239
 20
1970.57482813601
 30
0.0
 10
1064.52296539734
 20
1970.422427039421
 30
0.0
  0
SPLINE
  5
30D
330
241
100
AcDbEntity
  8
P-SANR-FIXT
100
AcDbSpline
210
0.0
220
0.0
230
1.0
 70
     8
 71
     3
 72
    11
 73
     7
 74
     0
 42
0.000000001
 43
0.0000000001
 40
-0.8214285714285713
 40
-0.8214285714285713
 40
-0.8214285714285713
 40
-0.8214285714285713
 40
-0.7857142857142857
 40
-0.75
 40
-0.7321428571428572
 40
-0.7142857142857144
 40
-0.7142857142857144
 40
-0.7142857142857144
 40
-0.7142857142857144
 10
1065.014103976005
 20
1969.904893623285
 30
0.0
 10
1065.193917943406
 20
1969.712610011151
 30
0.0
 10
1065.585128664685
 20
1969.289172977438
 30
0.0
 10
1066.150180585574
 20
1968.705317999187
 30
0.0
 10
1066.646151725172
 20
1968.223222046045
 30
0.0
 10
1066.908824191965
 20
1967.983159123241
 30
0.0
 10
1067.043541324638
 20
1967.861752065848
 30
0.0
  0
SPLINE
  5
30E
330
241
100
AcDbEntity
  8
P-SANR-FIXT
100
AcDbSpline
210
0.0
220
0.0
230
1.0
 70
     8
 71
     3
 72
     9
 73
     5
 74
     0
 42
0.000000001
 43
0.0000000001
 40
-0.6785714285714287
 40
-0.6785714285714287
 40
-0.6785714285714287
 40
-0.6785714285714287
 40
-0.6428571428571428
 40
-0.6071428571428572
 40
-0.6071428571428572
 40
-0.6071428571428572
 40
-0.6071428571428572
 10
1067.890549000562
 20
1967.105060336747
 30
0.0
 10
1068.185484383726
 20
1966.842557159364
 30
0.0
 10
1068.800589531804
 20
1966.3014092002
 30
0.0
 10
1069.466837909985
 20
1965.746020940116
 30
0.0
 10
1069.813205965767
 20
1965.469445593457
 30
0.0
  0
SPLINE
  5
30F
330
241
100
AcDbEntity
  8
P-SANR-FIXT
100
AcDbSpline
210
0.0
220
0.0
230
1.0
 70
     8
 71
     3
 72
    12
 73
     8
 74
     0
 42
0.000000001
 43
0.0000000001
 40
-0.5714285714285714
 40
-0.5714285714285714
 40
-0.5714285714285714
 40
-0.5714285714285714
 40
-0.5535714285714287
 40
-0.5357142857142857
 40
-0.5
 40
-0.4642857142857144
 40
-0.4285714285714286
 40
-0.4285714285714286
 40
-0.4285714285714286
 40
-0.4285714285714286
 10
1070.893138861831
 20
1964.649176905143
 30
0.0
 10
1071.079842763074
 20
1964.513949874367
 30
0.0
 10
1071.459603396894
 20
1964.243779789309
 30
0.0
 10
1072.241129645806
 20
1963.693776606401
 30
0.0
 10
1073.261645395739
 20
1963.002166897405
 30
0.0
 10
1074.557663872343
 20
1962.182662470899
 30
0.0
 10
1075.473650742029
 20
1961.664614769721
 30
0.0
 10
1075.943984862778
 20
1961.410347699974
 30
0.0
  0
SPLINE
  5
310
330
241
100
AcDbEntity
  8
P-SANR-FIXT
100
AcDbSpline
210
0.0
220
0.0
230
1.0
 70
     8
 71
     3
 72
    14
 73
    10
 74
     0
 42
0.000000001
 43
0.0000000001
 40
-0.3928571428571428
 40
-0.3928571428571428
 40
-0.3928571428571428
 40
-0.3928571428571428
 40
-0.3571428571428571
 40
-0.3214285714285714
 40
-0.2857142857142857
 40
-0.25
 40
-0.2142857142857143
 40
-0.1428571428571428
 40
0.0
 40
0.0
 40
0.0
 40
0.0
 10
1077.390545643736
 20
1960.659385152132
 30
0.0
 10
1077.884088772831
 20
1960.412188850622
 30
0.0
 10
1078.892898901868
 20
1959.922407952136
 30
0.0
 10
1080.473710723879
 20
1959.228809882258
 30
0.0
 10
1082.122042242339
 20
1958.602084277423
 30
0.0
 10
1083.837331433314
 20
1958.031811549723
 30
0.0
 10
1086.203692935822
 20
1957.325431758744
 30
0.0
 10
1090.523959132045
 20
1956.341414186095
 30
0.0
 10
1094.455197522975
 20
1956.00892006464
 30
0.0
 10
1097.114353943097
 20
1955.982558850011
 30
0.0
  0
LINE
  5
311
330
241
100
AcDbEntity
  8
P-SANR-FIXT
100
AcDbLine
 10
1130.614353943097
 20
1936.98255885001
 30
0.0
 11
1097.114353943098
 21
1936.98255885001
 31
0.0
  0
SPLINE
  5
312
330
241
100
AcDbEntity
  8
P-SANR-FIXT
100
AcDbSpline
210
0.0
220
0.0
230
1.0
 70
     8
 71
     3
 72
    14
 73
    10
 74
     0
 42
0.000000001
 43
0.0000000001
 40
-1.0
 40
-1.0
 40
-1.0
 40
-1.0
 40
-0.8571428571428571
 40
-0.7857142857142856
 40
-0.75
 40
-0.7142857142857143
 40
-0.6785714285714285
 40
-0.6428571428571428
 40
-0.6071428571428572
 40
-0.6071428571428572
 40
-0.6071428571428572
 40
-0.6071428571428572
 10
1097.114353943097
 20
1955.982558850011
 30
0.0
 10
1099.77351036322
 20
1956.00892006464
 30
0.0
 10
1103.704748973846
 20
1956.341413295629
 30
0.0
 10
1108.025014657445
 20
1957.32543294603
 30
0.0
 10
1110.391376965504
 20
1958.03180947197
 30
0.0
 10
1112.1066636849
 20
1958.602092217406
 30
0.0
 10
1113.755004485513
 20
1959.22878020008
 30
0.0
 10
1115.33578165049
 20
1959.922518740863
 30
0.0
 10
1116.344678010183
 20
1960.41195013171
 30
0.0
 10
1116.838162242459
 20
1960.659385152132
 30
0.0
  0
SPLINE
  5
313
330
241
100
AcDbEntity
  8
P-SANR-FIXT
100
AcDbSpline
210
0.0
220
0.0
230
1.0
 70
     8
 71
     3
 72
    13
 73
     9
 74
     0
 42
0.000000001
 43
0.0000000001
 40
-0.5714285714285714
 40
-0.5714285714285714
 40
-0.5714285714285714
 40
-0.5714285714285714
 40
-0.5535714285714287
 40
-0.5357142857142857
 40
-0.5
 40
-0.4642857142857144
 40
-0.4464285714285714
 40
-0.4285714285714286
 40
-0.4285714285714286
 40
-0.4285714285714286
 40
-0.4285714285714286
 10
1118.284723023417
 20
1961.410347699974
 30
0.0
 10
1118.520001155405
 20
1961.537034290975
 30
0.0
 10
1118.984575409019
 20
1961.792016891271
 30
0.0
 10
1119.886745700325
 20
1962.320465759879
 30
0.0
 10
1120.96716728994
 20
1963.001742955062
 30
0.0
 10
1121.987565234893
 20
1963.693829215534
 30
0.0
 10
1122.769106939296
 20
1964.243769881338
 30
0.0
 10
1123.14886550088
 20
1964.513948339728
 30
0.0
 10
1123.335569024365
 20
1964.649176905143
 30
0.0
  0
SPLINE
  5
314
330
241
100
AcDbEntity
  8
P-SANR-FIXT
100
AcDbSpline
210
0.0
220
0.0
230
1.0
 70
     8
 71
     3
 72
     9
 73
     5
 74
     0
 42
0.000000001
 43
0.0000000001
 40
-0.3928571428571428
 40
-0.3928571428571428
 40
-0.3928571428571428
 40
-0.3928571428571428
 40
-0.3571428571428571
 40
-0.3214285714285714
 40
-0.3214285714285714
 40
-0.3214285714285714
 40
-0.3214285714285714
 10
1124.415501920428
 20
1965.469445593456
 30
0.0
 10
1124.761869903613
 20
1965.746021233288
 30
0.0
 10
1125.428118559174
 20
1966.30140919913
 30
0.0
 10
1126.043223165501
 20
1966.842556868333
 30
0.0
 10
1126.338158885633
 20
1967.105060336746
 30
0.0
  0
SPLINE
  5
315
330
241
100
AcDbEntity
  8
P-SANR-FIXT
100
AcDbSpline
210
0.0
220
0.0
230
1.0
 70
     8
 71
     3
 72
    11
 73
     7
 74
     0
 42
0.000000001
 43
0.0000000001
 40
-0.2857142857142857
 40
-0.2857142857142857
 40
-0.2857142857142857
 40
-0.2857142857142857
 40
-0.2678571428571428
 40
-0.25
 40
-0.2142857142857143
 40
-0.1785714285714286
 40
-0.1785714285714286
 40
-0.1785714285714286
 40
-0.1785714285714286
 10
1127.185166561557
 20
1967.861752065848
 30
0.0
 10
1127.319883694105
 20
1967.983159123746
 30
0.0
 10
1127.582563684677
 20
1968.223229148322
 30
0.0
 10
1128.078489682604
 20
1968.705282486791
 30
0.0
 10
1128.6438801654
 20
1969.289457077616
 30
0.0
 10
1129.034157960646
 20
1969.712013400678
 30
0.0
 10
1129.214603910191
 20
1969.904893623285
 30
0.0
  0
SPLINE
  5
316
330
241
100
AcDbEntity
  8
P-SANR-FIXT
100
AcDbSpline
210
0.0
220
0.0
230
1.0
 70
     8
 71
     3
 72
    10
 73
     6
 74
     0
 42
0.000000001
 43
0.0000000001
 40
-0.1428571428571428
 40
-0.1428571428571428
 40
-0.1428571428571428
 40
-0.1428571428571428
 40
-0.1071428571428571
 40
-0.0714285714285714
 40
0.0
 40
0.0
 40
0.0
 40
0.0
 10
1129.705742488855
 20
1970.422427039421
 30
0.0
 10
1129.853044525957
 20
1970.574828136008
 30
0.0
 10
1130.114207526035
 20
1970.838735107544
 30
0.0
 10
1130.494944811424
 20
1971.248875935059
 30
0.0
 10
1130.614353943097
 20
1971.411187740101
 30
0.0
 10
1130.614353943097
 20
1971.456255198819
 30
0.0
  0
ENDBLK
  5
318
330
241
100
AcDbEntity
  8
0
100
AcDbBlockEnd
  0
ENDSEC
  0
SECTION
  2
ENTITIES
  0
INSERT
  5
189
330
71
100
AcDbEntity
  8
P-SANR-FIXT
100
AcDbBlockReference
  2
Automatic flow rate regulator valve_Caleffi_121 DN15 - 1_2__-859151-Est - Idraulica
 10
0.0
 20
0.0
 30
0.0
1001
REVIT
1002
{
1070
     1
1000
863131
1002
}
1002
{
1070
     5
1000
859151
1002
}
1002
{
1070
     2
1000
-2001160
1002
}
  0
INSERT
  5
240
330
71
100
AcDbEntity
  8
P-SANR-FIXT
100
AcDbBlockReference
  2
Automatic flow rate regulator valve_Caleffi_121 DN15 - 1_2__-V1-Est - Idraulica
 10
0.0
 20
0.0
 30
0.0
1001
REVIT
1002
{
1070
     1
1000
863152
1002
}
1002
{
1070
     5
1000
859151
1002
}
1002
{
1070
     2
1000
-2001160
1002
}
  0
INSERT
  5
319
330
71
100
AcDbEntity
  8
P-SANR-FIXT
100
AcDbBlockReference
  2
Automatic flow rate regulator valve_Caleffi_121 DN15 - 1_2__-V2-Est - Idraulica
 10
0.0
 20
0.0
 30
0.0
1001
REVIT
1002
{
1070
     1
1000
863172
1002
}
1002
{
1070
     5
1000
859151
1002
}
1002
{
1070
     2
1000
-2001160
1002
}
  0
ENDSEC
  0
SECTION
  2
OBJECTS
  0
DICTIONARY
  5
C
330
0
100
AcDbDictionary
281
     1
  3
ACAD_CIP_PREVIOUS_PRODUCT_INFO
350
7A
  3
ACAD_COLOR
350
63
  3
ACAD_DETAILVIEWSTYLE
350
6B
  3
ACAD_GROUP
350
D
  3
ACAD_IMAGE_VARS
350
7B
  3
ACAD_LAYOUT
350
62
  3
ACAD_MATERIAL
350
10
  3
ACAD_MLEADERSTYLE
350
66
  3
ACAD_MLINESTYLE
350
5F
  3
ACAD_PLOTSETTINGS
350
61
  3
ACAD_PLOTSTYLENAME
350
E
  3
ACAD_SCALELIST
350
42
  3
ACAD_SECTIONVIEWSTYLE
350
68
  3
ACAD_TABLESTYLE
350
64
  3
ACAD_VISUALSTYLE
350
29
  3
ACDB_RECOMPOSE_DATA
350
324
  3
AcDbVariableDictionary
350
7C
  3
REVIT_DICTIONARY
350
31B
  0
DICTIONARY
  5
320
330
71
100
AcDbDictionary
280
     1
281
     1
  3
ACAD_SORTENTS
360
321
  0
XRECORD
  5
7A
102
{ACAD_REACTORS
330
C
102
}
330
C
100
AcDbXrecord
280
     1
300
RVT
300
2013
300
RVT2013
  0
DICTIONARY
  5
63
102
{ACAD_REACTORS
330
C
102
}
330
C
100
AcDbDictionary
281
     1
  0
DICTIONARY
  5
6B
102
{ACAD_REACTORS
330
C
102
}
330
C
100
AcDbDictionary
281
     1
  3
Imperial24
350
6C
  0
DICTIONARY
  5
D
102
{ACAD_REACTORS
330
C
102
}
330
C
100
AcDbDictionary
281
     1
  0
RASTERVARIABLES
  5
7B
102
{ACAD_REACTORS
330
C
102
}
330
C
100
AcDbRasterVariables
 90
        0
 70
     0
 71
     1
 72
     1
  0
DICTIONARY
  5
62
102
{ACAD_REACTORS
330
C
102
}
330
C
100
AcDbDictionary
281
     1
  3
Layout1
350
70
  3
Layout2
350
78
  3
Model
350
74
  0
DICTIONARY
  5
10
102
{ACAD_REACTORS
330
C
102
}
330
C
100
AcDbDictionary
281
     1
  3
ByBlock
350
19
  3
ByLayer
350
11
  3
Global
350
21
  0
DICTIONARY
  5
66
102
{ACAD_REACTORS
330
C
102
}
330
C
100
AcDbDictionary
281
     1
  3
Standard
350
67
  0
DICTIONARY
  5
5F
102
{ACAD_REACTORS
330
C
102
}
330
C
100
AcDbDictionary
281
     1
  3
Standard
350
60
  0
DICTIONARY
  5
61
102
{ACAD_REACTORS
330
C
102
}
330
C
100
AcDbDictionary
281
     1
  0
ACDBDICTIONARYWDFLT
  5
E
102
{ACAD_REACTORS
330
C
102
}
330
C
100
AcDbDictionary
281
     1
  3
Normal
350
F
100
AcDbDictionaryWithDefault
340
F
  0
DICTIONARY
  5
42
102
{ACAD_REACTORS
330
C
102
}
330
C
100
AcDbDictionary
281
     1
  3
A0
350
43
  3
A1
350
44
  3
A2
350
45
  3
A3
350
46
  3
A4
350
47
  3
A5
350
48
  3
A6
350
49
  3
A7
350
4A
  3
A8
350
4B
  3
A9
350
4C
  3
B0
350
4D
  3
B1
350
4E
  3
B2
350
4F
  3
B3
350
50
  3
B4
350
51
  3
B5
350
52
  3
B6
350
53
  0
DICTIONARY
  5
68
102
{ACAD_REACTORS
330
C
102
}
330
C
100
AcDbDictionary
281
     1
  3
Imperial24
350
6A
  0
DICTIONARY
  5
64
102
{ACAD_REACTORS
330
C
102
}
330
C
100
AcDbDictionary
281
     1
  3
Standard
350
65
  0
DICTIONARY
  5
29
102
{ACAD_REACTORS
330
C
102
}
330
C
100
AcDbDictionary
281
     1
  3
2dWireframe
350
2F
  3
Basic
350
2E
  3
Brighten
350
35
  3
ColorChange
350
39
  3
Conceptual
350
32
  3
Dim
350
34
  3
EdgeColorOff
350
41
  3
Facepattern
350
38
  3
Flat
350
2A
  3
FlatWithEdges
350
2B
  3
Gouraud
350
2C
  3
GouraudWithEdges
350
2D
  3
Hidden
350
31
  3
JitterOff
350
3F
  3
Linepattern
350
37
  3
OverhangOff
350
40
  3
Realistic
350
33
  3
Shaded
350
3E
  3
Shaded with edges
350
3D
  3
Shades of Gray
350
3A
  3
Sketchy
350
3B
  3
Thicken
350
36
  3
Wireframe
350
30
  3
X-Ray
350
3C
  0
XRECORD
  5
324
102
{ACAD_REACTORS
330
C
102
}
330
C
100
AcDbXrecord
280
     1
 90
        1
330
65
  0
DICTIONARY
  5
7C
102
{ACAD_REACTORS
330
C
102
}
330
C
100
AcDbDictionary
281
     1
  3
CANNOSCALE
350
81
  3
CMLEADERSTYLE
350
7E
  3
CTABLESTYLE
350
7D
  3
CVIEWDETAILSTYLE
350
7F
  3
CVIEWSECTIONSTYLE
350
80
  0
DICTIONARY
  5
31B
102
{ACAD_REACTORS
330
C
102
}
330
C
100
AcDbDictionary
281
     1
  3
DRAWING_TOOL
350
31F
  3
REVIT_CATEGORY_MAPPING
350
31D
  3
REVIT_SUB_CATEGORY_MAPPING
350
31E
  3
REVIT_TYPE_MAPPING
350
31C
  0
SORTENTSTABLE
  5
321
102
{ACAD_REACTORS
330
320
102
}
330
320
100
AcDbSortentsTable
330
71
  0
ACDBDETAILVIEWSTYLE
  5
6C
102
{ACAD_REACTORS
330
6B
102
}
330
6B
100
AcDbModelDocViewStyle
 70
     0
  3
Imperial24
290
     1
100
AcDbDetailViewStyle
 70
     0
 71
     0
 90
        3
 71
     1
340
55
 62
   256
 40
0.24
340
0
 62
   256
 40
0.24
300

 40
0.36
280
     3
 71
     2
340
5D
 90
       25
 62
   256
 71
     3
340
55
 62
   256
 40
0.24
 90
        1
 40
0.75
 90
        1
300
%<\AcVar ViewType \f "%tc1">% %<\AcVar ViewDetailId>%\PSCALA %<\AcVar ViewScale \f "%sn">%
 71
     4
340
5D
 90
       25
 62
   256
340
5D
 90
       25
 62
   256
280
     0
  0
LAYOUT
  5
70
102
{ACAD_REACTORS
330
62
102
}
330
62
100
AcDbPlotSettings
  1

  2

  4

  6

 40
0.0
 41
0.0
 42
0.0
 43
0.0
 44
0.0
 45
0.0
 46
0.0
 47
0.0
 48
0.0
 49
0.0
140
0.0
141
0.0
142
1.0
143
1.0
 70
   688
 72
     0
 73
     0
 74
     5
  7

 75
    16
147
1.0
 76
     0
 77
     2
 78
   300
148
0.0
149
0.0
100
AcDbLayout
  1
Layout1
 70
     1
 71
     1
 10
0.0
 20
0.0
 11
12.0
 21
9.0
 12
0.0
 22
0.0
 32
0.0
 14
0.0
 24
0.0
 34
0.0
 15
0.0
 25
0.0
 35
0.0
146
0.0
 13
0.0
 23
0.0
 33
0.0
 16
1.0
 26
0.0
 36
0.0
 17
0.0
 27
1.0
 37
0.0
 76
     0
330
6D
  0
LAYOUT
  5
78
102
{ACAD_REACTORS
330
62
102
}
330
62
100
AcDbPlotSettings
  1

  2

  4

  6

 40
0.0
 41
0.0
 42
0.0
 43
0.0
 44
0.0
 45
0.0
 46
0.0
 47
0.0
 48
0.0
 49
0.0
140
0.0
141
0.0
142
1.0
143
1.0
 70
   688
 72
     0
 73
     0
 74
     5
  7

 75
    16
147
1.0
 76
     0
 77
     2
 78
   300
148
0.0
149
0.0
100
AcDbLayout
  1
Layout2
 70
     1
 71
     2
 10
0.0
 20
0.0
 11
12.0
 21
9.0
 12
0.0
 22
0.0
 32
0.0
 14
0.0
 24
0.0
 34
0.0
 15
0.0
 25
0.0
 35
0.0
146
0.0
 13
0.0
 23
0.0
 33
0.0
 16
1.0
 26
0.0
 36
0.0
 17
0.0
 27
1.0
 37
0.0
 76
     0
330
75
  0
LAYOUT
  5
74
102
{ACAD_REACTORS
330
62
102
}
330
62
100
AcDbPlotSettings
  1

  2

  4

  6

 40
0.0
 41
0.0
 42
0.0
 43
0.0
 44
0.0
 45
0.0
 46
0.0
 47
0.0
 48
0.0
 49
0.0
140
0.0
141
0.0
142
1.0
143
1.0
 70
  1712
 72
     0
 73
     0
 74
     0
  7

 75
     0
147
1.0
 76
     0
 77
     2
 78
   300
148
0.0
149
0.0
100
AcDbLayout
  1
Model
 70
     1
 71
     0
 10
0.0
 20
0.0
 11
12.0
 21
9.0
 12
0.0
 22
0.0
 32
0.0
 14
0.0
 24
0.0
 34
0.0
 15
0.0
 25
0.0
 35
0.0
146
0.0
 13
0.0
 23
0.0
 33
0.0
 16
1.0
 26
0.0
 36
0.0
 17
0.0
 27
1.0
 37
0.0
 76
     0
330
71
  0
MATERIAL
  5
19
102
{ACAD_XDICTIONARY
360
1A
102
}
102
{ACAD_REACTORS
330
10
102
}
330
10
100
AcDbMaterial
  1
ByBlock
 72
     0
 43
0.0208333333333333
 43
0.0
 43
0.0
 43
0.0
 43
0.0
 43
0.0208333333333333
 43
0.0
 43
0.0
 43
0.0
 43
0.0
 43
1.0
 43
0.0
 43
0.0
 43
0.0
 43
0.0
 43
1.0
 77
     0
 47
0.0208333333333333
 47
0.0
 47
0.0
 47
0.0
 47
0.0
 47
0.0208333333333333
 47
0.0
 47
0.0
 47
0.0
 47
0.0
 47
1.0
 47
0.0
 47
0.0
 47
0.0
 47
0.0
 47
1.0
171
     0
 49
0.0208333333333333
 49
0.0
 49
0.0
 49
0.0
 49
0.0
 49
0.0208333333333333
 49
0.0
 49
0.0
 49
0.0
 49
0.0
 49
1.0
 49
0.0
 49
0.0
 49
0.0
 49
0.0
 49
1.0
175
     0
142
0.0208333333333333
142
0.0
142
0.0
142
0.0
142
0.0
142
0.0208333333333333
142
0.0
142
0.0
142
0.0
142
0.0
142
1.0
142
0.0
142
0.0
142
0.0
142
0.0
142
1.0
179
     0
144
0.0208333333333333
144
0.0
144
0.0
144
0.0
144
0.0
144
0.0208333333333333
144
0.0
144
0.0
144
0.0
144
0.0
144
1.0
144
0.0
144
0.0
144
0.0
144
0.0
144
1.0
147
0.0208333333333333
147
0.0
147
0.0
147
0.0
147
0.0
147
0.0208333333333333
147
0.0
147
0.0
147
0.0
147
0.0
147
1.0
147
0.0
147
0.0
147
0.0
147
0.0
147
1.0
  0
MATERIAL
  5
11
102
{ACAD_XDICTIONARY
360
12
102
}
102
{ACAD_REACTORS
330
10
102
}
330
10
100
AcDbMaterial
  1
ByLayer
 72
     0
 43
0.0208333333333333
 43
0.0
 43
0.0
 43
0.0
 43
0.0
 43
0.0208333333333333
 43
0.0
 43
0.0
 43
0.0
 43
0.0
 43
1.0
 43
0.0
 43
0.0
 43
0.0
 43
0.0
 43
1.0
 77
     0
 47
0.0208333333333333
 47
0.0
 47
0.0
 47
0.0
 47
0.0
 47
0.0208333333333333
 47
0.0
 47
0.0
 47
0.0
 47
0.0
 47
1.0
 47
0.0
 47
0.0
 47
0.0
 47
0.0
 47
1.0
171
     0
 49
0.0208333333333333
 49
0.0
 49
0.0
 49
0.0
 49
0.0
 49
0.0208333333333333
 49
0.0
 49
0.0
 49
0.0
 49
0.0
 49
1.0
 49
0.0
 49
0.0
 49
0.0
 49
0.0
 49
1.0
175
     0
142
0.0208333333333333
142
0.0
142
0.0
142
0.0
142
0.0
142
0.0208333333333333
142
0.0
142
0.0
142
0.0
142
0.0
142
1.0
142
0.0
142
0.0
142
0.0
142
0.0
142
1.0
179
     0
144
0.0208333333333333
144
0.0
144
0.0
144
0.0
144
0.0
144
0.0208333333333333
144
0.0
144
0.0
144
0.0
144
0.0
144
1.0
144
0.0
144
0.0
144
0.0
144
0.0
144
1.0
147
0.0208333333333333
147
0.0
147
0.0
147
0.0
147
0.0
147
0.0208333333333333
147
0.0
147
0.0
147
0.0
147
0.0
147
1.0
147
0.0
147
0.0
147
0.0
147
0.0
147
1.0
  0
MATERIAL
  5
21
102
{ACAD_XDICTIONARY
360
22
102
}
102
{ACAD_REACTORS
330
10
102
}
330
10
100
AcDbMaterial
  1
Global
 72
     0
 43
0.0208333333333333
 43
0.0
 43
0.0
 43
0.0
 43
0.0
 43
0.0208333333333333
 43
0.0
 43
0.0
 43
0.0
 43
0.0
 43
1.0
 43
0.0
 43
0.0
 43
0.0
 43
0.0
 43
1.0
 77
     0
 47
0.0208333333333333
 47
0.0
 47
0.0
 47
0.0
 47
0.0
 47
0.0208333333333333
 47
0.0
 47
0.0
 47
0.0
 47
0.0
 47
1.0
 47
0.0
 47
0.0
 47
0.0
 47
0.0
 47
1.0
171
     0
 49
0.0208333333333333
 49
0.0
 49
0.0
 49
0.0
 49
0.0
 49
0.0208333333333333
 49
0.0
 49
0.0
 49
0.0
 49
0.0
 49
1.0
 49
0.0
 49
0.0
 49
0.0
 49
0.0
 49
1.0
175
     0
142
0.0208333333333333
142
0.0
142
0.0
142
0.0
142
0.0
142
0.0208333333333333
142
0.0
142
0.0
142
0.0
142
0.0
142
1.0
142
0.0
142
0.0
142
0.0
142
0.0
142
1.0
179
     0
144
0.0208333333333333
144
0.0
144
0.0
144
0.0
144
0.0
144
0.0208333333333333
144
0.0
144
0.0
144
0.0
144
0.0
144
1.0
144
0.0
144
0.0
144
0.0
144
0.0
144
1.0
147
0.0208333333333333
147
0.0
147
0.0
147
0.0
147
0.0
147
0.0208333333333333
147
0.0
147
0.0
147
0.0
147
0.0
147
1.0
147
0.0
147
0.0
147
0.0
147
0.0
147
1.0
  0
MLEADERSTYLE
  5
67
102
{ACAD_REACTORS
330
66
102
}
330
66
100
AcDbMLeaderStyle
179
     2
170
     2
171
     1
172
     0
 90
        2
 40
0.0
 41
0.0
173
     1
 91
-1056964608
340
5B
 92
       -2
290
     1
 42
0.09
291
     1
 43
0.36
  3
Standard
 44
0.18
300

342
55
174
     1
178
     6
175
     1
176
     0
 93
-1056964608
 45
0.18
292
     0
297
     0
 46
0.18
 94
-1056964608
 47
1.0
 49
1.0
140
1.0
293
     1
141
0.0
294
     1
177
     0
142
1.0
295
     1
296
     0
143
0.125
271
     0
272
     9
273
     9
298
     1
  0
MLINESTYLE
  5
60
102
{ACAD_REACTORS
330
5F
102
}
330
5F
100
AcDbMlineStyle
  2
STANDARD
 70
     0
  3

 62
   256
 51
90.0
 52
90.0
 71
     2
 49
0.5
 62
   256
  6
BYLAYER
 49
-0.5
 62
   256
  6
BYLAYER
  0
ACDBPLACEHOLDER
  5
F
102
{ACAD_REACTORS
330
E
102
}
330
E
  0
SCALE
  5
43
102
{ACAD_REACTORS
330
42
102
}
330
42
100
AcDbScale
 70
     0
300
1:1
140
1.0
141
1.0
290
     1
  0
SCALE
  5
44
102
{ACAD_REACTORS
330
42
102
}
330
42
100
AcDbScale
 70
     0
300
1/128" = 1'-0"
140
0.0078125
141
12.0
290
     0
  0
SCALE
  5
45
102
{ACAD_REACTORS
330
42
102
}
330
42
100
AcDbScale
 70
     0
300
1/64" = 1'-0"
140
0.015625
141
12.0
290
     0
  0
SCALE
  5
46
102
{ACAD_REACTORS
330
42
102
}
330
42
100
AcDbScale
 70
     0
300
1/32" = 1'-0"
140
0.03125
141
12.0
290
     0
  0
SCALE
  5
47
102
{ACAD_REACTORS
330
42
102
}
330
42
100
AcDbScale
 70
     0
300
1/16" = 1'-0"
140
0.0625
141
12.0
290
     0
  0
SCALE
  5
48
102
{ACAD_REACTORS
330
42
102
}
330
42
100
AcDbScale
 70
     0
300
3/32" = 1'-0"
140
0.09375
141
12.0
290
     0
  0
SCALE
  5
49
102
{ACAD_REACTORS
330
42
102
}
330
42
100
AcDbScale
 70
     0
300
1/8" = 1'-0"
140
0.125
141
12.0
290
     0
  0
SCALE
  5
4A
102
{ACAD_REACTORS
330
42
102
}
330
42
100
AcDbScale
 70
     0
300
3/16" = 1'-0"
140
0.1875
141
12.0
290
     0
  0
SCALE
  5
4B
102
{ACAD_REACTORS
330
42
102
}
330
42
100
AcDbScale
 70
     0
300
1/4" = 1'-0"
140
0.25
141
12.0
290
     0
  0
SCALE
  5
4C
102
{ACAD_REACTORS
330
42
102
}
330
42
100
AcDbScale
 70
     0
300
3/8" = 1'-0"
140
0.375
141
12.0
290
     0
  0
SCALE
  5
4D
102
{ACAD_REACTORS
330
42
102
}
330
42
100
AcDbScale
 70
     0
300
1/2" = 1'-0"
140
0.5
141
12.0
290
     0
  0
SCALE
  5
4E
102
{ACAD_REACTORS
330
42
102
}
330
42
100
AcDbScale
 70
     0
300
3/4" = 1'-0"
140
0.75
141
12.0
290
     0
  0
SCALE
  5
4F
102
{ACAD_REACTORS
330
42
102
}
330
42
100
AcDbScale
 70
     0
300
1" = 1'-0"
140
1.0
141
12.0
290
     0
  0
SCALE
  5
50
102
{ACAD_REACTORS
330
42
102
}
330
42
100
AcDbScale
 70
     0
300
1-1/2" = 1'-0"
140
1.5
141
12.0
290
     0
  0
SCALE
  5
51
102
{ACAD_REACTORS
330
42
102
}
330
42
100
AcDbScale
 70
     0
300
3" = 1'-0"
140
3.0
141
12.0
290
     0
  0
SCALE
  5
52
102
{ACAD_REACTORS
330
42
102
}
330
42
100
AcDbScale
 70
     0
300
6" = 1'-0"
140
6.0
141
12.0
290
     0
  0
SCALE
  5
53
102
{ACAD_REACTORS
330
42
102
}
330
42
100
AcDbScale
 70
     0
300
1'-0" = 1'-0"
140
12.0
141
12.0
290
     0
  0
ACDBSECTIONVIEWSTYLE
  5
6A
102
{ACAD_REACTORS
330
68
102
}
330
68
100
AcDbModelDocViewStyle
 70
     0
  3
Imperial24
290
     1
100
AcDbSectionViewStyle
 70
     0
 71
     0
 90
       78
 71
     1
340
55
 62
   256
 40
0.24
340
0
340
0
 62
   256
 40
0.24
300
I, O, Q, S, X, Z
 40
0.48
 90
        3
 40
0.18
 90
        1
 71
     2
340
69
 90
       25
 62
   256
340
5D
 90
       50
 62
   256
 40
0.24
 40
0.0
 40
0.24
 71
     3
340
55
 62
   256
 40
0.24
 90
        1
 40
0.75
 90
        1
300
%<\AcVar ViewType \f "%tc1">% %<\AcVar ViewSectionStartId>%-%<\AcVar ViewSectionEndId>%\PSCALA %<\AcVar ViewScale \f "%sn">%
 71
     4
 62
   256
 62
   257
300
ANSI31
 40
1.0
 90
        0
290
     0
290
     0
 90
        6
 40
0.0
 40
1.570796326794896
 40
0.2617993877991494
 40
1.308996938995747
 40
-0.2617993877991494
 40
1.832595714594046
  0
TABLESTYLE
  5
65
102
{ACAD_XDICTIONARY
360
322
102
}
102
{ACAD_REACTORS
330
64
102
}
330
64
100
AcDbTableStyle
280
     0
  3
Standard
 70
     0
 71
     0
 40
0.06
 41
0.06
280
     0
281
     0
  7
Standard
140
0.18
170
     2
 62
     0
 63
     7
283
     0
 90
      512
 91
        0
  1

274
    -2
284
     1
 64
     0
275
    -2
285
     1
 65
     0
276
    -2
286
     1
 66
     0
277
    -2
287
     1
 67
     0
278
    -2
288
     1
 68
     0
279
    -2
289
     1
 69
     0
  7
Standard
140
0.25
170
     5
 62
     0
 63
     7
283
     0
 90
      512
 91
        0
  1

274
    -2
284
     1
 64
     0
275
    -2
285
     1
 65
     0
276
    -2
286
     1
 66
     0
277
    -2
287
     1
 67
     0
278
    -2
288
     1
 68
     0
279
    -2
289
     1
 69
     0
  7
Standard
140
0.18
170
     5
 62
     0
 63
     7
283
     0
 90
      512
 91
        0
  1

274
    -2
284
     1
 64
     0
275
    -2
285
     1
 65
     0
276
    -2
286
     1
 66
     0
277
    -2
287
     1
 67
     0
278
    -2
288
     1
 68
     0
279
    -2
289
     1
 69
     0
  0
VISUALSTYLE
  5
2F
102
{ACAD_REACTORS
330
29
102
}
330
29
100
AcDbVisualStyle
  2
2dWireframe
 70
     4
177
     3
291
     0
 70
    58
 90
        0
176
     1
 90
        2
176
     1
 90
        0
176
     1
 90
        0
176
     1
 40
0.6
176
     1
 40
30.0
176
     1
 62
     7
420
 16777215
176
     1
 90
        1
176
     1
 90
        4
176
     1
 62
     7
176
     1
 62
   257
176
     1
 90
        1
176
     1
 90
        1
176
     1
 40
1.0
176
     1
 90
        0
176
     1
 62
   257
176
     1
 40
1.0
176
     1
 90
        1
176
     1
 90
        6
176
     1
 90
        2
176
     1
 62
     7
176
     1
 90
        5
176
     1
 90
        0
176
     1
 90
        0
176
     1
290
     0
176
     1
 90
        1
176
     1
 40
0.0
176
     1
 90
        0
176
     1
290
     1
176
     1
290
     1
176
     1
290
     0
176
     1
290
     0
176
     1
290
     0
176
     1
290
     0
176
     1
290
     0
176
     1
290
     0
176
     1
290
     0
176
     1
 90
       50
176
     1
 40
0.0
176
     1
 40
1.0
176
     1
 90
        0
176
     1
 62
    18
420
        0
176
     1
 90
       50
176
     1
 90
        3
176
     1
 62
     5
420
      255
176
     1
290
     0
176
     1
 90
       50
176
     1
 90
       50
176
     1
 90
       50
176
     1
290
     0
176
     1
 90
       50
176
     1
 62
   256
176
     0
 40
1.0
176
     0
 90
        2
176
     1
  1
strokes_ogs.tif
176
     1
290
     0
176
     1
 40
1.0
176
     1
 40
1.0
176
     1
  0
VISUALSTYLE
  5
2E
102
{ACAD_REACTORS
330
29
102
}
330
29
100
AcDbVisualStyle
  2
Basic
 70
     7
177
     3
291
     1
 70
    58
 90
        1
176
     1
 90
        0
176
     1
 90
        1
176
     1
 90
        0
176
     1
 40
0.6
176
     1
 40
30.0
176
     1
 62
     7
420
 16777215
176
     1
 90
        0
176
     1
 90
        4
176
     1
 62
     7
176
     1
 62
   257
176
     1
 90
        1
176
     1
 90
        1
176
     1
 40
1.0
176
     1
 90
        8
176
     1
 62
     7
176
     1
 40
1.0
176
     1
 90
        1
176
     1
 90
        6
176
     1
 90
        2
176
     1
 62
     7
176
     1
 90
        5
176
     1
 90
        0
176
     1
 90
        0
176
     1
290
     0
176
     1
 90
        1
176
     1
 40
0.0
176
     1
 90
        0
176
     1
290
     0
176
     1
290
     1
176
     1
290
     1
176
     1
290
     0
176
     1
290
     0
176
     1
290
     0
176
     1
290
     0
176
     1
290
     0
176
     1
290
     0
176
     1
 90
       50
176
     1
 40
0.0
176
     1
 40
1.0
176
     1
 90
        0
176
     1
 62
    18
420
        0
176
     1
 90
       50
176
     1
 90
        3
176
     1
 62
     5
420
      255
176
     1
290
     0
176
     1
 90
       50
176
     1
 90
       50
176
     1
 90
       50
176
     1
290
     0
176
     1
 90
       50
176
     1
 62
   256
176
     0
 40
1.0
176
     0
 90
        2
176
     1
  1
strokes_ogs.tif
176
     1
290
     0
176
     1
 40
1.0
176
     1
 40
1.0
176
     1
  0
VISUALSTYLE
  5
35
102
{ACAD_REACTORS
330
29
102
}
330
29
100
AcDbVisualStyle
  2
Brighten
 70
    12
177
     3
291
     1
 70
    58
 90
        2
176
     1
 90
        2
176
     1
 90
        0
176
     1
 90
        0
176
     1
 40
0.6
176
     1
 40
30.0
176
     1
 62
     7
420
 16777215
176
     1
 90
        1
176
     1
 90
        4
176
     1
 62
     7
176
     1
 62
   257
176
     1
 90
        1
176
     1
 90
        1
176
     1
 40
1.0
176
     1
 90
        8
176
     1
 62
     7
176
     1
 40
1.0
176
     1
 90
        1
176
     1
 90
        6
176
     1
 90
        2
176
     1
 62
     7
176
     1
 90
        5
176
     1
 90
        0
176
     1
 90
        0
176
     1
290
     0
176
     1
 90
        1
176
     1
 40
50.0
176
     1
 90
        0
176
     1
290
     0
176
     1
290
     1
176
     1
290
     1
176
     1
290
     0
176
     1
290
     0
176
     1
290
     0
176
     1
290
     0
176
     1
290
     0
176
     1
290
     0
176
     1
 90
       50
176
     1
 40
0.0
176
     1
 40
1.0
176
     1
 90
        0
176
     1
 62
    18
420
        0
176
     1
 90
       50
176
     1
 90
        3
176
     1
 62
     5
420
      255
176
     1
290
     0
176
     1
 90
       50
176
     1
 90
       50
176
     1
 90
       50
176
     1
290
     0
176
     1
 90
       50
176
     1
 62
   256
176
     0
 40
1.0
176
     0
 90
        2
176
     1
  1
strokes_ogs.tif
176
     1
290
     0
176
     1
 40
1.0
176
     1
 40
1.0
176
     1
  0
VISUALSTYLE
  5
39
102
{ACAD_REACTORS
330
29
102
}
330
29
100
AcDbVisualStyle
  2
ColorChange
 70
    16
177
     3
291
     1
 70
    58
 90
        2
176
     1
 90
        2
176
     1
 90
        3
176
     1
 90
        0
176
     1
 40
0.6
176
     1
 40
30.0
176
     1
 62
     8
420
  8421504
176
     1
 90
        1
176
     1
 90
        4
176
     1
 62
     7
176
     1
 62
   257
176
     1
 90
        1
176
     1
 90
        1
176
     1
 40
1.0
176
     1
 90
        8
176
     1
 62
     8
420
  8421504
176
     1
 40
1.0
176
     1
 90
        1
176
     1
 90
        6
176
     1
 90
        2
176
     1
 62
     7
176
     1
 90
        5
176
     1
 90
        0
176
     1
 90
        0
176
     1
290
     0
176
     1
 90
        1
176
     1
 40
0.0
176
     1
 90
        0
176
     1
290
     0
176
     1
290
     1
176
     1
290
     1
176
     1
290
     0
176
     1
290
     0
176
     1
290
     0
176
     1
290
     0
176
     1
290
     0
176
     1
290
     0
176
     1
 90
       50
176
     1
 40
0.0
176
     1
 40
1.0
176
     1
 90
        0
176
     1
 62
    18
420
        0
176
     1
 90
       50
176
     1
 90
        3
176
     1
 62
     5
420
      255
176
     1
290
     0
176
     1
 90
       50
176
     1
 90
       50
176
     1
 90
       50
176
     1
290
     0
176
     1
 90
       50
176
     1
 62
   256
176
     0
 40
1.0
176
     0
 90
        2
176
     1
  1
strokes_ogs.tif
176
     1
290
     0
176
     1
 40
1.0
176
     1
 40
1.0
176
     1
  0
VISUALSTYLE
  5
32
102
{ACAD_REACTORS
330
29
102
}
330
29
100
AcDbVisualStyle
  2
Conceptual
 70
     9
177
     3
291
     0
 70
    58
 90
        3
176
     1
 90
        2
176
     1
 90
        0
176
     1
 90
        0
176
     1
 40
0.6
176
     1
 40
30.0
176
     1
 62
     7
420
 16777215
176
     1
 90
        2
176
     1
 90
        2
176
     1
 62
     7
176
     1
 62
   257
176
     1
 90
        1
176
     1
 90
        1
176
     1
 40
179.0
176
     1
 90
        8
176
     1
 62
     7
176
     1
 40
1.0
176
     1
 90
        1
176
     1
 90
        6
176
     1
 90
        2
176
     1
 62
     7
176
     1
 90
        3
176
     1
 90
        0
176
     1
 90
        0
176
     1
290
     0
176
     1
 90
        1
176
     1
 40
0.0
176
     1
 90
        0
176
     1
290
     0
176
     1
290
     1
176
     1
290
     1
176
     1
290
     0
176
     1
290
     0
176
     1
290
     0
176
     1
290
     0
176
     1
290
     0
176
     1
290
     0
176
     1
 90
       50
176
     1
 40
0.0
176
     1
 40
1.0
176
     1
 90
        0
176
     1
 62
    18
420
        0
176
     1
 90
       50
176
     1
 90
        3
176
     1
 62
     5
420
      255
176
     1
290
     0
176
     1
 90
       50
176
     1
 90
       50
176
     1
 90
       50
176
     1
290
     0
176
     1
 90
       50
176
     1
 62
   256
176
     0
 40
1.0
176
     0
 90
        2
176
     1
  1
strokes_ogs.tif
176
     1
290
     0
176
     1
 40
1.0
176
     1
 40
1.0
176
     1
  0
VISUALSTYLE
  5
34
102
{ACAD_REACTORS
330
29
102
}
330
29
100
AcDbVisualStyle
  2
Dim
 70
    11
177
     3
291
     1
 70
    58
 90
        2
176
     1
 90
        2
176
     1
 90
        0
176
     1
 90
        0
176
     1
 40
0.6
176
     1
 40
30.0
176
     1
 62
     7
420
 16777215
176
     1
 90
        1
176
     1
 90
        4
176
     1
 62
     7
176
     1
 62
   257
176
     1
 90
        1
176
     1
 90
        1
176
     1
 40
1.0
176
     1
 90
        8
176
     1
 62
     7
176
     1
 40
1.0
176
     1
 90
        1
176
     1
 90
        6
176
     1
 90
        2
176
     1
 62
     7
176
     1
 90
        5
176
     1
 90
        0
176
     1
 90
        0
176
     1
290
     0
176
     1
 90
        1
176
     1
 40
-50.0
176
     1
 90
        0
176
     1
290
     0
176
     1
290
     1
176
     1
290
     1
176
     1
290
     0
176
     1
290
     0
176
     1
290
     0
176
     1
290
     0
176
     1
290
     0
176
     1
290
     0
176
     1
 90
       50
176
     1
 40
0.0
176
     1
 40
1.0
176
     1
 90
        0
176
     1
 62
    18
420
        0
176
     1
 90
       50
176
     1
 90
        3
176
     1
 62
     5
420
      255
176
     1
290
     0
176
     1
 90
       50
176
     1
 90
       50
176
     1
 90
       50
176
     1
290
     0
176
     1
 90
       50
176
     1
 62
   256
176
     0
 40
1.0
176
     0
 90
        2
176
     1
  1
strokes_ogs.tif
176
     1
290
     0
176
     1
 40
1.0
176
     1
 40
1.0
176
     1
  0
VISUALSTYLE
  5
41
102
{ACAD_REACTORS
330
29
102
}
330
29
100
AcDbVisualStyle
  2
EdgeColorOff
 70
    22
177
     3
291
     1
 70
    58
 90
        2
176
     0
 90
        2
176
     0
 90
        0
176
     0
 90
        0
176
     0
 40
0.6
176
     0
 40
30.0
176
     0
 62
     7
420
 16777215
176
     0
 90
        1
176
     0
 90
        4
176
     0
 62
     7
176
     0
 62
   257
176
     0
 90
        1
176
     0
 90
        1
176
     0
 40
1.0
176
     0
 90
        8
176
     2
 62
     7
176
     0
 40
1.0
176
     0
 90
        1
176
     0
 90
        6
176
     0
 90
        2
176
     0
 62
     7
176
     0
 90
        5
176
     0
 90
        0
176
     0
 90
        0
176
     0
290
     0
176
     0
 90
        1
176
     0
 40
0.0
176
     0
 90
        0
176
     0
290
     0
176
     0
290
     1
176
     0
290
     1
176
     0
290
     0
176
     0
290
     0
176
     0
290
     0
176
     0
290
     0
176
     0
290
     0
176
     0
290
     0
176
     0
 90
       50
176
     0
 40
0.0
176
     0
 40
1.0
176
     0
 90
        0
176
     0
 62
    18
420
        0
176
     0
 90
       50
176
     0
 90
        3
176
     0
 62
     5
420
      255
176
     0
290
     0
176
     0
 90
       50
176
     0
 90
       50
176
     0
 90
       50
176
     0
290
     0
176
     0
 90
       50
176
     0
 62
   256
176
     0
 40
1.0
176
     0
 90
        2
176
     0
  1
strokes_ogs.tif
176
     0
290
     0
176
     0
 40
1.0
176
     0
 40
1.0
176
     0
  0
VISUALSTYLE
  5
38
102
{ACAD_REACTORS
330
29
102
}
330
29
100
AcDbVisualStyle
  2
Facepattern
 70
    15
177
     3
291
     1
 70
    58
 90
        2
176
     1
 90
        2
176
     1
 90
        0
176
     1
 90
        0
176
     1
 40
0.6
176
     1
 40
30.0
176
     1
 62
     7
420
 16777215
176
     1
 90
        1
176
     1
 90
        4
176
     1
 62
     7
176
     1
 62
   257
176
     1
 90
        1
176
     1
 90
        1
176
     1
 40
1.0
176
     1
 90
        8
176
     1
 62
     7
176
     1
 40
1.0
176
     1
 90
        1
176
     1
 90
        6
176
     1
 90
        2
176
     1
 62
     7
176
     1
 90
        5
176
     1
 90
        0
176
     1
 90
        0
176
     1
290
     0
176
     1
 90
        1
176
     1
 40
0.0
176
     1
 90
        0
176
     1
290
     0
176
     1
290
     1
176
     1
290
     1
176
     1
290
     0
176
     1
290
     0
176
     1
290
     0
176
     1
290
     0
176
     1
290
     0
176
     1
290
     0
176
     1
 90
       50
176
     1
 40
0.0
176
     1
 40
1.0
176
     1
 90
        0
176
     1
 62
    18
420
        0
176
     1
 90
       50
176
     1
 90
        3
176
     1
 62
     5
420
      255
176
     1
290
     0
176
     1
 90
       50
176
     1
 90
       50
176
     1
 90
       50
176
     1
290
     0
176
     1
 90
       50
176
     1
 62
   256
176
     0
 40
1.0
176
     0
 90
        2
176
     1
  1
strokes_ogs.tif
176
     1
290
     0
176
     1
 40
1.0
176
     1
 40
1.0
176
     1
  0
VISUALSTYLE
  5
2A
102
{ACAD_REACTORS
330
29
102
}
330
29
100
AcDbVisualStyle
  2
Flat
 70
     0
177
     3
291
     1
 70
    58
 90
        2
176
     1
 90
        1
176
     1
 90
        1
176
     1
 90
        2
176
     1
 40
0.6
176
     1
 40
30.0
176
     1
 62
     7
420
 16777215
176
     1
 90
        0
176
     1
 90
        0
176
     1
 62
     7
176
     1
 62
   257
176
     1
 90
        1
176
     1
 90
        1
176
     1
 40
1.0
176
     1
 90
        8
176
     1
 62
     7
176
     1
 40
1.0
176
     1
 90
        1
176
     1
 90
        6
176
     1
 90
        2
176
     1
 62
     7
176
     1
 90
        5
176
     1
 90
        0
176
     1
 90
        0
176
     1
290
     0
176
     1
 90
       13
176
     1
 40
0.0
176
     1
 90
        0
176
     1
290
     0
176
     1
290
     1
176
     1
290
     1
176
     1
290
     0
176
     1
290
     0
176
     1
290
     0
176
     1
290
     0
176
     1
290
     0
176
     1
290
     0
176
     1
 90
       50
176
     1
 40
0.0
176
     1
 40
1.0
176
     1
 90
        0
176
     1
 62
    18
420
        0
176
     1
 90
       50
176
     1
 90
        3
176
     1
 62
     5
420
      255
176
     1
290
     0
176
     1
 90
       50
176
     1
 90
       50
176
     1
 90
       50
176
     1
290
     0
176
     1
 90
       50
176
     1
 62
   256
176
     0
 40
1.0
176
     0
 90
        2
176
     1
  1
strokes_ogs.tif
176
     1
290
     0
176
     1
 40
1.0
176
     1
 40
1.0
176
     1
  0
VISUALSTYLE
  5
2B
102
{ACAD_REACTORS
330
29
102
}
330
29
100
AcDbVisualStyle
  2
FlatWithEdges
 70
     1
177
     3
291
     1
 70
    58
 90
        2
176
     1
 90
        1
176
     1
 90
        1
176
     1
 90
        2
176
     1
 40
0.6
176
     1
 40
30.0
176
     1
 62
     7
420
 16777215
176
     1
 90
        1
176
     1
 90
        0
176
     1
 62
     7
176
     1
 62
   257
176
     1
 90
        1
176
     1
 90
        1
176
     1
 40
1.0
176
     1
 90
        0
176
     1
 62
   257
176
     1
 40
1.0
176
     1
 90
        1
176
     1
 90
        6
176
     1
 90
        2
176
     1
 62
     7
176
     1
 90
        5
176
     1
 90
        0
176
     1
 90
        0
176
     1
290
     0
176
     1
 90
       13
176
     1
 40
0.0
176
     1
 90
        0
176
     1
290
     0
176
     1
290
     1
176
     1
290
     1
176
     1
290
     0
176
     1
290
     0
176
     1
290
     0
176
     1
290
     0
176
     1
290
     0
176
     1
290
     0
176
     1
 90
       50
176
     1
 40
0.0
176
     1
 40
1.0
176
     1
 90
        0
176
     1
 62
    18
420
        0
176
     1
 90
       50
176
     1
 90
        3
176
     1
 62
     5
420
      255
176
     1
290
     0
176
     1
 90
       50
176
     1
 90
       50
176
     1
 90
       50
176
     1
290
     0
176
     1
 90
       50
176
     1
 62
   256
176
     0
 40
1.0
176
     0
 90
        2
176
     1
  1
strokes_ogs.tif
176
     1
290
     0
176
     1
 40
1.0
176
     1
 40
1.0
176
     1
  0
VISUALSTYLE
  5
2C
102
{ACAD_REACTORS
330
29
102
}
330
29
100
AcDbVisualStyle
  2
Gouraud
 70
     2
177
     3
291
     1
 70
    58
 90
        2
176
     1
 90
        2
176
     1
 90
        1
176
     1
 90
        2
176
     1
 40
0.6
176
     1
 40
30.0
176
     1
 62
     7
420
 16777215
176
     1
 90
        0
176
     1
 90
        0
176
     1
 62
     7
176
     1
 62
   257
176
     1
 90
        1
176
     1
 90
        1
176
     1
 40
1.0
176
     1
 90
        0
176
     1
 62
     7
176
     1
 40
1.0
176
     1
 90
        1
176
     1
 90
        6
176
     1
 90
        2
176
     1
 62
     7
176
     1
 90
        5
176
     1
 90
        0
176
     1
 90
        0
176
     1
290
     0
176
     1
 90
       13
176
     1
 40
0.0
176
     1
 90
        0
176
     1
290
     0
176
     1
290
     1
176
     1
290
     1
176
     1
290
     0
176
     1
290
     0
176
     1
290
     0
176
     1
290
     0
176
     1
290
     0
176
     1
290
     0
176
     1
 90
       50
176
     1
 40
0.0
176
     1
 40
1.0
176
     1
 90
        0
176
     1
 62
    18
420
        0
176
     1
 90
       50
176
     1
 90
        3
176
     1
 62
     5
420
      255
176
     1
290
     0
176
     1
 90
       50
176
     1
 90
       50
176
     1
 90
       50
176
     1
290
     0
176
     1
 90
       50
176
     1
 62
   256
176
     0
 40
1.0
176
     0
 90
        2
176
     1
  1
strokes_ogs.tif
176
     1
290
     0
176
     1
 40
1.0
176
     1
 40
1.0
176
     1
  0
VISUALSTYLE
  5
2D
102
{ACAD_REACTORS
330
29
102
}
330
29
100
AcDbVisualStyle
  2
GouraudWithEdges
 70
     3
177
     3
291
     1
 70
    58
 90
        2
176
     1
 90
        2
176
     1
 90
        1
176
     1
 90
        2
176
     1
 40
0.6
176
     1
 40
30.0
176
     1
 62
     7
420
 16777215
176
     1
 90
        1
176
     1
 90
        0
176
     1
 62
     7
176
     1
 62
   257
176
     1
 90
        1
176
     1
 90
        1
176
     1
 40
1.0
176
     1
 90
        0
176
     1
 62
   257
176
     1
 40
1.0
176
     1
 90
        1
176
     1
 90
        6
176
     1
 90
        2
176
     1
 62
     7
176
     1
 90
        5
176
     1
 90
        0
176
     1
 90
        0
176
     1
290
     0
176
     1
 90
       13
176
     1
 40
0.0
176
     1
 90
        0
176
     1
290
     0
176
     1
290
     1
176
     1
290
     1
176
     1
290
     0
176
     1
290
     0
176
     1
290
     0
176
     1
290
     0
176
     1
290
     0
176
     1
290
     0
176
     1
 90
       50
176
     1
 40
0.0
176
     1
 40
1.0
176
     1
 90
        0
176
     1
 62
    18
420
        0
176
     1
 90
       50
176
     1
 90
        3
176
     1
 62
     5
420
      255
176
     1
290
     0
176
     1
 90
       50
176
     1
 90
       50
176
     1
 90
       50
176
     1
290
     0
176
     1
 90
       50
176
     1
 62
   256
176
     0
 40
1.0
176
     0
 90
        2
176
     1
  1
strokes_ogs.tif
176
     1
290
     0
176
     1
 40
1.0
176
     1
 40
1.0
176
     1
  0
VISUALSTYLE
  5
31
102
{ACAD_REACTORS
330
29
102
}
330
29
100
AcDbVisualStyle
  2
Hidden
 70
     6
177
     3
291
     0
 70
    58
 90
        1
176
     1
 90
        2
176
     1
 90
        2
176
     1
 90
        0
176
     1
 40
0.6
176
     1
 40
30.0
176
     1
 62
     7
420
 16777215
176
     1
 90
        2
176
     1
 90
        2
176
     1
 62
     7
176
     1
 62
   257
176
     1
 90
        2
176
     1
 90
        1
176
     1
 40
40.0
176
     1
 90
        0
176
     1
 62
   257
176
     1
 40
1.0
176
     1
 90
        1
176
     1
 90
        6
176
     1
 90
        2
176
     1
 62
     7
176
     1
 90
        3
176
     1
 90
        0
176
     1
 90
        0
176
     1
290
     0
176
     1
 90
        1
176
     1
 40
0.0
176
     1
 90
        0
176
     1
290
     0
176
     1
290
     1
176
     1
290
     1
176
     1
290
     0
176
     1
290
     0
176
     1
290
     0
176
     1
290
     0
176
     1
290
     0
176
     1
290
     0
176
     1
 90
       50
176
     1
 40
0.0
176
     1
 40
1.0
176
     1
 90
        0
176
     1
 62
    18
420
        0
176
     1
 90
       50
176
     1
 90
        3
176
     1
 62
     5
420
      255
176
     1
290
     0
176
     1
 90
       50
176
     1
 90
       50
176
     1
 90
       50
176
     1
290
     0
176
     1
 90
       50
176
     1
 62
   256
176
     0
 40
1.0
176
     0
 90
        2
176
     1
  1
strokes_ogs.tif
176
     1
290
     0
176
     1
 40
1.0
176
     1
 40
1.0
176
     1
  0
VISUALSTYLE
  5
3F
102
{ACAD_REACTORS
330
29
102
}
330
29
100
AcDbVisualStyle
  2
JitterOff
 70
    20
177
     3
291
     1
 70
    58
 90
        2
176
     0
 90
        2
176
     0
 90
        0
176
     0
 90
        0
176
     0
 40
0.6
176
     0
 40
30.0
176
     0
 62
     7
420
 16777215
176
     0
 90
        1
176
     0
 90
        4
176
     0
 62
     7
176
     0
 62
   257
176
     0
 90
        1
176
     0
 90
        1
176
     0
 40
1.0
176
     0
 90
       10
176
     2
 62
     7
176
     0
 40
1.0
176
     0
 90
        1
176
     0
 90
        6
176
     0
 90
        2
176
     0
 62
     7
176
     0
 90
        5
176
     0
 90
        0
176
     0
 90
        0
176
     0
290
     0
176
     0
 90
        1
176
     0
 40
0.0
176
     0
 90
        0
176
     0
290
     0
176
     0
290
     1
176
     0
290
     1
176
     0
290
     0
176
     0
290
     0
176
     0
290
     0
176
     0
290
     0
176
     0
290
     0
176
     0
290
     0
176
     0
 90
       50
176
     0
 40
0.0
176
     0
 40
1.0
176
     0
 90
        0
176
     0
 62
    18
420
        0
176
     0
 90
       50
176
     0
 90
        3
176
     0
 62
     5
420
      255
176
     0
290
     0
176
     0
 90
       50
176
     0
 90
       50
176
     0
 90
       50
176
     0
290
     0
176
     0
 90
       50
176
     0
 62
   256
176
     0
 40
1.0
176
     0
 90
        2
176
     0
  1
strokes_ogs.tif
176
     0
290
     0
176
     0
 40
1.0
176
     0
 40
1.0
176
     0
  0
VISUALSTYLE
  5
37
102
{ACAD_REACTORS
330
29
102
}
330
29
100
AcDbVisualStyle
  2
Linepattern
 70
    14
177
     3
291
     1
 70
    58
 90
        2
176
     1
 90
        2
176
     1
 90
        0
176
     1
 90
        0
176
     1
 40
0.6
176
     1
 40
30.0
176
     1
 62
     7
420
 16777215
176
     1
 90
        1
176
     1
 90
        4
176
     1
 62
     7
176
     1
 62
   257
176
     1
 90
        7
176
     1
 90
        7
176
     1
 40
1.0
176
     1
 90
        8
176
     1
 62
     7
176
     1
 40
1.0
176
     1
 90
        1
176
     1
 90
        6
176
     1
 90
        2
176
     1
 62
     7
176
     1
 90
        5
176
     1
 90
        0
176
     1
 90
        0
176
     1
290
     0
176
     1
 90
        1
176
     1
 40
0.0
176
     1
 90
        0
176
     1
290
     0
176
     1
290
     1
176
     1
290
     1
176
     1
290
     0
176
     1
290
     0
176
     1
290
     0
176
     1
290
     0
176
     1
290
     0
176
     1
290
     0
176
     1
 90
       50
176
     1
 40
0.0
176
     1
 40
1.0
176
     1
 90
        0
176
     1
 62
    18
420
        0
176
     1
 90
       50
176
     1
 90
        3
176
     1
 62
     5
420
      255
176
     1
290
     0
176
     1
 90
       50
176
     1
 90
       50
176
     1
 90
       50
176
     1
290
     0
176
     1
 90
       50
176
     1
 62
   256
176
     0
 40
1.0
176
     0
 90
        2
176
     1
  1
strokes_ogs.tif
176
     1
290
     0
176
     1
 40
1.0
176
     1
 40
1.0
176
     1
  0
VISUALSTYLE
  5
40
102
{ACAD_REACTORS
330
29
102
}
330
29
100
AcDbVisualStyle
  2
OverhangOff
 70
    21
177
     3
291
     1
 70
    58
 90
        2
176
     0
 90
        2
176
     0
 90
        0
176
     0
 90
        0
176
     0
 40
0.6
176
     0
 40
30.0
176
     0
 62
     7
420
 16777215
176
     0
 90
        1
176
     0
 90
        4
176
     0
 62
     7
176
     0
 62
   257
176
     0
 90
        1
176
     0
 90
        1
176
     0
 40
1.0
176
     0
 90
        9
176
     2
 62
     7
176
     0
 40
1.0
176
     0
 90
        1
176
     0
 90
        6
176
     0
 90
        2
176
     0
 62
     7
176
     0
 90
        5
176
     0
 90
        0
176
     0
 90
        0
176
     0
290
     0
176
     0
 90
        1
176
     0
 40
0.0
176
     0
 90
        0
176
     0
290
     0
176
     0
290
     1
176
     0
290
     1
176
     0
290
     0
176
     0
290
     0
176
     0
290
     0
176
     0
290
     0
176
     0
290
     0
176
     0
290
     0
176
     0
 90
       50
176
     0
 40
0.0
176
     0
 40
1.0
176
     0
 90
        0
176
     0
 62
    18
420
        0
176
     0
 90
       50
176
     0
 90
        3
176
     0
 62
     5
420
      255
176
     0
290
     0
176
     0
 90
       50
176
     0
 90
       50
176
     0
 90
       50
176
     0
290
     0
176
     0
 90
       50
176
     0
 62
   256
176
     0
 40
1.0
176
     0
 90
        2
176
     0
  1
strokes_ogs.tif
176
     0
290
     0
176
     0
 40
1.0
176
     0
 40
1.0
176
     0
  0
VISUALSTYLE
  5
33
102
{ACAD_REACTORS
330
29
102
}
330
29
100
AcDbVisualStyle
  2
Realistic
 70
     8
177
     3
291
     0
 70
    58
 90
        2
176
     1
 90
        3
176
     1
 90
        0
176
     1
 90
        2
176
     1
 40
0.6
176
     1
 40
30.0
176
     1
 62
     7
420
 16777215
176
     1
 90
        0
176
     1
 90
        0
176
     1
 62
     7
176
     1
 62
   257
176
     1
 90
        1
176
     1
 90
        1
176
     1
 40
1.0
176
     1
 90
        8
176
     1
 62
   257
176
     1
 40
1.0
176
     1
 90
        1
176
     1
 90
        6
176
     1
 90
        2
176
     1
 62
     7
176
     1
 90
        3
176
     1
 90
        0
176
     1
 90
        0
176
     1
290
     0
176
     1
 90
       13
176
     1
 40
0.0
176
     1
 90
        0
176
     1
290
     0
176
     1
290
     1
176
     1
290
     1
176
     1
290
     0
176
     1
290
     0
176
     1
290
     0
176
     1
290
     0
176
     1
290
     0
176
     1
290
     0
176
     1
 90
       50
176
     1
 40
0.0
176
     1
 40
1.0
176
     1
 90
        0
176
     1
 62
    18
420
        0
176
     1
 90
       50
176
     1
 90
        3
176
     1
 62
     5
420
      255
176
     1
290
     0
176
     1
 90
       50
176
     1
 90
       50
176
     1
 90
       50
176
     1
290
     0
176
     1
 90
       50
176
     1
 62
   256
176
     0
 40
1.0
176
     0
 90
        2
176
     1
  1
strokes_ogs.tif
176
     1
290
     0
176
     1
 40
1.0
176
     1
 40
1.0
176
     1
  0
VISUALSTYLE
  5
3E
102
{ACAD_REACTORS
330
29
102
}
330
29
100
AcDbVisualStyle
  2
Shaded
 70
    27
177
     3
291
     0
 70
    58
 90
        2
176
     1
 90
        2
176
     1
 90
        1
176
     1
 90
        2
176
     1
 40
0.6
176
     1
 40
30.0
176
     1
 62
     7
420
 16777215
176
     1
 90
        0
176
     1
 90
        4
176
     1
 62
     7
176
     1
 62
   257
176
     1
 90
        1
176
     1
 90
        1
176
     1
 40
1.0
176
     1
 90
        8
176
     1
 62
   257
176
     1
 40
1.0
176
     1
 90
        1
176
     1
 90
        6
176
     1
 90
        2
176
     1
 62
     8
420
  7895160
176
     1
 90
        3
176
     1
 90
        0
176
     1
 90
        0
176
     1
290
     0
176
     1
 90
        5
176
     1
 40
0.0
176
     1
 90
        0
176
     1
290
     0
176
     1
290
     1
176
     1
290
     1
176
     1
290
     0
176
     1
290
     0
176
     1
290
     0
176
     1
290
     0
176
     1
290
     0
176
     1
290
     0
176
     1
 90
       50
176
     1
 40
0.0
176
     1
 40
1.0
176
     1
 90
        0
176
     1
 62
    18
420
        0
176
     1
 90
       50
176
     1
 90
        3
176
     1
 62
     5
420
      255
176
     1
290
     0
176
     1
 90
       50
176
     1
 90
       50
176
     1
 90
       50
176
     1
290
     0
176
     1
 90
       50
176
     1
 62
   256
176
     0
 40
1.0
176
     0
 90
        2
176
     1
  1
strokes_ogs.tif
176
     1
290
     0
176
     1
 40
1.0
176
     1
 40
1.0
176
     1
  0
VISUALSTYLE
  5
3D
102
{ACAD_REACTORS
330
29
102
}
330
29
100
AcDbVisualStyle
  2
Shaded with edges
 70
    26
177
     3
291
     0
 70
    58
 90
        2
176
     1
 90
        2
176
     1
 90
        1
176
     1
 90
        2
176
     1
 40
0.6
176
     1
 40
30.0
176
     1
 62
     7
420
 16777215
176
     1
 90
        1
176
     1
 90
       10
176
     1
 62
     7
176
     1
 62
   257
176
     1
 90
        2
176
     1
 90
        1
176
     1
 40
1.0
176
     1
 90
        8
176
     1
 62
   257
176
     1
 40
1.0
176
     1
 90
        1
176
     1
 90
        6
176
     1
 90
        2
176
     1
 62
     7
176
     1
 90
        3
176
     1
 90
        0
176
     1
 90
        0
176
     1
290
     0
176
     1
 90
        5
176
     1
 40
0.0
176
     1
 90
        0
176
     1
290
     0
176
     1
290
     1
176
     1
290
     1
176
     1
290
     0
176
     1
290
     0
176
     1
290
     0
176
     1
290
     0
176
     1
290
     0
176
     1
290
     0
176
     1
 90
       50
176
     1
 40
0.0
176
     1
 40
1.0
176
     1
 90
        0
176
     1
 62
    18
420
        0
176
     1
 90
       50
176
     1
 90
        3
176
     1
 62
     5
420
      255
176
     1
290
     0
176
     1
 90
       50
176
     1
 90
       50
176
     1
 90
       50
176
     1
290
     0
176
     1
 90
       50
176
     1
 62
   256
176
     0
 40
1.0
176
     0
 90
        2
176
     1
  1
strokes_ogs.tif
176
     1
290
     0
176
     1
 40
1.0
176
     1
 40
1.0
176
     1
  0
VISUALSTYLE
  5
3A
102
{ACAD_REACTORS
330
29
102
}
330
29
100
AcDbVisualStyle
  2
Shades of Gray
 70
    23
177
     3
291
     0
 70
    58
 90
        2
176
     1
 90
        2
176
     1
 90
        3
176
     1
 90
        0
176
     1
 40
0.6
176
     1
 40
30.0
176
     1
 62
     7
420
 16777215
176
     1
 90
        2
176
     1
 90
        2
176
     1
 62
     7
176
     1
 62
     7
176
     1
 90
        1
176
     1
 90
        1
176
     1
 40
40.0
176
     1
 90
        8
176
     1
 62
     7
176
     1
 40
1.0
176
     1
 90
        1
176
     1
 90
        6
176
     1
 90
        2
176
     1
 62
     7
176
     1
 90
        3
176
     1
 90
        0
176
     1
 90
        0
176
     1
290
     0
176
     1
 90
        1
176
     1
 40
0.0
176
     1
 90
        0
176
     1
290
     0
176
     1
290
     1
176
     1
290
     1
176
     1
290
     0
176
     1
290
     0
176
     1
290
     0
176
     1
290
     0
176
     1
290
     0
176
     1
290
     0
176
     1
 90
       50
176
     1
 40
0.0
176
     1
 40
1.0
176
     1
 90
        0
176
     1
 62
    18
420
        0
176
     1
 90
       50
176
     1
 90
        3
176
     1
 62
     5
420
      255
176
     1
290
     0
176
     1
 90
       50
176
     1
 90
       50
176
     1
 90
       50
176
     1
290
     0
176
     1
 90
       50
176
     1
 62
   256
176
     0
 40
1.0
176
     0
 90
        2
176
     1
  1
strokes_ogs.tif
176
     1
290
     0
176
     1
 40
1.0
176
     1
 40
1.0
176
     1
  0
VISUALSTYLE
  5
3B
102
{ACAD_REACTORS
330
29
102
}
330
29
100
AcDbVisualStyle
  2
Sketchy
 70
    24
177
     3
291
     0
 70
    58
 90
        1
176
     1
 90
        2
176
     1
 90
        2
176
     1
 90
        0
176
     1
 40
0.6
176
     1
 40
30.0
176
     1
 62
     7
420
 16777215
176
     1
 90
        2
176
     1
 90
        2
176
     1
 62
     7
176
     1
 62
     7
176
     1
 90
        1
176
     1
 90
        1
176
     1
 40
40.0
176
     1
 90
       11
176
     1
 62
     7
176
     1
 40
1.0
176
     1
 90
        1
176
     1
 90
        6
176
     1
 90
        2
176
     1
 62
     7
176
     1
 90
        6
176
     1
 90
        0
176
     1
 90
        0
176
     1
290
     0
176
     1
 90
        1
176
     1
 40
0.0
176
     1
 90
        0
176
     1
290
     0
176
     1
290
     1
176
     1
290
     1
176
     1
290
     0
176
     1
290
     0
176
     1
290
     0
176
     1
290
     0
176
     1
290
     0
176
     1
290
     0
176
     1
 90
       50
176
     1
 40
0.0
176
     1
 40
1.0
176
     1
 90
        0
176
     1
 62
    18
420
        0
176
     1
 90
       50
176
     1
 90
        3
176
     1
 62
     5
420
      255
176
     1
290
     0
176
     1
 90
       50
176
     1
 90
       50
176
     1
 90
       50
176
     1
290
     0
176
     1
 90
       50
176
     1
 62
   256
176
     0
 40
1.0
176
     0
 90
        2
176
     1
  1
strokes_ogs.tif
176
     1
290
     0
176
     1
 40
1.0
176
     1
 40
1.0
176
     1
  0
VISUALSTYLE
  5
36
102
{ACAD_REACTORS
330
29
102
}
330
29
100
AcDbVisualStyle
  2
Thicken
 70
    13
177
     3
291
     1
 70
    58
 90
        2
176
     1
 90
        2
176
     1
 90
        0
176
     1
 90
        0
176
     1
 40
0.6
176
     1
 40
30.0
176
     1
 62
     7
420
 16777215
176
     1
 90
        1
176
     1
 90
        4
176
     1
 62
     7
176
     1
 62
   257
176
     1
 90
        1
176
     1
 90
        1
176
     1
 40
1.0
176
     1
 90
       12
176
     1
 62
     7
176
     1
 40
1.0
176
     1
 90
        1
176
     1
 90
        6
176
     1
 90
        2
176
     1
 62
     7
176
     1
 90
        5
176
     1
 90
        0
176
     1
 90
        0
176
     1
290
     0
176
     1
 90
        1
176
     1
 40
0.0
176
     1
 90
        0
176
     1
290
     0
176
     1
290
     1
176
     1
290
     1
176
     1
290
     0
176
     1
290
     0
176
     1
290
     0
176
     1
290
     0
176
     1
290
     0
176
     1
290
     0
176
     1
 90
       50
176
     1
 40
0.0
176
     1
 40
1.0
176
     1
 90
        0
176
     1
 62
    18
420
        0
176
     1
 90
       50
176
     1
 90
        3
176
     1
 62
     5
420
      255
176
     1
290
     0
176
     1
 90
       50
176
     1
 90
       50
176
     1
 90
       50
176
     1
290
     0
176
     1
 90
       50
176
     1
 62
   256
176
     0
 40
1.0
176
     0
 90
        2
176
     1
  1
strokes_ogs.tif
176
     1
290
     0
176
     1
 40
1.0
176
     1
 40
1.0
176
     1
  0
VISUALSTYLE
  5
30
102
{ACAD_REACTORS
330
29
102
}
330
29
100
AcDbVisualStyle
  2
Wireframe
 70
     5
177
     3
291
     0
 70
    58
 90
        0
176
     1
 90
        2
176
     1
 90
        0
176
     1
 90
        0
176
     1
 40
0.6
176
     1
 40
30.0
176
     1
 62
     7
420
 16777215
176
     1
 90
        1
176
     1
 90
        4
176
     1
 62
     7
176
     1
 62
   257
176
     1
 90
        1
176
     1
 90
        1
176
     1
 40
1.0
176
     1
 90
        0
176
     1
 62
   257
176
     1
 40
1.0
176
     1
 90
        1
176
     1
 90
        6
176
     1
 90
        2
176
     1
 62
     7
176
     1
 90
        3
176
     1
 90
        0
176
     1
 90
        0
176
     1
290
     0
176
     1
 90
        1
176
     1
 40
0.0
176
     1
 90
        0
176
     1
290
     0
176
     1
290
     1
176
     1
290
     1
176
     1
290
     0
176
     1
290
     0
176
     1
290
     0
176
     1
290
     0
176
     1
290
     0
176
     1
290
     0
176
     1
 90
       50
176
     1
 40
0.0
176
     1
 40
1.0
176
     1
 90
        0
176
     1
 62
    18
420
        0
176
     1
 90
       50
176
     1
 90
        3
176
     1
 62
     5
420
      255
176
     1
290
     0
176
     1
 90
       50
176
     1
 90
       50
176
     1
 90
       50
176
     1
290
     0
176
     1
 90
       50
176
     1
 62
   256
176
     0
 40
1.0
176
     0
 90
        2
176
     1
  1
strokes_ogs.tif
176
     1
290
     0
176
     1
 40
1.0
176
     1
 40
1.0
176
     1
  0
VISUALSTYLE
  5
3C
102
{ACAD_REACTORS
330
29
102
}
330
29
100
AcDbVisualStyle
  2
X-Ray
 70
    25
177
     3
291
     0
 70
    58
 90
        2
176
     1
 90
        2
176
     1
 90
        1
176
     1
 90
        1
176
     1
 40
0.5
176
     1
 40
30.0
176
     1
 62
     7
420
 16777215
176
     1
 90
        1
176
     1
 90
        0
176
     1
 62
     7
176
     1
 62
   257
176
     1
 90
        1
176
     1
 90
        1
176
     1
 40
1.0
176
     1
 90
        8
176
     1
 62
     7
176
     1
 40
1.0
176
     1
 90
        1
176
     1
 90
        6
176
     1
 90
        2
176
     1
 62
     7
176
     1
 90
        3
176
     1
 90
        0
176
     1
 90
        0
176
     1
290
     0
176
     1
 90
       13
176
     1
 40
0.0
176
     1
 90
        0
176
     1
290
     0
176
     1
290
     1
176
     1
290
     1
176
     1
290
     0
176
     1
290
     0
176
     1
290
     0
176
     1
290
     0
176
     1
290
     0
176
     1
290
     0
176
     1
 90
       50
176
     1
 40
0.0
176
     1
 40
1.0
176
     1
 90
        0
176
     1
 62
    18
420
        0
176
     1
 90
       50
176
     1
 90
        3
176
     1
 62
     5
420
      255
176
     1
290
     0
176
     1
 90
       50
176
     1
 90
       50
176
     1
 90
       50
176
     1
290
     0
176
     1
 90
       50
176
     1
 62
   256
176
     0
 40
1.0
176
     0
 90
        2
176
     1
  1
strokes_ogs.tif
176
     1
290
     0
176
     1
 40
1.0
176
     1
 40
1.0
176
     1
  0
DICTIONARYVAR
  5
81
102
{ACAD_REACTORS
330
7C
102
}
330
7C
100
DictionaryVariables
280
     0
  1
1:1
  0
DICTIONARYVAR
  5
7E
102
{ACAD_REACTORS
330
7C
102
}
330
7C
100
DictionaryVariables
280
     0
  1
STANDARD
  0
DICTIONARYVAR
  5
7D
102
{ACAD_REACTORS
330
7C
102
}
330
7C
100
DictionaryVariables
280
     0
  1
STANDARD
  0
DICTIONARYVAR
  5
7F
102
{ACAD_REACTORS
330
7C
102
}
330
7C
100
DictionaryVariables
280
     0
  1
Imperial24
  0
DICTIONARYVAR
  5
80
102
{ACAD_REACTORS
330
7C
102
}
330
7C
100
DictionaryVariables
280
     0
  1
Imperial24
  0
XRECORD
  5
31F
102
{ACAD_REACTORS
330
31B
102
}
330
31B
100
AcDbXrecord
280
     1
  1
BUILDING_ID
  1
Progetto per messa in tavola DXF, DWG
  1
FLOOR_ID
  1
694395
  0
XRECORD
  5
31D
102
{ACAD_REACTORS
330
31B
102
}
330
31B
100
AcDbXrecord
280
     1
  1
-2001160
  1
Apparecchi idraulici
  0
XRECORD
  5
31E
102
{ACAD_REACTORS
330
31B
102
}
330
31B
100
AcDbXrecord
280
     1
  1
790271
  1
Body
  1
923261
  1
Servomotor
  0
XRECORD
  5
31C
102
{ACAD_REACTORS
330
31B
102
}
330
31B
100
AcDbXrecord
280
     1
  1
859151
  1
Automatic flow rate regulator valve_Caleffi_121 DN15 : 1/2''
  0
DICTIONARY
  5
1A
330
19
100
AcDbDictionary
280
     1
281
     1
  3
BUMPTILE
360
1C
  3
DIFFUSETILE
360
1B
  3
OPACITYTILE
360
1F
  3
REFLECTIONTILE
360
1E
  3
REFRACTIONTILE
360
20
  3
SPECULARTILE
360
1D
  0
DICTIONARY
  5
12
330
11
100
AcDbDictionary
280
     1
281
     1
  3
BUMPTILE
360
14
  3
DIFFUSETILE
360
13
  3
OPACITYTILE
360
17
  3
REFLECTIONTILE
360
16
  3
REFRACTIONTILE
360
18
  3
SPECULARTILE
360
15
  0
DICTIONARY
  5
22
330
21
100
AcDbDictionary
280
     1
281
     1
  3
BUMPTILE
360
24
  3
DIFFUSETILE
360
23
  3
OPACITYTILE
360
27
  3
REFLECTIONTILE
360
26
  3
REFRACTIONTILE
360
28
  3
SPECULARTILE
360
25
  0
DICTIONARY
  5
322
330
65
100
AcDbDictionary
280
     1
281
     1
  3
ACAD_ROUNDTRIP_2008_TABLESTYLE_CELLSTYLEMAP
360
323
  0
XRECORD
  5
1C
102
{ACAD_REACTORS
330
1A
102
}
330
1A
100
AcDbXrecord
280
     1
270
     1
271
     1
  0
XRECORD
  5
1B
102
{ACAD_REACTORS
330
1A
102
}
330
1A
100
AcDbXrecord
280
     1
270
     1
271
     1
  0
XRECORD
  5
1F
102
{ACAD_REACTORS
330
1A
102
}
330
1A
100
AcDbXrecord
280
     1
270
     1
271
     1
  0
XRECORD
  5
1E
102
{ACAD_REACTORS
330
1A
102
}
330
1A
100
AcDbXrecord
280
     1
270
     1
271
     1
  0
XRECORD
  5
20
102
{ACAD_REACTORS
330
1A
102
}
330
1A
100
AcDbXrecord
280
     1
270
     1
271
     1
  0
XRECORD
  5
1D
102
{ACAD_REACTORS
330
1A
102
}
330
1A
100
AcDbXrecord
280
     1
270
     1
271
     1
  0
XRECORD
  5
14
102
{ACAD_REACTORS
330
12
102
}
330
12
100
AcDbXrecord
280
     1
270
     1
271
     1
  0
XRECORD
  5
13
102
{ACAD_REACTORS
330
12
102
}
330
12
100
AcDbXrecord
280
     1
270
     1
271
     1
  0
XRECORD
  5
17
102
{ACAD_REACTORS
330
12
102
}
330
12
100
AcDbXrecord
280
     1
270
     1
271
     1
  0
XRECORD
  5
16
102
{ACAD_REACTORS
330
12
102
}
330
12
100
AcDbXrecord
280
     1
270
     1
271
     1
  0
XRECORD
  5
18
102
{ACAD_REACTORS
330
12
102
}
330
12
100
AcDbXrecord
280
     1
270
     1
271
     1
  0
XRECORD
  5
15
102
{ACAD_REACTORS
330
12
102
}
330
12
100
AcDbXrecord
280
     1
270
     1
271
     1
  0
XRECORD
  5
24
102
{ACAD_REACTORS
330
22
102
}
330
22
100
AcDbXrecord
280
     1
270
     1
271
     1
  0
XRECORD
  5
23
102
{ACAD_REACTORS
330
22
102
}
330
22
100
AcDbXrecord
280
     1
270
     1
271
     1
  0
XRECORD
  5
27
102
{ACAD_REACTORS
330
22
102
}
330
22
100
AcDbXrecord
280
     1
270
     1
271
     1
  0
XRECORD
  5
26
102
{ACAD_REACTORS
330
22
102
}
330
22
100
AcDbXrecord
280
     1
270
     1
271
     1
  0
XRECORD
  5
28
102
{ACAD_REACTORS
330
22
102
}
330
22
100
AcDbXrecord
280
     1
270
     1
271
     1
  0
XRECORD
  5
25
102
{ACAD_REACTORS
330
22
102
}
330
22
100
AcDbXrecord
280
     1
270
     1
271
     1
  0
CELLSTYLEMAP
  5
323
102
{ACAD_REACTORS
330
322
102
}
330
322
100
AcDbCellStyleMap
 90
        3
300
CELLSTYLE
  1
TABLEFORMAT_BEGIN
 90
        5
170
     1
 91
        0
 92
    32768
 62
   257
 93
        1
300
CONTENTFORMAT
  1
CONTENTFORMAT_BEGIN
 90
        0
 91
        0
 92
      512
 93
        0
300

 40
0.0
140
1.0
 94
        5
 62
     0
340
55
144
0.25
309
CONTENTFORMAT_END
171
     0
 94
        0
309
TABLEFORMAT_END
  1
CELLSTYLE_BEGIN
 90
        1
 91
        1
300
_TITLE
309
CELLSTYLE_END
300
CELLSTYLE
  1
TABLEFORMAT_BEGIN
 90
        5
170
     1
 91
        0
 92
        0
 62
   257
 93
        1
300
CONTENTFORMAT
  1
CONTENTFORMAT_BEGIN
 90
        0
 91
        0
 92
      512
 93
        0
300

 40
0.0
140
1.0
 94
        5
 62
     0
340
55
144
0.18
309
CONTENTFORMAT_END
171
     0
 94
        0
309
TABLEFORMAT_END
  1
CELLSTYLE_BEGIN
 90
        2
 91
        1
300
_HEADER
309
CELLSTYLE_END
300
CELLSTYLE
  1
TABLEFORMAT_BEGIN
 90
        5
170
     1
 91
        0
 92
        0
 62
   257
 93
        1
300
CONTENTFORMAT
  1
CONTENTFORMAT_BEGIN
 90
        0
 91
        0
 92
      512
 93
        0
300

 40
0.0
140
1.0
 94
        2
 62
     0
340
55
144
0.18
309
CONTENTFORMAT_END
171
     0
 94
        0
309
TABLEFORMAT_END
  1
CELLSTYLE_BEGIN
 90
        3
 91
        2
300
_DATA
309
CELLSTYLE_END
  0
ENDSEC
  0
EOF
