  0
SECTION
  2
HEADER
  9
$ACADVER
  1
AC1027
  9
$ACADMAINTVER
 70
    20
  9
$DWGCODEPAGE
  3
ANSI_1252
  9
$REQUIREDVERSIONS
160
                 0
  9
$INSBASE
 10
0.0
 20
0.0
 30
0.0
  9
$EXTMIN
 10
699.6664074431254
 20
1756.464628730049
 30
-0.00000001
  9
$EXTMAX
 10
1141.114353953098
 20
2139.610000010071
 30
0.00000001
  9
$LIMMIN
 10
0.0
 20
0.0
  9
$LIMMAX
 10
12.0
 20
9.0
  9
$ORTHOMODE
 70
     0
  9
$REGENMODE
 70
     1
  9
$FILLMODE
 70
     1
  9
$QTEXTMODE
 70
     0
  9
$MIRRTEXT
 70
     0
  9
$LTSCALE
 40
1.0
  9
$ATTMODE
 70
     1
  9
$TEXTSIZE
 40
0.2
  9
$TRACEWID
 40
0.05
  9
$TEXTSTYLE
  7
Standard
  9
$CLAYER
  8
0
  9
$CELTYPE
  6
ByLayer
  9
$CECOLOR
 62
   256
  9
$CELTSCALE
 40
1.0
  9
$DISPSILH
 70
     0
  9
$DIMSCALE
 40
1.0
  9
$DIMASZ
 40
0.18
  9
$DIMEXO
 40
0.0625
  9
$DIMDLI
 40
0.38
  9
$DIMRND
 40
0.0
  9
$DIMDLE
 40
0.0
  9
$DIMEXE
 40
0.18
  9
$DIMTP
 40
0.0
  9
$DIMTM
 40
0.0
  9
$DIMTXT
 40
0.18
  9
$DIMCEN
 40
0.09
  9
$DIMTSZ
 40
0.0
  9
$DIMTOL
 70
     0
  9
$DIMLIM
 70
     0
  9
$DIMTIH
 70
     1
  9
$DIMTOH
 70
     1
  9
$DIMSE1
 70
     0
  9
$DIMSE2
 70
     0
  9
$DIMTAD
 70
     0
  9
$DIMZIN
 70
     0
  9
$DIMBLK
  1

  9
$DIMASO
 70
     1
  9
$DIMSHO
 70
     1
  9
$DIMPOST
  1

  9
$DIMAPOST
  1

  9
$DIMALT
 70
     0
  9
$DIMALTD
 70
     2
  9
$DIMALTF
 40
25.4
  9
$DIMLFAC
 40
1.0
  9
$DIMTOFL
 70
     0
  9
$DIMTVP
 40
0.0
  9
$DIMTIX
 70
     0
  9
$DIMSOXD
 70
     0
  9
$DIMSAH
 70
     0
  9
$DIMBLK1
  1

  9
$DIMBLK2
  1

  9
$DIMSTYLE
  2
Standard
  9
$DIMCLRD
 70
     0
  9
$DIMCLRE
 70
     0
  9
$DIMCLRT
 70
     0
  9
$DIMTFAC
 40
1.0
  9
$DIMGAP
 40
0.09
  9
$DIMJUST
 70
     0
  9
$DIMSD1
 70
     0
  9
$DIMSD2
 70
     0
  9
$DIMTOLJ
 70
     1
  9
$DIMTZIN
 70
     0
  9
$DIMALTZ
 70
     0
  9
$DIMALTTZ
 70
     0
  9
$DIMUPT
 70
     0
  9
$DIMDEC
 70
     4
  9
$DIMTDEC
 70
     4
  9
$DIMALTU
 70
     2
  9
$DIMALTTD
 70
     2
  9
$DIMTXSTY
  7
Standard
  9
$DIMAUNIT
 70
     0
  9
$DIMADEC
 70
     0
  9
$DIMALTRND
 40
0.0
  9
$DIMAZIN
 70
     0
  9
$DIMDSEP
 70
    46
  9
$DIMATFIT
 70
     3
  9
$DIMFRAC
 70
     0
  9
$DIMLDRBLK
  1

  9
$DIMLUNIT
 70
     2
  9
$DIMLWD
 70
    -2
  9
$DIMLWE
 70
    -2
  9
$DIMTMOVE
 70
     0
  9
$DIMFXL
 40
1.0
  9
$DIMFXLON
 70
     0
  9
$DIMJOGANG
 40
0.7853981633974483
  9
$DIMTFILL
 70
     0
  9
$DIMTFILLCLR
 70
     0
  9
$DIMARCSYM
 70
     0
  9
$DIMLTYPE
  6

  9
$DIMLTEX1
  6

  9
$DIMLTEX2
  6

  9
$DIMTXTDIRECTION
 70
     0
  9
$LUNITS
 70
     2
  9
$LUPREC
 70
     4
  9
$SKETCHINC
 40
0.1
  9
$FILLETRAD
 40
0.0
  9
$AUNITS
 70
     0
  9
$AUPREC
 70
     0
  9
$MENU
  1
.
  9
$ELEVATION
 40
0.0
  9
$PELEVATION
 40
0.0
  9
$THICKNESS
 40
0.0
  9
$LIMCHECK
 70
     0
  9
$CHAMFERA
 40
0.0
  9
$CHAMFERB
 40
0.0
  9
$CHAMFERC
 40
0.0
  9
$CHAMFERD
 40
0.0
  9
$SKPOLY
 70
     0
  9
$TDCREATE
 40
2457562.353373183
  9
$TDUCREATE
 40
2457562.270039849
  9
$TDUPDATE
 40
2457562.353373183
  9
$TDUUPDATE
 40
2457562.270039849
  9
$TDINDWG
 40
0.0000101968
  9
$TDUSRTIMER
 40
0.0000101968
  9
$USRTIMER
 70
     1
  9
$ANGBASE
 50
0.0
  9
$ANGDIR
 70
     0
  9
$PDMODE
 70
     0
  9
$PDSIZE
 40
0.0
  9
$PLINEWID
 40
0.0
  9
$SPLFRAME
 70
     0
  9
$SPLINETYPE
 70
     6
  9
$SPLINESEGS
 70
     8
  9
$HANDSEED
  5
2FF
  9
$SURFTAB1
 70
     6
  9
$SURFTAB2
 70
     6
  9
$SURFTYPE
 70
     6
  9
$SURFU
 70
     6
  9
$SURFV
 70
     6
  9
$UCSBASE
  2

  9
$UCSNAME
  2

  9
$UCSORG
 10
0.0
 20
0.0
 30
0.0
  9
$UCSXDIR
 10
1.0
 20
0.0
 30
0.0
  9
$UCSYDIR
 10
0.0
 20
1.0
 30
0.0
  9
$UCSORTHOREF
  2

  9
$UCSORTHOVIEW
 70
     0
  9
$UCSORGTOP
 10
0.0
 20
0.0
 30
0.0
  9
$UCSORGBOTTOM
 10
0.0
 20
0.0
 30
0.0
  9
$UCSORGLEFT
 10
0.0
 20
0.0
 30
0.0
  9
$UCSORGRIGHT
 10
0.0
 20
0.0
 30
0.0
  9
$UCSORGFRONT
 10
0.0
 20
0.0
 30
0.0
  9
$UCSORGBACK
 10
0.0
 20
0.0
 30
0.0
  9
$PUCSBASE
  2

  9
$PUCSNAME
  2

  9
$PUCSORG
 10
0.0
 20
0.0
 30
0.0
  9
$PUCSXDIR
 10
1.0
 20
0.0
 30
0.0
  9
$PUCSYDIR
 10
0.0
 20
1.0
 30
0.0
  9
$PUCSORTHOREF
  2

  9
$PUCSORTHOVIEW
 70
     0
  9
$PUCSORGTOP
 10
0.0
 20
0.0
 30
0.0
  9
$PUCSORGBOTTOM
 10
0.0
 20
0.0
 30
0.0
  9
$PUCSORGLEFT
 10
0.0
 20
0.0
 30
0.0
  9
$PUCSORGRIGHT
 10
0.0
 20
0.0
 30
0.0
  9
$PUCSORGFRONT
 10
0.0
 20
0.0
 30
0.0
  9
$PUCSORGBACK
 10
0.0
 20
0.0
 30
0.0
  9
$USERI1
 70
     0
  9
$USERI2
 70
     0
  9
$USERI3
 70
     0
  9
$USERI4
 70
     0
  9
$USERI5
 70
     0
  9
$USERR1
 40
0.0
  9
$USERR2
 40
0.0
  9
$USERR3
 40
0.0
  9
$USERR4
 40
0.0
  9
$USERR5
 40
0.0
  9
$WORLDVIEW
 70
     1
  9
$SHADEDGE
 70
     3
  9
$SHADEDIF
 70
    70
  9
$TILEMODE
 70
     1
  9
$MAXACTVP
 70
    64
  9
$PINSBASE
 10
0.0
 20
0.0
 30
0.0
  9
$PLIMCHECK
 70
     0
  9
$PEXTMIN
 10
1.000000000000000E+20
 20
1.000000000000000E+20
 30
1.000000000000000E+20
  9
$PEXTMAX
 10
-1.000000000000000E+20
 20
-1.000000000000000E+20
 30
-1.000000000000000E+20
  9
$PLIMMIN
 10
0.0
 20
0.0
  9
$PLIMMAX
 10
12.0
 20
9.0
  9
$UNITMODE
 70
     0
  9
$VISRETAIN
 70
     1
  9
$PLINEGEN
 70
     0
  9
$PSLTSCALE
 70
     1
  9
$TREEDEPTH
 70
  3020
  9
$CMLSTYLE
  2
Standard
  9
$CMLJUST
 70
     0
  9
$CMLSCALE
 40
1.0
  9
$PROXYGRAPHICS
 70
     1
  9
$MEASUREMENT
 70
     1
  9
$CELWEIGHT
370
    -1
  9
$ENDCAPS
280
     0
  9
$JOINSTYLE
280
     0
  9
$LWDISPLAY
290
     0
  9
$INSUNITS
 70
     4
  9
$HYPERLINKBASE
  1

  9
$STYLESHEET
  1

  9
$XEDIT
290
     1
  9
$CEPSNTYPE
380
     0
  9
$PSTYLEMODE
290
     1
  9
$FINGERPRINTGUID
  2
{2E359BDB-EA72-4967-B9D6-8171D0226B1E}
  9
$VERSIONGUID
  2
{908C5324-A6A2-4857-BE2D-C4DB4BCB86B3}
  9
$EXTNAMES
290
     1
  9
$PSVPSCALE
 40
0.0
  9
$OLESTARTUP
290
     0
  9
$SORTENTS
280
   127
  9
$INDEXCTL
280
     0
  9
$HIDETEXT
280
     1
  9
$XCLIPFRAME
280
     2
  9
$HALOGAP
280
     0
  9
$OBSCOLOR
 70
   257
  9
$OBSLTYPE
280
     0
  9
$INTERSECTIONDISPLAY
280
     0
  9
$INTERSECTIONCOLOR
 70
   257
  9
$DIMASSOC
280
     2
  9
$PROJECTNAME
  1

  9
$CAMERADISPLAY
290
     0
  9
$LENSLENGTH
 40
50.0
  9
$CAMERAHEIGHT
 40
0.0
  9
$STEPSPERSEC
 40
2.0
  9
$STEPSIZE
 40
6.0
  9
$3DDWFPREC
 40
2.0
  9
$PSOLWIDTH
 40
0.25
  9
$PSOLHEIGHT
 40
4.0
  9
$LOFTANG1
 40
1.570796326794896
  9
$LOFTANG2
 40
1.570796326794896
  9
$LOFTMAG1
 40
0.0
  9
$LOFTMAG2
 40
0.0
  9
$LOFTPARAM
 70
     7
  9
$LOFTNORMALS
280
     1
  9
$LATITUDE
 40
37.795
  9
$LONGITUDE
 40
-122.394
  9
$NORTHDIRECTION
 40
0.0
  9
$TIMEZONE
 70
 -8000
  9
$LIGHTGLYPHDISPLAY
280
     1
  9
$TILEMODELIGHTSYNCH
280
     1
  9
$CMATERIAL
347
11
  9
$SOLIDHIST
280
     0
  9
$SHOWHIST
280
     1
  9
$DWFFRAME
280
     2
  9
$DGNFRAME
280
     0
  9
$REALWORLDSCALE
290
     1
  9
$INTERFERECOLOR
 62
     1
  9
$INTERFEREOBJVS
345
33
  9
$INTERFEREVPVS
346
30
  9
$CSHADOW
280
     0
  9
$SHADOWPLANELOCATION
 40
0.0
  0
ENDSEC
  0
SECTION
  2
CLASSES
  0
CLASS
  1
ACDBDICTIONARYWDFLT
  2
AcDbDictionaryWithDefault
  3
ObjectDBX Classes
 90
        0
 91
        1
280
     0
281
     0
  0
CLASS
  1
MATERIAL
  2
AcDbMaterial
  3
ObjectDBX Classes
 90
     1153
 91
        3
280
     0
281
     0
  0
CLASS
  1
VISUALSTYLE
  2
AcDbVisualStyle
  3
ObjectDBX Classes
 90
     4095
 91
       24
280
     0
281
     0
  0
CLASS
  1
SCALE
  2
AcDbScale
  3
ObjectDBX Classes
 90
     1153
 91
       17
280
     0
281
     0
  0
CLASS
  1
TABLESTYLE
  2
AcDbTableStyle
  3
ObjectDBX Classes
 90
     4095
 91
        1
280
     0
281
     0
  0
CLASS
  1
MLEADERSTYLE
  2
AcDbMLeaderStyle
  3
ACDB_MLEADERSTYLE_CLASS
 90
     4095
 91
        1
280
     0
281
     0
  0
CLASS
  1
ACDBSECTIONVIEWSTYLE
  2
AcDbSectionViewStyle
  3
ObjectDBX Classes
 90
     1025
 91
        1
280
     0
281
     0
  0
CLASS
  1
ACDBDETAILVIEWSTYLE
  2
AcDbDetailViewStyle
  3
ObjectDBX Classes
 90
     1025
 91
        1
280
     0
281
     0
  0
CLASS
  1
RASTERVARIABLES
  2
AcDbRasterVariables
  3
ISM
 90
        0
 91
        1
280
     0
281
     0
  0
CLASS
  1
DICTIONARYVAR
  2
AcDbDictionaryVar
  3
ObjectDBX Classes
 90
        0
 91
        5
280
     0
281
     0
  0
CLASS
  1
CELLSTYLEMAP
  2
AcDbCellStyleMap
  3
ObjectDBX Classes
 90
     1152
 91
        2
280
     0
281
     0
  0
CLASS
  1
SORTENTSTABLE
  2
AcDbSortentsTable
  3
ObjectDBX Classes
 90
        0
 91
        1
280
     0
281
     0
  0
ENDSEC
  0
SECTION
  2
TABLES
  0
TABLE
  2
VPORT
  5
8
330
0
100
AcDbSymbolTable
 70
     1
  0
VPORT
  5
57
330
8
100
AcDbSymbolTableRecord
100
AcDbViewportTableRecord
  2
*Active
 70
     0
 10
0.0
 20
0.0
 11
1.0
 21
1.0
 12
920.3903806981115
 22
1948.03731437006
 13
0.0
 23
0.0
 14
1.0
 24
1.0
 15
0.0
 25
0.0
 16
0.0
 26
0.0
 36
1.0
 17
0.0
 27
0.0
 37
0.0
 40
383.1453712800219
 41
1.152168288070848
 42
50.0
 43
0.0
 44
0.0
 50
0.0
 51
0.0
 71
     0
 72
  1000
 73
     1
 74
     1
 75
     0
 76
     0
 77
     0
 78
     0
281
     0
 65
     1
110
0.0
120
0.0
130
0.0
111
1.0
121
0.0
131
0.0
112
0.0
122
1.0
132
0.0
 79
     0
146
0.0
 60
     3
 61
     5
292
     1
282
     1
141
0.0
142
0.0
 63
   250
421
  3355443
  0
ENDTAB
  0
TABLE
  2
LTYPE
  5
5
330
0
100
AcDbSymbolTable
 70
     3
  0
LTYPE
  5
5B
330
5
100
AcDbSymbolTableRecord
100
AcDbLinetypeTableRecord
  2
ByBlock
 70
     0
  3

 72
    65
 73
     0
 40
0.0
  0
LTYPE
  5
5C
330
5
100
AcDbSymbolTableRecord
100
AcDbLinetypeTableRecord
  2
ByLayer
 70
     0
  3

 72
    65
 73
     0
 40
0.0
  0
LTYPE
  5
5D
330
5
100
AcDbSymbolTableRecord
100
AcDbLinetypeTableRecord
  2
Continuous
 70
     0
  3
Solid line
 72
    65
 73
     0
 40
0.0
  0
LTYPE
  5
69
330
5
100
AcDbSymbolTableRecord
100
AcDbLinetypeTableRecord
  2
PHANTOM2
 70
     0
  3
___ _ _ ___ _ _ ___ _ _ ___ _ _
 72
    65
 73
     6
 40
1.25
 49
0.625
 74
     0
 49
-0.125
 74
     0
 49
0.125
 74
     0
 49
-0.125
 74
     0
 49
0.125
 74
     0
 49
-0.125
 74
     0
  0
LTYPE
  5
86
330
5
100
AcDbSymbolTableRecord
100
AcDbLinetypeTableRecord
  2
Nascosto 1_5 mm
 70
     0
  3

 72
    65
 73
     2
 40
2.2
 49
1.5
 74
     0
 49
-0.7000000000000001
 74
     0
  0
ENDTAB
  0
TABLE
  2
LAYER
  5
2
330
0
100
AcDbSymbolTable
 70
     4
  0
LAYER
  5
54
330
2
100
AcDbSymbolTableRecord
100
AcDbLayerTableRecord
  2
0
 70
     0
 62
     7
  6
Continuous
370
    -3
390
F
347
21
348
0
  0
LAYER
  5
85
330
2
100
AcDbSymbolTableRecord
100
AcDbLayerTableRecord
  2
P-SANR-FIXT
 70
     0
 62
     6
  6
Continuous
370
    18
390
F
347
21
348
0
  0
LAYER
  5
88
330
2
100
AcDbSymbolTableRecord
100
AcDbLayerTableRecord
  2
M-PIPE
 70
     0
 62
     3
  6
Continuous
370
    18
390
F
347
21
348
0
  0
ENDTAB
  0
TABLE
  2
STYLE
  5
3
330
0
100
AcDbSymbolTable
 70
     2
  0
STYLE
  5
55
330
3
100
AcDbSymbolTableRecord
100
AcDbTextStyleTableRecord
  2
Standard
 70
     0
 40
0.0
 41
1.0
 50
0.0
 71
     0
 42
0.2
  3
txt
  4

  0
STYLE
  5
5A
330
3
100
AcDbSymbolTableRecord
100
AcDbTextStyleTableRecord
  2
Annotative
 70
     0
 40
0.0
 41
1.0
 50
0.0
 71
     0
 42
0.2
  3
txt
  4

1001
AcadAnnotative
1000
AnnotativeData
1002
{
1070
     1
1070
     1
1002
}
  0
ENDTAB
  0
TABLE
  2
VIEW
  5
6
330
0
100
AcDbSymbolTable
 70
     0
  0
ENDTAB
  0
TABLE
  2
UCS
  5
7
330
0
100
AcDbSymbolTable
 70
     0
  0
ENDTAB
  0
TABLE
  2
APPID
  5
9
330
0
100
AcDbSymbolTable
 70
     3
  0
APPID
  5
56
330
9
100
AcDbSymbolTableRecord
100
AcDbRegAppTableRecord
  2
ACAD
 70
     0
  0
APPID
  5
5E
330
9
100
AcDbSymbolTableRecord
100
AcDbRegAppTableRecord
  2
AcadAnnotative
 70
     0
  0
APPID
  5
79
330
9
100
AcDbSymbolTableRecord
100
AcDbRegAppTableRecord
  2
REVIT
 70
     0
  0
ENDTAB
  0
TABLE
  2
DIMSTYLE
  5
A
330
0
100
AcDbSymbolTable
 70
     2
100
AcDbDimStyleTable
 71
     0
  0
DIMSTYLE
105
58
330
A
100
AcDbSymbolTableRecord
100
AcDbDimStyleTableRecord
  2
Standard
 70
     0
340
55
  0
DIMSTYLE
105
59
330
A
100
AcDbSymbolTableRecord
100
AcDbDimStyleTableRecord
  2
Annotative
 70
     0
340
55
1001
AcadAnnotative
1000
AnnotativeData
1002
{
1070
     1
1070
     1
1002
}
  0
ENDTAB
  0
TABLE
  2
BLOCK_RECORD
  5
1
330
0
100
AcDbSymbolTable
 70
     4
  0
BLOCK_RECORD
  5
71
102
{ACAD_XDICTIONARY
360
2FA
102
}
330
1
100
AcDbSymbolTableRecord
100
AcDbBlockTableRecord
  2
*Model_Space
340
74
 70
     0
280
     1
281
     0
  0
BLOCK_RECORD
  5
6D
330
1
100
AcDbSymbolTableRecord
100
AcDbBlockTableRecord
  2
*Paper_Space
340
70
 70
     0
280
     1
281
     0
  0
BLOCK_RECORD
  5
75
330
1
100
AcDbSymbolTableRecord
100
AcDbBlockTableRecord
  2
*Paper_Space0
340
78
 70
     0
280
     1
281
     0
  0
BLOCK_RECORD
  5
87
330
1
100
AcDbSymbolTableRecord
100
AcDbBlockTableRecord
  2
Automatic flow rate regulator valve_Caleffi_121 DN15 - 1_2__-859151-Est - Idraulica
340
0
102
{BLKREFS
331
18A
102
}
 70
     0
280
     1
281
     0
  0
BLOCK_RECORD
  5
18B
330
1
100
AcDbSymbolTableRecord
100
AcDbBlockTableRecord
  2
Automatic flow rate regulator valve_Caleffi_121 DN15 - 1_2__-V1-Est - Idraulica
340
0
102
{BLKREFS
331
231
102
}
 70
     0
280
     1
281
     0
  0
BLOCK_RECORD
  5
232
330
1
100
AcDbSymbolTableRecord
100
AcDbBlockTableRecord
  2
Automatic flow rate regulator valve_Caleffi_121 DN15 - 1_2__-V2-Est - Idraulica
340
0
102
{BLKREFS
331
2F3
102
}
 70
     0
280
     1
281
     0
  0
ENDTAB
  0
ENDSEC
  0
SECTION
  2
BLOCKS
  0
BLOCK
  5
72
330
71
100
AcDbEntity
  8
0
100
AcDbBlockBegin
  2
*Model_Space
 70
     0
 10
0.0
 20
0.0
 30
0.0
  3
*Model_Space
  1

  0
ENDBLK
  5
73
330
71
100
AcDbEntity
  8
0
100
AcDbBlockEnd
  0
BLOCK
  5
6E
330
6D
100
AcDbEntity
 67
     1
  8
0
100
AcDbBlockBegin
  2
*Paper_Space
 70
     0
 10
0.0
 20
0.0
 30
0.0
  3
*Paper_Space
  1

  0
ENDBLK
  5
6F
330
6D
100
AcDbEntity
 67
     1
  8
0
100
AcDbBlockEnd
  0
BLOCK
  5
76
330
75
100
AcDbEntity
 67
     1
  8
0
100
AcDbBlockBegin
  2
*Paper_Space0
 70
     0
 10
0.0
 20
0.0
 30
0.0
  3
*Paper_Space0
  1

  0
ENDBLK
  5
77
330
75
100
AcDbEntity
 67
     1
  8
0
100
AcDbBlockEnd
  0
BLOCK
  5
188
330
87
100
AcDbEntity
  8
0
100
AcDbBlockBegin
  2
Automatic flow rate regulator valve_Caleffi_121 DN15 - 1_2__-859151-Est - Idraulica
 70
     0
 10
0.0
 20
0.0
 30
0.0
  3
Automatic flow rate regulator valve_Caleffi_121 DN15 - 1_2__-859151-Est - Idraulica
  1

  0
LINE
  5
89
330
87
100
AcDbEntity
  8
M-PIPE
100
AcDbLine
 10
803.8664074431947
 20
2123.525944369272
 30
0.0
 11
803.8664074431945
 21
2122.610000000088
 31
0.0
1001
REVIT
1002
{
1070
     3
1000
923261
1002
}
  0
LINE
  5
8A
330
87
100
AcDbEntity
  8
M-PIPE
100
AcDbLine
 10
827.4664074431946
 20
2122.610000000088
 30
0.0
 11
827.4664074431946
 21
2123.525944369272
 31
0.0
1001
REVIT
1002
{
1070
     3
1000
923261
1002
}
  0
LINE
  5
8B
330
87
100
AcDbEntity
  8
M-PIPE
100
AcDbLine
 10
818.4948345679188
 20
2139.610000000071
 30
0.0
 11
791.9783302734235
 21
2139.610000000072
 31
0.0
1001
REVIT
1002
{
1070
     3
1000
923261
1002
}
  0
LINE
  5
8C
330
87
100
AcDbEntity
  8
M-PIPE
100
AcDbLine
 10
791.9783302734235
 20
2139.610000000072
 30
0.0
 11
791.9783302734234
 21
2135.610000000071
 31
0.0
1001
REVIT
1002
{
1070
     3
1000
923261
1002
}
  0
LINE
  5
8D
330
87
100
AcDbEntity
  8
M-PIPE
100
AcDbLine
 10
791.9783302734234
 20
2135.610000000071
 30
0.0
 11
812.9689415383005
 21
2135.610000000071
 31
0.0
1001
REVIT
1002
{
1070
     3
1000
923261
1002
}
  0
ELLIPSE
  5
8E
330
87
100
AcDbEntity
  8
M-PIPE
100
AcDbEllipse
 10
812.9689415383001
 20
2131.795207133327
 30
0.0
 11
0.0000000000004551
 21
3.814792866744028
 31
0.0
210
0.0
220
0.0
230
1.0
 40
0.707106781186563
 41
4.712388980382145
 42
6.28318530717967
1001
REVIT
1002
{
1070
     3
1000
923261
1002
}
  0
LINE
  5
8F
330
87
100
AcDbEntity
  8
M-PIPE
100
AcDbLine
 10
815.666407443197
 20
2131.795207133317
 30
0.0
 11
815.6664074431809
 21
2123.525944369271
 31
0.0
1001
REVIT
1002
{
1070
     3
1000
923261
1002
}
  0
LINE
  5
90
330
87
100
AcDbEntity
  8
M-PIPE
100
AcDbLine
 10
815.6664074431809
 20
2123.525944369271
 30
0.0
 11
832.3632407434191
 21
2123.525944369271
 31
0.0
1001
REVIT
1002
{
1070
     3
1000
923261
1002
}
  0
ELLIPSE
  5
91
330
87
100
AcDbEntity
  8
M-PIPE
100
AcDbEllipse
 10
818.4948345679185
 20
2119.610000000071
 30
0.0
 11
0.0
 21
20.00000000000034
 31
0.0
210
0.0
220
0.0
230
1.0
 40
0.7071067811865305
 41
4.909459318332708
 42
6.283185307179557
1001
REVIT
1002
{
1070
     3
1000
923261
1002
}
  0
ELLIPSE
  5
92
330
87
100
AcDbEntity
  8
M-PIPE
100
AcDbEllipse
 10
795.9983787898232
 20
2131.795207133328
 30
0.0
 11
0.0
 21
3.814792866744028
 31
0.0
210
0.0
220
0.0
230
1.0
 40
0.7071067811865332
 41
4.712388980381943
 42
6.283185307179588
1001
REVIT
1002
{
1070
     3
1000
923261
1002
}
  0
LINE
  5
93
330
87
100
AcDbEntity
  8
M-PIPE
100
AcDbLine
 10
775.0077675249465
 20
2135.610000000072
 30
0.0
 11
775.0077675249465
 21
2139.610000000072
 31
0.0
1001
REVIT
1002
{
1070
     3
1000
923261
1002
}
  0
LINE
  5
94
330
87
100
AcDbEntity
  8
M-PIPE
100
AcDbLine
 10
798.6958446947038
 20
2123.525944369271
 30
0.0
 11
798.6958446947198
 21
2131.795207133317
 31
0.0
1001
REVIT
1002
{
1070
     3
1000
923261
1002
}
  0
LINE
  5
95
330
87
100
AcDbEntity
  8
M-PIPE
100
AcDbLine
 10
775.0077675249465
 20
2139.610000000072
 30
0.0
 11
791.9783302734235
 21
2139.610000000072
 31
0.0
1001
REVIT
1002
{
1070
     3
1000
923261
1002
}
  0
LINE
  5
96
330
87
100
AcDbEntity
  8
M-PIPE
100
AcDbLine
 10
775.0077675249465
 20
2135.610000000072
 30
0.0
 11
791.9783302734234
 21
2135.610000000071
 31
0.0
1001
REVIT
1002
{
1070
     3
1000
923261
1002
}
  0
LINE
  5
97
330
87
100
AcDbEntity
  8
M-PIPE
100
AcDbLine
 10
798.6958446947038
 20
2123.525944369271
 30
0.0
 11
815.6664074431809
 21
2123.525944369271
 31
0.0
1001
REVIT
1002
{
1070
     3
1000
923261
1002
}
  0
LINE
  5
98
330
87
100
AcDbEntity
  8
M-PIPE
100
AcDbLine
 10
853.5182691002125
 20
2120.610000000056
 30
0.0
 11
853.5182691002125
 21
2130.609999999994
 31
0.0
1001
REVIT
1002
{
1070
     3
1000
923261
1002
}
  0
LINE
  5
99
330
87
100
AcDbEntity
  8
M-PIPE
100
AcDbLine
 10
845.5182691002123
 20
2130.609999999994
 30
0.0
 11
845.5182691002121
 21
2120.610000000056
 31
0.0
1001
REVIT
1002
{
1070
     3
1000
923261
1002
}
  0
LINE
  5
9A
330
87
100
AcDbEntity
  8
M-PIPE
100
AcDbLine
 10
857.5182691002124
 20
2130.609999999994
 30
0.0
 11
857.5182691002124
 21
2135.610000000057
 31
0.0
1001
REVIT
1002
{
1070
     3
1000
923261
1002
}
  0
LINE
  5
9B
330
87
100
AcDbEntity
  8
M-PIPE
100
AcDbLine
 10
841.5182691002124
 20
2135.610000000057
 30
0.0
 11
841.5182691002124
 21
2130.609999999994
 31
0.0
1001
REVIT
1002
{
1070
     3
1000
923261
1002
}
  0
LINE
  5
9C
330
87
100
AcDbEntity
  8
M-PIPE
100
AcDbLine
 10
841.5182691002108
 20
2135.610000000056
 30
0.0
 11
857.5182691002108
 21
2135.610000000056
 31
0.0
1001
REVIT
1002
{
1070
     3
1000
923261
1002
}
  0
LINE
  5
9D
330
87
100
AcDbEntity
  8
M-PIPE
100
AcDbLine
 10
857.5182691002108
 20
2130.609999999993
 30
0.0
 11
841.5182691002108
 21
2130.609999999993
 31
0.0
1001
REVIT
1002
{
1070
     3
1000
923261
1002
}
  0
LINE
  5
9E
330
87
100
AcDbEntity
  8
M-PIPE
100
AcDbLine
 10
770.1664074431614
 20
2113.610000000058
 30
0.0
 11
762.1664074431615
 21
2113.610000000058
 31
0.0
1001
REVIT
1002
{
1070
     3
1000
923261
1002
}
  0
LINE
  5
9F
330
87
100
AcDbEntity
  8
M-PIPE
100
AcDbLine
 10
762.1664074431611
 20
2089.610000000058
 30
0.0
 11
770.1664074431612
 21
2089.610000000058
 31
0.0
1001
REVIT
1002
{
1070
     3
1000
923261
1002
}
  0
LINE
  5
A0
330
87
100
AcDbEntity
  8
M-PIPE
100
AcDbLine
 10
757.1664074431605
 20
2093.610000000058
 30
0.0
 11
762.1664074431611
 21
2093.610000000058
 31
0.0
1001
REVIT
1002
{
1070
     3
1000
923261
1002
}
  0
LINE
  5
A1
330
87
100
AcDbEntity
  8
M-PIPE
100
AcDbLine
 10
770.1664074431613
 20
2093.610000000058
 30
0.0
 11
783.16640744316
 21
2093.610000000057
 31
0.0
1001
REVIT
1002
{
1070
     3
1000
923261
1002
}
  0
LINE
  5
A2
330
87
100
AcDbEntity
  8
M-PIPE
100
AcDbLine
 10
783.1664074431605
 20
2109.610000000057
 30
0.0
 11
770.1664074431614
 21
2109.610000000058
 31
0.0
1001
REVIT
1002
{
1070
     3
1000
923261
1002
}
  0
LINE
  5
A3
330
87
100
AcDbEntity
  8
M-PIPE
100
AcDbLine
 10
762.1664074431615
 20
2109.610000000058
 30
0.0
 11
757.1664074431609
 21
2109.610000000058
 31
0.0
1001
REVIT
1002
{
1070
     3
1000
923261
1002
}
  0
LINE
  5
A4
330
87
100
AcDbEntity
  8
M-PIPE
100
AcDbLine
 10
770.1664074431599
 20
2113.610000000056
 30
0.0
 11
770.1664074431597
 21
2101.610000000057
 31
0.0
1001
REVIT
1002
{
1070
     3
1000
923261
1002
}
  0
LINE
  5
A5
330
87
100
AcDbEntity
  8
M-PIPE
100
AcDbLine
 10
770.1664074431597
 20
2101.610000000057
 30
0.0
 11
770.1664074431595
 21
2089.610000000057
 31
0.0
1001
REVIT
1002
{
1070
     3
1000
923261
1002
}
  0
LINE
  5
A6
330
87
100
AcDbEntity
  8
M-PIPE
100
AcDbLine
 10
762.1664074431596
 20
2089.610000000057
 30
0.0
 11
762.1664074431597
 21
2101.610000000057
 31
0.0
1001
REVIT
1002
{
1070
     3
1000
923261
1002
}
  0
LINE
  5
A7
330
87
100
AcDbEntity
  8
M-PIPE
100
AcDbLine
 10
762.1664074431597
 20
2101.610000000057
 30
0.0
 11
762.1664074431598
 21
2113.610000000056
 31
0.0
1001
REVIT
1002
{
1070
     3
1000
923261
1002
}
  0
LINE
  5
A8
330
87
100
AcDbEntity
  8
M-PIPE
100
AcDbLine
 10
757.1664074431591
 20
2101.610000000057
 30
0.0
 11
757.1664074431593
 21
2109.610000000056
 31
0.0
1001
REVIT
1002
{
1070
     3
1000
923261
1002
}
  0
LINE
  5
A9
330
87
100
AcDbEntity
  8
M-PIPE
100
AcDbLine
 10
757.1664074431591
 20
2093.610000000056
 30
0.0
 11
757.1664074431591
 21
2101.610000000057
 31
0.0
1001
REVIT
1002
{
1070
     3
1000
923261
1002
}
  0
LINE
  5
AA
330
87
100
AcDbEntity
  8
M-PIPE
100
AcDbLine
 10
857.5182691002122
 20
2052.400000000057
 30
0.0
 11
857.5182691002122
 21
2060.400000000056
 31
0.0
1001
REVIT
1002
{
1070
     3
1000
923261
1002
}
  0
LINE
  5
AB
330
87
100
AcDbEntity
  8
M-PIPE
100
AcDbLine
 10
841.5182691002121
 20
2060.400000000056
 30
0.0
 11
841.5182691002121
 21
2052.400000000057
 31
0.0
1001
REVIT
1002
{
1070
     3
1000
923261
1002
}
  0
LINE
  5
AC
330
87
100
AcDbEntity
  8
M-PIPE
100
AcDbLine
 10
827.6664074431725
 20
2120.610000000057
 30
0.0
 11
827.6664074431725
 21
2122.610000000057
 31
0.0
1001
REVIT
1002
{
1070
     3
1000
923261
1002
}
  0
LINE
  5
AD
330
87
100
AcDbEntity
  8
M-PIPE
100
AcDbLine
 10
803.6664074431724
 20
2122.610000000057
 30
0.0
 11
803.6664074431724
 21
2120.610000000057
 31
0.0
1001
REVIT
1002
{
1070
     3
1000
923261
1002
}
  0
ARC
  5
AE
330
87
100
AcDbEntity
  8
M-PIPE
100
AcDbCircle
 10
803.1664074431592
 20
2080.400000000055
 30
0.0
 40
19.99999999999977
100
AcDbArc
 50
179.9999999999994
 51
269.999999999998
1001
REVIT
1002
{
1070
     3
1000
923261
1002
}
  0
LINE
  5
AF
330
87
100
AcDbEntity
  8
M-PIPE
100
AcDbLine
 10
803.1664074431589
 20
2060.400000000056
 30
0.0
 11
865.6664074431589
 21
2060.400000000056
 31
0.0
1001
REVIT
1002
{
1070
     3
1000
923261
1002
}
  0
ARC
  5
B0
330
87
100
AcDbEntity
  8
M-PIPE
100
AcDbCircle
 10
865.6664074431594
 20
2093.400000000055
 30
0.0
 40
32.99999999999982
100
AcDbArc
 50
269.9999999999983
 51
359.9999999999983
1001
REVIT
1002
{
1070
     3
1000
923261
1002
}
  0
LINE
  5
B1
330
87
100
AcDbEntity
  8
M-PIPE
100
AcDbLine
 10
898.6664074431592
 20
2093.400000000055
 30
0.0
 11
898.6664074431592
 21
2098.60951915939
 31
0.0
1001
REVIT
1002
{
1070
     3
1000
923261
1002
}
  0
LINE
  5
B2
330
87
100
AcDbEntity
  8
M-PIPE
100
AcDbLine
 10
783.1664074431593
 20
2080.610000000055
 30
0.0
 11
783.1664074431593
 21
2080.400000000056
 31
0.0
1001
REVIT
1002
{
1070
     3
1000
923261
1002
}
  0
ARC
  5
B3
330
87
100
AcDbEntity
  8
M-PIPE
100
AcDbCircle
 10
891.6664074431594
 20
2113.610000000055
 30
0.0
 40
7.000000000000464
100
AcDbArc
 50
359.9999999999992
 51
89.99999999999955
1001
REVIT
1002
{
1070
     3
1000
923261
1002
}
  0
LINE
  5
B4
330
87
100
AcDbEntity
  8
M-PIPE
100
AcDbLine
 10
891.6664074431595
 20
2120.610000000056
 30
0.0
 11
783.1664074431594
 21
2120.610000000056
 31
0.0
1001
REVIT
1002
{
1070
     3
1000
923261
1002
}
  0
LINE
  5
B5
330
87
100
AcDbEntity
  8
M-PIPE
100
AcDbLine
 10
783.1664074431594
 20
2120.610000000056
 30
0.0
 11
783.1664074431593
 21
2090.722328629041
 31
0.0
1001
REVIT
1002
{
1070
     3
1000
923261
1002
}
  0
LINE
  5
B6
330
87
100
AcDbEntity
  8
M-PIPE
100
AcDbLine
 10
898.6664074431596
 20
2108.610000000055
 30
0.0
 11
898.6664074431596
 21
2113.610000000055
 31
0.0
1001
REVIT
1002
{
1070
     3
1000
923261
1002
}
  0
LINE
  5
B7
330
87
100
AcDbEntity
  8
M-PIPE
100
AcDbLine
 10
857.5182691002105
 20
2052.400000000056
 30
0.0
 11
841.5182691002105
 21
2052.400000000056
 31
0.0
1001
REVIT
1002
{
1070
     3
1000
923261
1002
}
  0
LINE
  5
B8
330
87
100
AcDbEntity
  8
M-PIPE
100
AcDbLine
 10
783.1664074431593
 20
2080.610000000055
 30
0.0
 11
783.1664074431593
 21
2090.722328629041
 31
0.0
1001
REVIT
1002
{
1070
     3
1000
923261
1002
}
  0
ARC
  5
B9
330
87
100
AcDbEntity
  8
M-PIPE
100
AcDbCircle
 10
789.1627547930135
 20
2240.602889362595
 30
0.0
 40
160.1052179915262
100
AcDbArc
 50
267.8536254461361
 51
292.1463745538602
1001
REVIT
1002
{
1070
     3
1000
923261
1002
}
  0
ARC
  5
BA
330
87
100
AcDbEntity
  8
M-PIPE
100
AcDbCircle
 10
893.8163052506517
 20
1941.640924854704
 30
0.0
 40
157.0457663781111
100
AcDbArc
 50
88.20933210116651
 51
106.3838397345606
1001
REVIT
1002
{
1070
     3
1000
923261
1002
}
  0
LINE
  5
BB
330
87
100
AcDbEntity
  8
M-PIPE
100
AcDbLine
 10
898.7236655697513
 20
2098.610000000055
 30
0.0
 11
900.1664074431594
 21
2098.610000000055
 31
0.0
1001
REVIT
1002
{
1070
     3
1000
923261
1002
}
  0
LINE
  5
BC
330
87
100
AcDbEntity
  8
M-PIPE
100
AcDbLine
 10
900.1664074431594
 20
2098.610000000055
 30
0.0
 11
900.1664074431594
 21
2108.610000000055
 31
0.0
1001
REVIT
1002
{
1070
     3
1000
923261
1002
}
  0
LINE
  5
BD
330
87
100
AcDbEntity
  8
M-PIPE
100
AcDbLine
 10
900.1664074431594
 20
2108.610000000055
 30
0.0
 11
886.1134609974261
 21
2108.610000000055
 31
0.0
1001
REVIT
1002
{
1070
     3
1000
923261
1002
}
  0
ARC
  5
BE
330
87
100
AcDbEntity
  8
M-PIPE
100
AcDbCircle
 10
893.8163052506517
 20
1951.753253483691
 30
0.0
 40
157.0457663781112
100
AcDbArc
 50
92.81139458151663
 51
106.3838397345599
1001
REVIT
1002
{
1070
     3
1000
923261
1002
}
  0
ARC
  5
BF
330
87
100
AcDbEntity
  8
M-PIPE
100
AcDbCircle
 10
789.1627547930135
 20
2250.715217991582
 30
0.0
 40
160.1052179915261
100
AcDbArc
 50
267.8536254461368
 51
292.1463745538611
1001
REVIT
1002
{
1070
     3
1000
923261
1002
}
  0
LINE
  5
C0
330
87
100
AcDbEntity
  8
M-PIPE
100
AcDbLine
 10
803.6664074431708
 20
2122.610000000056
 30
0.0
 11
827.666407443171
 21
2122.610000000056
 31
0.0
1001
REVIT
1002
{
1070
     3
1000
923261
1002
}
  0
LINE
  5
C1
330
87
100
AcDbEntity
  8
M-PIPE
100
AcDbLine
 10
828.1664074431725
 20
2044.499999999996
 30
0.0
 11
828.1664074431725
 21
2060.389999999994
 31
0.0
1001
REVIT
1002
{
1070
     3
1000
923261
1002
}
  0
LINE
  5
C2
330
87
100
AcDbEntity
  8
M-PIPE
100
AcDbLine
 10
803.1664074431725
 20
2060.389999999994
 30
0.0
 11
803.1664074431725
 21
2044.499999999996
 31
0.0
1001
REVIT
1002
{
1070
     3
1000
923261
1002
}
  0
LINE
  5
C3
330
87
100
AcDbEntity
  8
M-PIPE
100
AcDbLine
 10
889.6664074431942
 20
2041.499999999984
 30
0.0
 11
888.2230317702216
 21
2043.99999999998
 31
0.0
1001
REVIT
1002
{
1070
     3
1000
790271
1002
}
  0
LINE
  5
C4
330
87
100
AcDbEntity
  8
M-PIPE
100
AcDbLine
 10
888.2230317702035
 20
1955.999999999981
 30
0.0
 11
889.6664074431926
 21
1958.500000000007
 31
0.0
1001
REVIT
1002
{
1070
     3
1000
790271
1002
}
  0
LINE
  5
C5
330
87
100
AcDbEntity
  8
M-PIPE
100
AcDbLine
 10
862.1097831161764
 20
2043.99999999998
 30
0.0
 11
860.6664074431943
 21
2041.499999999967
 31
0.0
1001
REVIT
1002
{
1070
     3
1000
790271
1002
}
  0
LINE
  5
C6
330
87
100
AcDbEntity
  8
M-PIPE
100
AcDbLine
 10
860.6664074431929
 20
1958.500000000025
 30
0.0
 11
862.1097831161932
 21
1955.999999999979
 31
0.0
1001
REVIT
1002
{
1070
     3
1000
790271
1002
}
  0
LINE
  5
C7
330
87
100
AcDbEntity
  8
M-PIPE
100
AcDbLine
 10
888.2230317702129
 20
2043.999999999975
 30
0.0
 11
862.1097831161851
 21
2043.999999999975
 31
0.0
1001
REVIT
1002
{
1070
     3
1000
790271
1002
}
  0
LINE
  5
C8
330
87
100
AcDbEntity
  8
M-PIPE
100
AcDbLine
 10
862.1097831161851
 20
1955.999999999975
 30
0.0
 11
888.2230317702129
 21
1955.999999999975
 31
0.0
1001
REVIT
1002
{
1070
     3
1000
790271
1002
}
  0
LINE
  5
C9
330
87
100
AcDbEntity
  8
M-PIPE
100
AcDbLine
 10
889.6664074431926
 20
2041.499999999983
 30
0.0
 11
889.6664074431928
 21
2035.940054257039
 31
0.0
1001
REVIT
1002
{
1070
     3
1000
790271
1002
}
  0
LINE
  5
CA
330
87
100
AcDbEntity
  8
M-PIPE
100
AcDbLine
 10
889.6664074431928
 20
2035.940054257039
 30
0.0
 11
889.6664074431924
 21
2020.749999999989
 31
0.0
1001
REVIT
1002
{
1070
     3
1000
790271
1002
}
  0
LINE
  5
CB
330
87
100
AcDbEntity
  8
M-PIPE
100
AcDbLine
 10
889.6664074431924
 20
2020.749999999988
 30
0.0
 11
889.6664074431921
 21
1999.999999999996
 31
0.0
1001
REVIT
1002
{
1070
     3
1000
790271
1002
}
  0
LINE
  5
CC
330
87
100
AcDbEntity
  8
M-PIPE
100
AcDbLine
 10
889.6664074431921
 20
1999.999999999996
 30
0.0
 11
889.6664074431914
 21
1964.059945742951
 31
0.0
1001
REVIT
1002
{
1070
     3
1000
790271
1002
}
  0
LINE
  5
CD
330
87
100
AcDbEntity
  8
M-PIPE
100
AcDbLine
 10
889.6664074431914
 20
1964.059945742951
 30
0.0
 11
889.666407443191
 21
1958.500000000006
 31
0.0
1001
REVIT
1002
{
1070
     3
1000
790271
1002
}
  0
LINE
  5
CE
330
87
100
AcDbEntity
  8
M-PIPE
100
AcDbLine
 10
860.6664074431927
 20
2020.74999999998
 30
0.0
 11
860.6664074431931
 21
2035.940054257023
 31
0.0
1001
REVIT
1002
{
1070
     3
1000
790271
1002
}
  0
LINE
  5
CF
330
87
100
AcDbEntity
  8
M-PIPE
100
AcDbLine
 10
860.6664074431931
 20
2035.940054257023
 30
0.0
 11
860.6664074431929
 21
2041.499999999965
 31
0.0
1001
REVIT
1002
{
1070
     3
1000
790271
1002
}
  0
LINE
  5
D0
330
87
100
AcDbEntity
  8
M-PIPE
100
AcDbLine
 10
860.6664074431913
 20
1958.500000000024
 30
0.0
 11
860.6664074431916
 21
1964.059945742966
 31
0.0
1001
REVIT
1002
{
1070
     3
1000
790271
1002
}
  0
LINE
  5
D1
330
87
100
AcDbEntity
  8
M-PIPE
100
AcDbLine
 10
860.6664074431916
 20
1964.059945742966
 30
0.0
 11
860.6664074431924
 21
1999.999999999993
 31
0.0
1001
REVIT
1002
{
1070
     3
1000
790271
1002
}
  0
LINE
  5
D2
330
87
100
AcDbEntity
  8
M-PIPE
100
AcDbLine
 10
860.6664074431924
 20
1999.999999999993
 30
0.0
 11
860.6664074431927
 21
2020.74999999998
 31
0.0
1001
REVIT
1002
{
1070
     3
1000
790271
1002
}
  0
SPLINE
  5
D3
330
87
100
AcDbEntity
  8
M-PIPE
100
AcDbSpline
210
0.0
220
0.0
230
1.0
 70
     8
 71
     3
 72
     9
 73
     5
 74
     0
 42
0.000000001
 43
0.0000000001
 40
0.0
 40
0.0
 40
0.0
 40
0.0
 40
0.5
 40
1.0
 40
1.0
 40
1.0
 40
1.0
 10
888.2230317702081
 20
1985.37980848276
 30
0.0
 10
888.692401308924
 20
1987.752980529645
 30
0.0
 10
889.4023334598037
 20
1992.562851162735
 30
0.0
 10
889.6546517575803
 20
1997.499774874468
 30
0.0
 10
889.6664074431924
 20
1999.999999999996
 30
0.0
1001
REVIT
1002
{
1070
     3
1000
790271
1002
}
  0
SPLINE
  5
D4
330
87
100
AcDbEntity
  8
M-PIPE
100
AcDbSpline
210
0.0
220
0.0
230
1.0
 70
     8
 71
     3
 72
     9
 73
     5
 74
     0
 42
0.000000001
 43
0.0000000001
 40
0.0
 40
0.0
 40
0.0
 40
0.0
 40
0.5
 40
1.0
 40
1.0
 40
1.0
 40
1.0
 10
889.6664074431924
 20
1999.999999999996
 30
0.0
 10
889.6546517575803
 20
2002.500225125516
 30
0.0
 10
889.4023334598053
 20
2007.437148837235
 30
0.0
 10
888.6924013089297
 20
2012.247019470311
 30
0.0
 10
888.2230317702164
 20
2014.620191517188
 30
0.0
1001
REVIT
1002
{
1070
     3
1000
790271
1002
}
  0
LINE
  5
D5
330
87
100
AcDbEntity
  8
M-PIPE
100
AcDbLine
 10
888.2230317702164
 20
2014.620191517188
 30
0.0
 11
862.1097831161783
 21
2014.620191517188
 31
0.0
1001
REVIT
1002
{
1070
     3
1000
790271
1002
}
  0
SPLINE
  5
D6
330
87
100
AcDbEntity
  8
M-PIPE
100
AcDbSpline
210
0.0
220
0.0
230
1.0
 70
     8
 71
     3
 72
     9
 73
     5
 74
     0
 42
0.000000001
 43
0.0000000001
 40
0.0
 40
0.0
 40
0.0
 40
0.0
 40
0.5
 40
1.0
 40
1.0
 40
1.0
 40
1.0
 10
862.1097831161783
 20
2014.620191517188
 30
0.0
 10
861.6404135774665
 20
2012.24701947031
 30
0.0
 10
860.9304814265906
 20
2007.437148837233
 30
0.0
 10
860.6781631288095
 20
2002.500225125514
 30
0.0
 10
860.6664074431927
 20
1999.999999999994
 30
0.0
1001
REVIT
1002
{
1070
     3
1000
790271
1002
}
  0
SPLINE
  5
D7
330
87
100
AcDbEntity
  8
M-PIPE
100
AcDbSpline
210
0.0
220
0.0
230
1.0
 70
     8
 71
     3
 72
     9
 73
     5
 74
     0
 42
0.000000001
 43
0.0000000001
 40
0.0
 40
0.0
 40
0.0
 40
0.0
 40
0.5
 40
1.0
 40
1.0
 40
1.0
 40
1.0
 10
860.6664074431927
 20
1999.999999999994
 30
0.0
 10
860.6781631288097
 20
1997.499774874467
 30
0.0
 10
860.9304814265922
 20
1992.562851162735
 30
0.0
 10
861.6404135774718
 20
1987.752980529645
 30
0.0
 10
862.1097831161858
 20
1985.37980848276
 30
0.0
1001
REVIT
1002
{
1070
     3
1000
790271
1002
}
  0
LINE
  5
D8
330
87
100
AcDbEntity
  8
M-PIPE
100
AcDbLine
 10
862.1097831161858
 20
1985.37980848276
 30
0.0
 11
888.2230317702081
 21
1985.37980848276
 31
0.0
1001
REVIT
1002
{
1070
     3
1000
790271
1002
}
  0
SPLINE
  5
D9
330
87
100
AcDbEntity
  8
M-PIPE
100
AcDbSpline
210
0.0
220
0.0
230
1.0
 70
     8
 71
     3
 72
     9
 73
     5
 74
     0
 42
0.000000001
 43
0.0000000001
 40
0.0
 40
0.0
 40
0.0
 40
0.0
 40
0.5
 40
1.0
 40
1.0
 40
1.0
 40
1.0
 10
888.2230317701987
 20
1956.749849984313
 30
0.0
 10
888.6924013089121
 20
1957.936436007755
 30
0.0
 10
889.4023334597907
 20
1960.341371324298
 30
0.0
 10
889.6546517575742
 20
1962.809833180164
 30
0.0
 10
889.6664074431923
 20
1964.059945742927
 30
0.0
1001
REVIT
1002
{
1070
     3
1000
790271
1002
}
  0
SPLINE
  5
DA
330
87
100
AcDbEntity
  8
M-PIPE
100
AcDbSpline
210
0.0
220
0.0
230
1.0
 70
     8
 71
     3
 72
     9
 73
     5
 74
     0
 42
0.000000001
 43
0.0000000001
 40
0.0
 40
0.0
 40
0.0
 40
0.0
 40
0.5
 40
1.0
 40
1.0
 40
1.0
 40
1.0
 10
889.6664074431923
 20
1964.059945742927
 30
0.0
 10
889.6546517575746
 20
1965.310058305687
 30
0.0
 10
889.4023334597918
 20
1967.778520161548
 30
0.0
 10
888.6924013089155
 20
1970.183455478087
 30
0.0
 10
888.2230317702038
 20
1971.370041501527
 30
0.0
1001
REVIT
1002
{
1070
     3
1000
790271
1002
}
  0
LINE
  5
DB
330
87
100
AcDbEntity
  8
M-PIPE
100
AcDbLine
 10
888.2230317702038
 20
1971.370041501527
 30
0.0
 11
862.1097831161897
 21
1971.370041501527
 31
0.0
1001
REVIT
1002
{
1070
     3
1000
790271
1002
}
  0
SPLINE
  5
DC
330
87
100
AcDbEntity
  8
M-PIPE
100
AcDbSpline
210
0.0
220
0.0
230
1.0
 70
     8
 71
     3
 72
     9
 73
     5
 74
     0
 42
0.000000001
 43
0.0000000001
 40
0.0
 40
0.0
 40
0.0
 40
0.0
 40
0.5
 40
1.0
 40
1.0
 40
1.0
 40
1.0
 10
862.1097831161897
 20
1971.370041501527
 30
0.0
 10
861.6404135774793
 20
1970.183455478087
 30
0.0
 10
860.9304814266028
 20
1967.778520161547
 30
0.0
 10
860.6781631288146
 20
1965.310058305686
 30
0.0
 10
860.6664074431925
 20
1964.059945742926
 30
0.0
1001
REVIT
1002
{
1070
     3
1000
790271
1002
}
  0
SPLINE
  5
DD
330
87
100
AcDbEntity
  8
M-PIPE
100
AcDbSpline
210
0.0
220
0.0
230
1.0
 70
     8
 71
     3
 72
     9
 73
     5
 74
     0
 42
0.000000001
 43
0.0000000001
 40
0.0
 40
0.0
 40
0.0
 40
0.0
 40
0.5
 40
1.0
 40
1.0
 40
1.0
 40
1.0
 10
860.6664074431925
 20
1964.059945742926
 30
0.0
 10
860.6781631288148
 20
1962.809833180163
 30
0.0
 10
860.9304814266035
 20
1960.341371324298
 30
0.0
 10
861.6404135774821
 20
1957.936436007755
 30
0.0
 10
862.1097831161939
 20
1956.749849984313
 30
0.0
1001
REVIT
1002
{
1070
     3
1000
790271
1002
}
  0
LINE
  5
DE
330
87
100
AcDbEntity
  8
M-PIPE
100
AcDbLine
 10
862.1097831161939
 20
1956.749849984313
 30
0.0
 11
888.2230317701987
 21
1956.749849984313
 31
0.0
1001
REVIT
1002
{
1070
     3
1000
790271
1002
}
  0
SPLINE
  5
DF
330
87
100
AcDbEntity
  8
M-PIPE
100
AcDbSpline
210
0.0
220
0.0
230
1.0
 70
     8
 71
     3
 72
     9
 73
     5
 74
     0
 42
0.000000001
 43
0.0000000001
 40
0.0
 40
0.0
 40
0.0
 40
0.0
 40
0.5
 40
1.0
 40
1.0
 40
1.0
 40
1.0
 10
888.2230317702202
 20
2028.629958498422
 30
0.0
 10
888.692401308937
 20
2029.816544521862
 30
0.0
 10
889.4023334598157
 20
2032.221479838405
 30
0.0
 10
889.6546517575853
 20
2034.68994169427
 30
0.0
 10
889.6664074431924
 20
2035.940054257033
 30
0.0
1001
REVIT
1002
{
1070
     3
1000
790271
1002
}
  0
SPLINE
  5
E0
330
87
100
AcDbEntity
  8
M-PIPE
100
AcDbSpline
210
0.0
220
0.0
230
1.0
 70
     8
 71
     3
 72
     9
 73
     5
 74
     0
 42
0.000000001
 43
0.0000000001
 40
0.0
 40
0.0
 40
0.0
 40
0.0
 40
0.5
 40
1.0
 40
1.0
 40
1.0
 40
1.0
 10
889.6664074431924
 20
2035.940054257033
 30
0.0
 10
889.6546517575853
 20
2037.190166819794
 30
0.0
 10
889.4023334598163
 20
2039.658628675656
 30
0.0
 10
888.6924013089393
 20
2042.063563992195
 30
0.0
 10
888.2230317702235
 20
2043.250150015635
 30
0.0
1001
REVIT
1002
{
1070
     3
1000
790271
1002
}
  0
LINE
  5
E1
330
87
100
AcDbEntity
  8
M-PIPE
100
AcDbLine
 10
888.2230317702235
 20
2043.250150015635
 30
0.0
 11
862.1097831161719
 21
2043.250150015635
 31
0.0
1001
REVIT
1002
{
1070
     3
1000
790271
1002
}
  0
SPLINE
  5
E2
330
87
100
AcDbEntity
  8
M-PIPE
100
AcDbSpline
210
0.0
220
0.0
230
1.0
 70
     8
 71
     3
 72
     9
 73
     5
 74
     0
 42
0.000000001
 43
0.0000000001
 40
0.0
 40
0.0
 40
0.0
 40
0.0
 40
0.5
 40
1.0
 40
1.0
 40
1.0
 40
1.0
 10
862.1097831161719
 20
2043.250150015635
 30
0.0
 10
861.6404135774578
 20
2042.063563992195
 30
0.0
 10
860.9304814265806
 20
2039.658628675656
 30
0.0
 10
860.6781631288052
 20
2037.190166819794
 30
0.0
 10
860.6664074431927
 20
2035.940054257032
 30
0.0
1001
REVIT
1002
{
1070
     3
1000
790271
1002
}
  0
SPLINE
  5
E3
330
87
100
AcDbEntity
  8
M-PIPE
100
AcDbSpline
210
0.0
220
0.0
230
1.0
 70
     8
 71
     3
 72
     9
 73
     5
 74
     0
 42
0.000000001
 43
0.0000000001
 40
0.0
 40
0.0
 40
0.0
 40
0.0
 40
0.5
 40
1.0
 40
1.0
 40
1.0
 40
1.0
 10
860.6664074431927
 20
2035.940054257032
 30
0.0
 10
860.6781631288052
 20
2034.68994169427
 30
0.0
 10
860.9304814265813
 20
2032.221479838406
 30
0.0
 10
861.6404135774601
 20
2029.816544521862
 30
0.0
 10
862.1097831161751
 20
2028.629958498422
 30
0.0
1001
REVIT
1002
{
1070
     3
1000
790271
1002
}
  0
LINE
  5
E4
330
87
100
AcDbEntity
  8
M-PIPE
100
AcDbLine
 10
862.1097831161751
 20
2028.629958498422
 30
0.0
 11
888.2230317702202
 21
2028.629958498422
 31
0.0
1001
REVIT
1002
{
1070
     3
1000
790271
1002
}
  0
LINE
  5
E5
330
87
100
AcDbEntity
  8
M-PIPE
100
AcDbLine
 10
888.223031770218
 20
2028.629958498425
 30
0.0
 11
888.2230317702179
 21
2021.999999999984
 31
0.0
1001
REVIT
1002
{
1070
     3
1000
790271
1002
}
  0
LINE
  5
E6
330
87
100
AcDbEntity
  8
M-PIPE
100
AcDbLine
 10
862.1097831161783
 20
2021.999999999986
 30
0.0
 11
862.1097831161785
 21
2028.629958498426
 31
0.0
1001
REVIT
1002
{
1070
     3
1000
790271
1002
}
  0
LINE
  5
E7
330
87
100
AcDbEntity
  8
M-PIPE
100
AcDbLine
 10
888.2230317702202
 20
2043.99999999998
 30
0.0
 11
888.2230317702202
 21
2043.250150015641
 31
0.0
1001
REVIT
1002
{
1070
     3
1000
790271
1002
}
  0
LINE
  5
E8
330
87
100
AcDbEntity
  8
M-PIPE
100
AcDbLine
 10
888.2230317702019
 20
1956.749849984318
 30
0.0
 11
888.2230317702019
 21
1955.99999999998
 31
0.0
1001
REVIT
1002
{
1070
     3
1000
790271
1002
}
  0
LINE
  5
E9
330
87
100
AcDbEntity
  8
M-PIPE
100
AcDbLine
 10
888.223031770209
 20
1985.379808482761
 30
0.0
 11
888.2230317702088
 21
1971.370041501533
 31
0.0
1001
REVIT
1002
{
1070
     3
1000
790271
1002
}
  0
LINE
  5
EA
330
87
100
AcDbEntity
  8
M-PIPE
100
AcDbLine
 10
888.2230317702166
 20
2021.999999999985
 30
0.0
 11
888.2230317702166
 21
2014.620191517188
 31
0.0
1001
REVIT
1002
{
1070
     3
1000
790271
1002
}
  0
LINE
  5
EB
330
87
100
AcDbEntity
  8
M-PIPE
100
AcDbLine
 10
862.1097831161748
 20
2043.25015001564
 30
0.0
 11
862.1097831161748
 21
2043.999999999979
 31
0.0
1001
REVIT
1002
{
1070
     3
1000
790271
1002
}
  0
LINE
  5
EC
330
87
100
AcDbEntity
  8
M-PIPE
100
AcDbLine
 10
862.1097831161916
 20
1955.999999999978
 30
0.0
 11
862.1097831161916
 21
1956.749849984317
 31
0.0
1001
REVIT
1002
{
1070
     3
1000
790271
1002
}
  0
LINE
  5
ED
330
87
100
AcDbEntity
  8
M-PIPE
100
AcDbLine
 10
862.1097831161881
 20
1971.370041501529
 30
0.0
 11
862.1097831161884
 21
1985.379808482759
 31
0.0
1001
REVIT
1002
{
1070
     3
1000
790271
1002
}
  0
LINE
  5
EE
330
87
100
AcDbEntity
  8
M-PIPE
100
AcDbLine
 10
862.1097831161797
 20
2014.620191517189
 30
0.0
 11
862.1097831161799
 21
2021.999999999986
 31
0.0
1001
REVIT
1002
{
1070
     3
1000
790271
1002
}
  0
LINE
  5
EF
330
87
100
AcDbEntity
  8
M-PIPE
100
AcDbLine
 10
743.1097831161407
 20
2044.000000000007
 30
0.0
 11
741.6664074431536
 21
2041.499999999984
 31
0.0
1001
REVIT
1002
{
1070
     3
1000
790271
1002
}
  0
LINE
  5
F0
330
87
100
AcDbEntity
  8
M-PIPE
100
AcDbLine
 10
770.6664074431532
 20
2041.499999999967
 30
0.0
 11
769.2230317701568
 21
2044.000000000005
 31
0.0
1001
REVIT
1002
{
1070
     3
1000
790271
1002
}
  0
LINE
  5
F1
330
87
100
AcDbEntity
  8
M-PIPE
100
AcDbLine
 10
769.2230317701613
 20
2044.000000000008
 30
0.0
 11
743.1097831161337
 21
2044.000000000008
 31
0.0
1001
REVIT
1002
{
1070
     3
1000
790271
1002
}
  0
LINE
  5
F2
330
87
100
AcDbEntity
  8
M-PIPE
100
AcDbLine
 10
741.6664074431527
 20
1958.500000000008
 30
0.0
 11
743.1097831161282
 21
1956.000000000005
 31
0.0
1001
REVIT
1002
{
1070
     3
1000
790271
1002
}
  0
LINE
  5
F3
330
87
100
AcDbEntity
  8
M-PIPE
100
AcDbLine
 10
769.2230317701651
 20
1956.000000000003
 30
0.0
 11
770.6664074431524
 21
1958.500000000025
 31
0.0
1001
REVIT
1002
{
1070
     3
1000
790271
1002
}
  0
LINE
  5
F4
330
87
100
AcDbEntity
  8
M-PIPE
100
AcDbLine
 10
743.1097831161336
 20
1956.000000000008
 30
0.0
 11
769.2230317701612
 21
1956.000000000008
 31
0.0
1001
REVIT
1002
{
1070
     3
1000
790271
1002
}
  0
LINE
  5
F5
330
87
100
AcDbEntity
  8
M-PIPE
100
AcDbLine
 10
741.6664074431511
 20
1958.500000000007
 30
0.0
 11
741.6664074431516
 21
1964.059945742951
 31
0.0
1001
REVIT
1002
{
1070
     3
1000
790271
1002
}
  0
LINE
  5
F6
330
87
100
AcDbEntity
  8
M-PIPE
100
AcDbLine
 10
741.6664074431516
 20
1964.059945742951
 30
0.0
 11
741.6664074431523
 21
1999.999999999994
 31
0.0
1001
REVIT
1002
{
1070
     3
1000
790271
1002
}
  0
LINE
  5
F7
330
87
100
AcDbEntity
  8
M-PIPE
100
AcDbLine
 10
741.6664074431523
 20
1999.999999999994
 30
0.0
 11
741.6664074431524
 21
2035.940054257039
 31
0.0
1001
REVIT
1002
{
1070
     3
1000
790271
1002
}
  0
LINE
  5
F8
330
87
100
AcDbEntity
  8
M-PIPE
100
AcDbLine
 10
741.6664074431524
 20
2035.940054257039
 30
0.0
 11
741.6664074431521
 21
2041.499999999984
 31
0.0
1001
REVIT
1002
{
1070
     3
1000
790271
1002
}
  0
LINE
  5
F9
330
87
100
AcDbEntity
  8
M-PIPE
100
AcDbLine
 10
770.6664074431519
 20
2041.499999999965
 30
0.0
 11
770.6664074431523
 21
2035.940054257023
 31
0.0
1001
REVIT
1002
{
1070
     3
1000
790271
1002
}
  0
LINE
  5
FA
330
87
100
AcDbEntity
  8
M-PIPE
100
AcDbLine
 10
770.6664074431523
 20
2035.940054257023
 30
0.0
 11
770.6664074431521
 21
1999.999999999996
 31
0.0
1001
REVIT
1002
{
1070
     3
1000
790271
1002
}
  0
LINE
  5
FB
330
87
100
AcDbEntity
  8
M-PIPE
100
AcDbLine
 10
770.6664074431521
 20
1999.999999999996
 30
0.0
 11
770.6664074431513
 21
1964.059945742967
 31
0.0
1001
REVIT
1002
{
1070
     3
1000
790271
1002
}
  0
LINE
  5
FC
330
87
100
AcDbEntity
  8
M-PIPE
100
AcDbLine
 10
770.6664074431513
 20
1964.059945742967
 30
0.0
 11
770.6664074431508
 21
1958.500000000024
 31
0.0
1001
REVIT
1002
{
1070
     3
1000
790271
1002
}
  0
SPLINE
  5
FD
330
87
100
AcDbEntity
  8
M-PIPE
100
AcDbSpline
210
0.0
220
0.0
230
1.0
 70
     8
 71
     3
 72
     9
 73
     5
 74
     0
 42
0.000000001
 43
0.0000000001
 40
0.0
 40
0.0
 40
0.0
 40
0.0
 40
0.5
 40
1.0
 40
1.0
 40
1.0
 40
1.0
 10
743.1097831161356
 20
1971.37004150156
 30
0.0
 10
742.6404135774197
 20
1970.183455478118
 30
0.0
 10
741.9304814265399
 20
1967.778520161573
 30
0.0
 10
741.6781631287635
 20
1965.310058305706
 30
0.0
 10
741.6664074431513
 20
1964.059945742943
 30
0.0
1001
REVIT
1002
{
1070
     3
1000
790271
1002
}
  0
SPLINE
  5
FE
330
87
100
AcDbEntity
  8
M-PIPE
100
AcDbSpline
210
0.0
220
0.0
230
1.0
 70
     8
 71
     3
 72
     9
 73
     5
 74
     0
 42
0.000000001
 43
0.0000000001
 40
0.0
 40
0.0
 40
0.0
 40
0.0
 40
0.5
 40
1.0
 40
1.0
 40
1.0
 40
1.0
 10
741.6664074431513
 20
1964.059945742943
 30
0.0
 10
741.6781631287634
 20
1962.809833180182
 30
0.0
 10
741.9304814265382
 20
1960.341371324323
 30
0.0
 10
742.6404135774139
 20
1957.936436007785
 30
0.0
 10
743.1097831161271
 20
1956.749849984347
 30
0.0
1001
REVIT
1002
{
1070
     3
1000
790271
1002
}
  0
LINE
  5
FF
330
87
100
AcDbEntity
  8
M-PIPE
100
AcDbLine
 10
743.1097831161271
 20
1956.749849984347
 30
0.0
 11
769.2230317701651
 21
1956.749849984346
 31
0.0
1001
REVIT
1002
{
1070
     3
1000
790271
1002
}
  0
SPLINE
  5
100
330
87
100
AcDbEntity
  8
M-PIPE
100
AcDbSpline
210
0.0
220
0.0
230
1.0
 70
     8
 71
     3
 72
     9
 73
     5
 74
     0
 42
0.000000001
 43
0.0000000001
 40
0.0
 40
0.0
 40
0.0
 40
0.0
 40
0.5
 40
1.0
 40
1.0
 40
1.0
 40
1.0
 10
769.2230317701651
 20
1956.749849984346
 30
0.0
 10
769.6924013088769
 20
1957.936436007785
 30
0.0
 10
770.402333459753
 20
1960.341371324324
 30
0.0
 10
770.6546517575342
 20
1962.809833180184
 30
0.0
 10
770.6664074431511
 20
1964.059945742944
 30
0.0
1001
REVIT
1002
{
1070
     3
1000
790271
1002
}
  0
SPLINE
  5
101
330
87
100
AcDbEntity
  8
M-PIPE
100
AcDbSpline
210
0.0
220
0.0
230
1.0
 70
     8
 71
     3
 72
     9
 73
     5
 74
     0
 42
0.000000001
 43
0.0000000001
 40
0.0
 40
0.0
 40
0.0
 40
0.0
 40
0.5
 40
1.0
 40
1.0
 40
1.0
 40
1.0
 10
770.6664074431511
 20
1964.059945742944
 30
0.0
 10
770.654651757534
 20
1965.310058305707
 30
0.0
 10
770.4023334597516
 20
1967.778520161573
 30
0.0
 10
769.6924013088719
 20
1970.183455478118
 30
0.0
 10
769.2230317701578
 20
1971.37004150156
 30
0.0
1001
REVIT
1002
{
1070
     3
1000
790271
1002
}
  0
LINE
  5
102
330
87
100
AcDbEntity
  8
M-PIPE
100
AcDbLine
 10
769.2230317701578
 20
1971.37004150156
 30
0.0
 11
743.1097831161356
 21
1971.37004150156
 31
0.0
1001
REVIT
1002
{
1070
     3
1000
790271
1002
}
  0
SPLINE
  5
103
330
87
100
AcDbEntity
  8
M-PIPE
100
AcDbSpline
210
0.0
220
0.0
230
1.0
 70
     8
 71
     3
 72
     9
 73
     5
 74
     0
 42
0.000000001
 43
0.0000000001
 40
0.0
 40
0.0
 40
0.0
 40
0.0
 40
0.5
 40
1.0
 40
1.0
 40
1.0
 40
1.0
 10
743.1097831161447
 20
2014.620191517221
 30
0.0
 10
742.6404135774316
 20
2012.247019470338
 30
0.0
 10
741.9304814265529
 20
2007.43714883725
 30
0.0
 10
741.6781631287692
 20
2002.50022512552
 30
0.0
 10
741.6664074431513
 20
1999.999999999994
 30
0.0
1001
REVIT
1002
{
1070
     3
1000
790271
1002
}
  0
SPLINE
  5
104
330
87
100
AcDbEntity
  8
M-PIPE
100
AcDbSpline
210
0.0
220
0.0
230
1.0
 70
     8
 71
     3
 72
     9
 73
     5
 74
     0
 42
0.000000001
 43
0.0000000001
 40
0.0
 40
0.0
 40
0.0
 40
0.0
 40
0.5
 40
1.0
 40
1.0
 40
1.0
 40
1.0
 10
741.6664074431513
 20
1999.999999999994
 30
0.0
 10
741.6781631287692
 20
1997.499774874474
 30
0.0
 10
741.9304814265518
 20
1992.562851162752
 30
0.0
 10
742.6404135774283
 20
1987.752980529673
 30
0.0
 10
743.1097831161397
 20
1985.379808482793
 30
0.0
1001
REVIT
1002
{
1070
     3
1000
790271
1002
}
  0
LINE
  5
105
330
87
100
AcDbEntity
  8
M-PIPE
100
AcDbLine
 10
743.1097831161397
 20
1985.379808482793
 30
0.0
 11
769.223031770154
 21
1985.379808482793
 31
0.0
1001
REVIT
1002
{
1070
     3
1000
790271
1002
}
  0
SPLINE
  5
106
330
87
100
AcDbEntity
  8
M-PIPE
100
AcDbSpline
210
0.0
220
0.0
230
1.0
 70
     8
 71
     3
 72
     9
 73
     5
 74
     0
 42
0.000000001
 43
0.0000000001
 40
0.0
 40
0.0
 40
0.0
 40
0.0
 40
0.5
 40
1.0
 40
1.0
 40
1.0
 40
1.0
 10
769.223031770154
 20
1985.379808482793
 30
0.0
 10
769.6924013088643
 20
1987.752980529673
 30
0.0
 10
770.4023334597409
 20
1992.562851162754
 30
0.0
 10
770.654651757529
 20
1997.499774874475
 30
0.0
 10
770.6664074431511
 20
1999.999999999995
 30
0.0
1001
REVIT
1002
{
1070
     3
1000
790271
1002
}
  0
SPLINE
  5
107
330
87
100
AcDbEntity
  8
M-PIPE
100
AcDbSpline
210
0.0
220
0.0
230
1.0
 70
     8
 71
     3
 72
     9
 73
     5
 74
     0
 42
0.000000001
 43
0.0000000001
 40
0.0
 40
0.0
 40
0.0
 40
0.0
 40
0.5
 40
1.0
 40
1.0
 40
1.0
 40
1.0
 10
770.6664074431511
 20
1999.999999999995
 30
0.0
 10
770.654651757529
 20
2002.500225125521
 30
0.0
 10
770.40233345974
 20
2007.43714883725
 30
0.0
 10
769.6924013088613
 20
2012.247019470338
 30
0.0
 10
769.2230317701497
 20
2014.620191517221
 30
0.0
1001
REVIT
1002
{
1070
     3
1000
790271
1002
}
  0
LINE
  5
108
330
87
100
AcDbEntity
  8
M-PIPE
100
AcDbLine
 10
769.2230317701497
 20
2014.620191517221
 30
0.0
 11
743.1097831161447
 21
2014.620191517221
 31
0.0
1001
REVIT
1002
{
1070
     3
1000
790271
1002
}
  0
SPLINE
  5
109
330
87
100
AcDbEntity
  8
M-PIPE
100
AcDbSpline
210
0.0
220
0.0
230
1.0
 70
     8
 71
     3
 72
     9
 73
     5
 74
     0
 42
0.000000001
 43
0.0000000001
 40
0.0
 40
0.0
 40
0.0
 40
0.0
 40
0.5
 40
1.0
 40
1.0
 40
1.0
 40
1.0
 10
743.1097831161419
 20
2043.250150015669
 30
0.0
 10
742.6404135774303
 20
2042.063563992228
 30
0.0
 10
741.9304814265537
 20
2039.658628675688
 30
0.0
 10
741.6781631287699
 20
2037.190166819827
 30
0.0
 10
741.6664074431515
 20
2035.940054257066
 30
0.0
1001
REVIT
1002
{
1070
     3
1000
790271
1002
}
  0
SPLINE
  5
10A
330
87
100
AcDbEntity
  8
M-PIPE
100
AcDbSpline
210
0.0
220
0.0
230
1.0
 70
     8
 71
     3
 72
     9
 73
     5
 74
     0
 42
0.000000001
 43
0.0000000001
 40
0.0
 40
0.0
 40
0.0
 40
0.0
 40
0.5
 40
1.0
 40
1.0
 40
1.0
 40
1.0
 10
741.6664074431515
 20
2035.940054257066
 30
0.0
 10
741.67816312877
 20
2034.689941694304
 30
0.0
 10
741.9304814265545
 20
2032.221479838439
 30
0.0
 10
742.6404135774326
 20
2029.816544521896
 30
0.0
 10
743.1097831161452
 20
2028.629958498455
 30
0.0
1001
REVIT
1002
{
1070
     3
1000
790271
1002
}
  0
LINE
  5
10B
330
87
100
AcDbEntity
  8
M-PIPE
100
AcDbLine
 10
743.1097831161452
 20
2028.629958498455
 30
0.0
 11
769.2230317701493
 21
2028.629958498455
 31
0.0
1001
REVIT
1002
{
1070
     3
1000
790271
1002
}
  0
SPLINE
  5
10C
330
87
100
AcDbEntity
  8
M-PIPE
100
AcDbSpline
210
0.0
220
0.0
230
1.0
 70
     8
 71
     3
 72
     9
 73
     5
 74
     0
 42
0.000000001
 43
0.0000000001
 40
0.0
 40
0.0
 40
0.0
 40
0.0
 40
0.5
 40
1.0
 40
1.0
 40
1.0
 40
1.0
 10
769.2230317701493
 20
2028.629958498455
 30
0.0
 10
769.6924013088605
 20
2029.816544521896
 30
0.0
 10
770.4023334597388
 20
2032.22147983844
 30
0.0
 10
770.6546517575283
 20
2034.689941694304
 30
0.0
 10
770.6664074431511
 20
2035.940054257066
 30
0.0
1001
REVIT
1002
{
1070
     3
1000
790271
1002
}
  0
SPLINE
  5
10D
330
87
100
AcDbEntity
  8
M-PIPE
100
AcDbSpline
210
0.0
220
0.0
230
1.0
 70
     8
 71
     3
 72
     9
 73
     5
 74
     0
 42
0.000000001
 43
0.0000000001
 40
0.0
 40
0.0
 40
0.0
 40
0.0
 40
0.5
 40
1.0
 40
1.0
 40
1.0
 40
1.0
 10
770.6664074431511
 20
2035.940054257066
 30
0.0
 10
770.6546517575285
 20
2037.190166819826
 30
0.0
 10
770.402333459739
 20
2039.658628675688
 30
0.0
 10
769.6924013088625
 20
2042.063563992228
 30
0.0
 10
769.2230317701521
 20
2043.250150015668
 30
0.0
1001
REVIT
1002
{
1070
     3
1000
790271
1002
}
  0
LINE
  5
10E
330
87
100
AcDbEntity
  8
M-PIPE
100
AcDbLine
 10
769.2230317701521
 20
2043.250150015668
 30
0.0
 11
743.1097831161419
 21
2043.250150015669
 31
0.0
1001
REVIT
1002
{
1070
     3
1000
790271
1002
}
  0
LINE
  5
10F
330
87
100
AcDbEntity
  8
M-PIPE
100
AcDbLine
 10
743.1097831161395
 20
2043.250150015664
 30
0.0
 11
743.1097831161394
 21
2044.000000000006
 31
0.0
1001
REVIT
1002
{
1070
     3
1000
790271
1002
}
  0
LINE
  5
110
330
87
100
AcDbEntity
  8
M-PIPE
100
AcDbLine
 10
769.2230317701553
 20
2044.000000000005
 30
0.0
 11
769.2230317701554
 21
2043.250150015663
 31
0.0
1001
REVIT
1002
{
1070
     3
1000
790271
1002
}
  0
LINE
  5
111
330
87
100
AcDbEntity
  8
M-PIPE
100
AcDbLine
 10
743.1097831161416
 20
2014.620191517219
 30
0.0
 11
743.1097831161418
 21
2028.62995849845
 31
0.0
1001
REVIT
1002
{
1070
     3
1000
790271
1002
}
  0
LINE
  5
112
330
87
100
AcDbEntity
  8
M-PIPE
100
AcDbLine
 10
743.1097831161347
 20
1971.370041501561
 30
0.0
 11
743.109783116135
 21
1985.379808482796
 31
0.0
1001
REVIT
1002
{
1070
     3
1000
790271
1002
}
  0
LINE
  5
113
330
87
100
AcDbEntity
  8
M-PIPE
100
AcDbLine
 10
743.1097831161268
 20
1956.000000000004
 30
0.0
 11
743.1097831161268
 21
1956.749849984347
 31
0.0
1001
REVIT
1002
{
1070
     3
1000
790271
1002
}
  0
LINE
  5
114
330
87
100
AcDbEntity
  8
M-PIPE
100
AcDbLine
 10
769.223031770152
 20
2028.629958498452
 30
0.0
 11
769.2230317701519
 21
2014.62019151722
 31
0.0
1001
REVIT
1002
{
1070
     3
1000
790271
1002
}
  0
LINE
  5
115
330
87
100
AcDbEntity
  8
M-PIPE
100
AcDbLine
 10
769.2230317701556
 20
1985.379808482794
 30
0.0
 11
769.2230317701553
 21
1971.370041501557
 31
0.0
1001
REVIT
1002
{
1070
     3
1000
790271
1002
}
  0
LINE
  5
116
330
87
100
AcDbEntity
  8
M-PIPE
100
AcDbLine
 10
769.2230317701638
 20
1956.749849984344
 30
0.0
 11
769.2230317701638
 21
1956.000000000002
 31
0.0
1001
REVIT
1002
{
1070
     3
1000
790271
1002
}
  0
LINE
  5
117
330
87
100
AcDbEntity
  8
M-PIPE
100
AcDbLine
 10
889.9503275727893
 20
2029.776185102674
 30
0.0
 11
889.6664074431942
 21
2030.267949192424
 31
0.0
1001
REVIT
1002
{
1070
     3
1000
790271
1002
}
  0
LINE
  5
118
330
87
100
AcDbEntity
  8
M-PIPE
100
AcDbLine
 10
889.6664074431932
 20
1969.732050807567
 30
0.0
 11
889.9503275727884
 21
1970.223814897317
 31
0.0
1001
REVIT
1002
{
1070
     3
1000
790271
1002
}
  0
LINE
  5
119
330
87
100
AcDbEntity
  8
M-PIPE
100
AcDbLine
 10
894.5004417317123
 20
2030.000103390099
 30
0.0
 11
894.371162448191
 21
2029.776185102673
 31
0.0
1001
REVIT
1002
{
1070
     3
1000
790271
1002
}
  0
LINE
  5
11A
330
87
100
AcDbEntity
  8
M-PIPE
100
AcDbLine
 10
894.3711624481897
 20
1970.223814897317
 30
0.0
 11
894.5004417317345
 21
1969.999896609852
 31
0.0
1001
REVIT
1002
{
1070
     3
1000
790271
1002
}
  0
LWPOLYLINE
  5
11B
330
87
100
AcDbEntity
  8
M-PIPE
100
AcDbPolyline
 90
       54
 70
   128
 43
0.0
 10
889.9503275727893
 20
2029.776185102674
 10
890.0031294635288
 20
2029.688812793029
 10
890.0593830788773
 20
2029.603621884366
 10
890.1189984250493
 20
2029.520748663967
 10
890.181880130209
 20
2029.440325711307
 10
890.2479275970417
 20
2029.362481685952
 10
890.3170351636898
 20
2029.287341121738
 10
890.3890922727891
 20
2029.215024227538
 10
890.4639836483362
 20
2029.145646694957
 10
890.5415894801064
 20
2029.079319513246
 10
890.6217856153237
 20
2029.016148791748
 10
890.7044437572796
 20
2028.95623559014
 10
890.7894316705796
 20
2028.899675756766
 10
890.8766133926919
 20
2028.846559775292
 10
890.9658494514596
 20
2028.796972619959
 10
891.0569970882241
 20
2028.750993619635
 10
891.1499104862105
 20
2028.708696330915
 10
891.2444410038027
 20
2028.670148420438
 10
891.3404374123377
 20
2028.635411556636
 10
891.4377461380404
 20
2028.604541311081
 10
891.5362115077071
 20
2028.577587069582
 10
891.6356759977517
 20
2028.554591953174
 10
891.735980486208
 20
2028.535592749139
 10
891.8369645072914
 20
2028.52061985215
 10
891.9384665081105
 20
2028.509697215648
 10
892.0403241071168
 20
2028.502842313521
 10
892.1423743538797
 20
2028.500066112152
 10
892.2444539897744
 20
2028.501373052869
 10
892.3463997091593
 20
2028.506761044846
 10
892.4480484206304
 20
2028.516221468446
 10
892.5492375079334
 20
2028.529739189008
 10
892.6498050901148
 20
2028.547292581064
 10
892.7495902804958
 20
2028.568853562931
 10
892.8484334440584
 20
2028.594387641637
 10
892.9461764528264
 20
2028.623853968103
 10
893.0426629388364
 20
2028.657205402494
 10
893.1377385442935
 20
2028.694388589627
 10
893.2312511685108
 20
2028.735344044336
 10
893.3230512112375
 20
2028.780006246631
 10
893.4129918119886
 20
2028.828303746514
 10
893.500929084989
 20
2028.88015927829
 10
893.5867223493609
 20
2028.935489884168
 10
893.6702343541828
 20
2028.994207046983
 10
893.751331498062
 20
2029.0562168318
 10
893.8298840428684
 20
2029.121420036192
 10
893.9057663212867
 20
2029.189712348939
 10
893.9788569378592
 20
2029.260984516912
 10
894.0490389631911
 20
2029.335122519844
 10
894.1162001210132
 20
2029.412007752746
 10
894.1802329677999
 20
2029.491517215647
 10
894.2410350646563
 20
2029.573523710368
 10
894.2985091411973
 20
2029.657896044009
 10
894.3525632511613
 20
2029.744499238837
 10
894.3711624481906
 20
2029.776185102673
1001
REVIT
1002
{
1070
     3
1000
790271
1002
}
  0
LWPOLYLINE
  5
11C
330
87
100
AcDbEntity
  8
M-PIPE
100
AcDbPolyline
 90
       54
 70
   128
 43
0.0
 10
894.3711624481897
 20
1970.223814897317
 10
894.3183605574501
 20
1970.311187206963
 10
894.2621069421017
 20
1970.396378115625
 10
894.2024915959297
 20
1970.479251336023
 10
894.1396098907702
 20
1970.559674288684
 10
894.0735624239374
 20
1970.637518314038
 10
894.0044548572894
 20
1970.712658878253
 10
893.9323977481899
 20
1970.784975772452
 10
893.8575063726428
 20
1970.854353305034
 10
893.7799005408725
 20
1970.920680486745
 10
893.6997044056553
 20
1970.983851208243
 10
893.6170462636994
 20
1971.043764409851
 10
893.5320583503996
 20
1971.100324243225
 10
893.4448766282871
 20
1971.1534402247
 10
893.3556405695194
 20
1971.203027380033
 10
893.2644929327549
 20
1971.249006380356
 10
893.1715795347685
 20
1971.291303669076
 10
893.0770490171765
 20
1971.329851579553
 10
892.9810526086411
 20
1971.364588443355
 10
892.8837438829388
 20
1971.39545868891
 10
892.7852785132719
 20
1971.422412930409
 10
892.6858140232273
 20
1971.445408046817
 10
892.585509534771
 20
1971.464407250852
 10
892.4845255136876
 20
1971.479380147841
 10
892.3830235128685
 20
1971.490302784343
 10
892.2811659138623
 20
1971.49715768647
 10
892.1791156670993
 20
1971.499933887839
 10
892.0770360312046
 20
1971.498626947122
 10
891.9750903118197
 20
1971.493238955145
 10
891.8734416003486
 20
1971.483778531546
 10
891.7722525130455
 20
1971.470260810983
 10
891.6716849308643
 20
1971.452707418927
 10
891.5718997404834
 20
1971.43114643706
 10
891.4730565769206
 20
1971.405612358354
 10
891.3753135681528
 20
1971.376146031888
 10
891.2788270821426
 20
1971.342794597498
 10
891.1837514766855
 20
1971.305611410364
 10
891.0902388524682
 20
1971.264655955655
 10
890.9984388097413
 20
1971.21999375336
 10
890.9084982089906
 20
1971.171696253477
 10
890.8205609359901
 20
1971.119840721702
 10
890.7347676716181
 20
1971.064510115823
 10
890.651255666796
 20
1971.005792953008
 10
890.5701585229168
 20
1970.943783168191
 10
890.4916059781108
 20
1970.8785799638
 10
890.4157236996924
 20
1970.810287651052
 10
890.34263308312
 20
1970.739015483079
 10
890.2724510577881
 20
1970.664877480147
 10
890.2052898999659
 20
1970.587992247245
 10
890.1412570531791
 20
1970.508482784344
 10
890.0804549563231
 20
1970.426476289624
 10
890.0229808797819
 20
1970.342103955981
 10
889.9689267698178
 20
1970.255500761153
 10
889.9503275727884
 20
1970.223814897317
1001
REVIT
1002
{
1070
     3
1000
790271
1002
}
  0
LINE
  5
11D
330
87
100
AcDbEntity
  8
M-PIPE
100
AcDbLine
 10
931.6664074431926
 20
2024.099999999995
 30
0.0
 11
904.6664074431927
 21
2024.099999999995
 31
0.0
1001
REVIT
1002
{
1070
     3
1000
790271
1002
}
  0
LINE
  5
11E
330
87
100
AcDbEntity
  8
M-PIPE
100
AcDbLine
 10
904.6664074431919
 20
1975.899999999995
 30
0.0
 11
931.6664074431921
 21
1975.899999999995
 31
0.0
1001
REVIT
1002
{
1070
     3
1000
790271
1002
}
  0
SPLINE
  5
11F
330
87
100
AcDbEntity
  8
M-PIPE
100
AcDbSpline
210
0.0
220
0.0
230
1.0
 70
     8
 71
     3
 72
     9
 73
     5
 74
     0
 42
0.000000001
 43
0.0000000001
 40
-1.0
 40
-1.0
 40
-1.0
 40
-1.0
 40
-0.5
 40
0.0
 40
0.0
 40
0.0
 40
0.0
 10
895.3664074431909
 20
2014.421664581939
 30
0.0
 10
894.7890766667956
 20
2016.711496458631
 30
0.0
 10
894.2117458904005
 20
2021.26517461987
 30
0.0
 10
894.7890766667956
 20
2025.766881596817
 30
0.0
 10
895.3664074431909
 20
2028.004742289219
 30
0.0
1001
REVIT
1002
{
1070
     3
1000
790271
1002
}
  0
SPLINE
  5
120
330
87
100
AcDbEntity
  8
M-PIPE
100
AcDbSpline
210
0.0
220
0.0
230
1.0
 70
    24
 71
     3
 72
     8
 73
     4
 74
     0
 42
0.000000001
 43
0.0000000001
 40
-1.0
 40
-1.0
 40
-1.0
 40
-1.0
 40
-0.5
 40
-0.5
 40
-0.5
 40
-0.5
 10
895.3664074431909
 20
2029.999999999975
 30
0.0
 10
894.7890766667947
 20
2029.999999999975
 30
0.0
 10
894.5004112785966
 20
2029.999999999975
 30
0.0
 10
894.5004112785966
 20
2029.999999999975
 30
0.0
1001
REVIT
1002
{
1070
     3
1000
790271
1002
}
  0
SPLINE
  5
121
330
87
100
AcDbEntity
  8
M-PIPE
100
AcDbSpline
210
0.0
220
0.0
230
1.0
 70
    24
 71
     3
 72
     9
 73
     5
 74
     0
 42
0.000000001
 43
0.0000000001
 40
-0.5029650216969764
 40
-0.5029650216969764
 40
-0.5029650216969764
 40
-0.5029650216969764
 40
-0.5
 40
0.0
 40
0.0
 40
0.0
 40
0.0
 10
894.5004417317329
 20
1969.999999999975
 30
0.0
 10
894.5004214296567
 20
1969.999999999975
 30
0.0
 10
894.4986994803397
 20
1969.999999999975
 30
0.0
 10
894.7890766669345
 20
1969.999999999975
 30
0.0
 10
895.36640744319
 20
1969.999999999975
 30
0.0
1001
REVIT
1002
{
1070
     3
1000
790271
1002
}
  0
SPLINE
  5
122
330
87
100
AcDbEntity
  8
M-PIPE
100
AcDbSpline
210
0.0
220
0.0
230
1.0
 70
     8
 71
     3
 72
     9
 73
     5
 74
     0
 42
0.000000001
 43
0.0000000001
 40
-1.0
 40
-1.0
 40
-1.0
 40
-1.0
 40
-0.5
 40
0.0
 40
0.0
 40
0.0
 40
0.0
 10
895.3664074431902
 20
1971.995257710813
 30
0.0
 10
894.7890766668059
 20
1974.285089587483
 30
0.0
 10
894.2117458904213
 20
1978.83876774868
 30
0.0
 10
894.7890766668059
 20
1983.340474725588
 30
0.0
 10
895.3664074431904
 20
1985.578335417968
 30
0.0
1001
REVIT
1002
{
1070
     3
1000
790271
1002
}
  0
SPLINE
  5
123
330
87
100
AcDbEntity
  8
M-PIPE
100
AcDbSpline
210
0.0
220
0.0
230
1.0
 70
     8
 71
     3
 72
     9
 73
     5
 74
     0
 42
0.000000001
 43
0.0000000001
 40
-1.0
 40
-1.0
 40
-1.0
 40
-1.0
 40
-0.5
 40
0.0
 40
0.0
 40
0.0
 40
0.0
 10
895.3664074431904
 20
1990.395313643833
 30
0.0
 10
894.7890766668002
 20
1993.633624939391
 30
0.0
 10
894.21174589041
 20
2000.073498353671
 30
0.0
 10
894.7890766668004
 20
2006.439873414274
 30
0.0
 10
895.3664074431907
 20
2009.604686356156
 30
0.0
1001
REVIT
1002
{
1070
     3
1000
790271
1002
}
  0
LINE
  5
124
330
87
100
AcDbEntity
  8
M-PIPE
100
AcDbLine
 10
895.3664074431909
 20
2028.004742289219
 30
0.0
 11
895.3664074431909
 21
2029.999999999974
 31
0.0
1001
REVIT
1002
{
1070
     3
1000
790271
1002
}
  0
LINE
  5
125
330
87
100
AcDbEntity
  8
M-PIPE
100
AcDbLine
 10
904.6664074431909
 20
2028.004742289218
 30
0.0
 11
895.3664074431909
 21
2028.004742289218
 31
0.0
1001
REVIT
1002
{
1070
     3
1000
790271
1002
}
  0
LINE
  5
126
330
87
100
AcDbEntity
  8
M-PIPE
100
AcDbLine
 10
895.3664074431909
 20
2029.999999999976
 30
0.0
 11
904.6664074431911
 21
2029.999999999976
 31
0.0
1001
REVIT
1002
{
1070
     3
1000
790271
1002
}
  0
LINE
  5
127
330
87
100
AcDbEntity
  8
M-PIPE
100
AcDbLine
 10
895.3664074431909
 20
2014.42166458194
 30
0.0
 11
904.6664074431909
 21
2014.42166458194
 31
0.0
1001
REVIT
1002
{
1070
     3
1000
790271
1002
}
  0
LINE
  5
128
330
87
100
AcDbEntity
  8
M-PIPE
100
AcDbLine
 10
895.3664074431907
 20
2012.054528119495
 30
0.0
 11
895.3664074431909
 21
2014.421664581939
 31
0.0
1001
REVIT
1002
{
1070
     3
1000
790271
1002
}
  0
LINE
  5
129
330
87
100
AcDbEntity
  8
M-PIPE
100
AcDbLine
 10
895.3664074431909
 20
2009.604686356156
 30
0.0
 11
895.3664074431909
 21
2012.054528119495
 31
0.0
1001
REVIT
1002
{
1070
     3
1000
790271
1002
}
  0
LINE
  5
12A
330
87
100
AcDbEntity
  8
M-PIPE
100
AcDbLine
 10
904.6664074431907
 20
2009.604686356157
 30
0.0
 11
895.3664074431907
 21
2009.604686356157
 31
0.0
1001
REVIT
1002
{
1070
     3
1000
790271
1002
}
  0
LINE
  5
12B
330
87
100
AcDbEntity
  8
M-PIPE
100
AcDbLine
 10
895.36640744319
 20
1969.999999999975
 30
0.0
 11
895.3664074431902
 21
1971.995257710812
 31
0.0
1001
REVIT
1002
{
1070
     3
1000
790271
1002
}
  0
LINE
  5
12C
330
87
100
AcDbEntity
  8
M-PIPE
100
AcDbLine
 10
904.6664074431902
 20
1969.999999999975
 30
0.0
 11
895.36640744319
 21
1969.999999999975
 31
0.0
1001
REVIT
1002
{
1070
     3
1000
790271
1002
}
  0
LINE
  5
12D
330
87
100
AcDbEntity
  8
M-PIPE
100
AcDbLine
 10
895.3664074431902
 20
1971.995257710812
 30
0.0
 11
904.6664074431902
 21
1971.995257710812
 31
0.0
1001
REVIT
1002
{
1070
     3
1000
790271
1002
}
  0
LINE
  5
12E
330
87
100
AcDbEntity
  8
M-PIPE
100
AcDbLine
 10
895.3664074431904
 20
1985.578335417968
 30
0.0
 11
895.3664074431904
 21
1990.395313643833
 31
0.0
1001
REVIT
1002
{
1070
     3
1000
790271
1002
}
  0
LINE
  5
12F
330
87
100
AcDbEntity
  8
M-PIPE
100
AcDbLine
 10
904.6664074431904
 20
1985.578335417971
 30
0.0
 11
895.3664074431904
 21
1985.578335417971
 31
0.0
1001
REVIT
1002
{
1070
     3
1000
790271
1002
}
  0
LINE
  5
130
330
87
100
AcDbEntity
  8
M-PIPE
100
AcDbLine
 10
895.3664074431904
 20
1990.395313643833
 30
0.0
 11
904.6664074431904
 21
1990.395313643833
 31
0.0
1001
REVIT
1002
{
1070
     3
1000
790271
1002
}
  0
LINE
  5
131
330
87
100
AcDbEntity
  8
M-PIPE
100
AcDbLine
 10
904.6664074431909
 20
2028.004742289218
 30
0.0
 11
904.6664074431911
 21
2029.999999999974
 31
0.0
1001
REVIT
1002
{
1070
     3
1000
790271
1002
}
  0
LINE
  5
132
330
87
100
AcDbEntity
  8
M-PIPE
100
AcDbLine
 10
904.6664074431909
 20
2014.421664581939
 30
0.0
 11
904.6664074431909
 21
2028.004742289219
 31
0.0
1001
REVIT
1002
{
1070
     3
1000
790271
1002
}
  0
LINE
  5
133
330
87
100
AcDbEntity
  8
M-PIPE
100
AcDbLine
 10
904.6664074431909
 20
2012.054528119495
 30
0.0
 11
904.6664074431909
 21
2014.421664581939
 31
0.0
1001
REVIT
1002
{
1070
     3
1000
790271
1002
}
  0
LINE
  5
134
330
87
100
AcDbEntity
  8
M-PIPE
100
AcDbLine
 10
904.6664074431907
 20
2009.604686356156
 30
0.0
 11
904.6664074431909
 21
2012.054528119495
 31
0.0
1001
REVIT
1002
{
1070
     3
1000
790271
1002
}
  0
LINE
  5
135
330
87
100
AcDbEntity
  8
M-PIPE
100
AcDbLine
 10
904.6664074431904
 20
1990.395313643833
 30
0.0
 11
904.6664074431907
 21
2009.604686356156
 31
0.0
1001
REVIT
1002
{
1070
     3
1000
790271
1002
}
  0
LINE
  5
136
330
87
100
AcDbEntity
  8
M-PIPE
100
AcDbLine
 10
904.6664074431904
 20
1985.578335417968
 30
0.0
 11
904.6664074431904
 21
1990.395313643833
 31
0.0
1001
REVIT
1002
{
1070
     3
1000
790271
1002
}
  0
LINE
  5
137
330
87
100
AcDbEntity
  8
M-PIPE
100
AcDbLine
 10
904.6664074431902
 20
1971.995257710812
 30
0.0
 11
904.6664074431904
 21
1985.578335417968
 31
0.0
1001
REVIT
1002
{
1070
     3
1000
790271
1002
}
  0
LINE
  5
138
330
87
100
AcDbEntity
  8
M-PIPE
100
AcDbLine
 10
904.6664074431902
 20
1969.999999999975
 30
0.0
 11
904.6664074431902
 21
1971.995257710812
 31
0.0
1001
REVIT
1002
{
1070
     3
1000
790271
1002
}
  0
LINE
  5
139
330
87
100
AcDbEntity
  8
M-PIPE
100
AcDbLine
 10
931.6664074431908
 20
2009.222670719992
 30
0.0
 11
931.6664074431908
 21
2024.099999999994
 31
0.0
1001
REVIT
1002
{
1070
     3
1000
790271
1002
}
  0
LINE
  5
13A
330
87
100
AcDbEntity
  8
M-PIPE
100
AcDbLine
 10
931.6664074431901
 20
1975.899999999995
 30
0.0
 11
931.6664074431908
 21
2009.222670719992
 31
0.0
1001
REVIT
1002
{
1070
     3
1000
790271
1002
}
  0
LINE
  5
13B
330
87
100
AcDbEntity
  8
M-PIPE
100
AcDbLine
 10
741.6664074431539
 20
2030.267949192473
 30
0.0
 11
741.3824873135308
 21
2029.776185102674
 31
0.0
1001
REVIT
1002
{
1070
     3
1000
790271
1002
}
  0
LINE
  5
13C
330
87
100
AcDbEntity
  8
M-PIPE
100
AcDbLine
 10
741.3824873135311
 20
1970.223814897319
 30
0.0
 11
741.6664074431533
 21
1969.732050807521
 31
0.0
1001
REVIT
1002
{
1070
     3
1000
790271
1002
}
  0
LINE
  5
13D
330
87
100
AcDbEntity
  8
M-PIPE
100
AcDbLine
 10
736.9616524381293
 20
2029.776185102674
 30
0.0
 11
736.8323731545936
 21
2030.000103390124
 31
0.0
1001
REVIT
1002
{
1070
     3
1000
790271
1002
}
  0
LINE
  5
13E
330
87
100
AcDbEntity
  8
M-PIPE
100
AcDbLine
 10
736.8323731546208
 20
1969.999896609916
 30
0.0
 11
736.9616524381293
 21
1970.223814897319
 31
0.0
1001
REVIT
1002
{
1070
     3
1000
790271
1002
}
  0
LWPOLYLINE
  5
13F
330
87
100
AcDbEntity
  8
M-PIPE
100
AcDbPolyline
 90
       54
 70
   128
 43
0.0
 10
736.9616524381293
 20
2029.776185102674
 10
737.0144543288691
 20
2029.688812793029
 10
737.0707079442174
 20
2029.603621884367
 10
737.1303232903894
 20
2029.520748663968
 10
737.193204995549
 20
2029.440325711308
 10
737.2592524623817
 20
2029.362481685953
 10
737.3283600290298
 20
2029.287341121739
 10
737.4004171381292
 20
2029.215024227539
 10
737.4753085136762
 20
2029.145646694958
 10
737.5529143454465
 20
2029.079319513247
 10
737.6331104806638
 20
2029.016148791749
 10
737.7157686226198
 20
2028.956235590141
 10
737.8007565359195
 20
2028.899675756766
 10
737.887938258032
 20
2028.846559775292
 10
737.9771743167997
 20
2028.796972619959
 10
738.0683219535642
 20
2028.750993619636
 10
738.1612353515508
 20
2028.708696330916
 10
738.2557658691429
 20
2028.670148420439
 10
738.3517622776779
 20
2028.635411556636
 10
738.4490710033804
 20
2028.604541311082
 10
738.5475363730473
 20
2028.577587069583
 10
738.647000863092
 20
2028.554591953175
 10
738.747305351548
 20
2028.53559274914
 10
738.8482893726315
 20
2028.52061985215
 10
738.9497913734507
 20
2028.509697215649
 10
739.0516489724568
 20
2028.502842313522
 10
739.1536992192198
 20
2028.500066112153
 10
739.2557788551146
 20
2028.501373052869
 10
739.3577245744994
 20
2028.506761044846
 10
739.4593732859706
 20
2028.516221468446
 10
739.5605623732737
 20
2028.529739189009
 10
739.661129955455
 20
2028.547292581064
 10
739.7609151458358
 20
2028.568853562932
 10
739.8597583093986
 20
2028.594387641638
 10
739.9575013181665
 20
2028.623853968104
 10
740.0539878041765
 20
2028.657205402494
 10
740.1490634096336
 20
2028.694388589628
 10
740.2425760338509
 20
2028.735344044337
 10
740.3343760765777
 20
2028.780006246631
 10
740.4243166773287
 20
2028.828303746515
 10
740.5122539503293
 20
2028.880159278291
 10
740.598047214701
 20
2028.935489884168
 10
740.681559219523
 20
2028.994207046983
 10
740.7626563634022
 20
2029.056216831801
 10
740.8412089082085
 20
2029.121420036192
 10
740.9170911866269
 20
2029.18971234894
 10
740.9901818031993
 20
2029.260984516913
 10
741.0603638285311
 20
2029.335122519845
 10
741.1275249863532
 20
2029.412007752747
 10
741.1915578331401
 20
2029.491517215648
 10
741.2523599299961
 20
2029.573523710368
 10
741.3098340065373
 20
2029.65789604401
 10
741.3638881165013
 20
2029.744499238839
 10
741.3824873135308
 20
2029.776185102674
1001
REVIT
1002
{
1070
     3
1000
790271
1002
}
  0
LWPOLYLINE
  5
140
330
87
100
AcDbEntity
  8
M-PIPE
100
AcDbPolyline
 90
       54
 70
   128
 43
0.0
 10
741.3824873135311
 20
1970.223814897319
 10
741.329685422791
 20
1970.311187206964
 10
741.2734318074428
 20
1970.396378115626
 10
741.2138164612706
 20
1970.479251336024
 10
741.1509347561112
 20
1970.559674288685
 10
741.0848872892786
 20
1970.63751831404
 10
741.0157797226303
 20
1970.712658878254
 10
740.943722613531
 20
1970.784975772453
 10
740.8688312379838
 20
1970.854353305035
 10
740.7912254062138
 20
1970.920680486746
 10
740.7110292709963
 20
1970.983851208244
 10
740.6283711290406
 20
1971.043764409852
 10
740.5433832157407
 20
1971.100324243226
 10
740.456201493628
 20
1971.1534402247
 10
740.3669654348606
 20
1971.203027380034
 10
740.2758177980961
 20
1971.249006380357
 10
740.1829044001097
 20
1971.291303669076
 10
740.0883738825175
 20
1971.329851579554
 10
739.9923774739825
 20
1971.364588443356
 10
739.8950687482799
 20
1971.395458688911
 10
739.7966033786129
 20
1971.42241293041
 10
739.6971388885683
 20
1971.445408046818
 10
739.5968344001122
 20
1971.464407250853
 10
739.4958503790287
 20
1971.479380147842
 10
739.3943483782094
 20
1971.490302784344
 10
739.2924907792035
 20
1971.49715768647
 10
739.1904405324404
 20
1971.49993388784
 10
739.0883608965456
 20
1971.498626947123
 10
738.9864151771607
 20
1971.493238955146
 10
738.8847664656895
 20
1971.483778531547
 10
738.7835773783865
 20
1971.470260810984
 10
738.6830097962054
 20
1971.452707418928
 10
738.5832246058242
 20
1971.431146437061
 10
738.4843814422616
 20
1971.405612358355
 10
738.3866384334936
 20
1971.376146031889
 10
738.2901519474836
 20
1971.342794597498
 10
738.1950763420267
 20
1971.305611410365
 10
738.1015637178094
 20
1971.264655955655
 10
738.0097636750825
 20
1971.219993753361
 10
737.9198230743314
 20
1971.171696253478
 10
737.8318858013312
 20
1971.119840721702
 10
737.7460925369592
 20
1971.064510115824
 10
737.6625805321373
 20
1971.005792953009
 10
737.581483388258
 20
1970.943783168192
 10
737.5029308434518
 20
1970.878579963801
 10
737.4270485650334
 20
1970.810287651053
 10
737.353957948461
 20
1970.73901548308
 10
737.2837759231289
 20
1970.664877480148
 10
737.2166147653071
 20
1970.587992247246
 10
737.1525819185201
 20
1970.508482784344
 10
737.0917798216639
 20
1970.426476289624
 10
737.0343057451228
 20
1970.342103955982
 10
736.9802516351589
 20
1970.255500761154
 10
736.9616524381293
 20
1970.223814897319
1001
REVIT
1002
{
1070
     3
1000
790271
1002
}
  0
LINE
  5
141
330
87
100
AcDbEntity
  8
M-PIPE
100
AcDbLine
 10
726.6664074431278
 20
2024.099999999996
 30
0.0
 11
699.6664074431277
 21
2024.099999999996
 31
0.0
1001
REVIT
1002
{
1070
     3
1000
790271
1002
}
  0
LINE
  5
142
330
87
100
AcDbEntity
  8
M-PIPE
100
AcDbLine
 10
699.6664074431278
 20
1975.899999999997
 30
0.0
 11
726.6664074431278
 21
1975.899999999997
 31
0.0
1001
REVIT
1002
{
1070
     3
1000
790271
1002
}
  0
SPLINE
  5
143
330
87
100
AcDbEntity
  8
M-PIPE
100
AcDbSpline
210
0.0
220
0.0
230
1.0
 70
    24
 71
     3
 72
     9
 73
     5
 74
     0
 42
0.000000001
 43
0.0000000001
 40
-0.5029650216968927
 40
-0.5029650216968927
 40
-0.5029650216968927
 40
-0.5029650216968927
 40
-0.5
 40
0.0
 40
0.0
 40
0.0
 40
0.0
 10
736.8323731545922
 20
2030.0
 30
0.0
 10
736.8323934566683
 20
2030.0
 30
0.0
 10
736.8341154059875
 20
2030.0
 30
0.0
 10
736.5437382193495
 20
2030.0
 30
0.0
 10
735.9664074431264
 20
2030.000000000001
 30
0.0
1001
REVIT
1002
{
1070
     3
1000
790271
1002
}
  0
SPLINE
  5
144
330
87
100
AcDbEntity
  8
M-PIPE
100
AcDbSpline
210
0.0
220
0.0
230
1.0
 70
     8
 71
     3
 72
     9
 73
     5
 74
     0
 42
0.000000001
 43
0.0000000001
 40
-1.0
 40
-1.0
 40
-1.0
 40
-1.0
 40
-0.5
 40
0.0
 40
0.0
 40
0.0
 40
0.0
 10
735.9664074431264
 20
2028.004742289168
 30
0.0
 10
736.5437382195085
 20
2025.714910412502
 30
0.0
 10
737.1210689958904
 20
2021.161232251315
 30
0.0
 10
736.5437382195087
 20
2016.659525274418
 30
0.0
 10
735.9664074431267
 20
2014.421664582042
 30
0.0
1001
REVIT
1002
{
1070
     3
1000
790271
1002
}
  0
SPLINE
  5
145
330
87
100
AcDbEntity
  8
M-PIPE
100
AcDbSpline
210
0.0
220
0.0
230
1.0
 70
     8
 71
     3
 72
     9
 73
     5
 74
     0
 42
0.000000001
 43
0.0000000001
 40
-1.0
 40
-1.0
 40
-1.0
 40
-1.0
 40
-0.5
 40
0.0
 40
0.0
 40
0.0
 40
0.0
 10
735.9664074431267
 20
2009.604686356082
 30
0.0
 10
736.5437382195077
 20
2006.36637506055
 30
0.0
 10
737.1210689958886
 20
1999.926501646321
 30
0.0
 10
736.5437382195077
 20
1993.560126585769
 30
0.0
 10
735.9664074431267
 20
1990.395313643911
 30
0.0
1001
REVIT
1002
{
1070
     3
1000
790271
1002
}
  0
SPLINE
  5
146
330
87
100
AcDbEntity
  8
M-PIPE
100
AcDbSpline
210
0.0
220
0.0
230
1.0
 70
     8
 71
     3
 72
     9
 73
     5
 74
     0
 42
0.000000001
 43
0.0000000001
 40
-1.0
 40
-1.0
 40
-1.0
 40
-1.0
 40
-0.5
 40
0.0
 40
0.0
 40
0.0
 40
0.0
 10
735.9664074431267
 20
1985.57833541797
 30
0.0
 10
736.5437382195112
 20
1983.288503541299
 30
0.0
 10
737.1210689958955
 20
1978.734825380102
 30
0.0
 10
736.5437382195111
 20
1974.233118403195
 30
0.0
 10
735.9664074431265
 20
1971.995257710814
 30
0.0
1001
REVIT
1002
{
1070
     3
1000
790271
1002
}
  0
SPLINE
  5
147
330
87
100
AcDbEntity
  8
M-PIPE
100
AcDbSpline
210
0.0
220
0.0
230
1.0
 70
    24
 71
     3
 72
     8
 73
     4
 74
     0
 42
0.000000001
 43
0.0000000001
 40
-1.0
 40
-1.0
 40
-1.0
 40
-1.0
 40
-0.5
 40
-0.5
 40
-0.5
 40
-0.5
 10
735.9664074431265
 20
1970.0
 30
0.0
 10
736.5437382195167
 20
1970.0
 30
0.0
 10
736.8324036077118
 20
1970.0
 30
0.0
 10
736.8324036077117
 20
1970.0
 30
0.0
1001
REVIT
1002
{
1070
     3
1000
790271
1002
}
  0
LINE
  5
148
330
87
100
AcDbEntity
  8
M-PIPE
100
AcDbLine
 10
735.9664074431261
 20
2030.000000000001
 30
0.0
 11
735.9664074431264
 21
2029.102205274101
 31
0.0
1001
REVIT
1002
{
1070
     3
1000
790271
1002
}
  0
LINE
  5
149
330
87
100
AcDbEntity
  8
M-PIPE
100
AcDbLine
 10
726.6664074431263
 20
2030.000000000001
 30
0.0
 11
735.9664074431264
 21
2030.000000000001
 31
0.0
1001
REVIT
1002
{
1070
     3
1000
790271
1002
}
  0
LINE
  5
14A
330
87
100
AcDbEntity
  8
M-PIPE
100
AcDbLine
 10
735.9664074431264
 20
2028.004742289169
 30
0.0
 11
726.6664074431263
 21
2028.004742289169
 31
0.0
1001
REVIT
1002
{
1070
     3
1000
790271
1002
}
  0
LINE
  5
14B
330
87
100
AcDbEntity
  8
M-PIPE
100
AcDbLine
 10
735.9664074431264
 20
2029.102205274101
 30
0.0
 11
735.9664074431264
 21
2028.004742289168
 31
0.0
1001
REVIT
1002
{
1070
     3
1000
790271
1002
}
  0
LINE
  5
14C
330
87
100
AcDbEntity
  8
M-PIPE
100
AcDbLine
 10
735.9664074431267
 20
2014.421664582042
 30
0.0
 11
735.9664074431267
 21
2009.604686356082
 31
0.0
1001
REVIT
1002
{
1070
     3
1000
790271
1002
}
  0
LINE
  5
14D
330
87
100
AcDbEntity
  8
M-PIPE
100
AcDbLine
 10
726.6664074431266
 20
2014.42166458204
 30
0.0
 11
735.9664074431267
 21
2014.42166458204
 31
0.0
1001
REVIT
1002
{
1070
     3
1000
790271
1002
}
  0
LINE
  5
14E
330
87
100
AcDbEntity
  8
M-PIPE
100
AcDbLine
 10
735.9664074431267
 20
2009.604686356085
 30
0.0
 11
726.6664074431266
 21
2009.604686356085
 31
0.0
1001
REVIT
1002
{
1070
     3
1000
790271
1002
}
  0
LINE
  5
14F
330
87
100
AcDbEntity
  8
M-PIPE
100
AcDbLine
 10
735.9664074431267
 20
1990.395313643911
 30
0.0
 11
735.9664074431267
 21
1985.578335417971
 31
0.0
1001
REVIT
1002
{
1070
     3
1000
790271
1002
}
  0
LINE
  5
150
330
87
100
AcDbEntity
  8
M-PIPE
100
AcDbLine
 10
726.6664074431266
 20
1990.395313643908
 30
0.0
 11
735.9664074431267
 21
1990.395313643908
 31
0.0
1001
REVIT
1002
{
1070
     3
1000
790271
1002
}
  0
LINE
  5
151
330
87
100
AcDbEntity
  8
M-PIPE
100
AcDbLine
 10
735.9664074431267
 20
1985.578335417972
 30
0.0
 11
726.6664074431266
 21
1985.578335417972
 31
0.0
1001
REVIT
1002
{
1070
     3
1000
790271
1002
}
  0
LINE
  5
152
330
87
100
AcDbEntity
  8
M-PIPE
100
AcDbLine
 10
735.9664074431265
 20
1971.995257710814
 30
0.0
 11
735.9664074431265
 21
1970.0
 31
0.0
1001
REVIT
1002
{
1070
     3
1000
790271
1002
}
  0
LINE
  5
153
330
87
100
AcDbEntity
  8
M-PIPE
100
AcDbLine
 10
726.6664074431264
 20
1971.995257710813
 30
0.0
 11
735.9664074431265
 21
1971.995257710813
 31
0.0
1001
REVIT
1002
{
1070
     3
1000
790271
1002
}
  0
LINE
  5
154
330
87
100
AcDbEntity
  8
M-PIPE
100
AcDbLine
 10
735.9664074431265
 20
1970.0
 30
0.0
 11
726.6664074431264
 21
1970.0
 31
0.0
1001
REVIT
1002
{
1070
     3
1000
790271
1002
}
  0
LINE
  5
155
330
87
100
AcDbEntity
  8
M-PIPE
100
AcDbLine
 10
726.6664074431263
 20
2030.000000000001
 30
0.0
 11
726.6664074431263
 21
2029.102205274101
 31
0.0
1001
REVIT
1002
{
1070
     3
1000
790271
1002
}
  0
LINE
  5
156
330
87
100
AcDbEntity
  8
M-PIPE
100
AcDbLine
 10
726.6664074431264
 20
1971.995257710814
 30
0.0
 11
726.6664074431264
 21
1970.0
 31
0.0
1001
REVIT
1002
{
1070
     3
1000
790271
1002
}
  0
LINE
  5
157
330
87
100
AcDbEntity
  8
M-PIPE
100
AcDbLine
 10
726.6664074431266
 20
1985.578335417971
 30
0.0
 11
726.6664074431264
 21
1971.995257710814
 31
0.0
1001
REVIT
1002
{
1070
     3
1000
790271
1002
}
  0
LINE
  5
158
330
87
100
AcDbEntity
  8
M-PIPE
100
AcDbLine
 10
726.6664074431266
 20
1990.395313643911
 30
0.0
 11
726.6664074431266
 21
1985.578335417971
 31
0.0
1001
REVIT
1002
{
1070
     3
1000
790271
1002
}
  0
LINE
  5
159
330
87
100
AcDbEntity
  8
M-PIPE
100
AcDbLine
 10
726.6664074431266
 20
2009.604686356082
 30
0.0
 11
726.6664074431266
 21
1990.395313643911
 31
0.0
1001
REVIT
1002
{
1070
     3
1000
790271
1002
}
  0
LINE
  5
15A
330
87
100
AcDbEntity
  8
M-PIPE
100
AcDbLine
 10
726.6664074431266
 20
2014.421664582041
 30
0.0
 11
726.6664074431266
 21
2009.604686356083
 31
0.0
1001
REVIT
1002
{
1070
     3
1000
790271
1002
}
  0
LINE
  5
15B
330
87
100
AcDbEntity
  8
M-PIPE
100
AcDbLine
 10
726.6664074431263
 20
2028.004742289168
 30
0.0
 11
726.6664074431266
 21
2014.421664582041
 31
0.0
1001
REVIT
1002
{
1070
     3
1000
790271
1002
}
  0
LINE
  5
15C
330
87
100
AcDbEntity
  8
M-PIPE
100
AcDbLine
 10
726.6664074431263
 20
2029.102205274101
 30
0.0
 11
726.6664074431263
 21
2028.004742289168
 31
0.0
1001
REVIT
1002
{
1070
     3
1000
790271
1002
}
  0
LINE
  5
15D
330
87
100
AcDbEntity
  8
M-PIPE
100
AcDbLine
 10
699.6664074431262
 20
2024.099999999995
 30
0.0
 11
699.6664074431262
 21
2022.265496733517
 31
0.0
1001
REVIT
1002
{
1070
     3
1000
790271
1002
}
  0
LINE
  5
15E
330
87
100
AcDbEntity
  8
M-PIPE
100
AcDbLine
 10
699.6664074431262
 20
2022.265496733517
 30
0.0
 11
699.6664074431262
 21
1975.899999999995
 31
0.0
1001
REVIT
1002
{
1070
     3
1000
790271
1002
}
  0
LINE
  5
15F
330
87
100
AcDbEntity
  8
P-SANR-FIXT
100
AcDbLine
 10
860.6664074431943
 20
2035.499999999995
 30
0.0
 11
856.6664074431598
 21
2035.499999999995
 31
0.0
  0
LINE
  5
160
330
87
100
AcDbEntity
  8
P-SANR-FIXT
100
AcDbLine
 10
856.6664074431598
 20
1964.499999999996
 30
0.0
 11
860.6664074432089
 21
1964.499999999996
 31
0.0
  0
LINE
  5
161
330
87
100
AcDbEntity
  8
P-SANR-FIXT
100
AcDbLine
 10
774.6664074431598
 20
2035.499999999997
 30
0.0
 11
770.666407443137
 21
2035.499999999997
 31
0.0
  0
LINE
  5
162
330
87
100
AcDbEntity
  8
P-SANR-FIXT
100
AcDbLine
 10
770.6664074431527
 20
1964.499999999995
 30
0.0
 11
774.6664074431598
 21
1964.499999999995
 31
0.0
  0
LINE
  5
163
330
87
100
AcDbEntity
  8
P-SANR-FIXT
100
AcDbLine
 10
856.6664074431596
 20
2043.999999999996
 30
0.0
 11
828.6664074431598
 21
2043.999999999996
 31
0.0
  0
LINE
  5
164
330
87
100
AcDbEntity
  8
P-SANR-FIXT
100
AcDbLine
 10
849.1664074431596
 20
1955.999999999996
 30
0.0
 11
856.6664074431596
 21
1955.999999999996
 31
0.0
  0
LINE
  5
165
330
87
100
AcDbEntity
  8
P-SANR-FIXT
100
AcDbLine
 10
802.6664074431597
 20
2043.999999999996
 30
0.0
 11
774.6664074431598
 21
2043.999999999996
 31
0.0
  0
LINE
  5
166
330
87
100
AcDbEntity
  8
P-SANR-FIXT
100
AcDbLine
 10
774.6664074431598
 20
1955.999999999995
 30
0.0
 11
782.1664074431596
 21
1955.999999999995
 31
0.0
  0
LINE
  5
167
330
87
100
AcDbEntity
  8
P-SANR-FIXT
100
AcDbLine
 10
853.1664074431599
 20
1925.999999999996
 30
0.0
 11
853.1664074431599
 21
1936.499999999995
 31
0.0
  0
LINE
  5
168
330
87
100
AcDbEntity
  8
P-SANR-FIXT
100
AcDbLine
 10
778.1664074431597
 20
1936.499999999995
 30
0.0
 11
778.1664074431597
 21
1925.999999999996
 31
0.0
  0
LINE
  5
169
330
87
100
AcDbEntity
  8
P-SANR-FIXT
100
AcDbLine
 10
849.1664074431598
 20
1936.499999999995
 30
0.0
 11
849.1664074431598
 21
1955.999999999996
 31
0.0
  0
LINE
  5
16A
330
87
100
AcDbEntity
  8
P-SANR-FIXT
100
AcDbLine
 10
782.1664074431598
 20
1955.999999999995
 30
0.0
 11
782.1664074431598
 21
1936.499999999995
 31
0.0
  0
LINE
  5
16B
330
87
100
AcDbEntity
  8
P-SANR-FIXT
100
AcDbLine
 10
828.66640744316
 20
2043.999999999996
 30
0.0
 11
828.66640744316
 21
2044.499999999996
 31
0.0
  0
LINE
  5
16C
330
87
100
AcDbEntity
  8
P-SANR-FIXT
100
AcDbLine
 10
802.6664074431598
 20
2044.499999999996
 30
0.0
 11
802.6664074431598
 21
2043.999999999996
 31
0.0
  0
LINE
  5
16D
330
87
100
AcDbEntity
  8
P-SANR-FIXT
100
AcDbLine
 10
774.6664074431584
 20
1955.999999999994
 30
0.0
 11
774.6664074431584
 21
2043.999999999996
 31
0.0
  0
LINE
  5
16E
330
87
100
AcDbEntity
  8
P-SANR-FIXT
100
AcDbLine
 10
856.6664074431582
 20
2043.999999999995
 30
0.0
 11
856.6664074431582
 21
1955.999999999995
 31
0.0
  0
SPLINE
  5
16F
330
87
100
AcDbEntity
  8
P-SANR-FIXT
100
AcDbSpline
210
0.0
220
0.0
230
1.0
 70
     8
 71
     3
 72
    11
 73
     7
 74
     0
 42
0.000000001
 43
0.0000000001
 40
0.0
 40
0.0
 40
0.0
 40
0.0
 40
0.2857142857142857
 40
0.5714285714285714
 40
0.7857142857142857
 40
1.0
 40
1.0
 40
1.0
 40
1.0
 10
828.6664074431582
 20
2043.999999999995
 30
0.0
 10
828.6591447699024
 20
2043.999999999995
 30
0.0
 10
827.7645124807744
 20
2043.720561978992
 30
0.0
 10
824.3637305990677
 20
2042.863050363637
 30
0.0
 10
820.0506644091319
 20
2042.195487413209
 30
0.0
 10
817.1581017041532
 20
2042.037662962358
 30
0.0
 10
815.6664074431583
 20
2042.035699113962
 30
0.0
  0
SPLINE
  5
170
330
87
100
AcDbEntity
  8
P-SANR-FIXT
100
AcDbSpline
210
0.0
220
0.0
230
1.0
 70
     8
 71
     3
 72
    26
 73
    22
 74
     0
 42
0.000000001
 43
0.0000000001
 40
0.0
 40
0.0
 40
0.0
 40
0.0
 40
0.0714285714285714
 40
0.1071428571428571
 40
0.1428571428571428
 40
0.1785714285714286
 40
0.2142857142857143
 40
0.25
 40
0.2678571428571428
 40
0.2857142857142857
 40
0.3214285714285714
 40
0.3571428571428571
 40
0.4285714285714286
 40
0.5714285714285714
 40
0.6785714285714287
 40
0.7053571428571429
 40
0.7321428571428572
 40
0.7857142857142857
 40
0.8392857142857142
 40
0.8928571428571427
 40
1.0
 40
1.0
 40
1.0
 40
1.0
 10
815.6664074431583
 20
1971.473696348803
 30
0.0
 10
817.0191106196245
 20
1971.439742083774
 30
0.0
 10
819.0021370390043
 20
1971.283502574289
 30
0.0
 10
821.5550838752122
 20
1970.866990310352
 30
0.0
 10
823.4223132055374
 20
1970.459063613161
 30
0.0
 10
825.2498081470914
 20
1969.935964373435
 30
0.0
 10
827.036198375065
 20
1969.307352904218
 30
0.0
 10
828.4810268504251
 20
1968.728477961326
 30
0.0
 10
829.6065807468552
 20
1968.245987957356
 30
0.0
 10
830.7093152735017
 20
1967.75926601239
 30
0.0
 10
832.049800542695
 20
1967.124564339205
 30
0.0
 10
834.1200695136432
 20
1966.0480349759
 30
0.0
 10
837.529591914876
 20
1964.113535898406
 30
0.0
 10
841.3783174557009
 20
1961.631292615607
 30
0.0
 10
844.0931190989486
 20
1959.738951070098
 30
0.0
 10
845.4293395026795
 20
1958.777122251754
 30
0.0
 10
846.2454034217731
 20
1958.177112443534
 30
0.0
 10
847.1668694754217
 20
1957.501958390268
 30
0.0
 10
848.0539175581482
 20
1956.846837795096
 30
0.0
 10
848.8808594569713
 20
1956.207106316866
 30
0.0
 10
849.148177145958
 20
1955.999999999995
 30
0.0
 10
849.1664074431582
 20
1955.999999999995
 30
0.0
  0
SPLINE
  5
171
330
87
100
AcDbEntity
  8
P-SANR-FIXT
100
AcDbSpline
210
0.0
220
0.0
230
1.0
 70
     8
 71
     3
 72
    24
 73
    20
 74
     0
 42
0.000000001
 43
0.0000000001
 40
0.0
 40
0.0
 40
0.0
 40
0.0
 40
0.1428571428571428
 40
0.2142857142857143
 40
0.2857142857142857
 40
0.4285714285714286
 40
0.5714285714285714
 40
0.625
 40
0.6785714285714287
 40
0.7053571428571429
 40
0.71875
 40
0.7321428571428572
 40
0.7857142857142857
 40
0.8392857142857142
 40
0.8526785714285713
 40
0.8660714285714284
 40
0.8928571428571427
 40
0.9464285714285713
 40
1.0
 40
1.0
 40
1.0
 40
1.0
 10
782.1664074431583
 20
1955.999999999994
 30
0.0
 10
782.1907145060918
 20
1955.999999999994
 30
0.0
 10
782.6346574975856
 20
1956.364745945223
 30
0.0
 10
784.139598184544
 20
1957.482416237312
 30
0.0
 10
786.1469315911778
 20
1958.96317611137
 30
0.0
 10
789.5222978015504
 20
1961.353347415043
 30
0.0
 10
793.5902547060058
 20
1963.977606969374
 30
0.0
 10
796.9636207092174
 20
1965.907461525917
 30
0.0
 10
798.8862869777137
 20
1966.927904407236
 30
0.0
 10
800.2886106704439
 20
1967.60269641397
 30
0.0
 10
801.1053400756766
 20
1967.971405898516
 30
0.0
 10
802.3497427315705
 20
1968.520508107195
 30
0.0
 10
804.2858787831573
 20
1969.321749704556
 30
0.0
 10
806.3097816543267
 20
1970.008676853702
 30
0.0
 10
807.6858675221345
 20
1970.384314806554
 30
0.0
 10
808.6098454962758
 20
1970.610688460937
 30
0.0
 10
810.2499730607231
 20
1970.960488549849
 30
0.0
 10
812.6572018196515
 20
1971.318016360213
 30
0.0
 10
814.6518800608088
 20
1971.448230650031
 30
0.0
 10
815.6664074431583
 20
1971.473696348802
 30
0.0
  0
SPLINE
  5
172
330
87
100
AcDbEntity
  8
P-SANR-FIXT
100
AcDbSpline
210
0.0
220
0.0
230
1.0
 70
     8
 71
     3
 72
    12
 73
     8
 74
     0
 42
0.000000001
 43
0.0000000001
 40
0.0
 40
0.0
 40
0.0
 40
0.0
 40
0.1428571428571428
 40
0.2857142857142857
 40
0.5714285714285714
 40
0.7857142857142857
 40
1.0
 40
1.0
 40
1.0
 40
1.0
 10
815.6664074431583
 20
2042.035699113963
 30
0.0
 10
814.6719446024951
 20
2042.037008346227
 30
0.0
 10
812.7424877083356
 20
2042.104659042263
 30
0.0
 10
809.0324097845792
 20
2042.490532477405
 30
0.0
 10
805.5604940175951
 20
2043.197879299563
 30
0.0
 10
803.1689390689614
 20
2043.847430193905
 30
0.0
 10
802.6718544481001
 20
2043.999999999995
 30
0.0
 10
802.6664074431582
 20
2043.999999999996
 30
0.0
  0
LINE
  5
173
330
87
100
AcDbEntity
  8
P-SANR-FIXT
100
AcDbLine
 10
852.8927531020666
 20
1925.999999999995
 30
0.0
 11
838.1958146454019
 21
1925.999999999995
 31
0.0
  0
LINE
  5
174
330
87
100
AcDbEntity
  8
P-SANR-FIXT
100
AcDbLine
 10
830.3633458997879
 20
1925.999999999995
 30
0.0
 11
800.9694689865284
 21
1925.999999999995
 31
0.0
  0
LINE
  5
175
330
87
100
AcDbEntity
  8
P-SANR-FIXT
100
AcDbLine
 10
793.1370002409146
 20
1925.999999999995
 30
0.0
 11
778.4400617842499
 21
1925.999999999995
 31
0.0
  0
LINE
  5
176
330
87
100
AcDbEntity
  8
P-SANR-FIXT
100
AcDbLine
 10
838.1958146454023
 20
1925.999999999995
 30
0.0
 11
830.3633458997882
 21
1925.999999999995
 31
0.0
  0
LINE
  5
177
330
87
100
AcDbEntity
  8
P-SANR-FIXT
100
AcDbLine
 10
838.1958146454017
 20
1925.999999999995
 30
0.0
 11
838.1958146454017
 21
1936.499999999995
 31
0.0
  0
LINE
  5
178
330
87
100
AcDbEntity
  8
P-SANR-FIXT
100
AcDbLine
 10
830.3633458997879
 20
1936.499999999995
 30
0.0
 11
830.3633458997879
 21
1925.999999999995
 31
0.0
  0
LINE
  5
179
330
87
100
AcDbEntity
  8
P-SANR-FIXT
100
AcDbLine
 10
800.9694689865288
 20
1925.999999999995
 30
0.0
 11
793.1370002409147
 21
1925.999999999995
 31
0.0
  0
LINE
  5
17A
330
87
100
AcDbEntity
  8
P-SANR-FIXT
100
AcDbLine
 10
800.9694689865282
 20
1925.999999999995
 30
0.0
 11
800.9694689865282
 21
1936.499999999995
 31
0.0
  0
LINE
  5
17B
330
87
100
AcDbEntity
  8
P-SANR-FIXT
100
AcDbLine
 10
793.1370002409144
 20
1936.499999999995
 30
0.0
 11
793.1370002409144
 21
1925.999999999995
 31
0.0
  0
LINE
  5
17C
330
87
100
AcDbEntity
  8
P-SANR-FIXT
100
AcDbLine
 10
852.8927531020665
 20
1936.499999999995
 30
0.0
 11
852.8927531020665
 21
1925.999999999995
 31
0.0
  0
LINE
  5
17D
330
87
100
AcDbEntity
  8
P-SANR-FIXT
100
AcDbLine
 10
853.1664074431585
 20
1925.999999999995
 30
0.0
 11
852.8927531020666
 21
1925.999999999995
 31
0.0
  0
LINE
  5
17E
330
87
100
AcDbEntity
  8
P-SANR-FIXT
100
AcDbLine
 10
778.4400617842499
 20
1925.999999999995
 30
0.0
 11
778.1664074431581
 21
1925.999999999995
 31
0.0
  0
LINE
  5
17F
330
87
100
AcDbEntity
  8
P-SANR-FIXT
100
AcDbLine
 10
778.4400617842499
 20
1925.999999999995
 30
0.0
 11
778.4400617842499
 21
1936.499999999995
 31
0.0
  0
LINE
  5
180
330
87
100
AcDbEntity
  8
P-SANR-FIXT
100
AcDbLine
 10
778.4400617842499
 20
1936.499999999995
 30
0.0
 11
778.1664074431581
 21
1936.499999999995
 31
0.0
  0
LINE
  5
181
330
87
100
AcDbEntity
  8
P-SANR-FIXT
100
AcDbLine
 10
778.4400617842499
 20
1936.499999999995
 30
0.0
 11
793.1370002409146
 21
1936.499999999995
 31
0.0
  0
LINE
  5
182
330
87
100
AcDbEntity
  8
P-SANR-FIXT
100
AcDbLine
 10
800.9694689865288
 20
1936.499999999995
 30
0.0
 11
793.1370002409147
 21
1936.499999999995
 31
0.0
  0
LINE
  5
183
330
87
100
AcDbEntity
  8
P-SANR-FIXT
100
AcDbLine
 10
800.9694689865284
 20
1936.499999999995
 30
0.0
 11
830.3633458997879
 21
1936.499999999995
 31
0.0
  0
LINE
  5
184
330
87
100
AcDbEntity
  8
P-SANR-FIXT
100
AcDbLine
 10
838.1958146454023
 20
1936.499999999995
 30
0.0
 11
830.3633458997882
 21
1936.499999999995
 31
0.0
  0
LINE
  5
185
330
87
100
AcDbEntity
  8
P-SANR-FIXT
100
AcDbLine
 10
838.1958146454019
 20
1936.499999999995
 30
0.0
 11
852.8927531020666
 21
1936.499999999995
 31
0.0
  0
LINE
  5
186
330
87
100
AcDbEntity
  8
P-SANR-FIXT
100
AcDbLine
 10
853.1664074431585
 20
1936.499999999995
 30
0.0
 11
852.8927531020666
 21
1936.499999999995
 31
0.0
  0
LINE
  5
187
330
87
100
AcDbEntity
  8
P-SANR-FIXT
100
AcDbLine
 10
828.6664074431582
 20
2044.499999999995
 30
0.0
 11
802.6664074431582
 21
2044.499999999995
 31
0.0
  0
ENDBLK
  5
189
330
87
100
AcDbEntity
  8
0
100
AcDbBlockEnd
  0
BLOCK
  5
22F
330
18B
100
AcDbEntity
  8
0
100
AcDbBlockBegin
  2
Automatic flow rate regulator valve_Caleffi_121 DN15 - 1_2__-V1-Est - Idraulica
 70
     0
 10
0.0
 20
0.0
 30
0.0
  3
Automatic flow rate regulator valve_Caleffi_121 DN15 - 1_2__-V1-Est - Idraulica
  1

  0
LINE
  5
18C
330
18B
100
AcDbEntity
  8
M-PIPE
100
AcDbLine
 10
818.4948345679185
 20
1786.322493106302
 30
0.0
 11
791.9783302734234
 21
1759.805988811806
 31
0.0
1001
REVIT
1002
{
1070
     3
1000
923261
1002
}
  0
LINE
  5
18D
330
18B
100
AcDbEntity
  8
M-PIPE
100
AcDbLine
 10
832.3632407434189
 20
1800.190899281803
 30
0.0
 11
818.4948345679185
 21
1786.322493106302
 31
0.0
1001
REVIT
1002
{
1070
     3
1000
923261
1002
}
  0
LINE
  5
18E
330
18B
100
AcDbEntity
  8
M-PIPE
100
AcDbLine
 10
775.0077675249463
 20
1776.776551560283
 30
0.0
 11
801.5242718194414
 21
1803.293055854779
 31
0.0
1001
REVIT
1002
{
1070
     3
1000
923261
1002
}
  0
LINE
  5
18F
330
18B
100
AcDbEntity
  8
M-PIPE
100
AcDbLine
 10
801.5242718194414
 20
1803.293055854779
 30
0.0
 11
815.3926779949419
 21
1817.16146203028
 31
0.0
1001
REVIT
1002
{
1070
     3
1000
923261
1002
}
  0
LINE
  5
190
330
18B
100
AcDbEntity
  8
M-PIPE
100
AcDbLine
 10
832.3632407434189
 20
1800.190899281803
 30
0.0
 11
825.357964425472
 21
1807.19617559975
 31
0.0
1001
REVIT
1002
{
1070
     3
1000
923261
1002
}
  0
SPLINE
  5
191
330
18B
100
AcDbEntity
  8
M-PIPE
100
AcDbSpline
210
0.0
220
0.0
230
1.0
 70
     8
 71
     3
 72
     9
 73
     5
 74
     0
 42
0.000000001
 43
0.0000000001
 40
0.0
 40
0.0
 40
0.0
 40
0.0
 40
0.5
 40
1.0
 40
1.0
 40
1.0
 40
1.0
 10
825.357964425472
 20
1807.19617559975
 30
0.0
 10
825.2471643164128
 20
1807.359233704957
 30
0.0
 10
825.0002404582714
 20
1807.69398295022
 30
0.0
 10
824.7062662852371
 20
1808.049595230331
 30
0.0
 10
824.5482450366669
 20
1808.233345545769
 30
0.0
1001
REVIT
1002
{
1070
     3
1000
923261
1002
}
  0
LINE
  5
192
330
18B
100
AcDbEntity
  8
M-PIPE
100
AcDbLine
 10
823.9921019477222
 20
1808.79032323456
 30
0.0
 11
824.5482450366669
 21
1808.233345545769
 31
0.0
1001
REVIT
1002
{
1070
     3
1000
923261
1002
}
  0
LINE
  5
193
330
18B
100
AcDbEntity
  8
M-PIPE
100
AcDbLine
 10
823.4351242589317
 20
1809.346466323504
 30
0.0
 11
823.9921019477222
 21
1808.79032323456
 31
0.0
1001
REVIT
1002
{
1070
     3
1000
923261
1002
}
  0
SPLINE
  5
194
330
18B
100
AcDbEntity
  8
M-PIPE
100
AcDbSpline
210
0.0
220
0.0
230
1.0
 70
     8
 71
     3
 72
     9
 73
     5
 74
     0
 42
0.000000001
 43
0.0000000001
 40
0.0
 40
0.0
 40
0.0
 40
0.0
 40
0.5
 40
1.0
 40
1.0
 40
1.0
 40
1.0
 10
823.4351242589317
 20
1809.346466323504
 30
0.0
 10
823.2513739434935
 20
1809.504487572074
 30
0.0
 10
822.8957616633822
 20
1809.798461745109
 30
0.0
 10
822.5610124181196
 20
1810.04538560325
 30
0.0
 10
822.3979543129123
 20
1810.156185712309
 30
0.0
1001
REVIT
1002
{
1070
     3
1000
923261
1002
}
  0
LINE
  5
195
330
18B
100
AcDbEntity
  8
M-PIPE
100
AcDbLine
 10
822.3979543129123
 20
1810.156185712309
 30
0.0
 11
815.3926779949419
 21
1817.16146203028
 31
0.0
1001
REVIT
1002
{
1070
     3
1000
923261
1002
}
  0
LINE
  5
196
330
18B
100
AcDbEntity
  8
M-PIPE
100
AcDbLine
 10
775.0077675249463
 20
1776.776551560283
 30
0.0
 11
791.9783302734234
 21
1759.805988811806
 31
0.0
1001
REVIT
1002
{
1070
     3
1000
923261
1002
}
  0
ARC
  5
197
330
18B
100
AcDbEntity
  8
M-PIPE
100
AcDbCircle
 10
849.5182691002106
 20
1787.464628730049
 30
0.0
 40
7.999999999999886
100
AcDbArc
 50
180.0
 51
359.999999999998
1001
REVIT
1002
{
1070
     3
1000
923261
1002
}
  0
ARC
  5
198
330
18B
100
AcDbEntity
  8
M-PIPE
100
AcDbCircle
 10
849.5182691002106
 20
1787.464628730049
 30
0.0
 40
7.999999999999762
100
AcDbArc
 50
0.0000000000004071
 51
180.0000000000004
1001
REVIT
1002
{
1070
     3
1000
923261
1002
}
  0
LINE
  5
199
330
18B
100
AcDbEntity
  8
M-PIPE
100
AcDbLine
 10
762.1664074431609
 20
1788.464628730049
 30
0.0
 11
770.1664074431609
 21
1788.464628730049
 31
0.0
1001
REVIT
1002
{
1070
     3
1000
923261
1002
}
  0
LINE
  5
19A
330
18B
100
AcDbEntity
  8
M-PIPE
100
AcDbLine
 10
770.1664074431606
 20
1812.464628730049
 30
0.0
 11
762.1664074431604
 21
1812.464628730049
 31
0.0
1001
REVIT
1002
{
1070
     3
1000
923261
1002
}
  0
LINE
  5
19B
330
18B
100
AcDbEntity
  8
M-PIPE
100
AcDbLine
 10
757.1664074431601
 20
1792.46462873005
 30
0.0
 11
762.1664074431607
 21
1792.46462873005
 31
0.0
1001
REVIT
1002
{
1070
     3
1000
923261
1002
}
  0
LINE
  5
19C
330
18B
100
AcDbEntity
  8
M-PIPE
100
AcDbLine
 10
770.1664074431607
 20
1792.46462873005
 30
0.0
 11
783.1664074431604
 21
1792.46462873005
 31
0.0
1001
REVIT
1002
{
1070
     3
1000
923261
1002
}
  0
LINE
  5
19D
330
18B
100
AcDbEntity
  8
M-PIPE
100
AcDbLine
 10
783.1664074431603
 20
1808.46462873005
 30
0.0
 11
770.1664074431609
 21
1808.46462873005
 31
0.0
1001
REVIT
1002
{
1070
     3
1000
923261
1002
}
  0
LINE
  5
19E
330
18B
100
AcDbEntity
  8
M-PIPE
100
AcDbLine
 10
762.1664074431609
 20
1808.46462873005
 30
0.0
 11
757.1664074431602
 21
1808.46462873005
 31
0.0
1001
REVIT
1002
{
1070
     3
1000
923261
1002
}
  0
LINE
  5
19F
330
18B
100
AcDbEntity
  8
M-PIPE
100
AcDbLine
 10
770.1664074431593
 20
1812.464628730049
 30
0.0
 11
770.1664074431595
 21
1788.464628730049
 31
0.0
1001
REVIT
1002
{
1070
     3
1000
923261
1002
}
  0
LINE
  5
1A0
330
18B
100
AcDbEntity
  8
M-PIPE
100
AcDbLine
 10
762.1664074431596
 20
1788.464628730049
 30
0.0
 11
762.1664074431594
 21
1812.464628730049
 31
0.0
1001
REVIT
1002
{
1070
     3
1000
923261
1002
}
  0
LINE
  5
1A1
330
18B
100
AcDbEntity
  8
M-PIPE
100
AcDbLine
 10
757.1664074431588
 20
1792.464628730049
 30
0.0
 11
757.1664074431588
 21
1808.464628730049
 31
0.0
1001
REVIT
1002
{
1070
     3
1000
923261
1002
}
  0
LINE
  5
1A2
330
18B
100
AcDbEntity
  8
M-PIPE
100
AcDbLine
 10
898.6664074431606
 20
1767.46462873005
 30
0.0
 11
898.6664074431603
 21
1833.46462873005
 31
0.0
1001
REVIT
1002
{
1070
     3
1000
923261
1002
}
  0
LINE
  5
1A3
330
18B
100
AcDbEntity
  8
M-PIPE
100
AcDbLine
 10
898.6664074431592
 20
1767.464628730049
 30
0.0
 11
891.6664074431594
 21
1767.464628730049
 31
0.0
1001
REVIT
1002
{
1070
     3
1000
923261
1002
}
  0
LINE
  5
1A4
330
18B
100
AcDbEntity
  8
M-PIPE
100
AcDbLine
 10
891.6664074431594
 20
1767.464628730049
 30
0.0
 11
799.6369701916659
 21
1767.464628730049
 31
0.0
1001
REVIT
1002
{
1070
     3
1000
923261
1002
}
  0
LINE
  5
1A5
330
18B
100
AcDbEntity
  8
M-PIPE
100
AcDbLine
 10
784.3196903551809
 20
1767.464628730049
 30
0.0
 11
783.1664074431593
 21
1767.464628730049
 31
0.0
1001
REVIT
1002
{
1070
     3
1000
923261
1002
}
  0
LINE
  5
1A6
330
18B
100
AcDbEntity
  8
M-PIPE
100
AcDbLine
 10
783.1664074431588
 20
1833.464628730049
 30
0.0
 11
891.6664074431588
 21
1833.46462873005
 31
0.0
1001
REVIT
1002
{
1070
     3
1000
923261
1002
}
  0
LINE
  5
1A7
330
18B
100
AcDbEntity
  8
M-PIPE
100
AcDbLine
 10
891.6664074431588
 20
1833.46462873005
 30
0.0
 11
898.6664074431589
 21
1833.46462873005
 31
0.0
1001
REVIT
1002
{
1070
     3
1000
923261
1002
}
  0
LINE
  5
1A8
330
18B
100
AcDbEntity
  8
M-PIPE
100
AcDbLine
 10
783.1664074431592
 20
1766.464628730049
 30
0.0
 11
783.1664074431592
 21
1767.464628730049
 31
0.0
1001
REVIT
1002
{
1070
     3
1000
923261
1002
}
  0
LINE
  5
1A9
330
18B
100
AcDbEntity
  8
M-PIPE
100
AcDbLine
 10
783.1664074431588
 20
1833.464628730049
 30
0.0
 11
783.1664074431592
 21
1784.935191478496
 31
0.0
1001
REVIT
1002
{
1070
     3
1000
923261
1002
}
  0
LINE
  5
1AA
330
18B
100
AcDbEntity
  8
M-PIPE
100
AcDbLine
 10
783.1664074431592
 20
1768.61791164207
 30
0.0
 11
783.1664074431593
 21
1767.464628730049
 31
0.0
1001
REVIT
1002
{
1070
     3
1000
923261
1002
}
  0
LINE
  5
1AB
330
18B
100
AcDbEntity
  8
M-PIPE
100
AcDbLine
 10
783.1664074431586
 20
1833.464628730049
 30
0.0
 11
783.1664074431586
 21
1834.464628730049
 31
0.0
1001
REVIT
1002
{
1070
     3
1000
923261
1002
}
  0
LINE
  5
1AC
330
18B
100
AcDbEntity
  8
M-PIPE
100
AcDbLine
 10
900.1664074431593
 20
1766.46462873005
 30
0.0
 11
886.1134609974259
 21
1766.46462873005
 31
0.0
1001
REVIT
1002
{
1070
     3
1000
923261
1002
}
  0
LINE
  5
1AD
330
18B
100
AcDbEntity
  8
M-PIPE
100
AcDbLine
 10
886.113460997427
 20
1766.46462873005
 30
0.0
 11
849.5182691002002
 21
1766.464628730049
 31
0.0
1001
REVIT
1002
{
1070
     3
1000
923261
1002
}
  0
LINE
  5
1AE
330
18B
100
AcDbEntity
  8
M-PIPE
100
AcDbLine
 10
849.5182691002007
 20
1766.464628730049
 30
0.0
 11
798.6430530177876
 21
1766.464628730049
 31
0.0
1001
REVIT
1002
{
1070
     3
1000
923261
1002
}
  0
LINE
  5
1AF
330
18B
100
AcDbEntity
  8
M-PIPE
100
AcDbLine
 10
785.3191098953484
 20
1766.464628730049
 30
0.0
 11
783.1664074431592
 21
1766.464628730049
 31
0.0
1001
REVIT
1002
{
1070
     3
1000
923261
1002
}
  0
LINE
  5
1B0
330
18B
100
AcDbEntity
  8
M-PIPE
100
AcDbLine
 10
783.1664074431576
 20
1834.464628730049
 30
0.0
 11
849.5182691001991
 21
1834.464628730049
 31
0.0
1001
REVIT
1002
{
1070
     3
1000
923261
1002
}
  0
LINE
  5
1B1
330
18B
100
AcDbEntity
  8
M-PIPE
100
AcDbLine
 10
849.5182691001987
 20
1834.464628730049
 30
0.0
 11
886.1134609974254
 21
1834.46462873005
 31
0.0
1001
REVIT
1002
{
1070
     3
1000
923261
1002
}
  0
LINE
  5
1B2
330
18B
100
AcDbEntity
  8
M-PIPE
100
AcDbLine
 10
886.1134609974254
 20
1834.46462873005
 30
0.0
 11
900.1664074431587
 21
1834.46462873005
 31
0.0
1001
REVIT
1002
{
1070
     3
1000
923261
1002
}
  0
LINE
  5
1B3
330
18B
100
AcDbEntity
  8
M-PIPE
100
AcDbLine
 10
900.1664074431587
 20
1834.46462873005
 30
0.0
 11
900.1664074431593
 21
1766.46462873005
 31
0.0
1001
REVIT
1002
{
1070
     3
1000
923261
1002
}
  0
LINE
  5
1B4
330
18B
100
AcDbEntity
  8
M-PIPE
100
AcDbLine
 10
886.113460997427
 20
1767.464628730049
 30
0.0
 11
886.113460997427
 21
1766.46462873005
 31
0.0
1001
REVIT
1002
{
1070
     3
1000
923261
1002
}
  0
LINE
  5
1B5
330
18B
100
AcDbEntity
  8
M-PIPE
100
AcDbLine
 10
886.1134609974264
 20
1834.46462873005
 30
0.0
 11
886.1134609974264
 21
1833.46462873005
 31
0.0
1001
REVIT
1002
{
1070
     3
1000
923261
1002
}
  0
LINE
  5
1B6
330
18B
100
AcDbEntity
  8
M-PIPE
100
AcDbLine
 10
849.5182691002007
 20
1767.464628730049
 30
0.0
 11
849.5182691002007
 21
1766.464628730049
 31
0.0
1001
REVIT
1002
{
1070
     3
1000
923261
1002
}
  0
LINE
  5
1B7
330
18B
100
AcDbEntity
  8
M-PIPE
100
AcDbLine
 10
849.5182691002
 20
1834.464628730049
 30
0.0
 11
849.5182691002
 21
1833.46462873005
 31
0.0
1001
REVIT
1002
{
1070
     3
1000
923261
1002
}
  0
ARC
  5
1B8
330
18B
100
AcDbEntity
  8
M-PIPE
100
AcDbCircle
 10
815.6664074431708
 20
1800.464628730033
 30
0.0
 40
11.9999999999999
100
AcDbArc
 50
30.48057830518875
 51
59.51942169481093
1001
REVIT
1002
{
1070
     3
1000
923261
1002
}
  0
LINE
  5
1B9
330
18B
100
AcDbEntity
  8
M-PIPE
100
AcDbLine
 10
889.6664074431912
 20
1841.964628730039
 30
0.0
 11
889.6664074431917
 21
1834.464979990864
 31
0.0
1001
REVIT
1002
{
1070
     3
1000
790271
1002
}
  0
LINE
  5
1BA
330
18B
100
AcDbEntity
  8
M-PIPE
100
AcDbLine
 10
889.6664074431923
 20
1766.464277469235
 30
0.0
 11
889.6664074431923
 21
1764.524574473007
 31
0.0
1001
REVIT
1002
{
1070
     3
1000
790271
1002
}
  0
LINE
  5
1BB
330
18B
100
AcDbEntity
  8
M-PIPE
100
AcDbLine
 10
889.6664074431923
 20
1764.524574473007
 30
0.0
 11
889.6664074431919
 21
1758.964628730063
 31
0.0
1001
REVIT
1002
{
1070
     3
1000
790271
1002
}
  0
LINE
  5
1BC
330
18B
100
AcDbEntity
  8
M-PIPE
100
AcDbLine
 10
860.6664074431925
 20
1764.524574473022
 30
0.0
 11
860.6664074431925
 21
1766.464277469233
 31
0.0
1001
REVIT
1002
{
1070
     3
1000
790271
1002
}
  0
LINE
  5
1BD
330
18B
100
AcDbEntity
  8
M-PIPE
100
AcDbLine
 10
860.6664074431918
 20
1834.464979990865
 30
0.0
 11
860.6664074431915
 21
1841.964628730021
 31
0.0
1001
REVIT
1002
{
1070
     3
1000
790271
1002
}
  0
LINE
  5
1BE
330
18B
100
AcDbEntity
  8
M-PIPE
100
AcDbLine
 10
860.6664074431922
 20
1758.96462873008
 30
0.0
 11
860.6664074431925
 21
1764.524574473021
 31
0.0
1001
REVIT
1002
{
1070
     3
1000
790271
1002
}
  0
SPLINE
  5
1BF
330
18B
100
AcDbEntity
  8
M-PIPE
100
AcDbSpline
210
0.0
220
0.0
230
1.0
 70
    24
 71
     3
 72
     9
 73
     5
 74
     0
 42
0.000000001
 43
0.0000000001
 40
0.0
 40
0.0
 40
0.0
 40
0.0
 40
0.5
 40
1.0
 40
1.0
 40
1.0
 40
1.0
 10
889.6664074431923
 20
1758.964628730053
 30
0.0
 10
889.6546517575799
 20
1758.964628730053
 30
0.0
 10
889.4023334598051
 20
1758.964628730053
 30
0.0
 10
888.6924013089295
 20
1758.964628730053
 30
0.0
 10
888.2230317702164
 20
1758.964628730053
 30
0.0
1001
REVIT
1002
{
1070
     3
1000
790271
1002
}
  0
LINE
  5
1C0
330
18B
100
AcDbEntity
  8
M-PIPE
100
AcDbLine
 10
888.2230317702164
 20
1758.964628730053
 30
0.0
 11
862.1097831161783
 21
1758.964628730053
 31
0.0
1001
REVIT
1002
{
1070
     3
1000
790271
1002
}
  0
SPLINE
  5
1C1
330
18B
100
AcDbEntity
  8
M-PIPE
100
AcDbSpline
210
0.0
220
0.0
230
1.0
 70
    24
 71
     3
 72
     9
 73
     5
 74
     0
 42
0.000000001
 43
0.0000000001
 40
0.0
 40
0.0
 40
0.0
 40
0.0
 40
0.5
 40
1.0
 40
1.0
 40
1.0
 40
1.0
 10
862.1097831161783
 20
1758.964628730053
 30
0.0
 10
861.6404135774665
 20
1758.964628730053
 30
0.0
 10
860.9304814265906
 20
1758.964628730053
 30
0.0
 10
860.6781631288093
 20
1758.964628730053
 30
0.0
 10
860.6664074431925
 20
1758.964628730053
 30
0.0
1001
REVIT
1002
{
1070
     3
1000
790271
1002
}
  0
SPLINE
  5
1C2
330
18B
100
AcDbEntity
  8
M-PIPE
100
AcDbSpline
210
0.0
220
0.0
230
1.0
 70
    24
 71
     3
 72
     9
 73
     5
 74
     0
 42
0.000000001
 43
0.0000000001
 40
0.0
 40
0.0
 40
0.0
 40
0.0
 40
0.5
 40
1.0
 40
1.0
 40
1.0
 40
1.0
 10
888.2230317702132
 20
1841.964628730053
 30
0.0
 10
888.6924013089256
 20
1841.964628730053
 30
0.0
 10
889.4023334598013
 20
1841.964628730053
 30
0.0
 10
889.6546517575782
 20
1841.964628730053
 30
0.0
 10
889.6664074431917
 20
1841.964628730053
 30
0.0
1001
REVIT
1002
{
1070
     3
1000
790271
1002
}
  0
SPLINE
  5
1C3
330
18B
100
AcDbEntity
  8
M-PIPE
100
AcDbSpline
210
0.0
220
0.0
230
1.0
 70
    24
 71
     3
 72
     9
 73
     5
 74
     0
 42
0.000000001
 43
0.0000000001
 40
0.0
 40
0.0
 40
0.0
 40
0.0
 40
0.5
 40
1.0
 40
1.0
 40
1.0
 40
1.0
 10
860.666407443192
 20
1841.964628730053
 30
0.0
 10
860.6781631288102
 20
1841.964628730053
 30
0.0
 10
860.930481426593
 20
1841.964628730053
 30
0.0
 10
861.640413577469
 20
1841.964628730053
 30
0.0
 10
862.1097831161801
 20
1841.964628730053
 30
0.0
1001
REVIT
1002
{
1070
     3
1000
790271
1002
}
  0
LINE
  5
1C4
330
18B
100
AcDbEntity
  8
M-PIPE
100
AcDbLine
 10
862.1097831161801
 20
1841.964628730053
 30
0.0
 11
888.2230317702132
 21
1841.964628730053
 31
0.0
1001
REVIT
1002
{
1070
     3
1000
790271
1002
}
  0
LINE
  5
1C5
330
18B
100
AcDbEntity
  8
M-PIPE
100
AcDbLine
 10
888.2230317702179
 20
1766.438120213173
 30
0.0
 11
888.2230317702179
 21
1762.359510963543
 31
0.0
1001
REVIT
1002
{
1070
     3
1000
790271
1002
}
  0
LINE
  5
1C6
330
18B
100
AcDbEntity
  8
M-PIPE
100
AcDbLine
 10
862.1097831161783
 20
1762.35951096354
 30
0.0
 11
862.1097831161783
 21
1766.438120213171
 31
0.0
1001
REVIT
1002
{
1070
     3
1000
790271
1002
}
  0
LINE
  5
1C7
330
18B
100
AcDbEntity
  8
M-PIPE
100
AcDbLine
 10
888.2230317702125
 20
1841.964628730055
 30
0.0
 11
888.2230317702129
 21
1834.49113724693
 31
0.0
1001
REVIT
1002
{
1070
     3
1000
790271
1002
}
  0
LINE
  5
1C8
330
18B
100
AcDbEntity
  8
M-PIPE
100
AcDbLine
 10
888.2230317702166
 20
1762.35951096354
 30
0.0
 11
888.2230317702164
 21
1758.964628730053
 31
0.0
1001
REVIT
1002
{
1070
     3
1000
790271
1002
}
  0
LINE
  5
1C9
330
18B
100
AcDbEntity
  8
M-PIPE
100
AcDbLine
 10
862.109783116178
 20
1834.491137246925
 30
0.0
 11
862.1097831161776
 21
1841.964628730049
 31
0.0
1001
REVIT
1002
{
1070
     3
1000
790271
1002
}
  0
LINE
  5
1CA
330
18B
100
AcDbEntity
  8
M-PIPE
100
AcDbLine
 10
862.1097831161796
 20
1758.964628730051
 30
0.0
 11
862.1097831161797
 21
1762.359510963538
 31
0.0
1001
REVIT
1002
{
1070
     3
1000
790271
1002
}
  0
LINE
  5
1CB
330
18B
100
AcDbEntity
  8
M-PIPE
100
AcDbLine
 10
741.6664074431517
 20
1800.46462873005
 30
0.0
 11
741.6664074431515
 21
1821.214628730045
 31
0.0
1001
REVIT
1002
{
1070
     3
1000
790271
1002
}
  0
LINE
  5
1CC
330
18B
100
AcDbEntity
  8
M-PIPE
100
AcDbLine
 10
741.6664074431515
 20
1821.214628730044
 30
0.0
 11
741.6664074431505
 21
1841.964628730038
 31
0.0
1001
REVIT
1002
{
1070
     3
1000
790271
1002
}
  0
LINE
  5
1CD
330
18B
100
AcDbEntity
  8
M-PIPE
100
AcDbLine
 10
741.6664074431523
 20
1758.964628730062
 30
0.0
 11
741.6664074431523
 21
1779.714628730056
 31
0.0
1001
REVIT
1002
{
1070
     3
1000
790271
1002
}
  0
LINE
  5
1CE
330
18B
100
AcDbEntity
  8
M-PIPE
100
AcDbLine
 10
741.6664074431523
 20
1779.714628730056
 30
0.0
 11
741.6664074431517
 21
1800.46462873005
 31
0.0
1001
REVIT
1002
{
1070
     3
1000
790271
1002
}
  0
LINE
  5
1CF
330
18B
100
AcDbEntity
  8
M-PIPE
100
AcDbLine
 10
770.6664074431503
 20
1841.964628730021
 30
0.0
 11
770.6664074431512
 21
1821.214628730035
 31
0.0
1001
REVIT
1002
{
1070
     3
1000
790271
1002
}
  0
LINE
  5
1D0
330
18B
100
AcDbEntity
  8
M-PIPE
100
AcDbLine
 10
770.6664074431515
 20
1808.468495623117
 30
0.0
 11
770.6664074431512
 21
1821.214628730035
 31
0.0
1001
REVIT
1002
{
1070
     3
1000
790271
1002
}
  0
LINE
  5
1D1
330
18B
100
AcDbEntity
  8
M-PIPE
100
AcDbLine
 10
770.6664074431517
 20
1792.46076183698
 30
0.0
 11
770.666407443152
 21
1779.714628730065
 31
0.0
1001
REVIT
1002
{
1070
     3
1000
790271
1002
}
  0
LINE
  5
1D2
330
18B
100
AcDbEntity
  8
M-PIPE
100
AcDbLine
 10
770.666407443152
 20
1779.714628730065
 30
0.0
 11
770.666407443152
 21
1758.96462873008
 31
0.0
1001
REVIT
1002
{
1070
     3
1000
790271
1002
}
  0
SPLINE
  5
1D3
330
18B
100
AcDbEntity
  8
M-PIPE
100
AcDbSpline
210
0.0
220
0.0
230
1.0
 70
    24
 71
     3
 72
     9
 73
     5
 74
     0
 42
0.000000001
 43
0.0000000001
 40
0.0
 40
0.0
 40
0.0
 40
0.0
 40
0.5
 40
1.0
 40
1.0
 40
1.0
 40
1.0
 10
743.1097831161446
 20
1758.964628730034
 30
0.0
 10
742.6404135774316
 20
1758.964628730034
 30
0.0
 10
741.9304814265526
 20
1758.964628730034
 30
0.0
 10
741.6781631287691
 20
1758.964628730034
 30
0.0
 10
741.6664074431511
 20
1758.964628730034
 30
0.0
1001
REVIT
1002
{
1070
     3
1000
790271
1002
}
  0
SPLINE
  5
1D4
330
18B
100
AcDbEntity
  8
M-PIPE
100
AcDbSpline
210
0.0
220
0.0
230
1.0
 70
    24
 71
     3
 72
     9
 73
     5
 74
     0
 42
0.000000001
 43
0.0000000001
 40
0.0
 40
0.0
 40
0.0
 40
0.0
 40
0.5
 40
1.0
 40
1.0
 40
1.0
 40
1.0
 10
770.6664074431508
 20
1758.964628730034
 30
0.0
 10
770.6546517575288
 20
1758.964628730034
 30
0.0
 10
770.4023334597398
 20
1758.964628730034
 30
0.0
 10
769.6924013088612
 20
1758.964628730034
 30
0.0
 10
769.2230317701496
 20
1758.964628730034
 30
0.0
1001
REVIT
1002
{
1070
     3
1000
790271
1002
}
  0
LINE
  5
1D5
330
18B
100
AcDbEntity
  8
M-PIPE
100
AcDbLine
 10
769.2230317701496
 20
1758.964628730034
 30
0.0
 11
743.1097831161446
 21
1758.964628730034
 31
0.0
1001
REVIT
1002
{
1070
     3
1000
790271
1002
}
  0
SPLINE
  5
1D6
330
18B
100
AcDbEntity
  8
M-PIPE
100
AcDbSpline
210
0.0
220
0.0
230
1.0
 70
     8
 71
     3
 72
     9
 73
     5
 74
     0
 42
0.000000001
 43
0.0000000001
 40
0.0
 40
0.0
 40
0.0
 40
0.0
 40
0.5
 40
1.0
 40
1.0
 40
1.0
 40
1.0
 10
743.1097831161416
 20
1792.376085992134
 30
0.0
 10
742.64041357743
 20
1790.320858711985
 30
0.0
 10
741.9304814265536
 20
1786.15538855482
 30
0.0
 10
741.6781631287697
 20
1781.879887203922
 30
0.0
 10
741.6664074431511
 20
1779.714628730041
 30
0.0
1001
REVIT
1002
{
1070
     3
1000
790271
1002
}
  0
SPLINE
  5
1D7
330
18B
100
AcDbEntity
  8
M-PIPE
100
AcDbSpline
210
0.0
220
0.0
230
1.0
 70
     8
 71
     3
 72
     9
 73
     5
 74
     0
 42
0.000000001
 43
0.0000000001
 40
0.0
 40
0.0
 40
0.0
 40
0.0
 40
0.5
 40
1.0
 40
1.0
 40
1.0
 40
1.0
 10
741.6664074431511
 20
1779.714628730041
 30
0.0
 10
741.6781631287697
 20
1777.549370256156
 30
0.0
 10
741.9304814265541
 20
1773.273868905254
 30
0.0
 10
742.6404135774324
 20
1769.108398748085
 30
0.0
 10
743.1097831161451
 20
1767.053171467933
 30
0.0
1001
REVIT
1002
{
1070
     3
1000
790271
1002
}
  0
LINE
  5
1D8
330
18B
100
AcDbEntity
  8
M-PIPE
100
AcDbLine
 10
743.1097831161451
 20
1767.053171467933
 30
0.0
 11
769.2230317701492
 21
1767.053171467933
 31
0.0
1001
REVIT
1002
{
1070
     3
1000
790271
1002
}
  0
SPLINE
  5
1D9
330
18B
100
AcDbEntity
  8
M-PIPE
100
AcDbSpline
210
0.0
220
0.0
230
1.0
 70
     8
 71
     3
 72
     9
 73
     5
 74
     0
 42
0.000000001
 43
0.0000000001
 40
0.0
 40
0.0
 40
0.0
 40
0.0
 40
0.5
 40
1.0
 40
1.0
 40
1.0
 40
1.0
 10
769.2230317701492
 20
1767.053171467934
 30
0.0
 10
769.6924013088603
 20
1769.108398748085
 30
0.0
 10
770.4023334597384
 20
1773.273868905254
 30
0.0
 10
770.654651757528
 20
1777.549370256156
 30
0.0
 10
770.6664074431508
 20
1779.71462873004
 30
0.0
1001
REVIT
1002
{
1070
     3
1000
790271
1002
}
  0
SPLINE
  5
1DA
330
18B
100
AcDbEntity
  8
M-PIPE
100
AcDbSpline
210
0.0
220
0.0
230
1.0
 70
     8
 71
     3
 72
     9
 73
     5
 74
     0
 42
0.000000001
 43
0.0000000001
 40
0.0
 40
0.0
 40
0.0
 40
0.0
 40
0.5
 40
0.6871200622771818
 40
0.6871200622771818
 40
0.6871200622771818
 40
0.6871200622771818
 10
770.6664074431508
 20
1779.71462873004
 30
0.0
 10
770.6546517575282
 20
1781.879887203922
 30
0.0
 10
770.4812787930376
 20
1784.817669958417
 30
0.0
 10
770.0918507787932
 20
1787.703503247493
 30
0.0
 10
769.969776889266
 20
1788.485535558302
 30
0.0
1001
REVIT
1002
{
1070
     3
1000
790271
1002
}
  0
LINE
  5
1DB
330
18B
100
AcDbEntity
  8
M-PIPE
100
AcDbLine
 10
762.1664074431596
 20
1792.376085992134
 30
0.0
 11
743.1097831161416
 21
1792.376085992134
 31
0.0
1001
REVIT
1002
{
1070
     3
1000
790271
1002
}
  0
SPLINE
  5
1DC
330
18B
100
AcDbEntity
  8
M-PIPE
100
AcDbSpline
210
0.0
220
0.0
230
1.0
 70
     8
 71
     3
 72
     9
 73
     5
 74
     0
 42
0.000000001
 43
0.0000000001
 40
0.0
 40
0.0
 40
0.0
 40
0.0
 40
0.5
 40
1.0
 40
1.0
 40
1.0
 40
1.0
 10
743.1097831161293
 20
1833.876085992134
 30
0.0
 10
742.6404135774169
 20
1831.820858711987
 30
0.0
 10
741.9304814265412
 20
1827.655388554826
 30
0.0
 10
741.6781631287646
 20
1823.379887203932
 30
0.0
 10
741.6664074431508
 20
1821.214628730052
 30
0.0
1001
REVIT
1002
{
1070
     3
1000
790271
1002
}
  0
SPLINE
  5
1DD
330
18B
100
AcDbEntity
  8
M-PIPE
100
AcDbSpline
210
0.0
220
0.0
230
1.0
 70
     8
 71
     3
 72
     9
 73
     5
 74
     0
 42
0.000000001
 43
0.0000000001
 40
0.0
 40
0.0
 40
0.0
 40
0.0
 40
0.5
 40
1.0
 40
1.0
 40
1.0
 40
1.0
 10
741.6664074431508
 20
1821.214628730052
 30
0.0
 10
741.6781631287647
 20
1819.049370256166
 30
0.0
 10
741.930481426543
 20
1814.773868905259
 30
0.0
 10
742.6404135774227
 20
1810.608398748086
 30
0.0
 10
743.1097831161379
 20
1808.553171467933
 30
0.0
1001
REVIT
1002
{
1070
     3
1000
790271
1002
}
  0
LINE
  5
1DE
330
18B
100
AcDbEntity
  8
M-PIPE
100
AcDbLine
 10
743.1097831161379
 20
1808.553171467933
 30
0.0
 11
762.1664074431595
 21
1808.553171467934
 31
0.0
1001
REVIT
1002
{
1070
     3
1000
790271
1002
}
  0
SPLINE
  5
1DF
330
18B
100
AcDbEntity
  8
M-PIPE
100
AcDbSpline
210
0.0
220
0.0
230
1.0
 70
     8
 71
     3
 72
     9
 73
     5
 74
     0
 42
0.000000001
 43
0.0000000001
 40
-1.0
 40
-1.0
 40
-1.0
 40
-1.0
 40
-0.5
 40
-0.3130064646188187
 40
-0.3130064646188187
 40
-0.3130064646188187
 40
-0.3130064646188187
 10
770.6664074431505
 20
1821.214628730051
 30
0.0
 10
770.6546517575323
 20
1819.049370256165
 30
0.0
 10
770.4813107180962
 20
1816.112128467579
 30
0.0
 10
770.0919941907124
 20
1813.226817014134
 30
0.0
 10
769.9700244991652
 20
1812.445308291536
 30
0.0
1001
REVIT
1002
{
1070
     3
1000
790271
1002
}
  0
SPLINE
  5
1E0
330
18B
100
AcDbEntity
  8
M-PIPE
100
AcDbSpline
210
0.0
220
0.0
230
1.0
 70
     8
 71
     3
 72
     9
 73
     5
 74
     0
 42
0.000000001
 43
0.0000000001
 40
0.0
 40
0.0
 40
0.0
 40
0.0
 40
0.5
 40
1.0
 40
1.0
 40
1.0
 40
1.0
 10
770.6664074431505
 20
1821.214628730051
 30
0.0
 10
770.6546517575324
 20
1823.379887203931
 30
0.0
 10
770.4023334597495
 20
1827.655388554825
 30
0.0
 10
769.6924013088739
 20
1831.820858711986
 30
0.0
 10
769.2230317701625
 20
1833.876085992134
 30
0.0
1001
REVIT
1002
{
1070
     3
1000
790271
1002
}
  0
LINE
  5
1E1
330
18B
100
AcDbEntity
  8
M-PIPE
100
AcDbLine
 10
769.2230317701625
 20
1833.876085992134
 30
0.0
 11
743.1097831161293
 21
1833.876085992134
 31
0.0
1001
REVIT
1002
{
1070
     3
1000
790271
1002
}
  0
SPLINE
  5
1E2
330
18B
100
AcDbEntity
  8
M-PIPE
100
AcDbSpline
210
0.0
220
0.0
230
1.0
 70
    24
 71
     3
 72
     9
 73
     5
 74
     0
 42
0.000000001
 43
0.0000000001
 40
0.0
 40
0.0
 40
0.0
 40
0.0
 40
0.5
 40
1.0
 40
1.0
 40
1.0
 40
1.0
 10
741.6664074431507
 20
1841.964628730034
 30
0.0
 10
741.6781631287586
 20
1841.964628730034
 30
0.0
 10
741.9304814265291
 20
1841.964628730034
 30
0.0
 10
742.6404135774084
 20
1841.964628730034
 30
0.0
 10
743.1097831161251
 20
1841.964628730034
 30
0.0
1001
REVIT
1002
{
1070
     3
1000
790271
1002
}
  0
LINE
  5
1E3
330
18B
100
AcDbEntity
  8
M-PIPE
100
AcDbLine
 10
743.1097831161251
 20
1841.964628730034
 30
0.0
 11
769.2230317701662
 21
1841.964628730034
 31
0.0
1001
REVIT
1002
{
1070
     3
1000
790271
1002
}
  0
SPLINE
  5
1E4
330
18B
100
AcDbEntity
  8
M-PIPE
100
AcDbSpline
210
0.0
220
0.0
230
1.0
 70
    24
 71
     3
 72
     9
 73
     5
 74
     0
 42
0.000000001
 43
0.0000000001
 40
0.0
 40
0.0
 40
0.0
 40
0.0
 40
0.5
 40
1.0
 40
1.0
 40
1.0
 40
1.0
 10
769.2230317701662
 20
1841.964628730034
 30
0.0
 10
769.6924013088812
 20
1841.964628730034
 30
0.0
 10
770.4023334597602
 20
1841.964628730034
 30
0.0
 10
770.6546517575373
 20
1841.964628730034
 30
0.0
 10
770.6664074431504
 20
1841.964628730034
 30
0.0
1001
REVIT
1002
{
1070
     3
1000
790271
1002
}
  0
LINE
  5
1E5
330
18B
100
AcDbEntity
  8
M-PIPE
100
AcDbLine
 10
743.1097831161393
 20
1792.376085992135
 30
0.0
 11
743.109783116139
 21
1800.464628730044
 31
0.0
1001
REVIT
1002
{
1070
     3
1000
790271
1002
}
  0
LINE
  5
1E6
330
18B
100
AcDbEntity
  8
M-PIPE
100
AcDbLine
 10
743.10978311613
 20
1833.876085992134
 30
0.0
 11
743.1097831161296
 21
1841.964628730041
 31
0.0
1001
REVIT
1002
{
1070
     3
1000
790271
1002
}
  0
LINE
  5
1E7
330
18B
100
AcDbEntity
  8
M-PIPE
100
AcDbLine
 10
743.1097831161379
 20
1800.464628730045
 30
0.0
 11
743.1097831161378
 21
1808.553171467933
 31
0.0
1001
REVIT
1002
{
1070
     3
1000
790271
1002
}
  0
LINE
  5
1E8
330
18B
100
AcDbEntity
  8
M-PIPE
100
AcDbLine
 10
743.1097831161415
 20
1758.964628730038
 30
0.0
 11
743.1097831161416
 21
1767.053171467938
 31
0.0
1001
REVIT
1002
{
1070
     3
1000
790271
1002
}
  0
LINE
  5
1E9
330
18B
100
AcDbEntity
  8
M-PIPE
100
AcDbLine
 10
769.2230317701645
 20
1841.964628730037
 30
0.0
 11
769.2230317701647
 21
1833.876085992131
 31
0.0
1001
REVIT
1002
{
1070
     3
1000
790271
1002
}
  0
LINE
  5
1EA
330
18B
100
AcDbEntity
  8
M-PIPE
100
AcDbLine
 10
769.2230317701519
 20
1767.053171467937
 30
0.0
 11
769.2230317701517
 21
1758.964628730038
 31
0.0
1001
REVIT
1002
{
1070
     3
1000
790271
1002
}
  0
LINE
  5
1EB
330
18B
100
AcDbEntity
  8
M-PIPE
100
AcDbLine
 10
931.6664074431916
 20
1824.564628730051
 30
0.0
 11
904.6664074431919
 21
1824.564628730051
 31
0.0
1001
REVIT
1002
{
1070
     3
1000
790271
1002
}
  0
LINE
  5
1EC
330
18B
100
AcDbEntity
  8
M-PIPE
100
AcDbLine
 10
904.6664074431919
 20
1776.364628730052
 30
0.0
 11
931.6664074431916
 21
1776.364628730052
 31
0.0
1001
REVIT
1002
{
1070
     3
1000
790271
1002
}
  0
LINE
  5
1ED
330
18B
100
AcDbEntity
  8
M-PIPE
100
AcDbLine
 10
904.6664074431907
 20
1786.042964148105
 30
0.0
 11
900.1664074431591
 21
1786.042964148105
 31
0.0
1001
REVIT
1002
{
1070
     3
1000
790271
1002
}
  0
LINE
  5
1EE
330
18B
100
AcDbEntity
  8
M-PIPE
100
AcDbLine
 10
900.1664074431589
 20
1790.859942373844
 30
0.0
 11
904.6664074431907
 21
1790.859942373844
 31
0.0
1001
REVIT
1002
{
1070
     3
1000
790271
1002
}
  0
LINE
  5
1EF
330
18B
100
AcDbEntity
  8
M-PIPE
100
AcDbLine
 10
904.6664074431907
 20
1810.069315086257
 30
0.0
 11
900.1664074431589
 21
1810.069315086257
 31
0.0
1001
REVIT
1002
{
1070
     3
1000
790271
1002
}
  0
LINE
  5
1F0
330
18B
100
AcDbEntity
  8
M-PIPE
100
AcDbLine
 10
900.1664074431589
 20
1814.886293312016
 30
0.0
 11
904.6664074431905
 21
1814.886293312016
 31
0.0
1001
REVIT
1002
{
1070
     3
1000
790271
1002
}
  0
LINE
  5
1F1
330
18B
100
AcDbEntity
  8
M-PIPE
100
AcDbLine
 10
904.6664074431904
 20
1828.469371019264
 30
0.0
 11
900.1664074431587
 21
1828.469371019264
 31
0.0
1001
REVIT
1002
{
1070
     3
1000
790271
1002
}
  0
LINE
  5
1F2
330
18B
100
AcDbEntity
  8
M-PIPE
100
AcDbLine
 10
900.1664074431587
 20
1830.464628730055
 30
0.0
 11
904.6664074431904
 21
1830.464628730055
 31
0.0
1001
REVIT
1002
{
1070
     3
1000
790271
1002
}
  0
LINE
  5
1F3
330
18B
100
AcDbEntity
  8
M-PIPE
100
AcDbLine
 10
900.1664074431593
 20
1772.459886440827
 30
0.0
 11
904.6664074431905
 21
1772.459886440827
 31
0.0
1001
REVIT
1002
{
1070
     3
1000
790271
1002
}
  0
LINE
  5
1F4
330
18B
100
AcDbEntity
  8
M-PIPE
100
AcDbLine
 10
904.6664074431904
 20
1770.464628730056
 30
0.0
 11
900.1664074431593
 21
1770.464628730056
 31
0.0
1001
REVIT
1002
{
1070
     3
1000
790271
1002
}
  0
LINE
  5
1F5
330
18B
100
AcDbEntity
  8
M-PIPE
100
AcDbLine
 10
904.6664074431904
 20
1828.469371019265
 30
0.0
 11
904.6664074431904
 21
1830.464628730055
 31
0.0
1001
REVIT
1002
{
1070
     3
1000
790271
1002
}
  0
LINE
  5
1F6
330
18B
100
AcDbEntity
  8
M-PIPE
100
AcDbLine
 10
904.6664074431905
 20
1814.886293312014
 30
0.0
 11
904.6664074431904
 21
1828.469371019265
 31
0.0
1001
REVIT
1002
{
1070
     3
1000
790271
1002
}
  0
LINE
  5
1F7
330
18B
100
AcDbEntity
  8
M-PIPE
100
AcDbLine
 10
904.6664074431907
 20
1810.069315086259
 30
0.0
 11
904.6664074431905
 21
1814.886293312014
 31
0.0
1001
REVIT
1002
{
1070
     3
1000
790271
1002
}
  0
LINE
  5
1F8
330
18B
100
AcDbEntity
  8
M-PIPE
100
AcDbLine
 10
904.6664074431907
 20
1790.859942373841
 30
0.0
 11
904.6664074431907
 21
1810.069315086259
 31
0.0
1001
REVIT
1002
{
1070
     3
1000
790271
1002
}
  0
LINE
  5
1F9
330
18B
100
AcDbEntity
  8
M-PIPE
100
AcDbLine
 10
904.6664074431907
 20
1786.042964148106
 30
0.0
 11
904.6664074431907
 21
1790.859942373841
 31
0.0
1001
REVIT
1002
{
1070
     3
1000
790271
1002
}
  0
LINE
  5
1FA
330
18B
100
AcDbEntity
  8
M-PIPE
100
AcDbLine
 10
904.6664074431905
 20
1772.459886440827
 30
0.0
 11
904.6664074431907
 21
1786.042964148106
 31
0.0
1001
REVIT
1002
{
1070
     3
1000
790271
1002
}
  0
LINE
  5
1FB
330
18B
100
AcDbEntity
  8
M-PIPE
100
AcDbLine
 10
904.6664074431905
 20
1771.362423455945
 30
0.0
 11
904.6664074431905
 21
1772.459886440827
 31
0.0
1001
REVIT
1002
{
1070
     3
1000
790271
1002
}
  0
LINE
  5
1FC
330
18B
100
AcDbEntity
  8
M-PIPE
100
AcDbLine
 10
904.6664074431904
 20
1770.464628730055
 30
0.0
 11
904.6664074431905
 21
1771.362423455945
 31
0.0
1001
REVIT
1002
{
1070
     3
1000
790271
1002
}
  0
LINE
  5
1FD
330
18B
100
AcDbEntity
  8
M-PIPE
100
AcDbLine
 10
931.6664074431905
 20
1778.199131996529
 30
0.0
 11
931.6664074431901
 21
1824.56462873005
 31
0.0
1001
REVIT
1002
{
1070
     3
1000
790271
1002
}
  0
LINE
  5
1FE
330
18B
100
AcDbEntity
  8
M-PIPE
100
AcDbLine
 10
931.6664074431905
 20
1776.364628730051
 30
0.0
 11
931.6664074431905
 21
1778.199131996529
 31
0.0
1001
REVIT
1002
{
1070
     3
1000
790271
1002
}
  0
LINE
  5
1FF
330
18B
100
AcDbEntity
  8
M-PIPE
100
AcDbLine
 10
741.6664074431523
 20
1830.732577922526
 30
0.0
 11
741.38248731353
 21
1830.240813832729
 31
0.0
1001
REVIT
1002
{
1070
     3
1000
790271
1002
}
  0
LINE
  5
200
330
18B
100
AcDbEntity
  8
M-PIPE
100
AcDbLine
 10
741.3824873135308
 20
1770.688443627373
 30
0.0
 11
741.6664074431536
 21
1770.196679537575
 31
0.0
1001
REVIT
1002
{
1070
     3
1000
790271
1002
}
  0
LINE
  5
201
330
18B
100
AcDbEntity
  8
M-PIPE
100
AcDbLine
 10
736.9616524381282
 20
1830.240813832729
 30
0.0
 11
736.8323731546066
 21
1830.464732120154
 31
0.0
1001
REVIT
1002
{
1070
     3
1000
790271
1002
}
  0
LINE
  5
202
330
18B
100
AcDbEntity
  8
M-PIPE
100
AcDbLine
 10
736.8323731545847
 20
1770.464525339908
 30
0.0
 11
736.9616524381294
 21
1770.688443627373
 31
0.0
1001
REVIT
1002
{
1070
     3
1000
790271
1002
}
  0
LWPOLYLINE
  5
203
330
18B
100
AcDbEntity
  8
M-PIPE
100
AcDbPolyline
 90
       54
 70
   128
 43
0.0
 10
736.9616524381282
 20
1830.240813832729
 10
737.0144543288683
 20
1830.153441523084
 10
737.0707079442164
 20
1830.068250614421
 10
737.1303232903885
 20
1829.985377394023
 10
737.1932049955481
 20
1829.904954441362
 10
737.2592524623806
 20
1829.827110416007
 10
737.328360029029
 20
1829.751969851794
 10
737.4004171381283
 20
1829.679652957594
 10
737.4753085136754
 20
1829.610275425012
 10
737.5529143454456
 20
1829.543948243301
 10
737.633110480663
 20
1829.480777521803
 10
737.7157686226188
 20
1829.420864320196
 10
737.8007565359186
 20
1829.364304486821
 10
737.8879382580312
 20
1829.311188505347
 10
737.9771743167988
 20
1829.261601350014
 10
738.0683219535633
 20
1829.215622349691
 10
738.1612353515497
 20
1829.173325060971
 10
738.2557658691419
 20
1829.134777150493
 10
738.3517622776769
 20
1829.100040286691
 10
738.4490710033794
 20
1829.069170041137
 10
738.5475363730464
 20
1829.042215799637
 10
738.6470008630911
 20
1829.01922068323
 10
738.7473053515472
 20
1829.000221479194
 10
738.8482893726307
 20
1828.985248582205
 10
738.94979137345
 20
1828.974325945703
 10
739.0516489724559
 20
1828.967471043577
 10
739.1536992192189
 20
1828.964694842207
 10
739.2557788551138
 20
1828.966001782924
 10
739.3577245744985
 20
1828.971389774901
 10
739.4593732859696
 20
1828.980850198501
 10
739.5605623732727
 20
1828.994367919063
 10
739.661129955454
 20
1829.01192131112
 10
739.7609151458349
 20
1829.033482292986
 10
739.8597583093978
 20
1829.059016371693
 10
739.9575013181655
 20
1829.088482698159
 10
740.0539878041755
 20
1829.121834132549
 10
740.1490634096327
 20
1829.159017319683
 10
740.24257603385
 20
1829.199972774392
 10
740.3343760765767
 20
1829.244634976686
 10
740.4243166773278
 20
1829.29293247657
 10
740.5122539503282
 20
1829.344788008345
 10
740.5980472147001
 20
1829.400118614223
 10
740.6815592195222
 20
1829.458835777038
 10
740.7626563634013
 20
1829.520845561855
 10
740.8412089082076
 20
1829.586048766247
 10
740.9170911866258
 20
1829.654341078995
 10
740.9901818031983
 20
1829.725613246967
 10
741.0603638285301
 20
1829.799751249899
 10
741.1275249863523
 20
1829.876636482802
 10
741.1915578331389
 20
1829.956145945703
 10
741.2523599299953
 20
1830.038152440423
 10
741.3098340065364
 20
1830.122524774065
 10
741.3638881165003
 20
1830.209127968893
 10
741.38248731353
 20
1830.240813832729
1001
REVIT
1002
{
1070
     3
1000
790271
1002
}
  0
LWPOLYLINE
  5
204
330
18B
100
AcDbEntity
  8
M-PIPE
100
AcDbPolyline
 90
       54
 70
   128
 43
0.0
 10
741.3824873135308
 20
1770.688443627373
 10
741.329685422791
 20
1770.775815937018
 10
741.2734318074428
 20
1770.86100684568
 10
741.2138164612706
 20
1770.943880066079
 10
741.1509347561112
 20
1771.02430301874
 10
741.0848872892785
 20
1771.102147044094
 10
741.0157797226304
 20
1771.177287608309
 10
740.943722613531
 20
1771.249604502508
 10
740.8688312379838
 20
1771.31898203509
 10
740.7912254062137
 20
1771.3853092168
 10
740.7110292709963
 20
1771.448479938299
 10
740.6283711290406
 20
1771.508393139906
 10
740.5433832157406
 20
1771.564952973281
 10
740.456201493628
 20
1771.618068954755
 10
740.3669654348605
 20
1771.667656110088
 10
740.2758177980961
 20
1771.713635110411
 10
740.1829044001096
 20
1771.755932399131
 10
740.0883738825175
 20
1771.794480309609
 10
739.9923774739824
 20
1771.829217173411
 10
739.8950687482799
 20
1771.860087418966
 10
739.7966033786129
 20
1771.887041660465
 10
739.6971388885683
 20
1771.910036776873
 10
739.5968344001121
 20
1771.929035980908
 10
739.4958503790286
 20
1771.944008877897
 10
739.3943483782094
 20
1771.954931514399
 10
739.2924907792035
 20
1771.961786416525
 10
739.1904405324405
 20
1771.964562617895
 10
739.0883608965456
 20
1771.963255677178
 10
738.9864151771607
 20
1771.957867685201
 10
738.8847664656897
 20
1771.948407261601
 10
738.7835773783864
 20
1771.934889541039
 10
738.6830097962054
 20
1771.917336148982
 10
738.5832246058242
 20
1771.895775167116
 10
738.4843814422616
 20
1771.87024108841
 10
738.3866384334936
 20
1771.840774761943
 10
738.2901519474836
 20
1771.807423327553
 10
738.1950763420266
 20
1771.770240140419
 10
738.1015637178094
 20
1771.72928468571
 10
738.0097636750825
 20
1771.684622483415
 10
737.9198230743314
 20
1771.636324983532
 10
737.8318858013312
 20
1771.584469451757
 10
737.7460925369592
 20
1771.529138845879
 10
737.6625805321373
 20
1771.470421683064
 10
737.5814833882579
 20
1771.408411898247
 10
737.5029308434518
 20
1771.343208693855
 10
737.4270485650334
 20
1771.274916381107
 10
737.353957948461
 20
1771.203644213135
 10
737.2837759231289
 20
1771.129506210202
 10
737.216614765307
 20
1771.0526209773
 10
737.1525819185201
 20
1770.973111514399
 10
737.0917798216639
 20
1770.891105019679
 10
737.0343057451229
 20
1770.806732686037
 10
736.9802516351588
 20
1770.720129491209
 10
736.9616524381294
 20
1770.688443627373
1001
REVIT
1002
{
1070
     3
1000
790271
1002
}
  0
LINE
  5
205
330
18B
100
AcDbEntity
  8
M-PIPE
100
AcDbLine
 10
726.6664074431266
 20
1824.56462873005
 30
0.0
 11
699.6664074431265
 21
1824.56462873005
 31
0.0
1001
REVIT
1002
{
1070
     3
1000
790271
1002
}
  0
LINE
  5
206
330
18B
100
AcDbEntity
  8
M-PIPE
100
AcDbLine
 10
699.6664074431274
 20
1776.364628730051
 30
0.0
 11
726.6664074431274
 21
1776.364628730051
 31
0.0
1001
REVIT
1002
{
1070
     3
1000
790271
1002
}
  0
SPLINE
  5
207
330
18B
100
AcDbEntity
  8
M-PIPE
100
AcDbSpline
210
0.0
220
0.0
230
1.0
 70
    24
 71
     3
 72
     9
 73
     5
 74
     0
 42
0.000000001
 43
0.0000000001
 40
-0.5029650216969613
 40
-0.5029650216969613
 40
-0.5029650216969613
 40
-0.5029650216969613
 40
-0.5
 40
0.0
 40
0.0
 40
0.0
 40
0.0
 10
736.8323731546054
 20
1830.46462873003
 30
0.0
 10
736.8323934566817
 20
1830.46462873003
 30
0.0
 10
736.8341154059995
 20
1830.46462873003
 30
0.0
 10
736.543738219782
 20
1830.46462873003
 30
0.0
 10
735.9664074431253
 20
1830.46462873003
 30
0.0
1001
REVIT
1002
{
1070
     3
1000
790271
1002
}
  0
SPLINE
  5
208
330
18B
100
AcDbEntity
  8
M-PIPE
100
AcDbSpline
210
0.0
220
0.0
230
1.0
 70
     8
 71
     3
 72
     9
 73
     5
 74
     0
 42
0.000000001
 43
0.0000000001
 40
-1.0
 40
-1.0
 40
-1.0
 40
-1.0
 40
-0.5
 40
0.0
 40
0.0
 40
0.0
 40
0.0
 10
735.9664074431253
 20
1828.469371019265
 30
0.0
 10
736.5437382195181
 20
1826.179539142578
 30
0.0
 10
737.121068995911
 20
1821.625860981349
 30
0.0
 10
736.5437382195182
 20
1817.124154004411
 30
0.0
 10
735.9664074431255
 20
1814.886293312014
 30
0.0
1001
REVIT
1002
{
1070
     3
1000
790271
1002
}
  0
SPLINE
  5
209
330
18B
100
AcDbEntity
  8
M-PIPE
100
AcDbSpline
210
0.0
220
0.0
230
1.0
 70
     8
 71
     3
 72
     9
 73
     5
 74
     0
 42
0.000000001
 43
0.0000000001
 40
-1.0
 40
-1.0
 40
-1.0
 40
-1.0
 40
-0.5
 40
0.0
 40
0.0
 40
0.0
 40
0.0
 10
735.9664074431258
 20
1810.069315086185
 30
0.0
 10
736.5437382195125
 20
1806.831003790636
 30
0.0
 10
737.1210689958994
 20
1800.391130376375
 30
0.0
 10
736.5437382195128
 20
1794.024755315791
 30
0.0
 10
735.966407443126
 20
1790.859942373918
 30
0.0
1001
REVIT
1002
{
1070
     3
1000
790271
1002
}
  0
SPLINE
  5
20A
330
18B
100
AcDbEntity
  8
M-PIPE
100
AcDbSpline
210
0.0
220
0.0
230
1.0
 70
     8
 71
     3
 72
     9
 73
     5
 74
     0
 42
0.000000001
 43
0.0000000001
 40
-1.0
 40
-1.0
 40
-1.0
 40
-1.0
 40
-0.5
 40
0.0
 40
0.0
 40
0.0
 40
0.0
 10
735.9664074431261
 20
1786.042964148006
 30
0.0
 10
736.5437382195082
 20
1783.75313227134
 30
0.0
 10
737.1210689958901
 20
1779.199454110153
 30
0.0
 10
736.5437382195084
 20
1774.697747133255
 30
0.0
 10
735.9664074431265
 20
1772.459886440878
 30
0.0
1001
REVIT
1002
{
1070
     3
1000
790271
1002
}
  0
SPLINE
  5
20B
330
18B
100
AcDbEntity
  8
M-PIPE
100
AcDbSpline
210
0.0
220
0.0
230
1.0
 70
    24
 71
     3
 72
     8
 73
     4
 74
     0
 42
0.000000001
 43
0.0000000001
 40
-1.0
 40
-1.0
 40
-1.0
 40
-1.0
 40
-0.5
 40
-0.5
 40
-0.5
 40
-0.5
 10
735.9664074431265
 20
1770.464628730031
 30
0.0
 10
736.5437382195074
 20
1770.464628730031
 30
0.0
 10
736.8324036076979
 20
1770.464628730031
 30
0.0
 10
736.8324036076979
 20
1770.46462873003
 30
0.0
1001
REVIT
1002
{
1070
     3
1000
790271
1002
}
  0
LINE
  5
20C
330
18B
100
AcDbEntity
  8
M-PIPE
100
AcDbLine
 10
735.9664074431253
 20
1830.46462873003
 30
0.0
 11
735.9664074431253
 21
1828.469371019265
 31
0.0
1001
REVIT
1002
{
1070
     3
1000
790271
1002
}
  0
LINE
  5
20D
330
18B
100
AcDbEntity
  8
M-PIPE
100
AcDbLine
 10
726.6664074431253
 20
1830.464628730031
 30
0.0
 11
735.9664074431253
 21
1830.464628730031
 31
0.0
1001
REVIT
1002
{
1070
     3
1000
790271
1002
}
  0
LINE
  5
20E
330
18B
100
AcDbEntity
  8
M-PIPE
100
AcDbLine
 10
735.9664074431253
 20
1828.469371019264
 30
0.0
 11
726.6664074431253
 21
1828.469371019264
 31
0.0
1001
REVIT
1002
{
1070
     3
1000
790271
1002
}
  0
LINE
  5
20F
330
18B
100
AcDbEntity
  8
M-PIPE
100
AcDbLine
 10
735.9664074431255
 20
1814.886293312014
 30
0.0
 11
735.9664074431258
 21
1810.069315086185
 31
0.0
1001
REVIT
1002
{
1070
     3
1000
790271
1002
}
  0
LINE
  5
210
330
18B
100
AcDbEntity
  8
M-PIPE
100
AcDbLine
 10
726.6664074431255
 20
1814.886293312017
 30
0.0
 11
735.9664074431255
 21
1814.886293312017
 31
0.0
1001
REVIT
1002
{
1070
     3
1000
790271
1002
}
  0
LINE
  5
211
330
18B
100
AcDbEntity
  8
M-PIPE
100
AcDbLine
 10
735.9664074431258
 20
1810.069315086184
 30
0.0
 11
726.6664074431258
 21
1810.069315086184
 31
0.0
1001
REVIT
1002
{
1070
     3
1000
790271
1002
}
  0
LINE
  5
212
330
18B
100
AcDbEntity
  8
M-PIPE
100
AcDbLine
 10
735.9664074431259
 20
1790.859942373918
 30
0.0
 11
735.9664074431261
 21
1788.410100610551
 31
0.0
1001
REVIT
1002
{
1070
     3
1000
790271
1002
}
  0
LINE
  5
213
330
18B
100
AcDbEntity
  8
M-PIPE
100
AcDbLine
 10
726.6664074431259
 20
1790.859942373918
 30
0.0
 11
735.966407443126
 21
1790.859942373918
 31
0.0
1001
REVIT
1002
{
1070
     3
1000
790271
1002
}
  0
LINE
  5
214
330
18B
100
AcDbEntity
  8
M-PIPE
100
AcDbLine
 10
735.9664074431261
 20
1786.042964148007
 30
0.0
 11
726.6664074431261
 21
1786.042964148007
 31
0.0
1001
REVIT
1002
{
1070
     3
1000
790271
1002
}
  0
LINE
  5
215
330
18B
100
AcDbEntity
  8
M-PIPE
100
AcDbLine
 10
735.9664074431261
 20
1788.410100610551
 30
0.0
 11
735.9664074431261
 21
1786.042964148006
 31
0.0
1001
REVIT
1002
{
1070
     3
1000
790271
1002
}
  0
LINE
  5
216
330
18B
100
AcDbEntity
  8
M-PIPE
100
AcDbLine
 10
735.9664074431265
 20
1772.459886440878
 30
0.0
 11
735.9664074431265
 21
1770.464628730031
 31
0.0
1001
REVIT
1002
{
1070
     3
1000
790271
1002
}
  0
LINE
  5
217
330
18B
100
AcDbEntity
  8
M-PIPE
100
AcDbLine
 10
726.6664074431264
 20
1772.459886440877
 30
0.0
 11
735.9664074431265
 21
1772.459886440877
 31
0.0
1001
REVIT
1002
{
1070
     3
1000
790271
1002
}
  0
LINE
  5
218
330
18B
100
AcDbEntity
  8
M-PIPE
100
AcDbLine
 10
735.9664074431265
 20
1770.464628730032
 30
0.0
 11
726.6664074431264
 21
1770.464628730032
 31
0.0
1001
REVIT
1002
{
1070
     3
1000
790271
1002
}
  0
LINE
  5
219
330
18B
100
AcDbEntity
  8
M-PIPE
100
AcDbLine
 10
726.6664074431259
 20
1790.859942373918
 30
0.0
 11
726.6664074431261
 21
1788.410100610551
 31
0.0
1001
REVIT
1002
{
1070
     3
1000
790271
1002
}
  0
LINE
  5
21A
330
18B
100
AcDbEntity
  8
M-PIPE
100
AcDbLine
 10
726.6664074431258
 20
1810.069315086184
 30
0.0
 11
726.6664074431259
 21
1790.859942373918
 31
0.0
1001
REVIT
1002
{
1070
     3
1000
790271
1002
}
  0
LINE
  5
21B
330
18B
100
AcDbEntity
  8
M-PIPE
100
AcDbLine
 10
726.6664074431255
 20
1814.886293312015
 30
0.0
 11
726.6664074431258
 21
1810.069315086185
 31
0.0
1001
REVIT
1002
{
1070
     3
1000
790271
1002
}
  0
LINE
  5
21C
330
18B
100
AcDbEntity
  8
M-PIPE
100
AcDbLine
 10
726.6664074431253
 20
1828.469371019265
 30
0.0
 11
726.6664074431255
 21
1814.886293312014
 31
0.0
1001
REVIT
1002
{
1070
     3
1000
790271
1002
}
  0
LINE
  5
21D
330
18B
100
AcDbEntity
  8
M-PIPE
100
AcDbLine
 10
726.6664074431253
 20
1830.46462873003
 30
0.0
 11
726.6664074431253
 21
1828.469371019265
 31
0.0
1001
REVIT
1002
{
1070
     3
1000
790271
1002
}
  0
LINE
  5
21E
330
18B
100
AcDbEntity
  8
M-PIPE
100
AcDbLine
 10
726.6664074431264
 20
1772.459886440878
 30
0.0
 11
726.6664074431264
 21
1770.464628730031
 31
0.0
1001
REVIT
1002
{
1070
     3
1000
790271
1002
}
  0
LINE
  5
21F
330
18B
100
AcDbEntity
  8
M-PIPE
100
AcDbLine
 10
726.6664074431261
 20
1786.042964148006
 30
0.0
 11
726.6664074431264
 21
1772.459886440878
 31
0.0
1001
REVIT
1002
{
1070
     3
1000
790271
1002
}
  0
LINE
  5
220
330
18B
100
AcDbEntity
  8
M-PIPE
100
AcDbLine
 10
726.6664074431261
 20
1788.410100610551
 30
0.0
 11
726.6664074431261
 21
1786.042964148007
 31
0.0
1001
REVIT
1002
{
1070
     3
1000
790271
1002
}
  0
LINE
  5
221
330
18B
100
AcDbEntity
  8
M-PIPE
100
AcDbLine
 10
699.6664074431254
 20
1824.564628730049
 30
0.0
 11
699.6664074431258
 21
1791.241958010052
 31
0.0
1001
REVIT
1002
{
1070
     3
1000
790271
1002
}
  0
LINE
  5
222
330
18B
100
AcDbEntity
  8
M-PIPE
100
AcDbLine
 10
699.6664074431258
 20
1791.241958010052
 30
0.0
 11
699.6664074431263
 21
1776.36462873005
 31
0.0
1001
REVIT
1002
{
1070
     3
1000
790271
1002
}
  0
LINE
  5
223
330
18B
100
AcDbEntity
  8
P-SANR-FIXT
100
AcDbLine
 10
860.6664074431931
 20
1835.964628730051
 30
0.0
 11
856.6664074431589
 21
1835.964628730051
 31
0.0
  0
LINE
  5
224
330
18B
100
AcDbEntity
  8
P-SANR-FIXT
100
AcDbLine
 10
856.6664074431594
 20
1764.964628730052
 30
0.0
 11
860.6664074432071
 21
1764.964628730052
 31
0.0
  0
LINE
  5
225
330
18B
100
AcDbEntity
  8
P-SANR-FIXT
100
AcDbLine
 10
815.6664074431589
 20
1844.464628730052
 30
0.0
 11
774.6664074431589
 21
1844.464628730051
 31
0.0
  0
LINE
  5
226
330
18B
100
AcDbEntity
  8
P-SANR-FIXT
100
AcDbLine
 10
774.666407443159
 20
1835.964628730051
 30
0.0
 11
770.6664074431519
 21
1835.964628730051
 31
0.0
  0
LINE
  5
227
330
18B
100
AcDbEntity
  8
P-SANR-FIXT
100
AcDbLine
 10
770.6664074431533
 20
1764.96462873005
 30
0.0
 11
774.6664074431596
 21
1764.96462873005
 31
0.0
  0
LINE
  5
228
330
18B
100
AcDbEntity
  8
P-SANR-FIXT
100
AcDbLine
 10
856.6664074431589
 20
1844.464628730051
 30
0.0
 11
815.6664074431589
 21
1844.464628730051
 31
0.0
  0
LINE
  5
229
330
18B
100
AcDbEntity
  8
P-SANR-FIXT
100
AcDbLine
 10
815.6664074431596
 20
1756.464628730051
 30
0.0
 11
856.6664074431596
 21
1756.464628730052
 31
0.0
  0
LINE
  5
22A
330
18B
100
AcDbEntity
  8
P-SANR-FIXT
100
AcDbLine
 10
774.6664074431596
 20
1756.46462873005
 30
0.0
 11
815.6664074431596
 21
1756.464628730051
 31
0.0
  0
LINE
  5
22B
330
18B
100
AcDbEntity
  8
P-SANR-FIXT
100
AcDbLine
 10
774.6664074431579
 20
1844.464628730051
 30
0.0
 11
774.6664074431581
 21
1808.467605975415
 31
0.0
  0
LINE
  5
22C
330
18B
100
AcDbEntity
  8
P-SANR-FIXT
100
AcDbLine
 10
774.6664074431584
 20
1756.464628730049
 30
0.0
 11
774.6664074431581
 21
1792.461651484683
 31
0.0
  0
LINE
  5
22D
330
18B
100
AcDbEntity
  8
P-SANR-FIXT
100
AcDbLine
 10
856.6664074431576
 20
1844.46462873005
 30
0.0
 11
856.6664074431576
 21
1834.479124147876
 31
0.0
  0
LINE
  5
22E
330
18B
100
AcDbEntity
  8
P-SANR-FIXT
100
AcDbLine
 10
856.6664074431582
 20
1766.450133312222
 30
0.0
 11
856.6664074431582
 21
1756.464628730051
 31
0.0
  0
ENDBLK
  5
230
330
18B
100
AcDbEntity
  8
0
100
AcDbBlockEnd
  0
BLOCK
  5
2F1
330
232
100
AcDbEntity
  8
0
100
AcDbBlockBegin
  2
Automatic flow rate regulator valve_Caleffi_121 DN15 - 1_2__-V2-Est - Idraulica
 70
     0
 10
0.0
 20
0.0
 30
0.0
  3
Automatic flow rate regulator valve_Caleffi_121 DN15 - 1_2__-V2-Est - Idraulica
  1

  0
LINE
  5
233
330
232
100
AcDbEntity
  8
M-PIPE
100
AcDbLine
 10
1085.31435394312
 20
2123.508503219287
 30
0.0
 11
1085.31435394312
 21
2122.592558850103
 31
0.0
1001
REVIT
1002
{
1070
     3
1000
923261
1002
}
  0
LINE
  5
234
330
232
100
AcDbEntity
  8
M-PIPE
100
AcDbLine
 10
1108.91435394312
 20
2122.59255885012
 30
0.0
 11
1108.91435394312
 21
2123.508503219287
 31
0.0
1001
REVIT
1002
{
1070
     3
1000
923261
1002
}
  0
LINE
  5
235
330
232
100
AcDbEntity
  8
M-PIPE
100
AcDbLine
 10
1137.772993861341
 20
2139.592558850087
 30
0.0
 11
1137.772993861341
 21
2135.592558850087
 31
0.0
1001
REVIT
1002
{
1070
     3
1000
923261
1002
}
  0
ELLIPSE
  5
236
330
232
100
AcDbEntity
  8
M-PIPE
100
AcDbEllipse
 10
1116.782382596465
 20
2131.777765983343
 30
0.0
 11
0.0
 21
3.814792866744028
 31
0.0
210
0.0
220
0.0
230
1.0
 40
0.7071067811865332
 41
0.0000000000000016
 42
1.570796326797633
1001
REVIT
1002
{
1070
     3
1000
923261
1002
}
  0
LINE
  5
237
330
232
100
AcDbEntity
  8
M-PIPE
100
AcDbLine
 10
1114.084916691568
 20
2131.777765983332
 30
0.0
 11
1114.084916691584
 21
2123.508503219287
 31
0.0
1001
REVIT
1002
{
1070
     3
1000
923261
1002
}
  0
ELLIPSE
  5
238
330
232
100
AcDbEntity
  8
M-PIPE
100
AcDbEllipse
 10
1099.811819847988
 20
2131.777765983343
 30
0.0
 11
0.0000000000002399
 21
3.814792866744028
 31
0.0
210
0.0
220
0.0
230
1.0
 40
0.7071067811865332
 41
0.000000000000089
 42
1.570796326797682
1001
REVIT
1002
{
1070
     3
1000
923261
1002
}
  0
LINE
  5
239
330
232
100
AcDbEntity
  8
M-PIPE
100
AcDbLine
 10
1099.811819847988
 20
2135.592558850087
 30
0.0
 11
1120.802431112864
 21
2135.592558850087
 31
0.0
1001
REVIT
1002
{
1070
     3
1000
923261
1002
}
  0
LINE
  5
23A
330
232
100
AcDbEntity
  8
M-PIPE
100
AcDbLine
 10
1120.802431112864
 20
2135.592558850087
 30
0.0
 11
1120.802431112864
 21
2139.592558850087
 31
0.0
1001
REVIT
1002
{
1070
     3
1000
923261
1002
}
  0
LINE
  5
23B
330
232
100
AcDbEntity
  8
M-PIPE
100
AcDbLine
 10
1120.802431112864
 20
2139.592558850087
 30
0.0
 11
1094.285926818369
 21
2139.592558850087
 31
0.0
1001
REVIT
1002
{
1070
     3
1000
923261
1002
}
  0
ELLIPSE
  5
23C
330
232
100
AcDbEntity
  8
M-PIPE
100
AcDbEllipse
 10
1094.285926818369
 20
2119.592558850087
 30
0.0
 11
0.0000000000004542
 21
20.0
 31
0.0
210
0.0
220
0.0
230
1.0
 40
0.7071067811865419
 41
0.000000000000016
 42
1.373725988846908
1001
REVIT
1002
{
1070
     3
1000
923261
1002
}
  0
LINE
  5
23D
330
232
100
AcDbEntity
  8
M-PIPE
100
AcDbLine
 10
1080.417520642869
 20
2123.508503219287
 30
0.0
 11
1097.114353943107
 21
2123.508503219287
 31
0.0
1001
REVIT
1002
{
1070
     3
1000
923261
1002
}
  0
LINE
  5
23E
330
232
100
AcDbEntity
  8
M-PIPE
100
AcDbLine
 10
1097.114353943107
 20
2123.508503219287
 30
0.0
 11
1097.114353943091
 21
2131.777765983333
 31
0.0
1001
REVIT
1002
{
1070
     3
1000
923261
1002
}
  0
LINE
  5
23F
330
232
100
AcDbEntity
  8
M-PIPE
100
AcDbLine
 10
1120.802431112865
 20
2139.592558850087
 30
0.0
 11
1137.772993861341
 21
2139.592558850087
 31
0.0
1001
REVIT
1002
{
1070
     3
1000
923261
1002
}
  0
LINE
  5
240
330
232
100
AcDbEntity
  8
M-PIPE
100
AcDbLine
 10
1120.802431112864
 20
2135.592558850087
 30
0.0
 11
1137.772993861341
 21
2135.592558850087
 31
0.0
1001
REVIT
1002
{
1070
     3
1000
923261
1002
}
  0
LINE
  5
241
330
232
100
AcDbEntity
  8
M-PIPE
100
AcDbLine
 10
1097.114353943107
 20
2123.508503219287
 30
0.0
 11
1114.084916691584
 21
2123.508503219287
 31
0.0
1001
REVIT
1002
{
1070
     3
1000
923261
1002
}
  0
LINE
  5
242
330
232
100
AcDbEntity
  8
M-PIPE
100
AcDbLine
 10
1114.114353943102
 20
2120.592558850073
 30
0.0
 11
1114.114353943102
 21
2123.508503219287
 31
0.0
1001
REVIT
1002
{
1070
     3
1000
923261
1002
}
  0
LINE
  5
243
330
232
100
AcDbEntity
  8
M-PIPE
100
AcDbLine
 10
1118.114353943102
 20
2130.592558850009
 30
0.0
 11
1118.114353943102
 21
2135.592558850073
 31
0.0
1001
REVIT
1002
{
1070
     3
1000
923261
1002
}
  0
LINE
  5
244
330
232
100
AcDbEntity
  8
M-PIPE
100
AcDbLine
 10
1118.1143539431
 20
2130.592558850008
 30
0.0
 11
1114.085875228723
 21
2130.592558850008
 31
0.0
1001
REVIT
1002
{
1070
     3
1000
923261
1002
}
  0
ARC
  5
245
330
232
100
AcDbEntity
  8
M-PIPE
100
AcDbCircle
 10
1097.114353943098
 20
2101.592558850072
 30
0.0
 40
12.0
100
AcDbArc
 50
180.0
 51
0.0
1001
REVIT
1002
{
1070
     3
1000
923261
1002
}
  0
ARC
  5
246
330
232
100
AcDbEntity
  8
M-PIPE
100
AcDbCircle
 10
1097.114353943098
 20
2101.592558850072
 30
0.0
 40
12.0
100
AcDbArc
 50
0.0
 51
180.0
1001
REVIT
1002
{
1070
     3
1000
923261
1002
}
  0
ARC
  5
247
330
232
100
AcDbEntity
  8
M-PIPE
100
AcDbCircle
 10
1097.114353943098
 20
2101.592558850072
 30
0.0
 40
8.0
100
AcDbArc
 50
0.0
 51
180.0
1001
REVIT
1002
{
1070
     3
1000
923261
1002
}
  0
ARC
  5
248
330
232
100
AcDbEntity
  8
M-PIPE
100
AcDbCircle
 10
1097.114353943098
 20
2101.592558850072
 30
0.0
 40
8.0
100
AcDbArc
 50
180.0
 51
0.0
1001
REVIT
1002
{
1070
     3
1000
923261
1002
}
  0
LINE
  5
249
330
232
100
AcDbEntity
  8
M-PIPE
100
AcDbLine
 10
1064.1143539431
 20
2060.382558850073
 30
0.0
 11
1130.1143539431
 21
2060.382558850073
 31
0.0
1001
REVIT
1002
{
1070
     3
1000
923261
1002
}
  0
LINE
  5
24A
330
232
100
AcDbEntity
  8
M-PIPE
100
AcDbLine
 10
1118.114353943102
 20
2052.382558850073
 30
0.0
 11
1118.114353943102
 21
2060.382558850072
 31
0.0
1001
REVIT
1002
{
1070
     3
1000
923261
1002
}
  0
LINE
  5
24B
330
232
100
AcDbEntity
  8
M-PIPE
100
AcDbLine
 10
1063.1143539431
 20
2080.480230221086
 30
0.0
 11
1064.1143539431
 21
2080.480230221086
 31
0.0
1001
REVIT
1002
{
1070
     3
1000
923261
1002
}
  0
LINE
  5
24C
330
232
100
AcDbEntity
  8
M-PIPE
100
AcDbLine
 10
1130.114353943101
 20
2080.480230221086
 30
0.0
 11
1131.114353943101
 21
2080.480230221086
 31
0.0
1001
REVIT
1002
{
1070
     3
1000
923261
1002
}
  0
LINE
  5
24D
330
232
100
AcDbEntity
  8
M-PIPE
100
AcDbLine
 10
1109.114353943117
 20
2120.592558850074
 30
0.0
 11
1109.114353943117
 21
2122.592558850072
 31
0.0
1001
REVIT
1002
{
1070
     3
1000
923261
1002
}
  0
LINE
  5
24E
330
232
100
AcDbEntity
  8
M-PIPE
100
AcDbLine
 10
1085.114353943117
 20
2122.592558850072
 30
0.0
 11
1085.114353943117
 21
2120.592558850074
 31
0.0
1001
REVIT
1002
{
1070
     3
1000
923261
1002
}
  0
LINE
  5
24F
330
232
100
AcDbEntity
  8
M-PIPE
100
AcDbLine
 10
1130.114353943098
 20
2080.382558850072
 30
0.0
 11
1130.114353943098
 21
2060.382558850071
 31
0.0
1001
REVIT
1002
{
1070
     3
1000
923261
1002
}
  0
LINE
  5
250
330
232
100
AcDbEntity
  8
M-PIPE
100
AcDbLine
 10
1130.114353943098
 20
2080.592558850071
 30
0.0
 11
1130.114353943098
 21
2080.382558850072
 31
0.0
1001
REVIT
1002
{
1070
     3
1000
923261
1002
}
  0
LINE
  5
251
330
232
100
AcDbEntity
  8
M-PIPE
100
AcDbLine
 10
1130.114353943099
 20
2120.592558850072
 30
0.0
 11
1130.114353943098
 21
2090.704887479057
 31
0.0
1001
REVIT
1002
{
1070
     3
1000
923261
1002
}
  0
LINE
  5
252
330
232
100
AcDbEntity
  8
M-PIPE
100
AcDbLine
 10
1064.114353943098
 20
2090.704887479058
 30
0.0
 11
1064.114353943099
 21
2120.592558850073
 31
0.0
1001
REVIT
1002
{
1070
     3
1000
923261
1002
}
  0
LINE
  5
253
330
232
100
AcDbEntity
  8
M-PIPE
100
AcDbLine
 10
1064.114353943098
 20
2060.382558850073
 30
0.0
 11
1064.114353943098
 21
2080.382558850073
 31
0.0
1001
REVIT
1002
{
1070
     3
1000
923261
1002
}
  0
LINE
  5
254
330
232
100
AcDbEntity
  8
M-PIPE
100
AcDbLine
 10
1064.114353943098
 20
2080.382558850073
 30
0.0
 11
1064.114353943098
 21
2080.592558850071
 31
0.0
1001
REVIT
1002
{
1070
     3
1000
923261
1002
}
  0
LINE
  5
255
330
232
100
AcDbEntity
  8
M-PIPE
100
AcDbLine
 10
1131.114353943099
 20
2090.704887479057
 30
0.0
 11
1130.114353943098
 21
2090.704887479057
 31
0.0
1001
REVIT
1002
{
1070
     3
1000
923261
1002
}
  0
LINE
  5
256
330
232
100
AcDbEntity
  8
M-PIPE
100
AcDbLine
 10
1064.114353943099
 20
2120.592558850073
 30
0.0
 11
1130.114353943099
 21
2120.592558850072
 31
0.0
1001
REVIT
1002
{
1070
     3
1000
923261
1002
}
  0
LINE
  5
257
330
232
100
AcDbEntity
  8
M-PIPE
100
AcDbLine
 10
1064.114353943098
 20
2090.704887479058
 30
0.0
 11
1063.114353943099
 21
2090.704887479058
 31
0.0
1001
REVIT
1002
{
1070
     3
1000
923261
1002
}
  0
LINE
  5
258
330
232
100
AcDbEntity
  8
M-PIPE
100
AcDbLine
 10
1110.1143539431
 20
2052.382558850072
 30
0.0
 11
1109.61325144815
 21
2052.382558850072
 31
0.0
1001
REVIT
1002
{
1070
     3
1000
923261
1002
}
  0
LINE
  5
259
330
232
100
AcDbEntity
  8
M-PIPE
100
AcDbLine
 10
1118.1143539431
 20
2052.382558850072
 30
0.0
 11
1110.1143539431
 21
2052.382558850072
 31
0.0
1001
REVIT
1002
{
1070
     3
1000
923261
1002
}
  0
LINE
  5
25A
330
232
100
AcDbEntity
  8
M-PIPE
100
AcDbLine
 10
1131.114353943099
 20
2080.592558850071
 30
0.0
 11
1131.114353943099
 21
2090.704887479057
 31
0.0
1001
REVIT
1002
{
1070
     3
1000
923261
1002
}
  0
LINE
  5
25B
330
232
100
AcDbEntity
  8
M-PIPE
100
AcDbLine
 10
1131.114353943099
 20
2080.592558850071
 30
0.0
 11
1131.114353943099
 21
2080.5684775859
 31
0.0
1001
REVIT
1002
{
1070
     3
1000
923261
1002
}
  0
LINE
  5
25C
330
232
100
AcDbEntity
  8
M-PIPE
100
AcDbLine
 10
1131.1143539431
 20
2108.59255885007
 30
0.0
 11
1131.114353943099
 21
2102.404510909428
 31
0.0
1001
REVIT
1002
{
1070
     3
1000
923261
1002
}
  0
LINE
  5
25D
330
232
100
AcDbEntity
  8
M-PIPE
100
AcDbLine
 10
1131.114353943099
 20
2102.404510909428
 30
0.0
 11
1131.114353943099
 21
2090.692868349391
 31
0.0
1001
REVIT
1002
{
1070
     3
1000
923261
1002
}
  0
LINE
  5
25E
330
232
100
AcDbEntity
  8
M-PIPE
100
AcDbLine
 10
1063.114353943099
 20
2090.692868349392
 30
0.0
 11
1063.114353943099
 21
2102.404510909428
 31
0.0
1001
REVIT
1002
{
1070
     3
1000
923261
1002
}
  0
LINE
  5
25F
330
232
100
AcDbEntity
  8
M-PIPE
100
AcDbLine
 10
1063.114353943099
 20
2102.404510909428
 30
0.0
 11
1063.1143539431
 21
2108.592558850072
 31
0.0
1001
REVIT
1002
{
1070
     3
1000
923261
1002
}
  0
LINE
  5
260
330
232
100
AcDbEntity
  8
M-PIPE
100
AcDbLine
 10
1063.114353943098
 20
2080.568477585901
 30
0.0
 11
1063.114353943098
 21
2080.592558850071
 31
0.0
1001
REVIT
1002
{
1070
     3
1000
923261
1002
}
  0
LINE
  5
261
330
232
100
AcDbEntity
  8
M-PIPE
100
AcDbLine
 10
1063.114353943099
 20
2090.704887479058
 30
0.0
 11
1063.114353943098
 21
2080.592558850071
 31
0.0
1001
REVIT
1002
{
1070
     3
1000
923261
1002
}
  0
LINE
  5
262
330
232
100
AcDbEntity
  8
M-PIPE
100
AcDbLine
 10
1130.114353943098
 20
2080.592558850071
 30
0.0
 11
1131.114353943099
 21
2080.592558850071
 31
0.0
1001
REVIT
1002
{
1070
     3
1000
923261
1002
}
  0
LINE
  5
263
330
232
100
AcDbEntity
  8
M-PIPE
100
AcDbLine
 10
1063.114353943098
 20
2080.592558850071
 30
0.0
 11
1064.114353943098
 21
2080.592558850071
 31
0.0
1001
REVIT
1002
{
1070
     3
1000
923261
1002
}
  0
LINE
  5
264
330
232
100
AcDbEntity
  8
M-PIPE
100
AcDbLine
 10
1130.1143539431
 20
2108.59255885007
 30
0.0
 11
1131.1143539431
 21
2108.59255885007
 31
0.0
1001
REVIT
1002
{
1070
     3
1000
923261
1002
}
  0
LINE
  5
265
330
232
100
AcDbEntity
  8
M-PIPE
100
AcDbLine
 10
1063.1143539431
 20
2108.592558850072
 30
0.0
 11
1064.1143539431
 21
2108.592558850072
 31
0.0
1001
REVIT
1002
{
1070
     3
1000
923261
1002
}
  0
LINE
  5
266
330
232
100
AcDbEntity
  8
M-PIPE
100
AcDbLine
 10
1130.114353943099
 20
2102.404510909428
 30
0.0
 11
1131.114353943099
 21
2102.404510909428
 31
0.0
1001
REVIT
1002
{
1070
     3
1000
923261
1002
}
  0
LINE
  5
267
330
232
100
AcDbEntity
  8
M-PIPE
100
AcDbLine
 10
1063.114353943099
 20
2102.404510909429
 30
0.0
 11
1064.114353943099
 21
2102.404510909429
 31
0.0
1001
REVIT
1002
{
1070
     3
1000
923261
1002
}
  0
LINE
  5
268
330
232
100
AcDbEntity
  8
M-PIPE
100
AcDbLine
 10
1097.114353943115
 20
2122.592558850072
 30
0.0
 11
1109.114353943115
 21
2122.592558850072
 31
0.0
1001
REVIT
1002
{
1070
     3
1000
923261
1002
}
  0
LINE
  5
269
330
232
100
AcDbEntity
  8
M-PIPE
100
AcDbLine
 10
1085.114353943115
 20
2122.592558850072
 30
0.0
 11
1097.114353943115
 21
2122.592558850072
 31
0.0
1001
REVIT
1002
{
1070
     3
1000
923261
1002
}
  0
LINE
  5
26A
330
232
100
AcDbEntity
  8
M-PIPE
100
AcDbLine
 10
1109.614353943117
 20
2044.482558850011
 30
0.0
 11
1109.614353943117
 21
2060.37255885001
 31
0.0
1001
REVIT
1002
{
1070
     3
1000
923261
1002
}
  0
LINE
  5
26B
330
232
100
AcDbEntity
  8
M-PIPE
100
AcDbLine
 10
1084.614353943116
 20
2060.37255885001
 30
0.0
 11
1084.614353943116
 21
2044.482558850011
 31
0.0
1001
REVIT
1002
{
1070
     3
1000
923261
1002
}
  0
LINE
  5
26C
330
232
100
AcDbEntity
  8
M-PIPE
100
AcDbLine
 10
1090.750741045355
 20
2043.482558850009
 30
0.0
 11
1090.177953358194
 21
2043.482558850009
 31
0.0
1001
REVIT
1002
{
1070
     3
1000
923261
1002
}
  0
LINE
  5
26D
330
232
100
AcDbEntity
  8
M-PIPE
100
AcDbLine
 10
1104.050754528001
 20
2043.482558850009
 30
0.0
 11
1103.477966840838
 21
2043.482558850009
 31
0.0
1001
REVIT
1002
{
1070
     3
1000
923261
1002
}
  0
LINE
  5
26E
330
232
100
AcDbEntity
  8
M-PIPE
100
AcDbLine
 10
1098.547203161233
 20
2060.372558850009
 30
0.0
 11
1097.114353943115
 21
2060.372558850009
 31
0.0
1001
REVIT
1002
{
1070
     3
1000
923261
1002
}
  0
LINE
  5
26F
330
232
100
AcDbEntity
  8
M-PIPE
100
AcDbLine
 10
1097.114353943115
 20
2060.372558850009
 30
0.0
 11
1094.943751722278
 21
2060.372558850009
 31
0.0
1001
REVIT
1002
{
1070
     3
1000
923261
1002
}
  0
ARC
  5
270
330
232
100
AcDbEntity
  8
M-PIPE
100
AcDbCircle
 10
1097.114353943097
 20
1999.982558850011
 30
0.0
 40
41.49999999998806
100
AcDbArc
 50
89.99999999999984
 51
120.0000000000009
1001
REVIT
1002
{
1070
     3
1000
790271
1002
}
  0
ARC
  5
271
330
232
100
AcDbEntity
  8
M-PIPE
100
AcDbCircle
 10
1097.114353943097
 20
1999.982558850011
 30
0.0
 40
41.49999999998827
100
AcDbArc
 50
120.0000000000006
 51
180.0
1001
REVIT
1002
{
1070
     3
1000
790271
1002
}
  0
ARC
  5
272
330
232
100
AcDbEntity
  8
M-PIPE
100
AcDbCircle
 10
1097.114353943097
 20
1999.982558850011
 30
0.0
 40
41.49999999998828
100
AcDbArc
 50
179.9999999999998
 51
239.9999999999982
1001
REVIT
1002
{
1070
     3
1000
790271
1002
}
  0
ARC
  5
273
330
232
100
AcDbEntity
  8
M-PIPE
100
AcDbCircle
 10
1097.114353943097
 20
1999.982558850011
 30
0.0
 40
41.4999999999879
100
AcDbArc
 50
239.999999999998
 51
269.9999999999993
1001
REVIT
1002
{
1070
     3
1000
790271
1002
}
  0
ARC
  5
274
330
232
100
AcDbEntity
  8
M-PIPE
100
AcDbCircle
 10
1097.114353943097
 20
1999.982558850011
 30
0.0
 40
41.49999999998818
100
AcDbArc
 50
270.0000000000002
 51
299.9999999999982
1001
REVIT
1002
{
1070
     3
1000
790271
1002
}
  0
ARC
  5
275
330
232
100
AcDbEntity
  8
M-PIPE
100
AcDbCircle
 10
1097.114353943097
 20
1999.982558850011
 30
0.0
 40
41.49999999998795
100
AcDbArc
 50
299.9999999999976
 51
359.9999999999984
1001
REVIT
1002
{
1070
     3
1000
790271
1002
}
  0
ARC
  5
276
330
232
100
AcDbEntity
  8
M-PIPE
100
AcDbCircle
 10
1097.114353943097
 20
1999.982558850011
 30
0.0
 40
41.49999999998818
100
AcDbArc
 50
359.9999999999984
 51
60.00000000000032
1001
REVIT
1002
{
1070
     3
1000
790271
1002
}
  0
ARC
  5
277
330
232
100
AcDbEntity
  8
M-PIPE
100
AcDbCircle
 10
1097.114353943097
 20
1999.982558850011
 30
0.0
 40
41.49999999998812
100
AcDbArc
 50
60.00000000000032
 51
90.0
1001
REVIT
1002
{
1070
     3
1000
790271
1002
}
  0
ARC
  5
278
330
232
100
AcDbEntity
  8
M-PIPE
100
AcDbCircle
 10
1097.114353943096
 20
1999.982558850011
 30
0.0
 40
30.26794919247377
100
AcDbArc
 50
229.5003046653722
 51
232.5981701773117
1001
REVIT
1002
{
1070
     3
1000
790271
1002
}
  0
ARC
  5
279
330
232
100
AcDbEntity
  8
M-PIPE
100
AcDbCircle
 10
1097.114353943096
 20
1999.982558850011
 30
0.0
 40
30.26794919247379
100
AcDbArc
 50
220.7295338525246
 51
228.5654505431217
1001
REVIT
1002
{
1070
     3
1000
790271
1002
}
  0
ARC
  5
27A
330
232
100
AcDbEntity
  8
M-PIPE
100
AcDbCircle
 10
1097.114353943096
 20
1999.982558850011
 30
0.0
 40
30.26794919247374
100
AcDbArc
 50
217.4018298226938
 51
220.4996953346309
1001
REVIT
1002
{
1070
     3
1000
790271
1002
}
  0
ARC
  5
27B
330
232
100
AcDbEntity
  8
M-PIPE
100
AcDbCircle
 10
1097.114353943096
 20
1999.982558850011
 30
0.0
 40
30.26794919247384
100
AcDbArc
 50
184.5003046653723
 51
187.5981701773404
1001
REVIT
1002
{
1070
     3
1000
790271
1002
}
  0
ARC
  5
27C
330
232
100
AcDbEntity
  8
M-PIPE
100
AcDbCircle
 10
1097.114353943096
 20
1999.982558850011
 30
0.0
 40
30.26794919247376
100
AcDbArc
 50
172.4018298226653
 51
183.4512146324628
1001
REVIT
1002
{
1070
     3
1000
790271
1002
}
  0
ARC
  5
27D
330
232
100
AcDbEntity
  8
M-PIPE
100
AcDbCircle
 10
1097.114353943096
 20
1999.982558850011
 30
0.0
 40
30.26794919247378
100
AcDbArc
 50
139.5003046653727
 51
142.5981701772432
1001
REVIT
1002
{
1070
     3
1000
790271
1002
}
  0
ARC
  5
27E
330
232
100
AcDbEntity
  8
M-PIPE
100
AcDbCircle
 10
1097.114353943096
 20
1999.982558850011
 30
0.0
 40
30.26794919247385
100
AcDbArc
 50
132.3762800176046
 51
139.270466147475
1001
REVIT
1002
{
1070
     3
1000
790271
1002
}
  0
ARC
  5
27F
330
232
100
AcDbEntity
  8
M-PIPE
100
AcDbCircle
 10
1097.114353943096
 20
1999.982558850011
 30
0.0
 40
30.26794919247372
100
AcDbArc
 50
127.4018298227642
 51
130.499695334632
1001
REVIT
1002
{
1070
     3
1000
790271
1002
}
  0
ARC
  5
280
330
232
100
AcDbEntity
  8
M-PIPE
100
AcDbCircle
 10
1097.114353943096
 20
1999.982558850011
 30
0.0
 40
30.26794919247386
100
AcDbArc
 50
87.28846009062763
 51
97.59817017707417
1001
REVIT
1002
{
1070
     3
1000
790271
1002
}
  0
ARC
  5
281
330
232
100
AcDbEntity
  8
M-PIPE
100
AcDbCircle
 10
1097.114353943096
 20
1999.982558850011
 30
0.0
 40
30.26794919247374
100
AcDbArc
 50
82.40182982292974
 51
85.49969533463166
1001
REVIT
1002
{
1070
     3
1000
790271
1002
}
  0
ARC
  5
282
330
232
100
AcDbEntity
  8
M-PIPE
100
AcDbCircle
 10
1097.114353943096
 20
1999.982558850011
 30
0.0
 40
30.26794919247393
100
AcDbArc
 50
49.50030466537286
 51
52.59817017693688
1001
REVIT
1002
{
1070
     3
1000
790271
1002
}
  0
ARC
  5
283
330
232
100
AcDbEntity
  8
M-PIPE
100
AcDbCircle
 10
1097.114353943096
 20
1999.982558850011
 30
0.0
 40
30.26794919247387
100
AcDbArc
 50
37.40182982306784
 51
48.4512146324644
1001
REVIT
1002
{
1070
     3
1000
790271
1002
}
  0
ARC
  5
284
330
232
100
AcDbEntity
  8
M-PIPE
100
AcDbCircle
 10
1097.114353943096
 20
1999.982558850011
 30
0.0
 40
30.26794919247365
100
AcDbArc
 50
357.5000000000017
 51
7.59817017690828
1001
REVIT
1002
{
1070
     3
1000
790271
1002
}
  0
ARC
  5
285
330
232
100
AcDbEntity
  8
M-PIPE
100
AcDbCircle
 10
1097.114353943096
 20
1999.982558850011
 30
0.0
 40
30.26794919247374
100
AcDbArc
 50
352.4018298230979
 51
355.4996953346309
1001
REVIT
1002
{
1070
     3
1000
790271
1002
}
  0
ARC
  5
286
330
232
100
AcDbEntity
  8
M-PIPE
100
AcDbCircle
 10
1097.114353943096
 20
1999.982558850011
 30
0.0
 40
30.26794919247372
100
AcDbArc
 50
311.4345494568782
 51
322.5981701770069
1001
REVIT
1002
{
1070
     3
1000
790271
1002
}
  0
ARC
  5
287
330
232
100
AcDbEntity
  8
M-PIPE
100
AcDbCircle
 10
1097.114353943096
 20
1999.982558850011
 30
0.0
 40
30.26794919247369
100
AcDbArc
 50
307.401829822999
 51
310.4996953346319
1001
REVIT
1002
{
1070
     3
1000
790271
1002
}
  0
ARC
  5
288
330
232
100
AcDbEntity
  8
M-PIPE
100
AcDbCircle
 10
1097.114353943096
 20
1999.982558850011
 30
0.0
 40
30.26794919247376
100
AcDbArc
 50
274.5003046653732
 51
277.5981701771732
1001
REVIT
1002
{
1070
     3
1000
790271
1002
}
  0
ARC
  5
289
330
232
100
AcDbEntity
  8
M-PIPE
100
AcDbCircle
 10
1097.114353943096
 20
1999.982558850011
 30
0.0
 40
30.26794919247379
100
AcDbArc
 50
262.4018298228308
 51
273.4512146324637
1001
REVIT
1002
{
1070
     3
1000
790271
1002
}
  0
SPLINE
  5
28A
330
232
100
AcDbEntity
  8
M-PIPE
100
AcDbSpline
210
0.0
220
0.0
230
1.0
 70
    24
 71
     3
 72
     9
 73
     5
 74
     0
 42
0.000000001
 43
0.0000000001
 40
0.0
 40
0.0
 40
0.0
 40
0.0
 40
0.5
 40
1.0
 40
1.0
 40
1.0
 40
1.0
 10
1130.525811205214
 20
1971.352600351576
 30
0.0
 10
1128.470583925061
 20
1970.166014328134
 30
0.0
 10
1124.305113767888
 20
1967.761079011589
 30
0.0
 10
1120.029612416981
 20
1965.292617155722
 30
0.0
 10
1117.864353943094
 20
1964.042504592958
 30
0.0
1001
REVIT
1002
{
1070
     3
1000
790271
1002
}
  0
SPLINE
  5
28B
330
232
100
AcDbEntity
  8
M-PIPE
100
AcDbSpline
210
0.0
220
0.0
230
1.0
 70
    24
 71
     3
 72
     9
 73
     5
 74
     0
 42
0.000000001
 43
0.0000000001
 40
0.0
 40
0.0
 40
0.0
 40
0.0
 40
0.5
 40
1.0
 40
1.0
 40
1.0
 40
1.0
 10
1117.864353943094
 20
1964.042504592958
 30
0.0
 10
1115.699095469214
 20
1962.792392030198
 30
0.0
 10
1111.42359411832
 20
1960.323930174339
 30
0.0
 10
1107.258123961159
 20
1957.918994857801
 30
0.0
 10
1105.202896681012
 20
1956.732408834362
 30
0.0
1001
REVIT
1002
{
1070
     3
1000
790271
1002
}
  0
SPLINE
  5
28C
330
232
100
AcDbEntity
  8
M-PIPE
100
AcDbSpline
210
0.0
220
0.0
230
1.0
 70
    24
 71
     3
 72
     9
 73
     5
 74
     0
 42
0.000000001
 43
0.0000000001
 40
0.0
 40
0.0
 40
0.0
 40
0.0
 40
0.5
 40
1.0
 40
1.0
 40
1.0
 40
1.0
 10
1138.614353943113
 20
2014.602750367237
 30
0.0
 10
1138.614353943113
 20
2012.229578320353
 30
0.0
 10
1138.614353943113
 20
2007.419707687266
 30
0.0
 10
1138.614353943113
 20
2002.482783975536
 30
0.0
 10
1138.614353943113
 20
1999.98255885001
 30
0.0
1001
REVIT
1002
{
1070
     3
1000
790271
1002
}
  0
SPLINE
  5
28D
330
232
100
AcDbEntity
  8
M-PIPE
100
AcDbSpline
210
0.0
220
0.0
230
1.0
 70
    24
 71
     3
 72
     9
 73
     5
 74
     0
 42
0.000000001
 43
0.0000000001
 40
0.0
 40
0.0
 40
0.0
 40
0.0
 40
0.5
 40
1.0
 40
1.0
 40
1.0
 40
1.0
 10
1138.614353943113
 20
1999.98255885001
 30
0.0
 10
1138.614353943113
 20
1997.482333724489
 30
0.0
 10
1138.614353943113
 20
1992.545410012768
 30
0.0
 10
1138.614353943113
 20
1987.735539379688
 30
0.0
 10
1138.614353943113
 20
1985.362367332809
 30
0.0
1001
REVIT
1002
{
1070
     3
1000
790271
1002
}
  0
SPLINE
  5
28E
330
232
100
AcDbEntity
  8
M-PIPE
100
AcDbSpline
210
0.0
220
0.0
230
1.0
 70
    24
 71
     3
 72
     9
 73
     5
 74
     0
 42
0.000000001
 43
0.0000000001
 40
0.0
 40
0.0
 40
0.0
 40
0.0
 40
0.5
 40
1.0
 40
1.0
 40
1.0
 40
1.0
 10
1105.202896681013
 20
2043.232708865684
 30
0.0
 10
1107.258123961162
 20
2042.046122842244
 30
0.0
 10
1111.423594118327
 20
2039.641187525704
 30
0.0
 10
1115.699095469224
 20
2037.172725669842
 30
0.0
 10
1117.864353943106
 20
2035.922613107082
 30
0.0
1001
REVIT
1002
{
1070
     3
1000
790271
1002
}
  0
SPLINE
  5
28F
330
232
100
AcDbEntity
  8
M-PIPE
100
AcDbSpline
210
0.0
220
0.0
230
1.0
 70
    24
 71
     3
 72
     9
 73
     5
 74
     0
 42
0.000000001
 43
0.0000000001
 40
0.0
 40
0.0
 40
0.0
 40
0.0
 40
0.5
 40
1.0
 40
1.0
 40
1.0
 40
1.0
 10
1117.864353943106
 20
2035.922613107082
 30
0.0
 10
1120.02961241699
 20
2034.672500544319
 30
0.0
 10
1124.305113767893
 20
2032.204038688455
 30
0.0
 10
1128.470583925062
 20
2029.799103371912
 30
0.0
 10
1130.525811205214
 20
2028.612517348471
 30
0.0
1001
REVIT
1002
{
1070
     3
1000
790271
1002
}
  0
SPLINE
  5
290
330
232
100
AcDbEntity
  8
M-PIPE
100
AcDbSpline
210
0.0
220
0.0
230
1.0
 70
    24
 71
     3
 72
     9
 73
     5
 74
     0
 42
0.000000001
 43
0.0000000001
 40
0.0
 40
0.0
 40
0.0
 40
0.0
 40
0.5
 40
1.0
 40
1.0
 40
1.0
 40
1.0
 10
1063.702896681013
 20
2028.612517348471
 30
0.0
 10
1065.75812396116
 20
2029.79910337191
 30
0.0
 10
1069.92359411832
 20
2032.204038688448
 30
0.0
 10
1074.199095469214
 20
2034.672500544307
 30
0.0
 10
1076.364353943095
 20
2035.922613107067
 30
0.0
1001
REVIT
1002
{
1070
     3
1000
790271
1002
}
  0
SPLINE
  5
291
330
232
100
AcDbEntity
  8
M-PIPE
100
AcDbSpline
210
0.0
220
0.0
230
1.0
 70
    24
 71
     3
 72
     9
 73
     5
 74
     0
 42
0.000000001
 43
0.0000000001
 40
0.0
 40
0.0
 40
0.0
 40
0.0
 40
0.5
 40
1.0
 40
1.0
 40
1.0
 40
1.0
 10
1076.364353943095
 20
2035.922613107067
 30
0.0
 10
1078.529612416981
 20
2037.17272566983
 30
0.0
 10
1082.805113767888
 20
2039.641187525697
 30
0.0
 10
1086.970583925061
 20
2042.046122842242
 30
0.0
 10
1089.025811205213
 20
2043.232708865684
 30
0.0
1001
REVIT
1002
{
1070
     3
1000
790271
1002
}
  0
SPLINE
  5
292
330
232
100
AcDbEntity
  8
M-PIPE
100
AcDbSpline
210
0.0
220
0.0
230
1.0
 70
    24
 71
     3
 72
     9
 73
     5
 74
     0
 42
0.000000001
 43
0.0000000001
 40
0.0
 40
0.0
 40
0.0
 40
0.0
 40
0.5
 40
1.0
 40
1.0
 40
1.0
 40
1.0
 10
1055.614353943113
 20
1985.36236733281
 30
0.0
 10
1055.614353943113
 20
1987.735539379689
 30
0.0
 10
1055.614353943113
 20
1992.545410012767
 30
0.0
 10
1055.614353943113
 20
1997.482333724488
 30
0.0
 10
1055.614353943113
 20
1999.98255885001
 30
0.0
1001
REVIT
1002
{
1070
     3
1000
790271
1002
}
  0
SPLINE
  5
293
330
232
100
AcDbEntity
  8
M-PIPE
100
AcDbSpline
210
0.0
220
0.0
230
1.0
 70
    24
 71
     3
 72
     9
 73
     5
 74
     0
 42
0.000000001
 43
0.0000000001
 40
0.0
 40
0.0
 40
0.0
 40
0.0
 40
0.5
 40
1.0
 40
1.0
 40
1.0
 40
1.0
 10
1055.614353943113
 20
1999.98255885001
 30
0.0
 10
1055.614353943113
 20
2002.482783975537
 30
0.0
 10
1055.614353943113
 20
2007.419707687267
 30
0.0
 10
1055.614353943113
 20
2012.229578320354
 30
0.0
 10
1055.614353943113
 20
2014.602750367236
 30
0.0
1001
REVIT
1002
{
1070
     3
1000
790271
1002
}
  0
SPLINE
  5
294
330
232
100
AcDbEntity
  8
M-PIPE
100
AcDbSpline
210
0.0
220
0.0
230
1.0
 70
    24
 71
     3
 72
     9
 73
     5
 74
     0
 42
0.000000001
 43
0.0000000001
 40
0.0
 40
0.0
 40
0.0
 40
0.0
 40
0.5
 40
1.0
 40
1.0
 40
1.0
 40
1.0
 10
1089.025811205214
 20
1956.732408834362
 30
0.0
 10
1086.970583925063
 20
1957.918994857803
 30
0.0
 10
1082.805113767894
 20
1960.323930174346
 30
0.0
 10
1078.529612416991
 20
1962.79239203021
 30
0.0
 10
1076.364353943105
 20
1964.042504592973
 30
0.0
1001
REVIT
1002
{
1070
     3
1000
790271
1002
}
  0
SPLINE
  5
295
330
232
100
AcDbEntity
  8
M-PIPE
100
AcDbSpline
210
0.0
220
0.0
230
1.0
 70
    24
 71
     3
 72
     9
 73
     5
 74
     0
 42
0.000000001
 43
0.0000000001
 40
0.0
 40
0.0
 40
0.0
 40
0.0
 40
0.5
 40
1.0
 40
1.0
 40
1.0
 40
1.0
 10
1076.364353943105
 20
1964.042504592973
 30
0.0
 10
1074.199095469223
 20
1965.292617155734
 30
0.0
 10
1069.923594118324
 20
1967.761079011596
 30
0.0
 10
1065.758123961161
 20
1970.166014328136
 30
0.0
 10
1063.702896681012
 20
1971.352600351576
 30
0.0
1001
REVIT
1002
{
1070
     3
1000
790271
1002
}
  0
ARC
  5
296
330
232
100
AcDbEntity
  8
M-PIPE
100
AcDbCircle
 10
1097.114353943097
 20
1999.982558850011
 30
0.0
 40
43.99999999998863
100
AcDbArc
 50
259.4070433824451
 51
270.0000000000067
1001
REVIT
1002
{
1070
     3
1000
790271
1002
}
  0
ARC
  5
297
330
232
100
AcDbEntity
  8
M-PIPE
100
AcDbCircle
 10
1097.114353943097
 20
1999.982558850011
 30
0.0
 40
44.00000000001079
100
AcDbArc
 50
79.40704338240864
 51
89.99999999999259
1001
REVIT
1002
{
1070
     3
1000
790271
1002
}
  0
ARC
  5
298
330
232
100
AcDbEntity
  8
M-PIPE
100
AcDbCircle
 10
1097.114353943097
 20
1999.982558850011
 30
0.0
 40
43.99999999998543
100
AcDbArc
 50
199.4070433824183
 51
220.5929566175734
1001
REVIT
1002
{
1070
     3
1000
790271
1002
}
  0
ARC
  5
299
330
232
100
AcDbEntity
  8
M-PIPE
100
AcDbCircle
 10
1097.114353943097
 20
1999.982558850011
 30
0.0
 40
43.99999999999656
100
AcDbArc
 50
139.4070433824002
 51
160.5929566175501
1001
REVIT
1002
{
1070
     3
1000
790271
1002
}
  0
ARC
  5
29A
330
232
100
AcDbEntity
  8
M-PIPE
100
AcDbCircle
 10
1097.114353943097
 20
1999.982558850011
 30
0.0
 40
44.00000000000864
100
AcDbArc
 50
89.99999999999289
 51
100.5929566175488
1001
REVIT
1002
{
1070
     3
1000
790271
1002
}
  0
ARC
  5
29B
330
232
100
AcDbEntity
  8
M-PIPE
100
AcDbCircle
 10
1097.114353943097
 20
1999.982558850011
 30
0.0
 40
44.00000000001405
100
AcDbArc
 50
19.40704338243533
 51
40.59295661757004
1001
REVIT
1002
{
1070
     3
1000
790271
1002
}
  0
ARC
  5
29C
330
232
100
AcDbEntity
  8
M-PIPE
100
AcDbCircle
 10
1097.114353943097
 20
1999.982558850011
 30
0.0
 40
44.0000000000031
100
AcDbArc
 50
319.4070433824533
 51
340.5929566175927
1001
REVIT
1002
{
1070
     3
1000
790271
1002
}
  0
ARC
  5
29D
330
232
100
AcDbEntity
  8
M-PIPE
100
AcDbCircle
 10
1097.114353943097
 20
1999.982558850011
 30
0.0
 40
43.99999999999067
100
AcDbArc
 50
270.000000000008
 51
280.5929566175952
1001
REVIT
1002
{
1070
     3
1000
790271
1002
}
  0
ARC
  5
29E
330
232
100
AcDbEntity
  8
M-PIPE
100
AcDbCircle
 10
1097.114353943096
 20
1999.982558850011
 30
0.0
 40
31.49999999999959
100
AcDbArc
 50
202.3671274283656
 51
202.5000000000097
1001
REVIT
1002
{
1070
     3
1000
790271
1002
}
  0
LINE
  5
29F
330
232
100
AcDbEntity
  8
M-PIPE
100
AcDbLine
 10
1068.002426033382
 20
2012.013587624791
 30
0.0
 11
1068.012148668996
 21
2012.037086969524
 31
0.0
1001
REVIT
1002
{
1070
     3
1000
790271
1002
}
  0
LINE
  5
2A0
330
232
100
AcDbEntity
  8
M-PIPE
100
AcDbLine
 10
1085.046370720067
 20
2029.079187192976
 30
0.0
 11
1085.059825823618
 21
2029.084764124125
 31
0.0
1001
REVIT
1002
{
1070
     3
1000
790271
1002
}
  0
ARC
  5
2A1
330
232
100
AcDbEntity
  8
M-PIPE
100
AcDbCircle
 10
1097.114353943096
 20
1999.982558850011
 30
0.0
 40
31.4999999999994
100
AcDbArc
 50
22.30045953095161
 51
22.49999999999442
1001
REVIT
1002
{
1070
     3
1000
790271
1002
}
  0
LINE
  5
2A2
330
232
100
AcDbEntity
  8
M-PIPE
100
AcDbLine
 10
1126.216559217207
 20
1987.928030730526
 30
0.0
 11
1126.201422606007
 21
1987.891552415511
 31
0.0
1001
REVIT
1002
{
1070
     3
1000
790271
1002
}
  0
ARC
  5
2A3
330
232
100
AcDbEntity
  8
M-PIPE
100
AcDbCircle
 10
1097.114353943096
 20
1999.982558850011
 30
0.0
 40
31.49999999999953
100
AcDbArc
 50
67.50000000000219
 51
72.24720983808582
1001
REVIT
1002
{
1070
     3
1000
790271
1002
}
  0
LINE
  5
2A4
330
232
100
AcDbEntity
  8
M-PIPE
100
AcDbLine
 10
1087.509667586962
 20
2029.982558850015
 30
0.0
 11
1106.719040299229
 21
2029.982558850016
 31
0.0
1001
REVIT
1002
{
1070
     3
1000
790271
1002
}
  0
ARC
  5
2A5
330
232
100
AcDbEntity
  8
M-PIPE
100
AcDbCircle
 10
1097.114353943096
 20
1999.982558850011
 30
0.0
 40
31.49999999999942
100
AcDbArc
 50
107.7527901619184
 51
117.2472098379947
1001
REVIT
1002
{
1070
     3
1000
790271
1002
}
  0
LINE
  5
2A6
330
232
100
AcDbEntity
  8
M-PIPE
100
AcDbLine
 10
1069.109611653882
 20
2014.404223431974
 30
0.0
 11
1082.692689361132
 21
2027.987301139225
 31
0.0
1001
REVIT
1002
{
1070
     3
1000
790271
1002
}
  0
ARC
  5
2A7
330
232
100
AcDbEntity
  8
M-PIPE
100
AcDbCircle
 10
1097.114353943096
 20
1999.982558850011
 30
0.0
 40
31.49999999999923
100
AcDbArc
 50
152.7527901620104
 51
162.2472098379411
1001
REVIT
1002
{
1070
     3
1000
790271
1002
}
  0
LINE
  5
2A8
330
232
100
AcDbEntity
  8
M-PIPE
100
AcDbLine
 10
1067.114353943117
 20
1990.377872493801
 30
0.0
 11
1067.114353943116
 21
2009.587245206219
 31
0.0
1001
REVIT
1002
{
1070
     3
1000
790271
1002
}
  0
ARC
  5
2A9
330
232
100
AcDbEntity
  8
M-PIPE
100
AcDbCircle
 10
1097.114353943096
 20
1999.982558850011
 30
0.0
 40
31.49999999999927
100
AcDbArc
 50
197.7527901620632
 51
207.2472098379562
1001
REVIT
1002
{
1070
     3
1000
790271
1002
}
  0
LINE
  5
2AA
330
232
100
AcDbEntity
  8
M-PIPE
100
AcDbLine
 10
1082.692689361153
 20
1971.977816560787
 30
0.0
 11
1069.109611653873
 21
1985.560894268066
 31
0.0
1001
REVIT
1002
{
1070
     3
1000
790271
1002
}
  0
ARC
  5
2AB
330
232
100
AcDbEntity
  8
M-PIPE
100
AcDbCircle
 10
1097.114353943096
 20
1999.982558850011
 30
0.0
 40
31.49999999999938
100
AcDbArc
 50
242.752790162048
 51
247.5000000000021
1001
REVIT
1002
{
1070
     3
1000
790271
1002
}
  0
ARC
  5
2AC
330
232
100
AcDbEntity
  8
M-PIPE
100
AcDbCircle
 10
1097.114353943096
 20
1999.982558850011
 30
0.0
 40
31.49999999999925
100
AcDbArc
 50
247.500000000002
 51
252.2472098380315
1001
REVIT
1002
{
1070
     3
1000
790271
1002
}
  0
LINE
  5
2AD
330
232
100
AcDbEntity
  8
M-PIPE
100
AcDbLine
 10
1106.719040299259
 20
1969.982558850016
 30
0.0
 11
1087.509667586936
 21
1969.982558850015
 31
0.0
1001
REVIT
1002
{
1070
     3
1000
790271
1002
}
  0
ARC
  5
2AE
330
232
100
AcDbEntity
  8
M-PIPE
100
AcDbCircle
 10
1097.114353943096
 20
1999.982558850011
 30
0.0
 40
31.49999999999935
100
AcDbArc
 50
287.752790161973
 51
297.2472098381224
1001
REVIT
1002
{
1070
     3
1000
790271
1002
}
  0
LINE
  5
2AF
330
232
100
AcDbEntity
  8
M-PIPE
100
AcDbLine
 10
1125.119096232279
 20
1985.560894267986
 30
0.0
 11
1111.536018525123
 21
1971.97781656083
 31
0.0
1001
REVIT
1002
{
1070
     3
1000
790271
1002
}
  0
ARC
  5
2B0
330
232
100
AcDbEntity
  8
M-PIPE
100
AcDbCircle
 10
1097.114353943096
 20
1999.982558850011
 30
0.0
 40
31.49999999999955
100
AcDbArc
 50
332.7527901618818
 51
342.2472098381759
1001
REVIT
1002
{
1070
     3
1000
790271
1002
}
  0
LINE
  5
2B1
330
232
100
AcDbEntity
  8
M-PIPE
100
AcDbLine
 10
1127.114353943116
 20
2009.587245206098
 30
0.0
 11
1127.114353943117
 21
1990.377872493926
 31
0.0
1001
REVIT
1002
{
1070
     3
1000
790271
1002
}
  0
ARC
  5
2B2
330
232
100
AcDbEntity
  8
M-PIPE
100
AcDbCircle
 10
1097.114353943096
 20
1999.982558850011
 30
0.0
 40
31.49999999999949
100
AcDbArc
 50
17.75279016182816
 51
27.24720983816095
1001
REVIT
1002
{
1070
     3
1000
790271
1002
}
  0
LINE
  5
2B3
330
232
100
AcDbEntity
  8
M-PIPE
100
AcDbLine
 10
1111.53601852514
 20
2027.987301139184
 30
0.0
 11
1125.119096232269
 21
2014.404223432057
 31
0.0
1001
REVIT
1002
{
1070
     3
1000
790271
1002
}
  0
ARC
  5
2B4
330
232
100
AcDbEntity
  8
M-PIPE
100
AcDbCircle
 10
1097.114353943096
 20
1999.982558850011
 30
0.0
 40
31.49999999999947
100
AcDbArc
 50
62.75279016184345
 51
67.50000000000212
1001
REVIT
1002
{
1070
     3
1000
790271
1002
}
  0
ARC
  5
2B5
330
232
100
AcDbEntity
  8
M-PIPE
100
AcDbCircle
 10
1097.114353943097
 20
1999.982558850011
 30
0.0
 40
24.09999999999965
100
AcDbArc
 50
67.50000000000245
 51
247.5000000000018
1001
REVIT
1002
{
1070
     3
1000
790271
1002
}
  0
ARC
  5
2B6
330
232
100
AcDbEntity
  8
M-PIPE
100
AcDbCircle
 10
1097.114353943097
 20
1999.982558850011
 30
0.0
 40
24.09999999999943
100
AcDbArc
 50
247.5000000000016
 51
67.50000000000179
1001
REVIT
1002
{
1070
     3
1000
790271
1002
}
  0
LINE
  5
2B7
330
232
100
AcDbEntity
  8
P-SANR-FIXT
100
AcDbLine
 10
1063.614353943099
 20
1971.456255198819
 30
0.0
 11
1063.614353943099
 21
1936.482558850012
 31
0.0
  0
LINE
  5
2B8
330
232
100
AcDbEntity
  8
P-SANR-FIXT
100
AcDbLine
 10
1130.6143539431
 20
1936.482558850012
 30
0.0
 11
1130.6143539431
 21
1971.456255198819
 31
0.0
  0
LINE
  5
2B9
330
232
100
AcDbEntity
  8
P-SANR-FIXT
100
AcDbLine
 10
1084.114353943099
 20
2044.482558850011
 30
0.0
 11
1084.114353943099
 21
2042.018257963979
 31
0.0
  0
LINE
  5
2BA
330
232
100
AcDbEntity
  8
P-SANR-FIXT
100
AcDbLine
 10
1110.114353943099
 20
2042.018257963979
 30
0.0
 11
1110.114353943099
 21
2044.482558850011
 31
0.0
  0
LINE
  5
2BB
330
232
100
AcDbEntity
  8
P-SANR-FIXT
100
AcDbLine
 10
1092.592276004493
 20
1925.982558850011
 30
0.0
 11
1067.136431881716
 21
1925.982558850011
 31
0.0
  0
SPLINE
  5
2BC
330
232
100
AcDbEntity
  8
P-SANR-FIXT
100
AcDbSpline
210
0.0
220
0.0
230
1.0
 70
     8
 71
     3
 72
     8
 73
     4
 74
     0
 42
0.000000001
 43
0.0000000001
 40
0.0
 40
0.0
 40
0.0
 40
0.0
 40
0.0714285714285714
 40
0.0714285714285714
 40
0.0714285714285714
 40
0.0714285714285714
 10
1097.114353943098
 20
2043.982558850011
 30
0.0
 10
1096.617005766943
 20
2043.982558850011
 30
0.0
 10
1096.123395728954
 20
2043.973826411855
 30
0.0
 10
1095.635543911517
 20
2043.957200087307
 30
0.0
  0
SPLINE
  5
2BD
330
232
100
AcDbEntity
  8
P-SANR-FIXT
100
AcDbSpline
210
0.0
220
0.0
230
1.0
 70
     8
 71
     3
 72
     9
 73
     5
 74
     0
 42
0.000000001
 43
0.0000000001
 40
0.1428571428571428
 40
0.1428571428571428
 40
0.1428571428571428
 40
0.1428571428571428
 40
0.2857142857142857
 40
0.5
 40
0.5
 40
0.5
 40
0.5
 10
1094.191283203247
 20
2043.884478006255
 30
0.0
 10
1093.242652615352
 20
2043.821326915125
 30
0.0
 10
1090.926151161828
 20
2043.588072064338
 30
0.0
 10
1089.018651466774
 20
2043.244480319627
 30
0.0
 10
1087.970855079569
 20
2043.021286012487
 30
0.0
  0
SPLINE
  5
2BE
330
232
100
AcDbEntity
  8
P-SANR-FIXT
100
AcDbSpline
210
0.0
220
0.0
230
1.0
 70
     8
 71
     3
 72
     9
 73
     5
 74
     0
 42
0.000000001
 43
0.0000000001
 40
0.5714285714285714
 40
0.5714285714285714
 40
0.5714285714285714
 40
0.5714285714285714
 40
0.7857142857142857
 40
1.0
 40
1.0
 40
1.0
 40
1.0
 10
1086.953421420705
 20
2042.793252026779
 30
0.0
 10
1086.046227589274
 20
2042.578584033482
 30
0.0
 10
1084.61636464749
 20
2042.178046263225
 30
0.0
 10
1084.120704076967
 20
2042.020221812375
 30
0.0
 10
1084.114353943097
 20
2042.018257963979
 30
0.0
  0
SPLINE
  5
2BF
330
232
100
AcDbEntity
  8
P-SANR-FIXT
100
AcDbSpline
210
0.0
220
0.0
230
1.0
 70
     8
 71
     3
 72
    10
 73
     6
 74
     0
 42
0.000000001
 43
0.0000000001
 40
0.0
 40
0.0
 40
0.0
 40
0.0
 40
0.0714285714285714
 40
0.1071428571428571
 40
0.1428571428571428
 40
0.1428571428571428
 40
0.1428571428571428
 40
0.1428571428571428
 10
1063.614353943098
 20
1971.456255198818
 30
0.0
 10
1063.643676163542
 20
1971.421820510157
 30
0.0
 10
1063.776790897898
 20
1971.264858098681
 30
0.0
 10
1064.141361003182
 20
1970.847391090569
 30
0.0
 10
1064.384563742841
 20
1970.574984013557
 30
0.0
 10
1064.525550092481
 20
1970.419577545919
 30
0.0
  0
SPLINE
  5
2C0
330
232
100
AcDbEntity
  8
P-SANR-FIXT
100
AcDbSpline
210
0.0
220
0.0
230
1.0
 70
     8
 71
     3
 72
    11
 73
     7
 74
     0
 42
0.000000001
 43
0.0000000001
 40
0.1785714285714286
 40
0.1785714285714286
 40
0.1785714285714286
 40
0.1785714285714286
 40
0.2142857142857143
 40
0.25
 40
0.2678571428571428
 40
0.2857142857142857
 40
0.2857142857142857
 40
0.2857142857142857
 40
0.2857142857142857
 10
1065.007017429788
 20
1969.897364118695
 30
0.0
 10
1065.187127088004
 20
1969.705166555882
 30
0.0
 10
1065.586823064376
 20
1969.285595099643
 30
0.0
 10
1066.162863039714
 20
1968.70619110393
 30
0.0
 10
1066.660349454166
 20
1968.223377092173
 30
0.0
 10
1066.917301586448
 20
1967.979893364034
 30
0.0
 10
1067.049247909642
 20
1967.856410633999
 30
0.0
  0
SPLINE
  5
2C1
330
232
100
AcDbEntity
  8
P-SANR-FIXT
100
AcDbSpline
210
0.0
220
0.0
230
1.0
 70
     8
 71
     3
 72
     9
 73
     5
 74
     0
 42
0.000000001
 43
0.0000000001
 40
0.3214285714285714
 40
0.3214285714285714
 40
0.3214285714285714
 40
0.3214285714285714
 40
0.3571428571428571
 40
0.3928571428571427
 40
0.3928571428571427
 40
0.3928571428571427
 40
0.3928571428571427
 10
1067.885219691084
 20
1967.093993802599
 30
0.0
 10
1068.179525427903
 20
1966.832471523879
 30
0.0
 10
1068.801199960308
 20
1966.294239231126
 30
0.0
 10
1069.472288914288
 20
1965.746400434471
 30
0.0
 10
1069.820110493453
 20
1965.471320653645
 30
0.0
  0
SPLINE
  5
2C2
330
232
100
AcDbEntity
  8
P-SANR-FIXT
100
AcDbSpline
210
0.0
220
0.0
230
1.0
 70
     8
 71
     3
 72
     8
 73
     4
 74
     0
 42
0.000000001
 43
0.0000000001
 40
0.4285714285714286
 40
0.4285714285714286
 40
0.4285714285714286
 40
0.4285714285714286
 40
0.5714285714285714
 40
0.5714285714285714
 40
0.5714285714285714
 40
0.5714285714285714
 10
1070.90033003426
 20
1964.643841407142
 30
0.0
 10
1072.389545359768
 20
1963.539219812389
 30
0.0
 10
1074.073975608705
 20
1962.435869594196
 30
0.0
 10
1075.953434400223
 20
1961.405162824618
 30
0.0
  0
SPLINE
  5
2C3
330
232
100
AcDbEntity
  8
P-SANR-FIXT
100
AcDbSpline
210
0.0
220
0.0
230
1.0
 70
     8
 71
     3
 72
    14
 73
    10
 74
     0
 42
0.000000001
 43
0.0000000001
 40
0.607142857142857
 40
0.607142857142857
 40
0.607142857142857
 40
0.607142857142857
 40
0.6785714285714287
 40
0.7053571428571429
 40
0.7321428571428572
 40
0.7857142857142857
 40
0.8392857142857142
 40
0.8928571428571427
 40
1.0
 40
1.0
 40
1.0
 40
1.0
 10
1077.399056228935
 20
1960.646864152376
 30
0.0
 10
1078.386539288324
 20
1960.151992712349
 30
0.0
 10
1079.808736664607
 20
1959.503062928778
 30
0.0
 10
1081.722452993345
 20
1958.755416654433
 30
0.0
 10
1083.404987771715
 20
1958.155861770671
 30
0.0
 10
1085.613029881288
 20
1957.48123369311
 30
0.0
 10
1088.378258277748
 20
1956.827042496236
 30
0.0
 10
1092.153865789026
 20
1956.188857687964
 30
0.0
 10
1095.108785083263
 20
1955.98255885001
 30
0.0
 10
1097.114353943097
 20
1955.98255885001
 30
0.0
  0
ARC
  5
2C4
330
232
100
AcDbEntity
  8
P-SANR-FIXT
100
AcDbCircle
 10
1097.114353943097
 20
1999.982558850011
 30
0.0
 40
44.00000000000044
100
AcDbArc
 50
264.7020755512319
 51
264.9999999999999
  0
ARC
  5
2C5
330
232
100
AcDbEntity
  8
P-SANR-FIXT
100
AcDbCircle
 10
1097.114353943097
 20
1999.982558850011
 30
0.0
 40
44.00000000000057
100
AcDbArc
 50
220.0
 51
259.9999999999997
  0
ARC
  5
2C6
330
232
100
AcDbEntity
  8
P-SANR-FIXT
100
AcDbCircle
 10
1097.114353943097
 20
1999.982558850011
 30
0.0
 40
44.00000000000046
100
AcDbArc
 50
215.0
 51
215.3056603979217
  0
ARC
  5
2C7
330
232
100
AcDbEntity
  8
P-SANR-FIXT
100
AcDbCircle
 10
1097.114353943097
 20
1999.982558850011
 30
0.0
 40
44.00000000000067
100
AcDbArc
 50
204.7087185613442
 51
205.0000000000001
  0
ARC
  5
2C8
330
232
100
AcDbEntity
  8
P-SANR-FIXT
100
AcDbCircle
 10
1097.114353943097
 20
1999.982558850011
 30
0.0
 40
44.00000000000058
100
AcDbArc
 50
160.0000000000003
 51
199.9999999999999
  0
ARC
  5
2C9
330
232
100
AcDbEntity
  8
P-SANR-FIXT
100
AcDbCircle
 10
1097.114353943097
 20
1999.982558850011
 30
0.0
 40
44.00000000000051
100
AcDbArc
 50
155.0000000000001
 51
155.2912814386223
  0
ARC
  5
2CA
330
232
100
AcDbEntity
  8
P-SANR-FIXT
100
AcDbCircle
 10
1097.114353943097
 20
1999.982558850011
 30
0.0
 40
44.00000000000035
100
AcDbArc
 50
144.6943396020404
 51
145.0000000000003
  0
ARC
  5
2CB
330
232
100
AcDbEntity
  8
P-SANR-FIXT
100
AcDbCircle
 10
1097.114353943097
 20
1999.982558850011
 30
0.0
 40
44.00000000000036
100
AcDbArc
 50
100.0000000000002
 51
140.0000000000002
  0
ARC
  5
2CC
330
232
100
AcDbEntity
  8
P-SANR-FIXT
100
AcDbCircle
 10
1097.114353943097
 20
1999.982558850011
 30
0.0
 40
44.00000000000022
100
AcDbArc
 50
95.00000000000037
 51
95.29792444876839
  0
ARC
  5
2CD
330
232
100
AcDbEntity
  8
P-SANR-FIXT
100
AcDbCircle
 10
1097.114353943097
 20
1999.982558850011
 30
0.0
 40
44.00000000000044
100
AcDbArc
 50
274.9999999999994
 51
275.2979244487956
  0
ARC
  5
2CE
330
232
100
AcDbEntity
  8
P-SANR-FIXT
100
AcDbCircle
 10
1097.114353943097
 20
1999.982558850011
 30
0.0
 40
44.0000000000003
100
AcDbArc
 50
279.9999999999993
 51
319.9999999999992
  0
ARC
  5
2CF
330
232
100
AcDbEntity
  8
P-SANR-FIXT
100
AcDbCircle
 10
1097.114353943097
 20
1999.982558850011
 30
0.0
 40
44.00000000000037
100
AcDbArc
 50
324.6943396020845
 51
324.9999999999993
  0
ARC
  5
2D0
330
232
100
AcDbEntity
  8
P-SANR-FIXT
100
AcDbCircle
 10
1097.114353943097
 20
1999.982558850011
 30
0.0
 40
44.00000000000036
100
AcDbArc
 50
334.9999999999992
 51
335.2912814386594
  0
ARC
  5
2D1
330
232
100
AcDbEntity
  8
P-SANR-FIXT
100
AcDbCircle
 10
1097.114353943097
 20
1999.982558850011
 30
0.0
 40
44.00000000000027
100
AcDbArc
 50
339.9999999999995
 51
19.99999999999956
  0
ARC
  5
2D2
330
232
100
AcDbEntity
  8
P-SANR-FIXT
100
AcDbCircle
 10
1097.114353943097
 20
1999.982558850011
 30
0.0
 40
44.0000000000004
100
AcDbArc
 50
24.70871856137355
 51
24.99999999999979
  0
ARC
  5
2D3
330
232
100
AcDbEntity
  8
P-SANR-FIXT
100
AcDbCircle
 10
1097.114353943097
 20
1999.982558850011
 30
0.0
 40
44.00000000000048
100
AcDbArc
 50
34.99999999999972
 51
35.30566039795257
  0
ARC
  5
2D4
330
232
100
AcDbEntity
  8
P-SANR-FIXT
100
AcDbCircle
 10
1097.114353943097
 20
1999.982558850011
 30
0.0
 40
44.00000000000036
100
AcDbArc
 50
39.99999999999975
 51
79.99999999999975
  0
ARC
  5
2D5
330
232
100
AcDbEntity
  8
P-SANR-FIXT
100
AcDbCircle
 10
1097.114353943097
 20
1999.982558850011
 30
0.0
 40
44.00000000000048
100
AcDbArc
 50
84.70207555120545
 51
84.99999999999966
  0
SPLINE
  5
2D6
330
232
100
AcDbEntity
  8
P-SANR-FIXT
100
AcDbSpline
210
0.0
220
0.0
230
1.0
 70
     8
 71
     3
 72
    11
 73
     7
 74
     0
 42
0.000000001
 43
0.0000000001
 40
0.0
 40
0.0
 40
0.0
 40
0.0
 40
0.1428571428571428
 40
0.2142857142857143
 40
0.2857142857142857
 40
0.3928571428571427
 40
0.3928571428571427
 40
0.3928571428571427
 40
0.3928571428571427
 10
1097.114353943097
 20
1955.98255885001
 30
0.0
 10
1099.793773515485
 20
1955.98255885001
 30
0.0
 10
1103.699701602341
 20
1956.347304795238
 30
0.0
 10
1108.64385337114
 20
1957.464975087328
 30
0.0
 10
1112.721611367655
 20
1958.760639977128
 30
0.0
 10
1115.361992655629
 20
1959.910790507207
 30
0.0
 10
1116.841023570939
 20
1960.652506610399
 30
0.0
  0
SPLINE
  5
2D7
330
232
100
AcDbEntity
  8
P-SANR-FIXT
100
AcDbSpline
210
0.0
220
0.0
230
1.0
 70
     8
 71
     3
 72
     8
 73
     4
 74
     0
 42
0.000000001
 43
0.0000000001
 40
0.4285714285714286
 40
0.4285714285714286
 40
0.4285714285714286
 40
0.4285714285714286
 40
0.5714285714285714
 40
0.5714285714285714
 40
0.5714285714285714
 40
0.5714285714285714
 10
1118.284723023417
 20
1961.410347699972
 30
0.0
 10
1120.162192995825
 20
1962.440857656356
 30
0.0
 10
1121.848396252806
 20
1963.545808948627
 30
0.0
 10
1123.335569024365
 20
1964.649176905142
 30
0.0
  0
SPLINE
  5
2D8
330
232
100
AcDbEntity
  8
P-SANR-FIXT
100
AcDbSpline
210
0.0
220
0.0
230
1.0
 70
     8
 71
     3
 72
     9
 73
     5
 74
     0
 42
0.000000001
 43
0.0000000001
 40
0.607142857142857
 40
0.607142857142857
 40
0.607142857142857
 40
0.607142857142857
 40
0.625
 40
0.6785714285714287
 40
0.6785714285714287
 40
0.6785714285714287
 40
0.6785714285714287
 10
1124.414174500986
 20
1965.47567733149
 30
0.0
 10
1124.587903791794
 20
1965.613135065724
 30
0.0
 10
1125.270925865559
 20
1966.162138534623
 30
0.0
 10
1125.907455334494
 20
1966.706374338954
 30
0.0
 10
1126.34967960595
 20
1967.099497353443
 30
0.0
  0
SPLINE
  5
2D9
330
232
100
AcDbEntity
  8
P-SANR-FIXT
100
AcDbSpline
210
0.0
220
0.0
230
1.0
 70
     8
 71
     3
 72
    11
 73
     7
 74
     0
 42
0.000000001
 43
0.0000000001
 40
0.7142857142857141
 40
0.7142857142857141
 40
0.7142857142857141
 40
0.7142857142857141
 40
0.71875
 40
0.7321428571428572
 40
0.7857142857142857
 40
0.8214285714285711
 40
0.8214285714285711
 40
0.8214285714285711
 40
0.8214285714285711
 10
1127.185045889569
 20
1967.861637432664
 30
0.0
 10
1127.217869415596
 20
1967.892366426361
 30
0.0
 10
1127.348431325267
 20
1968.014975815823
 30
0.0
 10
1127.861909358175
 20
1968.503074766381
 30
0.0
 10
1128.546705349113
 20
1969.185500816513
 30
0.0
 10
1129.044925738105
 20
1969.708697373195
 30
0.0
 10
1129.225168089853
 20
1969.901090846121
 30
0.0
  0
SPLINE
  5
2DA
330
232
100
AcDbEntity
  8
P-SANR-FIXT
100
AcDbSpline
210
0.0
220
0.0
230
1.0
 70
     8
 71
     3
 72
    11
 73
     7
 74
     0
 42
0.000000001
 43
0.0000000001
 40
0.8571428571428604
 40
0.8571428571428604
 40
0.8571428571428604
 40
0.8571428571428604
 40
0.8660714285714284
 40
0.8928571428571427
 40
0.9464285714285713
 40
1.0
 40
1.0
 40
1.0
 40
1.0
 10
1129.705804945335
 20
1970.422494515661
 30
0.0
 10
1129.740685024436
 20
1970.460950754328
 30
0.0
 10
1129.875287473609
 20
1970.609904458044
 30
0.0
 10
1130.172084943428
 20
1970.943047399865
 30
0.0
 10
1130.481916717657
 20
1971.300575210229
 30
0.0
 10
1130.59266909964
 20
1971.430789500046
 30
0.0
 10
1130.614353943097
 20
1971.456255198818
 30
0.0
  0
SPLINE
  5
2DB
330
232
100
AcDbEntity
  8
P-SANR-FIXT
100
AcDbSpline
210
0.0
220
0.0
230
1.0
 70
     8
 71
     3
 72
    10
 73
     6
 74
     0
 42
0.000000001
 43
0.0000000001
 40
0.0
 40
0.0
 40
0.0
 40
0.0
 40
0.1428571428571428
 40
0.2857142857142857
 40
0.4285714285714285
 40
0.4285714285714285
 40
0.4285714285714285
 40
0.4285714285714285
 10
1110.114353943098
 20
2042.018257963979
 30
0.0
 10
1110.110120520518
 20
2042.019567196243
 30
0.0
 10
1109.894633064509
 20
2042.087217892279
 30
0.0
 10
1108.916887814291
 20
2042.376622968635
 30
0.0
 10
1107.87830283721
 20
2042.650519451428
 30
0.0
 10
1107.275382036541
 20
2042.793690805786
 30
0.0
  0
SPLINE
  5
2DC
330
232
100
AcDbEntity
  8
P-SANR-FIXT
100
AcDbSpline
210
0.0
220
0.0
230
1.0
 70
     8
 71
     3
 72
    10
 73
     6
 74
     0
 42
0.000000001
 43
0.0000000001
 40
0.5
 40
0.5
 40
0.5
 40
0.5
 40
0.5714285714285714
 40
0.7857142857142857
 40
0.8571428571428569
 40
0.8571428571428569
 40
0.8571428571428569
 40
0.8571428571428569
 10
1106.309912150245
 20
2043.011363068503
 30
0.0
 10
1105.96827014265
 20
2043.08430819862
 30
0.0
 10
1104.521478516108
 20
2043.371253525624
 30
0.0
 10
1102.39140416702
 20
2043.731465530048
 30
0.0
 10
1100.487542852379
 20
2043.83323251932
 30
0.0
 10
1100.006342985705
 20
2043.85415696265
 30
0.0
  0
SPLINE
  5
2DD
330
232
100
AcDbEntity
  8
P-SANR-FIXT
100
AcDbSpline
210
0.0
220
0.0
230
1.0
 70
     8
 71
     3
 72
     8
 73
     4
 74
     0
 42
0.000000001
 43
0.0000000001
 40
0.9285714285714282
 40
0.9285714285714282
 40
0.9285714285714282
 40
0.9285714285714282
 40
1.0
 40
1.0
 40
1.0
 40
1.0
 10
1098.590756772983
 20
2043.957759983086
 30
0.0
 10
1098.104257254146
 20
2043.974082749673
 30
0.0
 10
1097.611702119253
 20
2043.982558850011
 30
0.0
 10
1097.114353943098
 20
2043.982558850011
 30
0.0
  0
LINE
  5
2DE
330
232
100
AcDbEntity
  8
P-SANR-FIXT
100
AcDbLine
 10
1127.092276004433
 20
1925.982558850011
 30
0.0
 11
1101.636431881776
 21
1925.982558850011
 31
0.0
  0
LINE
  5
2DF
330
232
100
AcDbEntity
  8
P-SANR-FIXT
100
AcDbLine
 10
1067.136431881716
 20
1925.982558850011
 30
0.0
 11
1062.614353943127
 21
1925.982558850011
 31
0.0
  0
LINE
  5
2E0
330
232
100
AcDbEntity
  8
P-SANR-FIXT
100
AcDbLine
 10
1067.136431881716
 20
1925.982558850011
 30
0.0
 11
1067.136431881716
 21
1936.482558850011
 31
0.0
  0
LINE
  5
2E1
330
232
100
AcDbEntity
  8
P-SANR-FIXT
100
AcDbLine
 10
1062.614353943127
 20
1936.482558850011
 30
0.0
 11
1062.614353943127
 21
1925.982558850011
 31
0.0
  0
LINE
  5
2E2
330
232
100
AcDbEntity
  8
P-SANR-FIXT
100
AcDbLine
 10
1092.592276004493
 20
1936.482558850011
 30
0.0
 11
1092.592276004493
 21
1925.982558850011
 31
0.0
  0
LINE
  5
2E3
330
232
100
AcDbEntity
  8
P-SANR-FIXT
100
AcDbLine
 10
1097.114353943097
 20
1925.982558850011
 30
0.0
 11
1092.592276004493
 21
1925.982558850011
 31
0.0
  0
LINE
  5
2E4
330
232
100
AcDbEntity
  8
P-SANR-FIXT
100
AcDbLine
 10
1131.614353943127
 20
1925.982558850011
 30
0.0
 11
1127.092276004433
 21
1925.982558850011
 31
0.0
  0
LINE
  5
2E5
330
232
100
AcDbEntity
  8
P-SANR-FIXT
100
AcDbLine
 10
1131.614353943127
 20
1925.982558850011
 30
0.0
 11
1131.614353943127
 21
1936.482558850011
 31
0.0
  0
LINE
  5
2E6
330
232
100
AcDbEntity
  8
P-SANR-FIXT
100
AcDbLine
 10
1127.092276004433
 20
1936.482558850011
 30
0.0
 11
1127.092276004433
 21
1925.982558850011
 31
0.0
  0
LINE
  5
2E7
330
232
100
AcDbEntity
  8
P-SANR-FIXT
100
AcDbLine
 10
1101.636431881777
 20
1925.982558850011
 30
0.0
 11
1097.114353943097
 21
1925.982558850011
 31
0.0
  0
LINE
  5
2E8
330
232
100
AcDbEntity
  8
P-SANR-FIXT
100
AcDbLine
 10
1101.636431881776
 20
1925.982558850011
 30
0.0
 11
1101.636431881776
 21
1936.482558850011
 31
0.0
  0
LINE
  5
2E9
330
232
100
AcDbEntity
  8
P-SANR-FIXT
100
AcDbLine
 10
1067.136431881716
 20
1936.482558850011
 30
0.0
 11
1062.614353943127
 21
1936.482558850011
 31
0.0
  0
LINE
  5
2EA
330
232
100
AcDbEntity
  8
P-SANR-FIXT
100
AcDbLine
 10
1067.136431881716
 20
1936.482558850011
 30
0.0
 11
1092.592276004493
 21
1936.482558850011
 31
0.0
  0
LINE
  5
2EB
330
232
100
AcDbEntity
  8
P-SANR-FIXT
100
AcDbLine
 10
1097.114353943097
 20
1936.482558850011
 30
0.0
 11
1092.592276004493
 21
1936.482558850011
 31
0.0
  0
LINE
  5
2EC
330
232
100
AcDbEntity
  8
P-SANR-FIXT
100
AcDbLine
 10
1101.636431881777
 20
1936.482558850011
 30
0.0
 11
1097.114353943097
 21
1936.482558850011
 31
0.0
  0
LINE
  5
2ED
330
232
100
AcDbEntity
  8
P-SANR-FIXT
100
AcDbLine
 10
1101.636431881776
 20
1936.482558850011
 30
0.0
 11
1127.092276004433
 21
1936.482558850011
 31
0.0
  0
LINE
  5
2EE
330
232
100
AcDbEntity
  8
P-SANR-FIXT
100
AcDbLine
 10
1131.614353943127
 20
1936.482558850011
 30
0.0
 11
1127.092276004433
 21
1936.482558850011
 31
0.0
  0
LINE
  5
2EF
330
232
100
AcDbEntity
  8
P-SANR-FIXT
100
AcDbLine
 10
1097.114353943098
 20
2044.482558850011
 30
0.0
 11
1084.114353943097
 21
2044.482558850011
 31
0.0
  0
LINE
  5
2F0
330
232
100
AcDbEntity
  8
P-SANR-FIXT
100
AcDbLine
 10
1110.114353943098
 20
2044.482558850011
 30
0.0
 11
1097.114353943098
 21
2044.482558850011
 31
0.0
  0
ENDBLK
  5
2F2
330
232
100
AcDbEntity
  8
0
100
AcDbBlockEnd
  0
ENDSEC
  0
SECTION
  2
ENTITIES
  0
INSERT
  5
18A
330
71
100
AcDbEntity
  8
P-SANR-FIXT
100
AcDbBlockReference
  2
Automatic flow rate regulator valve_Caleffi_121 DN15 - 1_2__-859151-Est - Idraulica
 10
0.0
 20
0.0
 30
0.0
1001
REVIT
1002
{
1070
     1
1000
863131
1002
}
1002
{
1070
     5
1000
859151
1002
}
1002
{
1070
     2
1000
-2001160
1002
}
  0
INSERT
  5
231
330
71
100
AcDbEntity
  8
P-SANR-FIXT
100
AcDbBlockReference
  2
Automatic flow rate regulator valve_Caleffi_121 DN15 - 1_2__-V1-Est - Idraulica
 10
0.0
 20
0.0
 30
0.0
1001
REVIT
1002
{
1070
     1
1000
863152
1002
}
1002
{
1070
     5
1000
859151
1002
}
1002
{
1070
     2
1000
-2001160
1002
}
  0
INSERT
  5
2F3
330
71
100
AcDbEntity
  8
P-SANR-FIXT
100
AcDbBlockReference
  2
Automatic flow rate regulator valve_Caleffi_121 DN15 - 1_2__-V2-Est - Idraulica
 10
0.0
 20
0.0
 30
0.0
1001
REVIT
1002
{
1070
     1
1000
863172
1002
}
1002
{
1070
     5
1000
859151
1002
}
1002
{
1070
     2
1000
-2001160
1002
}
  0
ENDSEC
  0
SECTION
  2
OBJECTS
  0
DICTIONARY
  5
C
330
0
100
AcDbDictionary
281
     1
  3
ACAD_CIP_PREVIOUS_PRODUCT_INFO
350
7A
  3
ACAD_COLOR
350
63
  3
ACAD_DETAILVIEWSTYLE
350
6B
  3
ACAD_GROUP
350
D
  3
ACAD_IMAGE_VARS
350
7B
  3
ACAD_LAYOUT
350
62
  3
ACAD_MATERIAL
350
10
  3
ACAD_MLEADERSTYLE
350
66
  3
ACAD_MLINESTYLE
350
5F
  3
ACAD_PLOTSETTINGS
350
61
  3
ACAD_PLOTSTYLENAME
350
E
  3
ACAD_SCALELIST
350
42
  3
ACAD_SECTIONVIEWSTYLE
350
68
  3
ACAD_TABLESTYLE
350
64
  3
ACAD_VISUALSTYLE
350
29
  3
ACDB_RECOMPOSE_DATA
350
2FE
  3
AcDbVariableDictionary
350
7C
  3
REVIT_DICTIONARY
350
2F5
  0
DICTIONARY
  5
2FA
330
71
100
AcDbDictionary
280
     1
281
     1
  3
ACAD_SORTENTS
360
2FB
  0
XRECORD
  5
7A
102
{ACAD_REACTORS
330
C
102
}
330
C
100
AcDbXrecord
280
     1
300
RVT
300
2013
300
RVT2013
  0
DICTIONARY
  5
63
102
{ACAD_REACTORS
330
C
102
}
330
C
100
AcDbDictionary
281
     1
  0
DICTIONARY
  5
6B
102
{ACAD_REACTORS
330
C
102
}
330
C
100
AcDbDictionary
281
     1
  3
Imperial24
350
6C
  0
DICTIONARY
  5
D
102
{ACAD_REACTORS
330
C
102
}
330
C
100
AcDbDictionary
281
     1
  0
RASTERVARIABLES
  5
7B
102
{ACAD_REACTORS
330
C
102
}
330
C
100
AcDbRasterVariables
 90
        0
 70
     0
 71
     1
 72
     1
  0
DICTIONARY
  5
62
102
{ACAD_REACTORS
330
C
102
}
330
C
100
AcDbDictionary
281
     1
  3
Layout1
350
70
  3
Layout2
350
78
  3
Model
350
74
  0
DICTIONARY
  5
10
102
{ACAD_REACTORS
330
C
102
}
330
C
100
AcDbDictionary
281
     1
  3
ByBlock
350
19
  3
ByLayer
350
11
  3
Global
350
21
  0
DICTIONARY
  5
66
102
{ACAD_REACTORS
330
C
102
}
330
C
100
AcDbDictionary
281
     1
  3
Standard
350
67
  0
DICTIONARY
  5
5F
102
{ACAD_REACTORS
330
C
102
}
330
C
100
AcDbDictionary
281
     1
  3
Standard
350
60
  0
DICTIONARY
  5
61
102
{ACAD_REACTORS
330
C
102
}
330
C
100
AcDbDictionary
281
     1
  0
ACDBDICTIONARYWDFLT
  5
E
102
{ACAD_REACTORS
330
C
102
}
330
C
100
AcDbDictionary
281
     1
  3
Normal
350
F
100
AcDbDictionaryWithDefault
340
F
  0
DICTIONARY
  5
42
102
{ACAD_REACTORS
330
C
102
}
330
C
100
AcDbDictionary
281
     1
  3
A0
350
43
  3
A1
350
44
  3
A2
350
45
  3
A3
350
46
  3
A4
350
47
  3
A5
350
48
  3
A6
350
49
  3
A7
350
4A
  3
A8
350
4B
  3
A9
350
4C
  3
B0
350
4D
  3
B1
350
4E
  3
B2
350
4F
  3
B3
350
50
  3
B4
350
51
  3
B5
350
52
  3
B6
350
53
  0
DICTIONARY
  5
68
102
{ACAD_REACTORS
330
C
102
}
330
C
100
AcDbDictionary
281
     1
  3
Imperial24
350
6A
  0
DICTIONARY
  5
64
102
{ACAD_REACTORS
330
C
102
}
330
C
100
AcDbDictionary
281
     1
  3
Standard
350
65
  0
DICTIONARY
  5
29
102
{ACAD_REACTORS
330
C
102
}
330
C
100
AcDbDictionary
281
     1
  3
2dWireframe
350
2F
  3
Basic
350
2E
  3
Brighten
350
35
  3
ColorChange
350
39
  3
Conceptual
350
32
  3
Dim
350
34
  3
EdgeColorOff
350
41
  3
Facepattern
350
38
  3
Flat
350
2A
  3
FlatWithEdges
350
2B
  3
Gouraud
350
2C
  3
GouraudWithEdges
350
2D
  3
Hidden
350
31
  3
JitterOff
350
3F
  3
Linepattern
350
37
  3
OverhangOff
350
40
  3
Realistic
350
33
  3
Shaded
350
3E
  3
Shaded with edges
350
3D
  3
Shades of Gray
350
3A
  3
Sketchy
350
3B
  3
Thicken
350
36
  3
Wireframe
350
30
  3
X-Ray
350
3C
  0
XRECORD
  5
2FE
102
{ACAD_REACTORS
330
C
102
}
330
C
100
AcDbXrecord
280
     1
 90
        1
330
65
  0
DICTIONARY
  5
7C
102
{ACAD_REACTORS
330
C
102
}
330
C
100
AcDbDictionary
281
     1
  3
CANNOSCALE
350
81
  3
CMLEADERSTYLE
350
7E
  3
CTABLESTYLE
350
7D
  3
CVIEWDETAILSTYLE
350
7F
  3
CVIEWSECTIONSTYLE
350
80
  0
DICTIONARY
  5
2F5
102
{ACAD_REACTORS
330
C
102
}
330
C
100
AcDbDictionary
281
     1
  3
DRAWING_TOOL
350
2F9
  3
REVIT_CATEGORY_MAPPING
350
2F7
  3
REVIT_SUB_CATEGORY_MAPPING
350
2F8
  3
REVIT_TYPE_MAPPING
350
2F6
  0
SORTENTSTABLE
  5
2FB
102
{ACAD_REACTORS
330
2FA
102
}
330
2FA
100
AcDbSortentsTable
330
71
  0
ACDBDETAILVIEWSTYLE
  5
6C
102
{ACAD_REACTORS
330
6B
102
}
330
6B
100
AcDbModelDocViewStyle
 70
     0
  3
Imperial24
290
     1
100
AcDbDetailViewStyle
 70
     0
 71
     0
 90
        3
 71
     1
340
55
 62
   256
 40
0.24
340
0
 62
   256
 40
0.24
300

 40
0.36
280
     3
 71
     2
340
5D
 90
       25
 62
   256
 71
     3
340
55
 62
   256
 40
0.24
 90
        1
 40
0.75
 90
        1
300
%<\AcVar ViewType \f "%tc1">% %<\AcVar ViewDetailId>%\PSCALA %<\AcVar ViewScale \f "%sn">%
 71
     4
340
5D
 90
       25
 62
   256
340
5D
 90
       25
 62
   256
280
     0
  0
LAYOUT
  5
70
102
{ACAD_REACTORS
330
62
102
}
330
62
100
AcDbPlotSettings
  1

  2

  4

  6

 40
0.0
 41
0.0
 42
0.0
 43
0.0
 44
0.0
 45
0.0
 46
0.0
 47
0.0
 48
0.0
 49
0.0
140
0.0
141
0.0
142
1.0
143
1.0
 70
   688
 72
     0
 73
     0
 74
     5
  7

 75
    16
147
1.0
 76
     0
 77
     2
 78
   300
148
0.0
149
0.0
100
AcDbLayout
  1
Layout1
 70
     1
 71
     1
 10
0.0
 20
0.0
 11
12.0
 21
9.0
 12
0.0
 22
0.0
 32
0.0
 14
0.0
 24
0.0
 34
0.0
 15
0.0
 25
0.0
 35
0.0
146
0.0
 13
0.0
 23
0.0
 33
0.0
 16
1.0
 26
0.0
 36
0.0
 17
0.0
 27
1.0
 37
0.0
 76
     0
330
6D
  0
LAYOUT
  5
78
102
{ACAD_REACTORS
330
62
102
}
330
62
100
AcDbPlotSettings
  1

  2

  4

  6

 40
0.0
 41
0.0
 42
0.0
 43
0.0
 44
0.0
 45
0.0
 46
0.0
 47
0.0
 48
0.0
 49
0.0
140
0.0
141
0.0
142
1.0
143
1.0
 70
   688
 72
     0
 73
     0
 74
     5
  7

 75
    16
147
1.0
 76
     0
 77
     2
 78
   300
148
0.0
149
0.0
100
AcDbLayout
  1
Layout2
 70
     1
 71
     2
 10
0.0
 20
0.0
 11
12.0
 21
9.0
 12
0.0
 22
0.0
 32
0.0
 14
0.0
 24
0.0
 34
0.0
 15
0.0
 25
0.0
 35
0.0
146
0.0
 13
0.0
 23
0.0
 33
0.0
 16
1.0
 26
0.0
 36
0.0
 17
0.0
 27
1.0
 37
0.0
 76
     0
330
75
  0
LAYOUT
  5
74
102
{ACAD_REACTORS
330
62
102
}
330
62
100
AcDbPlotSettings
  1

  2

  4

  6

 40
0.0
 41
0.0
 42
0.0
 43
0.0
 44
0.0
 45
0.0
 46
0.0
 47
0.0
 48
0.0
 49
0.0
140
0.0
141
0.0
142
1.0
143
1.0
 70
  1712
 72
     0
 73
     0
 74
     0
  7

 75
     0
147
1.0
 76
     0
 77
     2
 78
   300
148
0.0
149
0.0
100
AcDbLayout
  1
Model
 70
     1
 71
     0
 10
0.0
 20
0.0
 11
12.0
 21
9.0
 12
0.0
 22
0.0
 32
0.0
 14
0.0
 24
0.0
 34
0.0
 15
0.0
 25
0.0
 35
0.0
146
0.0
 13
0.0
 23
0.0
 33
0.0
 16
1.0
 26
0.0
 36
0.0
 17
0.0
 27
1.0
 37
0.0
 76
     0
330
71
  0
MATERIAL
  5
19
102
{ACAD_XDICTIONARY
360
1A
102
}
102
{ACAD_REACTORS
330
10
102
}
330
10
100
AcDbMaterial
  1
ByBlock
 72
     0
 43
0.0208333333333333
 43
0.0
 43
0.0
 43
0.0
 43
0.0
 43
0.0208333333333333
 43
0.0
 43
0.0
 43
0.0
 43
0.0
 43
1.0
 43
0.0
 43
0.0
 43
0.0
 43
0.0
 43
1.0
 77
     0
 47
0.0208333333333333
 47
0.0
 47
0.0
 47
0.0
 47
0.0
 47
0.0208333333333333
 47
0.0
 47
0.0
 47
0.0
 47
0.0
 47
1.0
 47
0.0
 47
0.0
 47
0.0
 47
0.0
 47
1.0
171
     0
 49
0.0208333333333333
 49
0.0
 49
0.0
 49
0.0
 49
0.0
 49
0.0208333333333333
 49
0.0
 49
0.0
 49
0.0
 49
0.0
 49
1.0
 49
0.0
 49
0.0
 49
0.0
 49
0.0
 49
1.0
175
     0
142
0.0208333333333333
142
0.0
142
0.0
142
0.0
142
0.0
142
0.0208333333333333
142
0.0
142
0.0
142
0.0
142
0.0
142
1.0
142
0.0
142
0.0
142
0.0
142
0.0
142
1.0
179
     0
144
0.0208333333333333
144
0.0
144
0.0
144
0.0
144
0.0
144
0.0208333333333333
144
0.0
144
0.0
144
0.0
144
0.0
144
1.0
144
0.0
144
0.0
144
0.0
144
0.0
144
1.0
147
0.0208333333333333
147
0.0
147
0.0
147
0.0
147
0.0
147
0.0208333333333333
147
0.0
147
0.0
147
0.0
147
0.0
147
1.0
147
0.0
147
0.0
147
0.0
147
0.0
147
1.0
  0
MATERIAL
  5
11
102
{ACAD_XDICTIONARY
360
12
102
}
102
{ACAD_REACTORS
330
10
102
}
330
10
100
AcDbMaterial
  1
ByLayer
 72
     0
 43
0.0208333333333333
 43
0.0
 43
0.0
 43
0.0
 43
0.0
 43
0.0208333333333333
 43
0.0
 43
0.0
 43
0.0
 43
0.0
 43
1.0
 43
0.0
 43
0.0
 43
0.0
 43
0.0
 43
1.0
 77
     0
 47
0.0208333333333333
 47
0.0
 47
0.0
 47
0.0
 47
0.0
 47
0.0208333333333333
 47
0.0
 47
0.0
 47
0.0
 47
0.0
 47
1.0
 47
0.0
 47
0.0
 47
0.0
 47
0.0
 47
1.0
171
     0
 49
0.0208333333333333
 49
0.0
 49
0.0
 49
0.0
 49
0.0
 49
0.0208333333333333
 49
0.0
 49
0.0
 49
0.0
 49
0.0
 49
1.0
 49
0.0
 49
0.0
 49
0.0
 49
0.0
 49
1.0
175
     0
142
0.0208333333333333
142
0.0
142
0.0
142
0.0
142
0.0
142
0.0208333333333333
142
0.0
142
0.0
142
0.0
142
0.0
142
1.0
142
0.0
142
0.0
142
0.0
142
0.0
142
1.0
179
     0
144
0.0208333333333333
144
0.0
144
0.0
144
0.0
144
0.0
144
0.0208333333333333
144
0.0
144
0.0
144
0.0
144
0.0
144
1.0
144
0.0
144
0.0
144
0.0
144
0.0
144
1.0
147
0.0208333333333333
147
0.0
147
0.0
147
0.0
147
0.0
147
0.0208333333333333
147
0.0
147
0.0
147
0.0
147
0.0
147
1.0
147
0.0
147
0.0
147
0.0
147
0.0
147
1.0
  0
MATERIAL
  5
21
102
{ACAD_XDICTIONARY
360
22
102
}
102
{ACAD_REACTORS
330
10
102
}
330
10
100
AcDbMaterial
  1
Global
 72
     0
 43
0.0208333333333333
 43
0.0
 43
0.0
 43
0.0
 43
0.0
 43
0.0208333333333333
 43
0.0
 43
0.0
 43
0.0
 43
0.0
 43
1.0
 43
0.0
 43
0.0
 43
0.0
 43
0.0
 43
1.0
 77
     0
 47
0.0208333333333333
 47
0.0
 47
0.0
 47
0.0
 47
0.0
 47
0.0208333333333333
 47
0.0
 47
0.0
 47
0.0
 47
0.0
 47
1.0
 47
0.0
 47
0.0
 47
0.0
 47
0.0
 47
1.0
171
     0
 49
0.0208333333333333
 49
0.0
 49
0.0
 49
0.0
 49
0.0
 49
0.0208333333333333
 49
0.0
 49
0.0
 49
0.0
 49
0.0
 49
1.0
 49
0.0
 49
0.0
 49
0.0
 49
0.0
 49
1.0
175
     0
142
0.0208333333333333
142
0.0
142
0.0
142
0.0
142
0.0
142
0.0208333333333333
142
0.0
142
0.0
142
0.0
142
0.0
142
1.0
142
0.0
142
0.0
142
0.0
142
0.0
142
1.0
179
     0
144
0.0208333333333333
144
0.0
144
0.0
144
0.0
144
0.0
144
0.0208333333333333
144
0.0
144
0.0
144
0.0
144
0.0
144
1.0
144
0.0
144
0.0
144
0.0
144
0.0
144
1.0
147
0.0208333333333333
147
0.0
147
0.0
147
0.0
147
0.0
147
0.0208333333333333
147
0.0
147
0.0
147
0.0
147
0.0
147
1.0
147
0.0
147
0.0
147
0.0
147
0.0
147
1.0
  0
MLEADERSTYLE
  5
67
102
{ACAD_REACTORS
330
66
102
}
330
66
100
AcDbMLeaderStyle
179
     2
170
     2
171
     1
172
     0
 90
        2
 40
0.0
 41
0.0
173
     1
 91
-1056964608
340
5B
 92
       -2
290
     1
 42
0.09
291
     1
 43
0.36
  3
Standard
 44
0.18
300

342
55
174
     1
178
     6
175
     1
176
     0
 93
-1056964608
 45
0.18
292
     0
297
     0
 46
0.18
 94
-1056964608
 47
1.0
 49
1.0
140
1.0
293
     1
141
0.0
294
     1
177
     0
142
1.0
295
     1
296
     0
143
0.125
271
     0
272
     9
273
     9
298
     1
  0
MLINESTYLE
  5
60
102
{ACAD_REACTORS
330
5F
102
}
330
5F
100
AcDbMlineStyle
  2
STANDARD
 70
     0
  3

 62
   256
 51
90.0
 52
90.0
 71
     2
 49
0.5
 62
   256
  6
BYLAYER
 49
-0.5
 62
   256
  6
BYLAYER
  0
ACDBPLACEHOLDER
  5
F
102
{ACAD_REACTORS
330
E
102
}
330
E
  0
SCALE
  5
43
102
{ACAD_REACTORS
330
42
102
}
330
42
100
AcDbScale
 70
     0
300
1:1
140
1.0
141
1.0
290
     1
  0
SCALE
  5
44
102
{ACAD_REACTORS
330
42
102
}
330
42
100
AcDbScale
 70
     0
300
1/128" = 1'-0"
140
0.0078125
141
12.0
290
     0
  0
SCALE
  5
45
102
{ACAD_REACTORS
330
42
102
}
330
42
100
AcDbScale
 70
     0
300
1/64" = 1'-0"
140
0.015625
141
12.0
290
     0
  0
SCALE
  5
46
102
{ACAD_REACTORS
330
42
102
}
330
42
100
AcDbScale
 70
     0
300
1/32" = 1'-0"
140
0.03125
141
12.0
290
     0
  0
SCALE
  5
47
102
{ACAD_REACTORS
330
42
102
}
330
42
100
AcDbScale
 70
     0
300
1/16" = 1'-0"
140
0.0625
141
12.0
290
     0
  0
SCALE
  5
48
102
{ACAD_REACTORS
330
42
102
}
330
42
100
AcDbScale
 70
     0
300
3/32" = 1'-0"
140
0.09375
141
12.0
290
     0
  0
SCALE
  5
49
102
{ACAD_REACTORS
330
42
102
}
330
42
100
AcDbScale
 70
     0
300
1/8" = 1'-0"
140
0.125
141
12.0
290
     0
  0
SCALE
  5
4A
102
{ACAD_REACTORS
330
42
102
}
330
42
100
AcDbScale
 70
     0
300
3/16" = 1'-0"
140
0.1875
141
12.0
290
     0
  0
SCALE
  5
4B
102
{ACAD_REACTORS
330
42
102
}
330
42
100
AcDbScale
 70
     0
300
1/4" = 1'-0"
140
0.25
141
12.0
290
     0
  0
SCALE
  5
4C
102
{ACAD_REACTORS
330
42
102
}
330
42
100
AcDbScale
 70
     0
300
3/8" = 1'-0"
140
0.375
141
12.0
290
     0
  0
SCALE
  5
4D
102
{ACAD_REACTORS
330
42
102
}
330
42
100
AcDbScale
 70
     0
300
1/2" = 1'-0"
140
0.5
141
12.0
290
     0
  0
SCALE
  5
4E
102
{ACAD_REACTORS
330
42
102
}
330
42
100
AcDbScale
 70
     0
300
3/4" = 1'-0"
140
0.75
141
12.0
290
     0
  0
SCALE
  5
4F
102
{ACAD_REACTORS
330
42
102
}
330
42
100
AcDbScale
 70
     0
300
1" = 1'-0"
140
1.0
141
12.0
290
     0
  0
SCALE
  5
50
102
{ACAD_REACTORS
330
42
102
}
330
42
100
AcDbScale
 70
     0
300
1-1/2" = 1'-0"
140
1.5
141
12.0
290
     0
  0
SCALE
  5
51
102
{ACAD_REACTORS
330
42
102
}
330
42
100
AcDbScale
 70
     0
300
3" = 1'-0"
140
3.0
141
12.0
290
     0
  0
SCALE
  5
52
102
{ACAD_REACTORS
330
42
102
}
330
42
100
AcDbScale
 70
     0
300
6" = 1'-0"
140
6.0
141
12.0
290
     0
  0
SCALE
  5
53
102
{ACAD_REACTORS
330
42
102
}
330
42
100
AcDbScale
 70
     0
300
1'-0" = 1'-0"
140
12.0
141
12.0
290
     0
  0
ACDBSECTIONVIEWSTYLE
  5
6A
102
{ACAD_REACTORS
330
68
102
}
330
68
100
AcDbModelDocViewStyle
 70
     0
  3
Imperial24
290
     1
100
AcDbSectionViewStyle
 70
     0
 71
     0
 90
       78
 71
     1
340
55
 62
   256
 40
0.24
340
0
340
0
 62
   256
 40
0.24
300
I, O, Q, S, X, Z
 40
0.48
 90
        3
 40
0.18
 90
        1
 71
     2
340
69
 90
       25
 62
   256
340
5D
 90
       50
 62
   256
 40
0.24
 40
0.0
 40
0.24
 71
     3
340
55
 62
   256
 40
0.24
 90
        1
 40
0.75
 90
        1
300
%<\AcVar ViewType \f "%tc1">% %<\AcVar ViewSectionStartId>%-%<\AcVar ViewSectionEndId>%\PSCALA %<\AcVar ViewScale \f "%sn">%
 71
     4
 62
   256
 62
   257
300
ANSI31
 40
1.0
 90
        0
290
     0
290
     0
 90
        6
 40
0.0
 40
1.570796326794896
 40
0.2617993877991494
 40
1.308996938995747
 40
-0.2617993877991494
 40
1.832595714594046
  0
TABLESTYLE
  5
65
102
{ACAD_XDICTIONARY
360
2FC
102
}
102
{ACAD_REACTORS
330
64
102
}
330
64
100
AcDbTableStyle
280
     0
  3
Standard
 70
     0
 71
     0
 40
0.06
 41
0.06
280
     0
281
     0
  7
Standard
140
0.18
170
     2
 62
     0
 63
     7
283
     0
 90
      512
 91
        0
  1

274
    -2
284
     1
 64
     0
275
    -2
285
     1
 65
     0
276
    -2
286
     1
 66
     0
277
    -2
287
     1
 67
     0
278
    -2
288
     1
 68
     0
279
    -2
289
     1
 69
     0
  7
Standard
140
0.25
170
     5
 62
     0
 63
     7
283
     0
 90
      512
 91
        0
  1

274
    -2
284
     1
 64
     0
275
    -2
285
     1
 65
     0
276
    -2
286
     1
 66
     0
277
    -2
287
     1
 67
     0
278
    -2
288
     1
 68
     0
279
    -2
289
     1
 69
     0
  7
Standard
140
0.18
170
     5
 62
     0
 63
     7
283
     0
 90
      512
 91
        0
  1

274
    -2
284
     1
 64
     0
275
    -2
285
     1
 65
     0
276
    -2
286
     1
 66
     0
277
    -2
287
     1
 67
     0
278
    -2
288
     1
 68
     0
279
    -2
289
     1
 69
     0
  0
VISUALSTYLE
  5
2F
102
{ACAD_REACTORS
330
29
102
}
330
29
100
AcDbVisualStyle
  2
2dWireframe
 70
     4
177
     3
291
     0
 70
    58
 90
        0
176
     1
 90
        2
176
     1
 90
        0
176
     1
 90
        0
176
     1
 40
0.6
176
     1
 40
30.0
176
     1
 62
     7
420
 16777215
176
     1
 90
        1
176
     1
 90
        4
176
     1
 62
     7
176
     1
 62
   257
176
     1
 90
        1
176
     1
 90
        1
176
     1
 40
1.0
176
     1
 90
        0
176
     1
 62
   257
176
     1
 40
1.0
176
     1
 90
        1
176
     1
 90
        6
176
     1
 90
        2
176
     1
 62
     7
176
     1
 90
        5
176
     1
 90
        0
176
     1
 90
        0
176
     1
290
     0
176
     1
 90
        1
176
     1
 40
0.0
176
     1
 90
        0
176
     1
290
     1
176
     1
290
     1
176
     1
290
     0
176
     1
290
     0
176
     1
290
     0
176
     1
290
     0
176
     1
290
     0
176
     1
290
     0
176
     1
290
     0
176
     1
 90
       50
176
     1
 40
0.0
176
     1
 40
1.0
176
     1
 90
        0
176
     1
 62
    18
420
        0
176
     1
 90
       50
176
     1
 90
        3
176
     1
 62
     5
420
      255
176
     1
290
     0
176
     1
 90
       50
176
     1
 90
       50
176
     1
 90
       50
176
     1
290
     0
176
     1
 90
       50
176
     1
 62
   256
176
     0
 40
1.0
176
     0
 90
        2
176
     1
  1
strokes_ogs.tif
176
     1
290
     0
176
     1
 40
1.0
176
     1
 40
1.0
176
     1
  0
VISUALSTYLE
  5
2E
102
{ACAD_REACTORS
330
29
102
}
330
29
100
AcDbVisualStyle
  2
Basic
 70
     7
177
     3
291
     1
 70
    58
 90
        1
176
     1
 90
        0
176
     1
 90
        1
176
     1
 90
        0
176
     1
 40
0.6
176
     1
 40
30.0
176
     1
 62
     7
420
 16777215
176
     1
 90
        0
176
     1
 90
        4
176
     1
 62
     7
176
     1
 62
   257
176
     1
 90
        1
176
     1
 90
        1
176
     1
 40
1.0
176
     1
 90
        8
176
     1
 62
     7
176
     1
 40
1.0
176
     1
 90
        1
176
     1
 90
        6
176
     1
 90
        2
176
     1
 62
     7
176
     1
 90
        5
176
     1
 90
        0
176
     1
 90
        0
176
     1
290
     0
176
     1
 90
        1
176
     1
 40
0.0
176
     1
 90
        0
176
     1
290
     0
176
     1
290
     1
176
     1
290
     1
176
     1
290
     0
176
     1
290
     0
176
     1
290
     0
176
     1
290
     0
176
     1
290
     0
176
     1
290
     0
176
     1
 90
       50
176
     1
 40
0.0
176
     1
 40
1.0
176
     1
 90
        0
176
     1
 62
    18
420
        0
176
     1
 90
       50
176
     1
 90
        3
176
     1
 62
     5
420
      255
176
     1
290
     0
176
     1
 90
       50
176
     1
 90
       50
176
     1
 90
       50
176
     1
290
     0
176
     1
 90
       50
176
     1
 62
   256
176
     0
 40
1.0
176
     0
 90
        2
176
     1
  1
strokes_ogs.tif
176
     1
290
     0
176
     1
 40
1.0
176
     1
 40
1.0
176
     1
  0
VISUALSTYLE
  5
35
102
{ACAD_REACTORS
330
29
102
}
330
29
100
AcDbVisualStyle
  2
Brighten
 70
    12
177
     3
291
     1
 70
    58
 90
        2
176
     1
 90
        2
176
     1
 90
        0
176
     1
 90
        0
176
     1
 40
0.6
176
     1
 40
30.0
176
     1
 62
     7
420
 16777215
176
     1
 90
        1
176
     1
 90
        4
176
     1
 62
     7
176
     1
 62
   257
176
     1
 90
        1
176
     1
 90
        1
176
     1
 40
1.0
176
     1
 90
        8
176
     1
 62
     7
176
     1
 40
1.0
176
     1
 90
        1
176
     1
 90
        6
176
     1
 90
        2
176
     1
 62
     7
176
     1
 90
        5
176
     1
 90
        0
176
     1
 90
        0
176
     1
290
     0
176
     1
 90
        1
176
     1
 40
50.0
176
     1
 90
        0
176
     1
290
     0
176
     1
290
     1
176
     1
290
     1
176
     1
290
     0
176
     1
290
     0
176
     1
290
     0
176
     1
290
     0
176
     1
290
     0
176
     1
290
     0
176
     1
 90
       50
176
     1
 40
0.0
176
     1
 40
1.0
176
     1
 90
        0
176
     1
 62
    18
420
        0
176
     1
 90
       50
176
     1
 90
        3
176
     1
 62
     5
420
      255
176
     1
290
     0
176
     1
 90
       50
176
     1
 90
       50
176
     1
 90
       50
176
     1
290
     0
176
     1
 90
       50
176
     1
 62
   256
176
     0
 40
1.0
176
     0
 90
        2
176
     1
  1
strokes_ogs.tif
176
     1
290
     0
176
     1
 40
1.0
176
     1
 40
1.0
176
     1
  0
VISUALSTYLE
  5
39
102
{ACAD_REACTORS
330
29
102
}
330
29
100
AcDbVisualStyle
  2
ColorChange
 70
    16
177
     3
291
     1
 70
    58
 90
        2
176
     1
 90
        2
176
     1
 90
        3
176
     1
 90
        0
176
     1
 40
0.6
176
     1
 40
30.0
176
     1
 62
     8
420
  8421504
176
     1
 90
        1
176
     1
 90
        4
176
     1
 62
     7
176
     1
 62
   257
176
     1
 90
        1
176
     1
 90
        1
176
     1
 40
1.0
176
     1
 90
        8
176
     1
 62
     8
420
  8421504
176
     1
 40
1.0
176
     1
 90
        1
176
     1
 90
        6
176
     1
 90
        2
176
     1
 62
     7
176
     1
 90
        5
176
     1
 90
        0
176
     1
 90
        0
176
     1
290
     0
176
     1
 90
        1
176
     1
 40
0.0
176
     1
 90
        0
176
     1
290
     0
176
     1
290
     1
176
     1
290
     1
176
     1
290
     0
176
     1
290
     0
176
     1
290
     0
176
     1
290
     0
176
     1
290
     0
176
     1
290
     0
176
     1
 90
       50
176
     1
 40
0.0
176
     1
 40
1.0
176
     1
 90
        0
176
     1
 62
    18
420
        0
176
     1
 90
       50
176
     1
 90
        3
176
     1
 62
     5
420
      255
176
     1
290
     0
176
     1
 90
       50
176
     1
 90
       50
176
     1
 90
       50
176
     1
290
     0
176
     1
 90
       50
176
     1
 62
   256
176
     0
 40
1.0
176
     0
 90
        2
176
     1
  1
strokes_ogs.tif
176
     1
290
     0
176
     1
 40
1.0
176
     1
 40
1.0
176
     1
  0
VISUALSTYLE
  5
32
102
{ACAD_REACTORS
330
29
102
}
330
29
100
AcDbVisualStyle
  2
Conceptual
 70
     9
177
     3
291
     0
 70
    58
 90
        3
176
     1
 90
        2
176
     1
 90
        0
176
     1
 90
        0
176
     1
 40
0.6
176
     1
 40
30.0
176
     1
 62
     7
420
 16777215
176
     1
 90
        2
176
     1
 90
        2
176
     1
 62
     7
176
     1
 62
   257
176
     1
 90
        1
176
     1
 90
        1
176
     1
 40
179.0
176
     1
 90
        8
176
     1
 62
     7
176
     1
 40
1.0
176
     1
 90
        1
176
     1
 90
        6
176
     1
 90
        2
176
     1
 62
     7
176
     1
 90
        3
176
     1
 90
        0
176
     1
 90
        0
176
     1
290
     0
176
     1
 90
        1
176
     1
 40
0.0
176
     1
 90
        0
176
     1
290
     0
176
     1
290
     1
176
     1
290
     1
176
     1
290
     0
176
     1
290
     0
176
     1
290
     0
176
     1
290
     0
176
     1
290
     0
176
     1
290
     0
176
     1
 90
       50
176
     1
 40
0.0
176
     1
 40
1.0
176
     1
 90
        0
176
     1
 62
    18
420
        0
176
     1
 90
       50
176
     1
 90
        3
176
     1
 62
     5
420
      255
176
     1
290
     0
176
     1
 90
       50
176
     1
 90
       50
176
     1
 90
       50
176
     1
290
     0
176
     1
 90
       50
176
     1
 62
   256
176
     0
 40
1.0
176
     0
 90
        2
176
     1
  1
strokes_ogs.tif
176
     1
290
     0
176
     1
 40
1.0
176
     1
 40
1.0
176
     1
  0
VISUALSTYLE
  5
34
102
{ACAD_REACTORS
330
29
102
}
330
29
100
AcDbVisualStyle
  2
Dim
 70
    11
177
     3
291
     1
 70
    58
 90
        2
176
     1
 90
        2
176
     1
 90
        0
176
     1
 90
        0
176
     1
 40
0.6
176
     1
 40
30.0
176
     1
 62
     7
420
 16777215
176
     1
 90
        1
176
     1
 90
        4
176
     1
 62
     7
176
     1
 62
   257
176
     1
 90
        1
176
     1
 90
        1
176
     1
 40
1.0
176
     1
 90
        8
176
     1
 62
     7
176
     1
 40
1.0
176
     1
 90
        1
176
     1
 90
        6
176
     1
 90
        2
176
     1
 62
     7
176
     1
 90
        5
176
     1
 90
        0
176
     1
 90
        0
176
     1
290
     0
176
     1
 90
        1
176
     1
 40
-50.0
176
     1
 90
        0
176
     1
290
     0
176
     1
290
     1
176
     1
290
     1
176
     1
290
     0
176
     1
290
     0
176
     1
290
     0
176
     1
290
     0
176
     1
290
     0
176
     1
290
     0
176
     1
 90
       50
176
     1
 40
0.0
176
     1
 40
1.0
176
     1
 90
        0
176
     1
 62
    18
420
        0
176
     1
 90
       50
176
     1
 90
        3
176
     1
 62
     5
420
      255
176
     1
290
     0
176
     1
 90
       50
176
     1
 90
       50
176
     1
 90
       50
176
     1
290
     0
176
     1
 90
       50
176
     1
 62
   256
176
     0
 40
1.0
176
     0
 90
        2
176
     1
  1
strokes_ogs.tif
176
     1
290
     0
176
     1
 40
1.0
176
     1
 40
1.0
176
     1
  0
VISUALSTYLE
  5
41
102
{ACAD_REACTORS
330
29
102
}
330
29
100
AcDbVisualStyle
  2
EdgeColorOff
 70
    22
177
     3
291
     1
 70
    58
 90
        2
176
     0
 90
        2
176
     0
 90
        0
176
     0
 90
        0
176
     0
 40
0.6
176
     0
 40
30.0
176
     0
 62
     7
420
 16777215
176
     0
 90
        1
176
     0
 90
        4
176
     0
 62
     7
176
     0
 62
   257
176
     0
 90
        1
176
     0
 90
        1
176
     0
 40
1.0
176
     0
 90
        8
176
     2
 62
     7
176
     0
 40
1.0
176
     0
 90
        1
176
     0
 90
        6
176
     0
 90
        2
176
     0
 62
     7
176
     0
 90
        5
176
     0
 90
        0
176
     0
 90
        0
176
     0
290
     0
176
     0
 90
        1
176
     0
 40
0.0
176
     0
 90
        0
176
     0
290
     0
176
     0
290
     1
176
     0
290
     1
176
     0
290
     0
176
     0
290
     0
176
     0
290
     0
176
     0
290
     0
176
     0
290
     0
176
     0
290
     0
176
     0
 90
       50
176
     0
 40
0.0
176
     0
 40
1.0
176
     0
 90
        0
176
     0
 62
    18
420
        0
176
     0
 90
       50
176
     0
 90
        3
176
     0
 62
     5
420
      255
176
     0
290
     0
176
     0
 90
       50
176
     0
 90
       50
176
     0
 90
       50
176
     0
290
     0
176
     0
 90
       50
176
     0
 62
   256
176
     0
 40
1.0
176
     0
 90
        2
176
     0
  1
strokes_ogs.tif
176
     0
290
     0
176
     0
 40
1.0
176
     0
 40
1.0
176
     0
  0
VISUALSTYLE
  5
38
102
{ACAD_REACTORS
330
29
102
}
330
29
100
AcDbVisualStyle
  2
Facepattern
 70
    15
177
     3
291
     1
 70
    58
 90
        2
176
     1
 90
        2
176
     1
 90
        0
176
     1
 90
        0
176
     1
 40
0.6
176
     1
 40
30.0
176
     1
 62
     7
420
 16777215
176
     1
 90
        1
176
     1
 90
        4
176
     1
 62
     7
176
     1
 62
   257
176
     1
 90
        1
176
     1
 90
        1
176
     1
 40
1.0
176
     1
 90
        8
176
     1
 62
     7
176
     1
 40
1.0
176
     1
 90
        1
176
     1
 90
        6
176
     1
 90
        2
176
     1
 62
     7
176
     1
 90
        5
176
     1
 90
        0
176
     1
 90
        0
176
     1
290
     0
176
     1
 90
        1
176
     1
 40
0.0
176
     1
 90
        0
176
     1
290
     0
176
     1
290
     1
176
     1
290
     1
176
     1
290
     0
176
     1
290
     0
176
     1
290
     0
176
     1
290
     0
176
     1
290
     0
176
     1
290
     0
176
     1
 90
       50
176
     1
 40
0.0
176
     1
 40
1.0
176
     1
 90
        0
176
     1
 62
    18
420
        0
176
     1
 90
       50
176
     1
 90
        3
176
     1
 62
     5
420
      255
176
     1
290
     0
176
     1
 90
       50
176
     1
 90
       50
176
     1
 90
       50
176
     1
290
     0
176
     1
 90
       50
176
     1
 62
   256
176
     0
 40
1.0
176
     0
 90
        2
176
     1
  1
strokes_ogs.tif
176
     1
290
     0
176
     1
 40
1.0
176
     1
 40
1.0
176
     1
  0
VISUALSTYLE
  5
2A
102
{ACAD_REACTORS
330
29
102
}
330
29
100
AcDbVisualStyle
  2
Flat
 70
     0
177
     3
291
     1
 70
    58
 90
        2
176
     1
 90
        1
176
     1
 90
        1
176
     1
 90
        2
176
     1
 40
0.6
176
     1
 40
30.0
176
     1
 62
     7
420
 16777215
176
     1
 90
        0
176
     1
 90
        0
176
     1
 62
     7
176
     1
 62
   257
176
     1
 90
        1
176
     1
 90
        1
176
     1
 40
1.0
176
     1
 90
        8
176
     1
 62
     7
176
     1
 40
1.0
176
     1
 90
        1
176
     1
 90
        6
176
     1
 90
        2
176
     1
 62
     7
176
     1
 90
        5
176
     1
 90
        0
176
     1
 90
        0
176
     1
290
     0
176
     1
 90
       13
176
     1
 40
0.0
176
     1
 90
        0
176
     1
290
     0
176
     1
290
     1
176
     1
290
     1
176
     1
290
     0
176
     1
290
     0
176
     1
290
     0
176
     1
290
     0
176
     1
290
     0
176
     1
290
     0
176
     1
 90
       50
176
     1
 40
0.0
176
     1
 40
1.0
176
     1
 90
        0
176
     1
 62
    18
420
        0
176
     1
 90
       50
176
     1
 90
        3
176
     1
 62
     5
420
      255
176
     1
290
     0
176
     1
 90
       50
176
     1
 90
       50
176
     1
 90
       50
176
     1
290
     0
176
     1
 90
       50
176
     1
 62
   256
176
     0
 40
1.0
176
     0
 90
        2
176
     1
  1
strokes_ogs.tif
176
     1
290
     0
176
     1
 40
1.0
176
     1
 40
1.0
176
     1
  0
VISUALSTYLE
  5
2B
102
{ACAD_REACTORS
330
29
102
}
330
29
100
AcDbVisualStyle
  2
FlatWithEdges
 70
     1
177
     3
291
     1
 70
    58
 90
        2
176
     1
 90
        1
176
     1
 90
        1
176
     1
 90
        2
176
     1
 40
0.6
176
     1
 40
30.0
176
     1
 62
     7
420
 16777215
176
     1
 90
        1
176
     1
 90
        0
176
     1
 62
     7
176
     1
 62
   257
176
     1
 90
        1
176
     1
 90
        1
176
     1
 40
1.0
176
     1
 90
        0
176
     1
 62
   257
176
     1
 40
1.0
176
     1
 90
        1
176
     1
 90
        6
176
     1
 90
        2
176
     1
 62
     7
176
     1
 90
        5
176
     1
 90
        0
176
     1
 90
        0
176
     1
290
     0
176
     1
 90
       13
176
     1
 40
0.0
176
     1
 90
        0
176
     1
290
     0
176
     1
290
     1
176
     1
290
     1
176
     1
290
     0
176
     1
290
     0
176
     1
290
     0
176
     1
290
     0
176
     1
290
     0
176
     1
290
     0
176
     1
 90
       50
176
     1
 40
0.0
176
     1
 40
1.0
176
     1
 90
        0
176
     1
 62
    18
420
        0
176
     1
 90
       50
176
     1
 90
        3
176
     1
 62
     5
420
      255
176
     1
290
     0
176
     1
 90
       50
176
     1
 90
       50
176
     1
 90
       50
176
     1
290
     0
176
     1
 90
       50
176
     1
 62
   256
176
     0
 40
1.0
176
     0
 90
        2
176
     1
  1
strokes_ogs.tif
176
     1
290
     0
176
     1
 40
1.0
176
     1
 40
1.0
176
     1
  0
VISUALSTYLE
  5
2C
102
{ACAD_REACTORS
330
29
102
}
330
29
100
AcDbVisualStyle
  2
Gouraud
 70
     2
177
     3
291
     1
 70
    58
 90
        2
176
     1
 90
        2
176
     1
 90
        1
176
     1
 90
        2
176
     1
 40
0.6
176
     1
 40
30.0
176
     1
 62
     7
420
 16777215
176
     1
 90
        0
176
     1
 90
        0
176
     1
 62
     7
176
     1
 62
   257
176
     1
 90
        1
176
     1
 90
        1
176
     1
 40
1.0
176
     1
 90
        0
176
     1
 62
     7
176
     1
 40
1.0
176
     1
 90
        1
176
     1
 90
        6
176
     1
 90
        2
176
     1
 62
     7
176
     1
 90
        5
176
     1
 90
        0
176
     1
 90
        0
176
     1
290
     0
176
     1
 90
       13
176
     1
 40
0.0
176
     1
 90
        0
176
     1
290
     0
176
     1
290
     1
176
     1
290
     1
176
     1
290
     0
176
     1
290
     0
176
     1
290
     0
176
     1
290
     0
176
     1
290
     0
176
     1
290
     0
176
     1
 90
       50
176
     1
 40
0.0
176
     1
 40
1.0
176
     1
 90
        0
176
     1
 62
    18
420
        0
176
     1
 90
       50
176
     1
 90
        3
176
     1
 62
     5
420
      255
176
     1
290
     0
176
     1
 90
       50
176
     1
 90
       50
176
     1
 90
       50
176
     1
290
     0
176
     1
 90
       50
176
     1
 62
   256
176
     0
 40
1.0
176
     0
 90
        2
176
     1
  1
strokes_ogs.tif
176
     1
290
     0
176
     1
 40
1.0
176
     1
 40
1.0
176
     1
  0
VISUALSTYLE
  5
2D
102
{ACAD_REACTORS
330
29
102
}
330
29
100
AcDbVisualStyle
  2
GouraudWithEdges
 70
     3
177
     3
291
     1
 70
    58
 90
        2
176
     1
 90
        2
176
     1
 90
        1
176
     1
 90
        2
176
     1
 40
0.6
176
     1
 40
30.0
176
     1
 62
     7
420
 16777215
176
     1
 90
        1
176
     1
 90
        0
176
     1
 62
     7
176
     1
 62
   257
176
     1
 90
        1
176
     1
 90
        1
176
     1
 40
1.0
176
     1
 90
        0
176
     1
 62
   257
176
     1
 40
1.0
176
     1
 90
        1
176
     1
 90
        6
176
     1
 90
        2
176
     1
 62
     7
176
     1
 90
        5
176
     1
 90
        0
176
     1
 90
        0
176
     1
290
     0
176
     1
 90
       13
176
     1
 40
0.0
176
     1
 90
        0
176
     1
290
     0
176
     1
290
     1
176
     1
290
     1
176
     1
290
     0
176
     1
290
     0
176
     1
290
     0
176
     1
290
     0
176
     1
290
     0
176
     1
290
     0
176
     1
 90
       50
176
     1
 40
0.0
176
     1
 40
1.0
176
     1
 90
        0
176
     1
 62
    18
420
        0
176
     1
 90
       50
176
     1
 90
        3
176
     1
 62
     5
420
      255
176
     1
290
     0
176
     1
 90
       50
176
     1
 90
       50
176
     1
 90
       50
176
     1
290
     0
176
     1
 90
       50
176
     1
 62
   256
176
     0
 40
1.0
176
     0
 90
        2
176
     1
  1
strokes_ogs.tif
176
     1
290
     0
176
     1
 40
1.0
176
     1
 40
1.0
176
     1
  0
VISUALSTYLE
  5
31
102
{ACAD_REACTORS
330
29
102
}
330
29
100
AcDbVisualStyle
  2
Hidden
 70
     6
177
     3
291
     0
 70
    58
 90
        1
176
     1
 90
        2
176
     1
 90
        2
176
     1
 90
        0
176
     1
 40
0.6
176
     1
 40
30.0
176
     1
 62
     7
420
 16777215
176
     1
 90
        2
176
     1
 90
        2
176
     1
 62
     7
176
     1
 62
   257
176
     1
 90
        2
176
     1
 90
        1
176
     1
 40
40.0
176
     1
 90
        0
176
     1
 62
   257
176
     1
 40
1.0
176
     1
 90
        1
176
     1
 90
        6
176
     1
 90
        2
176
     1
 62
     7
176
     1
 90
        3
176
     1
 90
        0
176
     1
 90
        0
176
     1
290
     0
176
     1
 90
        1
176
     1
 40
0.0
176
     1
 90
        0
176
     1
290
     0
176
     1
290
     1
176
     1
290
     1
176
     1
290
     0
176
     1
290
     0
176
     1
290
     0
176
     1
290
     0
176
     1
290
     0
176
     1
290
     0
176
     1
 90
       50
176
     1
 40
0.0
176
     1
 40
1.0
176
     1
 90
        0
176
     1
 62
    18
420
        0
176
     1
 90
       50
176
     1
 90
        3
176
     1
 62
     5
420
      255
176
     1
290
     0
176
     1
 90
       50
176
     1
 90
       50
176
     1
 90
       50
176
     1
290
     0
176
     1
 90
       50
176
     1
 62
   256
176
     0
 40
1.0
176
     0
 90
        2
176
     1
  1
strokes_ogs.tif
176
     1
290
     0
176
     1
 40
1.0
176
     1
 40
1.0
176
     1
  0
VISUALSTYLE
  5
3F
102
{ACAD_REACTORS
330
29
102
}
330
29
100
AcDbVisualStyle
  2
JitterOff
 70
    20
177
     3
291
     1
 70
    58
 90
        2
176
     0
 90
        2
176
     0
 90
        0
176
     0
 90
        0
176
     0
 40
0.6
176
     0
 40
30.0
176
     0
 62
     7
420
 16777215
176
     0
 90
        1
176
     0
 90
        4
176
     0
 62
     7
176
     0
 62
   257
176
     0
 90
        1
176
     0
 90
        1
176
     0
 40
1.0
176
     0
 90
       10
176
     2
 62
     7
176
     0
 40
1.0
176
     0
 90
        1
176
     0
 90
        6
176
     0
 90
        2
176
     0
 62
     7
176
     0
 90
        5
176
     0
 90
        0
176
     0
 90
        0
176
     0
290
     0
176
     0
 90
        1
176
     0
 40
0.0
176
     0
 90
        0
176
     0
290
     0
176
     0
290
     1
176
     0
290
     1
176
     0
290
     0
176
     0
290
     0
176
     0
290
     0
176
     0
290
     0
176
     0
290
     0
176
     0
290
     0
176
     0
 90
       50
176
     0
 40
0.0
176
     0
 40
1.0
176
     0
 90
        0
176
     0
 62
    18
420
        0
176
     0
 90
       50
176
     0
 90
        3
176
     0
 62
     5
420
      255
176
     0
290
     0
176
     0
 90
       50
176
     0
 90
       50
176
     0
 90
       50
176
     0
290
     0
176
     0
 90
       50
176
     0
 62
   256
176
     0
 40
1.0
176
     0
 90
        2
176
     0
  1
strokes_ogs.tif
176
     0
290
     0
176
     0
 40
1.0
176
     0
 40
1.0
176
     0
  0
VISUALSTYLE
  5
37
102
{ACAD_REACTORS
330
29
102
}
330
29
100
AcDbVisualStyle
  2
Linepattern
 70
    14
177
     3
291
     1
 70
    58
 90
        2
176
     1
 90
        2
176
     1
 90
        0
176
     1
 90
        0
176
     1
 40
0.6
176
     1
 40
30.0
176
     1
 62
     7
420
 16777215
176
     1
 90
        1
176
     1
 90
        4
176
     1
 62
     7
176
     1
 62
   257
176
     1
 90
        7
176
     1
 90
        7
176
     1
 40
1.0
176
     1
 90
        8
176
     1
 62
     7
176
     1
 40
1.0
176
     1
 90
        1
176
     1
 90
        6
176
     1
 90
        2
176
     1
 62
     7
176
     1
 90
        5
176
     1
 90
        0
176
     1
 90
        0
176
     1
290
     0
176
     1
 90
        1
176
     1
 40
0.0
176
     1
 90
        0
176
     1
290
     0
176
     1
290
     1
176
     1
290
     1
176
     1
290
     0
176
     1
290
     0
176
     1
290
     0
176
     1
290
     0
176
     1
290
     0
176
     1
290
     0
176
     1
 90
       50
176
     1
 40
0.0
176
     1
 40
1.0
176
     1
 90
        0
176
     1
 62
    18
420
        0
176
     1
 90
       50
176
     1
 90
        3
176
     1
 62
     5
420
      255
176
     1
290
     0
176
     1
 90
       50
176
     1
 90
       50
176
     1
 90
       50
176
     1
290
     0
176
     1
 90
       50
176
     1
 62
   256
176
     0
 40
1.0
176
     0
 90
        2
176
     1
  1
strokes_ogs.tif
176
     1
290
     0
176
     1
 40
1.0
176
     1
 40
1.0
176
     1
  0
VISUALSTYLE
  5
40
102
{ACAD_REACTORS
330
29
102
}
330
29
100
AcDbVisualStyle
  2
OverhangOff
 70
    21
177
     3
291
     1
 70
    58
 90
        2
176
     0
 90
        2
176
     0
 90
        0
176
     0
 90
        0
176
     0
 40
0.6
176
     0
 40
30.0
176
     0
 62
     7
420
 16777215
176
     0
 90
        1
176
     0
 90
        4
176
     0
 62
     7
176
     0
 62
   257
176
     0
 90
        1
176
     0
 90
        1
176
     0
 40
1.0
176
     0
 90
        9
176
     2
 62
     7
176
     0
 40
1.0
176
     0
 90
        1
176
     0
 90
        6
176
     0
 90
        2
176
     0
 62
     7
176
     0
 90
        5
176
     0
 90
        0
176
     0
 90
        0
176
     0
290
     0
176
     0
 90
        1
176
     0
 40
0.0
176
     0
 90
        0
176
     0
290
     0
176
     0
290
     1
176
     0
290
     1
176
     0
290
     0
176
     0
290
     0
176
     0
290
     0
176
     0
290
     0
176
     0
290
     0
176
     0
290
     0
176
     0
 90
       50
176
     0
 40
0.0
176
     0
 40
1.0
176
     0
 90
        0
176
     0
 62
    18
420
        0
176
     0
 90
       50
176
     0
 90
        3
176
     0
 62
     5
420
      255
176
     0
290
     0
176
     0
 90
       50
176
     0
 90
       50
176
     0
 90
       50
176
     0
290
     0
176
     0
 90
       50
176
     0
 62
   256
176
     0
 40
1.0
176
     0
 90
        2
176
     0
  1
strokes_ogs.tif
176
     0
290
     0
176
     0
 40
1.0
176
     0
 40
1.0
176
     0
  0
VISUALSTYLE
  5
33
102
{ACAD_REACTORS
330
29
102
}
330
29
100
AcDbVisualStyle
  2
Realistic
 70
     8
177
     3
291
     0
 70
    58
 90
        2
176
     1
 90
        3
176
     1
 90
        0
176
     1
 90
        2
176
     1
 40
0.6
176
     1
 40
30.0
176
     1
 62
     7
420
 16777215
176
     1
 90
        0
176
     1
 90
        0
176
     1
 62
     7
176
     1
 62
   257
176
     1
 90
        1
176
     1
 90
        1
176
     1
 40
1.0
176
     1
 90
        8
176
     1
 62
   257
176
     1
 40
1.0
176
     1
 90
        1
176
     1
 90
        6
176
     1
 90
        2
176
     1
 62
     7
176
     1
 90
        3
176
     1
 90
        0
176
     1
 90
        0
176
     1
290
     0
176
     1
 90
       13
176
     1
 40
0.0
176
     1
 90
        0
176
     1
290
     0
176
     1
290
     1
176
     1
290
     1
176
     1
290
     0
176
     1
290
     0
176
     1
290
     0
176
     1
290
     0
176
     1
290
     0
176
     1
290
     0
176
     1
 90
       50
176
     1
 40
0.0
176
     1
 40
1.0
176
     1
 90
        0
176
     1
 62
    18
420
        0
176
     1
 90
       50
176
     1
 90
        3
176
     1
 62
     5
420
      255
176
     1
290
     0
176
     1
 90
       50
176
     1
 90
       50
176
     1
 90
       50
176
     1
290
     0
176
     1
 90
       50
176
     1
 62
   256
176
     0
 40
1.0
176
     0
 90
        2
176
     1
  1
strokes_ogs.tif
176
     1
290
     0
176
     1
 40
1.0
176
     1
 40
1.0
176
     1
  0
VISUALSTYLE
  5
3E
102
{ACAD_REACTORS
330
29
102
}
330
29
100
AcDbVisualStyle
  2
Shaded
 70
    27
177
     3
291
     0
 70
    58
 90
        2
176
     1
 90
        2
176
     1
 90
        1
176
     1
 90
        2
176
     1
 40
0.6
176
     1
 40
30.0
176
     1
 62
     7
420
 16777215
176
     1
 90
        0
176
     1
 90
        4
176
     1
 62
     7
176
     1
 62
   257
176
     1
 90
        1
176
     1
 90
        1
176
     1
 40
1.0
176
     1
 90
        8
176
     1
 62
   257
176
     1
 40
1.0
176
     1
 90
        1
176
     1
 90
        6
176
     1
 90
        2
176
     1
 62
     8
420
  7895160
176
     1
 90
        3
176
     1
 90
        0
176
     1
 90
        0
176
     1
290
     0
176
     1
 90
        5
176
     1
 40
0.0
176
     1
 90
        0
176
     1
290
     0
176
     1
290
     1
176
     1
290
     1
176
     1
290
     0
176
     1
290
     0
176
     1
290
     0
176
     1
290
     0
176
     1
290
     0
176
     1
290
     0
176
     1
 90
       50
176
     1
 40
0.0
176
     1
 40
1.0
176
     1
 90
        0
176
     1
 62
    18
420
        0
176
     1
 90
       50
176
     1
 90
        3
176
     1
 62
     5
420
      255
176
     1
290
     0
176
     1
 90
       50
176
     1
 90
       50
176
     1
 90
       50
176
     1
290
     0
176
     1
 90
       50
176
     1
 62
   256
176
     0
 40
1.0
176
     0
 90
        2
176
     1
  1
strokes_ogs.tif
176
     1
290
     0
176
     1
 40
1.0
176
     1
 40
1.0
176
     1
  0
VISUALSTYLE
  5
3D
102
{ACAD_REACTORS
330
29
102
}
330
29
100
AcDbVisualStyle
  2
Shaded with edges
 70
    26
177
     3
291
     0
 70
    58
 90
        2
176
     1
 90
        2
176
     1
 90
        1
176
     1
 90
        2
176
     1
 40
0.6
176
     1
 40
30.0
176
     1
 62
     7
420
 16777215
176
     1
 90
        1
176
     1
 90
       10
176
     1
 62
     7
176
     1
 62
   257
176
     1
 90
        2
176
     1
 90
        1
176
     1
 40
1.0
176
     1
 90
        8
176
     1
 62
   257
176
     1
 40
1.0
176
     1
 90
        1
176
     1
 90
        6
176
     1
 90
        2
176
     1
 62
     7
176
     1
 90
        3
176
     1
 90
        0
176
     1
 90
        0
176
     1
290
     0
176
     1
 90
        5
176
     1
 40
0.0
176
     1
 90
        0
176
     1
290
     0
176
     1
290
     1
176
     1
290
     1
176
     1
290
     0
176
     1
290
     0
176
     1
290
     0
176
     1
290
     0
176
     1
290
     0
176
     1
290
     0
176
     1
 90
       50
176
     1
 40
0.0
176
     1
 40
1.0
176
     1
 90
        0
176
     1
 62
    18
420
        0
176
     1
 90
       50
176
     1
 90
        3
176
     1
 62
     5
420
      255
176
     1
290
     0
176
     1
 90
       50
176
     1
 90
       50
176
     1
 90
       50
176
     1
290
     0
176
     1
 90
       50
176
     1
 62
   256
176
     0
 40
1.0
176
     0
 90
        2
176
     1
  1
strokes_ogs.tif
176
     1
290
     0
176
     1
 40
1.0
176
     1
 40
1.0
176
     1
  0
VISUALSTYLE
  5
3A
102
{ACAD_REACTORS
330
29
102
}
330
29
100
AcDbVisualStyle
  2
Shades of Gray
 70
    23
177
     3
291
     0
 70
    58
 90
        2
176
     1
 90
        2
176
     1
 90
        3
176
     1
 90
        0
176
     1
 40
0.6
176
     1
 40
30.0
176
     1
 62
     7
420
 16777215
176
     1
 90
        2
176
     1
 90
        2
176
     1
 62
     7
176
     1
 62
     7
176
     1
 90
        1
176
     1
 90
        1
176
     1
 40
40.0
176
     1
 90
        8
176
     1
 62
     7
176
     1
 40
1.0
176
     1
 90
        1
176
     1
 90
        6
176
     1
 90
        2
176
     1
 62
     7
176
     1
 90
        3
176
     1
 90
        0
176
     1
 90
        0
176
     1
290
     0
176
     1
 90
        1
176
     1
 40
0.0
176
     1
 90
        0
176
     1
290
     0
176
     1
290
     1
176
     1
290
     1
176
     1
290
     0
176
     1
290
     0
176
     1
290
     0
176
     1
290
     0
176
     1
290
     0
176
     1
290
     0
176
     1
 90
       50
176
     1
 40
0.0
176
     1
 40
1.0
176
     1
 90
        0
176
     1
 62
    18
420
        0
176
     1
 90
       50
176
     1
 90
        3
176
     1
 62
     5
420
      255
176
     1
290
     0
176
     1
 90
       50
176
     1
 90
       50
176
     1
 90
       50
176
     1
290
     0
176
     1
 90
       50
176
     1
 62
   256
176
     0
 40
1.0
176
     0
 90
        2
176
     1
  1
strokes_ogs.tif
176
     1
290
     0
176
     1
 40
1.0
176
     1
 40
1.0
176
     1
  0
VISUALSTYLE
  5
3B
102
{ACAD_REACTORS
330
29
102
}
330
29
100
AcDbVisualStyle
  2
Sketchy
 70
    24
177
     3
291
     0
 70
    58
 90
        1
176
     1
 90
        2
176
     1
 90
        2
176
     1
 90
        0
176
     1
 40
0.6
176
     1
 40
30.0
176
     1
 62
     7
420
 16777215
176
     1
 90
        2
176
     1
 90
        2
176
     1
 62
     7
176
     1
 62
     7
176
     1
 90
        1
176
     1
 90
        1
176
     1
 40
40.0
176
     1
 90
       11
176
     1
 62
     7
176
     1
 40
1.0
176
     1
 90
        1
176
     1
 90
        6
176
     1
 90
        2
176
     1
 62
     7
176
     1
 90
        6
176
     1
 90
        0
176
     1
 90
        0
176
     1
290
     0
176
     1
 90
        1
176
     1
 40
0.0
176
     1
 90
        0
176
     1
290
     0
176
     1
290
     1
176
     1
290
     1
176
     1
290
     0
176
     1
290
     0
176
     1
290
     0
176
     1
290
     0
176
     1
290
     0
176
     1
290
     0
176
     1
 90
       50
176
     1
 40
0.0
176
     1
 40
1.0
176
     1
 90
        0
176
     1
 62
    18
420
        0
176
     1
 90
       50
176
     1
 90
        3
176
     1
 62
     5
420
      255
176
     1
290
     0
176
     1
 90
       50
176
     1
 90
       50
176
     1
 90
       50
176
     1
290
     0
176
     1
 90
       50
176
     1
 62
   256
176
     0
 40
1.0
176
     0
 90
        2
176
     1
  1
strokes_ogs.tif
176
     1
290
     0
176
     1
 40
1.0
176
     1
 40
1.0
176
     1
  0
VISUALSTYLE
  5
36
102
{ACAD_REACTORS
330
29
102
}
330
29
100
AcDbVisualStyle
  2
Thicken
 70
    13
177
     3
291
     1
 70
    58
 90
        2
176
     1
 90
        2
176
     1
 90
        0
176
     1
 90
        0
176
     1
 40
0.6
176
     1
 40
30.0
176
     1
 62
     7
420
 16777215
176
     1
 90
        1
176
     1
 90
        4
176
     1
 62
     7
176
     1
 62
   257
176
     1
 90
        1
176
     1
 90
        1
176
     1
 40
1.0
176
     1
 90
       12
176
     1
 62
     7
176
     1
 40
1.0
176
     1
 90
        1
176
     1
 90
        6
176
     1
 90
        2
176
     1
 62
     7
176
     1
 90
        5
176
     1
 90
        0
176
     1
 90
        0
176
     1
290
     0
176
     1
 90
        1
176
     1
 40
0.0
176
     1
 90
        0
176
     1
290
     0
176
     1
290
     1
176
     1
290
     1
176
     1
290
     0
176
     1
290
     0
176
     1
290
     0
176
     1
290
     0
176
     1
290
     0
176
     1
290
     0
176
     1
 90
       50
176
     1
 40
0.0
176
     1
 40
1.0
176
     1
 90
        0
176
     1
 62
    18
420
        0
176
     1
 90
       50
176
     1
 90
        3
176
     1
 62
     5
420
      255
176
     1
290
     0
176
     1
 90
       50
176
     1
 90
       50
176
     1
 90
       50
176
     1
290
     0
176
     1
 90
       50
176
     1
 62
   256
176
     0
 40
1.0
176
     0
 90
        2
176
     1
  1
strokes_ogs.tif
176
     1
290
     0
176
     1
 40
1.0
176
     1
 40
1.0
176
     1
  0
VISUALSTYLE
  5
30
102
{ACAD_REACTORS
330
29
102
}
330
29
100
AcDbVisualStyle
  2
Wireframe
 70
     5
177
     3
291
     0
 70
    58
 90
        0
176
     1
 90
        2
176
     1
 90
        0
176
     1
 90
        0
176
     1
 40
0.6
176
     1
 40
30.0
176
     1
 62
     7
420
 16777215
176
     1
 90
        1
176
     1
 90
        4
176
     1
 62
     7
176
     1
 62
   257
176
     1
 90
        1
176
     1
 90
        1
176
     1
 40
1.0
176
     1
 90
        0
176
     1
 62
   257
176
     1
 40
1.0
176
     1
 90
        1
176
     1
 90
        6
176
     1
 90
        2
176
     1
 62
     7
176
     1
 90
        3
176
     1
 90
        0
176
     1
 90
        0
176
     1
290
     0
176
     1
 90
        1
176
     1
 40
0.0
176
     1
 90
        0
176
     1
290
     0
176
     1
290
     1
176
     1
290
     1
176
     1
290
     0
176
     1
290
     0
176
     1
290
     0
176
     1
290
     0
176
     1
290
     0
176
     1
290
     0
176
     1
 90
       50
176
     1
 40
0.0
176
     1
 40
1.0
176
     1
 90
        0
176
     1
 62
    18
420
        0
176
     1
 90
       50
176
     1
 90
        3
176
     1
 62
     5
420
      255
176
     1
290
     0
176
     1
 90
       50
176
     1
 90
       50
176
     1
 90
       50
176
     1
290
     0
176
     1
 90
       50
176
     1
 62
   256
176
     0
 40
1.0
176
     0
 90
        2
176
     1
  1
strokes_ogs.tif
176
     1
290
     0
176
     1
 40
1.0
176
     1
 40
1.0
176
     1
  0
VISUALSTYLE
  5
3C
102
{ACAD_REACTORS
330
29
102
}
330
29
100
AcDbVisualStyle
  2
X-Ray
 70
    25
177
     3
291
     0
 70
    58
 90
        2
176
     1
 90
        2
176
     1
 90
        1
176
     1
 90
        1
176
     1
 40
0.5
176
     1
 40
30.0
176
     1
 62
     7
420
 16777215
176
     1
 90
        1
176
     1
 90
        0
176
     1
 62
     7
176
     1
 62
   257
176
     1
 90
        1
176
     1
 90
        1
176
     1
 40
1.0
176
     1
 90
        8
176
     1
 62
     7
176
     1
 40
1.0
176
     1
 90
        1
176
     1
 90
        6
176
     1
 90
        2
176
     1
 62
     7
176
     1
 90
        3
176
     1
 90
        0
176
     1
 90
        0
176
     1
290
     0
176
     1
 90
       13
176
     1
 40
0.0
176
     1
 90
        0
176
     1
290
     0
176
     1
290
     1
176
     1
290
     1
176
     1
290
     0
176
     1
290
     0
176
     1
290
     0
176
     1
290
     0
176
     1
290
     0
176
     1
290
     0
176
     1
 90
       50
176
     1
 40
0.0
176
     1
 40
1.0
176
     1
 90
        0
176
     1
 62
    18
420
        0
176
     1
 90
       50
176
     1
 90
        3
176
     1
 62
     5
420
      255
176
     1
290
     0
176
     1
 90
       50
176
     1
 90
       50
176
     1
 90
       50
176
     1
290
     0
176
     1
 90
       50
176
     1
 62
   256
176
     0
 40
1.0
176
     0
 90
        2
176
     1
  1
strokes_ogs.tif
176
     1
290
     0
176
     1
 40
1.0
176
     1
 40
1.0
176
     1
  0
DICTIONARYVAR
  5
81
102
{ACAD_REACTORS
330
7C
102
}
330
7C
100
DictionaryVariables
280
     0
  1
1:1
  0
DICTIONARYVAR
  5
7E
102
{ACAD_REACTORS
330
7C
102
}
330
7C
100
DictionaryVariables
280
     0
  1
STANDARD
  0
DICTIONARYVAR
  5
7D
102
{ACAD_REACTORS
330
7C
102
}
330
7C
100
DictionaryVariables
280
     0
  1
STANDARD
  0
DICTIONARYVAR
  5
7F
102
{ACAD_REACTORS
330
7C
102
}
330
7C
100
DictionaryVariables
280
     0
  1
Imperial24
  0
DICTIONARYVAR
  5
80
102
{ACAD_REACTORS
330
7C
102
}
330
7C
100
DictionaryVariables
280
     0
  1
Imperial24
  0
XRECORD
  5
2F9
102
{ACAD_REACTORS
330
2F5
102
}
330
2F5
100
AcDbXrecord
280
     1
  1
BUILDING_ID
  1
Progetto per messa in tavola DXF, DWG
  1
FLOOR_ID
  1
694395
  0
XRECORD
  5
2F7
102
{ACAD_REACTORS
330
2F5
102
}
330
2F5
100
AcDbXrecord
280
     1
  1
-2001160
  1
Apparecchi idraulici
  0
XRECORD
  5
2F8
102
{ACAD_REACTORS
330
2F5
102
}
330
2F5
100
AcDbXrecord
280
     1
  1
790271
  1
Body
  1
923261
  1
Servomotor
  0
XRECORD
  5
2F6
102
{ACAD_REACTORS
330
2F5
102
}
330
2F5
100
AcDbXrecord
280
     1
  1
859151
  1
Automatic flow rate regulator valve_Caleffi_121 DN15 : 1/2''
  0
DICTIONARY
  5
1A
330
19
100
AcDbDictionary
280
     1
281
     1
  3
BUMPTILE
360
1C
  3
DIFFUSETILE
360
1B
  3
OPACITYTILE
360
1F
  3
REFLECTIONTILE
360
1E
  3
REFRACTIONTILE
360
20
  3
SPECULARTILE
360
1D
  0
DICTIONARY
  5
12
330
11
100
AcDbDictionary
280
     1
281
     1
  3
BUMPTILE
360
14
  3
DIFFUSETILE
360
13
  3
OPACITYTILE
360
17
  3
REFLECTIONTILE
360
16
  3
REFRACTIONTILE
360
18
  3
SPECULARTILE
360
15
  0
DICTIONARY
  5
22
330
21
100
AcDbDictionary
280
     1
281
     1
  3
BUMPTILE
360
24
  3
DIFFUSETILE
360
23
  3
OPACITYTILE
360
27
  3
REFLECTIONTILE
360
26
  3
REFRACTIONTILE
360
28
  3
SPECULARTILE
360
25
  0
DICTIONARY
  5
2FC
330
65
100
AcDbDictionary
280
     1
281
     1
  3
ACAD_ROUNDTRIP_2008_TABLESTYLE_CELLSTYLEMAP
360
2FD
  0
XRECORD
  5
1C
102
{ACAD_REACTORS
330
1A
102
}
330
1A
100
AcDbXrecord
280
     1
270
     1
271
     1
  0
XRECORD
  5
1B
102
{ACAD_REACTORS
330
1A
102
}
330
1A
100
AcDbXrecord
280
     1
270
     1
271
     1
  0
XRECORD
  5
1F
102
{ACAD_REACTORS
330
1A
102
}
330
1A
100
AcDbXrecord
280
     1
270
     1
271
     1
  0
XRECORD
  5
1E
102
{ACAD_REACTORS
330
1A
102
}
330
1A
100
AcDbXrecord
280
     1
270
     1
271
     1
  0
XRECORD
  5
20
102
{ACAD_REACTORS
330
1A
102
}
330
1A
100
AcDbXrecord
280
     1
270
     1
271
     1
  0
XRECORD
  5
1D
102
{ACAD_REACTORS
330
1A
102
}
330
1A
100
AcDbXrecord
280
     1
270
     1
271
     1
  0
XRECORD
  5
14
102
{ACAD_REACTORS
330
12
102
}
330
12
100
AcDbXrecord
280
     1
270
     1
271
     1
  0
XRECORD
  5
13
102
{ACAD_REACTORS
330
12
102
}
330
12
100
AcDbXrecord
280
     1
270
     1
271
     1
  0
XRECORD
  5
17
102
{ACAD_REACTORS
330
12
102
}
330
12
100
AcDbXrecord
280
     1
270
     1
271
     1
  0
XRECORD
  5
16
102
{ACAD_REACTORS
330
12
102
}
330
12
100
AcDbXrecord
280
     1
270
     1
271
     1
  0
XRECORD
  5
18
102
{ACAD_REACTORS
330
12
102
}
330
12
100
AcDbXrecord
280
     1
270
     1
271
     1
  0
XRECORD
  5
15
102
{ACAD_REACTORS
330
12
102
}
330
12
100
AcDbXrecord
280
     1
270
     1
271
     1
  0
XRECORD
  5
24
102
{ACAD_REACTORS
330
22
102
}
330
22
100
AcDbXrecord
280
     1
270
     1
271
     1
  0
XRECORD
  5
23
102
{ACAD_REACTORS
330
22
102
}
330
22
100
AcDbXrecord
280
     1
270
     1
271
     1
  0
XRECORD
  5
27
102
{ACAD_REACTORS
330
22
102
}
330
22
100
AcDbXrecord
280
     1
270
     1
271
     1
  0
XRECORD
  5
26
102
{ACAD_REACTORS
330
22
102
}
330
22
100
AcDbXrecord
280
     1
270
     1
271
     1
  0
XRECORD
  5
28
102
{ACAD_REACTORS
330
22
102
}
330
22
100
AcDbXrecord
280
     1
270
     1
271
     1
  0
XRECORD
  5
25
102
{ACAD_REACTORS
330
22
102
}
330
22
100
AcDbXrecord
280
     1
270
     1
271
     1
  0
CELLSTYLEMAP
  5
2FD
102
{ACAD_REACTORS
330
2FC
102
}
330
2FC
100
AcDbCellStyleMap
 90
        3
300
CELLSTYLE
  1
TABLEFORMAT_BEGIN
 90
        5
170
     1
 91
        0
 92
    32768
 62
   257
 93
        1
300
CONTENTFORMAT
  1
CONTENTFORMAT_BEGIN
 90
        0
 91
        0
 92
      512
 93
        0
300

 40
0.0
140
1.0
 94
        5
 62
     0
340
55
144
0.25
309
CONTENTFORMAT_END
171
     0
 94
        0
309
TABLEFORMAT_END
  1
CELLSTYLE_BEGIN
 90
        1
 91
        1
300
_TITLE
309
CELLSTYLE_END
300
CELLSTYLE
  1
TABLEFORMAT_BEGIN
 90
        5
170
     1
 91
        0
 92
        0
 62
   257
 93
        1
300
CONTENTFORMAT
  1
CONTENTFORMAT_BEGIN
 90
        0
 91
        0
 92
      512
 93
        0
300

 40
0.0
140
1.0
 94
        5
 62
     0
340
55
144
0.18
309
CONTENTFORMAT_END
171
     0
 94
        0
309
TABLEFORMAT_END
  1
CELLSTYLE_BEGIN
 90
        2
 91
        1
300
_HEADER
309
CELLSTYLE_END
300
CELLSTYLE
  1
TABLEFORMAT_BEGIN
 90
        5
170
     1
 91
        0
 92
        0
 62
   257
 93
        1
300
CONTENTFORMAT
  1
CONTENTFORMAT_BEGIN
 90
        0
 91
        0
 92
      512
 93
        0
300

 40
0.0
140
1.0
 94
        2
 62
     0
340
55
144
0.18
309
CONTENTFORMAT_END
171
     0
 94
        0
309
TABLEFORMAT_END
  1
CELLSTYLE_BEGIN
 90
        3
 91
        2
300
_DATA
309
CELLSTYLE_END
  0
ENDSEC
  0
EOF
