  0
SECTION
  2
HEADER
  9
$ACADVER
  1
AC1027
  9
$ACADMAINTVER
 70
    20
  9
$DWGCODEPAGE
  3
ANSI_1252
  9
$REQUIREDVERSIONS
160
                 0
  9
$INSBASE
 10
0.0
 20
0.0
 30
0.0
  9
$EXTMIN
 10
723.6664074431217
 20
1792.305988811806
 30
-0.00000001
  9
$EXTMAX
 10
1137.772993861341
 20
2127.000000010071
 30
0.00000001
  9
$LIMMIN
 10
0.0
 20
0.0
  9
$LIMMAX
 10
12.0
 20
9.0
  9
$ORTHOMODE
 70
     0
  9
$REGENMODE
 70
     1
  9
$FILLMODE
 70
     1
  9
$QTEXTMODE
 70
     0
  9
$MIRRTEXT
 70
     0
  9
$LTSCALE
 40
1.0
  9
$ATTMODE
 70
     1
  9
$TEXTSIZE
 40
0.2
  9
$TRACEWID
 40
0.05
  9
$TEXTSTYLE
  7
Standard
  9
$CLAYER
  8
0
  9
$CELTYPE
  6
ByLayer
  9
$CECOLOR
 62
   256
  9
$CELTSCALE
 40
1.0
  9
$DISPSILH
 70
     0
  9
$DIMSCALE
 40
1.0
  9
$DIMASZ
 40
0.18
  9
$DIMEXO
 40
0.0625
  9
$DIMDLI
 40
0.38
  9
$DIMRND
 40
0.0
  9
$DIMDLE
 40
0.0
  9
$DIMEXE
 40
0.18
  9
$DIMTP
 40
0.0
  9
$DIMTM
 40
0.0
  9
$DIMTXT
 40
0.18
  9
$DIMCEN
 40
0.09
  9
$DIMTSZ
 40
0.0
  9
$DIMTOL
 70
     0
  9
$DIMLIM
 70
     0
  9
$DIMTIH
 70
     1
  9
$DIMTOH
 70
     1
  9
$DIMSE1
 70
     0
  9
$DIMSE2
 70
     0
  9
$DIMTAD
 70
     0
  9
$DIMZIN
 70
     0
  9
$DIMBLK
  1

  9
$DIMASO
 70
     1
  9
$DIMSHO
 70
     1
  9
$DIMPOST
  1

  9
$DIMAPOST
  1

  9
$DIMALT
 70
     0
  9
$DIMALTD
 70
     2
  9
$DIMALTF
 40
25.4
  9
$DIMLFAC
 40
1.0
  9
$DIMTOFL
 70
     0
  9
$DIMTVP
 40
0.0
  9
$DIMTIX
 70
     0
  9
$DIMSOXD
 70
     0
  9
$DIMSAH
 70
     0
  9
$DIMBLK1
  1

  9
$DIMBLK2
  1

  9
$DIMSTYLE
  2
Standard
  9
$DIMCLRD
 70
     0
  9
$DIMCLRE
 70
     0
  9
$DIMCLRT
 70
     0
  9
$DIMTFAC
 40
1.0
  9
$DIMGAP
 40
0.09
  9
$DIMJUST
 70
     0
  9
$DIMSD1
 70
     0
  9
$DIMSD2
 70
     0
  9
$DIMTOLJ
 70
     1
  9
$DIMTZIN
 70
     0
  9
$DIMALTZ
 70
     0
  9
$DIMALTTZ
 70
     0
  9
$DIMUPT
 70
     0
  9
$DIMDEC
 70
     4
  9
$DIMTDEC
 70
     4
  9
$DIMALTU
 70
     2
  9
$DIMALTTD
 70
     2
  9
$DIMTXSTY
  7
Standard
  9
$DIMAUNIT
 70
     0
  9
$DIMADEC
 70
     0
  9
$DIMALTRND
 40
0.0
  9
$DIMAZIN
 70
     0
  9
$DIMDSEP
 70
    46
  9
$DIMATFIT
 70
     3
  9
$DIMFRAC
 70
     0
  9
$DIMLDRBLK
  1

  9
$DIMLUNIT
 70
     2
  9
$DIMLWD
 70
    -2
  9
$DIMLWE
 70
    -2
  9
$DIMTMOVE
 70
     0
  9
$DIMFXL
 40
1.0
  9
$DIMFXLON
 70
     0
  9
$DIMJOGANG
 40
0.7853981633974483
  9
$DIMTFILL
 70
     0
  9
$DIMTFILLCLR
 70
     0
  9
$DIMARCSYM
 70
     0
  9
$DIMLTYPE
  6

  9
$DIMLTEX1
  6

  9
$DIMLTEX2
  6

  9
$DIMTXTDIRECTION
 70
     0
  9
$LUNITS
 70
     2
  9
$LUPREC
 70
     4
  9
$SKETCHINC
 40
0.1
  9
$FILLETRAD
 40
0.0
  9
$AUNITS
 70
     0
  9
$AUPREC
 70
     0
  9
$MENU
  1
.
  9
$ELEVATION
 40
0.0
  9
$PELEVATION
 40
0.0
  9
$THICKNESS
 40
0.0
  9
$LIMCHECK
 70
     0
  9
$CHAMFERA
 40
0.0
  9
$CHAMFERB
 40
0.0
  9
$CHAMFERC
 40
0.0
  9
$CHAMFERD
 40
0.0
  9
$SKPOLY
 70
     0
  9
$TDCREATE
 40
2457562.348651736
  9
$TDUCREATE
 40
2457562.265318403
  9
$TDUPDATE
 40
2457562.348651736
  9
$TDUUPDATE
 40
2457562.265318403
  9
$TDINDWG
 40
0.0000081366
  9
$TDUSRTIMER
 40
0.0000081366
  9
$USRTIMER
 70
     1
  9
$ANGBASE
 50
0.0
  9
$ANGDIR
 70
     0
  9
$PDMODE
 70
     0
  9
$PDSIZE
 40
0.0
  9
$PLINEWID
 40
0.0
  9
$SPLFRAME
 70
     0
  9
$SPLINETYPE
 70
     6
  9
$SPLINESEGS
 70
     8
  9
$HANDSEED
  5
2CF
  9
$SURFTAB1
 70
     6
  9
$SURFTAB2
 70
     6
  9
$SURFTYPE
 70
     6
  9
$SURFU
 70
     6
  9
$SURFV
 70
     6
  9
$UCSBASE
  2

  9
$UCSNAME
  2

  9
$UCSORG
 10
0.0
 20
0.0
 30
0.0
  9
$UCSXDIR
 10
1.0
 20
0.0
 30
0.0
  9
$UCSYDIR
 10
0.0
 20
1.0
 30
0.0
  9
$UCSORTHOREF
  2

  9
$UCSORTHOVIEW
 70
     0
  9
$UCSORGTOP
 10
0.0
 20
0.0
 30
0.0
  9
$UCSORGBOTTOM
 10
0.0
 20
0.0
 30
0.0
  9
$UCSORGLEFT
 10
0.0
 20
0.0
 30
0.0
  9
$UCSORGRIGHT
 10
0.0
 20
0.0
 30
0.0
  9
$UCSORGFRONT
 10
0.0
 20
0.0
 30
0.0
  9
$UCSORGBACK
 10
0.0
 20
0.0
 30
0.0
  9
$PUCSBASE
  2

  9
$PUCSNAME
  2

  9
$PUCSORG
 10
0.0
 20
0.0
 30
0.0
  9
$PUCSXDIR
 10
1.0
 20
0.0
 30
0.0
  9
$PUCSYDIR
 10
0.0
 20
1.0
 30
0.0
  9
$PUCSORTHOREF
  2

  9
$PUCSORTHOVIEW
 70
     0
  9
$PUCSORGTOP
 10
0.0
 20
0.0
 30
0.0
  9
$PUCSORGBOTTOM
 10
0.0
 20
0.0
 30
0.0
  9
$PUCSORGLEFT
 10
0.0
 20
0.0
 30
0.0
  9
$PUCSORGRIGHT
 10
0.0
 20
0.0
 30
0.0
  9
$PUCSORGFRONT
 10
0.0
 20
0.0
 30
0.0
  9
$PUCSORGBACK
 10
0.0
 20
0.0
 30
0.0
  9
$USERI1
 70
     0
  9
$USERI2
 70
     0
  9
$USERI3
 70
     0
  9
$USERI4
 70
     0
  9
$USERI5
 70
     0
  9
$USERR1
 40
0.0
  9
$USERR2
 40
0.0
  9
$USERR3
 40
0.0
  9
$USERR4
 40
0.0
  9
$USERR5
 40
0.0
  9
$WORLDVIEW
 70
     1
  9
$SHADEDGE
 70
     3
  9
$SHADEDIF
 70
    70
  9
$TILEMODE
 70
     1
  9
$MAXACTVP
 70
    64
  9
$PINSBASE
 10
0.0
 20
0.0
 30
0.0
  9
$PLIMCHECK
 70
     0
  9
$PEXTMIN
 10
1.000000000000000E+20
 20
1.000000000000000E+20
 30
1.000000000000000E+20
  9
$PEXTMAX
 10
-1.000000000000000E+20
 20
-1.000000000000000E+20
 30
-1.000000000000000E+20
  9
$PLIMMIN
 10
0.0
 20
0.0
  9
$PLIMMAX
 10
12.0
 20
9.0
  9
$UNITMODE
 70
     0
  9
$VISRETAIN
 70
     1
  9
$PLINEGEN
 70
     0
  9
$PSLTSCALE
 70
     1
  9
$TREEDEPTH
 70
  3020
  9
$CMLSTYLE
  2
Standard
  9
$CMLJUST
 70
     0
  9
$CMLSCALE
 40
1.0
  9
$PROXYGRAPHICS
 70
     1
  9
$MEASUREMENT
 70
     1
  9
$CELWEIGHT
370
    -1
  9
$ENDCAPS
280
     0
  9
$JOINSTYLE
280
     0
  9
$LWDISPLAY
290
     0
  9
$INSUNITS
 70
     4
  9
$HYPERLINKBASE
  1

  9
$STYLESHEET
  1

  9
$XEDIT
290
     1
  9
$CEPSNTYPE
380
     0
  9
$PSTYLEMODE
290
     1
  9
$FINGERPRINTGUID
  2
{4A8546BF-46FD-4C9C-BDA6-492F369C325E}
  9
$VERSIONGUID
  2
{567714CA-8B01-47AD-8B06-48BECC4CA43F}
  9
$EXTNAMES
290
     1
  9
$PSVPSCALE
 40
0.0
  9
$OLESTARTUP
290
     0
  9
$SORTENTS
280
   127
  9
$INDEXCTL
280
     0
  9
$HIDETEXT
280
     1
  9
$XCLIPFRAME
280
     2
  9
$HALOGAP
280
     0
  9
$OBSCOLOR
 70
   257
  9
$OBSLTYPE
280
     0
  9
$INTERSECTIONDISPLAY
280
     0
  9
$INTERSECTIONCOLOR
 70
   257
  9
$DIMASSOC
280
     2
  9
$PROJECTNAME
  1

  9
$CAMERADISPLAY
290
     0
  9
$LENSLENGTH
 40
50.0
  9
$CAMERAHEIGHT
 40
0.0
  9
$STEPSPERSEC
 40
2.0
  9
$STEPSIZE
 40
6.0
  9
$3DDWFPREC
 40
2.0
  9
$PSOLWIDTH
 40
0.25
  9
$PSOLHEIGHT
 40
4.0
  9
$LOFTANG1
 40
1.570796326794896
  9
$LOFTANG2
 40
1.570796326794896
  9
$LOFTMAG1
 40
0.0
  9
$LOFTMAG2
 40
0.0
  9
$LOFTPARAM
 70
     7
  9
$LOFTNORMALS
280
     1
  9
$LATITUDE
 40
37.795
  9
$LONGITUDE
 40
-122.394
  9
$NORTHDIRECTION
 40
0.0
  9
$TIMEZONE
 70
 -8000
  9
$LIGHTGLYPHDISPLAY
280
     1
  9
$TILEMODELIGHTSYNCH
280
     1
  9
$CMATERIAL
347
11
  9
$SOLIDHIST
280
     0
  9
$SHOWHIST
280
     1
  9
$DWFFRAME
280
     2
  9
$DGNFRAME
280
     0
  9
$REALWORLDSCALE
290
     1
  9
$INTERFERECOLOR
 62
     1
  9
$INTERFEREOBJVS
345
33
  9
$INTERFEREVPVS
346
30
  9
$CSHADOW
280
     0
  9
$SHADOWPLANELOCATION
 40
0.0
  0
ENDSEC
  0
SECTION
  2
CLASSES
  0
CLASS
  1
ACDBDICTIONARYWDFLT
  2
AcDbDictionaryWithDefault
  3
ObjectDBX Classes
 90
        0
 91
        1
280
     0
281
     0
  0
CLASS
  1
MATERIAL
  2
AcDbMaterial
  3
ObjectDBX Classes
 90
     1153
 91
        3
280
     0
281
     0
  0
CLASS
  1
VISUALSTYLE
  2
AcDbVisualStyle
  3
ObjectDBX Classes
 90
     4095
 91
       24
280
     0
281
     0
  0
CLASS
  1
SCALE
  2
AcDbScale
  3
ObjectDBX Classes
 90
     1153
 91
       17
280
     0
281
     0
  0
CLASS
  1
TABLESTYLE
  2
AcDbTableStyle
  3
ObjectDBX Classes
 90
     4095
 91
        1
280
     0
281
     0
  0
CLASS
  1
MLEADERSTYLE
  2
AcDbMLeaderStyle
  3
ACDB_MLEADERSTYLE_CLASS
 90
     4095
 91
        1
280
     0
281
     0
  0
CLASS
  1
ACDBSECTIONVIEWSTYLE
  2
AcDbSectionViewStyle
  3
ObjectDBX Classes
 90
     1025
 91
        1
280
     0
281
     0
  0
CLASS
  1
ACDBDETAILVIEWSTYLE
  2
AcDbDetailViewStyle
  3
ObjectDBX Classes
 90
     1025
 91
        1
280
     0
281
     0
  0
CLASS
  1
RASTERVARIABLES
  2
AcDbRasterVariables
  3
ISM
 90
        0
 91
        1
280
     0
281
     0
  0
CLASS
  1
DICTIONARYVAR
  2
AcDbDictionaryVar
  3
ObjectDBX Classes
 90
        0
 91
        5
280
     0
281
     0
  0
CLASS
  1
CELLSTYLEMAP
  2
AcDbCellStyleMap
  3
ObjectDBX Classes
 90
     1152
 91
        2
280
     0
281
     0
  0
CLASS
  1
SORTENTSTABLE
  2
AcDbSortentsTable
  3
ObjectDBX Classes
 90
        0
 91
        1
280
     0
281
     0
  0
ENDSEC
  0
SECTION
  2
TABLES
  0
TABLE
  2
VPORT
  5
8
330
0
100
AcDbSymbolTable
 70
     1
  0
VPORT
  5
57
330
8
100
AcDbSymbolTableRecord
100
AcDbViewportTableRecord
  2
*Active
 70
     0
 10
0.0
 20
0.0
 11
1.0
 21
1.0
 12
930.7197006522317
 22
1959.652994410938
 13
0.0
 23
0.0
 14
1.0
 24
1.0
 15
0.0
 25
0.0
 16
0.0
 26
0.0
 36
1.0
 17
0.0
 27
0.0
 37
0.0
 40
334.6940111982649
 41
1.23726918487619
 42
50.0
 43
0.0
 44
0.0
 50
0.0
 51
0.0
 71
     0
 72
  1000
 73
     1
 74
     1
 75
     0
 76
     0
 77
     0
 78
     0
281
     0
 65
     1
110
0.0
120
0.0
130
0.0
111
1.0
121
0.0
131
0.0
112
0.0
122
1.0
132
0.0
 79
     0
146
0.0
 60
     3
 61
     5
292
     1
282
     1
141
0.0
142
0.0
 63
   250
421
  3355443
  0
ENDTAB
  0
TABLE
  2
LTYPE
  5
5
330
0
100
AcDbSymbolTable
 70
     3
  0
LTYPE
  5
5B
330
5
100
AcDbSymbolTableRecord
100
AcDbLinetypeTableRecord
  2
ByBlock
 70
     0
  3

 72
    65
 73
     0
 40
0.0
  0
LTYPE
  5
5C
330
5
100
AcDbSymbolTableRecord
100
AcDbLinetypeTableRecord
  2
ByLayer
 70
     0
  3

 72
    65
 73
     0
 40
0.0
  0
LTYPE
  5
5D
330
5
100
AcDbSymbolTableRecord
100
AcDbLinetypeTableRecord
  2
Continuous
 70
     0
  3
Solid line
 72
    65
 73
     0
 40
0.0
  0
LTYPE
  5
69
330
5
100
AcDbSymbolTableRecord
100
AcDbLinetypeTableRecord
  2
PHANTOM2
 70
     0
  3
___ _ _ ___ _ _ ___ _ _ ___ _ _
 72
    65
 73
     6
 40
1.25
 49
0.625
 74
     0
 49
-0.125
 74
     0
 49
0.125
 74
     0
 49
-0.125
 74
     0
 49
0.125
 74
     0
 49
-0.125
 74
     0
  0
LTYPE
  5
86
330
5
100
AcDbSymbolTableRecord
100
AcDbLinetypeTableRecord
  2
Nascosto 1_5 mm
 70
     0
  3

 72
    65
 73
     2
 40
2.2
 49
1.5
 74
     0
 49
-0.7000000000000001
 74
     0
  0
ENDTAB
  0
TABLE
  2
LAYER
  5
2
330
0
100
AcDbSymbolTable
 70
     4
  0
LAYER
  5
54
330
2
100
AcDbSymbolTableRecord
100
AcDbLayerTableRecord
  2
0
 70
     0
 62
     7
  6
Continuous
370
    -3
390
F
347
21
348
0
  0
LAYER
  5
85
330
2
100
AcDbSymbolTableRecord
100
AcDbLayerTableRecord
  2
P-SANR-FIXT
 70
     0
 62
     6
  6
Continuous
370
    18
390
F
347
21
348
0
  0
LAYER
  5
88
330
2
100
AcDbSymbolTableRecord
100
AcDbLayerTableRecord
  2
M-PIPE
 70
     0
 62
     3
  6
Continuous
370
    18
390
F
347
21
348
0
  0
ENDTAB
  0
TABLE
  2
STYLE
  5
3
330
0
100
AcDbSymbolTable
 70
     2
  0
STYLE
  5
55
330
3
100
AcDbSymbolTableRecord
100
AcDbTextStyleTableRecord
  2
Standard
 70
     0
 40
0.0
 41
1.0
 50
0.0
 71
     0
 42
0.2
  3
txt
  4

  0
STYLE
  5
5A
330
3
100
AcDbSymbolTableRecord
100
AcDbTextStyleTableRecord
  2
Annotative
 70
     0
 40
0.0
 41
1.0
 50
0.0
 71
     0
 42
0.2
  3
txt
  4

1001
AcadAnnotative
1000
AnnotativeData
1002
{
1070
     1
1070
     1
1002
}
  0
ENDTAB
  0
TABLE
  2
VIEW
  5
6
330
0
100
AcDbSymbolTable
 70
     0
  0
ENDTAB
  0
TABLE
  2
UCS
  5
7
330
0
100
AcDbSymbolTable
 70
     0
  0
ENDTAB
  0
TABLE
  2
APPID
  5
9
330
0
100
AcDbSymbolTable
 70
     3
  0
APPID
  5
56
330
9
100
AcDbSymbolTableRecord
100
AcDbRegAppTableRecord
  2
ACAD
 70
     0
  0
APPID
  5
5E
330
9
100
AcDbSymbolTableRecord
100
AcDbRegAppTableRecord
  2
AcadAnnotative
 70
     0
  0
APPID
  5
79
330
9
100
AcDbSymbolTableRecord
100
AcDbRegAppTableRecord
  2
REVIT
 70
     0
  0
ENDTAB
  0
TABLE
  2
DIMSTYLE
  5
A
330
0
100
AcDbSymbolTable
 70
     2
100
AcDbDimStyleTable
 71
     0
  0
DIMSTYLE
105
58
330
A
100
AcDbSymbolTableRecord
100
AcDbDimStyleTableRecord
  2
Standard
 70
     0
340
55
  0
DIMSTYLE
105
59
330
A
100
AcDbSymbolTableRecord
100
AcDbDimStyleTableRecord
  2
Annotative
 70
     0
340
55
1001
AcadAnnotative
1000
AnnotativeData
1002
{
1070
     1
1070
     1
1002
}
  0
ENDTAB
  0
TABLE
  2
BLOCK_RECORD
  5
1
330
0
100
AcDbSymbolTable
 70
     4
  0
BLOCK_RECORD
  5
71
102
{ACAD_XDICTIONARY
360
2CA
102
}
330
1
100
AcDbSymbolTableRecord
100
AcDbBlockTableRecord
  2
*Model_Space
340
74
 70
     0
280
     1
281
     0
  0
BLOCK_RECORD
  5
6D
330
1
100
AcDbSymbolTableRecord
100
AcDbBlockTableRecord
  2
*Paper_Space
340
70
 70
     0
280
     1
281
     0
  0
BLOCK_RECORD
  5
75
330
1
100
AcDbSymbolTableRecord
100
AcDbBlockTableRecord
  2
*Paper_Space0
340
78
 70
     0
280
     1
281
     0
  0
BLOCK_RECORD
  5
87
330
1
100
AcDbSymbolTableRecord
100
AcDbBlockTableRecord
  2
Automatic flow rate regulator valve_Caleffi_121 DN15 - 1_2__-859151-Est - Idraulica
340
0
102
{BLKREFS
331
158
102
}
 70
     0
280
     1
281
     0
  0
BLOCK_RECORD
  5
159
330
1
100
AcDbSymbolTableRecord
100
AcDbBlockTableRecord
  2
Automatic flow rate regulator valve_Caleffi_121 DN15 - 1_2__-V1-Est - Idraulica
340
0
102
{BLKREFS
331
1B3
102
}
 70
     0
280
     1
281
     0
  0
BLOCK_RECORD
  5
1B4
330
1
100
AcDbSymbolTableRecord
100
AcDbBlockTableRecord
  2
Automatic flow rate regulator valve_Caleffi_121 DN15 - 1_2__-V2-Est - Idraulica
340
0
102
{BLKREFS
331
2C3
102
}
 70
     0
280
     1
281
     0
  0
ENDTAB
  0
ENDSEC
  0
SECTION
  2
BLOCKS
  0
BLOCK
  5
72
330
71
100
AcDbEntity
  8
0
100
AcDbBlockBegin
  2
*Model_Space
 70
     0
 10
0.0
 20
0.0
 30
0.0
  3
*Model_Space
  1

  0
ENDBLK
  5
73
330
71
100
AcDbEntity
  8
0
100
AcDbBlockEnd
  0
BLOCK
  5
6E
330
6D
100
AcDbEntity
 67
     1
  8
0
100
AcDbBlockBegin
  2
*Paper_Space
 70
     0
 10
0.0
 20
0.0
 30
0.0
  3
*Paper_Space
  1

  0
ENDBLK
  5
6F
330
6D
100
AcDbEntity
 67
     1
  8
0
100
AcDbBlockEnd
  0
BLOCK
  5
76
330
75
100
AcDbEntity
 67
     1
  8
0
100
AcDbBlockBegin
  2
*Paper_Space0
 70
     0
 10
0.0
 20
0.0
 30
0.0
  3
*Paper_Space0
  1

  0
ENDBLK
  5
77
330
75
100
AcDbEntity
 67
     1
  8
0
100
AcDbBlockEnd
  0
BLOCK
  5
156
330
87
100
AcDbEntity
  8
0
100
AcDbBlockBegin
  2
Automatic flow rate regulator valve_Caleffi_121 DN15 - 1_2__-859151-Est - Idraulica
 70
     0
 10
0.0
 20
0.0
 30
0.0
  3
Automatic flow rate regulator valve_Caleffi_121 DN15 - 1_2__-859151-Est - Idraulica
  1

  0
LINE
  5
89
330
87
100
AcDbEntity
  8
M-PIPE
100
AcDbLine
 10
803.8664074431974
 20
2110.915944369272
 30
0.0
 11
803.8664074431974
 21
2110.000000000088
 31
0.0
1001
REVIT
1002
{
1070
     3
1000
923261
1002
}
  0
LINE
  5
8A
330
87
100
AcDbEntity
  8
M-PIPE
100
AcDbLine
 10
827.4664074431973
 20
2110.000000000087
 30
0.0
 11
827.4664074431973
 21
2110.915944369272
 31
0.0
1001
REVIT
1002
{
1070
     3
1000
923261
1002
}
  0
LINE
  5
8B
330
87
100
AcDbEntity
  8
M-PIPE
100
AcDbLine
 10
818.4948345679213
 20
2127.000000000071
 30
0.0
 11
791.9783302734262
 21
2127.000000000071
 31
0.0
1001
REVIT
1002
{
1070
     3
1000
923261
1002
}
  0
LINE
  5
8C
330
87
100
AcDbEntity
  8
M-PIPE
100
AcDbLine
 10
791.9783302734262
 20
2127.000000000071
 30
0.0
 11
791.9783302734262
 21
2123.000000000072
 31
0.0
1001
REVIT
1002
{
1070
     3
1000
923261
1002
}
  0
LINE
  5
8D
330
87
100
AcDbEntity
  8
M-PIPE
100
AcDbLine
 10
791.9783302734262
 20
2123.000000000072
 30
0.0
 11
812.968941538303
 21
2123.000000000071
 31
0.0
1001
REVIT
1002
{
1070
     3
1000
923261
1002
}
  0
ELLIPSE
  5
8E
330
87
100
AcDbEntity
  8
M-PIPE
100
AcDbEllipse
 10
812.968941538303
 20
2119.185207133327
 30
0.0
 11
0.0
 21
3.814792866744028
 31
0.0
210
0.0
220
0.0
230
1.0
 40
0.707106781186563
 41
4.712388980381943
 42
6.283185307179588
1001
REVIT
1002
{
1070
     3
1000
923261
1002
}
  0
LINE
  5
8F
330
87
100
AcDbEntity
  8
M-PIPE
100
AcDbLine
 10
815.6664074431997
 20
2119.185207133317
 30
0.0
 11
815.6664074431835
 21
2110.915944369271
 31
0.0
1001
REVIT
1002
{
1070
     3
1000
923261
1002
}
  0
LINE
  5
90
330
87
100
AcDbEntity
  8
M-PIPE
100
AcDbLine
 10
815.6664074431835
 20
2110.915944369271
 30
0.0
 11
832.3632407434219
 21
2110.915944369271
 31
0.0
1001
REVIT
1002
{
1070
     3
1000
923261
1002
}
  0
ELLIPSE
  5
91
330
87
100
AcDbEntity
  8
M-PIPE
100
AcDbEllipse
 10
818.4948345679211
 20
2107.000000000071
 30
0.0
 11
0.0
 21
19.9999999999998
 31
0.0
210
0.0
220
0.0
230
1.0
 40
0.7071067811865504
 41
4.909459318332691
 42
6.283185307179565
1001
REVIT
1002
{
1070
     3
1000
923261
1002
}
  0
ELLIPSE
  5
92
330
87
100
AcDbEntity
  8
M-PIPE
100
AcDbEllipse
 10
795.9983787898258
 20
2119.185207133327
 30
0.0
 11
0.0000000000002154
 21
3.814792866744028
 31
0.0
210
0.0
220
0.0
230
1.0
 40
0.707106781186563
 41
4.712388980381981
 42
6.283185307179666
1001
REVIT
1002
{
1070
     3
1000
923261
1002
}
  0
LINE
  5
93
330
87
100
AcDbEntity
  8
M-PIPE
100
AcDbLine
 10
775.0077675249492
 20
2123.000000000072
 30
0.0
 11
775.0077675249492
 21
2127.000000000071
 31
0.0
1001
REVIT
1002
{
1070
     3
1000
923261
1002
}
  0
LINE
  5
94
330
87
100
AcDbEntity
  8
M-PIPE
100
AcDbLine
 10
798.6958446947065
 20
2110.915944369271
 30
0.0
 11
798.6958446947227
 21
2119.185207133317
 31
0.0
1001
REVIT
1002
{
1070
     3
1000
923261
1002
}
  0
LINE
  5
95
330
87
100
AcDbEntity
  8
M-PIPE
100
AcDbLine
 10
775.0077675249492
 20
2127.000000000071
 30
0.0
 11
791.9783302734262
 21
2127.000000000071
 31
0.0
1001
REVIT
1002
{
1070
     3
1000
923261
1002
}
  0
LINE
  5
96
330
87
100
AcDbEntity
  8
M-PIPE
100
AcDbLine
 10
775.0077675249492
 20
2123.000000000072
 30
0.0
 11
791.9783302734262
 21
2123.000000000072
 31
0.0
1001
REVIT
1002
{
1070
     3
1000
923261
1002
}
  0
LINE
  5
97
330
87
100
AcDbEntity
  8
M-PIPE
100
AcDbLine
 10
798.6958446947065
 20
2110.915944369271
 30
0.0
 11
815.6664074431835
 21
2110.915944369271
 31
0.0
1001
REVIT
1002
{
1070
     3
1000
923261
1002
}
  0
LINE
  5
98
330
87
100
AcDbEntity
  8
M-PIPE
100
AcDbLine
 10
853.518269100215
 20
2108.000000000056
 30
0.0
 11
853.5182691002152
 21
2117.999999999994
 31
0.0
1001
REVIT
1002
{
1070
     3
1000
923261
1002
}
  0
LINE
  5
99
330
87
100
AcDbEntity
  8
M-PIPE
100
AcDbLine
 10
845.518269100215
 20
2117.999999999994
 30
0.0
 11
845.518269100215
 21
2108.000000000056
 31
0.0
1001
REVIT
1002
{
1070
     3
1000
923261
1002
}
  0
LINE
  5
9A
330
87
100
AcDbEntity
  8
M-PIPE
100
AcDbLine
 10
857.5182691002153
 20
2117.999999999994
 30
0.0
 11
857.5182691002153
 21
2123.000000000057
 31
0.0
1001
REVIT
1002
{
1070
     3
1000
923261
1002
}
  0
LINE
  5
9B
330
87
100
AcDbEntity
  8
M-PIPE
100
AcDbLine
 10
841.5182691002151
 20
2123.000000000057
 30
0.0
 11
841.5182691002151
 21
2117.999999999994
 31
0.0
1001
REVIT
1002
{
1070
     3
1000
923261
1002
}
  0
LINE
  5
9C
330
87
100
AcDbEntity
  8
M-PIPE
100
AcDbLine
 10
841.5182691002137
 20
2123.000000000056
 30
0.0
 11
857.5182691002137
 21
2123.000000000056
 31
0.0
1001
REVIT
1002
{
1070
     3
1000
923261
1002
}
  0
LINE
  5
9D
330
87
100
AcDbEntity
  8
M-PIPE
100
AcDbLine
 10
857.5182691002137
 20
2117.999999999993
 30
0.0
 11
841.5182691002137
 21
2117.999999999993
 31
0.0
1001
REVIT
1002
{
1070
     3
1000
923261
1002
}
  0
LINE
  5
9E
330
87
100
AcDbEntity
  8
M-PIPE
100
AcDbLine
 10
770.1664074431643
 20
2101.000000000058
 30
0.0
 11
762.1664074431642
 21
2101.000000000058
 31
0.0
1001
REVIT
1002
{
1070
     3
1000
923261
1002
}
  0
LINE
  5
9F
330
87
100
AcDbEntity
  8
M-PIPE
100
AcDbLine
 10
762.1664074431638
 20
2077.000000000058
 30
0.0
 11
770.1664074431639
 21
2077.000000000058
 31
0.0
1001
REVIT
1002
{
1070
     3
1000
923261
1002
}
  0
LINE
  5
A0
330
87
100
AcDbEntity
  8
M-PIPE
100
AcDbLine
 10
757.1664074431634
 20
2081.000000000058
 30
0.0
 11
762.1664074431638
 21
2081.000000000058
 31
0.0
1001
REVIT
1002
{
1070
     3
1000
923261
1002
}
  0
LINE
  5
A1
330
87
100
AcDbEntity
  8
M-PIPE
100
AcDbLine
 10
770.1664074431639
 20
2081.000000000058
 30
0.0
 11
783.1664074431627
 21
2081.000000000058
 31
0.0
1001
REVIT
1002
{
1070
     3
1000
923261
1002
}
  0
LINE
  5
A2
330
87
100
AcDbEntity
  8
M-PIPE
100
AcDbLine
 10
783.1664074431633
 20
2097.000000000058
 30
0.0
 11
770.1664074431641
 21
2097.000000000058
 31
0.0
1001
REVIT
1002
{
1070
     3
1000
923261
1002
}
  0
LINE
  5
A3
330
87
100
AcDbEntity
  8
M-PIPE
100
AcDbLine
 10
762.1664074431642
 20
2097.000000000058
 30
0.0
 11
757.1664074431636
 21
2097.000000000058
 31
0.0
1001
REVIT
1002
{
1070
     3
1000
923261
1002
}
  0
LINE
  5
A4
330
87
100
AcDbEntity
  8
M-PIPE
100
AcDbLine
 10
770.1664074431627
 20
2101.000000000056
 30
0.0
 11
770.1664074431623
 21
2089.000000000057
 31
0.0
1001
REVIT
1002
{
1070
     3
1000
923261
1002
}
  0
LINE
  5
A5
330
87
100
AcDbEntity
  8
M-PIPE
100
AcDbLine
 10
770.1664074431623
 20
2089.000000000057
 30
0.0
 11
770.1664074431622
 21
2077.000000000056
 31
0.0
1001
REVIT
1002
{
1070
     3
1000
923261
1002
}
  0
LINE
  5
A6
330
87
100
AcDbEntity
  8
M-PIPE
100
AcDbLine
 10
762.1664074431623
 20
2077.000000000056
 30
0.0
 11
762.1664074431625
 21
2089.000000000057
 31
0.0
1001
REVIT
1002
{
1070
     3
1000
923261
1002
}
  0
LINE
  5
A7
330
87
100
AcDbEntity
  8
M-PIPE
100
AcDbLine
 10
762.1664074431625
 20
2089.000000000057
 30
0.0
 11
762.1664074431626
 21
2101.000000000056
 31
0.0
1001
REVIT
1002
{
1070
     3
1000
923261
1002
}
  0
LINE
  5
A8
330
87
100
AcDbEntity
  8
M-PIPE
100
AcDbLine
 10
757.1664074431619
 20
2089.000000000057
 30
0.0
 11
757.166407443162
 21
2097.000000000056
 31
0.0
1001
REVIT
1002
{
1070
     3
1000
923261
1002
}
  0
LINE
  5
A9
330
87
100
AcDbEntity
  8
M-PIPE
100
AcDbLine
 10
757.1664074431619
 20
2081.000000000056
 30
0.0
 11
757.1664074431619
 21
2089.000000000057
 31
0.0
1001
REVIT
1002
{
1070
     3
1000
923261
1002
}
  0
LINE
  5
AA
330
87
100
AcDbEntity
  8
M-PIPE
100
AcDbLine
 10
857.5182691002147
 20
2039.790000000057
 30
0.0
 11
857.5182691002147
 21
2047.790000000056
 31
0.0
1001
REVIT
1002
{
1070
     3
1000
923261
1002
}
  0
LINE
  5
AB
330
87
100
AcDbEntity
  8
M-PIPE
100
AcDbLine
 10
841.5182691002149
 20
2047.790000000057
 30
0.0
 11
841.5182691002147
 21
2039.790000000057
 31
0.0
1001
REVIT
1002
{
1070
     3
1000
923261
1002
}
  0
LINE
  5
AC
330
87
100
AcDbEntity
  8
M-PIPE
100
AcDbLine
 10
827.6664074431753
 20
2108.000000000057
 30
0.0
 11
827.6664074431753
 21
2110.000000000058
 31
0.0
1001
REVIT
1002
{
1070
     3
1000
923261
1002
}
  0
LINE
  5
AD
330
87
100
AcDbEntity
  8
M-PIPE
100
AcDbLine
 10
803.6664074431751
 20
2110.000000000058
 30
0.0
 11
803.6664074431751
 21
2108.000000000057
 31
0.0
1001
REVIT
1002
{
1070
     3
1000
923261
1002
}
  0
ARC
  5
AE
330
87
100
AcDbEntity
  8
M-PIPE
100
AcDbCircle
 10
803.1664074431619
 20
2067.790000000056
 30
0.0
 40
20.00000000000023
100
AcDbArc
 50
179.9999999999998
 51
269.9999999999988
1001
REVIT
1002
{
1070
     3
1000
923261
1002
}
  0
LINE
  5
AF
330
87
100
AcDbEntity
  8
M-PIPE
100
AcDbLine
 10
803.1664074431617
 20
2047.790000000055
 30
0.0
 11
865.6664074431617
 21
2047.790000000055
 31
0.0
1001
REVIT
1002
{
1070
     3
1000
923261
1002
}
  0
ARC
  5
B0
330
87
100
AcDbEntity
  8
M-PIPE
100
AcDbCircle
 10
865.6664074431621
 20
2080.790000000055
 30
0.0
 40
32.99999999999985
100
AcDbArc
 50
269.9999999999983
 51
359.9999999999983
1001
REVIT
1002
{
1070
     3
1000
923261
1002
}
  0
LINE
  5
B1
330
87
100
AcDbEntity
  8
M-PIPE
100
AcDbLine
 10
898.6664074431621
 20
2080.790000000055
 30
0.0
 11
898.6664074431621
 21
2085.99951915939
 31
0.0
1001
REVIT
1002
{
1070
     3
1000
923261
1002
}
  0
LINE
  5
B2
330
87
100
AcDbEntity
  8
M-PIPE
100
AcDbLine
 10
783.166407443162
 20
2068.000000000055
 30
0.0
 11
783.166407443162
 21
2067.790000000056
 31
0.0
1001
REVIT
1002
{
1070
     3
1000
923261
1002
}
  0
ARC
  5
B3
330
87
100
AcDbEntity
  8
M-PIPE
100
AcDbCircle
 10
891.666407443162
 20
2101.000000000055
 30
0.0
 40
7.000000000000056
100
AcDbArc
 50
359.9999999999992
 51
89.99999999999955
1001
REVIT
1002
{
1070
     3
1000
923261
1002
}
  0
LINE
  5
B4
330
87
100
AcDbEntity
  8
M-PIPE
100
AcDbLine
 10
891.6664074431622
 20
2108.000000000055
 30
0.0
 11
783.1664074431621
 21
2108.000000000056
 31
0.0
1001
REVIT
1002
{
1070
     3
1000
923261
1002
}
  0
LINE
  5
B5
330
87
100
AcDbEntity
  8
M-PIPE
100
AcDbLine
 10
783.1664074431621
 20
2108.000000000056
 30
0.0
 11
783.166407443162
 21
2078.112328629041
 31
0.0
1001
REVIT
1002
{
1070
     3
1000
923261
1002
}
  0
LINE
  5
B6
330
87
100
AcDbEntity
  8
M-PIPE
100
AcDbLine
 10
898.6664074431621
 20
2096.000000000055
 30
0.0
 11
898.6664074431621
 21
2101.000000000055
 31
0.0
1001
REVIT
1002
{
1070
     3
1000
923261
1002
}
  0
LINE
  5
B7
330
87
100
AcDbEntity
  8
M-PIPE
100
AcDbLine
 10
857.5182691002133
 20
2039.790000000056
 30
0.0
 11
841.5182691002133
 21
2039.790000000056
 31
0.0
1001
REVIT
1002
{
1070
     3
1000
923261
1002
}
  0
LINE
  5
B8
330
87
100
AcDbEntity
  8
M-PIPE
100
AcDbLine
 10
783.1664074431619
 20
2068.000000000055
 30
0.0
 11
783.166407443162
 21
2078.112328629041
 31
0.0
1001
REVIT
1002
{
1070
     3
1000
923261
1002
}
  0
ARC
  5
B9
330
87
100
AcDbEntity
  8
M-PIPE
100
AcDbCircle
 10
789.1627547930162
 20
2227.992889362595
 30
0.0
 40
160.1052179915262
100
AcDbArc
 50
267.8536254461361
 51
292.1463745538603
1001
REVIT
1002
{
1070
     3
1000
923261
1002
}
  0
ARC
  5
BA
330
87
100
AcDbEntity
  8
M-PIPE
100
AcDbCircle
 10
893.8163052506544
 20
1929.030924854704
 30
0.0
 40
157.0457663781111
100
AcDbArc
 50
88.20933210116653
 51
106.3838397345607
1001
REVIT
1002
{
1070
     3
1000
923261
1002
}
  0
LINE
  5
BB
330
87
100
AcDbEntity
  8
M-PIPE
100
AcDbLine
 10
898.723665569754
 20
2086.000000000055
 30
0.0
 11
900.1664074431621
 21
2086.000000000055
 31
0.0
1001
REVIT
1002
{
1070
     3
1000
923261
1002
}
  0
LINE
  5
BC
330
87
100
AcDbEntity
  8
M-PIPE
100
AcDbLine
 10
900.1664074431621
 20
2086.000000000055
 30
0.0
 11
900.1664074431621
 21
2096.000000000055
 31
0.0
1001
REVIT
1002
{
1070
     3
1000
923261
1002
}
  0
LINE
  5
BD
330
87
100
AcDbEntity
  8
M-PIPE
100
AcDbLine
 10
900.1664074431621
 20
2096.000000000055
 30
0.0
 11
886.1134609974287
 21
2096.000000000055
 31
0.0
1001
REVIT
1002
{
1070
     3
1000
923261
1002
}
  0
ARC
  5
BE
330
87
100
AcDbEntity
  8
M-PIPE
100
AcDbCircle
 10
893.8163052506544
 20
1939.143253483691
 30
0.0
 40
157.0457663781112
100
AcDbArc
 50
92.81139458151669
 51
106.3838397345599
1001
REVIT
1002
{
1070
     3
1000
923261
1002
}
  0
ARC
  5
BF
330
87
100
AcDbEntity
  8
M-PIPE
100
AcDbCircle
 10
789.1627547930162
 20
2238.105217991582
 30
0.0
 40
160.1052179915263
100
AcDbArc
 50
267.8536254461368
 51
292.1463745538611
1001
REVIT
1002
{
1070
     3
1000
923261
1002
}
  0
LINE
  5
C0
330
87
100
AcDbEntity
  8
M-PIPE
100
AcDbLine
 10
803.6664074431737
 20
2110.000000000056
 30
0.0
 11
827.6664074431737
 21
2110.000000000056
 31
0.0
1001
REVIT
1002
{
1070
     3
1000
923261
1002
}
  0
LINE
  5
C1
330
87
100
AcDbEntity
  8
M-PIPE
100
AcDbLine
 10
828.166407443175
 20
2032.499999999996
 30
0.0
 11
828.166407443175
 21
2047.779999999994
 31
0.0
1001
REVIT
1002
{
1070
     3
1000
923261
1002
}
  0
LINE
  5
C2
330
87
100
AcDbEntity
  8
M-PIPE
100
AcDbLine
 10
803.166407443175
 20
2047.779999999994
 30
0.0
 11
803.166407443175
 21
2032.499999999996
 31
0.0
1001
REVIT
1002
{
1070
     3
1000
923261
1002
}
  0
LINE
  5
C3
330
87
100
AcDbEntity
  8
M-PIPE
100
AcDbLine
 10
870.1664074431675
 20
2024.248711305927
 30
0.0
 11
866.9858012871941
 21
2029.757682766939
 31
0.0
1001
REVIT
1002
{
1070
     3
1000
790271
1002
}
  0
LINE
  5
C4
330
87
100
AcDbEntity
  8
M-PIPE
100
AcDbLine
 10
866.9630459321886
 20
2029.797096197953
 30
0.0
 11
866.8362804242452
 21
2030.016660498358
 31
0.0
1001
REVIT
1002
{
1070
     3
1000
790271
1002
}
  0
LINE
  5
C5
330
87
100
AcDbEntity
  8
M-PIPE
100
AcDbLine
 10
866.8362804242301
 20
1969.983339501567
 30
0.0
 11
866.9630459321734
 21
1970.202903801972
 31
0.0
1001
REVIT
1002
{
1070
     3
1000
790271
1002
}
  0
LINE
  5
C6
330
87
100
AcDbEntity
  8
M-PIPE
100
AcDbLine
 10
866.985801287179
 20
1970.242317232986
 30
0.0
 11
870.1664074431668
 21
1975.751288694023
 31
0.0
1001
REVIT
1002
{
1070
     3
1000
790271
1002
}
  0
LINE
  5
C7
330
87
100
AcDbEntity
  8
M-PIPE
100
AcDbLine
 10
866.8362804242454
 20
2030.016660498358
 30
0.0
 11
851.9664074431997
 21
2030.016660498358
 31
0.0
1001
REVIT
1002
{
1070
     3
1000
790271
1002
}
  0
LINE
  5
C8
330
87
100
AcDbEntity
  8
M-PIPE
100
AcDbLine
 10
851.966407443199
 20
1969.983339501567
 30
0.0
 11
866.8362804242301
 21
1969.983339501567
 31
0.0
1001
REVIT
1002
{
1070
     3
1000
790271
1002
}
  0
LINE
  5
C9
330
87
100
AcDbEntity
  8
M-PIPE
100
AcDbLine
 10
851.9664074431997
 20
2030.016660498358
 30
0.0
 11
851.8396227149551
 21
2029.797062907415
 31
0.0
1001
REVIT
1002
{
1070
     3
1000
790271
1002
}
  0
LINE
  5
CA
330
87
100
AcDbEntity
  8
M-PIPE
100
AcDbLine
 10
851.8168865802492
 20
2029.757682766936
 30
0.0
 11
850.1664074431674
 21
2026.898969044679
 31
0.0
1001
REVIT
1002
{
1070
     3
1000
790271
1002
}
  0
LINE
  5
CB
330
87
100
AcDbEntity
  8
M-PIPE
100
AcDbLine
 10
850.1664074431667
 20
1973.101030955272
 30
0.0
 11
851.8168865802628
 21
1970.242317232989
 31
0.0
1001
REVIT
1002
{
1070
     3
1000
790271
1002
}
  0
LINE
  5
CC
330
87
100
AcDbEntity
  8
M-PIPE
100
AcDbLine
 10
851.839622714969
 20
1970.20293709251
 30
0.0
 11
851.9664074432135
 21
1969.983339501567
 31
0.0
1001
REVIT
1002
{
1070
     3
1000
790271
1002
}
  0
LINE
  5
CD
330
87
100
AcDbEntity
  8
M-PIPE
100
AcDbLine
 10
870.166407443166
 20
2024.248711305926
 30
0.0
 11
870.1664074431654
 21
1975.751288694022
 31
0.0
1001
REVIT
1002
{
1070
     3
1000
790271
1002
}
  0
LINE
  5
CE
330
87
100
AcDbEntity
  8
M-PIPE
100
AcDbLine
 10
850.1664074431655
 20
1973.101030955271
 30
0.0
 11
850.166407443166
 21
2026.898969044678
 31
0.0
1001
REVIT
1002
{
1070
     3
1000
790271
1002
}
  0
SPLINE
  5
CF
330
87
100
AcDbEntity
  8
M-PIPE
100
AcDbSpline
210
0.0
220
0.0
230
1.0
 70
     8
 71
     3
 72
     9
 73
     5
 74
     0
 42
0.000000001
 43
0.0000000001
 40
0.0
 40
0.0
 40
0.0
 40
0.0
 40
0.5
 40
1.0
 40
1.0
 40
1.0
 40
1.0
 10
867.2770616891007
 20
2017.753520777543
 30
0.0
 10
868.1442941331049
 20
2019.609566552087
 30
0.0
 10
869.0115265771105
 20
2023.342000701498
 30
0.0
 10
868.1442941331109
 20
2027.115120051552
 30
0.0
 10
867.2770616891099
 20
2029.011851026741
 30
0.0
1001
REVIT
1002
{
1070
     3
1000
790271
1002
}
  0
SPLINE
  5
D0
330
87
100
AcDbEntity
  8
M-PIPE
100
AcDbSpline
210
0.0
220
0.0
230
1.0
 70
     8
 71
     3
 72
     9
 73
     5
 74
     0
 42
0.000000001
 43
0.0000000001
 40
0.0
 40
0.0
 40
0.0
 40
0.0
 40
0.5
 40
1.0
 40
1.0
 40
1.0
 40
1.0
 10
851.5256261783319
 20
2029.011851026741
 30
0.0
 10
850.6583937343306
 20
2027.115120051552
 30
0.0
 10
849.7911612903308
 20
2023.342000701498
 30
0.0
 10
850.6583937343366
 20
2019.609566552087
 30
0.0
 10
851.5256261783408
 20
2017.753520777543
 30
0.0
1001
REVIT
1002
{
1070
     3
1000
790271
1002
}
  0
SPLINE
  5
D1
330
87
100
AcDbEntity
  8
M-PIPE
100
AcDbSpline
210
0.0
220
0.0
230
1.0
 70
     8
 71
     3
 72
     9
 73
     5
 74
     0
 42
0.000000001
 43
0.0000000001
 40
0.0
 40
0.0
 40
0.0
 40
0.0
 40
0.5
 40
1.0
 40
1.0
 40
1.0
 40
1.0
 10
867.2770616890918
 20
1988.741669750764
 30
0.0
 10
868.1442941330951
 20
1992.453761299853
 30
0.0
 10
869.0115265770991
 20
1999.918629598674
 30
0.0
 10
868.1442941330988
 20
2007.464868298784
 30
0.0
 10
867.2770616890977
 20
2011.25833024916
 30
0.0
1001
REVIT
1002
{
1070
     3
1000
790271
1002
}
  0
SPLINE
  5
D2
330
87
100
AcDbEntity
  8
M-PIPE
100
AcDbSpline
210
0.0
220
0.0
230
1.0
 70
     8
 71
     3
 72
     9
 73
     5
 74
     0
 42
0.000000001
 43
0.0000000001
 40
0.0
 40
0.0
 40
0.0
 40
0.0
 40
0.5
 40
1.0
 40
1.0
 40
1.0
 40
1.0
 10
851.5256261783434
 20
2011.25833024916
 30
0.0
 10
850.6583937343421
 20
2007.464868298784
 30
0.0
 10
849.7911612903418
 20
1999.918629598674
 30
0.0
 10
850.6583937343457
 20
1992.453761299853
 30
0.0
 10
851.5256261783488
 20
1988.741669750764
 30
0.0
1001
REVIT
1002
{
1070
     3
1000
790271
1002
}
  0
SPLINE
  5
D3
330
87
100
AcDbEntity
  8
M-PIPE
100
AcDbSpline
210
0.0
220
0.0
230
1.0
 70
     8
 71
     3
 72
     9
 73
     5
 74
     0
 42
0.000000001
 43
0.0000000001
 40
0.0
 40
0.0
 40
0.0
 40
0.0
 40
0.5
 40
1.0
 40
1.0
 40
1.0
 40
1.0
 10
867.2770616890952
 20
1970.988148973183
 30
0.0
 10
868.1442941330967
 20
1972.844194747727
 30
0.0
 10
869.0115265770973
 20
1976.576628897138
 30
0.0
 10
868.144294133094
 20
1980.349748247193
 30
0.0
 10
867.2770616890915
 20
1982.246479222381
 30
0.0
1001
REVIT
1002
{
1070
     3
1000
790271
1002
}
  0
SPLINE
  5
D4
330
87
100
AcDbEntity
  8
M-PIPE
100
AcDbSpline
210
0.0
220
0.0
230
1.0
 70
     8
 71
     3
 72
     9
 73
     5
 74
     0
 42
0.000000001
 43
0.0000000001
 40
0.0
 40
0.0
 40
0.0
 40
0.0
 40
0.5
 40
1.0
 40
1.0
 40
1.0
 40
1.0
 10
851.5256261783489
 20
1982.246479222381
 30
0.0
 10
850.6583937343464
 20
1980.349748247193
 30
0.0
 10
849.7911612903433
 20
1976.576628897138
 30
0.0
 10
850.6583937343441
 20
1972.844194747727
 30
0.0
 10
851.5256261783454
 20
1970.988148973183
 30
0.0
1001
REVIT
1002
{
1070
     3
1000
790271
1002
}
  0
SPLINE
  5
D5
330
87
100
AcDbEntity
  8
M-PIPE
100
AcDbSpline
210
0.0
220
0.0
230
1.0
 70
     8
 71
     3
 72
     9
 73
     5
 74
     0
 42
0.000000001
 43
0.0000000001
 40
-1.0
 40
-1.0
 40
-1.0
 40
-1.0
 40
-0.5
 40
0.0
 40
0.0
 40
0.0
 40
0.0
 10
866.8362804242436
 20
2030.016660498357
 30
0.0
 10
866.8378346933961
 20
2030.016660498358
 30
0.0
 10
866.912852506693
 20
2029.839681186692
 30
0.0
 10
867.1316888699736
 20
2029.334708196009
 30
0.0
 10
867.2770616891099
 20
2029.011851026741
 30
0.0
1001
REVIT
1002
{
1070
     3
1000
790271
1002
}
  0
SPLINE
  5
D6
330
87
100
AcDbEntity
  8
M-PIPE
100
AcDbSpline
210
0.0
220
0.0
230
1.0
 70
     8
 71
     3
 72
     9
 73
     5
 74
     0
 42
0.000000001
 43
0.0000000001
 40
0.0
 40
0.0
 40
0.0
 40
0.0
 40
0.5
 40
1.0
 40
1.0
 40
1.0
 40
1.0
 10
851.9664074431981
 20
2030.016660498357
 30
0.0
 10
851.9648531740449
 20
2030.016660498357
 30
0.0
 10
851.8898353607472
 20
2029.839681186689
 30
0.0
 10
851.6709989974671
 20
2029.334708196007
 30
0.0
 10
851.5256261783319
 20
2029.011851026741
 30
0.0
1001
REVIT
1002
{
1070
     3
1000
790271
1002
}
  0
SPLINE
  5
D7
330
87
100
AcDbEntity
  8
M-PIPE
100
AcDbSpline
210
0.0
220
0.0
230
1.0
 70
     8
 71
     3
 72
     9
 73
     5
 74
     0
 42
0.000000001
 43
0.0000000001
 40
0.0
 40
0.0
 40
0.0
 40
0.0
 40
0.5
 40
1.0
 40
1.0
 40
1.0
 40
1.0
 10
851.5256261783408
 20
2017.753520777543
 30
0.0
 10
851.670998997479
 20
2017.430663608276
 30
0.0
 10
851.8898353607601
 20
2016.635173074277
 30
0.0
 10
851.9648531740504
 20
2015.582749831044
 30
0.0
 10
851.9664074431977
 20
2015.008330249154
 30
0.0
1001
REVIT
1002
{
1070
     3
1000
790271
1002
}
  0
SPLINE
  5
D8
330
87
100
AcDbEntity
  8
M-PIPE
100
AcDbSpline
210
0.0
220
0.0
230
1.0
 70
     8
 71
     3
 72
     9
 73
     5
 74
     0
 42
0.000000001
 43
0.0000000001
 40
0.0
 40
0.0
 40
0.0
 40
0.0
 40
0.5
 40
1.0
 40
1.0
 40
1.0
 40
1.0
 10
851.9664074431977
 20
2015.008330249154
 30
0.0
 10
851.9648531740504
 20
2014.433910667266
 30
0.0
 10
851.8898353607605
 20
2013.20450811237
 30
0.0
 10
851.6709989974808
 20
2011.904044587693
 30
0.0
 10
851.5256261783434
 20
2011.25833024916
 30
0.0
1001
REVIT
1002
{
1070
     3
1000
790271
1002
}
  0
SPLINE
  5
D9
330
87
100
AcDbEntity
  8
M-PIPE
100
AcDbSpline
210
0.0
220
0.0
230
1.0
 70
     8
 71
     3
 72
    10
 73
     6
 74
     0
 42
0.000000001
 43
0.0000000001
 40
-1.0
 40
-1.0
 40
-1.0
 40
-1.0
 40
-0.7
 40
-0.4
 40
0.0
 40
0.0
 40
0.0
 40
0.0
 10
867.2770616891007
 20
2017.753520777543
 30
0.0
 10
867.1035992407865
 20
2017.36704237214
 30
0.0
 10
866.8562855654688
 20
2016.375903325824
 30
0.0
 10
866.7938684448976
 20
2014.126808572151
 30
0.0
 10
867.0454259365561
 20
2012.291061831279
 30
0.0
 10
867.2770616890977
 20
2011.25833024916
 30
0.0
1001
REVIT
1002
{
1070
     3
1000
790271
1002
}
  0
SPLINE
  5
DA
330
87
100
AcDbEntity
  8
M-PIPE
100
AcDbSpline
210
0.0
220
0.0
230
1.0
 70
     8
 71
     3
 72
     9
 73
     5
 74
     0
 42
0.000000001
 43
0.0000000001
 40
0.0
 40
0.0
 40
0.0
 40
0.0
 40
0.5
 40
1.0
 40
1.0
 40
1.0
 40
1.0
 10
851.5256261783488
 20
1988.741669750764
 30
0.0
 10
851.6709989974877
 20
1988.095955412231
 30
0.0
 10
851.8898353607683
 20
1986.795491887551
 30
0.0
 10
851.9648531740537
 20
1985.566089332652
 30
0.0
 10
851.9664074431974
 20
1984.991669750763
 30
0.0
1001
REVIT
1002
{
1070
     3
1000
790271
1002
}
  0
SPLINE
  5
DB
330
87
100
AcDbEntity
  8
M-PIPE
100
AcDbSpline
210
0.0
220
0.0
230
1.0
 70
     8
 71
     3
 72
     9
 73
     5
 74
     0
 42
0.000000001
 43
0.0000000001
 40
0.0
 40
0.0
 40
0.0
 40
0.0
 40
0.5
 40
1.0
 40
1.0
 40
1.0
 40
1.0
 10
851.9664074431974
 20
1984.991669750763
 30
0.0
 10
851.9648531740536
 20
1984.417250168875
 30
0.0
 10
851.8898353607683
 20
1983.364826925645
 30
0.0
 10
851.6709989974881
 20
1982.569336391648
 30
0.0
 10
851.5256261783489
 20
1982.246479222381
 30
0.0
1001
REVIT
1002
{
1070
     3
1000
790271
1002
}
  0
SPLINE
  5
DC
330
87
100
AcDbEntity
  8
M-PIPE
100
AcDbSpline
210
0.0
220
0.0
230
1.0
 70
     8
 71
     3
 72
    10
 73
     6
 74
     0
 42
0.000000001
 43
0.0000000001
 40
-1.0
 40
-1.0
 40
-1.0
 40
-1.0
 40
-0.7
 40
-0.4
 40
0.0
 40
0.0
 40
0.0
 40
0.0
 10
867.277061689092
 20
1988.741669750764
 30
0.0
 10
867.1035992407782
 20
1987.968712939958
 30
0.0
 10
866.8562855654608
 20
1986.404001633163
 30
0.0
 10
866.7938684448907
 20
1984.011011257947
 30
0.0
 10
867.0454259365497
 20
1982.762845013441
 30
0.0
 10
867.2770616890915
 20
1982.246479222381
 30
0.0
1001
REVIT
1002
{
1070
     3
1000
790271
1002
}
  0
SPLINE
  5
DD
330
87
100
AcDbEntity
  8
M-PIPE
100
AcDbSpline
210
0.0
220
0.0
230
1.0
 70
     8
 71
     3
 72
     9
 73
     5
 74
     0
 42
0.000000001
 43
0.0000000001
 40
0.0
 40
0.0
 40
0.0
 40
0.0
 40
0.5
 40
1.0
 40
1.0
 40
1.0
 40
1.0
 10
851.5256261783454
 20
1970.988148973183
 30
0.0
 10
851.6709989974833
 20
1970.665291803916
 30
0.0
 10
851.8898353607633
 20
1970.160318813235
 30
0.0
 10
851.9648531740514
 20
1969.983339501566
 30
0.0
 10
851.9664074431974
 20
1969.983339501566
 30
0.0
1001
REVIT
1002
{
1070
     3
1000
790271
1002
}
  0
SPLINE
  5
DE
330
87
100
AcDbEntity
  8
M-PIPE
100
AcDbSpline
210
0.0
220
0.0
230
1.0
 70
     8
 71
     3
 72
     9
 73
     5
 74
     0
 42
0.000000001
 43
0.0000000001
 40
-1.0
 40
-1.0
 40
-1.0
 40
-1.0
 40
-0.5
 40
0.0
 40
0.0
 40
0.0
 40
0.0
 10
867.2770616890952
 20
1970.988148973183
 30
0.0
 10
867.1316888699589
 20
1970.665291803914
 30
0.0
 10
866.9128525066781
 20
1970.160318813231
 30
0.0
 10
866.8378346933813
 20
1969.983339501565
 30
0.0
 10
866.8362804242287
 20
1969.983339501566
 30
0.0
1001
REVIT
1002
{
1070
     3
1000
790271
1002
}
  0
LINE
  5
DF
330
87
100
AcDbEntity
  8
M-PIPE
100
AcDbLine
 10
761.1664074431104
 20
1975.751288694041
 30
0.0
 11
764.2824106061624
 21
1970.354212899089
 31
0.0
1001
REVIT
1002
{
1070
     3
1000
790271
1002
}
  0
LINE
  5
E0
330
87
100
AcDbEntity
  8
M-PIPE
100
AcDbLine
 10
764.3530826016203
 20
1970.231805412284
 30
0.0
 11
764.4963527278936
 21
1969.983654274371
 31
0.0
1001
REVIT
1002
{
1070
     3
1000
790271
1002
}
  0
LINE
  5
E1
330
87
100
AcDbEntity
  8
M-PIPE
100
AcDbLine
 10
764.4963527279184
 20
2030.016345725654
 30
0.0
 11
764.3530493614259
 21
2029.768137013993
 31
0.0
1001
REVIT
1002
{
1070
     3
1000
790271
1002
}
  0
LINE
  5
E2
330
87
100
AcDbEntity
  8
M-PIPE
100
AcDbLine
 10
764.2820292277808
 20
2029.645126534159
 30
0.0
 11
761.1664074431114
 21
2024.248711305944
 31
0.0
1001
REVIT
1002
{
1070
     3
1000
790271
1002
}
  0
LINE
  5
E3
330
87
100
AcDbEntity
  8
M-PIPE
100
AcDbLine
 10
779.3664074430795
 20
2030.016660498408
 30
0.0
 11
764.49635272792
 21
2030.016660498408
 31
0.0
1001
REVIT
1002
{
1070
     3
1000
790271
1002
}
  0
LINE
  5
E4
330
87
100
AcDbEntity
  8
M-PIPE
100
AcDbLine
 10
764.4963527278953
 20
1969.983339501617
 30
0.0
 11
779.3664074430783
 21
1969.983339501617
 31
0.0
1001
REVIT
1002
{
1070
     3
1000
790271
1002
}
  0
LINE
  5
E5
330
87
100
AcDbEntity
  8
M-PIPE
100
AcDbLine
 10
779.3664074430783
 20
1969.983339501609
 30
0.0
 11
779.4917016404731
 21
1970.20035541739
 31
0.0
1001
REVIT
1002
{
1070
     3
1000
790271
1002
}
  0
LINE
  5
E6
330
87
100
AcDbEntity
  8
M-PIPE
100
AcDbLine
 10
779.515928306033
 20
1970.242317233038
 30
0.0
 11
781.1664074431103
 21
1973.101030955288
 31
0.0
1001
REVIT
1002
{
1070
     3
1000
790271
1002
}
  0
LINE
  5
E7
330
87
100
AcDbEntity
  8
M-PIPE
100
AcDbLine
 10
781.1664074431113
 20
2026.898969044696
 30
0.0
 11
779.5159283060103
 21
2029.757682766987
 31
0.0
1001
REVIT
1002
{
1070
     3
1000
790271
1002
}
  0
LINE
  5
E8
330
87
100
AcDbEntity
  8
M-PIPE
100
AcDbLine
 10
779.4916682682159
 20
2029.79970238504
 30
0.0
 11
779.3664074430791
 21
2030.016660498375
 31
0.0
1001
REVIT
1002
{
1070
     3
1000
790271
1002
}
  0
LINE
  5
E9
330
87
100
AcDbEntity
  8
M-PIPE
100
AcDbLine
 10
761.1664074431091
 20
1975.75128869404
 30
0.0
 11
761.1664074431094
 21
1987.875644347015
 31
0.0
1001
REVIT
1002
{
1070
     3
1000
790271
1002
}
  0
LINE
  5
EA
330
87
100
AcDbEntity
  8
M-PIPE
100
AcDbLine
 10
761.1664074431094
 20
1987.875644347015
 30
0.0
 11
761.16640744311
 21
2024.248711305943
 31
0.0
1001
REVIT
1002
{
1070
     3
1000
790271
1002
}
  0
LINE
  5
EB
330
87
100
AcDbEntity
  8
M-PIPE
100
AcDbLine
 10
781.1664074431092
 20
1986.550515477639
 30
0.0
 11
781.1664074431089
 21
1973.101030955288
 31
0.0
1001
REVIT
1002
{
1070
     3
1000
790271
1002
}
  0
LINE
  5
EC
330
87
100
AcDbEntity
  8
M-PIPE
100
AcDbLine
 10
781.1664074431099
 20
2026.898969044694
 30
0.0
 11
781.1664074431092
 21
1986.550515477639
 31
0.0
1001
REVIT
1002
{
1070
     3
1000
790271
1002
}
  0
SPLINE
  5
ED
330
87
100
AcDbEntity
  8
M-PIPE
100
AcDbSpline
210
0.0
220
0.0
230
1.0
 70
     8
 71
     3
 72
     9
 73
     5
 74
     0
 42
0.000000001
 43
0.0000000001
 40
0.0
 40
0.0
 40
0.0
 40
0.0
 40
0.5
 40
1.0
 40
1.0
 40
1.0
 40
1.0
 10
764.0557531971749
 20
2011.258330249209
 30
0.0
 10
763.1885207531706
 20
2007.546238700121
 30
0.0
 10
762.3212883091648
 20
2000.0813704013
 30
0.0
 10
763.1885207531643
 20
1992.53513170119
 30
0.0
 10
764.0557531971654
 20
1988.741669750814
 30
0.0
1001
REVIT
1002
{
1070
     3
1000
790271
1002
}
  0
SPLINE
  5
EE
330
87
100
AcDbEntity
  8
M-PIPE
100
AcDbSpline
210
0.0
220
0.0
230
1.0
 70
     8
 71
     3
 72
     9
 73
     5
 74
     0
 42
0.000000001
 43
0.0000000001
 40
0.0
 40
0.0
 40
0.0
 40
0.0
 40
0.5
 40
1.0
 40
1.0
 40
1.0
 40
1.0
 10
779.8071887079436
 20
1988.741669750814
 30
0.0
 10
780.6744211519448
 20
1992.53513170119
 30
0.0
 10
781.5416535959444
 20
2000.0813704013
 30
0.0
 10
780.6744211519388
 20
2007.546238700121
 30
0.0
 10
779.8071887079348
 20
2011.258330249209
 30
0.0
1001
REVIT
1002
{
1070
     3
1000
790271
1002
}
  0
SPLINE
  5
EF
330
87
100
AcDbEntity
  8
M-PIPE
100
AcDbSpline
210
0.0
220
0.0
230
1.0
 70
     8
 71
     3
 72
     9
 73
     5
 74
     0
 42
0.000000001
 43
0.0000000001
 40
0.0
 40
0.0
 40
0.0
 40
0.0
 40
0.5
 40
1.0
 40
1.0
 40
1.0
 40
1.0
 10
764.0557531971834
 20
2029.01185102679
 30
0.0
 10
763.1885207531803
 20
2027.155805252246
 30
0.0
 10
762.3212883091763
 20
2023.423371102836
 30
0.0
 10
763.1885207531767
 20
2019.650251752781
 30
0.0
 10
764.0557531971778
 20
2017.753520777592
 30
0.0
1001
REVIT
1002
{
1070
     3
1000
790271
1002
}
  0
SPLINE
  5
F0
330
87
100
AcDbEntity
  8
M-PIPE
100
AcDbSpline
210
0.0
220
0.0
230
1.0
 70
     8
 71
     3
 72
     9
 73
     5
 74
     0
 42
0.000000001
 43
0.0000000001
 40
0.0
 40
0.0
 40
0.0
 40
0.0
 40
0.5
 40
1.0
 40
1.0
 40
1.0
 40
1.0
 10
779.807188707932
 20
2017.753520777592
 30
0.0
 10
780.6744211519331
 20
2019.650251752781
 30
0.0
 10
781.5416535959334
 20
2023.423371102835
 30
0.0
 10
780.6744211519295
 20
2027.155805252246
 30
0.0
 10
779.8071887079267
 20
2029.01185102679
 30
0.0
1001
REVIT
1002
{
1070
     3
1000
790271
1002
}
  0
SPLINE
  5
F1
330
87
100
AcDbEntity
  8
M-PIPE
100
AcDbSpline
210
0.0
220
0.0
230
1.0
 70
     8
 71
     3
 72
     9
 73
     5
 74
     0
 42
0.000000001
 43
0.0000000001
 40
0.0
 40
0.0
 40
0.0
 40
0.0
 40
0.5
 40
1.0
 40
1.0
 40
1.0
 40
1.0
 10
764.0557531971628
 20
1982.24647922243
 30
0.0
 10
763.188520753159
 20
1980.390433447886
 30
0.0
 10
762.3212883091545
 20
1976.657999298476
 30
0.0
 10
763.1885207531563
 20
1972.884879948421
 30
0.0
 10
764.0557531971589
 20
1970.988148973233
 30
0.0
1001
REVIT
1002
{
1070
     3
1000
790271
1002
}
  0
SPLINE
  5
F2
330
87
100
AcDbEntity
  8
M-PIPE
100
AcDbSpline
210
0.0
220
0.0
230
1.0
 70
     8
 71
     3
 72
     9
 73
     5
 74
     0
 42
0.000000001
 43
0.0000000001
 40
0.0
 40
0.0
 40
0.0
 40
0.0
 40
0.5
 40
1.0
 40
1.0
 40
1.0
 40
1.0
 10
779.8071887079493
 20
1970.988148973233
 30
0.0
 10
780.6744211519519
 20
1972.884879948421
 30
0.0
 10
781.5416535959538
 20
1976.657999298475
 30
0.0
 10
780.6744211519495
 20
1980.390433447886
 30
0.0
 10
779.8071887079458
 20
1982.24647922243
 30
0.0
1001
REVIT
1002
{
1070
     3
1000
790271
1002
}
  0
SPLINE
  5
F3
330
87
100
AcDbEntity
  8
M-PIPE
100
AcDbSpline
210
0.0
220
0.0
230
1.0
 70
     8
 71
     3
 72
     9
 73
     5
 74
     0
 42
0.000000001
 43
0.0000000001
 40
-1.0
 40
-1.0
 40
-1.0
 40
-1.0
 40
-0.5
 40
0.0
 40
0.0
 40
0.0
 40
0.0
 10
764.4965344620317
 20
1984.991669750799
 30
0.0
 10
764.4949801928792
 20
1985.566089332689
 30
0.0
 10
764.4199623795823
 20
1986.795491887592
 30
0.0
 10
764.2011260163017
 20
1988.095955412277
 30
0.0
 10
764.0557531971654
 20
1988.741669750814
 30
0.0
1001
REVIT
1002
{
1070
     3
1000
790271
1002
}
  0
SPLINE
  5
F4
330
87
100
AcDbEntity
  8
M-PIPE
100
AcDbSpline
210
0.0
220
0.0
230
1.0
 70
     8
 71
     3
 72
     9
 73
     5
 74
     0
 42
0.000000001
 43
0.0000000001
 40
-1.0
 40
-1.0
 40
-1.0
 40
-1.0
 40
-0.5
 40
0.0
 40
0.0
 40
0.0
 40
0.0
 10
764.0557531971628
 20
1982.24647922243
 30
0.0
 10
764.2011260162982
 20
1982.569336391696
 30
0.0
 10
764.4199623795785
 20
1983.36482692569
 30
0.0
 10
764.4949801928776
 20
1984.417250168914
 30
0.0
 10
764.4965344620317
 20
1984.991669750799
 30
0.0
1001
REVIT
1002
{
1070
     3
1000
790271
1002
}
  0
SPLINE
  5
F5
330
87
100
AcDbEntity
  8
M-PIPE
100
AcDbSpline
210
0.0
220
0.0
230
1.0
 70
     8
 71
     3
 72
     9
 73
     5
 74
     0
 42
0.000000001
 43
0.0000000001
 40
0.0
 40
0.0
 40
0.0
 40
0.0
 40
0.5
 40
1.0
 40
1.0
 40
1.0
 40
1.0
 10
779.8071887079458
 20
1982.24647922243
 30
0.0
 10
779.6618158888096
 20
1982.569336391698
 30
0.0
 10
779.4429795255287
 20
1983.364826925697
 30
0.0
 10
779.3679617122306
 20
1984.417250168929
 30
0.0
 10
779.3664074430773
 20
1984.991669750819
 30
0.0
1001
REVIT
1002
{
1070
     3
1000
790271
1002
}
  0
SPLINE
  5
F6
330
87
100
AcDbEntity
  8
M-PIPE
100
AcDbSpline
210
0.0
220
0.0
230
1.0
 70
     8
 71
     3
 72
     9
 73
     5
 74
     0
 42
0.000000001
 43
0.0000000001
 40
0.0
 40
0.0
 40
0.0
 40
0.0
 40
0.5
 40
1.0
 40
1.0
 40
1.0
 40
1.0
 10
779.3664074430773
 20
1984.991669750819
 30
0.0
 10
779.3679617122304
 20
1985.566089332706
 30
0.0
 10
779.4429795255281
 20
1986.795491887602
 30
0.0
 10
779.661815888808
 20
1988.095955412281
 30
0.0
 10
779.8071887079436
 20
1988.741669750814
 30
0.0
1001
REVIT
1002
{
1070
     3
1000
790271
1002
}
  0
SPLINE
  5
F7
330
87
100
AcDbEntity
  8
M-PIPE
100
AcDbSpline
210
0.0
220
0.0
230
1.0
 70
     8
 71
     3
 72
     9
 73
     5
 74
     0
 42
0.000000001
 43
0.0000000001
 40
0.0
 40
0.0
 40
0.0
 40
0.0
 40
0.5
 40
1.0
 40
1.0
 40
1.0
 40
1.0
 10
779.8071887079348
 20
2011.258330249209
 30
0.0
 10
779.6618158887964
 20
2011.904044587744
 30
0.0
 10
779.4429795255153
 20
2013.204508112426
 30
0.0
 10
779.3679617122251
 20
2014.433910667326
 30
0.0
 10
779.3664074430777
 20
2015.008330249215
 30
0.0
1001
REVIT
1002
{
1070
     3
1000
790271
1002
}
  0
SPLINE
  5
F8
330
87
100
AcDbEntity
  8
M-PIPE
100
AcDbSpline
210
0.0
220
0.0
230
1.0
 70
     8
 71
     3
 72
     9
 73
     5
 74
     0
 42
0.000000001
 43
0.0000000001
 40
0.0
 40
0.0
 40
0.0
 40
0.0
 40
0.5
 40
1.0
 40
1.0
 40
1.0
 40
1.0
 10
779.3664074430777
 20
2015.008330249215
 30
0.0
 10
779.3679617122251
 20
2015.582749831102
 30
0.0
 10
779.4429795255149
 20
2016.63517307433
 30
0.0
 10
779.6618158887946
 20
2017.430663608326
 30
0.0
 10
779.8071887079321
 20
2017.753520777592
 30
0.0
1001
REVIT
1002
{
1070
     3
1000
790271
1002
}
  0
SPLINE
  5
F9
330
87
100
AcDbEntity
  8
M-PIPE
100
AcDbSpline
210
0.0
220
0.0
230
1.0
 70
     8
 71
     3
 72
    10
 73
     6
 74
     0
 42
0.000000001
 43
0.0000000001
 40
-1.0
 40
-1.0
 40
-1.0
 40
-1.0
 40
-0.7
 40
-0.4
 40
0.0
 40
0.0
 40
0.0
 40
0.0
 10
764.0557531971749
 20
2011.258330249209
 30
0.0
 10
764.2292156454889
 20
2012.031287060016
 30
0.0
 10
764.4765293208068
 20
2013.595998366811
 30
0.0
 10
764.5389464413778
 20
2015.988988742027
 30
0.0
 10
764.2873889497192
 20
2017.237154986533
 30
0.0
 10
764.0557531971778
 20
2017.753520777592
 30
0.0
1001
REVIT
1002
{
1070
     3
1000
790271
1002
}
  0
SPLINE
  5
FA
330
87
100
AcDbEntity
  8
M-PIPE
100
AcDbSpline
210
0.0
220
0.0
230
1.0
 70
     8
 71
     3
 72
     9
 73
     5
 74
     0
 42
0.000000001
 43
0.0000000001
 40
0.0
 40
0.0
 40
0.0
 40
0.0
 40
0.5
 40
1.0
 40
1.0
 40
1.0
 40
1.0
 10
779.8071887079267
 20
2029.01185102679
 30
0.0
 10
779.6618158887874
 20
2029.334708196057
 30
0.0
 10
779.4429795255068
 20
2029.839681186739
 30
0.0
 10
779.3679617122218
 20
2030.016660498407
 30
0.0
 10
779.3664074430779
 20
2030.016660498407
 30
0.0
1001
REVIT
1002
{
1070
     3
1000
790271
1002
}
  0
SPLINE
  5
FB
330
87
100
AcDbEntity
  8
M-PIPE
100
AcDbSpline
210
0.0
220
0.0
230
1.0
 70
     8
 71
     3
 72
     9
 73
     5
 74
     0
 42
0.000000001
 43
0.0000000001
 40
-1.0
 40
-1.0
 40
-1.0
 40
-1.0
 40
-0.7
 40
-0.499865379751367
 40
-0.499865379751367
 40
-0.499865379751367
 40
-0.499865379751367
 10
764.0557531971834
 20
2029.01185102679
 30
0.0
 10
764.2292156454973
 20
2029.398329432194
 30
0.0
 10
764.4353658639758
 20
2029.87643500666
 30
0.0
 10
764.4956991202027
 20
2030.016000796682
 30
0.0
 10
764.4959689917932
 20
2030.016269340971
 30
0.0
1001
REVIT
1002
{
1070
     3
1000
790271
1002
}
  0
SPLINE
  5
FC
330
87
100
AcDbEntity
  8
M-PIPE
100
AcDbSpline
210
0.0
220
0.0
230
1.0
 70
     8
 71
     3
 72
     8
 73
     4
 74
     0
 42
0.000000001
 43
0.0000000001
 40
-0.499865192396928
 40
-0.499865192396928
 40
-0.499865192396928
 40
-0.499865192396928
 40
-0.4
 40
-0.4
 40
-0.4
 40
-0.4
 10
764.4959689925509
 20
2030.016269341725
 30
0.0
 10
764.4961036334969
 20
2030.016403290738
 30
0.0
 10
764.4948903064737
 20
2030.012807631056
 30
0.0
 10
764.4784752337251
 20
2029.974983938123
 30
0.0
1001
REVIT
1002
{
1070
     3
1000
790271
1002
}
  0
SPLINE
  5
FD
330
87
100
AcDbEntity
  8
M-PIPE
100
AcDbSpline
210
0.0
220
0.0
230
1.0
 70
     8
 71
     3
 72
     9
 73
     5
 74
     0
 42
0.000000001
 43
0.0000000001
 40
0.0
 40
0.0
 40
0.0
 40
0.0
 40
0.5
 40
1.0
 40
1.0
 40
1.0
 40
1.0
 10
779.3664074430767
 20
1969.983339501616
 30
0.0
 10
779.3679617122324
 20
1969.983339501616
 30
0.0
 10
779.4429795255336
 20
1970.160318813284
 30
0.0
 10
779.6618158888142
 20
1970.665291803966
 30
0.0
 10
779.8071887079493
 20
1970.988148973233
 30
0.0
1001
REVIT
1002
{
1070
     3
1000
790271
1002
}
  0
SPLINE
  5
FE
330
87
100
AcDbEntity
  8
M-PIPE
100
AcDbSpline
210
0.0
220
0.0
230
1.0
 70
     8
 71
     3
 72
     8
 73
     4
 74
     0
 42
0.000000001
 43
0.0000000001
 40
-0.5994617534407628
 40
-0.5994617534407628
 40
-0.5994617534407628
 40
-0.5994617534407628
 40
-0.499865379657893
 40
-0.499865379657893
 40
-0.499865379657893
 40
-0.499865379657893
 10
764.4778938720466
 20
1970.025256511049
 30
0.0
 10
764.4897881403048
 20
1969.997762539236
 30
0.0
 10
764.5006370131511
 20
1969.973172661548
 30
0.0
 10
764.5031821900088
 20
1969.967671573426
 30
0.0
1001
REVIT
1002
{
1070
     3
1000
790271
1002
}
  0
SPLINE
  5
FF
330
87
100
AcDbEntity
  8
M-PIPE
100
AcDbSpline
210
0.0
220
0.0
230
1.0
 70
     8
 71
     3
 72
     9
 73
     5
 74
     0
 42
0.000000001
 43
0.0000000001
 40
-0.4998651923969446
 40
-0.4998651923969446
 40
-0.4998651923969446
 40
-0.4998651923969446
 40
-0.4
 40
0.0
 40
0.0
 40
0.0
 40
0.0
 10
764.4959689925262
 20
1969.983730658299
 30
0.0
 10
764.4961036334721
 20
1969.983596709285
 30
0.0
 10
764.4670244267964
 20
1970.052195985224
 30
0.0
 10
764.2873889497005
 20
1970.471783182173
 30
0.0
 10
764.0557531971589
 20
1970.988148973233
 30
0.0
1001
REVIT
1002
{
1070
     3
1000
790271
1002
}
  0
LINE
  5
100
330
87
100
AcDbEntity
  8
M-PIPE
100
AcDbLine
 10
870.166407443167
 20
1979.050000000043
 30
0.0
 11
871.1664074431578
 21
1979.050000000043
 31
0.0
1001
REVIT
1002
{
1070
     3
1000
790271
1002
}
  0
LINE
  5
101
330
87
100
AcDbEntity
  8
M-PIPE
100
AcDbLine
 10
883.1664074431582
 20
1979.050000000043
 30
0.0
 11
907.6664074431961
 21
1979.050000000042
 31
0.0
1001
REVIT
1002
{
1070
     3
1000
790271
1002
}
  0
LINE
  5
102
330
87
100
AcDbEntity
  8
M-PIPE
100
AcDbLine
 10
907.6664074431961
 20
2020.949999999949
 30
0.0
 11
883.1664074431577
 21
2020.949999999949
 31
0.0
1001
REVIT
1002
{
1070
     3
1000
790271
1002
}
  0
LINE
  5
103
330
87
100
AcDbEntity
  8
M-PIPE
100
AcDbLine
 10
871.1664074431579
 20
2020.949999999949
 30
0.0
 11
870.1664074431674
 21
2020.949999999949
 31
0.0
1001
REVIT
1002
{
1070
     3
1000
790271
1002
}
  0
LINE
  5
104
330
87
100
AcDbEntity
  8
M-PIPE
100
AcDbLine
 10
883.1664074431563
 20
1980.499999999993
 30
0.0
 11
883.1664074431564
 21
1979.068109021246
 31
0.0
1001
REVIT
1002
{
1070
     3
1000
790271
1002
}
  0
LINE
  5
105
330
87
100
AcDbEntity
  8
M-PIPE
100
AcDbLine
 10
871.1664074431562
 20
1979.068109021246
 30
0.0
 11
871.166407443156
 21
1980.499999999993
 31
0.0
1001
REVIT
1002
{
1070
     3
1000
790271
1002
}
  0
LINE
  5
106
330
87
100
AcDbEntity
  8
M-PIPE
100
AcDbLine
 10
871.1664074431562
 20
1980.499999999993
 30
0.0
 11
883.1664074431563
 21
1980.499999999993
 31
0.0
1001
REVIT
1002
{
1070
     3
1000
790271
1002
}
  0
LINE
  5
107
330
87
100
AcDbEntity
  8
M-PIPE
100
AcDbLine
 10
883.1664074431563
 20
2020.931890978744
 30
0.0
 11
883.1664074431561
 21
2019.499999999993
 31
0.0
1001
REVIT
1002
{
1070
     3
1000
790271
1002
}
  0
LINE
  5
108
330
87
100
AcDbEntity
  8
M-PIPE
100
AcDbLine
 10
883.1664074431563
 20
2019.499999999993
 30
0.0
 11
871.1664074431562
 21
2019.499999999993
 31
0.0
1001
REVIT
1002
{
1070
     3
1000
790271
1002
}
  0
LINE
  5
109
330
87
100
AcDbEntity
  8
M-PIPE
100
AcDbLine
 10
871.1664074431562
 20
2019.499999999993
 30
0.0
 11
871.1664074431563
 21
2020.931890978744
 31
0.0
1001
REVIT
1002
{
1070
     3
1000
790271
1002
}
  0
LINE
  5
10A
330
87
100
AcDbEntity
  8
M-PIPE
100
AcDbLine
 10
883.1664074431563
 20
2016.382448642703
 30
0.0
 11
883.1664074431563
 21
2003.117551357304
 31
0.0
1001
REVIT
1002
{
1070
     3
1000
790271
1002
}
  0
LINE
  5
10B
330
87
100
AcDbEntity
  8
M-PIPE
100
AcDbLine
 10
883.1664074431563
 20
2003.117551357303
 30
0.0
 11
871.1664074431563
 21
2003.117551357303
 31
0.0
1001
REVIT
1002
{
1070
     3
1000
790271
1002
}
  0
LINE
  5
10C
330
87
100
AcDbEntity
  8
M-PIPE
100
AcDbLine
 10
871.1664074431563
 20
2003.117551357304
 30
0.0
 11
871.1664074431563
 21
2016.382448642703
 31
0.0
1001
REVIT
1002
{
1070
     3
1000
790271
1002
}
  0
LINE
  5
10D
330
87
100
AcDbEntity
  8
M-PIPE
100
AcDbLine
 10
871.1664074431562
 20
2016.382448642704
 30
0.0
 11
883.1664074431563
 21
2016.382448642704
 31
0.0
1001
REVIT
1002
{
1070
     3
1000
790271
1002
}
  0
LINE
  5
10E
330
87
100
AcDbEntity
  8
M-PIPE
100
AcDbLine
 10
883.1664074431563
 20
1996.88244864268
 30
0.0
 11
883.1664074431563
 21
1983.617551357291
 31
0.0
1001
REVIT
1002
{
1070
     3
1000
790271
1002
}
  0
LINE
  5
10F
330
87
100
AcDbEntity
  8
M-PIPE
100
AcDbLine
 10
883.1664074431563
 20
1983.61755135729
 30
0.0
 11
871.1664074431562
 21
1983.617551357291
 31
0.0
1001
REVIT
1002
{
1070
     3
1000
790271
1002
}
  0
LINE
  5
110
330
87
100
AcDbEntity
  8
M-PIPE
100
AcDbLine
 10
871.1664074431562
 20
1983.617551357292
 30
0.0
 11
871.1664074431563
 21
1996.882448642679
 31
0.0
1001
REVIT
1002
{
1070
     3
1000
790271
1002
}
  0
LINE
  5
111
330
87
100
AcDbEntity
  8
M-PIPE
100
AcDbLine
 10
871.1664074431563
 20
1996.882448642681
 30
0.0
 11
883.1664074431563
 21
1996.882448642681
 31
0.0
1001
REVIT
1002
{
1070
     3
1000
790271
1002
}
  0
LINE
  5
112
330
87
100
AcDbEntity
  8
M-PIPE
100
AcDbLine
 10
907.6664074431944
 20
1979.057179041804
 30
0.0
 11
907.6664074431942
 21
1981.856767790751
 31
0.0
1001
REVIT
1002
{
1070
     3
1000
790271
1002
}
  0
LINE
  5
113
330
87
100
AcDbEntity
  8
M-PIPE
100
AcDbLine
 10
907.6664074431942
 20
1981.856767790752
 30
0.0
 11
907.6664074431946
 21
2020.949999999948
 31
0.0
1001
REVIT
1002
{
1070
     3
1000
790271
1002
}
  0
LINE
  5
114
330
87
100
AcDbEntity
  8
M-PIPE
100
AcDbLine
 10
723.6664074431233
 20
1979.050000000043
 30
0.0
 11
748.1664074431616
 21
1979.050000000043
 31
0.0
1001
REVIT
1002
{
1070
     3
1000
790271
1002
}
  0
LINE
  5
115
330
87
100
AcDbEntity
  8
M-PIPE
100
AcDbLine
 10
760.166407443162
 20
1979.050000000043
 30
0.0
 11
761.1664074431106
 21
1979.050000000043
 31
0.0
1001
REVIT
1002
{
1070
     3
1000
790271
1002
}
  0
LINE
  5
116
330
87
100
AcDbEntity
  8
M-PIPE
100
AcDbLine
 10
761.1664074431115
 20
2020.949999999949
 30
0.0
 11
760.1664074431616
 21
2020.949999999949
 31
0.0
1001
REVIT
1002
{
1070
     3
1000
790271
1002
}
  0
LINE
  5
117
330
87
100
AcDbEntity
  8
M-PIPE
100
AcDbLine
 10
748.1664074431619
 20
2020.94999999995
 30
0.0
 11
723.6664074431238
 21
2020.94999999995
 31
0.0
1001
REVIT
1002
{
1070
     3
1000
790271
1002
}
  0
LINE
  5
118
330
87
100
AcDbEntity
  8
M-PIPE
100
AcDbLine
 10
748.1664074431602
 20
1979.068109021247
 30
0.0
 11
748.16640744316
 21
1980.500000000011
 31
0.0
1001
REVIT
1002
{
1070
     3
1000
790271
1002
}
  0
LINE
  5
119
330
87
100
AcDbEntity
  8
M-PIPE
100
AcDbLine
 10
748.1664074431602
 20
1980.500000000011
 30
0.0
 11
760.1664074431602
 21
1980.500000000011
 31
0.0
1001
REVIT
1002
{
1070
     3
1000
790271
1002
}
  0
LINE
  5
11A
330
87
100
AcDbEntity
  8
M-PIPE
100
AcDbLine
 10
760.1664074431602
 20
1980.500000000011
 30
0.0
 11
760.1664074431603
 21
1979.068109021247
 31
0.0
1001
REVIT
1002
{
1070
     3
1000
790271
1002
}
  0
LINE
  5
11B
330
87
100
AcDbEntity
  8
M-PIPE
100
AcDbLine
 10
748.1664074431602
 20
1983.617551357227
 30
0.0
 11
748.1664074431606
 21
1996.882448642782
 31
0.0
1001
REVIT
1002
{
1070
     3
1000
790271
1002
}
  0
LINE
  5
11C
330
87
100
AcDbEntity
  8
M-PIPE
100
AcDbLine
 10
748.1664074431604
 20
1996.882448642781
 30
0.0
 11
760.1664074431603
 21
1996.882448642781
 31
0.0
1001
REVIT
1002
{
1070
     3
1000
790271
1002
}
  0
LINE
  5
11D
330
87
100
AcDbEntity
  8
M-PIPE
100
AcDbLine
 10
760.1664074431603
 20
1996.882448642783
 30
0.0
 11
760.1664074431602
 21
1983.617551357227
 31
0.0
1001
REVIT
1002
{
1070
     3
1000
790271
1002
}
  0
LINE
  5
11E
330
87
100
AcDbEntity
  8
M-PIPE
100
AcDbLine
 10
760.1664074431602
 20
1983.617551357227
 30
0.0
 11
748.1664074431602
 21
1983.617551357228
 31
0.0
1001
REVIT
1002
{
1070
     3
1000
790271
1002
}
  0
LINE
  5
11F
330
87
100
AcDbEntity
  8
M-PIPE
100
AcDbLine
 10
748.1664074431604
 20
2003.117551357252
 30
0.0
 11
748.1664074431606
 21
2016.382448642735
 31
0.0
1001
REVIT
1002
{
1070
     3
1000
790271
1002
}
  0
LINE
  5
120
330
87
100
AcDbEntity
  8
M-PIPE
100
AcDbLine
 10
748.1664074431602
 20
2016.382448642735
 30
0.0
 11
760.1664074431602
 21
2016.382448642735
 31
0.0
1001
REVIT
1002
{
1070
     3
1000
790271
1002
}
  0
LINE
  5
121
330
87
100
AcDbEntity
  8
M-PIPE
100
AcDbLine
 10
760.1664074431602
 20
2016.382448642735
 30
0.0
 11
760.1664074431602
 21
2003.117551357252
 31
0.0
1001
REVIT
1002
{
1070
     3
1000
790271
1002
}
  0
LINE
  5
122
330
87
100
AcDbEntity
  8
M-PIPE
100
AcDbLine
 10
760.1664074431603
 20
2003.117551357252
 30
0.0
 11
748.1664074431604
 21
2003.117551357252
 31
0.0
1001
REVIT
1002
{
1070
     3
1000
790271
1002
}
  0
LINE
  5
123
330
87
100
AcDbEntity
  8
M-PIPE
100
AcDbLine
 10
748.1664074431602
 20
2019.500000000012
 30
0.0
 11
748.1664074431604
 21
2020.931890978744
 31
0.0
1001
REVIT
1002
{
1070
     3
1000
790271
1002
}
  0
LINE
  5
124
330
87
100
AcDbEntity
  8
M-PIPE
100
AcDbLine
 10
760.1664074431602
 20
2020.931890978744
 30
0.0
 11
760.16640744316
 21
2019.500000000012
 31
0.0
1001
REVIT
1002
{
1070
     3
1000
790271
1002
}
  0
LINE
  5
125
330
87
100
AcDbEntity
  8
M-PIPE
100
AcDbLine
 10
760.1664074431602
 20
2019.500000000011
 30
0.0
 11
748.1664074431602
 21
2019.500000000011
 31
0.0
1001
REVIT
1002
{
1070
     3
1000
790271
1002
}
  0
LINE
  5
126
330
87
100
AcDbEntity
  8
M-PIPE
100
AcDbLine
 10
723.6664074431221
 20
1999.999999999996
 30
0.0
 11
723.6664074431217
 21
1979.050000000042
 31
0.0
1001
REVIT
1002
{
1070
     3
1000
790271
1002
}
  0
LINE
  5
127
330
87
100
AcDbEntity
  8
M-PIPE
100
AcDbLine
 10
723.6664074431224
 20
2020.949999999949
 30
0.0
 11
723.6664074431221
 21
1999.999999999996
 31
0.0
1001
REVIT
1002
{
1070
     3
1000
790271
1002
}
  0
LINE
  5
128
330
87
100
AcDbEntity
  8
P-SANR-FIXT
100
AcDbLine
 10
789.41640744316
 20
1953.499999999996
 30
0.0
 11
789.41640744316
 21
1945.499999999996
 31
0.0
  0
LINE
  5
129
330
87
100
AcDbEntity
  8
P-SANR-FIXT
100
AcDbLine
 10
841.9164074431598
 20
1945.499999999996
 30
0.0
 11
841.9164074431598
 21
1953.499999999996
 31
0.0
  0
LINE
  5
12A
330
87
100
AcDbEntity
  8
P-SANR-FIXT
100
AcDbLine
 10
792.1664074431598
 20
1970.030319905745
 30
0.0
 11
792.1664074431598
 21
1953.499999999996
 31
0.0
  0
LINE
  5
12B
330
87
100
AcDbEntity
  8
P-SANR-FIXT
100
AcDbLine
 10
839.1664074431599
 20
1953.499999999996
 30
0.0
 11
839.1664074431599
 21
1970.030319905745
 31
0.0
  0
LINE
  5
12C
330
87
100
AcDbEntity
  8
P-SANR-FIXT
100
AcDbLine
 10
802.6664074431597
 20
2032.499999999996
 30
0.0
 11
802.6664074431597
 21
2029.992142290913
 31
0.0
  0
LINE
  5
12D
330
87
100
AcDbEntity
  8
P-SANR-FIXT
100
AcDbLine
 10
828.66640744316
 20
2029.992142290913
 30
0.0
 11
828.66640744316
 21
2032.499999999996
 31
0.0
  0
LINE
  5
12E
330
87
100
AcDbEntity
  8
P-SANR-FIXT
100
AcDbLine
 10
839.1387590949729
 20
1969.999999999996
 30
0.0
 11
845.66640744316
 21
1969.999999999996
 31
0.0
  0
LINE
  5
12F
330
87
100
AcDbEntity
  8
P-SANR-FIXT
100
AcDbLine
 10
845.66640744316
 20
2029.999999999997
 30
0.0
 11
828.6592680452683
 21
2029.999999999997
 31
0.0
  0
LINE
  5
130
330
87
100
AcDbEntity
  8
P-SANR-FIXT
100
AcDbLine
 10
785.6664074431598
 20
1969.999999999996
 30
0.0
 11
792.1940557913469
 21
1969.999999999996
 31
0.0
  0
LINE
  5
131
330
87
100
AcDbEntity
  8
P-SANR-FIXT
100
AcDbLine
 10
802.6735468410514
 20
2029.999999999996
 30
0.0
 11
785.6664074431598
 21
2029.999999999996
 31
0.0
  0
LINE
  5
132
330
87
100
AcDbEntity
  8
P-SANR-FIXT
100
AcDbLine
 10
781.1664074431106
 20
1977.999999999996
 30
0.0
 11
785.6664074431598
 21
1977.999999999996
 31
0.0
  0
LINE
  5
133
330
87
100
AcDbEntity
  8
P-SANR-FIXT
100
AcDbLine
 10
785.6664074431598
 20
2021.999999999996
 30
0.0
 11
781.1664074431114
 21
2021.999999999996
 31
0.0
  0
LINE
  5
134
330
87
100
AcDbEntity
  8
P-SANR-FIXT
100
AcDbLine
 10
845.66640744316
 20
1977.999999999996
 30
0.0
 11
850.1664074431669
 21
1977.999999999996
 31
0.0
  0
LINE
  5
135
330
87
100
AcDbEntity
  8
P-SANR-FIXT
100
AcDbLine
 10
850.1664074431674
 20
2021.999999999996
 30
0.0
 11
845.66640744316
 21
2021.999999999996
 31
0.0
  0
LINE
  5
136
330
87
100
AcDbEntity
  8
P-SANR-FIXT
100
AcDbLine
 10
802.6664074431581
 20
2032.499999999995
 30
0.0
 11
815.6664074431583
 21
2032.499999999995
 31
0.0
  0
LINE
  5
137
330
87
100
AcDbEntity
  8
P-SANR-FIXT
100
AcDbLine
 10
815.6664074431583
 20
2032.499999999995
 30
0.0
 11
828.6664074431584
 21
2032.499999999995
 31
0.0
  0
LINE
  5
138
330
87
100
AcDbEntity
  8
P-SANR-FIXT
100
AcDbLine
 10
815.6664074431583
 20
1945.499999999995
 30
0.0
 11
806.2423690306729
 21
1945.499999999995
 31
0.0
  0
LINE
  5
139
330
87
100
AcDbEntity
  8
P-SANR-FIXT
100
AcDbLine
 10
799.1608042566824
 20
1945.499999999995
 30
0.0
 11
789.7367658441968
 21
1945.499999999995
 31
0.0
  0
LINE
  5
13A
330
87
100
AcDbEntity
  8
P-SANR-FIXT
100
AcDbLine
 10
841.5960490421198
 20
1945.499999999995
 30
0.0
 11
832.1720106296345
 21
1945.499999999995
 31
0.0
  0
LINE
  5
13B
330
87
100
AcDbEntity
  8
P-SANR-FIXT
100
AcDbLine
 10
825.0904458556437
 20
1945.499999999995
 30
0.0
 11
815.6664074431583
 21
1945.499999999995
 31
0.0
  0
LINE
  5
13C
330
87
100
AcDbEntity
  8
P-SANR-FIXT
100
AcDbLine
 10
806.2423690306731
 20
1945.499999999995
 30
0.0
 11
799.1608042566824
 21
1945.499999999995
 31
0.0
  0
LINE
  5
13D
330
87
100
AcDbEntity
  8
P-SANR-FIXT
100
AcDbLine
 10
806.2423690306729
 20
1945.499999999995
 30
0.0
 11
806.2423690306729
 21
1953.499999999995
 31
0.0
  0
LINE
  5
13E
330
87
100
AcDbEntity
  8
P-SANR-FIXT
100
AcDbLine
 10
799.1608042566824
 20
1953.499999999995
 30
0.0
 11
799.1608042566824
 21
1945.499999999995
 31
0.0
  0
LINE
  5
13F
330
87
100
AcDbEntity
  8
P-SANR-FIXT
100
AcDbLine
 10
789.7367658441968
 20
1945.499999999995
 30
0.0
 11
789.4164074431582
 21
1945.499999999995
 31
0.0
  0
LINE
  5
140
330
87
100
AcDbEntity
  8
P-SANR-FIXT
100
AcDbLine
 10
789.7367658441968
 20
1945.499999999995
 30
0.0
 11
789.7367658441968
 21
1953.499999999995
 31
0.0
  0
LINE
  5
141
330
87
100
AcDbEntity
  8
P-SANR-FIXT
100
AcDbLine
 10
841.9164074431582
 20
1945.499999999995
 30
0.0
 11
841.5960490421198
 21
1945.499999999995
 31
0.0
  0
LINE
  5
142
330
87
100
AcDbEntity
  8
P-SANR-FIXT
100
AcDbLine
 10
841.5960490421198
 20
1953.499999999995
 30
0.0
 11
841.5960490421198
 21
1945.499999999995
 31
0.0
  0
LINE
  5
143
330
87
100
AcDbEntity
  8
P-SANR-FIXT
100
AcDbLine
 10
832.1720106296345
 20
1945.499999999995
 30
0.0
 11
825.0904458556439
 21
1945.499999999995
 31
0.0
  0
LINE
  5
144
330
87
100
AcDbEntity
  8
P-SANR-FIXT
100
AcDbLine
 10
832.1720106296343
 20
1945.499999999995
 30
0.0
 11
832.1720106296343
 21
1953.499999999995
 31
0.0
  0
LINE
  5
145
330
87
100
AcDbEntity
  8
P-SANR-FIXT
100
AcDbLine
 10
825.0904458556437
 20
1953.499999999995
 30
0.0
 11
825.0904458556437
 21
1945.499999999995
 31
0.0
  0
LINE
  5
146
330
87
100
AcDbEntity
  8
P-SANR-FIXT
100
AcDbLine
 10
789.7367658441968
 20
1953.499999999995
 30
0.0
 11
789.4164074431582
 21
1953.499999999995
 31
0.0
  0
LINE
  5
147
330
87
100
AcDbEntity
  8
P-SANR-FIXT
100
AcDbLine
 10
789.7367658441968
 20
1953.499999999995
 30
0.0
 11
799.1608042566824
 21
1953.499999999995
 31
0.0
  0
LINE
  5
148
330
87
100
AcDbEntity
  8
P-SANR-FIXT
100
AcDbLine
 10
806.2423690306731
 20
1953.499999999995
 30
0.0
 11
799.1608042566824
 21
1953.499999999995
 31
0.0
  0
LINE
  5
149
330
87
100
AcDbEntity
  8
P-SANR-FIXT
100
AcDbLine
 10
806.2423690306729
 20
1953.499999999995
 30
0.0
 11
815.6664074431583
 21
1953.499999999995
 31
0.0
  0
LINE
  5
14A
330
87
100
AcDbEntity
  8
P-SANR-FIXT
100
AcDbLine
 10
815.6664074431583
 20
1953.499999999995
 30
0.0
 11
825.0904458556437
 21
1953.499999999995
 31
0.0
  0
LINE
  5
14B
330
87
100
AcDbEntity
  8
P-SANR-FIXT
100
AcDbLine
 10
832.1720106296345
 20
1953.499999999995
 30
0.0
 11
825.0904458556439
 21
1953.499999999995
 31
0.0
  0
LINE
  5
14C
330
87
100
AcDbEntity
  8
P-SANR-FIXT
100
AcDbLine
 10
832.1720106296345
 20
1953.499999999995
 30
0.0
 11
841.5960490421198
 21
1953.499999999995
 31
0.0
  0
LINE
  5
14D
330
87
100
AcDbEntity
  8
P-SANR-FIXT
100
AcDbLine
 10
841.9164074431582
 20
1953.499999999995
 30
0.0
 11
841.5960490421198
 21
1953.499999999995
 31
0.0
  0
LINE
  5
14E
330
87
100
AcDbEntity
  8
P-SANR-FIXT
100
AcDbLine
 10
845.6664074431584
 20
1969.999999999995
 30
0.0
 11
845.6664074431584
 21
1999.999999999995
 31
0.0
  0
SPLINE
  5
14F
330
87
100
AcDbEntity
  8
P-SANR-FIXT
100
AcDbSpline
210
0.0
220
0.0
230
1.0
 70
     8
 71
     3
 72
    23
 73
    19
 74
     0
 42
0.000000001
 43
0.0000000001
 40
-0.4814814814814815
 40
-0.4814814814814815
 40
-0.4814814814814815
 40
-0.4814814814814815
 40
-0.4722222222222223
 40
-0.4444444444444445
 40
-0.3888888888888888
 40
-0.3611111111111111
 40
-0.3333333333333333
 40
-0.2777777777777778
 40
-0.25
 40
-0.2222222222222222
 40
-0.1944444444444444
 40
-0.1666666666666666
 40
-0.1388888888888889
 40
-0.1111111111111111
 40
-0.0972222222222222
 40
-0.0833333333333333
 40
-0.0555555555555556
 40
0.0
 40
0.0
 40
0.0
 40
0.0
 10
839.0978971412714
 20
1970.035159662348
 30
0.0
 10
839.0843294159534
 20
1970.046819467167
 30
0.0
 10
839.0167577769416
 20
1970.104861548813
 30
0.0
 10
838.7180353809633
 20
1970.36104057369
 30
0.0
 10
837.9301408849741
 20
1970.954743940922
 30
0.0
 10
836.8058729834174
 20
1971.798881192026
 30
0.0
 10
835.5365677261129
 20
1972.76195808112
 30
0.0
 10
833.987254185374
 20
1973.887093312802
 30
0.0
 10
832.1767191849279
 20
1975.111031569595
 30
0.0
 10
830.7307458272585
 20
1976.033934675998
 30
0.0
 10
829.1899817005994
 20
1976.977334886957
 30
0.0
 10
827.5365871661016
 20
1977.936153275828
 30
0.0
 10
825.785984688996
 20
1978.842711158039
 30
0.0
 10
824.2528394087587
 20
1979.49793214883
 30
0.0
 10
822.9838970082594
 20
1979.941713388921
 30
0.0
 10
821.6833810707299
 20
1980.347925381477
 30
0.0
 10
819.326708356189
 20
1980.943962964213
 30
0.0
 10
817.1675827332025
 20
1981.248008171895
 30
0.0
 10
815.6664074431583
 20
1981.351943801023
 30
0.0
  0
SPLINE
  5
150
330
87
100
AcDbEntity
  8
P-SANR-FIXT
100
AcDbSpline
210
0.0
220
0.0
230
1.0
 70
     8
 71
     3
 72
    13
 73
     9
 74
     0
 42
0.000000001
 43
0.0000000001
 40
-1.0
 40
-1.0
 40
-1.0
 40
-1.0
 40
-0.861111111111111
 40
-0.7916666666666668
 40
-0.7222222222222223
 40
-0.6527777777777777
 40
-0.5833333333333333
 40
-0.5277777777777777
 40
-0.5277777777777777
 40
-0.5277777777777777
 40
-0.5277777777777777
 10
815.6664074431583
 20
2027.037011669186
 30
0.0
 10
817.6600974614272
 20
2027.056343086612
 30
0.0
 10
820.4005858094904
 20
2027.355437070346
 30
0.0
 10
823.6707882038706
 20
2028.171637643604
 30
0.0
 10
825.6870733280033
 20
2028.817352231568
 30
0.0
 10
827.2574794318121
 20
2029.410120847749
 30
0.0
 10
828.250584389422
 20
2029.820060259462
 30
0.0
 10
828.5441940831775
 20
2029.949502602413
 30
0.0
 10
828.6099479009404
 20
2029.978283536676
 30
0.0
  0
LINE
  5
151
330
87
100
AcDbEntity
  8
P-SANR-FIXT
100
AcDbLine
 10
845.6664074431584
 20
1999.999999999995
 30
0.0
 11
845.6664074431584
 21
2029.999999999995
 31
0.0
  0
SPLINE
  5
152
330
87
100
AcDbEntity
  8
P-SANR-FIXT
100
AcDbSpline
210
0.0
220
0.0
230
1.0
 70
     8
 71
     3
 72
    23
 73
    19
 74
     0
 42
0.000000001
 43
0.0000000001
 40
-1.0
 40
-1.0
 40
-1.0
 40
-1.0
 40
-0.9444444444444444
 40
-0.9166666666666666
 40
-0.9027777777777776
 40
-0.8888888888888889
 40
-0.861111111111111
 40
-0.8333333333333332
 40
-0.8055555555555555
 40
-0.7777777777777778
 40
-0.75
 40
-0.7222222222222223
 40
-0.6666666666666666
 40
-0.6388888888888889
 40
-0.6111111111111112
 40
-0.5555555555555556
 40
-0.5277777777777778
 40
-0.5185185185185189
 40
-0.5185185185185189
 40
-0.5185185185185189
 40
-0.5185185185185189
 10
815.6664074431583
 20
1981.351943801024
 30
0.0
 10
814.1652321531143
 20
1981.248008171895
 30
0.0
 10
812.0061065301278
 20
1980.943962964213
 30
0.0
 10
809.6494338155867
 20
1980.347925381477
 30
0.0
 10
808.3489178780572
 20
1979.941713388922
 30
0.0
 10
807.0799754775579
 20
1979.497932148831
 30
0.0
 10
805.5468301973206
 20
1978.84271115804
 30
0.0
 10
803.7962277202153
 20
1977.936153275829
 30
0.0
 10
802.1428331857173
 20
1976.977334886958
 30
0.0
 10
800.6020690590581
 20
1976.033934675999
 30
0.0
 10
799.1560957013889
 20
1975.111031569596
 30
0.0
 10
797.3455607009428
 20
1973.887093312803
 30
0.0
 10
795.7962471602034
 20
1972.76195808112
 30
0.0
 10
794.5269419028991
 20
1971.798881192026
 30
0.0
 10
793.4026740013425
 20
1970.954743940923
 30
0.0
 10
792.6147795053534
 20
1970.361040573692
 30
0.0
 10
792.316057109375
 20
1970.104861548813
 30
0.0
 10
792.2484854703632
 20
1970.046819467167
 30
0.0
 10
792.2349177450452
 20
1970.035159662349
 30
0.0
  0
SPLINE
  5
153
330
87
100
AcDbEntity
  8
P-SANR-FIXT
100
AcDbSpline
210
0.0
220
0.0
230
1.0
 70
     8
 71
     3
 72
    16
 73
    12
 74
     0
 42
0.000000001
 43
0.0000000001
 40
-0.4722222222222223
 40
-0.4722222222222223
 40
-0.4722222222222223
 40
-0.4722222222222223
 40
-0.4444444444444445
 40
-0.3888888888888888
 40
-0.3333333333333333
 40
-0.2222222222222222
 40
-0.1666666666666666
 40
-0.1111111111111111
 40
-0.0833333333333333
 40
-0.0555555555555556
 40
0.0
 40
0.0
 40
0.0
 40
0.0
 10
802.7195854279598
 20
2029.977720767442
 30
0.0
 10
802.7519931402421
 20
2029.963243903022
 30
0.0
 10
802.8999982893669
 20
2029.898473767328
 30
0.0
 10
803.4102611931613
 20
2029.685977865715
 30
0.0
 10
804.6934172517509
 20
2029.164035791927
 30
0.0
 10
806.644186704255
 20
2028.463226809523
 30
0.0
 10
809.1051903094605
 20
2027.802267855833
 30
0.0
 10
810.8263489825755
 20
2027.448990018791
 30
0.0
 10
812.240134289521
 20
2027.250092353167
 30
0.0
 10
813.7108880456576
 20
2027.098249830876
 30
0.0
 10
814.8689314358506
 20
2027.044744236157
 30
0.0
 10
815.6664074431583
 20
2027.037011669186
 30
0.0
  0
LINE
  5
154
330
87
100
AcDbEntity
  8
P-SANR-FIXT
100
AcDbLine
 10
785.6664074431583
 20
1999.999999999995
 30
0.0
 11
785.6664074431582
 21
1969.999999999995
 31
0.0
  0
LINE
  5
155
330
87
100
AcDbEntity
  8
P-SANR-FIXT
100
AcDbLine
 10
785.6664074431582
 20
2029.999999999995
 30
0.0
 11
785.6664074431583
 21
1999.999999999995
 31
0.0
  0
ENDBLK
  5
157
330
87
100
AcDbEntity
  8
0
100
AcDbBlockEnd
  0
BLOCK
  5
1B1
330
159
100
AcDbEntity
  8
0
100
AcDbBlockBegin
  2
Automatic flow rate regulator valve_Caleffi_121 DN15 - 1_2__-V1-Est - Idraulica
 70
     0
 10
0.0
 20
0.0
 30
0.0
  3
Automatic flow rate regulator valve_Caleffi_121 DN15 - 1_2__-V1-Est - Idraulica
  1

  0
LINE
  5
15A
330
159
100
AcDbEntity
  8
M-PIPE
100
AcDbLine
 10
818.4948345679213
 20
1818.822493106301
 30
0.0
 11
791.978330273426
 21
1792.305988811806
 31
0.0
1001
REVIT
1002
{
1070
     3
1000
923261
1002
}
  0
LINE
  5
15B
330
159
100
AcDbEntity
  8
M-PIPE
100
AcDbLine
 10
832.3632407434216
 20
1832.690899281802
 30
0.0
 11
818.4948345679213
 21
1818.822493106301
 31
0.0
1001
REVIT
1002
{
1070
     3
1000
923261
1002
}
  0
LINE
  5
15C
330
159
100
AcDbEntity
  8
M-PIPE
100
AcDbLine
 10
775.007767524949
 20
1809.276551560283
 30
0.0
 11
801.5242718194441
 21
1835.793055854778
 31
0.0
1001
REVIT
1002
{
1070
     3
1000
923261
1002
}
  0
LINE
  5
15D
330
159
100
AcDbEntity
  8
M-PIPE
100
AcDbLine
 10
801.5242718194441
 20
1835.793055854778
 30
0.0
 11
815.3926779949445
 21
1849.66146203028
 31
0.0
1001
REVIT
1002
{
1070
     3
1000
923261
1002
}
  0
LINE
  5
15E
330
159
100
AcDbEntity
  8
M-PIPE
100
AcDbLine
 10
832.3632407434217
 20
1832.690899281802
 30
0.0
 11
825.3579644254749
 21
1839.69617559975
 31
0.0
1001
REVIT
1002
{
1070
     3
1000
923261
1002
}
  0
SPLINE
  5
15F
330
159
100
AcDbEntity
  8
M-PIPE
100
AcDbSpline
210
0.0
220
0.0
230
1.0
 70
     8
 71
     3
 72
     9
 73
     5
 74
     0
 42
0.000000001
 43
0.0000000001
 40
0.0
 40
0.0
 40
0.0
 40
0.0
 40
0.5
 40
1.0
 40
1.0
 40
1.0
 40
1.0
 10
825.3579644254749
 20
1839.69617559975
 30
0.0
 10
825.2471643164154
 20
1839.859233704957
 30
0.0
 10
825.000240458274
 20
1840.19398295022
 30
0.0
 10
824.7062662852398
 20
1840.549595230331
 30
0.0
 10
824.5482450366695
 20
1840.733345545769
 30
0.0
1001
REVIT
1002
{
1070
     3
1000
923261
1002
}
  0
LINE
  5
160
330
159
100
AcDbEntity
  8
M-PIPE
100
AcDbLine
 10
823.992101947725
 20
1841.290323234559
 30
0.0
 11
824.5482450366695
 21
1840.733345545769
 31
0.0
1001
REVIT
1002
{
1070
     3
1000
923261
1002
}
  0
LINE
  5
161
330
159
100
AcDbEntity
  8
M-PIPE
100
AcDbLine
 10
823.4351242589346
 20
1841.846466323504
 30
0.0
 11
823.992101947725
 21
1841.290323234559
 31
0.0
1001
REVIT
1002
{
1070
     3
1000
923261
1002
}
  0
SPLINE
  5
162
330
159
100
AcDbEntity
  8
M-PIPE
100
AcDbSpline
210
0.0
220
0.0
230
1.0
 70
     8
 71
     3
 72
     9
 73
     5
 74
     0
 42
0.000000001
 43
0.0000000001
 40
0.0
 40
0.0
 40
0.0
 40
0.0
 40
0.5
 40
1.0
 40
1.0
 40
1.0
 40
1.0
 10
823.4351242589346
 20
1841.846466323504
 30
0.0
 10
823.2513739434963
 20
1842.004487572074
 30
0.0
 10
822.895761663385
 20
1842.298461745108
 30
0.0
 10
822.5610124181224
 20
1842.54538560325
 30
0.0
 10
822.397954312915
 20
1842.656185712309
 30
0.0
1001
REVIT
1002
{
1070
     3
1000
923261
1002
}
  0
LINE
  5
163
330
159
100
AcDbEntity
  8
M-PIPE
100
AcDbLine
 10
822.397954312915
 20
1842.656185712309
 30
0.0
 11
815.3926779949445
 21
1849.66146203028
 31
0.0
1001
REVIT
1002
{
1070
     3
1000
923261
1002
}
  0
LINE
  5
164
330
159
100
AcDbEntity
  8
M-PIPE
100
AcDbLine
 10
775.007767524949
 20
1809.276551560283
 30
0.0
 11
791.978330273426
 21
1792.305988811806
 31
0.0
1001
REVIT
1002
{
1070
     3
1000
923261
1002
}
  0
ARC
  5
165
330
159
100
AcDbEntity
  8
M-PIPE
100
AcDbCircle
 10
849.5182691002133
 20
1819.964628730048
 30
0.0
 40
8.0
100
AcDbArc
 50
180.0
 51
0.0
1001
REVIT
1002
{
1070
     3
1000
923261
1002
}
  0
ARC
  5
166
330
159
100
AcDbEntity
  8
M-PIPE
100
AcDbCircle
 10
849.5182691002133
 20
1819.964628730048
 30
0.0
 40
8.0
100
AcDbArc
 50
0.0
 51
180.0
1001
REVIT
1002
{
1070
     3
1000
923261
1002
}
  0
LINE
  5
167
330
159
100
AcDbEntity
  8
M-PIPE
100
AcDbLine
 10
762.1664074431633
 20
1820.964628730049
 30
0.0
 11
770.1664074431634
 21
1820.964628730049
 31
0.0
1001
REVIT
1002
{
1070
     3
1000
923261
1002
}
  0
LINE
  5
168
330
159
100
AcDbEntity
  8
M-PIPE
100
AcDbLine
 10
770.166407443163
 20
1844.964628730049
 30
0.0
 11
762.1664074431633
 21
1844.964628730049
 31
0.0
1001
REVIT
1002
{
1070
     3
1000
923261
1002
}
  0
LINE
  5
169
330
159
100
AcDbEntity
  8
M-PIPE
100
AcDbLine
 10
757.1664074431627
 20
1824.96462873005
 30
0.0
 11
762.1664074431633
 21
1824.96462873005
 31
0.0
1001
REVIT
1002
{
1070
     3
1000
923261
1002
}
  0
LINE
  5
16A
330
159
100
AcDbEntity
  8
M-PIPE
100
AcDbLine
 10
770.1664074431635
 20
1824.96462873005
 30
0.0
 11
783.1664074431629
 21
1824.96462873005
 31
0.0
1001
REVIT
1002
{
1070
     3
1000
923261
1002
}
  0
LINE
  5
16B
330
159
100
AcDbEntity
  8
M-PIPE
100
AcDbLine
 10
783.1664074431629
 20
1840.964628730049
 30
0.0
 11
770.1664074431634
 21
1840.96462873005
 31
0.0
1001
REVIT
1002
{
1070
     3
1000
923261
1002
}
  0
LINE
  5
16C
330
159
100
AcDbEntity
  8
M-PIPE
100
AcDbLine
 10
762.1664074431633
 20
1840.96462873005
 30
0.0
 11
757.1664074431627
 21
1840.96462873005
 31
0.0
1001
REVIT
1002
{
1070
     3
1000
923261
1002
}
  0
LINE
  5
16D
330
159
100
AcDbEntity
  8
M-PIPE
100
AcDbLine
 10
770.1664074431621
 20
1844.964628730048
 30
0.0
 11
770.1664074431622
 21
1820.964628730049
 31
0.0
1001
REVIT
1002
{
1070
     3
1000
923261
1002
}
  0
LINE
  5
16E
330
159
100
AcDbEntity
  8
M-PIPE
100
AcDbLine
 10
762.1664074431623
 20
1820.964628730049
 30
0.0
 11
762.166407443162
 21
1844.964628730048
 31
0.0
1001
REVIT
1002
{
1070
     3
1000
923261
1002
}
  0
LINE
  5
16F
330
159
100
AcDbEntity
  8
M-PIPE
100
AcDbLine
 10
757.1664074431615
 20
1824.964628730049
 30
0.0
 11
757.1664074431616
 21
1840.964628730049
 31
0.0
1001
REVIT
1002
{
1070
     3
1000
923261
1002
}
  0
LINE
  5
170
330
159
100
AcDbEntity
  8
M-PIPE
100
AcDbLine
 10
898.6664074431633
 20
1799.964628730049
 30
0.0
 11
898.6664074431628
 21
1865.96462873005
 31
0.0
1001
REVIT
1002
{
1070
     3
1000
923261
1002
}
  0
LINE
  5
171
330
159
100
AcDbEntity
  8
M-PIPE
100
AcDbLine
 10
898.6664074431621
 20
1799.964628730049
 30
0.0
 11
891.666407443162
 21
1799.964628730049
 31
0.0
1001
REVIT
1002
{
1070
     3
1000
923261
1002
}
  0
LINE
  5
172
330
159
100
AcDbEntity
  8
M-PIPE
100
AcDbLine
 10
891.666407443162
 20
1799.964628730049
 30
0.0
 11
799.6369701916683
 21
1799.964628730048
 31
0.0
1001
REVIT
1002
{
1070
     3
1000
923261
1002
}
  0
LINE
  5
173
330
159
100
AcDbEntity
  8
M-PIPE
100
AcDbLine
 10
784.3196903551837
 20
1799.964628730048
 30
0.0
 11
783.166407443162
 21
1799.964628730048
 31
0.0
1001
REVIT
1002
{
1070
     3
1000
923261
1002
}
  0
LINE
  5
174
330
159
100
AcDbEntity
  8
M-PIPE
100
AcDbLine
 10
783.1664074431617
 20
1865.964628730048
 30
0.0
 11
891.6664074431615
 21
1865.964628730049
 31
0.0
1001
REVIT
1002
{
1070
     3
1000
923261
1002
}
  0
LINE
  5
175
330
159
100
AcDbEntity
  8
M-PIPE
100
AcDbLine
 10
891.6664074431615
 20
1865.964628730049
 30
0.0
 11
898.6664074431617
 21
1865.964628730049
 31
0.0
1001
REVIT
1002
{
1070
     3
1000
923261
1002
}
  0
LINE
  5
176
330
159
100
AcDbEntity
  8
M-PIPE
100
AcDbLine
 10
783.1664074431619
 20
1798.964628730049
 30
0.0
 11
783.1664074431619
 21
1799.964628730048
 31
0.0
1001
REVIT
1002
{
1070
     3
1000
923261
1002
}
  0
LINE
  5
177
330
159
100
AcDbEntity
  8
M-PIPE
100
AcDbLine
 10
783.1664074431617
 20
1865.964628730048
 30
0.0
 11
783.1664074431619
 21
1817.435191478496
 31
0.0
1001
REVIT
1002
{
1070
     3
1000
923261
1002
}
  0
LINE
  5
178
330
159
100
AcDbEntity
  8
M-PIPE
100
AcDbLine
 10
783.1664074431619
 20
1801.11791164207
 30
0.0
 11
783.166407443162
 21
1799.964628730048
 31
0.0
1001
REVIT
1002
{
1070
     3
1000
923261
1002
}
  0
LINE
  5
179
330
159
100
AcDbEntity
  8
M-PIPE
100
AcDbLine
 10
783.1664074431614
 20
1865.964628730049
 30
0.0
 11
783.1664074431614
 21
1866.964628730048
 31
0.0
1001
REVIT
1002
{
1070
     3
1000
923261
1002
}
  0
LINE
  5
17A
330
159
100
AcDbEntity
  8
M-PIPE
100
AcDbLine
 10
900.1664074431619
 20
1798.964628730049
 30
0.0
 11
886.1134609974286
 21
1798.964628730049
 31
0.0
1001
REVIT
1002
{
1070
     3
1000
923261
1002
}
  0
LINE
  5
17B
330
159
100
AcDbEntity
  8
M-PIPE
100
AcDbLine
 10
886.1134609974296
 20
1798.964628730049
 30
0.0
 11
849.5182691002028
 21
1798.964628730049
 31
0.0
1001
REVIT
1002
{
1070
     3
1000
923261
1002
}
  0
LINE
  5
17C
330
159
100
AcDbEntity
  8
M-PIPE
100
AcDbLine
 10
849.5182691002034
 20
1798.964628730049
 30
0.0
 11
798.6430530177901
 21
1798.964628730049
 31
0.0
1001
REVIT
1002
{
1070
     3
1000
923261
1002
}
  0
LINE
  5
17D
330
159
100
AcDbEntity
  8
M-PIPE
100
AcDbLine
 10
785.3191098953511
 20
1798.964628730049
 30
0.0
 11
783.1664074431619
 21
1798.964628730049
 31
0.0
1001
REVIT
1002
{
1070
     3
1000
923261
1002
}
  0
LINE
  5
17E
330
159
100
AcDbEntity
  8
M-PIPE
100
AcDbLine
 10
783.1664074431604
 20
1866.964628730048
 30
0.0
 11
849.5182691002019
 21
1866.964628730049
 31
0.0
1001
REVIT
1002
{
1070
     3
1000
923261
1002
}
  0
LINE
  5
17F
330
159
100
AcDbEntity
  8
M-PIPE
100
AcDbLine
 10
849.5182691002014
 20
1866.964628730049
 30
0.0
 11
886.1134609974282
 21
1866.964628730049
 31
0.0
1001
REVIT
1002
{
1070
     3
1000
923261
1002
}
  0
LINE
  5
180
330
159
100
AcDbEntity
  8
M-PIPE
100
AcDbLine
 10
886.113460997428
 20
1866.964628730049
 30
0.0
 11
900.1664074431616
 21
1866.964628730049
 31
0.0
1001
REVIT
1002
{
1070
     3
1000
923261
1002
}
  0
LINE
  5
181
330
159
100
AcDbEntity
  8
M-PIPE
100
AcDbLine
 10
900.1664074431616
 20
1866.964628730049
 30
0.0
 11
900.1664074431619
 21
1798.964628730049
 31
0.0
1001
REVIT
1002
{
1070
     3
1000
923261
1002
}
  0
LINE
  5
182
330
159
100
AcDbEntity
  8
M-PIPE
100
AcDbLine
 10
886.1134609974296
 20
1799.964628730049
 30
0.0
 11
886.1134609974296
 21
1798.964628730049
 31
0.0
1001
REVIT
1002
{
1070
     3
1000
923261
1002
}
  0
LINE
  5
183
330
159
100
AcDbEntity
  8
M-PIPE
100
AcDbLine
 10
886.1134609974293
 20
1866.964628730049
 30
0.0
 11
886.1134609974293
 21
1865.964628730049
 31
0.0
1001
REVIT
1002
{
1070
     3
1000
923261
1002
}
  0
LINE
  5
184
330
159
100
AcDbEntity
  8
M-PIPE
100
AcDbLine
 10
849.5182691002034
 20
1799.964628730049
 30
0.0
 11
849.5182691002034
 21
1798.964628730049
 31
0.0
1001
REVIT
1002
{
1070
     3
1000
923261
1002
}
  0
LINE
  5
185
330
159
100
AcDbEntity
  8
M-PIPE
100
AcDbLine
 10
849.5182691002028
 20
1866.964628730049
 30
0.0
 11
849.5182691002028
 21
1865.964628730049
 31
0.0
1001
REVIT
1002
{
1070
     3
1000
923261
1002
}
  0
ARC
  5
186
330
159
100
AcDbEntity
  8
M-PIPE
100
AcDbCircle
 10
815.6664074431734
 20
1832.964628730033
 30
0.0
 40
11.99999999999997
100
AcDbArc
 50
30.48057830518543
 51
59.51942169480893
1001
REVIT
1002
{
1070
     3
1000
923261
1002
}
  0
LINE
  5
187
330
159
100
AcDbEntity
  8
M-PIPE
100
AcDbLine
 10
762.7549471117815
 20
1859.96477145199
 30
0.0
 11
761.1664074431102
 21
1857.213340036012
 31
0.0
1001
REVIT
1002
{
1070
     3
1000
790271
1002
}
  0
LINE
  5
188
330
159
100
AcDbEntity
  8
M-PIPE
100
AcDbLine
 10
761.1664074431103
 20
1808.715917424109
 30
0.0
 11
762.7549471117788
 21
1805.964486008136
 31
0.0
1001
REVIT
1002
{
1070
     3
1000
790271
1002
}
  0
LINE
  5
189
330
159
100
AcDbEntity
  8
M-PIPE
100
AcDbLine
 10
764.0557531971755
 20
1805.964628730063
 30
0.0
 11
778.3196903551709
 21
1805.964628730063
 31
0.0
1001
REVIT
1002
{
1070
     3
1000
790271
1002
}
  0
LINE
  5
18A
330
159
100
AcDbEntity
  8
M-PIPE
100
AcDbLine
 10
779.8071887079328
 20
1859.964628730063
 30
0.0
 11
764.055753197178
 21
1859.964628730063
 31
0.0
1001
REVIT
1002
{
1070
     3
1000
790271
1002
}
  0
LINE
  5
18B
330
159
100
AcDbEntity
  8
M-PIPE
100
AcDbLine
 10
781.16640744311
 20
1859.863597774763
 30
0.0
 11
781.107994793329
 21
1859.96477145199
 31
0.0
1001
REVIT
1002
{
1070
     3
1000
790271
1002
}
  0
LINE
  5
18C
330
159
100
AcDbEntity
  8
M-PIPE
100
AcDbLine
 10
761.1664074431094
 20
1853.964628730049
 30
0.0
 11
761.1664074431092
 21
1857.213340036011
 31
0.0
1001
REVIT
1002
{
1070
     3
1000
790271
1002
}
  0
LINE
  5
18D
330
159
100
AcDbEntity
  8
M-PIPE
100
AcDbLine
 10
761.1664074431094
 20
1808.715917424108
 30
0.0
 11
761.1664074431096
 21
1824.961064687589
 31
0.0
1001
REVIT
1002
{
1070
     3
1000
790271
1002
}
  0
LINE
  5
18E
330
159
100
AcDbEntity
  8
M-PIPE
100
AcDbLine
 10
761.1664074431097
 20
1840.968192772508
 30
0.0
 11
761.1664074431094
 21
1853.964628730049
 31
0.0
1001
REVIT
1002
{
1070
     3
1000
790271
1002
}
  0
LINE
  5
18F
330
159
100
AcDbEntity
  8
M-PIPE
100
AcDbLine
 10
781.1664074431091
 20
1859.863597774763
 30
0.0
 11
781.1664074431092
 21
1856.259819258384
 31
0.0
1001
REVIT
1002
{
1070
     3
1000
790271
1002
}
  0
LINE
  5
190
330
159
100
AcDbEntity
  8
M-PIPE
100
AcDbLine
 10
781.1664074431092
 20
1856.259819258384
 30
0.0
 11
781.1664074431096
 21
1840.972261469485
 31
0.0
1001
REVIT
1002
{
1070
     3
1000
790271
1002
}
  0
LINE
  5
191
330
159
100
AcDbEntity
  8
M-PIPE
100
AcDbLine
 10
781.1664074431096
 20
1824.956995990612
 30
0.0
 11
781.1664074431096
 21
1815.4270464542
 31
0.0
1001
REVIT
1002
{
1070
     3
1000
790271
1002
}
  0
SPLINE
  5
192
330
159
100
AcDbEntity
  8
M-PIPE
100
AcDbSpline
210
0.0
220
0.0
230
1.0
 70
    24
 71
     3
 72
     9
 73
     5
 74
     0
 42
0.000000001
 43
0.0000000001
 40
0.0
 40
0.0
 40
0.0
 40
0.0
 40
0.5
 40
0.5028606357786015
 40
0.5028606357786015
 40
0.5028606357786015
 40
0.5028606357786015
 10
764.0557531971746
 20
1805.964628730062
 30
0.0
 10
763.1885207531703
 20
1805.964628730062
 30
0.0
 10
762.7524236950096
 20
1805.964628730062
 30
0.0
 10
762.7549187247032
 20
1805.964628730062
 30
0.0
 10
762.7549471117779
 20
1805.964628730062
 30
0.0
1001
REVIT
1002
{
1070
     3
1000
790271
1002
}
  0
SPLINE
  5
193
330
159
100
AcDbEntity
  8
M-PIPE
100
AcDbSpline
210
0.0
220
0.0
230
1.0
 70
     8
 71
     3
 72
     9
 73
     5
 74
     0
 42
0.000000001
 43
0.0000000001
 40
0.4220242084881267
 40
0.4220242084881267
 40
0.4220242084881267
 40
0.4220242084881267
 40
0.5
 40
1.0
 40
1.0
 40
1.0
 40
1.0
 10
762.7865423366174
 20
1821.036722891605
 30
0.0
 10
762.7654504663241
 20
1820.530737179386
 30
0.0
 10
762.6872813949305
 20
1816.777070432442
 30
0.0
 10
763.1885207531762
 20
1812.999863147378
 30
0.0
 10
764.0557531971776
 20
1809.714628730062
 30
0.0
1001
REVIT
1002
{
1070
     3
1000
790271
1002
}
  0
SPLINE
  5
194
330
159
100
AcDbEntity
  8
M-PIPE
100
AcDbSpline
210
0.0
220
0.0
230
1.0
 70
     8
 71
     3
 72
     9
 73
     5
 74
     0
 42
0.000000001
 43
0.0000000001
 40
0.2641616754072323
 40
0.2641616754072323
 40
0.2641616754072323
 40
0.2641616754072323
 40
0.5
 40
0.7893304699624279
 40
0.7893304699624279
 40
0.7893304699624279
 40
0.7893304699624279
 10
780.8186260438843
 20
1814.906874656908
 30
0.0
 10
781.0115669305834
 20
1816.447662679806
 30
0.0
 10
781.2878922144721
 20
1819.872486546593
 30
0.0
 10
780.8119351501758
 20
1823.266746254509
 30
0.0
 10
780.4997476566766
 20
1825.13471057666
 30
0.0
1001
REVIT
1002
{
1070
     3
1000
790271
1002
}
  0
SPLINE
  5
195
330
159
100
AcDbEntity
  8
M-PIPE
100
AcDbSpline
210
0.0
220
0.0
230
1.0
 70
     8
 71
     3
 72
     9
 73
     5
 74
     0
 42
0.000000001
 43
0.0000000001
 40
0.0
 40
0.0
 40
0.0
 40
0.0
 40
0.5
 40
0.583341111586747
 40
0.583341111586747
 40
0.583341111586747
 40
0.583341111586747
 10
764.0557531971795
 20
1856.214628730062
 30
0.0
 10
763.1885207531781
 20
1852.999863147377
 30
0.0
 10
762.6826284152907
 20
1849.228699606226
 30
0.0
 10
762.7669516748571
 20
1845.433556447142
 30
0.0
 10
762.7910459622141
 20
1844.890860305297
 30
0.0
1001
REVIT
1002
{
1070
     3
1000
790271
1002
}
  0
SPLINE
  5
196
330
159
100
AcDbEntity
  8
M-PIPE
100
AcDbSpline
210
0.0
220
0.0
230
1.0
 70
     8
 71
     3
 72
     9
 73
     5
 74
     0
 42
0.000000001
 43
0.0000000001
 40
0.2072164282791754
 40
0.2072164282791754
 40
0.2072164282791754
 40
0.2072164282791754
 40
0.5
 40
1.0
 40
1.0
 40
1.0
 40
1.0
 10
780.661990832473
 20
1840.79007847267
 30
0.0
 10
780.9593551934443
 20
1842.705253178728
 30
0.0
 10
781.3619487863978
 20
1847.874703198399
 30
0.0
 10
780.6744211519307
 20
1852.999863147377
 30
0.0
 10
779.8071887079294
 20
1856.214628730062
 30
0.0
1001
REVIT
1002
{
1070
     3
1000
790271
1002
}
  0
SPLINE
  5
197
330
159
100
AcDbEntity
  8
M-PIPE
100
AcDbSpline
210
0.0
220
0.0
230
1.0
 70
    24
 71
     3
 72
     8
 73
     4
 74
     0
 42
0.000000001
 43
0.0000000001
 40
0.5
 40
0.5
 40
0.5
 40
0.5
 40
1.0
 40
1.0
 40
1.0
 40
1.0
 10
762.7549045311686
 20
1859.964628730062
 30
0.0
 10
762.75490453117
 20
1859.964628730062
 30
0.0
 10
763.1885207531728
 20
1859.964628730062
 30
0.0
 10
764.055753197177
 20
1859.964628730062
 30
0.0
1001
REVIT
1002
{
1070
     3
1000
790271
1002
}
  0
SPLINE
  5
198
330
159
100
AcDbEntity
  8
M-PIPE
100
AcDbSpline
210
0.0
220
0.0
230
1.0
 70
    24
 71
     3
 72
     8
 73
     4
 74
     0
 42
0.000000001
 43
0.0000000001
 40
0.0
 40
0.0
 40
0.0
 40
0.0
 40
0.5
 40
0.5
 40
0.5
 40
0.5
 10
779.8071887079316
 20
1859.964628730062
 30
0.0
 10
780.6744211519356
 20
1859.964628730062
 30
0.0
 10
781.1080373739383
 20
1859.964628730062
 30
0.0
 10
781.1080373739399
 20
1859.964628730062
 30
0.0
1001
REVIT
1002
{
1070
     3
1000
790271
1002
}
  0
SPLINE
  5
199
330
159
100
AcDbEntity
  8
M-PIPE
100
AcDbSpline
210
0.0
220
0.0
230
1.0
 70
     8
 71
     3
 72
    10
 73
     6
 74
     0
 42
0.000000001
 43
0.0000000001
 40
-1.0
 40
-1.0
 40
-1.0
 40
-1.0
 40
-0.7
 40
-0.4
 40
0.0
 40
0.0
 40
0.0
 40
0.0
 10
764.0557531971746
 20
1805.964628730062
 30
0.0
 10
764.2292156454885
 20
1805.964628730062
 30
0.0
 10
764.4765293208064
 20
1806.205711026269
 30
0.0
 10
764.5389464413774
 20
1807.421148311903
 30
0.0
 10
764.287388949719
 20
1808.820256944656
 30
0.0
 10
764.0557531971776
 20
1809.714628730062
 30
0.0
1001
REVIT
1002
{
1070
     3
1000
790271
1002
}
  0
SPLINE
  5
19A
330
159
100
AcDbEntity
  8
M-PIPE
100
AcDbSpline
210
0.0
220
0.0
230
1.0
 70
     8
 71
     3
 72
     9
 73
     5
 74
     0
 42
0.000000001
 43
0.0000000001
 40
0.0
 40
0.0
 40
0.0
 40
0.0
 40
0.5
 40
1.0
 40
1.0
 40
1.0
 40
1.0
 10
779.8071887079294
 20
1856.214628730062
 30
0.0
 10
779.6618158887914
 20
1856.773833750819
 30
0.0
 10
779.4429795255115
 20
1857.816203008967
 30
0.0
 10
779.3679617122234
 20
1858.628177958212
 30
0.0
 10
779.3664074430774
 20
1858.959819258442
 30
0.0
1001
REVIT
1002
{
1070
     3
1000
790271
1002
}
  0
SPLINE
  5
19B
330
159
100
AcDbEntity
  8
M-PIPE
100
AcDbSpline
210
0.0
220
0.0
230
1.0
 70
     8
 71
     3
 72
     9
 73
     5
 74
     0
 42
0.000000001
 43
0.0000000001
 40
0.0
 40
0.0
 40
0.0
 40
0.0
 40
0.5
 40
1.0
 40
1.0
 40
1.0
 40
1.0
 10
779.3664074430774
 20
1858.959819258442
 30
0.0
 10
779.3679617122235
 20
1859.291460558675
 30
0.0
 10
779.4429795255121
 20
1859.796898348224
 30
0.0
 10
779.661815888793
 20
1859.964628730062
 30
0.0
 10
779.8071887079316
 20
1859.964628730062
 30
0.0
1001
REVIT
1002
{
1070
     3
1000
790271
1002
}
  0
SPLINE
  5
19C
330
159
100
AcDbEntity
  8
M-PIPE
100
AcDbSpline
210
0.0
220
0.0
230
1.0
 70
     8
 71
     3
 72
     9
 73
     5
 74
     0
 42
0.000000001
 43
0.0000000001
 40
-1.0
 40
-1.0
 40
-1.0
 40
-1.0
 40
-0.5
 40
0.0
 40
0.0
 40
0.0
 40
0.0
 10
764.496534462046
 20
1858.959819258454
 30
0.0
 10
764.4949801928919
 20
1859.291460558682
 30
0.0
 10
764.4199623795928
 20
1859.796898348226
 30
0.0
 10
764.2011260163124
 20
1859.964628730062
 30
0.0
 10
764.055753197177
 20
1859.964628730062
 30
0.0
1001
REVIT
1002
{
1070
     3
1000
790271
1002
}
  0
SPLINE
  5
19D
330
159
100
AcDbEntity
  8
M-PIPE
100
AcDbSpline
210
0.0
220
0.0
230
1.0
 70
     8
 71
     3
 72
     9
 73
     5
 74
     0
 42
0.000000001
 43
0.0000000001
 40
-1.0
 40
-1.0
 40
-1.0
 40
-1.0
 40
-0.5
 40
0.0
 40
0.0
 40
0.0
 40
0.0
 10
764.0557531971795
 20
1856.214628730062
 30
0.0
 10
764.2011260163159
 20
1856.773833750823
 30
0.0
 10
764.4199623795966
 20
1857.816203008976
 30
0.0
 10
764.4949801928935
 20
1858.628177958222
 30
0.0
 10
764.496534462046
 20
1858.959819258454
 30
0.0
1001
REVIT
1002
{
1070
     3
1000
790271
1002
}
  0
LINE
  5
19E
330
159
100
AcDbEntity
  8
M-PIPE
100
AcDbLine
 10
907.6664074431954
 20
1853.914628730004
 30
0.0
 11
900.1664074431628
 21
1853.914628730004
 31
0.0
1001
REVIT
1002
{
1070
     3
1000
790271
1002
}
  0
LINE
  5
19F
330
159
100
AcDbEntity
  8
M-PIPE
100
AcDbLine
 10
900.166407443163
 20
1812.014628730097
 30
0.0
 11
907.6664074431953
 21
1812.014628730097
 31
0.0
1001
REVIT
1002
{
1070
     3
1000
790271
1002
}
  0
LINE
  5
1A0
330
159
100
AcDbEntity
  8
M-PIPE
100
AcDbLine
 10
907.6664074431944
 20
1843.439628730027
 30
0.0
 11
907.6664074431944
 21
1853.914628730003
 31
0.0
1001
REVIT
1002
{
1070
     3
1000
790271
1002
}
  0
LINE
  5
1A1
330
159
100
AcDbEntity
  8
M-PIPE
100
AcDbLine
 10
907.666407443194
 20
1812.021807771859
 30
0.0
 11
907.6664074431944
 21
1843.439628730027
 31
0.0
1001
REVIT
1002
{
1070
     3
1000
790271
1002
}
  0
LINE
  5
1A2
330
159
100
AcDbEntity
  8
M-PIPE
100
AcDbLine
 10
761.1664074431103
 20
1853.914628730004
 30
0.0
 11
723.6664074431229
 21
1853.914628730004
 31
0.0
1001
REVIT
1002
{
1070
     3
1000
790271
1002
}
  0
LINE
  5
1A3
330
159
100
AcDbEntity
  8
M-PIPE
100
AcDbLine
 10
723.6664074431228
 20
1812.014628730097
 30
0.0
 11
761.1664074431106
 21
1812.014628730097
 31
0.0
1001
REVIT
1002
{
1070
     3
1000
790271
1002
}
  0
LINE
  5
1A4
330
159
100
AcDbEntity
  8
M-PIPE
100
AcDbLine
 10
748.16640744316
 20
1812.247887346982
 30
0.0
 11
748.1664074431604
 21
1819.906379365528
 31
0.0
1001
REVIT
1002
{
1070
     3
1000
790271
1002
}
  0
LINE
  5
1A5
330
159
100
AcDbEntity
  8
M-PIPE
100
AcDbLine
 10
748.16640744316
 20
1819.906379365528
 30
0.0
 11
760.16640744316
 21
1819.906379365528
 31
0.0
1001
REVIT
1002
{
1070
     3
1000
790271
1002
}
  0
LINE
  5
1A6
330
159
100
AcDbEntity
  8
M-PIPE
100
AcDbLine
 10
760.16640744316
 20
1819.906379365528
 30
0.0
 11
760.1664074431599
 21
1812.247887346982
 31
0.0
1001
REVIT
1002
{
1070
     3
1000
790271
1002
}
  0
LINE
  5
1A7
330
159
100
AcDbEntity
  8
M-PIPE
100
AcDbLine
 10
760.16640744316
 20
1812.247887346982
 30
0.0
 11
748.16640744316
 21
1812.247887346982
 31
0.0
1001
REVIT
1002
{
1070
     3
1000
790271
1002
}
  0
LINE
  5
1A8
330
159
100
AcDbEntity
  8
M-PIPE
100
AcDbLine
 10
748.1664074431599
 20
1825.306136711551
 30
0.0
 11
748.16640744316
 21
1840.623120748547
 31
0.0
1001
REVIT
1002
{
1070
     3
1000
790271
1002
}
  0
LINE
  5
1A9
330
159
100
AcDbEntity
  8
M-PIPE
100
AcDbLine
 10
748.1664074431599
 20
1840.623120748549
 30
0.0
 11
757.1664074431616
 21
1840.623120748549
 31
0.0
1001
REVIT
1002
{
1070
     3
1000
790271
1002
}
  0
LINE
  5
1AA
330
159
100
AcDbEntity
  8
M-PIPE
100
AcDbLine
 10
757.1664074431615
 20
1825.306136711551
 30
0.0
 11
748.1664074431599
 21
1825.30613671155
 31
0.0
1001
REVIT
1002
{
1070
     3
1000
790271
1002
}
  0
LINE
  5
1AB
330
159
100
AcDbEntity
  8
M-PIPE
100
AcDbLine
 10
748.1664074431598
 20
1846.022878094617
 30
0.0
 11
748.1664074431598
 21
1853.681370113109
 31
0.0
1001
REVIT
1002
{
1070
     3
1000
790271
1002
}
  0
LINE
  5
1AC
330
159
100
AcDbEntity
  8
M-PIPE
100
AcDbLine
 10
748.1664074431598
 20
1853.681370113109
 30
0.0
 11
760.1664074431599
 21
1853.681370113109
 31
0.0
1001
REVIT
1002
{
1070
     3
1000
790271
1002
}
  0
LINE
  5
1AD
330
159
100
AcDbEntity
  8
M-PIPE
100
AcDbLine
 10
760.1664074431599
 20
1853.681370113109
 30
0.0
 11
760.1664074431599
 21
1846.022878094617
 31
0.0
1001
REVIT
1002
{
1070
     3
1000
790271
1002
}
  0
LINE
  5
1AE
330
159
100
AcDbEntity
  8
M-PIPE
100
AcDbLine
 10
760.1664074431599
 20
1846.022878094616
 30
0.0
 11
748.1664074431598
 21
1846.022878094616
 31
0.0
1001
REVIT
1002
{
1070
     3
1000
790271
1002
}
  0
LINE
  5
1AF
330
159
100
AcDbEntity
  8
M-PIPE
100
AcDbLine
 10
723.666407443122
 20
1853.914628730003
 30
0.0
 11
723.6664074431217
 21
1812.014628730097
 31
0.0
1001
REVIT
1002
{
1070
     3
1000
790271
1002
}
  0
LINE
  5
1B0
330
159
100
AcDbEntity
  8
P-SANR-FIXT
100
AcDbLine
 10
783.1664074431627
 20
1854.96462873005
 30
0.0
 11
781.1664074431104
 21
1854.96462873005
 31
0.0
  0
ENDBLK
  5
1B2
330
159
100
AcDbEntity
  8
0
100
AcDbBlockEnd
  0
BLOCK
  5
2C1
330
1B4
100
AcDbEntity
  8
0
100
AcDbBlockBegin
  2
Automatic flow rate regulator valve_Caleffi_121 DN15 - 1_2__-V2-Est - Idraulica
 70
     0
 10
0.0
 20
0.0
 30
0.0
  3
Automatic flow rate regulator valve_Caleffi_121 DN15 - 1_2__-V2-Est - Idraulica
  1

  0
LINE
  5
1B5
330
1B4
100
AcDbEntity
  8
M-PIPE
100
AcDbLine
 10
1085.31435394312
 20
2110.898503219288
 30
0.0
 11
1085.31435394312
 21
2109.982558850103
 31
0.0
1001
REVIT
1002
{
1070
     3
1000
923261
1002
}
  0
LINE
  5
1B6
330
1B4
100
AcDbEntity
  8
M-PIPE
100
AcDbLine
 10
1108.91435394312
 20
2109.98255885012
 30
0.0
 11
1108.91435394312
 21
2110.898503219288
 31
0.0
1001
REVIT
1002
{
1070
     3
1000
923261
1002
}
  0
LINE
  5
1B7
330
1B4
100
AcDbEntity
  8
M-PIPE
100
AcDbLine
 10
1137.772993861341
 20
2126.982558850087
 30
0.0
 11
1137.772993861341
 21
2122.982558850087
 31
0.0
1001
REVIT
1002
{
1070
     3
1000
923261
1002
}
  0
ELLIPSE
  5
1B8
330
1B4
100
AcDbEntity
  8
M-PIPE
100
AcDbEllipse
 10
1116.782382596465
 20
2119.167765983343
 30
0.0
 11
0.0
 21
3.814792866744028
 31
0.0
210
0.0
220
0.0
230
1.0
 40
0.7071067811865332
 41
0.0000000000000016
 42
1.570796326797633
1001
REVIT
1002
{
1070
     3
1000
923261
1002
}
  0
LINE
  5
1B9
330
1B4
100
AcDbEntity
  8
M-PIPE
100
AcDbLine
 10
1114.084916691568
 20
2119.167765983332
 30
0.0
 11
1114.084916691584
 21
2110.898503219286
 31
0.0
1001
REVIT
1002
{
1070
     3
1000
923261
1002
}
  0
ELLIPSE
  5
1BA
330
1B4
100
AcDbEntity
  8
M-PIPE
100
AcDbEllipse
 10
1099.811819847988
 20
2119.167765983343
 30
0.0
 11
0.0
 21
3.814792866744028
 31
0.0
210
0.0
220
0.0
230
1.0
 40
0.7071067811865332
 41
0.0000000000000016
 42
1.570796326797633
1001
REVIT
1002
{
1070
     3
1000
923261
1002
}
  0
LINE
  5
1BB
330
1B4
100
AcDbEntity
  8
M-PIPE
100
AcDbLine
 10
1099.811819847988
 20
2122.982558850087
 30
0.0
 11
1120.802431112864
 21
2122.982558850087
 31
0.0
1001
REVIT
1002
{
1070
     3
1000
923261
1002
}
  0
LINE
  5
1BC
330
1B4
100
AcDbEntity
  8
M-PIPE
100
AcDbLine
 10
1120.802431112864
 20
2122.982558850087
 30
0.0
 11
1120.802431112864
 21
2126.982558850087
 31
0.0
1001
REVIT
1002
{
1070
     3
1000
923261
1002
}
  0
LINE
  5
1BD
330
1B4
100
AcDbEntity
  8
M-PIPE
100
AcDbLine
 10
1120.802431112864
 20
2126.982558850087
 30
0.0
 11
1094.285926818369
 21
2126.982558850087
 31
0.0
1001
REVIT
1002
{
1070
     3
1000
923261
1002
}
  0
ELLIPSE
  5
1BE
330
1B4
100
AcDbEntity
  8
M-PIPE
100
AcDbEllipse
 10
1094.285926818369
 20
2106.982558850087
 30
0.0
 11
0.0
 21
20.0
 31
0.0
210
0.0
220
0.0
230
1.0
 40
0.7071067811865533
 41
0.0000000000000016
 42
1.37372598884689
1001
REVIT
1002
{
1070
     3
1000
923261
1002
}
  0
LINE
  5
1BF
330
1B4
100
AcDbEntity
  8
M-PIPE
100
AcDbLine
 10
1080.417520642869
 20
2110.898503219286
 30
0.0
 11
1097.114353943107
 21
2110.898503219287
 31
0.0
1001
REVIT
1002
{
1070
     3
1000
923261
1002
}
  0
LINE
  5
1C0
330
1B4
100
AcDbEntity
  8
M-PIPE
100
AcDbLine
 10
1097.114353943107
 20
2110.898503219287
 30
0.0
 11
1097.114353943091
 21
2119.167765983333
 31
0.0
1001
REVIT
1002
{
1070
     3
1000
923261
1002
}
  0
LINE
  5
1C1
330
1B4
100
AcDbEntity
  8
M-PIPE
100
AcDbLine
 10
1120.802431112864
 20
2126.982558850087
 30
0.0
 11
1137.772993861341
 21
2126.982558850087
 31
0.0
1001
REVIT
1002
{
1070
     3
1000
923261
1002
}
  0
LINE
  5
1C2
330
1B4
100
AcDbEntity
  8
M-PIPE
100
AcDbLine
 10
1120.802431112864
 20
2122.982558850087
 30
0.0
 11
1137.772993861341
 21
2122.982558850087
 31
0.0
1001
REVIT
1002
{
1070
     3
1000
923261
1002
}
  0
LINE
  5
1C3
330
1B4
100
AcDbEntity
  8
M-PIPE
100
AcDbLine
 10
1097.114353943107
 20
2110.898503219287
 30
0.0
 11
1114.084916691584
 21
2110.898503219286
 31
0.0
1001
REVIT
1002
{
1070
     3
1000
923261
1002
}
  0
LINE
  5
1C4
330
1B4
100
AcDbEntity
  8
M-PIPE
100
AcDbLine
 10
1114.114353943102
 20
2107.982558850073
 30
0.0
 11
1114.114353943102
 21
2110.898503219288
 31
0.0
1001
REVIT
1002
{
1070
     3
1000
923261
1002
}
  0
LINE
  5
1C5
330
1B4
100
AcDbEntity
  8
M-PIPE
100
AcDbLine
 10
1118.114353943102
 20
2117.982558850009
 30
0.0
 11
1118.114353943102
 21
2122.982558850073
 31
0.0
1001
REVIT
1002
{
1070
     3
1000
923261
1002
}
  0
LINE
  5
1C6
330
1B4
100
AcDbEntity
  8
M-PIPE
100
AcDbLine
 10
1118.1143539431
 20
2117.982558850008
 30
0.0
 11
1114.085875228723
 21
2117.982558850008
 31
0.0
1001
REVIT
1002
{
1070
     3
1000
923261
1002
}
  0
ARC
  5
1C7
330
1B4
100
AcDbEntity
  8
M-PIPE
100
AcDbCircle
 10
1097.114353943098
 20
2088.982558850072
 30
0.0
 40
12.0
100
AcDbArc
 50
180.0
 51
0.0
1001
REVIT
1002
{
1070
     3
1000
923261
1002
}
  0
ARC
  5
1C8
330
1B4
100
AcDbEntity
  8
M-PIPE
100
AcDbCircle
 10
1097.114353943098
 20
2088.982558850072
 30
0.0
 40
11.99999999999977
100
AcDbArc
 50
0.0
 51
180.0
1001
REVIT
1002
{
1070
     3
1000
923261
1002
}
  0
ARC
  5
1C9
330
1B4
100
AcDbEntity
  8
M-PIPE
100
AcDbCircle
 10
1097.114353943098
 20
2088.982558850072
 30
0.0
 40
8.0
100
AcDbArc
 50
0.0
 51
180.0
1001
REVIT
1002
{
1070
     3
1000
923261
1002
}
  0
ARC
  5
1CA
330
1B4
100
AcDbEntity
  8
M-PIPE
100
AcDbCircle
 10
1097.114353943098
 20
2088.982558850072
 30
0.0
 40
8.0
100
AcDbArc
 50
180.0
 51
0.0
1001
REVIT
1002
{
1070
     3
1000
923261
1002
}
  0
LINE
  5
1CB
330
1B4
100
AcDbEntity
  8
M-PIPE
100
AcDbLine
 10
1064.1143539431
 20
2047.772558850073
 30
0.0
 11
1130.1143539431
 21
2047.772558850073
 31
0.0
1001
REVIT
1002
{
1070
     3
1000
923261
1002
}
  0
LINE
  5
1CC
330
1B4
100
AcDbEntity
  8
M-PIPE
100
AcDbLine
 10
1118.114353943102
 20
2039.772558850073
 30
0.0
 11
1118.114353943102
 21
2047.772558850073
 31
0.0
1001
REVIT
1002
{
1070
     3
1000
923261
1002
}
  0
LINE
  5
1CD
330
1B4
100
AcDbEntity
  8
M-PIPE
100
AcDbLine
 10
1063.1143539431
 20
2067.870230221086
 30
0.0
 11
1064.1143539431
 21
2067.870230221086
 31
0.0
1001
REVIT
1002
{
1070
     3
1000
923261
1002
}
  0
LINE
  5
1CE
330
1B4
100
AcDbEntity
  8
M-PIPE
100
AcDbLine
 10
1130.114353943101
 20
2067.870230221085
 30
0.0
 11
1131.114353943101
 21
2067.870230221085
 31
0.0
1001
REVIT
1002
{
1070
     3
1000
923261
1002
}
  0
LINE
  5
1CF
330
1B4
100
AcDbEntity
  8
M-PIPE
100
AcDbLine
 10
1109.114353943117
 20
2107.982558850073
 30
0.0
 11
1109.114353943117
 21
2109.982558850073
 31
0.0
1001
REVIT
1002
{
1070
     3
1000
923261
1002
}
  0
LINE
  5
1D0
330
1B4
100
AcDbEntity
  8
M-PIPE
100
AcDbLine
 10
1085.114353943117
 20
2109.982558850073
 30
0.0
 11
1085.114353943117
 21
2107.982558850074
 31
0.0
1001
REVIT
1002
{
1070
     3
1000
923261
1002
}
  0
LINE
  5
1D1
330
1B4
100
AcDbEntity
  8
M-PIPE
100
AcDbLine
 10
1130.114353943098
 20
2067.772558850072
 30
0.0
 11
1130.114353943098
 21
2047.772558850072
 31
0.0
1001
REVIT
1002
{
1070
     3
1000
923261
1002
}
  0
LINE
  5
1D2
330
1B4
100
AcDbEntity
  8
M-PIPE
100
AcDbLine
 10
1130.114353943098
 20
2067.98255885007
 30
0.0
 11
1130.114353943098
 21
2067.772558850072
 31
0.0
1001
REVIT
1002
{
1070
     3
1000
923261
1002
}
  0
LINE
  5
1D3
330
1B4
100
AcDbEntity
  8
M-PIPE
100
AcDbLine
 10
1130.114353943099
 20
2107.982558850071
 30
0.0
 11
1130.114353943098
 21
2078.094887479057
 31
0.0
1001
REVIT
1002
{
1070
     3
1000
923261
1002
}
  0
LINE
  5
1D4
330
1B4
100
AcDbEntity
  8
M-PIPE
100
AcDbLine
 10
1064.114353943098
 20
2078.094887479058
 30
0.0
 11
1064.114353943099
 21
2107.982558850073
 31
0.0
1001
REVIT
1002
{
1070
     3
1000
923261
1002
}
  0
LINE
  5
1D5
330
1B4
100
AcDbEntity
  8
M-PIPE
100
AcDbLine
 10
1064.114353943098
 20
2047.772558850073
 30
0.0
 11
1064.114353943098
 21
2067.772558850072
 31
0.0
1001
REVIT
1002
{
1070
     3
1000
923261
1002
}
  0
LINE
  5
1D6
330
1B4
100
AcDbEntity
  8
M-PIPE
100
AcDbLine
 10
1064.114353943098
 20
2067.772558850072
 30
0.0
 11
1064.114353943098
 21
2067.982558850071
 31
0.0
1001
REVIT
1002
{
1070
     3
1000
923261
1002
}
  0
LINE
  5
1D7
330
1B4
100
AcDbEntity
  8
M-PIPE
100
AcDbLine
 10
1131.114353943099
 20
2078.094887479057
 30
0.0
 11
1130.114353943098
 21
2078.094887479057
 31
0.0
1001
REVIT
1002
{
1070
     3
1000
923261
1002
}
  0
LINE
  5
1D8
330
1B4
100
AcDbEntity
  8
M-PIPE
100
AcDbLine
 10
1064.114353943099
 20
2107.982558850073
 30
0.0
 11
1130.114353943099
 21
2107.982558850071
 31
0.0
1001
REVIT
1002
{
1070
     3
1000
923261
1002
}
  0
LINE
  5
1D9
330
1B4
100
AcDbEntity
  8
M-PIPE
100
AcDbLine
 10
1064.114353943098
 20
2078.094887479058
 30
0.0
 11
1063.114353943099
 21
2078.094887479058
 31
0.0
1001
REVIT
1002
{
1070
     3
1000
923261
1002
}
  0
LINE
  5
1DA
330
1B4
100
AcDbEntity
  8
M-PIPE
100
AcDbLine
 10
1110.1143539431
 20
2039.772558850072
 30
0.0
 11
1109.61325144815
 21
2039.772558850072
 31
0.0
1001
REVIT
1002
{
1070
     3
1000
923261
1002
}
  0
LINE
  5
1DB
330
1B4
100
AcDbEntity
  8
M-PIPE
100
AcDbLine
 10
1118.1143539431
 20
2039.772558850072
 30
0.0
 11
1110.1143539431
 21
2039.772558850072
 31
0.0
1001
REVIT
1002
{
1070
     3
1000
923261
1002
}
  0
LINE
  5
1DC
330
1B4
100
AcDbEntity
  8
M-PIPE
100
AcDbLine
 10
1131.114353943099
 20
2067.98255885007
 30
0.0
 11
1131.114353943099
 21
2078.094887479057
 31
0.0
1001
REVIT
1002
{
1070
     3
1000
923261
1002
}
  0
LINE
  5
1DD
330
1B4
100
AcDbEntity
  8
M-PIPE
100
AcDbLine
 10
1131.114353943099
 20
2067.98255885007
 30
0.0
 11
1131.114353943099
 21
2067.9584775859
 31
0.0
1001
REVIT
1002
{
1070
     3
1000
923261
1002
}
  0
LINE
  5
1DE
330
1B4
100
AcDbEntity
  8
M-PIPE
100
AcDbLine
 10
1131.1143539431
 20
2095.982558850071
 30
0.0
 11
1131.114353943099
 21
2089.794510909428
 31
0.0
1001
REVIT
1002
{
1070
     3
1000
923261
1002
}
  0
LINE
  5
1DF
330
1B4
100
AcDbEntity
  8
M-PIPE
100
AcDbLine
 10
1131.114353943099
 20
2089.794510909428
 30
0.0
 11
1131.114353943099
 21
2078.08286834939
 31
0.0
1001
REVIT
1002
{
1070
     3
1000
923261
1002
}
  0
LINE
  5
1E0
330
1B4
100
AcDbEntity
  8
M-PIPE
100
AcDbLine
 10
1063.114353943099
 20
2078.082868349392
 30
0.0
 11
1063.114353943099
 21
2089.794510909428
 31
0.0
1001
REVIT
1002
{
1070
     3
1000
923261
1002
}
  0
LINE
  5
1E1
330
1B4
100
AcDbEntity
  8
M-PIPE
100
AcDbLine
 10
1063.114353943099
 20
2089.794510909428
 30
0.0
 11
1063.1143539431
 21
2095.982558850071
 31
0.0
1001
REVIT
1002
{
1070
     3
1000
923261
1002
}
  0
LINE
  5
1E2
330
1B4
100
AcDbEntity
  8
M-PIPE
100
AcDbLine
 10
1063.114353943098
 20
2067.9584775859
 30
0.0
 11
1063.114353943098
 21
2067.982558850071
 31
0.0
1001
REVIT
1002
{
1070
     3
1000
923261
1002
}
  0
LINE
  5
1E3
330
1B4
100
AcDbEntity
  8
M-PIPE
100
AcDbLine
 10
1063.114353943099
 20
2078.094887479058
 30
0.0
 11
1063.114353943098
 21
2067.982558850071
 31
0.0
1001
REVIT
1002
{
1070
     3
1000
923261
1002
}
  0
LINE
  5
1E4
330
1B4
100
AcDbEntity
  8
M-PIPE
100
AcDbLine
 10
1130.114353943098
 20
2067.98255885007
 30
0.0
 11
1131.114353943099
 21
2067.98255885007
 31
0.0
1001
REVIT
1002
{
1070
     3
1000
923261
1002
}
  0
LINE
  5
1E5
330
1B4
100
AcDbEntity
  8
M-PIPE
100
AcDbLine
 10
1063.114353943098
 20
2067.982558850071
 30
0.0
 11
1064.114353943098
 21
2067.982558850071
 31
0.0
1001
REVIT
1002
{
1070
     3
1000
923261
1002
}
  0
LINE
  5
1E6
330
1B4
100
AcDbEntity
  8
M-PIPE
100
AcDbLine
 10
1130.1143539431
 20
2095.982558850071
 30
0.0
 11
1131.1143539431
 21
2095.982558850071
 31
0.0
1001
REVIT
1002
{
1070
     3
1000
923261
1002
}
  0
LINE
  5
1E7
330
1B4
100
AcDbEntity
  8
M-PIPE
100
AcDbLine
 10
1063.1143539431
 20
2095.982558850071
 30
0.0
 11
1064.1143539431
 21
2095.982558850071
 31
0.0
1001
REVIT
1002
{
1070
     3
1000
923261
1002
}
  0
LINE
  5
1E8
330
1B4
100
AcDbEntity
  8
M-PIPE
100
AcDbLine
 10
1130.114353943099
 20
2089.794510909428
 30
0.0
 11
1131.114353943099
 21
2089.794510909428
 31
0.0
1001
REVIT
1002
{
1070
     3
1000
923261
1002
}
  0
LINE
  5
1E9
330
1B4
100
AcDbEntity
  8
M-PIPE
100
AcDbLine
 10
1063.114353943099
 20
2089.794510909429
 30
0.0
 11
1064.114353943099
 21
2089.794510909429
 31
0.0
1001
REVIT
1002
{
1070
     3
1000
923261
1002
}
  0
LINE
  5
1EA
330
1B4
100
AcDbEntity
  8
M-PIPE
100
AcDbLine
 10
1097.114353943115
 20
2109.982558850072
 30
0.0
 11
1109.114353943115
 21
2109.982558850072
 31
0.0
1001
REVIT
1002
{
1070
     3
1000
923261
1002
}
  0
LINE
  5
1EB
330
1B4
100
AcDbEntity
  8
M-PIPE
100
AcDbLine
 10
1085.114353943115
 20
2109.982558850072
 30
0.0
 11
1097.114353943115
 21
2109.982558850072
 31
0.0
1001
REVIT
1002
{
1070
     3
1000
923261
1002
}
  0
LINE
  5
1EC
330
1B4
100
AcDbEntity
  8
M-PIPE
100
AcDbLine
 10
1109.614353943117
 20
2032.482558850011
 30
0.0
 11
1109.614353943117
 21
2047.76255885001
 31
0.0
1001
REVIT
1002
{
1070
     3
1000
923261
1002
}
  0
LINE
  5
1ED
330
1B4
100
AcDbEntity
  8
M-PIPE
100
AcDbLine
 10
1084.614353943116
 20
2047.76255885001
 30
0.0
 11
1084.614353943116
 21
2032.482558850011
 31
0.0
1001
REVIT
1002
{
1070
     3
1000
923261
1002
}
  0
LINE
  5
1EE
330
1B4
100
AcDbEntity
  8
M-PIPE
100
AcDbLine
 10
1098.26036406052
 20
2047.762558850009
 30
0.0
 11
1097.114353943115
 21
2047.762558850009
 31
0.0
1001
REVIT
1002
{
1070
     3
1000
923261
1002
}
  0
LINE
  5
1EF
330
1B4
100
AcDbEntity
  8
M-PIPE
100
AcDbLine
 10
1097.114353943115
 20
2047.762558850009
 30
0.0
 11
1094.943751722278
 21
2047.762558850009
 31
0.0
1001
REVIT
1002
{
1070
     3
1000
923261
1002
}
  0
SPLINE
  5
1F0
330
1B4
100
AcDbEntity
  8
M-PIPE
100
AcDbSpline
210
0.0
220
0.0
230
1.0
 70
     8
 71
     3
 72
     8
 73
     4
 74
     0
 42
0.000000001
 43
0.0000000001
 40
0.7976456618036302
 40
0.7976456618036302
 40
0.7976456618036302
 40
0.7976456618036302
 40
1.0
 40
1.0
 40
1.0
 40
1.0
 10
1122.671469000605
 20
2015.663556786531
 30
0.0
 10
1122.828931154258
 20
2015.447938337491
 30
0.0
 10
1122.975326359851
 20
2015.22336168785
 30
0.0
 10
1123.109544471505
 20
2014.99088909917
 30
0.0
1001
REVIT
1002
{
1070
     3
1000
790271
1002
}
  0
SPLINE
  5
1F1
330
1B4
100
AcDbEntity
  8
M-PIPE
100
AcDbSpline
210
0.0
220
0.0
230
1.0
 70
     8
 71
     3
 72
     8
 73
     4
 74
     0
 42
0.000000001
 43
0.0000000001
 40
0.0
 40
0.0
 40
0.0
 40
0.0
 40
0.25
 40
0.25
 40
0.25
 40
0.25
 10
1123.109544471505
 20
2014.99088909917
 30
0.0
 10
1123.27536512162
 20
2014.703679308226
 30
0.0
 10
1123.421455170371
 20
2014.406399093392
 30
0.0
 10
1123.547126561949
 20
2014.101863011307
 30
0.0
1001
REVIT
1002
{
1070
     3
1000
790271
1002
}
  0
SPLINE
  5
1F2
330
1B4
100
AcDbEntity
  8
M-PIPE
100
AcDbSpline
210
0.0
220
0.0
230
1.0
 70
     8
 71
     3
 72
     8
 73
     4
 74
     0
 42
0.000000001
 43
0.0000000001
 40
-0.6036726296756417
 40
-0.6036726296756417
 40
-0.6036726296756417
 40
-0.6036726296756417
 40
-0.6
 40
-0.6
 40
-0.6
 40
-0.6
 10
1123.480507709736
 20
1985.707710162643
 30
0.0
 10
1123.47660539912
 20
1985.698838710641
 30
0.0
 10
1123.472698828448
 20
1985.689961790225
 30
0.0
 10
1123.468787333403
 20
1985.681080163474
 30
0.0
1001
REVIT
1002
{
1070
     3
1000
790271
1002
}
  0
SPLINE
  5
1F3
330
1B4
100
AcDbEntity
  8
M-PIPE
100
AcDbSpline
210
0.0
220
0.0
230
1.0
 70
     8
 71
     3
 72
     8
 73
     4
 74
     0
 42
0.000000001
 43
0.0000000001
 40
0.7976456618262717
 40
0.7976456618262717
 40
0.7976456618262717
 40
0.7976456618262717
 40
1.0
 40
1.0
 40
1.0
 40
1.0
 10
1071.557238885586
 20
1984.301560913488
 30
0.0
 10
1071.399776731953
 20
1984.517179362505
 30
0.0
 10
1071.253381526378
 20
1984.74175601212
 30
0.0
 10
1071.119163414739
 20
1984.974228600773
 30
0.0
1001
REVIT
1002
{
1070
     3
1000
790271
1002
}
  0
SPLINE
  5
1F4
330
1B4
100
AcDbEntity
  8
M-PIPE
100
AcDbSpline
210
0.0
220
0.0
230
1.0
 70
     8
 71
     3
 72
     8
 73
     4
 74
     0
 42
0.000000001
 43
0.0000000001
 40
0.0
 40
0.0
 40
0.0
 40
0.0
 40
0.25
 40
0.25
 40
0.25
 40
0.25
 10
1071.119163414739
 20
1984.974228600773
 30
0.0
 10
1070.953342764623
 20
1985.261438391718
 30
0.0
 10
1070.807252715871
 20
1985.558718606553
 30
0.0
 10
1070.681581324293
 20
1985.863254688638
 30
0.0
1001
REVIT
1002
{
1070
     3
1000
790271
1002
}
  0
SPLINE
  5
1F5
330
1B4
100
AcDbEntity
  8
M-PIPE
100
AcDbSpline
210
0.0
220
0.0
230
1.0
 70
     8
 71
     3
 72
     8
 73
     4
 74
     0
 42
0.000000001
 43
0.0000000001
 40
-0.6036726296301942
 40
-0.6036726296301942
 40
-0.6036726296301942
 40
-0.6036726296301942
 40
-0.6
 40
-0.6
 40
-0.6
 40
-0.6
 10
1070.748200176647
 20
2014.257407537641
 30
0.0
 10
1070.752102487215
 20
2014.266278989532
 30
0.0
 10
1070.756009057839
 20
2014.275155909839
 30
0.0
 10
1070.759920552836
 20
2014.28403753648
 30
0.0
1001
REVIT
1002
{
1070
     3
1000
790271
1002
}
  0
ARC
  5
1F6
330
1B4
100
AcDbEntity
  8
M-PIPE
100
AcDbCircle
 10
1097.114353943087
 20
1999.982558850007
 30
0.0
 40
24.24871130595186
100
AcDbArc
 50
149.9999999999994
 51
329.9999999999979
1001
REVIT
1002
{
1070
     3
1000
790271
1002
}
  0
ARC
  5
1F7
330
1B4
100
AcDbEntity
  8
M-PIPE
100
AcDbCircle
 10
1097.114353943087
 20
1999.982558850007
 30
0.0
 40
24.24871130595174
100
AcDbArc
 50
329.9999999999994
 51
149.9999999999997
1001
REVIT
1002
{
1070
     3
1000
790271
1002
}
  0
ARC
  5
1F8
330
1B4
100
AcDbEntity
  8
M-PIPE
100
AcDbCircle
 10
1097.114353943097
 20
1999.982558850011
 30
0.0
 40
20.94999999995323
100
AcDbArc
 50
355.0000000000001
 51
355.4989141705225
1001
REVIT
1002
{
1070
     3
1000
790271
1002
}
  0
ARC
  5
1F9
330
1B4
100
AcDbEntity
  8
M-PIPE
100
AcDbCircle
 10
1097.114353943097
 20
1999.982558850011
 30
0.0
 40
20.94999999995324
100
AcDbArc
 50
350.0000000000001
 51
350.9950993195413
1001
REVIT
1002
{
1070
     3
1000
790271
1002
}
  0
ARC
  5
1FA
330
1B4
100
AcDbEntity
  8
M-PIPE
100
AcDbCircle
 10
1097.114353943097
 20
1999.982558850011
 30
0.0
 40
20.94999999995332
100
AcDbArc
 50
344.9999999999997
 51
346.4895751335291
1001
REVIT
1002
{
1070
     3
1000
790271
1002
}
  0
ARC
  5
1FB
330
1B4
100
AcDbEntity
  8
M-PIPE
100
AcDbCircle
 10
1097.114353943097
 20
1999.982558850011
 30
0.0
 40
20.94999999995323
100
AcDbArc
 50
339.9999999999999
 51
341.8958413317241
1001
REVIT
1002
{
1070
     3
1000
790271
1002
}
  0
ARC
  5
1FC
330
1B4
100
AcDbEntity
  8
M-PIPE
100
AcDbCircle
 10
1097.114353943097
 20
1999.982558850011
 30
0.0
 40
20.94999999995316
100
AcDbArc
 50
328.4710753991546
 51
329.9999999999999
1001
REVIT
1002
{
1070
     3
1000
790271
1002
}
  0
ARC
  5
1FD
330
1B4
100
AcDbEntity
  8
M-PIPE
100
AcDbCircle
 10
1097.114353943097
 20
1999.982558850011
 30
0.0
 40
20.94999999995312
100
AcDbArc
 50
323.9735171897345
 51
324.9999999999999
1001
REVIT
1002
{
1070
     3
1000
790271
1002
}
  0
ARC
  5
1FE
330
1B4
100
AcDbEntity
  8
M-PIPE
100
AcDbCircle
 10
1097.114353943097
 20
1999.982558850011
 30
0.0
 40
20.94999999995336
100
AcDbArc
 50
319.4822353515838
 51
319.9999999999997
1001
REVIT
1002
{
1070
     3
1000
790271
1002
}
  0
ARC
  5
1FF
330
1B4
100
AcDbEntity
  8
M-PIPE
100
AcDbCircle
 10
1097.114353943097
 20
1999.982558850011
 30
0.0
 40
20.94999999995327
100
AcDbArc
 50
304.9999999999998
 51
306.0264828102625
1001
REVIT
1002
{
1070
     3
1000
790271
1002
}
  0
ARC
  5
200
330
1B4
100
AcDbEntity
  8
M-PIPE
100
AcDbCircle
 10
1097.114353943097
 20
1999.982558850011
 30
0.0
 40
20.9499999999532
100
AcDbArc
 50
300.0000000000003
 51
301.5289246008447
1001
REVIT
1002
{
1070
     3
1000
790271
1002
}
  0
ARC
  5
201
330
1B4
100
AcDbEntity
  8
M-PIPE
100
AcDbCircle
 10
1097.114353943097
 20
1999.982558850011
 30
0.0
 40
20.94999999995323
100
AcDbArc
 50
294.9999999999998
 51
297.0271086372923
1001
REVIT
1002
{
1070
     3
1000
790271
1002
}
  0
ARC
  5
202
330
1B4
100
AcDbEntity
  8
M-PIPE
100
AcDbCircle
 10
1097.114353943097
 20
1999.982558850011
 30
0.0
 40
20.94999999995345
100
AcDbArc
 50
242.9728913627052
 51
245.0000000000001
1001
REVIT
1002
{
1070
     3
1000
790271
1002
}
  0
ARC
  5
203
330
1B4
100
AcDbEntity
  8
M-PIPE
100
AcDbCircle
 10
1097.114353943097
 20
1999.982558850011
 30
0.0
 40
20.94999999995316
100
AcDbArc
 50
238.4710753991523
 51
239.9999999999999
1001
REVIT
1002
{
1070
     3
1000
790271
1002
}
  0
ARC
  5
204
330
1B4
100
AcDbEntity
  8
M-PIPE
100
AcDbCircle
 10
1097.114353943097
 20
1999.982558850011
 30
0.0
 40
20.94999999995331
100
AcDbArc
 50
233.9735171897334
 51
235.0000000000001
1001
REVIT
1002
{
1070
     3
1000
790271
1002
}
  0
ARC
  5
205
330
1B4
100
AcDbEntity
  8
M-PIPE
100
AcDbCircle
 10
1097.114353943097
 20
1999.982558850011
 30
0.0
 40
20.94999999995324
100
AcDbArc
 50
220.0
 51
220.5177646484168
1001
REVIT
1002
{
1070
     3
1000
790271
1002
}
  0
ARC
  5
206
330
1B4
100
AcDbEntity
  8
M-PIPE
100
AcDbCircle
 10
1097.114353943097
 20
1999.982558850011
 30
0.0
 40
20.94999999995334
100
AcDbArc
 50
215.0000000000001
 51
216.0264828102663
1001
REVIT
1002
{
1070
     3
1000
790271
1002
}
  0
ARC
  5
207
330
1B4
100
AcDbEntity
  8
M-PIPE
100
AcDbCircle
 10
1097.114353943097
 20
1999.982558850011
 30
0.0
 40
20.94999999995325
100
AcDbArc
 50
209.9999999999992
 51
211.5289246008454
1001
REVIT
1002
{
1070
     3
1000
790271
1002
}
  0
ARC
  5
208
330
1B4
100
AcDbEntity
  8
M-PIPE
100
AcDbCircle
 10
1097.114353943097
 20
1999.982558850011
 30
0.0
 40
20.94999999995323
100
AcDbArc
 50
198.1041586683648
 51
199.9999999999994
1001
REVIT
1002
{
1070
     3
1000
790271
1002
}
  0
ARC
  5
209
330
1B4
100
AcDbEntity
  8
M-PIPE
100
AcDbCircle
 10
1097.114353943097
 20
1999.982558850011
 30
0.0
 40
20.94999999995325
100
AcDbArc
 50
193.5104248664707
 51
194.9999999999994
1001
REVIT
1002
{
1070
     3
1000
790271
1002
}
  0
ARC
  5
20A
330
1B4
100
AcDbEntity
  8
M-PIPE
100
AcDbCircle
 10
1097.114353943097
 20
1999.982558850011
 30
0.0
 40
20.94999999995324
100
AcDbArc
 50
189.0049006804592
 51
189.9999999999998
1001
REVIT
1002
{
1070
     3
1000
790271
1002
}
  0
ARC
  5
20B
330
1B4
100
AcDbEntity
  8
M-PIPE
100
AcDbCircle
 10
1097.114353943097
 20
1999.982558850011
 30
0.0
 40
20.94999999995331
100
AcDbArc
 50
184.5010858294774
 51
185.0000000000004
1001
REVIT
1002
{
1070
     3
1000
790271
1002
}
  0
ARC
  5
20C
330
1B4
100
AcDbEntity
  8
M-PIPE
100
AcDbCircle
 10
1097.114353943097
 20
1999.982558850011
 30
0.0
 40
20.94999999995332
100
AcDbArc
 50
175.0000000000004
 51
175.4989141705185
1001
REVIT
1002
{
1070
     3
1000
790271
1002
}
  0
ARC
  5
20D
330
1B4
100
AcDbEntity
  8
M-PIPE
100
AcDbCircle
 10
1097.114353943097
 20
1999.982558850011
 30
0.0
 40
20.94999999995323
100
AcDbArc
 50
169.9999999999998
 51
170.9950993195378
1001
REVIT
1002
{
1070
     3
1000
790271
1002
}
  0
ARC
  5
20E
330
1B4
100
AcDbEntity
  8
M-PIPE
100
AcDbCircle
 10
1097.114353943097
 20
1999.982558850011
 30
0.0
 40
20.94999999995337
100
AcDbArc
 50
165.0000000000003
 51
166.4895751335264
1001
REVIT
1002
{
1070
     3
1000
790271
1002
}
  0
ARC
  5
20F
330
1B4
100
AcDbEntity
  8
M-PIPE
100
AcDbCircle
 10
1097.114353943097
 20
1999.982558850011
 30
0.0
 40
20.94999999995346
100
AcDbArc
 50
160.0000000000001
 51
161.8958413315647
1001
REVIT
1002
{
1070
     3
1000
790271
1002
}
  0
ARC
  5
210
330
1B4
100
AcDbEntity
  8
M-PIPE
100
AcDbCircle
 10
1097.114353943097
 20
1999.982558850011
 30
0.0
 40
20.94999999995336
100
AcDbArc
 50
148.4710753991513
 51
150.0000000000006
1001
REVIT
1002
{
1070
     3
1000
790271
1002
}
  0
ARC
  5
211
330
1B4
100
AcDbEntity
  8
M-PIPE
100
AcDbCircle
 10
1097.114353943097
 20
1999.982558850011
 30
0.0
 40
20.94999999995331
100
AcDbArc
 50
143.9735171897304
 51
145.0000000000006
1001
REVIT
1002
{
1070
     3
1000
790271
1002
}
  0
ARC
  5
212
330
1B4
100
AcDbEntity
  8
M-PIPE
100
AcDbCircle
 10
1097.114353943097
 20
1999.982558850011
 30
0.0
 40
20.94999999995322
100
AcDbArc
 50
139.4822353515799
 51
140.0000000000002
1001
REVIT
1002
{
1070
     3
1000
790271
1002
}
  0
ARC
  5
213
330
1B4
100
AcDbEntity
  8
M-PIPE
100
AcDbCircle
 10
1097.114353943097
 20
1999.982558850011
 30
0.0
 40
20.9499999999532
100
AcDbArc
 50
125.0000000000009
 51
126.0264828102666
1001
REVIT
1002
{
1070
     3
1000
790271
1002
}
  0
ARC
  5
214
330
1B4
100
AcDbEntity
  8
M-PIPE
100
AcDbCircle
 10
1097.114353943097
 20
1999.982558850011
 30
0.0
 40
20.94999999995322
100
AcDbArc
 50
120.0000000000002
 51
121.5289246008486
1001
REVIT
1002
{
1070
     3
1000
790271
1002
}
  0
ARC
  5
215
330
1B4
100
AcDbEntity
  8
M-PIPE
100
AcDbCircle
 10
1097.114353943097
 20
1999.982558850011
 30
0.0
 40
20.94999999995323
100
AcDbArc
 50
115.0000000000004
 51
117.0271086372953
1001
REVIT
1002
{
1070
     3
1000
790271
1002
}
  0
LINE
  5
216
330
1B4
100
AcDbEntity
  8
M-PIPE
100
AcDbLine
 10
1093.476424620983
 20
2020.61428127557
 30
0.0
 11
1093.49059624718
 21
2020.616775097771
 31
0.0
1001
REVIT
1002
{
1070
     3
1000
790271
1002
}
  0
ARC
  5
217
330
1B4
100
AcDbEntity
  8
M-PIPE
100
AcDbCircle
 10
1097.114353943097
 20
1999.982558850011
 30
0.0
 40
20.94999999995325
100
AcDbArc
 50
62.97289136270742
 51
65.0000000000001
1001
REVIT
1002
{
1070
     3
1000
790271
1002
}
  0
ARC
  5
218
330
1B4
100
AcDbEntity
  8
M-PIPE
100
AcDbCircle
 10
1097.114353943097
 20
1999.982558850011
 30
0.0
 40
20.94999999995336
100
AcDbArc
 50
58.47107539915442
 51
60.0000000000006
1001
REVIT
1002
{
1070
     3
1000
790271
1002
}
  0
ARC
  5
219
330
1B4
100
AcDbEntity
  8
M-PIPE
100
AcDbCircle
 10
1097.114353943097
 20
1999.982558850011
 30
0.0
 40
20.94999999995331
100
AcDbArc
 50
53.9735171897375
 51
55.00000000000061
1001
REVIT
1002
{
1070
     3
1000
790271
1002
}
  0
ARC
  5
21A
330
1B4
100
AcDbEntity
  8
M-PIPE
100
AcDbCircle
 10
1097.114353943097
 20
1999.982558850011
 30
0.0
 40
20.94999999995319
100
AcDbArc
 50
40.00000000000083
 51
40.51776464841895
1001
REVIT
1002
{
1070
     3
1000
790271
1002
}
  0
ARC
  5
21B
330
1B4
100
AcDbEntity
  8
M-PIPE
100
AcDbCircle
 10
1097.114353943097
 20
1999.982558850011
 30
0.0
 40
20.94999999995324
100
AcDbArc
 50
35.0000000000002
 51
36.02648281026816
1001
REVIT
1002
{
1070
     3
1000
790271
1002
}
  0
ARC
  5
21C
330
1B4
100
AcDbEntity
  8
M-PIPE
100
AcDbCircle
 10
1097.114353943097
 20
1999.982558850011
 30
0.0
 40
20.94999999995329
100
AcDbArc
 50
30.00000000000057
 51
31.52892460084782
1001
REVIT
1002
{
1070
     3
1000
790271
1002
}
  0
ARC
  5
21D
330
1B4
100
AcDbEntity
  8
M-PIPE
100
AcDbCircle
 10
1097.114353943097
 20
1999.982558850011
 30
0.0
 40
20.94999999995323
100
AcDbArc
 50
18.10415866834367
 51
20.00000000000046
1001
REVIT
1002
{
1070
     3
1000
790271
1002
}
  0
ARC
  5
21E
330
1B4
100
AcDbEntity
  8
M-PIPE
100
AcDbCircle
 10
1097.114353943097
 20
1999.982558850011
 30
0.0
 40
20.94999999995325
100
AcDbArc
 50
13.51042486647294
 51
15.0000000000004
1001
REVIT
1002
{
1070
     3
1000
790271
1002
}
  0
ARC
  5
21F
330
1B4
100
AcDbEntity
  8
M-PIPE
100
AcDbCircle
 10
1097.114353943097
 20
1999.982558850011
 30
0.0
 40
20.94999999995328
100
AcDbArc
 50
9.004900680462142
 51
10.00000000000078
1001
REVIT
1002
{
1070
     3
1000
790271
1002
}
  0
ARC
  5
220
330
1B4
100
AcDbEntity
  8
M-PIPE
100
AcDbCircle
 10
1097.114353943097
 20
1999.982558850011
 30
0.0
 40
20.9499999999533
100
AcDbArc
 50
4.501085829480296
 51
5.000000000000838
1001
REVIT
1002
{
1070
     3
1000
790271
1002
}
  0
SPLINE
  5
221
330
1B4
100
AcDbEntity
  8
M-PIPE
100
AcDbSpline
210
0.0
220
0.0
230
1.0
 70
    24
 71
     3
 72
     9
 73
     5
 74
     0
 42
0.000000001
 43
0.0000000001
 40
0.0
 40
0.0
 40
0.0
 40
0.0
 40
0.5
 40
1.0
 40
1.0
 40
1.0
 40
1.0
 10
1124.114353943085
 20
2011.240889099225
 30
0.0
 10
1124.114353943085
 20
2007.528797550136
 30
0.0
 10
1124.114353943085
 20
2000.063929251315
 30
0.0
 10
1124.114353943085
 20
1992.517690551206
 30
0.0
 10
1124.114353943085
 20
1988.724228600829
 30
0.0
1001
REVIT
1002
{
1070
     3
1000
790271
1002
}
  0
SPLINE
  5
222
330
1B4
100
AcDbEntity
  8
M-PIPE
100
AcDbSpline
210
0.0
220
0.0
230
1.0
 70
    24
 71
     3
 72
     9
 73
     5
 74
     0
 42
0.000000001
 43
0.0000000001
 40
0.0
 40
0.0
 40
0.0
 40
0.0
 40
0.5
 40
1.0
 40
1.0
 40
1.0
 40
1.0
 10
1100.864353943085
 20
2028.994409876806
 30
0.0
 10
1104.079119525769
 20
2027.138364102262
 30
0.0
 10
1110.543885108453
 20
2023.405929952851
 30
0.0
 10
1117.079119525769
 20
2019.632810602796
 30
0.0
 10
1120.364353943085
 20
2017.736079627608
 30
0.0
1001
REVIT
1002
{
1070
     3
1000
790271
1002
}
  0
SPLINE
  5
223
330
1B4
100
AcDbEntity
  8
M-PIPE
100
AcDbSpline
210
0.0
220
0.0
230
1.0
 70
    24
 71
     3
 72
     9
 73
     5
 74
     0
 42
0.000000001
 43
0.0000000001
 40
0.0
 40
0.0
 40
0.0
 40
0.0
 40
0.5
 40
1.0
 40
1.0
 40
1.0
 40
1.0
 10
1073.864353943085
 20
2017.736079627609
 30
0.0
 10
1077.079119525769
 20
2019.592125402153
 30
0.0
 10
1083.543885108454
 20
2023.324559551564
 30
0.0
 10
1090.079119525769
 20
2027.097678901618
 30
0.0
 10
1093.364353943085
 20
2028.994409876807
 30
0.0
1001
REVIT
1002
{
1070
     3
1000
790271
1002
}
  0
SPLINE
  5
224
330
1B4
100
AcDbEntity
  8
M-PIPE
100
AcDbSpline
210
0.0
220
0.0
230
1.0
 70
    24
 71
     3
 72
     9
 73
     5
 74
     0
 42
0.000000001
 43
0.0000000001
 40
0.0
 40
0.0
 40
0.0
 40
0.0
 40
0.5
 40
1.0
 40
1.0
 40
1.0
 40
1.0
 10
1070.114353943084
 20
1988.72422860083
 30
0.0
 10
1070.114353943085
 20
1992.436320149919
 30
0.0
 10
1070.114353943085
 20
1999.90118844874
 30
0.0
 10
1070.114353943085
 20
2007.44742714885
 30
0.0
 10
1070.114353943085
 20
2011.240889099226
 30
0.0
1001
REVIT
1002
{
1070
     3
1000
790271
1002
}
  0
SPLINE
  5
225
330
1B4
100
AcDbEntity
  8
M-PIPE
100
AcDbSpline
210
0.0
220
0.0
230
1.0
 70
    24
 71
     3
 72
     9
 73
     5
 74
     0
 42
0.000000001
 43
0.0000000001
 40
0.0
 40
0.0
 40
0.0
 40
0.0
 40
0.5
 40
1.0
 40
1.0
 40
1.0
 40
1.0
 10
1093.364353943084
 20
1970.970707823249
 30
0.0
 10
1090.1495883604
 20
1972.826753597793
 30
0.0
 10
1083.684822777716
 20
1976.559187747204
 30
0.0
 10
1077.1495883604
 20
1980.332307097258
 30
0.0
 10
1073.864353943084
 20
1982.229038072446
 30
0.0
1001
REVIT
1002
{
1070
     3
1000
790271
1002
}
  0
SPLINE
  5
226
330
1B4
100
AcDbEntity
  8
M-PIPE
100
AcDbSpline
210
0.0
220
0.0
230
1.0
 70
    24
 71
     3
 72
     9
 73
     5
 74
     0
 42
0.000000001
 43
0.0000000001
 40
0.0
 40
0.0
 40
0.0
 40
0.0
 40
0.5
 40
1.0
 40
1.0
 40
1.0
 40
1.0
 10
1120.364353943084
 20
1982.229038072446
 30
0.0
 10
1117.1495883604
 20
1980.372992297902
 30
0.0
 10
1110.684822777716
 20
1976.640558148491
 30
0.0
 10
1104.1495883604
 20
1972.867438798437
 30
0.0
 10
1100.864353943084
 20
1970.970707823249
 30
0.0
1001
REVIT
1002
{
1070
     3
1000
790271
1002
}
  0
SPLINE
  5
227
330
1B4
100
AcDbEntity
  8
M-PIPE
100
AcDbSpline
210
0.0
220
0.0
230
1.0
 70
     8
 71
     3
 72
     9
 73
     5
 74
     0
 42
0.000000001
 43
0.0000000001
 40
-1.0
 40
-1.0
 40
-1.0
 40
-1.0
 40
-0.5
 40
0.0
 40
0.0
 40
0.0
 40
0.0
 10
1123.10954447146
 20
1984.974228600815
 30
0.0
 10
1123.441185771693
 20
1985.548648182705
 30
0.0
 10
1123.946623561245
 20
1986.778050737607
 30
0.0
 10
1124.114353943085
 20
1988.078514262292
 30
0.0
 10
1124.114353943085
 20
1988.724228600829
 30
0.0
1001
REVIT
1002
{
1070
     3
1000
790271
1002
}
  0
SPLINE
  5
228
330
1B4
100
AcDbEntity
  8
M-PIPE
100
AcDbSpline
210
0.0
220
0.0
230
1.0
 70
     8
 71
     3
 72
     9
 73
     5
 74
     0
 42
0.000000001
 43
0.0000000001
 40
-1.0
 40
-1.0
 40
-1.0
 40
-1.0
 40
-0.5
 40
0.0
 40
0.0
 40
0.0
 40
0.0
 10
1120.364353943084
 20
1982.229038072446
 30
0.0
 10
1120.92355896384
 20
1982.551895241712
 30
0.0
 10
1121.965928221986
 20
1983.347385775706
 30
0.0
 10
1122.777903171229
 20
1984.39980901893
 30
0.0
 10
1123.10954447146
 20
1984.974228600815
 30
0.0
1001
REVIT
1002
{
1070
     3
1000
790271
1002
}
  0
SPLINE
  5
229
330
1B4
100
AcDbEntity
  8
M-PIPE
100
AcDbSpline
210
0.0
220
0.0
230
1.0
 70
     8
 71
     3
 72
     8
 73
     4
 74
     0
 42
0.000000001
 43
0.0000000001
 40
0.0
 40
0.0
 40
0.0
 40
0.0
 40
0.5
 40
0.5
 40
0.5
 40
0.5
 10
1124.114353943085
 20
2011.240889099225
 30
0.0
 10
1124.114353943085
 20
2011.88660343776
 30
0.0
 10
1124.030488752166
 20
2012.5368352001
 30
0.0
 10
1123.862196709319
 20
2013.169301719996
 30
0.0
1001
REVIT
1002
{
1070
     3
1000
790271
1002
}
  0
SPLINE
  5
22A
330
1B4
100
AcDbEntity
  8
M-PIPE
100
AcDbSpline
210
0.0
220
0.0
230
1.0
 70
     8
 71
     3
 72
     8
 73
     4
 74
     0
 42
0.000000001
 43
0.0000000001
 40
0.75
 40
0.75
 40
0.75
 40
0.75
 40
1.0
 40
1.0
 40
1.0
 40
1.0
 10
1123.547126561911
 20
2014.101863011366
 30
0.0
 10
1123.421455170333
 20
2014.406399093451
 30
0.0
 10
1123.275365121581
 20
2014.703679308286
 30
0.0
 10
1123.109544471465
 20
2014.990889099231
 30
0.0
1001
REVIT
1002
{
1070
     3
1000
790271
1002
}
  0
SPLINE
  5
22B
330
1B4
100
AcDbEntity
  8
M-PIPE
100
AcDbSpline
210
0.0
220
0.0
230
1.0
 70
     8
 71
     3
 72
     8
 73
     4
 74
     0
 42
0.000000001
 43
0.0000000001
 40
0.0
 40
0.0
 40
0.0
 40
0.0
 40
0.25
 40
0.25
 40
0.25
 40
0.25
 10
1123.109544471465
 20
2014.990889099231
 30
0.0
 10
1122.943723821349
 20
2015.278098890174
 30
0.0
 10
1122.759316627636
 20
2015.553256691049
 30
0.0
 10
1122.558416339971
 20
2015.814359349727
 30
0.0
1001
REVIT
1002
{
1070
     3
1000
790271
1002
}
  0
SPLINE
  5
22C
330
1B4
100
AcDbEntity
  8
M-PIPE
100
AcDbSpline
210
0.0
220
0.0
230
1.0
 70
     8
 71
     3
 72
     8
 73
     4
 74
     0
 42
0.000000001
 43
0.0000000001
 40
0.5
 40
0.5
 40
0.5
 40
0.5
 40
1.0
 40
1.0
 40
1.0
 40
1.0
 10
1121.908329644764
 20
2016.553498747038
 30
0.0
 10
1121.444743592916
 20
2017.015477191344
 30
0.0
 10
1120.923558963842
 20
2017.413222458342
 30
0.0
 10
1120.364353943085
 20
2017.736079627608
 30
0.0
1001
REVIT
1002
{
1070
     3
1000
790271
1002
}
  0
SPLINE
  5
22D
330
1B4
100
AcDbEntity
  8
M-PIPE
100
AcDbSpline
210
0.0
220
0.0
230
1.0
 70
     8
 71
     3
 72
    10
 73
     6
 74
     0
 42
0.000000001
 43
0.0000000001
 40
-1.0
 40
-1.0
 40
-1.0
 40
-1.0
 40
-0.7
 40
-0.4
 40
0.0
 40
0.0
 40
0.0
 40
0.0
 10
1124.114353943085
 20
2011.240889099225
 30
0.0
 10
1124.114353943085
 20
2012.013845910031
 30
0.0
 10
1123.873271646878
 20
2013.578557216826
 30
0.0
 10
1122.657834361244
 20
2015.971547592042
 30
0.0
 10
1121.25872572849
 20
2017.219713836548
 30
0.0
 10
1120.364353943085
 20
2017.736079627608
 30
0.0
1001
REVIT
1002
{
1070
     3
1000
790271
1002
}
  0
SPLINE
  5
22E
330
1B4
100
AcDbEntity
  8
M-PIPE
100
AcDbSpline
210
0.0
220
0.0
230
1.0
 70
     8
 71
     3
 72
     8
 73
     4
 74
     0
 42
0.000000001
 43
0.0000000001
 40
0.0
 40
0.0
 40
0.0
 40
0.0
 40
0.5
 40
0.5
 40
0.5
 40
0.5
 10
1100.864353943085
 20
2028.994409876806
 30
0.0
 10
1100.305148922327
 20
2029.317267046073
 30
0.0
 10
1099.700099102334
 20
2029.569753541414
 30
0.0
 10
1099.068221007639
 20
2029.740241617002
 30
0.0
1001
REVIT
1002
{
1070
     3
1000
790271
1002
}
  0
SPLINE
  5
22F
330
1B4
100
AcDbEntity
  8
M-PIPE
100
AcDbSpline
210
0.0
220
0.0
230
1.0
 70
     8
 71
     3
 72
     8
 73
     4
 74
     0
 42
0.000000001
 43
0.0000000001
 40
0.75
 40
0.75
 40
0.75
 40
0.75
 40
1.0
 40
1.0
 40
1.0
 40
1.0
 10
1098.103064165024
 20
2029.933663511057
 30
0.0
 10
1097.77649248578
 20
2029.977096934464
 30
0.0
 10
1097.445995243315
 20
2029.999219348423
 30
0.0
 10
1097.114353943084
 20
2029.999219348423
 30
0.0
1001
REVIT
1002
{
1070
     3
1000
790271
1002
}
  0
SPLINE
  5
230
330
1B4
100
AcDbEntity
  8
M-PIPE
100
AcDbSpline
210
0.0
220
0.0
230
1.0
 70
     8
 71
     3
 72
     8
 73
     4
 74
     0
 42
0.000000001
 43
0.0000000001
 40
0.0
 40
0.0
 40
0.0
 40
0.0
 40
0.25
 40
0.25
 40
0.25
 40
0.25
 10
1097.114353943084
 20
2029.999219348423
 30
0.0
 10
1096.782712642853
 20
2029.999219348423
 30
0.0
 10
1096.452215400389
 20
2029.977096934464
 30
0.0
 10
1096.125643721145
 20
2029.933663511057
 30
0.0
1001
REVIT
1002
{
1070
     3
1000
790271
1002
}
  0
SPLINE
  5
231
330
1B4
100
AcDbEntity
  8
M-PIPE
100
AcDbSpline
210
0.0
220
0.0
230
1.0
 70
     8
 71
     3
 72
     8
 73
     4
 74
     0
 42
0.000000001
 43
0.0000000001
 40
0.5
 40
0.5
 40
0.5
 40
0.5
 40
1.0
 40
1.0
 40
1.0
 40
1.0
 10
1095.160486878531
 20
2029.740241617001
 30
0.0
 10
1094.528608783836
 20
2029.569753541414
 30
0.0
 10
1093.923558963843
 20
2029.317267046073
 30
0.0
 10
1093.364353943085
 20
2028.994409876807
 30
0.0
1001
REVIT
1002
{
1070
     3
1000
790271
1002
}
  0
SPLINE
  5
232
330
1B4
100
AcDbEntity
  8
M-PIPE
100
AcDbSpline
210
0.0
220
0.0
230
1.0
 70
     8
 71
     3
 72
    10
 73
     6
 74
     0
 42
0.000000001
 43
0.0000000001
 40
-1.0
 40
-1.0
 40
-1.0
 40
-1.0
 40
-0.7
 40
-0.4
 40
0.0
 40
0.0
 40
0.0
 40
0.0
 10
1100.864353943085
 20
2028.994409876806
 30
0.0
 10
1100.194953708898
 20
2029.38088828221
 30
0.0
 10
1098.719332819521
 20
2029.954460542688
 30
0.0
 10
1096.039223720756
 20
2030.098356164231
 30
0.0
 10
1094.258725728491
 20
2029.510775667866
 30
0.0
 10
1093.364353943085
 20
2028.994409876807
 30
0.0
1001
REVIT
1002
{
1070
     3
1000
790271
1002
}
  0
SPLINE
  5
233
330
1B4
100
AcDbEntity
  8
M-PIPE
100
AcDbSpline
210
0.0
220
0.0
230
1.0
 70
     8
 71
     3
 72
     9
 73
     5
 74
     0
 42
0.000000001
 43
0.0000000001
 40
-1.0
 40
-1.0
 40
-1.0
 40
-1.0
 40
-0.5
 40
0.0
 40
0.0
 40
0.0
 40
0.0
 10
1071.119163414693
 20
2014.990889099211
 30
0.0
 10
1070.787522114465
 20
2014.416469517325
 30
0.0
 10
1070.282084324921
 20
2013.187066962431
 30
0.0
 10
1070.114353943085
 20
2011.886603437757
 30
0.0
 10
1070.114353943085
 20
2011.240889099226
 30
0.0
1001
REVIT
1002
{
1070
     3
1000
790271
1002
}
  0
SPLINE
  5
234
330
1B4
100
AcDbEntity
  8
M-PIPE
100
AcDbSpline
210
0.0
220
0.0
230
1.0
 70
     8
 71
     3
 72
     9
 73
     5
 74
     0
 42
0.000000001
 43
0.0000000001
 40
-1.0
 40
-1.0
 40
-1.0
 40
-1.0
 40
-0.5
 40
0.0
 40
0.0
 40
0.0
 40
0.0
 10
1073.864353943085
 20
2017.736079627609
 30
0.0
 10
1073.305148922324
 20
2017.41322245834
 30
0.0
 10
1072.262779664171
 20
2016.617731924339
 30
0.0
 10
1071.450804714924
 20
2015.565308681102
 30
0.0
 10
1071.119163414693
 20
2014.990889099211
 30
0.0
1001
REVIT
1002
{
1070
     3
1000
790271
1002
}
  0
SPLINE
  5
235
330
1B4
100
AcDbEntity
  8
M-PIPE
100
AcDbSpline
210
0.0
220
0.0
230
1.0
 70
     8
 71
     3
 72
     8
 73
     4
 74
     0
 42
0.000000001
 43
0.0000000001
 40
0.0
 40
0.0
 40
0.0
 40
0.0
 40
0.5
 40
0.5
 40
0.5
 40
0.5
 10
1070.114353943085
 20
1988.72422860083
 30
0.0
 10
1070.114353943085
 20
1988.078514262297
 30
0.0
 10
1070.198219134003
 20
1987.428282499958
 30
0.0
 10
1070.366511176849
 20
1986.795815980064
 30
0.0
1001
REVIT
1002
{
1070
     3
1000
790271
1002
}
  0
SPLINE
  5
236
330
1B4
100
AcDbEntity
  8
M-PIPE
100
AcDbSpline
210
0.0
220
0.0
230
1.0
 70
     8
 71
     3
 72
     8
 73
     4
 74
     0
 42
0.000000001
 43
0.0000000001
 40
0.75
 40
0.75
 40
0.75
 40
0.75
 40
1.0
 40
1.0
 40
1.0
 40
1.0
 10
1070.681581324254
 20
1985.863254688698
 30
0.0
 10
1070.807252715832
 20
1985.558718606613
 30
0.0
 10
1070.953342764583
 20
1985.261438391779
 30
0.0
 10
1071.119163414698
 20
1984.974228600836
 30
0.0
1001
REVIT
1002
{
1070
     3
1000
790271
1002
}
  0
SPLINE
  5
237
330
1B4
100
AcDbEntity
  8
M-PIPE
100
AcDbSpline
210
0.0
220
0.0
230
1.0
 70
     8
 71
     3
 72
     8
 73
     4
 74
     0
 42
0.000000001
 43
0.0000000001
 40
0.0
 40
0.0
 40
0.0
 40
0.0
 40
0.25
 40
0.25
 40
0.25
 40
0.25
 10
1071.119163414698
 20
1984.974228600836
 30
0.0
 10
1071.284984064814
 20
1984.687018809891
 30
0.0
 10
1071.469391258527
 20
1984.411861009014
 30
0.0
 10
1071.670291546193
 20
1984.150758350336
 30
0.0
1001
REVIT
1002
{
1070
     3
1000
790271
1002
}
  0
SPLINE
  5
238
330
1B4
100
AcDbEntity
  8
M-PIPE
100
AcDbSpline
210
0.0
220
0.0
230
1.0
 70
     8
 71
     3
 72
     8
 73
     4
 74
     0
 42
0.000000001
 43
0.0000000001
 40
0.5
 40
0.5
 40
0.5
 40
0.5
 40
1.0
 40
1.0
 40
1.0
 40
1.0
 10
1072.320378241401
 20
1983.411618953022
 30
0.0
 10
1072.78396429325
 20
1982.949640508714
 30
0.0
 10
1073.305148922325
 20
1982.551895241714
 30
0.0
 10
1073.864353943084
 20
1982.229038072446
 30
0.0
1001
REVIT
1002
{
1070
     3
1000
790271
1002
}
  0
SPLINE
  5
239
330
1B4
100
AcDbEntity
  8
M-PIPE
100
AcDbSpline
210
0.0
220
0.0
230
1.0
 70
     8
 71
     3
 72
    10
 73
     6
 74
     0
 42
0.000000001
 43
0.0000000001
 40
-1.0
 40
-1.0
 40
-1.0
 40
-1.0
 40
-0.7
 40
-0.4
 40
0.0
 40
0.0
 40
0.0
 40
0.0
 10
1070.114353943084
 20
1988.72422860083
 30
0.0
 10
1070.114353943084
 20
1987.951271790023
 30
0.0
 10
1070.355436239292
 20
1986.386560483228
 30
0.0
 10
1071.570873524926
 20
1983.993570108012
 30
0.0
 10
1072.969982157679
 20
1982.745403863506
 30
0.0
 10
1073.864353943084
 20
1982.229038072446
 30
0.0
1001
REVIT
1002
{
1070
     3
1000
790271
1002
}
  0
SPLINE
  5
23A
330
1B4
100
AcDbEntity
  8
M-PIPE
100
AcDbSpline
210
0.0
220
0.0
230
1.0
 70
     8
 71
     3
 72
     8
 73
     4
 74
     0
 42
0.000000001
 43
0.0000000001
 40
0.0
 40
0.0
 40
0.0
 40
0.0
 40
0.5
 40
0.5
 40
0.5
 40
0.5
 10
1093.364353943084
 20
1970.970707823249
 30
0.0
 10
1093.923558963843
 20
1970.647850653982
 30
0.0
 10
1094.528608783836
 20
1970.39536415864
 30
0.0
 10
1095.160486878531
 20
1970.224876083053
 30
0.0
1001
REVIT
1002
{
1070
     3
1000
790271
1002
}
  0
SPLINE
  5
23B
330
1B4
100
AcDbEntity
  8
M-PIPE
100
AcDbSpline
210
0.0
220
0.0
230
1.0
 70
     8
 71
     3
 72
     8
 73
     4
 74
     0
 42
0.000000001
 43
0.0000000001
 40
0.75
 40
0.75
 40
0.75
 40
0.75
 40
1.0
 40
1.0
 40
1.0
 40
1.0
 10
1096.125643721145
 20
1970.031454188998
 30
0.0
 10
1096.452215400389
 20
1969.98802076559
 30
0.0
 10
1096.782712642853
 20
1969.965898351632
 30
0.0
 10
1097.114353943084
 20
1969.965898351632
 30
0.0
1001
REVIT
1002
{
1070
     3
1000
790271
1002
}
  0
SPLINE
  5
23C
330
1B4
100
AcDbEntity
  8
M-PIPE
100
AcDbSpline
210
0.0
220
0.0
230
1.0
 70
     8
 71
     3
 72
     8
 73
     4
 74
     0
 42
0.000000001
 43
0.0000000001
 40
0.0
 40
0.0
 40
0.0
 40
0.0
 40
0.25
 40
0.25
 40
0.25
 40
0.25
 10
1097.114353943084
 20
1969.965898351632
 30
0.0
 10
1097.445995243314
 20
1969.965898351632
 30
0.0
 10
1097.776492485779
 20
1969.98802076559
 30
0.0
 10
1098.103064165023
 20
1970.031454188997
 30
0.0
1001
REVIT
1002
{
1070
     3
1000
790271
1002
}
  0
SPLINE
  5
23D
330
1B4
100
AcDbEntity
  8
M-PIPE
100
AcDbSpline
210
0.0
220
0.0
230
1.0
 70
     8
 71
     3
 72
     8
 73
     4
 74
     0
 42
0.000000001
 43
0.0000000001
 40
0.5
 40
0.5
 40
0.5
 40
0.5
 40
1.0
 40
1.0
 40
1.0
 40
1.0
 10
1099.068221007637
 20
1970.224876083053
 30
0.0
 10
1099.700099102332
 20
1970.39536415864
 30
0.0
 10
1100.305148922326
 20
1970.647850653982
 30
0.0
 10
1100.864353943085
 20
1970.970707823249
 30
0.0
1001
REVIT
1002
{
1070
     3
1000
790271
1002
}
  0
SPLINE
  5
23E
330
1B4
100
AcDbEntity
  8
M-PIPE
100
AcDbSpline
210
0.0
220
0.0
230
1.0
 70
     8
 71
     3
 72
    10
 73
     6
 74
     0
 42
0.000000001
 43
0.0000000001
 40
-1.0
 40
-1.0
 40
-1.0
 40
-1.0
 40
-0.7
 40
-0.4
 40
0.0
 40
0.0
 40
0.0
 40
0.0
 10
1093.364353943084
 20
1970.970707823249
 30
0.0
 10
1094.033754177271
 20
1970.584229417845
 30
0.0
 10
1095.509375066648
 20
1970.010657157366
 30
0.0
 10
1098.189484165414
 20
1969.866761535824
 30
0.0
 10
1099.969982157679
 20
1970.454342032189
 30
0.0
 10
1100.864353943084
 20
1970.970707823249
 30
0.0
1001
REVIT
1002
{
1070
     3
1000
790271
1002
}
  0
ARC
  5
23F
330
1B4
100
AcDbEntity
  8
M-PIPE
100
AcDbCircle
 10
1097.114353943097
 20
1999.982558850011
 30
0.0
 40
20.94999999995338
100
AcDbArc
 50
229.4586167514125
 51
231.4420795558134
1001
REVIT
1002
{
1070
     3
1000
790271
1002
}
  0
ARC
  5
240
330
1B4
100
AcDbEntity
  8
M-PIPE
100
AcDbCircle
 10
1097.114353943097
 20
1999.982558850011
 30
0.0
 40
20.94999999995319
100
AcDbArc
 50
225.0442845143903
 51
226.6771729878544
1001
REVIT
1002
{
1070
     3
1000
790271
1002
}
  0
ARC
  5
241
330
1B4
100
AcDbEntity
  8
M-PIPE
100
AcDbCircle
 10
1097.114353943097
 20
1999.982558850011
 30
0.0
 40
20.9499999999534
100
AcDbArc
 50
220.5343343308201
 51
221.9122664198959
1001
REVIT
1002
{
1070
     3
1000
790271
1002
}
  0
ARC
  5
242
330
1B4
100
AcDbEntity
  8
M-PIPE
100
AcDbCircle
 10
1097.114353943097
 20
1999.982558850011
 30
0.0
 40
20.94999999995338
100
AcDbArc
 50
216.0254043670835
 51
217.1473598519375
1001
REVIT
1002
{
1070
     3
1000
790271
1002
}
  0
ARC
  5
243
330
1B4
100
AcDbEntity
  8
M-PIPE
100
AcDbCircle
 10
1097.114353943097
 20
1999.982558850011
 30
0.0
 40
20.94999999995344
100
AcDbArc
 50
211.5175242017801
 51
212.3824532839789
1001
REVIT
1002
{
1070
     3
1000
790271
1002
}
  0
ARC
  5
244
330
1B4
100
AcDbEntity
  8
M-PIPE
100
AcDbCircle
 10
1097.114353943097
 20
1999.982558850011
 30
0.0
 40
20.94999999995335
100
AcDbArc
 50
207.010764325008
 51
207.6175467160202
1001
REVIT
1002
{
1070
     3
1000
790271
1002
}
  0
ARC
  5
245
330
1B4
100
AcDbEntity
  8
M-PIPE
100
AcDbCircle
 10
1097.114353943097
 20
1999.982558850011
 30
0.0
 40
20.94999999995336
100
AcDbArc
 50
202.5052291805384
 51
202.8526401480617
1001
REVIT
1002
{
1070
     3
1000
790271
1002
}
  0
LINE
  5
246
330
1B4
100
AcDbEntity
  8
M-PIPE
100
AcDbLine
 10
1077.199656384299
 20
1993.478151026109
 30
0.0
 11
1077.189839105596
 21
1993.508286034609
 31
0.0
1001
REVIT
1002
{
1070
     3
1000
790271
1002
}
  0
ARC
  5
247
330
1B4
100
AcDbEntity
  8
M-PIPE
100
AcDbCircle
 10
1097.114353943097
 20
1999.982558850011
 30
0.0
 40
20.94999999995344
100
AcDbArc
 50
193.3228270121446
 51
193.5019035429554
1001
REVIT
1002
{
1070
     3
1000
790271
1002
}
  0
ARC
  5
248
330
1B4
100
AcDbEntity
  8
M-PIPE
100
AcDbCircle
 10
1097.114353943097
 20
1999.982558850011
 30
0.0
 40
20.94999999995334
100
AcDbArc
 50
188.5579204441862
 51
189.0030355257339
1001
REVIT
1002
{
1070
     3
1000
790271
1002
}
  0
ARC
  5
249
330
1B4
100
AcDbEntity
  8
M-PIPE
100
AcDbCircle
 10
1097.114353943097
 20
1999.982558850011
 30
0.0
 40
20.94999999995323
100
AcDbArc
 50
286.6771729879658
 51
288.0134846587728
1001
REVIT
1002
{
1070
     3
1000
790271
1002
}
  0
ARC
  5
24A
330
1B4
100
AcDbEntity
  8
M-PIPE
100
AcDbCircle
 10
1097.114353943097
 20
1999.982558850011
 30
0.0
 40
20.94999999995322
100
AcDbArc
 50
281.9122664199752
 51
283.5110145096569
1001
REVIT
1002
{
1070
     3
1000
790271
1002
}
  0
ARC
  5
24B
330
1B4
100
AcDbEntity
  8
M-PIPE
100
AcDbCircle
 10
1097.114353943097
 20
1999.982558850011
 30
0.0
 40
20.94999999995335
100
AcDbArc
 50
277.1473598519847
 51
279.0077602050269
1001
REVIT
1002
{
1070
     3
1000
790271
1002
}
  0
ARC
  5
24C
330
1B4
100
AcDbEntity
  8
M-PIPE
100
AcDbCircle
 10
1097.114353943097
 20
1999.982558850011
 30
0.0
 40
20.9499999999533
100
AcDbArc
 50
272.3824532839947
 51
274.5040029892693
1001
REVIT
1002
{
1070
     3
1000
790271
1002
}
  0
ARC
  5
24D
330
1B4
100
AcDbEntity
  8
M-PIPE
100
AcDbCircle
 10
1097.114353943097
 20
1999.982558850011
 30
0.0
 40
20.94999999995321
100
AcDbArc
 50
265.4959970107262
 51
267.6175467160046
1001
REVIT
1002
{
1070
     3
1000
790271
1002
}
  0
ARC
  5
24E
330
1B4
100
AcDbEntity
  8
M-PIPE
100
AcDbCircle
 10
1097.114353943097
 20
1999.982558850011
 30
0.0
 40
20.94999999995328
100
AcDbArc
 50
260.9922397949679
 51
262.8526401480138
1001
REVIT
1002
{
1070
     3
1000
790271
1002
}
  0
ARC
  5
24F
330
1B4
100
AcDbEntity
  8
M-PIPE
100
AcDbCircle
 10
1097.114353943097
 20
1999.982558850011
 30
0.0
 40
20.94999999995343
100
AcDbArc
 50
256.4889854903388
 51
258.0877335800236
1001
REVIT
1002
{
1070
     3
1000
790271
1002
}
  0
ARC
  5
250
330
1B4
100
AcDbEntity
  8
M-PIPE
100
AcDbCircle
 10
1097.114353943097
 20
1999.982558850011
 30
0.0
 40
20.94999999995327
100
AcDbArc
 50
251.986515341222
 51
253.3336662192588
1001
REVIT
1002
{
1070
     3
1000
790271
1002
}
  0
ARC
  5
251
330
1B4
100
AcDbEntity
  8
M-PIPE
100
AcDbCircle
 10
1097.114353943097
 20
1999.982558850011
 30
0.0
 40
20.94999999995326
100
AcDbArc
 50
350.9969644742652
 51
351.4420795559752
1001
REVIT
1002
{
1070
     3
1000
790271
1002
}
  0
ARC
  5
252
330
1B4
100
AcDbEntity
  8
M-PIPE
100
AcDbCircle
 10
1097.114353943097
 20
1999.982558850011
 30
0.0
 40
20.94999999995311
100
AcDbArc
 50
346.4980964570434
 51
346.6771729879807
1001
REVIT
1002
{
1070
     3
1000
790271
1002
}
  0
LINE
  5
253
330
1B4
100
AcDbEntity
  8
M-PIPE
100
AcDbLine
 10
1117.038868780598
 20
1993.508286034611
 30
0.0
 11
1117.029051501906
 21
1993.47815102614
 31
0.0
1001
REVIT
1002
{
1070
     3
1000
790271
1002
}
  0
ARC
  5
254
330
1B4
100
AcDbEntity
  8
M-PIPE
100
AcDbCircle
 10
1097.114353943097
 20
1999.982558850011
 30
0.0
 40
20.94999999995321
100
AcDbArc
 50
337.1473598519923
 51
337.4947708194627
1001
REVIT
1002
{
1070
     3
1000
790271
1002
}
  0
ARC
  5
255
330
1B4
100
AcDbEntity
  8
M-PIPE
100
AcDbCircle
 10
1097.114353943097
 20
1999.982558850011
 30
0.0
 40
20.9499999999533
100
AcDbArc
 50
332.382453283997
 51
332.9892356749914
1001
REVIT
1002
{
1070
     3
1000
790271
1002
}
  0
ARC
  5
256
330
1B4
100
AcDbEntity
  8
M-PIPE
100
AcDbCircle
 10
1097.114353943097
 20
1999.982558850011
 30
0.0
 40
20.94999999995318
100
AcDbArc
 50
327.6175467160026
 51
328.482475798219
1001
REVIT
1002
{
1070
     3
1000
790271
1002
}
  0
ARC
  5
257
330
1B4
100
AcDbEntity
  8
M-PIPE
100
AcDbCircle
 10
1097.114353943097
 20
1999.982558850011
 30
0.0
 40
20.94999999995334
100
AcDbArc
 50
322.852640148008
 51
323.9745956329152
1001
REVIT
1002
{
1070
     3
1000
790271
1002
}
  0
ARC
  5
258
330
1B4
100
AcDbEntity
  8
M-PIPE
100
AcDbCircle
 10
1097.114353943097
 20
1999.982558850011
 30
0.0
 40
20.94999999995328
100
AcDbArc
 50
318.0877335800139
 51
319.4656656691778
1001
REVIT
1002
{
1070
     3
1000
790271
1002
}
  0
ARC
  5
259
330
1B4
100
AcDbEntity
  8
M-PIPE
100
AcDbCircle
 10
1097.114353943097
 20
1999.982558850011
 30
0.0
 40
20.94999999995327
100
AcDbArc
 50
313.3228270120193
 51
314.9557154856069
1001
REVIT
1002
{
1070
     3
1000
790271
1002
}
  0
ARC
  5
25A
330
1B4
100
AcDbEntity
  8
M-PIPE
100
AcDbCircle
 10
1097.114353943097
 20
1999.982558850011
 30
0.0
 40
20.94999999995334
100
AcDbArc
 50
308.557920444025
 51
310.5413832485835
1001
REVIT
1002
{
1070
     3
1000
790271
1002
}
  0
ARC
  5
25B
330
1B4
100
AcDbEntity
  8
M-PIPE
100
AcDbCircle
 10
1097.114353943097
 20
1999.982558850011
 30
0.0
 40
20.94999999995308
100
AcDbArc
 50
49.45861675141813
 51
51.44207955584999
1001
REVIT
1002
{
1070
     3
1000
790271
1002
}
  0
ARC
  5
25C
330
1B4
100
AcDbEntity
  8
M-PIPE
100
AcDbCircle
 10
1097.114353943097
 20
1999.982558850011
 30
0.0
 40
20.94999999995317
100
AcDbArc
 50
45.04428451439509
 51
46.67717298788245
1001
REVIT
1002
{
1070
     3
1000
790271
1002
}
  0
ARC
  5
25D
330
1B4
100
AcDbEntity
  8
M-PIPE
100
AcDbCircle
 10
1097.114353943097
 20
1999.982558850011
 30
0.0
 40
20.94999999995334
100
AcDbArc
 50
40.53433433082409
 51
41.9122664199162
1001
REVIT
1002
{
1070
     3
1000
790271
1002
}
  0
ARC
  5
25E
330
1B4
100
AcDbEntity
  8
M-PIPE
100
AcDbCircle
 10
1097.114353943097
 20
1999.982558850011
 30
0.0
 40
20.94999999995313
100
AcDbArc
 50
36.02540436708725
 51
37.14735985194964
1001
REVIT
1002
{
1070
     3
1000
790271
1002
}
  0
ARC
  5
25F
330
1B4
100
AcDbEntity
  8
M-PIPE
100
AcDbCircle
 10
1097.114353943097
 20
1999.982558850011
 30
0.0
 40
20.94999999995316
100
AcDbArc
 50
31.51752420178369
 51
32.38245328398251
1001
REVIT
1002
{
1070
     3
1000
790271
1002
}
  0
ARC
  5
260
330
1B4
100
AcDbEntity
  8
M-PIPE
100
AcDbCircle
 10
1097.114353943097
 20
1999.982558850011
 30
0.0
 40
20.94999999995312
100
AcDbArc
 50
27.01076432501205
 51
27.61754671601615
1001
REVIT
1002
{
1070
     3
1000
790271
1002
}
  0
ARC
  5
261
330
1B4
100
AcDbEntity
  8
M-PIPE
100
AcDbCircle
 10
1097.114353943097
 20
1999.982558850011
 30
0.0
 40
20.94999999995336
100
AcDbArc
 50
22.50522918054095
 51
22.85264014804927
1001
REVIT
1002
{
1070
     3
1000
790271
1002
}
  0
LINE
  5
262
330
1B4
100
AcDbEntity
  8
M-PIPE
100
AcDbLine
 10
1117.029051501898
 20
2006.486966673905
 30
0.0
 11
1117.038868780598
 21
2006.456831665413
 31
0.0
1001
REVIT
1002
{
1070
     3
1000
790271
1002
}
  0
ARC
  5
263
330
1B4
100
AcDbEntity
  8
M-PIPE
100
AcDbCircle
 10
1097.114353943097
 20
1999.982558850011
 30
0.0
 40
20.94999999995322
100
AcDbArc
 50
13.32282701211559
 51
13.50190354295833
1001
REVIT
1002
{
1070
     3
1000
790271
1002
}
  0
ARC
  5
264
330
1B4
100
AcDbEntity
  8
M-PIPE
100
AcDbCircle
 10
1097.114353943097
 20
1999.982558850011
 30
0.0
 40
20.9499999999533
100
AcDbArc
 50
8.557920444148399
 51
9.003035525736944
1001
REVIT
1002
{
1070
     3
1000
790271
1002
}
  0
ARC
  5
265
330
1B4
100
AcDbEntity
  8
M-PIPE
100
AcDbCircle
 10
1097.114353943097
 20
1999.982558850011
 30
0.0
 40
20.94999999995315
100
AcDbArc
 50
106.666333780739
 51
108.0134846587784
1001
REVIT
1002
{
1070
     3
1000
790271
1002
}
  0
ARC
  5
266
330
1B4
100
AcDbEntity
  8
M-PIPE
100
AcDbCircle
 10
1097.114353943097
 20
1999.982558850011
 30
0.0
 40
20.9499999999531
100
AcDbArc
 50
101.9122664198368
 51
103.5110145096612
1001
REVIT
1002
{
1070
     3
1000
790271
1002
}
  0
ARC
  5
267
330
1B4
100
AcDbEntity
  8
M-PIPE
100
AcDbCircle
 10
1097.114353943097
 20
1999.982558850011
 30
0.0
 40
20.94999999995315
100
AcDbArc
 50
97.14735985190181
 51
99.00776020503174
1001
REVIT
1002
{
1070
     3
1000
790271
1002
}
  0
ARC
  5
268
330
1B4
100
AcDbEntity
  8
M-PIPE
100
AcDbCircle
 10
1097.114353943097
 20
1999.982558850011
 30
0.0
 40
20.94999999995318
100
AcDbArc
 50
92.38245328396706
 51
94.50400298927339
1001
REVIT
1002
{
1070
     3
1000
790271
1002
}
  0
ARC
  5
269
330
1B4
100
AcDbEntity
  8
M-PIPE
100
AcDbCircle
 10
1097.114353943097
 20
1999.982558850011
 30
0.0
 40
20.94999999995326
100
AcDbArc
 50
85.49599701073102
 51
87.61754671603174
1001
REVIT
1002
{
1070
     3
1000
790271
1002
}
  0
ARC
  5
26A
330
1B4
100
AcDbEntity
  8
M-PIPE
100
AcDbCircle
 10
1097.114353943097
 20
1999.982558850011
 30
0.0
 40
20.94999999995316
100
AcDbArc
 50
80.99223979497258
 51
82.85264014809689
1001
REVIT
1002
{
1070
     3
1000
790271
1002
}
  0
ARC
  5
26B
330
1B4
100
AcDbEntity
  8
M-PIPE
100
AcDbCircle
 10
1097.114353943097
 20
1999.982558850011
 30
0.0
 40
20.94999999995326
100
AcDbArc
 50
76.48898549034275
 51
78.08773358016181
1001
REVIT
1002
{
1070
     3
1000
790271
1002
}
  0
ARC
  5
26C
330
1B4
100
AcDbEntity
  8
M-PIPE
100
AcDbCircle
 10
1097.114353943097
 20
1999.982558850011
 30
0.0
 40
20.94999999995323
100
AcDbArc
 50
71.98651534122632
 51
73.3228270122267
1001
REVIT
1002
{
1070
     3
1000
790271
1002
}
  0
ARC
  5
26D
330
1B4
100
AcDbEntity
  8
M-PIPE
100
AcDbCircle
 10
1097.114353943097
 20
1999.982558850011
 30
0.0
 40
20.94999999995317
100
AcDbArc
 50
170.9969644742637
 51
171.4420795556881
1001
REVIT
1002
{
1070
     3
1000
790271
1002
}
  0
ARC
  5
26E
330
1B4
100
AcDbEntity
  8
M-PIPE
100
AcDbCircle
 10
1097.114353943097
 20
1999.982558850011
 30
0.0
 40
20.94999999995331
100
AcDbArc
 50
166.4980964570437
 51
166.6771729877568
1001
REVIT
1002
{
1070
     3
1000
790271
1002
}
  0
LINE
  5
26F
330
1B4
100
AcDbEntity
  8
M-PIPE
100
AcDbLine
 10
1077.189839105596
 20
2006.456831665413
 30
0.0
 11
1077.199656384307
 21
2006.486966673937
 31
0.0
1001
REVIT
1002
{
1070
     3
1000
790271
1002
}
  0
ARC
  5
270
330
1B4
100
AcDbEntity
  8
M-PIPE
100
AcDbCircle
 10
1097.114353943097
 20
1999.982558850011
 30
0.0
 40
20.94999999995331
100
AcDbArc
 50
157.1473598518955
 51
157.4947708194589
1001
REVIT
1002
{
1070
     3
1000
790271
1002
}
  0
ARC
  5
271
330
1B4
100
AcDbEntity
  8
M-PIPE
100
AcDbCircle
 10
1097.114353943097
 20
1999.982558850011
 30
0.0
 40
20.94999999995341
100
AcDbArc
 50
152.3824532839642
 51
152.989235674988
1001
REVIT
1002
{
1070
     3
1000
790271
1002
}
  0
ARC
  5
272
330
1B4
100
AcDbEntity
  8
M-PIPE
100
AcDbCircle
 10
1097.114353943097
 20
1999.982558850011
 30
0.0
 40
20.94999999995334
100
AcDbArc
 50
147.6175467160329
 51
148.4824757982172
1001
REVIT
1002
{
1070
     3
1000
790271
1002
}
  0
ARC
  5
273
330
1B4
100
AcDbEntity
  8
M-PIPE
100
AcDbCircle
 10
1097.114353943097
 20
1999.982558850011
 30
0.0
 40
20.94999999995329
100
AcDbArc
 50
142.8526401481027
 51
143.974595632915
1001
REVIT
1002
{
1070
     3
1000
790271
1002
}
  0
ARC
  5
274
330
1B4
100
AcDbEntity
  8
M-PIPE
100
AcDbCircle
 10
1097.114353943097
 20
1999.982558850011
 30
0.0
 40
20.94999999995328
100
AcDbArc
 50
138.0877335801712
 51
139.4656656691779
1001
REVIT
1002
{
1070
     3
1000
790271
1002
}
  0
ARC
  5
275
330
1B4
100
AcDbEntity
  8
M-PIPE
100
AcDbCircle
 10
1097.114353943097
 20
1999.982558850011
 30
0.0
 40
20.94999999995327
100
AcDbArc
 50
133.3228270122404
 51
134.9557154856069
1001
REVIT
1002
{
1070
     3
1000
790271
1002
}
  0
ARC
  5
276
330
1B4
100
AcDbEntity
  8
M-PIPE
100
AcDbCircle
 10
1097.114353943097
 20
1999.982558850011
 30
0.0
 40
20.94999999995327
100
AcDbArc
 50
128.5579204443097
 51
130.5413832485863
1001
REVIT
1002
{
1070
     3
1000
790271
1002
}
  0
ARC
  5
277
330
1B4
100
AcDbEntity
  8
M-PIPE
100
AcDbCircle
 10
1097.114353943096
 20
1999.982558850011
 30
0.0
 40
20.94999999995325
100
AcDbArc
 50
179.9999999999997
 51
0.0000000000003053
1001
REVIT
1002
{
1070
     3
1000
790271
1002
}
  0
ARC
  5
278
330
1B4
100
AcDbEntity
  8
M-PIPE
100
AcDbCircle
 10
1097.114353943096
 20
1999.982558850011
 30
0.0
 40
20.94999999995316
100
AcDbArc
 50
0.0000000000009287
 51
180.0000000000003
1001
REVIT
1002
{
1070
     3
1000
790271
1002
}
  0
LINE
  5
279
330
1B4
100
AcDbEntity
  8
M-PIPE
100
AcDbLine
 10
1084.056104578565
 20
1983.600110207279
 30
0.0
 11
1084.034719028335
 21
1983.637151066824
 31
0.0
1001
REVIT
1002
{
1070
     3
1000
790271
1002
}
  0
LINE
  5
27A
330
1B4
100
AcDbEntity
  8
M-PIPE
100
AcDbLine
 10
1076.404861516666
 20
1996.852451931548
 30
0.0
 11
1076.397612560031
 21
1996.865007492741
 31
0.0
1001
REVIT
1002
{
1070
     3
1000
790271
1002
}
  0
LINE
  5
27B
330
1B4
100
AcDbEntity
  8
M-PIPE
100
AcDbLine
 10
1104.772845961679
 20
1980.482558850027
 30
0.0
 11
1104.739280842127
 21
1980.482558850027
 31
0.0
1001
REVIT
1002
{
1070
     3
1000
790271
1002
}
  0
LINE
  5
27C
330
1B4
100
AcDbEntity
  8
M-PIPE
100
AcDbLine
 10
1089.489427044066
 20
1980.482558850027
 30
0.0
 11
1089.455861924514
 21
1980.482558850027
 31
0.0
1001
REVIT
1002
{
1070
     3
1000
790271
1002
}
  0
LINE
  5
27D
330
1B4
100
AcDbEntity
  8
M-PIPE
100
AcDbLine
 10
1117.831095326171
 20
1996.865007492798
 30
0.0
 11
1117.823846369534
 21
1996.852451931599
 31
0.0
1001
REVIT
1002
{
1070
     3
1000
790271
1002
}
  0
LINE
  5
27E
330
1B4
100
AcDbEntity
  8
M-PIPE
100
AcDbLine
 10
1110.193988857814
 20
1983.63715106679
 30
0.0
 11
1110.172603307583
 21
1983.600110207242
 31
0.0
1001
REVIT
1002
{
1070
     3
1000
790271
1002
}
  0
LINE
  5
27F
330
1B4
100
AcDbEntity
  8
M-PIPE
100
AcDbLine
 10
1110.172603307618
 20
2016.365007492751
 30
0.0
 11
1110.193988857848
 21
2016.327966633205
 31
0.0
1001
REVIT
1002
{
1070
     3
1000
790271
1002
}
  0
LINE
  5
280
330
1B4
100
AcDbEntity
  8
M-PIPE
100
AcDbLine
 10
1117.823846369528
 20
2003.112665768464
 30
0.0
 11
1117.831095326165
 21
2003.100110207268
 31
0.0
1001
REVIT
1002
{
1070
     3
1000
790271
1002
}
  0
LINE
  5
281
330
1B4
100
AcDbEntity
  8
M-PIPE
100
AcDbLine
 10
1089.455861924599
 20
2019.482558850027
 30
0.0
 11
1089.489427044153
 21
2019.482558850027
 31
0.0
1001
REVIT
1002
{
1070
     3
1000
790271
1002
}
  0
LINE
  5
282
330
1B4
100
AcDbEntity
  8
M-PIPE
100
AcDbLine
 10
1104.739280842039
 20
2019.482558850027
 30
0.0
 11
1104.772845961595
 21
2019.482558850027
 31
0.0
1001
REVIT
1002
{
1070
     3
1000
790271
1002
}
  0
LINE
  5
283
330
1B4
100
AcDbEntity
  8
M-PIPE
100
AcDbLine
 10
1076.397612560038
 20
2003.100110207327
 30
0.0
 11
1076.40486151667
 21
2003.112665768515
 31
0.0
1001
REVIT
1002
{
1070
     3
1000
790271
1002
}
  0
LINE
  5
284
330
1B4
100
AcDbEntity
  8
M-PIPE
100
AcDbLine
 10
1084.034719028301
 20
2016.327966633171
 30
0.0
 11
1084.05610457853
 21
2016.365007492714
 31
0.0
1001
REVIT
1002
{
1070
     3
1000
790271
1002
}
  0
LINE
  5
285
330
1B4
100
AcDbEntity
  8
P-SANR-FIXT
100
AcDbLine
 10
1120.6143539431
 20
1953.482558850011
 30
0.0
 11
1120.6143539431
 21
1981.33450265104
 31
0.0
  0
LINE
  5
286
330
1B4
100
AcDbEntity
  8
P-SANR-FIXT
100
AcDbLine
 10
1073.6143539431
 20
1981.33450265104
 30
0.0
 11
1073.6143539431
 21
1953.482558850011
 31
0.0
  0
LINE
  5
287
330
1B4
100
AcDbEntity
  8
P-SANR-FIXT
100
AcDbLine
 10
1110.114353943099
 20
2027.019570519203
 30
0.0
 11
1110.114353943099
 21
2032.482558850011
 31
0.0
  0
LINE
  5
288
330
1B4
100
AcDbEntity
  8
P-SANR-FIXT
100
AcDbLine
 10
1084.114353943099
 20
2032.482558850011
 30
0.0
 11
1084.114353943099
 21
2027.019570519203
 31
0.0
  0
LINE
  5
289
330
1B4
100
AcDbEntity
  8
P-SANR-FIXT
100
AcDbLine
 10
1084.114353943097
 20
2032.482558850011
 30
0.0
 11
1110.114353943098
 21
2032.482558850011
 31
0.0
  0
LINE
  5
28A
330
1B4
100
AcDbEntity
  8
P-SANR-FIXT
100
AcDbLine
 10
1117.52581061455
 20
1945.482558850011
 30
0.0
 11
1101.202897271645
 21
1945.482558850011
 31
0.0
  0
LINE
  5
28B
330
1B4
100
AcDbEntity
  8
P-SANR-FIXT
100
AcDbLine
 10
1093.02581061455
 20
1945.482558850011
 30
0.0
 11
1076.702897271645
 21
1945.482558850011
 31
0.0
  0
LINE
  5
28C
330
1B4
100
AcDbEntity
  8
P-SANR-FIXT
100
AcDbLine
 10
1121.614353943098
 20
1945.482558850011
 30
0.0
 11
1117.52581061455
 21
1945.482558850011
 31
0.0
  0
LINE
  5
28D
330
1B4
100
AcDbEntity
  8
P-SANR-FIXT
100
AcDbLine
 10
1121.614353943098
 20
1945.482558850011
 30
0.0
 11
1121.614353943098
 21
1953.482558850011
 31
0.0
  0
LINE
  5
28E
330
1B4
100
AcDbEntity
  8
P-SANR-FIXT
100
AcDbLine
 10
1117.52581061455
 20
1953.482558850011
 30
0.0
 11
1117.52581061455
 21
1945.482558850011
 31
0.0
  0
LINE
  5
28F
330
1B4
100
AcDbEntity
  8
P-SANR-FIXT
100
AcDbLine
 10
1101.202897271645
 20
1945.482558850011
 30
0.0
 11
1093.02581061455
 21
1945.482558850011
 31
0.0
  0
LINE
  5
290
330
1B4
100
AcDbEntity
  8
P-SANR-FIXT
100
AcDbLine
 10
1101.202897271645
 20
1945.482558850011
 30
0.0
 11
1101.202897271645
 21
1953.482558850011
 31
0.0
  0
LINE
  5
291
330
1B4
100
AcDbEntity
  8
P-SANR-FIXT
100
AcDbLine
 10
1093.02581061455
 20
1953.482558850011
 30
0.0
 11
1093.02581061455
 21
1945.482558850011
 31
0.0
  0
LINE
  5
292
330
1B4
100
AcDbEntity
  8
P-SANR-FIXT
100
AcDbLine
 10
1076.702897271645
 20
1945.482558850011
 30
0.0
 11
1072.614353943097
 21
1945.482558850011
 31
0.0
  0
LINE
  5
293
330
1B4
100
AcDbEntity
  8
P-SANR-FIXT
100
AcDbLine
 10
1076.702897271645
 20
1945.482558850011
 30
0.0
 11
1076.702897271645
 21
1953.482558850011
 31
0.0
  0
LINE
  5
294
330
1B4
100
AcDbEntity
  8
P-SANR-FIXT
100
AcDbLine
 10
1072.614353943097
 20
1953.482558850011
 30
0.0
 11
1072.614353943097
 21
1945.482558850011
 31
0.0
  0
LINE
  5
295
330
1B4
100
AcDbEntity
  8
P-SANR-FIXT
100
AcDbLine
 10
1076.702897271645
 20
1953.482558850011
 30
0.0
 11
1072.614353943097
 21
1953.482558850011
 31
0.0
  0
LINE
  5
296
330
1B4
100
AcDbEntity
  8
P-SANR-FIXT
100
AcDbLine
 10
1076.702897271645
 20
1953.482558850011
 30
0.0
 11
1093.02581061455
 21
1953.482558850011
 31
0.0
  0
LINE
  5
297
330
1B4
100
AcDbEntity
  8
P-SANR-FIXT
100
AcDbLine
 10
1101.202897271645
 20
1953.482558850011
 30
0.0
 11
1093.02581061455
 21
1953.482558850011
 31
0.0
  0
LINE
  5
298
330
1B4
100
AcDbEntity
  8
P-SANR-FIXT
100
AcDbLine
 10
1101.202897271645
 20
1953.482558850011
 30
0.0
 11
1117.52581061455
 21
1953.482558850011
 31
0.0
  0
LINE
  5
299
330
1B4
100
AcDbEntity
  8
P-SANR-FIXT
100
AcDbLine
 10
1121.614353943098
 20
1953.482558850011
 30
0.0
 11
1117.52581061455
 21
1953.482558850011
 31
0.0
  0
SPLINE
  5
29A
330
1B4
100
AcDbEntity
  8
P-SANR-FIXT
100
AcDbSpline
210
0.0
220
0.0
230
1.0
 70
     8
 71
     3
 72
    10
 73
     6
 74
     0
 42
0.000000001
 43
0.0000000001
 40
-0.9629629629629629
 40
-0.9629629629629629
 40
-0.9629629629629629
 40
-0.9629629629629629
 40
-0.9444444444444444
 40
-0.9166666666666666
 40
-0.9074074074074074
 40
-0.9074074074074074
 40
-0.9074074074074074
 40
-0.9074074074074074
 10
1120.342719254969
 20
1980.996973659793
 30
0.0
 10
1120.279302714321
 20
1980.919446511586
 30
0.0
 10
1120.09762648809
 20
1980.699459877949
 30
0.0
 10
1119.808163978071
 20
1980.358866973528
 30
0.0
 10
1119.573437440421
 20
1980.092919651686
 30
0.0
 10
1119.512231543749
 20
1980.024231255414
 30
0.0
  0
SPLINE
  5
29B
330
1B4
100
AcDbEntity
  8
P-SANR-FIXT
100
AcDbSpline
210
0.0
220
0.0
230
1.0
 70
     8
 71
     3
 72
     9
 73
     5
 74
     0
 42
0.000000001
 43
0.0000000001
 40
-0.8703703703703704
 40
-0.8703703703703704
 40
-0.8703703703703704
 40
-0.8703703703703704
 40
-0.861111111111111
 40
-0.8518518518518519
 40
-0.8518518518518519
 40
-0.8518518518518519
 40
-0.8518518518518519
 10
1118.634144979217
 20
1979.080425486772
 30
0.0
 10
1118.547369467469
 20
1978.991085035728
 30
0.0
 10
1118.36683469266
 20
1978.807448868313
 30
0.0
 10
1118.172411759076
 20
1978.614902131026
 30
0.0
 10
1118.071947748486
 20
1978.516821071684
 30
0.0
  0
SPLINE
  5
29C
330
1B4
100
AcDbEntity
  8
P-SANR-FIXT
100
AcDbSpline
210
0.0
220
0.0
230
1.0
 70
     8
 71
     3
 72
     9
 73
     5
 74
     0
 42
0.000000001
 43
0.0000000001
 40
-0.8148148148148148
 40
-0.8148148148148148
 40
-0.8148148148148148
 40
-0.8148148148148148
 40
-0.8055555555555555
 40
-0.7962962962962963
 40
-0.7962962962962963
 40
-0.7962962962962963
 40
-0.7962962962962963
 10
1116.725256079184
 20
1977.279938662379
 30
0.0
 10
1116.602759063901
 20
1977.174106577309
 30
0.0
 10
1116.353491324257
 20
1976.962177911479
 30
0.0
 10
1116.097029561387
 20
1976.751391332902
 30
0.0
 10
1115.966955950441
 20
1976.646314916825
 30
0.0
  0
SPLINE
  5
29D
330
1B4
100
AcDbEntity
  8
P-SANR-FIXT
100
AcDbSpline
210
0.0
220
0.0
230
1.0
 70
     8
 71
     3
 72
     8
 73
     4
 74
     0
 42
0.000000001
 43
0.0000000001
 40
-0.7777777777777778
 40
-0.7777777777777778
 40
-0.7777777777777778
 40
-0.7777777777777778
 40
-0.7592592592592594
 40
-0.7592592592592594
 40
-0.7592592592592594
 40
-0.7592592592592594
 10
1115.164047740995
 20
1976.019909710107
 30
0.0
 10
1114.888804893378
 20
1975.812542674844
 30
0.0
 10
1114.60583733808
 20
1975.606693943623
 30
0.0
 10
1114.312648031565
 20
1975.401595729245
 30
0.0
  0
SPLINE
  5
29E
330
1B4
100
AcDbEntity
  8
P-SANR-FIXT
100
AcDbSpline
210
0.0
220
0.0
230
1.0
 70
     8
 71
     3
 72
     8
 73
     4
 74
     0
 42
0.000000001
 43
0.0000000001
 40
-0.7407407407407407
 40
-0.7407407407407407
 40
-0.7407407407407407
 40
-0.7407407407407407
 40
-0.7222222222222223
 40
-0.7222222222222223
 40
-0.7222222222222223
 40
-0.7222222222222223
 10
1113.400455225785
 20
1974.788155218518
 30
0.0
 10
1113.085400195212
 20
1974.584530988772
 30
0.0
 10
1112.759776013715
 20
1974.382370964957
 30
0.0
 10
1112.425384925416
 20
1974.183870312442
 30
0.0
  0
SPLINE
  5
29F
330
1B4
100
AcDbEntity
  8
P-SANR-FIXT
100
AcDbSpline
210
0.0
220
0.0
230
1.0
 70
     8
 71
     3
 72
     8
 73
     4
 74
     0
 42
0.000000001
 43
0.0000000001
 40
-0.7037037037037038
 40
-0.7037037037037038
 40
-0.7037037037037038
 40
-0.7037037037037038
 40
-0.6851851851851852
 40
-0.6851851851851852
 40
-0.6851851851851852
 40
-0.6851851851851852
 10
1111.396060475378
 20
1973.600127398644
 30
0.0
 10
1111.044285108736
 20
1973.409726418575
 30
0.0
 10
1110.683892370553
 20
1973.223765739653
 30
0.0
 10
1110.315031796084
 20
1973.043026291721
 30
0.0
  0
SPLINE
  5
2A0
330
1B4
100
AcDbEntity
  8
P-SANR-FIXT
100
AcDbSpline
210
0.0
220
0.0
230
1.0
 70
     8
 71
     3
 72
     8
 73
     4
 74
     0
 42
0.000000001
 43
0.0000000001
 40
-0.6666666666666666
 40
-0.6666666666666666
 40
-0.6666666666666666
 40
-0.6666666666666666
 40
-0.6481481481481483
 40
-0.6481481481481483
 40
-0.6481481481481483
 40
-0.6481481481481483
 10
1109.183196099084
 20
1972.517252570745
 30
0.0
 10
1108.797549387305
 20
1972.347736514641
 30
0.0
 10
1108.403584374498
 20
1972.184222619373
 30
0.0
 10
1108.000042075163
 20
1972.027114616162
 30
0.0
  0
SPLINE
  5
2A1
330
1B4
100
AcDbEntity
  8
P-SANR-FIXT
100
AcDbSpline
210
0.0
220
0.0
230
1.0
 70
     8
 71
     3
 72
     8
 73
     4
 74
     0
 42
0.000000001
 43
0.0000000001
 40
-0.6296296296296298
 40
-0.6296296296296298
 40
-0.6296296296296298
 40
-0.6296296296296298
 40
-0.6111111111111112
 40
-0.6111111111111112
 40
-0.6111111111111112
 40
-0.6111111111111112
 10
1106.759966914366
 20
1971.57558384513
 30
0.0
 10
1106.337096221071
 20
1971.432035019674
 30
0.0
 10
1105.905559584956
 20
1971.295983142342
 30
0.0
 10
1105.468438678912
 20
1971.169206594037
 30
0.0
  0
SPLINE
  5
2A2
330
1B4
100
AcDbEntity
  8
P-SANR-FIXT
100
AcDbSpline
210
0.0
220
0.0
230
1.0
 70
     8
 71
     3
 72
     8
 73
     4
 74
     0
 42
0.000000001
 43
0.0000000001
 40
-0.5925925925925928
 40
-0.5925925925925928
 40
-0.5925925925925928
 40
-0.5925925925925928
 40
-0.5923138022045292
 40
-0.5923138022045292
 40
-0.5923138022045292
 40
-0.5923138022045292
 10
1104.141022197403
 20
1970.817145586271
 30
0.0
 10
1104.134283866739
 20
1970.815522943977
 30
0.0
 10
1104.127544428872
 20
1970.8139025042
 30
0.0
 10
1104.120803886186
 20
1970.812284268449
 30
0.0
  0
SPLINE
  5
2A3
330
1B4
100
AcDbEntity
  8
P-SANR-FIXT
100
AcDbSpline
210
0.0
220
0.0
230
1.0
 70
     8
 71
     3
 72
     8
 73
     4
 74
     0
 42
0.000000001
 43
0.0000000001
 40
-0.5740740740740744
 40
-0.5740740740740744
 40
-0.5740740740740744
 40
-0.5740740740740744
 40
-0.5555555555555556
 40
-0.5555555555555556
 40
-0.5555555555555556
 40
-0.5555555555555556
 10
1102.784294374488
 20
1970.523392452958
 30
0.0
 10
1102.32763257418
 20
1970.435487820958
 30
0.0
 10
1101.866784596619
 20
1970.357743818069
 30
0.0
 10
1101.402449488252
 20
1970.290603094358
 30
0.0
  0
SPLINE
  5
2A4
330
1B4
100
AcDbEntity
  8
P-SANR-FIXT
100
AcDbSpline
210
0.0
220
0.0
230
1.0
 70
     8
 71
     3
 72
     9
 73
     5
 74
     0
 42
0.000000001
 43
0.0000000001
 40
-0.5370370370370373
 40
-0.5370370370370373
 40
-0.5370370370370373
 40
-0.5370370370370373
 40
-0.5277777777777778
 40
-0.5185185185185189
 40
-0.5185185185185189
 40
-0.5185185185185189
 40
-0.5185185185185189
 10
1099.997620477794
 20
1970.121326829298
 30
0.0
 10
1099.761284646401
 20
1970.098527780905
 30
0.0
 10
1099.286188271938
 20
1970.058399358016
 30
0.0
 10
1098.805561327324
 20
1970.029378317163
 30
0.0
 10
1098.564327250259
 20
1970.017718512331
 30
0.0
  0
SPLINE
  5
2A5
330
1B4
100
AcDbEntity
  8
P-SANR-FIXT
100
AcDbSpline
210
0.0
220
0.0
230
1.0
 70
     8
 71
     3
 72
     9
 73
     5
 74
     0
 42
0.000000001
 43
0.0000000001
 40
-0.4814814814814819
 40
-0.4814814814814819
 40
-0.4814814814814819
 40
-0.4814814814814819
 40
-0.4722222222222223
 40
-0.4629629629629634
 40
-0.4629629629629634
 40
-0.4629629629629634
 40
-0.4629629629629634
 10
1095.65489119783
 20
1970.018178023756
 30
0.0
 10
1095.413680629644
 20
1970.029913432883
 30
0.0
 10
1094.933110330244
 20
1970.059084210912
 30
0.0
 10
1094.458085593119
 20
1970.099357956968
 30
0.0
 10
1094.221792285578
 20
1970.122227602112
 30
0.0
  0
SPLINE
  5
2A6
330
1B4
100
AcDbEntity
  8
P-SANR-FIXT
100
AcDbSpline
210
0.0
220
0.0
230
1.0
 70
     8
 71
     3
 72
     8
 73
     4
 74
     0
 42
0.000000001
 43
0.0000000001
 40
-0.4444444444444445
 40
-0.4444444444444445
 40
-0.4444444444444445
 40
-0.4444444444444445
 40
-0.4259259259259264
 40
-0.4259259259259264
 40
-0.4259259259259264
 40
-0.4259259259259264
 10
1092.817322536203
 20
1970.291894979222
 30
0.0
 10
1092.353149764406
 20
1970.35915268751
 30
0.0
 10
1091.892514604888
 20
1970.436997723499
 30
0.0
 10
1091.436099554728
 20
1970.524987005983
 30
0.0
  0
SPLINE
  5
2A7
330
1B4
100
AcDbEntity
  8
P-SANR-FIXT
100
AcDbSpline
210
0.0
220
0.0
230
1.0
 70
     8
 71
     3
 72
     8
 73
     4
 74
     0
 42
0.000000001
 43
0.0000000001
 40
-0.4077876330044706
 40
-0.4077876330044706
 40
-0.4077876330044706
 40
-0.4077876330044706
 40
-0.4074074074074079
 40
-0.4074074074074079
 40
-0.4074074074074079
 40
-0.4074074074074079
 10
1090.107755026255
 20
1970.812314547502
 30
0.0
 10
1090.098567010837
 20
1970.814520445813
 30
0.0
 10
1090.089381056322
 20
1970.816730437681
 30
0.0
 10
1090.080197168619
 20
1970.818944519272
 30
0.0
  0
SPLINE
  5
2A8
330
1B4
100
AcDbEntity
  8
P-SANR-FIXT
100
AcDbSpline
210
0.0
220
0.0
230
1.0
 70
     8
 71
     3
 72
     8
 73
     4
 74
     0
 42
0.000000001
 43
0.0000000001
 40
-0.3888888888888888
 40
-0.3888888888888888
 40
-0.3888888888888888
 40
-0.3888888888888888
 40
-0.3703703703703709
 40
-0.3703703703703709
 40
-0.3703703703703709
 40
-0.3703703703703709
 10
1088.753710542698
 20
1971.171109009168
 30
0.0
 10
1088.316905963898
 20
1971.29790294713
 30
0.0
 10
1087.885686442658
 20
1971.43395498644
 30
0.0
 10
1087.463108628385
 20
1971.577497599474
 30
0.0
  0
SPLINE
  5
2A9
330
1B4
100
AcDbEntity
  8
P-SANR-FIXT
100
AcDbSpline
210
0.0
220
0.0
230
1.0
 70
     8
 71
     3
 72
     8
 73
     4
 74
     0
 42
0.000000001
 43
0.0000000001
 40
-0.3518518518518524
 40
-0.3518518518518524
 40
-0.3518518518518524
 40
-0.3518518518518524
 40
-0.3333333333333333
 40
-0.3333333333333333
 40
-0.3333333333333333
 40
-0.3333333333333333
 10
1086.2238149605
 20
1972.029002358604
 30
0.0
 10
1085.820493524271
 20
1972.186103960221
 30
0.0
 10
1085.42670373807
 20
1972.349619133792
 30
0.0
 10
1085.041167731914
 20
1972.519161851277
 30
0.0
  0
SPLINE
  5
2AA
330
1B4
100
AcDbEntity
  8
P-SANR-FIXT
100
AcDbSpline
210
0.0
220
0.0
230
1.0
 70
     8
 71
     3
 72
     8
 73
     4
 74
     0
 42
0.000000001
 43
0.0000000001
 40
-0.3148148148148154
 40
-0.3148148148148154
 40
-0.3148148148148154
 40
-0.3148148148148154
 40
-0.2962962962962969
 40
-0.2962962962962969
 40
-0.2962962962962969
 40
-0.2962962962962969
 10
1083.909495428175
 20
1973.045084284184
 30
0.0
 10
1083.540640226982
 20
1973.22589416387
 30
0.0
 10
1083.180210358147
 20
1973.411944387294
 30
0.0
 10
1082.828378922296
 20
1973.602446951604
 30
0.0
  0
SPLINE
  5
2AB
330
1B4
100
AcDbEntity
  8
P-SANR-FIXT
100
AcDbSpline
210
0.0
220
0.0
230
1.0
 70
     8
 71
     3
 72
     8
 73
     4
 74
     0
 42
0.000000001
 43
0.0000000001
 40
-0.2777777777777778
 40
-0.2777777777777778
 40
-0.2777777777777778
 40
-0.2777777777777778
 40
-0.25925925925926
 40
-0.25925925925926
 40
-0.25925925925926
 40
-0.25925925925926
 10
1081.79885301432
 20
1974.186523664335
 30
0.0
 10
1081.464389854523
 20
1974.385143719969
 30
0.0
 10
1081.138699767905
 20
1974.587427026917
 30
0.0
 10
1080.823598842995
 20
1974.791163909648
 30
0.0
  0
SPLINE
  5
2AC
330
1B4
100
AcDbEntity
  8
P-SANR-FIXT
100
AcDbSpline
210
0.0
220
0.0
230
1.0
 70
     8
 71
     3
 72
     8
 73
     4
 74
     0
 42
0.000000001
 43
0.0000000001
 40
-0.2407407407407414
 40
-0.2407407407407414
 40
-0.2407407407407414
 40
-0.2407407407407414
 40
-0.2222222222222222
 40
-0.2222222222222222
 40
-0.2222222222222222
 40
-0.2222222222222222
 10
1079.911353697005
 20
1975.40488925033
 30
0.0
 10
1079.618182373784
 20
1975.610058486933
 30
0.0
 10
1079.335258249998
 20
1975.815959440077
 30
0.0
 10
1079.06012979093
 20
1976.023322838333
 30
0.0
  0
SPLINE
  5
2AD
330
1B4
100
AcDbEntity
  8
P-SANR-FIXT
100
AcDbSpline
210
0.0
220
0.0
230
1.0
 70
     8
 71
     3
 72
     9
 73
     5
 74
     0
 42
0.000000001
 43
0.0000000001
 40
-0.2037037037037045
 40
-0.2037037037037045
 40
-0.2037037037037045
 40
-0.2037037037037045
 40
-0.1944444444444444
 40
-0.185185185185186
 40
-0.185185185185186
 40
-0.185185185185186
 40
-0.185185185185186
 10
1078.257657897931
 20
1976.649624510147
 30
0.0
 10
1078.127677137655
 20
1976.754663595253
 30
0.0
 10
1077.871444279855
 20
1976.965335048865
 30
0.0
 10
1077.622339614211
 20
1977.177186792834
 30
0.0
 10
1077.499929078623
 20
1977.282973697025
 30
0.0
  0
SPLINE
  5
2AE
330
1B4
100
AcDbEntity
  8
P-SANR-FIXT
100
AcDbSpline
210
0.0
220
0.0
230
1.0
 70
     8
 71
     3
 72
     9
 73
     5
 74
     0
 42
0.000000001
 43
0.0000000001
 40
-0.148148148148149
 40
-0.148148148148149
 40
-0.148148148148149
 40
-0.148148148148149
 40
-0.1388888888888889
 40
-0.1296296296296305
 40
-0.1296296296296305
 40
-0.1296296296296305
 40
-0.1296296296296305
 10
1076.154537029566
 20
1978.519000634327
 30
0.0
 10
1076.054188820863
 20
1978.61698728999
 30
0.0
 10
1075.860277187575
 20
1978.809059582525
 30
0.0
 10
1075.679511898438
 20
1978.992929004502
 30
0.0
 10
1075.592624513126
 20
1979.082382248635
 30
0.0
  0
SPLINE
  5
2AF
330
1B4
100
AcDbEntity
  8
P-SANR-FIXT
100
AcDbSpline
210
0.0
220
0.0
230
1.0
 70
     8
 71
     3
 72
    10
 73
     6
 74
     0
 42
0.000000001
 43
0.0000000001
 40
-0.0925925925925936
 40
-0.0925925925925936
 40
-0.0925925925925936
 40
-0.0925925925925936
 40
-0.0833333333333333
 40
-0.0555555555555556
 40
-0.0370370370370381
 40
-0.0370370370370381
 40
-0.0370370370370381
 40
-0.0370370370370381
 10
1074.714590347863
 20
1980.026262522878
 30
0.0
 10
1074.653734389959
 20
1980.094586001117
 30
0.0
 10
1074.42278812937
 20
1980.356348173636
 30
0.0
 10
1074.115836576865
 20
1980.717643325002
 30
0.0
 10
1073.969212606026
 20
1980.895764572255
 30
0.0
 10
1073.917800971841
 20
1980.958961674422
 30
0.0
  0
SPLINE
  5
2B0
330
1B4
100
AcDbEntity
  8
P-SANR-FIXT
100
AcDbSpline
210
0.0
220
0.0
230
1.0
 70
     8
 71
     3
 72
     9
 73
     5
 74
     0
 42
0.000000001
 43
0.0000000001
 40
-0.8888888888888889
 40
-0.8888888888888889
 40
-0.8888888888888889
 40
-0.8888888888888889
 40
-0.861111111111111
 40
-0.8055555555555555
 40
-0.8055555555555555
 40
-0.8055555555555555
 40
-0.8055555555555555
 10
1084.91253413975
 20
2027.390603648083
 30
0.0
 10
1085.039854272597
 20
2027.44677423677
 30
0.0
 10
1085.469235683874
 20
2027.632905998673
 30
0.0
 10
1086.044968810332
 20
2027.868931417454
 30
0.0
 10
1086.478784426622
 20
2028.033771553281
 30
0.0
  0
SPLINE
  5
2B1
330
1B4
100
AcDbEntity
  8
P-SANR-FIXT
100
AcDbSpline
210
0.0
220
0.0
230
1.0
 70
     8
 71
     3
 72
     8
 73
     4
 74
     0
 42
0.000000001
 43
0.0000000001
 40
-0.7777777777777715
 40
-0.7777777777777715
 40
-0.7777777777777715
 40
-0.7777777777777715
 40
-0.7222222222222223
 40
-0.7222222222222223
 40
-0.7222222222222223
 40
-0.7222222222222223
 10
1087.165309981094
 20
2028.284924067039
 30
0.0
 10
1087.646109940428
 20
2028.454024992
 30
0.0
 10
1088.17239238357
 20
2028.625042006561
 30
0.0
 10
1088.741165106152
 20
2028.790365234754
 30
0.0
  0
SPLINE
  5
2B2
330
1B4
100
AcDbEntity
  8
P-SANR-FIXT
100
AcDbSpline
210
0.0
220
0.0
230
1.0
 70
     8
 71
     3
 72
     8
 73
     4
 74
     0
 42
0.000000001
 43
0.0000000001
 40
-0.6944444444444445
 40
-0.6944444444444445
 40
-0.6944444444444445
 40
-0.6944444444444445
 40
-0.6666666666666666
 40
-0.6666666666666666
 40
-0.6666666666666666
 40
-0.6666666666666666
 10
1089.625815995716
 20
2029.033002400643
 30
0.0
 10
1089.931071677121
 20
2029.111739811324
 30
0.0
 10
1090.24657423203
 20
2029.187976498948
 30
0.0
 10
1090.571947790994
 20
2029.260635147329
 30
0.0
  0
SPLINE
  5
2B3
330
1B4
100
AcDbEntity
  8
P-SANR-FIXT
100
AcDbSpline
210
0.0
220
0.0
230
1.0
 70
     8
 71
     3
 72
     8
 73
     4
 74
     0
 42
0.000000001
 43
0.0000000001
 40
-0.6388888888888889
 40
-0.6388888888888889
 40
-0.6388888888888889
 40
-0.6388888888888889
 40
-0.6111111111111109
 40
-0.6111111111111109
 40
-0.6111111111111109
 40
-0.6111111111111109
 10
1091.57703011063
 20
2029.466810085009
 30
0.0
 10
1091.921218540056
 20
2029.531256126928
 30
0.0
 10
1092.273798984306
 20
2029.591088267835
 30
0.0
 10
1092.632189934366
 20
2029.645312179654
 30
0.0
  0
SPLINE
  5
2B4
330
1B4
100
AcDbEntity
  8
P-SANR-FIXT
100
AcDbSpline
210
0.0
220
0.0
230
1.0
 70
     8
 71
     3
 72
     8
 73
     4
 74
     0
 42
0.000000001
 43
0.0000000001
 40
-0.5833333333333333
 40
-0.5833333333333333
 40
-0.5833333333333333
 40
-0.5833333333333333
 40
-0.5555555555555554
 40
-0.5555555555555554
 40
-0.5555555555555554
 40
-0.5555555555555554
 10
1093.722212792958
 20
2029.790164899768
 30
0.0
 10
1094.089642749479
 20
2029.832177943068
 30
0.0
 10
1094.460302083262
 20
2029.867588424604
 30
0.0
 10
1094.833845755259
 20
2029.896105953157
 30
0.0
  0
SPLINE
  5
2B5
330
1B4
100
AcDbEntity
  8
P-SANR-FIXT
100
AcDbSpline
210
0.0
220
0.0
230
1.0
 70
     8
 71
     3
 72
     8
 73
     4
 74
     0
 42
0.000000001
 43
0.0000000001
 40
-0.4724142551340121
 40
-0.4724142551340121
 40
-0.4724142551340121
 40
-0.4724142551340121
 40
-0.4722222222222222
 40
-0.4722222222222222
 40
-0.4722222222222222
 40
-0.4722222222222222
 10
1098.248485530944
 20
2029.960578841267
 30
0.0
 10
1098.251129864176
 20
2029.960479439983
 30
0.0
 10
1098.253774118651
 20
2029.960379698704
 30
0.0
 10
1098.256418293486
 20
2029.960279617478
 30
0.0
  0
SPLINE
  5
2B6
330
1B4
100
AcDbEntity
  8
P-SANR-FIXT
100
AcDbSpline
210
0.0
220
0.0
230
1.0
 70
     8
 71
     3
 72
     8
 73
     4
 74
     0
 42
0.000000001
 43
0.0000000001
 40
-0.4444444444444445
 40
-0.4444444444444445
 40
-0.4444444444444445
 40
-0.4444444444444445
 40
-0.4166666666666666
 40
-0.4166666666666666
 40
-0.4166666666666666
 40
-0.4166666666666666
 10
1099.396195592439
 20
2029.895652950878
 30
0.0
 10
1099.772668594505
 20
2029.867093193949
 30
0.0
 10
1100.144806707534
 20
2029.831562300946
 30
0.0
 10
1100.511835978506
 20
2029.789704316921
 30
0.0
  0
SPLINE
  5
2B7
330
1B4
100
AcDbEntity
  8
P-SANR-FIXT
100
AcDbSpline
210
0.0
220
0.0
230
1.0
 70
     8
 71
     3
 72
     8
 73
     4
 74
     0
 42
0.000000001
 43
0.0000000001
 40
-0.3888888888888888
 40
-0.3888888888888888
 40
-0.3888888888888888
 40
-0.3888888888888888
 40
-0.3611111111111109
 40
-0.3611111111111109
 40
-0.3611111111111109
 40
-0.3611111111111109
 10
1101.596823312237
 20
2029.645793136829
 30
0.0
 10
1101.952887864313
 20
2029.591922167057
 30
0.0
 10
1102.303050673441
 20
2029.532373581753
 30
0.0
 10
1102.645661968577
 20
2029.468114712525
 30
0.0
  0
SPLINE
  5
2B8
330
1B4
100
AcDbEntity
  8
P-SANR-FIXT
100
AcDbSpline
210
0.0
220
0.0
230
1.0
 70
     8
 71
     3
 72
     8
 73
     4
 74
     0
 42
0.000000001
 43
0.0000000001
 40
-0.3333333333333333
 40
-0.3333333333333333
 40
-0.3333333333333333
 40
-0.3333333333333333
 40
-0.3055555555555554
 40
-0.3055555555555554
 40
-0.3055555555555554
 40
-0.3055555555555554
 10
1103.64919154097
 20
2029.262174584672
 30
0.0
 10
1103.974958304867
 20
2029.18947903759
 30
0.0
 10
1104.291551037335
 20
2029.113027135293
 30
0.0
 10
1104.598157184463
 20
2029.033980499462
 30
0.0
  0
SPLINE
  5
2B9
330
1B4
100
AcDbEntity
  8
P-SANR-FIXT
100
AcDbSpline
210
0.0
220
0.0
230
1.0
 70
     8
 71
     3
 72
     8
 73
     4
 74
     0
 42
0.000000001
 43
0.0000000001
 40
-0.2777777777777776
 40
-0.2777777777777776
 40
-0.2777777777777776
 40
-0.2777777777777776
 40
-0.2222222222222222
 40
-0.2222222222222222
 40
-0.2222222222222222
 40
-0.2222222222222222
 10
1105.486489401001
 20
2028.790397780745
 30
0.0
 10
1106.057892274437
 20
2028.624308740866
 30
0.0
 10
1106.586878171413
 20
2028.452239447805
 30
0.0
 10
1107.066035748836
 20
2028.283866756843
 30
0.0
  0
SPLINE
  5
2BA
330
1B4
100
AcDbEntity
  8
P-SANR-FIXT
100
AcDbSpline
210
0.0
220
0.0
230
1.0
 70
     8
 71
     3
 72
     9
 73
     5
 74
     0
 42
0.000000001
 43
0.0000000001
 40
-0.1944444444444442
 40
-0.1944444444444442
 40
-0.1944444444444442
 40
-0.1944444444444442
 40
-0.1666666666666666
 40
-0.1111111111111111
 40
-0.1111111111111111
 40
-0.1111111111111111
 40
-0.1111111111111111
 10
1107.748629444993
 20
2028.034596955674
 30
0.0
 10
1107.963710230255
 20
2027.953057519722
 30
0.0
 10
1108.570178831456
 20
2027.714625309071
 30
0.0
 10
1109.065995270233
 20
2027.500387753697
 30
0.0
 10
1109.316725174132
 20
2027.388801502735
 30
0.0
  0
ARC
  5
2BB
330
1B4
100
AcDbEntity
  8
P-SANR-FIXT
100
AcDbCircle
 10
1097.114353943097
 20
1999.982558850011
 30
0.0
 40
29.99999999999973
100
AcDbArc
 50
331.9062014796103
 51
0.0000000000002163
  0
ARC
  5
2BC
330
1B4
100
AcDbEntity
  8
P-SANR-FIXT
100
AcDbCircle
 10
1097.114353943097
 20
1999.982558850011
 30
0.0
 40
29.99999999999966
100
AcDbArc
 50
211.5
 51
328.1393713982333
  0
ARC
  5
2BD
330
1B4
100
AcDbEntity
  8
P-SANR-FIXT
100
AcDbCircle
 10
1097.114353943097
 20
1999.982558850011
 30
0.0
 40
29.99999999999973
100
AcDbArc
 50
180.0000000000005
 51
208.4933462974255
  0
ARC
  5
2BE
330
1B4
100
AcDbEntity
  8
P-SANR-FIXT
100
AcDbCircle
 10
1097.114353943097
 20
1999.982558850011
 30
0.0
 40
29.99999999999977
100
AcDbArc
 50
151.9062014795872
 51
180.0
  0
ARC
  5
2BF
330
1B4
100
AcDbEntity
  8
P-SANR-FIXT
100
AcDbCircle
 10
1097.114353943097
 20
1999.982558850011
 30
0.0
 40
29.99999999999962
100
AcDbArc
 50
31.49999999999986
 51
148.1393713982011
  0
ARC
  5
2C0
330
1B4
100
AcDbEntity
  8
P-SANR-FIXT
100
AcDbCircle
 10
1097.114353943097
 20
1999.982558850011
 30
0.0
 40
30.0
100
AcDbArc
 50
0.0
 51
28.49334629749845
  0
ENDBLK
  5
2C2
330
1B4
100
AcDbEntity
  8
0
100
AcDbBlockEnd
  0
ENDSEC
  0
SECTION
  2
ENTITIES
  0
INSERT
  5
158
330
71
100
AcDbEntity
  8
P-SANR-FIXT
100
AcDbBlockReference
  2
Automatic flow rate regulator valve_Caleffi_121 DN15 - 1_2__-859151-Est - Idraulica
 10
0.0
 20
0.0
 30
0.0
1001
REVIT
1002
{
1070
     1
1000
863131
1002
}
1002
{
1070
     5
1000
859151
1002
}
1002
{
1070
     2
1000
-2001160
1002
}
  0
INSERT
  5
1B3
330
71
100
AcDbEntity
  8
P-SANR-FIXT
100
AcDbBlockReference
  2
Automatic flow rate regulator valve_Caleffi_121 DN15 - 1_2__-V1-Est - Idraulica
 10
0.0
 20
0.0
 30
0.0
1001
REVIT
1002
{
1070
     1
1000
863152
1002
}
1002
{
1070
     5
1000
859151
1002
}
1002
{
1070
     2
1000
-2001160
1002
}
  0
INSERT
  5
2C3
330
71
100
AcDbEntity
  8
P-SANR-FIXT
100
AcDbBlockReference
  2
Automatic flow rate regulator valve_Caleffi_121 DN15 - 1_2__-V2-Est - Idraulica
 10
0.0
 20
0.0
 30
0.0
1001
REVIT
1002
{
1070
     1
1000
863172
1002
}
1002
{
1070
     5
1000
859151
1002
}
1002
{
1070
     2
1000
-2001160
1002
}
  0
ENDSEC
  0
SECTION
  2
OBJECTS
  0
DICTIONARY
  5
C
330
0
100
AcDbDictionary
281
     1
  3
ACAD_CIP_PREVIOUS_PRODUCT_INFO
350
7A
  3
ACAD_COLOR
350
63
  3
ACAD_DETAILVIEWSTYLE
350
6B
  3
ACAD_GROUP
350
D
  3
ACAD_IMAGE_VARS
350
7B
  3
ACAD_LAYOUT
350
62
  3
ACAD_MATERIAL
350
10
  3
ACAD_MLEADERSTYLE
350
66
  3
ACAD_MLINESTYLE
350
5F
  3
ACAD_PLOTSETTINGS
350
61
  3
ACAD_PLOTSTYLENAME
350
E
  3
ACAD_SCALELIST
350
42
  3
ACAD_SECTIONVIEWSTYLE
350
68
  3
ACAD_TABLESTYLE
350
64
  3
ACAD_VISUALSTYLE
350
29
  3
ACDB_RECOMPOSE_DATA
350
2CE
  3
AcDbVariableDictionary
350
7C
  3
REVIT_DICTIONARY
350
2C5
  0
DICTIONARY
  5
2CA
330
71
100
AcDbDictionary
280
     1
281
     1
  3
ACAD_SORTENTS
360
2CB
  0
XRECORD
  5
7A
102
{ACAD_REACTORS
330
C
102
}
330
C
100
AcDbXrecord
280
     1
300
RVT
300
2013
300
RVT2013
  0
DICTIONARY
  5
63
102
{ACAD_REACTORS
330
C
102
}
330
C
100
AcDbDictionary
281
     1
  0
DICTIONARY
  5
6B
102
{ACAD_REACTORS
330
C
102
}
330
C
100
AcDbDictionary
281
     1
  3
Imperial24
350
6C
  0
DICTIONARY
  5
D
102
{ACAD_REACTORS
330
C
102
}
330
C
100
AcDbDictionary
281
     1
  0
RASTERVARIABLES
  5
7B
102
{ACAD_REACTORS
330
C
102
}
330
C
100
AcDbRasterVariables
 90
        0
 70
     0
 71
     1
 72
     1
  0
DICTIONARY
  5
62
102
{ACAD_REACTORS
330
C
102
}
330
C
100
AcDbDictionary
281
     1
  3
Layout1
350
70
  3
Layout2
350
78
  3
Model
350
74
  0
DICTIONARY
  5
10
102
{ACAD_REACTORS
330
C
102
}
330
C
100
AcDbDictionary
281
     1
  3
ByBlock
350
19
  3
ByLayer
350
11
  3
Global
350
21
  0
DICTIONARY
  5
66
102
{ACAD_REACTORS
330
C
102
}
330
C
100
AcDbDictionary
281
     1
  3
Standard
350
67
  0
DICTIONARY
  5
5F
102
{ACAD_REACTORS
330
C
102
}
330
C
100
AcDbDictionary
281
     1
  3
Standard
350
60
  0
DICTIONARY
  5
61
102
{ACAD_REACTORS
330
C
102
}
330
C
100
AcDbDictionary
281
     1
  0
ACDBDICTIONARYWDFLT
  5
E
102
{ACAD_REACTORS
330
C
102
}
330
C
100
AcDbDictionary
281
     1
  3
Normal
350
F
100
AcDbDictionaryWithDefault
340
F
  0
DICTIONARY
  5
42
102
{ACAD_REACTORS
330
C
102
}
330
C
100
AcDbDictionary
281
     1
  3
A0
350
43
  3
A1
350
44
  3
A2
350
45
  3
A3
350
46
  3
A4
350
47
  3
A5
350
48
  3
A6
350
49
  3
A7
350
4A
  3
A8
350
4B
  3
A9
350
4C
  3
B0
350
4D
  3
B1
350
4E
  3
B2
350
4F
  3
B3
350
50
  3
B4
350
51
  3
B5
350
52
  3
B6
350
53
  0
DICTIONARY
  5
68
102
{ACAD_REACTORS
330
C
102
}
330
C
100
AcDbDictionary
281
     1
  3
Imperial24
350
6A
  0
DICTIONARY
  5
64
102
{ACAD_REACTORS
330
C
102
}
330
C
100
AcDbDictionary
281
     1
  3
Standard
350
65
  0
DICTIONARY
  5
29
102
{ACAD_REACTORS
330
C
102
}
330
C
100
AcDbDictionary
281
     1
  3
2dWireframe
350
2F
  3
Basic
350
2E
  3
Brighten
350
35
  3
ColorChange
350
39
  3
Conceptual
350
32
  3
Dim
350
34
  3
EdgeColorOff
350
41
  3
Facepattern
350
38
  3
Flat
350
2A
  3
FlatWithEdges
350
2B
  3
Gouraud
350
2C
  3
GouraudWithEdges
350
2D
  3
Hidden
350
31
  3
JitterOff
350
3F
  3
Linepattern
350
37
  3
OverhangOff
350
40
  3
Realistic
350
33
  3
Shaded
350
3E
  3
Shaded with edges
350
3D
  3
Shades of Gray
350
3A
  3
Sketchy
350
3B
  3
Thicken
350
36
  3
Wireframe
350
30
  3
X-Ray
350
3C
  0
XRECORD
  5
2CE
102
{ACAD_REACTORS
330
C
102
}
330
C
100
AcDbXrecord
280
     1
 90
        1
330
65
  0
DICTIONARY
  5
7C
102
{ACAD_REACTORS
330
C
102
}
330
C
100
AcDbDictionary
281
     1
  3
CANNOSCALE
350
81
  3
CMLEADERSTYLE
350
7E
  3
CTABLESTYLE
350
7D
  3
CVIEWDETAILSTYLE
350
7F
  3
CVIEWSECTIONSTYLE
350
80
  0
DICTIONARY
  5
2C5
102
{ACAD_REACTORS
330
C
102
}
330
C
100
AcDbDictionary
281
     1
  3
DRAWING_TOOL
350
2C9
  3
REVIT_CATEGORY_MAPPING
350
2C7
  3
REVIT_SUB_CATEGORY_MAPPING
350
2C8
  3
REVIT_TYPE_MAPPING
350
2C6
  0
SORTENTSTABLE
  5
2CB
102
{ACAD_REACTORS
330
2CA
102
}
330
2CA
100
AcDbSortentsTable
330
71
  0
ACDBDETAILVIEWSTYLE
  5
6C
102
{ACAD_REACTORS
330
6B
102
}
330
6B
100
AcDbModelDocViewStyle
 70
     0
  3
Imperial24
290
     1
100
AcDbDetailViewStyle
 70
     0
 71
     0
 90
        3
 71
     1
340
55
 62
   256
 40
0.24
340
0
 62
   256
 40
0.24
300

 40
0.36
280
     3
 71
     2
340
5D
 90
       25
 62
   256
 71
     3
340
55
 62
   256
 40
0.24
 90
        1
 40
0.75
 90
        1
300
%<\AcVar ViewType \f "%tc1">% %<\AcVar ViewDetailId>%\PSCALA %<\AcVar ViewScale \f "%sn">%
 71
     4
340
5D
 90
       25
 62
   256
340
5D
 90
       25
 62
   256
280
     0
  0
LAYOUT
  5
70
102
{ACAD_REACTORS
330
62
102
}
330
62
100
AcDbPlotSettings
  1

  2

  4

  6

 40
0.0
 41
0.0
 42
0.0
 43
0.0
 44
0.0
 45
0.0
 46
0.0
 47
0.0
 48
0.0
 49
0.0
140
0.0
141
0.0
142
1.0
143
1.0
 70
   688
 72
     0
 73
     0
 74
     5
  7

 75
    16
147
1.0
 76
     0
 77
     2
 78
   300
148
0.0
149
0.0
100
AcDbLayout
  1
Layout1
 70
     1
 71
     1
 10
0.0
 20
0.0
 11
12.0
 21
9.0
 12
0.0
 22
0.0
 32
0.0
 14
0.0
 24
0.0
 34
0.0
 15
0.0
 25
0.0
 35
0.0
146
0.0
 13
0.0
 23
0.0
 33
0.0
 16
1.0
 26
0.0
 36
0.0
 17
0.0
 27
1.0
 37
0.0
 76
     0
330
6D
  0
LAYOUT
  5
78
102
{ACAD_REACTORS
330
62
102
}
330
62
100
AcDbPlotSettings
  1

  2

  4

  6

 40
0.0
 41
0.0
 42
0.0
 43
0.0
 44
0.0
 45
0.0
 46
0.0
 47
0.0
 48
0.0
 49
0.0
140
0.0
141
0.0
142
1.0
143
1.0
 70
   688
 72
     0
 73
     0
 74
     5
  7

 75
    16
147
1.0
 76
     0
 77
     2
 78
   300
148
0.0
149
0.0
100
AcDbLayout
  1
Layout2
 70
     1
 71
     2
 10
0.0
 20
0.0
 11
12.0
 21
9.0
 12
0.0
 22
0.0
 32
0.0
 14
0.0
 24
0.0
 34
0.0
 15
0.0
 25
0.0
 35
0.0
146
0.0
 13
0.0
 23
0.0
 33
0.0
 16
1.0
 26
0.0
 36
0.0
 17
0.0
 27
1.0
 37
0.0
 76
     0
330
75
  0
LAYOUT
  5
74
102
{ACAD_REACTORS
330
62
102
}
330
62
100
AcDbPlotSettings
  1

  2

  4

  6

 40
0.0
 41
0.0
 42
0.0
 43
0.0
 44
0.0
 45
0.0
 46
0.0
 47
0.0
 48
0.0
 49
0.0
140
0.0
141
0.0
142
1.0
143
1.0
 70
  1712
 72
     0
 73
     0
 74
     0
  7

 75
     0
147
1.0
 76
     0
 77
     2
 78
   300
148
0.0
149
0.0
100
AcDbLayout
  1
Model
 70
     1
 71
     0
 10
0.0
 20
0.0
 11
12.0
 21
9.0
 12
0.0
 22
0.0
 32
0.0
 14
0.0
 24
0.0
 34
0.0
 15
0.0
 25
0.0
 35
0.0
146
0.0
 13
0.0
 23
0.0
 33
0.0
 16
1.0
 26
0.0
 36
0.0
 17
0.0
 27
1.0
 37
0.0
 76
     0
330
71
  0
MATERIAL
  5
19
102
{ACAD_XDICTIONARY
360
1A
102
}
102
{ACAD_REACTORS
330
10
102
}
330
10
100
AcDbMaterial
  1
ByBlock
 72
     0
 43
0.0208333333333333
 43
0.0
 43
0.0
 43
0.0
 43
0.0
 43
0.0208333333333333
 43
0.0
 43
0.0
 43
0.0
 43
0.0
 43
1.0
 43
0.0
 43
0.0
 43
0.0
 43
0.0
 43
1.0
 77
     0
 47
0.0208333333333333
 47
0.0
 47
0.0
 47
0.0
 47
0.0
 47
0.0208333333333333
 47
0.0
 47
0.0
 47
0.0
 47
0.0
 47
1.0
 47
0.0
 47
0.0
 47
0.0
 47
0.0
 47
1.0
171
     0
 49
0.0208333333333333
 49
0.0
 49
0.0
 49
0.0
 49
0.0
 49
0.0208333333333333
 49
0.0
 49
0.0
 49
0.0
 49
0.0
 49
1.0
 49
0.0
 49
0.0
 49
0.0
 49
0.0
 49
1.0
175
     0
142
0.0208333333333333
142
0.0
142
0.0
142
0.0
142
0.0
142
0.0208333333333333
142
0.0
142
0.0
142
0.0
142
0.0
142
1.0
142
0.0
142
0.0
142
0.0
142
0.0
142
1.0
179
     0
144
0.0208333333333333
144
0.0
144
0.0
144
0.0
144
0.0
144
0.0208333333333333
144
0.0
144
0.0
144
0.0
144
0.0
144
1.0
144
0.0
144
0.0
144
0.0
144
0.0
144
1.0
147
0.0208333333333333
147
0.0
147
0.0
147
0.0
147
0.0
147
0.0208333333333333
147
0.0
147
0.0
147
0.0
147
0.0
147
1.0
147
0.0
147
0.0
147
0.0
147
0.0
147
1.0
  0
MATERIAL
  5
11
102
{ACAD_XDICTIONARY
360
12
102
}
102
{ACAD_REACTORS
330
10
102
}
330
10
100
AcDbMaterial
  1
ByLayer
 72
     0
 43
0.0208333333333333
 43
0.0
 43
0.0
 43
0.0
 43
0.0
 43
0.0208333333333333
 43
0.0
 43
0.0
 43
0.0
 43
0.0
 43
1.0
 43
0.0
 43
0.0
 43
0.0
 43
0.0
 43
1.0
 77
     0
 47
0.0208333333333333
 47
0.0
 47
0.0
 47
0.0
 47
0.0
 47
0.0208333333333333
 47
0.0
 47
0.0
 47
0.0
 47
0.0
 47
1.0
 47
0.0
 47
0.0
 47
0.0
 47
0.0
 47
1.0
171
     0
 49
0.0208333333333333
 49
0.0
 49
0.0
 49
0.0
 49
0.0
 49
0.0208333333333333
 49
0.0
 49
0.0
 49
0.0
 49
0.0
 49
1.0
 49
0.0
 49
0.0
 49
0.0
 49
0.0
 49
1.0
175
     0
142
0.0208333333333333
142
0.0
142
0.0
142
0.0
142
0.0
142
0.0208333333333333
142
0.0
142
0.0
142
0.0
142
0.0
142
1.0
142
0.0
142
0.0
142
0.0
142
0.0
142
1.0
179
     0
144
0.0208333333333333
144
0.0
144
0.0
144
0.0
144
0.0
144
0.0208333333333333
144
0.0
144
0.0
144
0.0
144
0.0
144
1.0
144
0.0
144
0.0
144
0.0
144
0.0
144
1.0
147
0.0208333333333333
147
0.0
147
0.0
147
0.0
147
0.0
147
0.0208333333333333
147
0.0
147
0.0
147
0.0
147
0.0
147
1.0
147
0.0
147
0.0
147
0.0
147
0.0
147
1.0
  0
MATERIAL
  5
21
102
{ACAD_XDICTIONARY
360
22
102
}
102
{ACAD_REACTORS
330
10
102
}
330
10
100
AcDbMaterial
  1
Global
 72
     0
 43
0.0208333333333333
 43
0.0
 43
0.0
 43
0.0
 43
0.0
 43
0.0208333333333333
 43
0.0
 43
0.0
 43
0.0
 43
0.0
 43
1.0
 43
0.0
 43
0.0
 43
0.0
 43
0.0
 43
1.0
 77
     0
 47
0.0208333333333333
 47
0.0
 47
0.0
 47
0.0
 47
0.0
 47
0.0208333333333333
 47
0.0
 47
0.0
 47
0.0
 47
0.0
 47
1.0
 47
0.0
 47
0.0
 47
0.0
 47
0.0
 47
1.0
171
     0
 49
0.0208333333333333
 49
0.0
 49
0.0
 49
0.0
 49
0.0
 49
0.0208333333333333
 49
0.0
 49
0.0
 49
0.0
 49
0.0
 49
1.0
 49
0.0
 49
0.0
 49
0.0
 49
0.0
 49
1.0
175
     0
142
0.0208333333333333
142
0.0
142
0.0
142
0.0
142
0.0
142
0.0208333333333333
142
0.0
142
0.0
142
0.0
142
0.0
142
1.0
142
0.0
142
0.0
142
0.0
142
0.0
142
1.0
179
     0
144
0.0208333333333333
144
0.0
144
0.0
144
0.0
144
0.0
144
0.0208333333333333
144
0.0
144
0.0
144
0.0
144
0.0
144
1.0
144
0.0
144
0.0
144
0.0
144
0.0
144
1.0
147
0.0208333333333333
147
0.0
147
0.0
147
0.0
147
0.0
147
0.0208333333333333
147
0.0
147
0.0
147
0.0
147
0.0
147
1.0
147
0.0
147
0.0
147
0.0
147
0.0
147
1.0
  0
MLEADERSTYLE
  5
67
102
{ACAD_REACTORS
330
66
102
}
330
66
100
AcDbMLeaderStyle
179
     2
170
     2
171
     1
172
     0
 90
        2
 40
0.0
 41
0.0
173
     1
 91
-1056964608
340
5B
 92
       -2
290
     1
 42
0.09
291
     1
 43
0.36
  3
Standard
 44
0.18
300

342
55
174
     1
178
     6
175
     1
176
     0
 93
-1056964608
 45
0.18
292
     0
297
     0
 46
0.18
 94
-1056964608
 47
1.0
 49
1.0
140
1.0
293
     1
141
0.0
294
     1
177
     0
142
1.0
295
     1
296
     0
143
0.125
271
     0
272
     9
273
     9
298
     1
  0
MLINESTYLE
  5
60
102
{ACAD_REACTORS
330
5F
102
}
330
5F
100
AcDbMlineStyle
  2
STANDARD
 70
     0
  3

 62
   256
 51
90.0
 52
90.0
 71
     2
 49
0.5
 62
   256
  6
BYLAYER
 49
-0.5
 62
   256
  6
BYLAYER
  0
ACDBPLACEHOLDER
  5
F
102
{ACAD_REACTORS
330
E
102
}
330
E
  0
SCALE
  5
43
102
{ACAD_REACTORS
330
42
102
}
330
42
100
AcDbScale
 70
     0
300
1:1
140
1.0
141
1.0
290
     1
  0
SCALE
  5
44
102
{ACAD_REACTORS
330
42
102
}
330
42
100
AcDbScale
 70
     0
300
1/128" = 1'-0"
140
0.0078125
141
12.0
290
     0
  0
SCALE
  5
45
102
{ACAD_REACTORS
330
42
102
}
330
42
100
AcDbScale
 70
     0
300
1/64" = 1'-0"
140
0.015625
141
12.0
290
     0
  0
SCALE
  5
46
102
{ACAD_REACTORS
330
42
102
}
330
42
100
AcDbScale
 70
     0
300
1/32" = 1'-0"
140
0.03125
141
12.0
290
     0
  0
SCALE
  5
47
102
{ACAD_REACTORS
330
42
102
}
330
42
100
AcDbScale
 70
     0
300
1/16" = 1'-0"
140
0.0625
141
12.0
290
     0
  0
SCALE
  5
48
102
{ACAD_REACTORS
330
42
102
}
330
42
100
AcDbScale
 70
     0
300
3/32" = 1'-0"
140
0.09375
141
12.0
290
     0
  0
SCALE
  5
49
102
{ACAD_REACTORS
330
42
102
}
330
42
100
AcDbScale
 70
     0
300
1/8" = 1'-0"
140
0.125
141
12.0
290
     0
  0
SCALE
  5
4A
102
{ACAD_REACTORS
330
42
102
}
330
42
100
AcDbScale
 70
     0
300
3/16" = 1'-0"
140
0.1875
141
12.0
290
     0
  0
SCALE
  5
4B
102
{ACAD_REACTORS
330
42
102
}
330
42
100
AcDbScale
 70
     0
300
1/4" = 1'-0"
140
0.25
141
12.0
290
     0
  0
SCALE
  5
4C
102
{ACAD_REACTORS
330
42
102
}
330
42
100
AcDbScale
 70
     0
300
3/8" = 1'-0"
140
0.375
141
12.0
290
     0
  0
SCALE
  5
4D
102
{ACAD_REACTORS
330
42
102
}
330
42
100
AcDbScale
 70
     0
300
1/2" = 1'-0"
140
0.5
141
12.0
290
     0
  0
SCALE
  5
4E
102
{ACAD_REACTORS
330
42
102
}
330
42
100
AcDbScale
 70
     0
300
3/4" = 1'-0"
140
0.75
141
12.0
290
     0
  0
SCALE
  5
4F
102
{ACAD_REACTORS
330
42
102
}
330
42
100
AcDbScale
 70
     0
300
1" = 1'-0"
140
1.0
141
12.0
290
     0
  0
SCALE
  5
50
102
{ACAD_REACTORS
330
42
102
}
330
42
100
AcDbScale
 70
     0
300
1-1/2" = 1'-0"
140
1.5
141
12.0
290
     0
  0
SCALE
  5
51
102
{ACAD_REACTORS
330
42
102
}
330
42
100
AcDbScale
 70
     0
300
3" = 1'-0"
140
3.0
141
12.0
290
     0
  0
SCALE
  5
52
102
{ACAD_REACTORS
330
42
102
}
330
42
100
AcDbScale
 70
     0
300
6" = 1'-0"
140
6.0
141
12.0
290
     0
  0
SCALE
  5
53
102
{ACAD_REACTORS
330
42
102
}
330
42
100
AcDbScale
 70
     0
300
1'-0" = 1'-0"
140
12.0
141
12.0
290
     0
  0
ACDBSECTIONVIEWSTYLE
  5
6A
102
{ACAD_REACTORS
330
68
102
}
330
68
100
AcDbModelDocViewStyle
 70
     0
  3
Imperial24
290
     1
100
AcDbSectionViewStyle
 70
     0
 71
     0
 90
       78
 71
     1
340
55
 62
   256
 40
0.24
340
0
340
0
 62
   256
 40
0.24
300
I, O, Q, S, X, Z
 40
0.48
 90
        3
 40
0.18
 90
        1
 71
     2
340
69
 90
       25
 62
   256
340
5D
 90
       50
 62
   256
 40
0.24
 40
0.0
 40
0.24
 71
     3
340
55
 62
   256
 40
0.24
 90
        1
 40
0.75
 90
        1
300
%<\AcVar ViewType \f "%tc1">% %<\AcVar ViewSectionStartId>%-%<\AcVar ViewSectionEndId>%\PSCALA %<\AcVar ViewScale \f "%sn">%
 71
     4
 62
   256
 62
   257
300
ANSI31
 40
1.0
 90
        0
290
     0
290
     0
 90
        6
 40
0.0
 40
1.570796326794896
 40
0.2617993877991494
 40
1.308996938995747
 40
-0.2617993877991494
 40
1.832595714594046
  0
TABLESTYLE
  5
65
102
{ACAD_XDICTIONARY
360
2CC
102
}
102
{ACAD_REACTORS
330
64
102
}
330
64
100
AcDbTableStyle
280
     0
  3
Standard
 70
     0
 71
     0
 40
0.06
 41
0.06
280
     0
281
     0
  7
Standard
140
0.18
170
     2
 62
     0
 63
     7
283
     0
 90
      512
 91
        0
  1

274
    -2
284
     1
 64
     0
275
    -2
285
     1
 65
     0
276
    -2
286
     1
 66
     0
277
    -2
287
     1
 67
     0
278
    -2
288
     1
 68
     0
279
    -2
289
     1
 69
     0
  7
Standard
140
0.25
170
     5
 62
     0
 63
     7
283
     0
 90
      512
 91
        0
  1

274
    -2
284
     1
 64
     0
275
    -2
285
     1
 65
     0
276
    -2
286
     1
 66
     0
277
    -2
287
     1
 67
     0
278
    -2
288
     1
 68
     0
279
    -2
289
     1
 69
     0
  7
Standard
140
0.18
170
     5
 62
     0
 63
     7
283
     0
 90
      512
 91
        0
  1

274
    -2
284
     1
 64
     0
275
    -2
285
     1
 65
     0
276
    -2
286
     1
 66
     0
277
    -2
287
     1
 67
     0
278
    -2
288
     1
 68
     0
279
    -2
289
     1
 69
     0
  0
VISUALSTYLE
  5
2F
102
{ACAD_REACTORS
330
29
102
}
330
29
100
AcDbVisualStyle
  2
2dWireframe
 70
     4
177
     3
291
     0
 70
    58
 90
        0
176
     1
 90
        2
176
     1
 90
        0
176
     1
 90
        0
176
     1
 40
0.6
176
     1
 40
30.0
176
     1
 62
     7
420
 16777215
176
     1
 90
        1
176
     1
 90
        4
176
     1
 62
     7
176
     1
 62
   257
176
     1
 90
        1
176
     1
 90
        1
176
     1
 40
1.0
176
     1
 90
        0
176
     1
 62
   257
176
     1
 40
1.0
176
     1
 90
        1
176
     1
 90
        6
176
     1
 90
        2
176
     1
 62
     7
176
     1
 90
        5
176
     1
 90
        0
176
     1
 90
        0
176
     1
290
     0
176
     1
 90
        1
176
     1
 40
0.0
176
     1
 90
        0
176
     1
290
     1
176
     1
290
     1
176
     1
290
     0
176
     1
290
     0
176
     1
290
     0
176
     1
290
     0
176
     1
290
     0
176
     1
290
     0
176
     1
290
     0
176
     1
 90
       50
176
     1
 40
0.0
176
     1
 40
1.0
176
     1
 90
        0
176
     1
 62
    18
420
        0
176
     1
 90
       50
176
     1
 90
        3
176
     1
 62
     5
420
      255
176
     1
290
     0
176
     1
 90
       50
176
     1
 90
       50
176
     1
 90
       50
176
     1
290
     0
176
     1
 90
       50
176
     1
 62
   256
176
     0
 40
1.0
176
     0
 90
        2
176
     1
  1
strokes_ogs.tif
176
     1
290
     0
176
     1
 40
1.0
176
     1
 40
1.0
176
     1
  0
VISUALSTYLE
  5
2E
102
{ACAD_REACTORS
330
29
102
}
330
29
100
AcDbVisualStyle
  2
Basic
 70
     7
177
     3
291
     1
 70
    58
 90
        1
176
     1
 90
        0
176
     1
 90
        1
176
     1
 90
        0
176
     1
 40
0.6
176
     1
 40
30.0
176
     1
 62
     7
420
 16777215
176
     1
 90
        0
176
     1
 90
        4
176
     1
 62
     7
176
     1
 62
   257
176
     1
 90
        1
176
     1
 90
        1
176
     1
 40
1.0
176
     1
 90
        8
176
     1
 62
     7
176
     1
 40
1.0
176
     1
 90
        1
176
     1
 90
        6
176
     1
 90
        2
176
     1
 62
     7
176
     1
 90
        5
176
     1
 90
        0
176
     1
 90
        0
176
     1
290
     0
176
     1
 90
        1
176
     1
 40
0.0
176
     1
 90
        0
176
     1
290
     0
176
     1
290
     1
176
     1
290
     1
176
     1
290
     0
176
     1
290
     0
176
     1
290
     0
176
     1
290
     0
176
     1
290
     0
176
     1
290
     0
176
     1
 90
       50
176
     1
 40
0.0
176
     1
 40
1.0
176
     1
 90
        0
176
     1
 62
    18
420
        0
176
     1
 90
       50
176
     1
 90
        3
176
     1
 62
     5
420
      255
176
     1
290
     0
176
     1
 90
       50
176
     1
 90
       50
176
     1
 90
       50
176
     1
290
     0
176
     1
 90
       50
176
     1
 62
   256
176
     0
 40
1.0
176
     0
 90
        2
176
     1
  1
strokes_ogs.tif
176
     1
290
     0
176
     1
 40
1.0
176
     1
 40
1.0
176
     1
  0
VISUALSTYLE
  5
35
102
{ACAD_REACTORS
330
29
102
}
330
29
100
AcDbVisualStyle
  2
Brighten
 70
    12
177
     3
291
     1
 70
    58
 90
        2
176
     1
 90
        2
176
     1
 90
        0
176
     1
 90
        0
176
     1
 40
0.6
176
     1
 40
30.0
176
     1
 62
     7
420
 16777215
176
     1
 90
        1
176
     1
 90
        4
176
     1
 62
     7
176
     1
 62
   257
176
     1
 90
        1
176
     1
 90
        1
176
     1
 40
1.0
176
     1
 90
        8
176
     1
 62
     7
176
     1
 40
1.0
176
     1
 90
        1
176
     1
 90
        6
176
     1
 90
        2
176
     1
 62
     7
176
     1
 90
        5
176
     1
 90
        0
176
     1
 90
        0
176
     1
290
     0
176
     1
 90
        1
176
     1
 40
50.0
176
     1
 90
        0
176
     1
290
     0
176
     1
290
     1
176
     1
290
     1
176
     1
290
     0
176
     1
290
     0
176
     1
290
     0
176
     1
290
     0
176
     1
290
     0
176
     1
290
     0
176
     1
 90
       50
176
     1
 40
0.0
176
     1
 40
1.0
176
     1
 90
        0
176
     1
 62
    18
420
        0
176
     1
 90
       50
176
     1
 90
        3
176
     1
 62
     5
420
      255
176
     1
290
     0
176
     1
 90
       50
176
     1
 90
       50
176
     1
 90
       50
176
     1
290
     0
176
     1
 90
       50
176
     1
 62
   256
176
     0
 40
1.0
176
     0
 90
        2
176
     1
  1
strokes_ogs.tif
176
     1
290
     0
176
     1
 40
1.0
176
     1
 40
1.0
176
     1
  0
VISUALSTYLE
  5
39
102
{ACAD_REACTORS
330
29
102
}
330
29
100
AcDbVisualStyle
  2
ColorChange
 70
    16
177
     3
291
     1
 70
    58
 90
        2
176
     1
 90
        2
176
     1
 90
        3
176
     1
 90
        0
176
     1
 40
0.6
176
     1
 40
30.0
176
     1
 62
     8
420
  8421504
176
     1
 90
        1
176
     1
 90
        4
176
     1
 62
     7
176
     1
 62
   257
176
     1
 90
        1
176
     1
 90
        1
176
     1
 40
1.0
176
     1
 90
        8
176
     1
 62
     8
420
  8421504
176
     1
 40
1.0
176
     1
 90
        1
176
     1
 90
        6
176
     1
 90
        2
176
     1
 62
     7
176
     1
 90
        5
176
     1
 90
        0
176
     1
 90
        0
176
     1
290
     0
176
     1
 90
        1
176
     1
 40
0.0
176
     1
 90
        0
176
     1
290
     0
176
     1
290
     1
176
     1
290
     1
176
     1
290
     0
176
     1
290
     0
176
     1
290
     0
176
     1
290
     0
176
     1
290
     0
176
     1
290
     0
176
     1
 90
       50
176
     1
 40
0.0
176
     1
 40
1.0
176
     1
 90
        0
176
     1
 62
    18
420
        0
176
     1
 90
       50
176
     1
 90
        3
176
     1
 62
     5
420
      255
176
     1
290
     0
176
     1
 90
       50
176
     1
 90
       50
176
     1
 90
       50
176
     1
290
     0
176
     1
 90
       50
176
     1
 62
   256
176
     0
 40
1.0
176
     0
 90
        2
176
     1
  1
strokes_ogs.tif
176
     1
290
     0
176
     1
 40
1.0
176
     1
 40
1.0
176
     1
  0
VISUALSTYLE
  5
32
102
{ACAD_REACTORS
330
29
102
}
330
29
100
AcDbVisualStyle
  2
Conceptual
 70
     9
177
     3
291
     0
 70
    58
 90
        3
176
     1
 90
        2
176
     1
 90
        0
176
     1
 90
        0
176
     1
 40
0.6
176
     1
 40
30.0
176
     1
 62
     7
420
 16777215
176
     1
 90
        2
176
     1
 90
        2
176
     1
 62
     7
176
     1
 62
   257
176
     1
 90
        1
176
     1
 90
        1
176
     1
 40
179.0
176
     1
 90
        8
176
     1
 62
     7
176
     1
 40
1.0
176
     1
 90
        1
176
     1
 90
        6
176
     1
 90
        2
176
     1
 62
     7
176
     1
 90
        3
176
     1
 90
        0
176
     1
 90
        0
176
     1
290
     0
176
     1
 90
        1
176
     1
 40
0.0
176
     1
 90
        0
176
     1
290
     0
176
     1
290
     1
176
     1
290
     1
176
     1
290
     0
176
     1
290
     0
176
     1
290
     0
176
     1
290
     0
176
     1
290
     0
176
     1
290
     0
176
     1
 90
       50
176
     1
 40
0.0
176
     1
 40
1.0
176
     1
 90
        0
176
     1
 62
    18
420
        0
176
     1
 90
       50
176
     1
 90
        3
176
     1
 62
     5
420
      255
176
     1
290
     0
176
     1
 90
       50
176
     1
 90
       50
176
     1
 90
       50
176
     1
290
     0
176
     1
 90
       50
176
     1
 62
   256
176
     0
 40
1.0
176
     0
 90
        2
176
     1
  1
strokes_ogs.tif
176
     1
290
     0
176
     1
 40
1.0
176
     1
 40
1.0
176
     1
  0
VISUALSTYLE
  5
34
102
{ACAD_REACTORS
330
29
102
}
330
29
100
AcDbVisualStyle
  2
Dim
 70
    11
177
     3
291
     1
 70
    58
 90
        2
176
     1
 90
        2
176
     1
 90
        0
176
     1
 90
        0
176
     1
 40
0.6
176
     1
 40
30.0
176
     1
 62
     7
420
 16777215
176
     1
 90
        1
176
     1
 90
        4
176
     1
 62
     7
176
     1
 62
   257
176
     1
 90
        1
176
     1
 90
        1
176
     1
 40
1.0
176
     1
 90
        8
176
     1
 62
     7
176
     1
 40
1.0
176
     1
 90
        1
176
     1
 90
        6
176
     1
 90
        2
176
     1
 62
     7
176
     1
 90
        5
176
     1
 90
        0
176
     1
 90
        0
176
     1
290
     0
176
     1
 90
        1
176
     1
 40
-50.0
176
     1
 90
        0
176
     1
290
     0
176
     1
290
     1
176
     1
290
     1
176
     1
290
     0
176
     1
290
     0
176
     1
290
     0
176
     1
290
     0
176
     1
290
     0
176
     1
290
     0
176
     1
 90
       50
176
     1
 40
0.0
176
     1
 40
1.0
176
     1
 90
        0
176
     1
 62
    18
420
        0
176
     1
 90
       50
176
     1
 90
        3
176
     1
 62
     5
420
      255
176
     1
290
     0
176
     1
 90
       50
176
     1
 90
       50
176
     1
 90
       50
176
     1
290
     0
176
     1
 90
       50
176
     1
 62
   256
176
     0
 40
1.0
176
     0
 90
        2
176
     1
  1
strokes_ogs.tif
176
     1
290
     0
176
     1
 40
1.0
176
     1
 40
1.0
176
     1
  0
VISUALSTYLE
  5
41
102
{ACAD_REACTORS
330
29
102
}
330
29
100
AcDbVisualStyle
  2
EdgeColorOff
 70
    22
177
     3
291
     1
 70
    58
 90
        2
176
     0
 90
        2
176
     0
 90
        0
176
     0
 90
        0
176
     0
 40
0.6
176
     0
 40
30.0
176
     0
 62
     7
420
 16777215
176
     0
 90
        1
176
     0
 90
        4
176
     0
 62
     7
176
     0
 62
   257
176
     0
 90
        1
176
     0
 90
        1
176
     0
 40
1.0
176
     0
 90
        8
176
     2
 62
     7
176
     0
 40
1.0
176
     0
 90
        1
176
     0
 90
        6
176
     0
 90
        2
176
     0
 62
     7
176
     0
 90
        5
176
     0
 90
        0
176
     0
 90
        0
176
     0
290
     0
176
     0
 90
        1
176
     0
 40
0.0
176
     0
 90
        0
176
     0
290
     0
176
     0
290
     1
176
     0
290
     1
176
     0
290
     0
176
     0
290
     0
176
     0
290
     0
176
     0
290
     0
176
     0
290
     0
176
     0
290
     0
176
     0
 90
       50
176
     0
 40
0.0
176
     0
 40
1.0
176
     0
 90
        0
176
     0
 62
    18
420
        0
176
     0
 90
       50
176
     0
 90
        3
176
     0
 62
     5
420
      255
176
     0
290
     0
176
     0
 90
       50
176
     0
 90
       50
176
     0
 90
       50
176
     0
290
     0
176
     0
 90
       50
176
     0
 62
   256
176
     0
 40
1.0
176
     0
 90
        2
176
     0
  1
strokes_ogs.tif
176
     0
290
     0
176
     0
 40
1.0
176
     0
 40
1.0
176
     0
  0
VISUALSTYLE
  5
38
102
{ACAD_REACTORS
330
29
102
}
330
29
100
AcDbVisualStyle
  2
Facepattern
 70
    15
177
     3
291
     1
 70
    58
 90
        2
176
     1
 90
        2
176
     1
 90
        0
176
     1
 90
        0
176
     1
 40
0.6
176
     1
 40
30.0
176
     1
 62
     7
420
 16777215
176
     1
 90
        1
176
     1
 90
        4
176
     1
 62
     7
176
     1
 62
   257
176
     1
 90
        1
176
     1
 90
        1
176
     1
 40
1.0
176
     1
 90
        8
176
     1
 62
     7
176
     1
 40
1.0
176
     1
 90
        1
176
     1
 90
        6
176
     1
 90
        2
176
     1
 62
     7
176
     1
 90
        5
176
     1
 90
        0
176
     1
 90
        0
176
     1
290
     0
176
     1
 90
        1
176
     1
 40
0.0
176
     1
 90
        0
176
     1
290
     0
176
     1
290
     1
176
     1
290
     1
176
     1
290
     0
176
     1
290
     0
176
     1
290
     0
176
     1
290
     0
176
     1
290
     0
176
     1
290
     0
176
     1
 90
       50
176
     1
 40
0.0
176
     1
 40
1.0
176
     1
 90
        0
176
     1
 62
    18
420
        0
176
     1
 90
       50
176
     1
 90
        3
176
     1
 62
     5
420
      255
176
     1
290
     0
176
     1
 90
       50
176
     1
 90
       50
176
     1
 90
       50
176
     1
290
     0
176
     1
 90
       50
176
     1
 62
   256
176
     0
 40
1.0
176
     0
 90
        2
176
     1
  1
strokes_ogs.tif
176
     1
290
     0
176
     1
 40
1.0
176
     1
 40
1.0
176
     1
  0
VISUALSTYLE
  5
2A
102
{ACAD_REACTORS
330
29
102
}
330
29
100
AcDbVisualStyle
  2
Flat
 70
     0
177
     3
291
     1
 70
    58
 90
        2
176
     1
 90
        1
176
     1
 90
        1
176
     1
 90
        2
176
     1
 40
0.6
176
     1
 40
30.0
176
     1
 62
     7
420
 16777215
176
     1
 90
        0
176
     1
 90
        0
176
     1
 62
     7
176
     1
 62
   257
176
     1
 90
        1
176
     1
 90
        1
176
     1
 40
1.0
176
     1
 90
        8
176
     1
 62
     7
176
     1
 40
1.0
176
     1
 90
        1
176
     1
 90
        6
176
     1
 90
        2
176
     1
 62
     7
176
     1
 90
        5
176
     1
 90
        0
176
     1
 90
        0
176
     1
290
     0
176
     1
 90
       13
176
     1
 40
0.0
176
     1
 90
        0
176
     1
290
     0
176
     1
290
     1
176
     1
290
     1
176
     1
290
     0
176
     1
290
     0
176
     1
290
     0
176
     1
290
     0
176
     1
290
     0
176
     1
290
     0
176
     1
 90
       50
176
     1
 40
0.0
176
     1
 40
1.0
176
     1
 90
        0
176
     1
 62
    18
420
        0
176
     1
 90
       50
176
     1
 90
        3
176
     1
 62
     5
420
      255
176
     1
290
     0
176
     1
 90
       50
176
     1
 90
       50
176
     1
 90
       50
176
     1
290
     0
176
     1
 90
       50
176
     1
 62
   256
176
     0
 40
1.0
176
     0
 90
        2
176
     1
  1
strokes_ogs.tif
176
     1
290
     0
176
     1
 40
1.0
176
     1
 40
1.0
176
     1
  0
VISUALSTYLE
  5
2B
102
{ACAD_REACTORS
330
29
102
}
330
29
100
AcDbVisualStyle
  2
FlatWithEdges
 70
     1
177
     3
291
     1
 70
    58
 90
        2
176
     1
 90
        1
176
     1
 90
        1
176
     1
 90
        2
176
     1
 40
0.6
176
     1
 40
30.0
176
     1
 62
     7
420
 16777215
176
     1
 90
        1
176
     1
 90
        0
176
     1
 62
     7
176
     1
 62
   257
176
     1
 90
        1
176
     1
 90
        1
176
     1
 40
1.0
176
     1
 90
        0
176
     1
 62
   257
176
     1
 40
1.0
176
     1
 90
        1
176
     1
 90
        6
176
     1
 90
        2
176
     1
 62
     7
176
     1
 90
        5
176
     1
 90
        0
176
     1
 90
        0
176
     1
290
     0
176
     1
 90
       13
176
     1
 40
0.0
176
     1
 90
        0
176
     1
290
     0
176
     1
290
     1
176
     1
290
     1
176
     1
290
     0
176
     1
290
     0
176
     1
290
     0
176
     1
290
     0
176
     1
290
     0
176
     1
290
     0
176
     1
 90
       50
176
     1
 40
0.0
176
     1
 40
1.0
176
     1
 90
        0
176
     1
 62
    18
420
        0
176
     1
 90
       50
176
     1
 90
        3
176
     1
 62
     5
420
      255
176
     1
290
     0
176
     1
 90
       50
176
     1
 90
       50
176
     1
 90
       50
176
     1
290
     0
176
     1
 90
       50
176
     1
 62
   256
176
     0
 40
1.0
176
     0
 90
        2
176
     1
  1
strokes_ogs.tif
176
     1
290
     0
176
     1
 40
1.0
176
     1
 40
1.0
176
     1
  0
VISUALSTYLE
  5
2C
102
{ACAD_REACTORS
330
29
102
}
330
29
100
AcDbVisualStyle
  2
Gouraud
 70
     2
177
     3
291
     1
 70
    58
 90
        2
176
     1
 90
        2
176
     1
 90
        1
176
     1
 90
        2
176
     1
 40
0.6
176
     1
 40
30.0
176
     1
 62
     7
420
 16777215
176
     1
 90
        0
176
     1
 90
        0
176
     1
 62
     7
176
     1
 62
   257
176
     1
 90
        1
176
     1
 90
        1
176
     1
 40
1.0
176
     1
 90
        0
176
     1
 62
     7
176
     1
 40
1.0
176
     1
 90
        1
176
     1
 90
        6
176
     1
 90
        2
176
     1
 62
     7
176
     1
 90
        5
176
     1
 90
        0
176
     1
 90
        0
176
     1
290
     0
176
     1
 90
       13
176
     1
 40
0.0
176
     1
 90
        0
176
     1
290
     0
176
     1
290
     1
176
     1
290
     1
176
     1
290
     0
176
     1
290
     0
176
     1
290
     0
176
     1
290
     0
176
     1
290
     0
176
     1
290
     0
176
     1
 90
       50
176
     1
 40
0.0
176
     1
 40
1.0
176
     1
 90
        0
176
     1
 62
    18
420
        0
176
     1
 90
       50
176
     1
 90
        3
176
     1
 62
     5
420
      255
176
     1
290
     0
176
     1
 90
       50
176
     1
 90
       50
176
     1
 90
       50
176
     1
290
     0
176
     1
 90
       50
176
     1
 62
   256
176
     0
 40
1.0
176
     0
 90
        2
176
     1
  1
strokes_ogs.tif
176
     1
290
     0
176
     1
 40
1.0
176
     1
 40
1.0
176
     1
  0
VISUALSTYLE
  5
2D
102
{ACAD_REACTORS
330
29
102
}
330
29
100
AcDbVisualStyle
  2
GouraudWithEdges
 70
     3
177
     3
291
     1
 70
    58
 90
        2
176
     1
 90
        2
176
     1
 90
        1
176
     1
 90
        2
176
     1
 40
0.6
176
     1
 40
30.0
176
     1
 62
     7
420
 16777215
176
     1
 90
        1
176
     1
 90
        0
176
     1
 62
     7
176
     1
 62
   257
176
     1
 90
        1
176
     1
 90
        1
176
     1
 40
1.0
176
     1
 90
        0
176
     1
 62
   257
176
     1
 40
1.0
176
     1
 90
        1
176
     1
 90
        6
176
     1
 90
        2
176
     1
 62
     7
176
     1
 90
        5
176
     1
 90
        0
176
     1
 90
        0
176
     1
290
     0
176
     1
 90
       13
176
     1
 40
0.0
176
     1
 90
        0
176
     1
290
     0
176
     1
290
     1
176
     1
290
     1
176
     1
290
     0
176
     1
290
     0
176
     1
290
     0
176
     1
290
     0
176
     1
290
     0
176
     1
290
     0
176
     1
 90
       50
176
     1
 40
0.0
176
     1
 40
1.0
176
     1
 90
        0
176
     1
 62
    18
420
        0
176
     1
 90
       50
176
     1
 90
        3
176
     1
 62
     5
420
      255
176
     1
290
     0
176
     1
 90
       50
176
     1
 90
       50
176
     1
 90
       50
176
     1
290
     0
176
     1
 90
       50
176
     1
 62
   256
176
     0
 40
1.0
176
     0
 90
        2
176
     1
  1
strokes_ogs.tif
176
     1
290
     0
176
     1
 40
1.0
176
     1
 40
1.0
176
     1
  0
VISUALSTYLE
  5
31
102
{ACAD_REACTORS
330
29
102
}
330
29
100
AcDbVisualStyle
  2
Hidden
 70
     6
177
     3
291
     0
 70
    58
 90
        1
176
     1
 90
        2
176
     1
 90
        2
176
     1
 90
        0
176
     1
 40
0.6
176
     1
 40
30.0
176
     1
 62
     7
420
 16777215
176
     1
 90
        2
176
     1
 90
        2
176
     1
 62
     7
176
     1
 62
   257
176
     1
 90
        2
176
     1
 90
        1
176
     1
 40
40.0
176
     1
 90
        0
176
     1
 62
   257
176
     1
 40
1.0
176
     1
 90
        1
176
     1
 90
        6
176
     1
 90
        2
176
     1
 62
     7
176
     1
 90
        3
176
     1
 90
        0
176
     1
 90
        0
176
     1
290
     0
176
     1
 90
        1
176
     1
 40
0.0
176
     1
 90
        0
176
     1
290
     0
176
     1
290
     1
176
     1
290
     1
176
     1
290
     0
176
     1
290
     0
176
     1
290
     0
176
     1
290
     0
176
     1
290
     0
176
     1
290
     0
176
     1
 90
       50
176
     1
 40
0.0
176
     1
 40
1.0
176
     1
 90
        0
176
     1
 62
    18
420
        0
176
     1
 90
       50
176
     1
 90
        3
176
     1
 62
     5
420
      255
176
     1
290
     0
176
     1
 90
       50
176
     1
 90
       50
176
     1
 90
       50
176
     1
290
     0
176
     1
 90
       50
176
     1
 62
   256
176
     0
 40
1.0
176
     0
 90
        2
176
     1
  1
strokes_ogs.tif
176
     1
290
     0
176
     1
 40
1.0
176
     1
 40
1.0
176
     1
  0
VISUALSTYLE
  5
3F
102
{ACAD_REACTORS
330
29
102
}
330
29
100
AcDbVisualStyle
  2
JitterOff
 70
    20
177
     3
291
     1
 70
    58
 90
        2
176
     0
 90
        2
176
     0
 90
        0
176
     0
 90
        0
176
     0
 40
0.6
176
     0
 40
30.0
176
     0
 62
     7
420
 16777215
176
     0
 90
        1
176
     0
 90
        4
176
     0
 62
     7
176
     0
 62
   257
176
     0
 90
        1
176
     0
 90
        1
176
     0
 40
1.0
176
     0
 90
       10
176
     2
 62
     7
176
     0
 40
1.0
176
     0
 90
        1
176
     0
 90
        6
176
     0
 90
        2
176
     0
 62
     7
176
     0
 90
        5
176
     0
 90
        0
176
     0
 90
        0
176
     0
290
     0
176
     0
 90
        1
176
     0
 40
0.0
176
     0
 90
        0
176
     0
290
     0
176
     0
290
     1
176
     0
290
     1
176
     0
290
     0
176
     0
290
     0
176
     0
290
     0
176
     0
290
     0
176
     0
290
     0
176
     0
290
     0
176
     0
 90
       50
176
     0
 40
0.0
176
     0
 40
1.0
176
     0
 90
        0
176
     0
 62
    18
420
        0
176
     0
 90
       50
176
     0
 90
        3
176
     0
 62
     5
420
      255
176
     0
290
     0
176
     0
 90
       50
176
     0
 90
       50
176
     0
 90
       50
176
     0
290
     0
176
     0
 90
       50
176
     0
 62
   256
176
     0
 40
1.0
176
     0
 90
        2
176
     0
  1
strokes_ogs.tif
176
     0
290
     0
176
     0
 40
1.0
176
     0
 40
1.0
176
     0
  0
VISUALSTYLE
  5
37
102
{ACAD_REACTORS
330
29
102
}
330
29
100
AcDbVisualStyle
  2
Linepattern
 70
    14
177
     3
291
     1
 70
    58
 90
        2
176
     1
 90
        2
176
     1
 90
        0
176
     1
 90
        0
176
     1
 40
0.6
176
     1
 40
30.0
176
     1
 62
     7
420
 16777215
176
     1
 90
        1
176
     1
 90
        4
176
     1
 62
     7
176
     1
 62
   257
176
     1
 90
        7
176
     1
 90
        7
176
     1
 40
1.0
176
     1
 90
        8
176
     1
 62
     7
176
     1
 40
1.0
176
     1
 90
        1
176
     1
 90
        6
176
     1
 90
        2
176
     1
 62
     7
176
     1
 90
        5
176
     1
 90
        0
176
     1
 90
        0
176
     1
290
     0
176
     1
 90
        1
176
     1
 40
0.0
176
     1
 90
        0
176
     1
290
     0
176
     1
290
     1
176
     1
290
     1
176
     1
290
     0
176
     1
290
     0
176
     1
290
     0
176
     1
290
     0
176
     1
290
     0
176
     1
290
     0
176
     1
 90
       50
176
     1
 40
0.0
176
     1
 40
1.0
176
     1
 90
        0
176
     1
 62
    18
420
        0
176
     1
 90
       50
176
     1
 90
        3
176
     1
 62
     5
420
      255
176
     1
290
     0
176
     1
 90
       50
176
     1
 90
       50
176
     1
 90
       50
176
     1
290
     0
176
     1
 90
       50
176
     1
 62
   256
176
     0
 40
1.0
176
     0
 90
        2
176
     1
  1
strokes_ogs.tif
176
     1
290
     0
176
     1
 40
1.0
176
     1
 40
1.0
176
     1
  0
VISUALSTYLE
  5
40
102
{ACAD_REACTORS
330
29
102
}
330
29
100
AcDbVisualStyle
  2
OverhangOff
 70
    21
177
     3
291
     1
 70
    58
 90
        2
176
     0
 90
        2
176
     0
 90
        0
176
     0
 90
        0
176
     0
 40
0.6
176
     0
 40
30.0
176
     0
 62
     7
420
 16777215
176
     0
 90
        1
176
     0
 90
        4
176
     0
 62
     7
176
     0
 62
   257
176
     0
 90
        1
176
     0
 90
        1
176
     0
 40
1.0
176
     0
 90
        9
176
     2
 62
     7
176
     0
 40
1.0
176
     0
 90
        1
176
     0
 90
        6
176
     0
 90
        2
176
     0
 62
     7
176
     0
 90
        5
176
     0
 90
        0
176
     0
 90
        0
176
     0
290
     0
176
     0
 90
        1
176
     0
 40
0.0
176
     0
 90
        0
176
     0
290
     0
176
     0
290
     1
176
     0
290
     1
176
     0
290
     0
176
     0
290
     0
176
     0
290
     0
176
     0
290
     0
176
     0
290
     0
176
     0
290
     0
176
     0
 90
       50
176
     0
 40
0.0
176
     0
 40
1.0
176
     0
 90
        0
176
     0
 62
    18
420
        0
176
     0
 90
       50
176
     0
 90
        3
176
     0
 62
     5
420
      255
176
     0
290
     0
176
     0
 90
       50
176
     0
 90
       50
176
     0
 90
       50
176
     0
290
     0
176
     0
 90
       50
176
     0
 62
   256
176
     0
 40
1.0
176
     0
 90
        2
176
     0
  1
strokes_ogs.tif
176
     0
290
     0
176
     0
 40
1.0
176
     0
 40
1.0
176
     0
  0
VISUALSTYLE
  5
33
102
{ACAD_REACTORS
330
29
102
}
330
29
100
AcDbVisualStyle
  2
Realistic
 70
     8
177
     3
291
     0
 70
    58
 90
        2
176
     1
 90
        3
176
     1
 90
        0
176
     1
 90
        2
176
     1
 40
0.6
176
     1
 40
30.0
176
     1
 62
     7
420
 16777215
176
     1
 90
        0
176
     1
 90
        0
176
     1
 62
     7
176
     1
 62
   257
176
     1
 90
        1
176
     1
 90
        1
176
     1
 40
1.0
176
     1
 90
        8
176
     1
 62
   257
176
     1
 40
1.0
176
     1
 90
        1
176
     1
 90
        6
176
     1
 90
        2
176
     1
 62
     7
176
     1
 90
        3
176
     1
 90
        0
176
     1
 90
        0
176
     1
290
     0
176
     1
 90
       13
176
     1
 40
0.0
176
     1
 90
        0
176
     1
290
     0
176
     1
290
     1
176
     1
290
     1
176
     1
290
     0
176
     1
290
     0
176
     1
290
     0
176
     1
290
     0
176
     1
290
     0
176
     1
290
     0
176
     1
 90
       50
176
     1
 40
0.0
176
     1
 40
1.0
176
     1
 90
        0
176
     1
 62
    18
420
        0
176
     1
 90
       50
176
     1
 90
        3
176
     1
 62
     5
420
      255
176
     1
290
     0
176
     1
 90
       50
176
     1
 90
       50
176
     1
 90
       50
176
     1
290
     0
176
     1
 90
       50
176
     1
 62
   256
176
     0
 40
1.0
176
     0
 90
        2
176
     1
  1
strokes_ogs.tif
176
     1
290
     0
176
     1
 40
1.0
176
     1
 40
1.0
176
     1
  0
VISUALSTYLE
  5
3E
102
{ACAD_REACTORS
330
29
102
}
330
29
100
AcDbVisualStyle
  2
Shaded
 70
    27
177
     3
291
     0
 70
    58
 90
        2
176
     1
 90
        2
176
     1
 90
        1
176
     1
 90
        2
176
     1
 40
0.6
176
     1
 40
30.0
176
     1
 62
     7
420
 16777215
176
     1
 90
        0
176
     1
 90
        4
176
     1
 62
     7
176
     1
 62
   257
176
     1
 90
        1
176
     1
 90
        1
176
     1
 40
1.0
176
     1
 90
        8
176
     1
 62
   257
176
     1
 40
1.0
176
     1
 90
        1
176
     1
 90
        6
176
     1
 90
        2
176
     1
 62
     8
420
  7895160
176
     1
 90
        3
176
     1
 90
        0
176
     1
 90
        0
176
     1
290
     0
176
     1
 90
        5
176
     1
 40
0.0
176
     1
 90
        0
176
     1
290
     0
176
     1
290
     1
176
     1
290
     1
176
     1
290
     0
176
     1
290
     0
176
     1
290
     0
176
     1
290
     0
176
     1
290
     0
176
     1
290
     0
176
     1
 90
       50
176
     1
 40
0.0
176
     1
 40
1.0
176
     1
 90
        0
176
     1
 62
    18
420
        0
176
     1
 90
       50
176
     1
 90
        3
176
     1
 62
     5
420
      255
176
     1
290
     0
176
     1
 90
       50
176
     1
 90
       50
176
     1
 90
       50
176
     1
290
     0
176
     1
 90
       50
176
     1
 62
   256
176
     0
 40
1.0
176
     0
 90
        2
176
     1
  1
strokes_ogs.tif
176
     1
290
     0
176
     1
 40
1.0
176
     1
 40
1.0
176
     1
  0
VISUALSTYLE
  5
3D
102
{ACAD_REACTORS
330
29
102
}
330
29
100
AcDbVisualStyle
  2
Shaded with edges
 70
    26
177
     3
291
     0
 70
    58
 90
        2
176
     1
 90
        2
176
     1
 90
        1
176
     1
 90
        2
176
     1
 40
0.6
176
     1
 40
30.0
176
     1
 62
     7
420
 16777215
176
     1
 90
        1
176
     1
 90
       10
176
     1
 62
     7
176
     1
 62
   257
176
     1
 90
        2
176
     1
 90
        1
176
     1
 40
1.0
176
     1
 90
        8
176
     1
 62
   257
176
     1
 40
1.0
176
     1
 90
        1
176
     1
 90
        6
176
     1
 90
        2
176
     1
 62
     7
176
     1
 90
        3
176
     1
 90
        0
176
     1
 90
        0
176
     1
290
     0
176
     1
 90
        5
176
     1
 40
0.0
176
     1
 90
        0
176
     1
290
     0
176
     1
290
     1
176
     1
290
     1
176
     1
290
     0
176
     1
290
     0
176
     1
290
     0
176
     1
290
     0
176
     1
290
     0
176
     1
290
     0
176
     1
 90
       50
176
     1
 40
0.0
176
     1
 40
1.0
176
     1
 90
        0
176
     1
 62
    18
420
        0
176
     1
 90
       50
176
     1
 90
        3
176
     1
 62
     5
420
      255
176
     1
290
     0
176
     1
 90
       50
176
     1
 90
       50
176
     1
 90
       50
176
     1
290
     0
176
     1
 90
       50
176
     1
 62
   256
176
     0
 40
1.0
176
     0
 90
        2
176
     1
  1
strokes_ogs.tif
176
     1
290
     0
176
     1
 40
1.0
176
     1
 40
1.0
176
     1
  0
VISUALSTYLE
  5
3A
102
{ACAD_REACTORS
330
29
102
}
330
29
100
AcDbVisualStyle
  2
Shades of Gray
 70
    23
177
     3
291
     0
 70
    58
 90
        2
176
     1
 90
        2
176
     1
 90
        3
176
     1
 90
        0
176
     1
 40
0.6
176
     1
 40
30.0
176
     1
 62
     7
420
 16777215
176
     1
 90
        2
176
     1
 90
        2
176
     1
 62
     7
176
     1
 62
     7
176
     1
 90
        1
176
     1
 90
        1
176
     1
 40
40.0
176
     1
 90
        8
176
     1
 62
     7
176
     1
 40
1.0
176
     1
 90
        1
176
     1
 90
        6
176
     1
 90
        2
176
     1
 62
     7
176
     1
 90
        3
176
     1
 90
        0
176
     1
 90
        0
176
     1
290
     0
176
     1
 90
        1
176
     1
 40
0.0
176
     1
 90
        0
176
     1
290
     0
176
     1
290
     1
176
     1
290
     1
176
     1
290
     0
176
     1
290
     0
176
     1
290
     0
176
     1
290
     0
176
     1
290
     0
176
     1
290
     0
176
     1
 90
       50
176
     1
 40
0.0
176
     1
 40
1.0
176
     1
 90
        0
176
     1
 62
    18
420
        0
176
     1
 90
       50
176
     1
 90
        3
176
     1
 62
     5
420
      255
176
     1
290
     0
176
     1
 90
       50
176
     1
 90
       50
176
     1
 90
       50
176
     1
290
     0
176
     1
 90
       50
176
     1
 62
   256
176
     0
 40
1.0
176
     0
 90
        2
176
     1
  1
strokes_ogs.tif
176
     1
290
     0
176
     1
 40
1.0
176
     1
 40
1.0
176
     1
  0
VISUALSTYLE
  5
3B
102
{ACAD_REACTORS
330
29
102
}
330
29
100
AcDbVisualStyle
  2
Sketchy
 70
    24
177
     3
291
     0
 70
    58
 90
        1
176
     1
 90
        2
176
     1
 90
        2
176
     1
 90
        0
176
     1
 40
0.6
176
     1
 40
30.0
176
     1
 62
     7
420
 16777215
176
     1
 90
        2
176
     1
 90
        2
176
     1
 62
     7
176
     1
 62
     7
176
     1
 90
        1
176
     1
 90
        1
176
     1
 40
40.0
176
     1
 90
       11
176
     1
 62
     7
176
     1
 40
1.0
176
     1
 90
        1
176
     1
 90
        6
176
     1
 90
        2
176
     1
 62
     7
176
     1
 90
        6
176
     1
 90
        0
176
     1
 90
        0
176
     1
290
     0
176
     1
 90
        1
176
     1
 40
0.0
176
     1
 90
        0
176
     1
290
     0
176
     1
290
     1
176
     1
290
     1
176
     1
290
     0
176
     1
290
     0
176
     1
290
     0
176
     1
290
     0
176
     1
290
     0
176
     1
290
     0
176
     1
 90
       50
176
     1
 40
0.0
176
     1
 40
1.0
176
     1
 90
        0
176
     1
 62
    18
420
        0
176
     1
 90
       50
176
     1
 90
        3
176
     1
 62
     5
420
      255
176
     1
290
     0
176
     1
 90
       50
176
     1
 90
       50
176
     1
 90
       50
176
     1
290
     0
176
     1
 90
       50
176
     1
 62
   256
176
     0
 40
1.0
176
     0
 90
        2
176
     1
  1
strokes_ogs.tif
176
     1
290
     0
176
     1
 40
1.0
176
     1
 40
1.0
176
     1
  0
VISUALSTYLE
  5
36
102
{ACAD_REACTORS
330
29
102
}
330
29
100
AcDbVisualStyle
  2
Thicken
 70
    13
177
     3
291
     1
 70
    58
 90
        2
176
     1
 90
        2
176
     1
 90
        0
176
     1
 90
        0
176
     1
 40
0.6
176
     1
 40
30.0
176
     1
 62
     7
420
 16777215
176
     1
 90
        1
176
     1
 90
        4
176
     1
 62
     7
176
     1
 62
   257
176
     1
 90
        1
176
     1
 90
        1
176
     1
 40
1.0
176
     1
 90
       12
176
     1
 62
     7
176
     1
 40
1.0
176
     1
 90
        1
176
     1
 90
        6
176
     1
 90
        2
176
     1
 62
     7
176
     1
 90
        5
176
     1
 90
        0
176
     1
 90
        0
176
     1
290
     0
176
     1
 90
        1
176
     1
 40
0.0
176
     1
 90
        0
176
     1
290
     0
176
     1
290
     1
176
     1
290
     1
176
     1
290
     0
176
     1
290
     0
176
     1
290
     0
176
     1
290
     0
176
     1
290
     0
176
     1
290
     0
176
     1
 90
       50
176
     1
 40
0.0
176
     1
 40
1.0
176
     1
 90
        0
176
     1
 62
    18
420
        0
176
     1
 90
       50
176
     1
 90
        3
176
     1
 62
     5
420
      255
176
     1
290
     0
176
     1
 90
       50
176
     1
 90
       50
176
     1
 90
       50
176
     1
290
     0
176
     1
 90
       50
176
     1
 62
   256
176
     0
 40
1.0
176
     0
 90
        2
176
     1
  1
strokes_ogs.tif
176
     1
290
     0
176
     1
 40
1.0
176
     1
 40
1.0
176
     1
  0
VISUALSTYLE
  5
30
102
{ACAD_REACTORS
330
29
102
}
330
29
100
AcDbVisualStyle
  2
Wireframe
 70
     5
177
     3
291
     0
 70
    58
 90
        0
176
     1
 90
        2
176
     1
 90
        0
176
     1
 90
        0
176
     1
 40
0.6
176
     1
 40
30.0
176
     1
 62
     7
420
 16777215
176
     1
 90
        1
176
     1
 90
        4
176
     1
 62
     7
176
     1
 62
   257
176
     1
 90
        1
176
     1
 90
        1
176
     1
 40
1.0
176
     1
 90
        0
176
     1
 62
   257
176
     1
 40
1.0
176
     1
 90
        1
176
     1
 90
        6
176
     1
 90
        2
176
     1
 62
     7
176
     1
 90
        3
176
     1
 90
        0
176
     1
 90
        0
176
     1
290
     0
176
     1
 90
        1
176
     1
 40
0.0
176
     1
 90
        0
176
     1
290
     0
176
     1
290
     1
176
     1
290
     1
176
     1
290
     0
176
     1
290
     0
176
     1
290
     0
176
     1
290
     0
176
     1
290
     0
176
     1
290
     0
176
     1
 90
       50
176
     1
 40
0.0
176
     1
 40
1.0
176
     1
 90
        0
176
     1
 62
    18
420
        0
176
     1
 90
       50
176
     1
 90
        3
176
     1
 62
     5
420
      255
176
     1
290
     0
176
     1
 90
       50
176
     1
 90
       50
176
     1
 90
       50
176
     1
290
     0
176
     1
 90
       50
176
     1
 62
   256
176
     0
 40
1.0
176
     0
 90
        2
176
     1
  1
strokes_ogs.tif
176
     1
290
     0
176
     1
 40
1.0
176
     1
 40
1.0
176
     1
  0
VISUALSTYLE
  5
3C
102
{ACAD_REACTORS
330
29
102
}
330
29
100
AcDbVisualStyle
  2
X-Ray
 70
    25
177
     3
291
     0
 70
    58
 90
        2
176
     1
 90
        2
176
     1
 90
        1
176
     1
 90
        1
176
     1
 40
0.5
176
     1
 40
30.0
176
     1
 62
     7
420
 16777215
176
     1
 90
        1
176
     1
 90
        0
176
     1
 62
     7
176
     1
 62
   257
176
     1
 90
        1
176
     1
 90
        1
176
     1
 40
1.0
176
     1
 90
        8
176
     1
 62
     7
176
     1
 40
1.0
176
     1
 90
        1
176
     1
 90
        6
176
     1
 90
        2
176
     1
 62
     7
176
     1
 90
        3
176
     1
 90
        0
176
     1
 90
        0
176
     1
290
     0
176
     1
 90
       13
176
     1
 40
0.0
176
     1
 90
        0
176
     1
290
     0
176
     1
290
     1
176
     1
290
     1
176
     1
290
     0
176
     1
290
     0
176
     1
290
     0
176
     1
290
     0
176
     1
290
     0
176
     1
290
     0
176
     1
 90
       50
176
     1
 40
0.0
176
     1
 40
1.0
176
     1
 90
        0
176
     1
 62
    18
420
        0
176
     1
 90
       50
176
     1
 90
        3
176
     1
 62
     5
420
      255
176
     1
290
     0
176
     1
 90
       50
176
     1
 90
       50
176
     1
 90
       50
176
     1
290
     0
176
     1
 90
       50
176
     1
 62
   256
176
     0
 40
1.0
176
     0
 90
        2
176
     1
  1
strokes_ogs.tif
176
     1
290
     0
176
     1
 40
1.0
176
     1
 40
1.0
176
     1
  0
DICTIONARYVAR
  5
81
102
{ACAD_REACTORS
330
7C
102
}
330
7C
100
DictionaryVariables
280
     0
  1
1:1
  0
DICTIONARYVAR
  5
7E
102
{ACAD_REACTORS
330
7C
102
}
330
7C
100
DictionaryVariables
280
     0
  1
STANDARD
  0
DICTIONARYVAR
  5
7D
102
{ACAD_REACTORS
330
7C
102
}
330
7C
100
DictionaryVariables
280
     0
  1
STANDARD
  0
DICTIONARYVAR
  5
7F
102
{ACAD_REACTORS
330
7C
102
}
330
7C
100
DictionaryVariables
280
     0
  1
Imperial24
  0
DICTIONARYVAR
  5
80
102
{ACAD_REACTORS
330
7C
102
}
330
7C
100
DictionaryVariables
280
     0
  1
Imperial24
  0
XRECORD
  5
2C9
102
{ACAD_REACTORS
330
2C5
102
}
330
2C5
100
AcDbXrecord
280
     1
  1
BUILDING_ID
  1
Progetto per messa in tavola DXF, DWG
  1
FLOOR_ID
  1
694395
  0
XRECORD
  5
2C7
102
{ACAD_REACTORS
330
2C5
102
}
330
2C5
100
AcDbXrecord
280
     1
  1
-2001160
  1
Apparecchi idraulici
  0
XRECORD
  5
2C8
102
{ACAD_REACTORS
330
2C5
102
}
330
2C5
100
AcDbXrecord
280
     1
  1
790271
  1
Body
  1
923261
  1
Servomotor
  0
XRECORD
  5
2C6
102
{ACAD_REACTORS
330
2C5
102
}
330
2C5
100
AcDbXrecord
280
     1
  1
859151
  1
Automatic flow rate regulator valve_Caleffi_121 DN15 : 1/2''
  0
DICTIONARY
  5
1A
330
19
100
AcDbDictionary
280
     1
281
     1
  3
BUMPTILE
360
1C
  3
DIFFUSETILE
360
1B
  3
OPACITYTILE
360
1F
  3
REFLECTIONTILE
360
1E
  3
REFRACTIONTILE
360
20
  3
SPECULARTILE
360
1D
  0
DICTIONARY
  5
12
330
11
100
AcDbDictionary
280
     1
281
     1
  3
BUMPTILE
360
14
  3
DIFFUSETILE
360
13
  3
OPACITYTILE
360
17
  3
REFLECTIONTILE
360
16
  3
REFRACTIONTILE
360
18
  3
SPECULARTILE
360
15
  0
DICTIONARY
  5
22
330
21
100
AcDbDictionary
280
     1
281
     1
  3
BUMPTILE
360
24
  3
DIFFUSETILE
360
23
  3
OPACITYTILE
360
27
  3
REFLECTIONTILE
360
26
  3
REFRACTIONTILE
360
28
  3
SPECULARTILE
360
25
  0
DICTIONARY
  5
2CC
330
65
100
AcDbDictionary
280
     1
281
     1
  3
ACAD_ROUNDTRIP_2008_TABLESTYLE_CELLSTYLEMAP
360
2CD
  0
XRECORD
  5
1C
102
{ACAD_REACTORS
330
1A
102
}
330
1A
100
AcDbXrecord
280
     1
270
     1
271
     1
  0
XRECORD
  5
1B
102
{ACAD_REACTORS
330
1A
102
}
330
1A
100
AcDbXrecord
280
     1
270
     1
271
     1
  0
XRECORD
  5
1F
102
{ACAD_REACTORS
330
1A
102
}
330
1A
100
AcDbXrecord
280
     1
270
     1
271
     1
  0
XRECORD
  5
1E
102
{ACAD_REACTORS
330
1A
102
}
330
1A
100
AcDbXrecord
280
     1
270
     1
271
     1
  0
XRECORD
  5
20
102
{ACAD_REACTORS
330
1A
102
}
330
1A
100
AcDbXrecord
280
     1
270
     1
271
     1
  0
XRECORD
  5
1D
102
{ACAD_REACTORS
330
1A
102
}
330
1A
100
AcDbXrecord
280
     1
270
     1
271
     1
  0
XRECORD
  5
14
102
{ACAD_REACTORS
330
12
102
}
330
12
100
AcDbXrecord
280
     1
270
     1
271
     1
  0
XRECORD
  5
13
102
{ACAD_REACTORS
330
12
102
}
330
12
100
AcDbXrecord
280
     1
270
     1
271
     1
  0
XRECORD
  5
17
102
{ACAD_REACTORS
330
12
102
}
330
12
100
AcDbXrecord
280
     1
270
     1
271
     1
  0
XRECORD
  5
16
102
{ACAD_REACTORS
330
12
102
}
330
12
100
AcDbXrecord
280
     1
270
     1
271
     1
  0
XRECORD
  5
18
102
{ACAD_REACTORS
330
12
102
}
330
12
100
AcDbXrecord
280
     1
270
     1
271
     1
  0
XRECORD
  5
15
102
{ACAD_REACTORS
330
12
102
}
330
12
100
AcDbXrecord
280
     1
270
     1
271
     1
  0
XRECORD
  5
24
102
{ACAD_REACTORS
330
22
102
}
330
22
100
AcDbXrecord
280
     1
270
     1
271
     1
  0
XRECORD
  5
23
102
{ACAD_REACTORS
330
22
102
}
330
22
100
AcDbXrecord
280
     1
270
     1
271
     1
  0
XRECORD
  5
27
102
{ACAD_REACTORS
330
22
102
}
330
22
100
AcDbXrecord
280
     1
270
     1
271
     1
  0
XRECORD
  5
26
102
{ACAD_REACTORS
330
22
102
}
330
22
100
AcDbXrecord
280
     1
270
     1
271
     1
  0
XRECORD
  5
28
102
{ACAD_REACTORS
330
22
102
}
330
22
100
AcDbXrecord
280
     1
270
     1
271
     1
  0
XRECORD
  5
25
102
{ACAD_REACTORS
330
22
102
}
330
22
100
AcDbXrecord
280
     1
270
     1
271
     1
  0
CELLSTYLEMAP
  5
2CD
102
{ACAD_REACTORS
330
2CC
102
}
330
2CC
100
AcDbCellStyleMap
 90
        3
300
CELLSTYLE
  1
TABLEFORMAT_BEGIN
 90
        5
170
     1
 91
        0
 92
    32768
 62
   257
 93
        1
300
CONTENTFORMAT
  1
CONTENTFORMAT_BEGIN
 90
        0
 91
        0
 92
      512
 93
        0
300

 40
0.0
140
1.0
 94
        5
 62
     0
340
55
144
0.25
309
CONTENTFORMAT_END
171
     0
 94
        0
309
TABLEFORMAT_END
  1
CELLSTYLE_BEGIN
 90
        1
 91
        1
300
_TITLE
309
CELLSTYLE_END
300
CELLSTYLE
  1
TABLEFORMAT_BEGIN
 90
        5
170
     1
 91
        0
 92
        0
 62
   257
 93
        1
300
CONTENTFORMAT
  1
CONTENTFORMAT_BEGIN
 90
        0
 91
        0
 92
      512
 93
        0
300

 40
0.0
140
1.0
 94
        5
 62
     0
340
55
144
0.18
309
CONTENTFORMAT_END
171
     0
 94
        0
309
TABLEFORMAT_END
  1
CELLSTYLE_BEGIN
 90
        2
 91
        1
300
_HEADER
309
CELLSTYLE_END
300
CELLSTYLE
  1
TABLEFORMAT_BEGIN
 90
        5
170
     1
 91
        0
 92
        0
 62
   257
 93
        1
300
CONTENTFORMAT
  1
CONTENTFORMAT_BEGIN
 90
        0
 91
        0
 92
      512
 93
        0
300

 40
0.0
140
1.0
 94
        2
 62
     0
340
55
144
0.18
309
CONTENTFORMAT_END
171
     0
 94
        0
309
TABLEFORMAT_END
  1
CELLSTYLE_BEGIN
 90
        3
 91
        2
300
_DATA
309
CELLSTYLE_END
  0
ENDSEC
  0
EOF
