  0
SECTION
  2
HEADER
  9
$ACADVER
  1
AC1027
  9
$ACADMAINTVER
 70
    20
  9
$DWGCODEPAGE
  3
ANSI_1252
  9
$REQUIREDVERSIONS
160
                 0
  9
$INSBASE
 10
0.0
 20
0.0
 30
0.0
  9
$EXTMIN
 10
719.1664074431217
 20
1759.805988811806
 30
-0.00000001
  9
$EXTMAX
 10
1137.772993861341
 20
2127.110000010071
 30
0.00000001
  9
$LIMMIN
 10
0.0
 20
0.0
  9
$LIMMAX
 10
12.0
 20
9.0
  9
$ORTHOMODE
 70
     0
  9
$REGENMODE
 70
     1
  9
$FILLMODE
 70
     1
  9
$QTEXTMODE
 70
     0
  9
$MIRRTEXT
 70
     0
  9
$LTSCALE
 40
1.0
  9
$ATTMODE
 70
     1
  9
$TEXTSIZE
 40
0.2
  9
$TRACEWID
 40
0.05
  9
$TEXTSTYLE
  7
Standard
  9
$CLAYER
  8
0
  9
$CELTYPE
  6
ByLayer
  9
$CECOLOR
 62
   256
  9
$CELTSCALE
 40
1.0
  9
$DISPSILH
 70
     0
  9
$DIMSCALE
 40
1.0
  9
$DIMASZ
 40
0.18
  9
$DIMEXO
 40
0.0625
  9
$DIMDLI
 40
0.38
  9
$DIMRND
 40
0.0
  9
$DIMDLE
 40
0.0
  9
$DIMEXE
 40
0.18
  9
$DIMTP
 40
0.0
  9
$DIMTM
 40
0.0
  9
$DIMTXT
 40
0.18
  9
$DIMCEN
 40
0.09
  9
$DIMTSZ
 40
0.0
  9
$DIMTOL
 70
     0
  9
$DIMLIM
 70
     0
  9
$DIMTIH
 70
     1
  9
$DIMTOH
 70
     1
  9
$DIMSE1
 70
     0
  9
$DIMSE2
 70
     0
  9
$DIMTAD
 70
     0
  9
$DIMZIN
 70
     0
  9
$DIMBLK
  1

  9
$DIMASO
 70
     1
  9
$DIMSHO
 70
     1
  9
$DIMPOST
  1

  9
$DIMAPOST
  1

  9
$DIMALT
 70
     0
  9
$DIMALTD
 70
     2
  9
$DIMALTF
 40
25.4
  9
$DIMLFAC
 40
1.0
  9
$DIMTOFL
 70
     0
  9
$DIMTVP
 40
0.0
  9
$DIMTIX
 70
     0
  9
$DIMSOXD
 70
     0
  9
$DIMSAH
 70
     0
  9
$DIMBLK1
  1

  9
$DIMBLK2
  1

  9
$DIMSTYLE
  2
Standard
  9
$DIMCLRD
 70
     0
  9
$DIMCLRE
 70
     0
  9
$DIMCLRT
 70
     0
  9
$DIMTFAC
 40
1.0
  9
$DIMGAP
 40
0.09
  9
$DIMJUST
 70
     0
  9
$DIMSD1
 70
     0
  9
$DIMSD2
 70
     0
  9
$DIMTOLJ
 70
     1
  9
$DIMTZIN
 70
     0
  9
$DIMALTZ
 70
     0
  9
$DIMALTTZ
 70
     0
  9
$DIMUPT
 70
     0
  9
$DIMDEC
 70
     4
  9
$DIMTDEC
 70
     4
  9
$DIMALTU
 70
     2
  9
$DIMALTTD
 70
     2
  9
$DIMTXSTY
  7
Standard
  9
$DIMAUNIT
 70
     0
  9
$DIMADEC
 70
     0
  9
$DIMALTRND
 40
0.0
  9
$DIMAZIN
 70
     0
  9
$DIMDSEP
 70
    46
  9
$DIMATFIT
 70
     3
  9
$DIMFRAC
 70
     0
  9
$DIMLDRBLK
  1

  9
$DIMLUNIT
 70
     2
  9
$DIMLWD
 70
    -2
  9
$DIMLWE
 70
    -2
  9
$DIMTMOVE
 70
     0
  9
$DIMFXL
 40
1.0
  9
$DIMFXLON
 70
     0
  9
$DIMJOGANG
 40
0.7853981633974483
  9
$DIMTFILL
 70
     0
  9
$DIMTFILLCLR
 70
     0
  9
$DIMARCSYM
 70
     0
  9
$DIMLTYPE
  6

  9
$DIMLTEX1
  6

  9
$DIMLTEX2
  6

  9
$DIMTXTDIRECTION
 70
     0
  9
$LUNITS
 70
     2
  9
$LUPREC
 70
     4
  9
$SKETCHINC
 40
0.1
  9
$FILLETRAD
 40
0.0
  9
$AUNITS
 70
     0
  9
$AUPREC
 70
     0
  9
$MENU
  1
.
  9
$ELEVATION
 40
0.0
  9
$PELEVATION
 40
0.0
  9
$THICKNESS
 40
0.0
  9
$LIMCHECK
 70
     0
  9
$CHAMFERA
 40
0.0
  9
$CHAMFERB
 40
0.0
  9
$CHAMFERC
 40
0.0
  9
$CHAMFERD
 40
0.0
  9
$SKPOLY
 70
     0
  9
$TDCREATE
 40
2457562.371557743
  9
$TDUCREATE
 40
2457562.288224410
  9
$TDUPDATE
 40
2457562.371557743
  9
$TDUUPDATE
 40
2457562.288224410
  9
$TDINDWG
 40
0.0000090625
  9
$TDUSRTIMER
 40
0.0000090625
  9
$USRTIMER
 70
     1
  9
$ANGBASE
 50
0.0
  9
$ANGDIR
 70
     0
  9
$PDMODE
 70
     0
  9
$PDSIZE
 40
0.0
  9
$PLINEWID
 40
0.0
  9
$SPLFRAME
 70
     0
  9
$SPLINETYPE
 70
     6
  9
$SPLINESEGS
 70
     8
  9
$HANDSEED
  5
2BC
  9
$SURFTAB1
 70
     6
  9
$SURFTAB2
 70
     6
  9
$SURFTYPE
 70
     6
  9
$SURFU
 70
     6
  9
$SURFV
 70
     6
  9
$UCSBASE
  2

  9
$UCSNAME
  2

  9
$UCSORG
 10
0.0
 20
0.0
 30
0.0
  9
$UCSXDIR
 10
1.0
 20
0.0
 30
0.0
  9
$UCSYDIR
 10
0.0
 20
1.0
 30
0.0
  9
$UCSORTHOREF
  2

  9
$UCSORTHOVIEW
 70
     0
  9
$UCSORGTOP
 10
0.0
 20
0.0
 30
0.0
  9
$UCSORGBOTTOM
 10
0.0
 20
0.0
 30
0.0
  9
$UCSORGLEFT
 10
0.0
 20
0.0
 30
0.0
  9
$UCSORGRIGHT
 10
0.0
 20
0.0
 30
0.0
  9
$UCSORGFRONT
 10
0.0
 20
0.0
 30
0.0
  9
$UCSORGBACK
 10
0.0
 20
0.0
 30
0.0
  9
$PUCSBASE
  2

  9
$PUCSNAME
  2

  9
$PUCSORG
 10
0.0
 20
0.0
 30
0.0
  9
$PUCSXDIR
 10
1.0
 20
0.0
 30
0.0
  9
$PUCSYDIR
 10
0.0
 20
1.0
 30
0.0
  9
$PUCSORTHOREF
  2

  9
$PUCSORTHOVIEW
 70
     0
  9
$PUCSORGTOP
 10
0.0
 20
0.0
 30
0.0
  9
$PUCSORGBOTTOM
 10
0.0
 20
0.0
 30
0.0
  9
$PUCSORGLEFT
 10
0.0
 20
0.0
 30
0.0
  9
$PUCSORGRIGHT
 10
0.0
 20
0.0
 30
0.0
  9
$PUCSORGFRONT
 10
0.0
 20
0.0
 30
0.0
  9
$PUCSORGBACK
 10
0.0
 20
0.0
 30
0.0
  9
$USERI1
 70
     0
  9
$USERI2
 70
     0
  9
$USERI3
 70
     0
  9
$USERI4
 70
     0
  9
$USERI5
 70
     0
  9
$USERR1
 40
0.0
  9
$USERR2
 40
0.0
  9
$USERR3
 40
0.0
  9
$USERR4
 40
0.0
  9
$USERR5
 40
0.0
  9
$WORLDVIEW
 70
     1
  9
$SHADEDGE
 70
     3
  9
$SHADEDIF
 70
    70
  9
$TILEMODE
 70
     1
  9
$MAXACTVP
 70
    64
  9
$PINSBASE
 10
0.0
 20
0.0
 30
0.0
  9
$PLIMCHECK
 70
     0
  9
$PEXTMIN
 10
1.000000000000000E+20
 20
1.000000000000000E+20
 30
1.000000000000000E+20
  9
$PEXTMAX
 10
-1.000000000000000E+20
 20
-1.000000000000000E+20
 30
-1.000000000000000E+20
  9
$PLIMMIN
 10
0.0
 20
0.0
  9
$PLIMMAX
 10
12.0
 20
9.0
  9
$UNITMODE
 70
     0
  9
$VISRETAIN
 70
     1
  9
$PLINEGEN
 70
     0
  9
$PSLTSCALE
 70
     1
  9
$TREEDEPTH
 70
  3020
  9
$CMLSTYLE
  2
Standard
  9
$CMLJUST
 70
     0
  9
$CMLSCALE
 40
1.0
  9
$PROXYGRAPHICS
 70
     1
  9
$MEASUREMENT
 70
     1
  9
$CELWEIGHT
370
    -1
  9
$ENDCAPS
280
     0
  9
$JOINSTYLE
280
     0
  9
$LWDISPLAY
290
     0
  9
$INSUNITS
 70
     4
  9
$HYPERLINKBASE
  1

  9
$STYLESHEET
  1

  9
$XEDIT
290
     1
  9
$CEPSNTYPE
380
     0
  9
$PSTYLEMODE
290
     1
  9
$FINGERPRINTGUID
  2
{F85AF0E2-73F6-47EC-898B-433E4B977491}
  9
$VERSIONGUID
  2
{D9F3A12F-59AE-47B3-A443-777F5546917C}
  9
$EXTNAMES
290
     1
  9
$PSVPSCALE
 40
0.0
  9
$OLESTARTUP
290
     0
  9
$SORTENTS
280
   127
  9
$INDEXCTL
280
     0
  9
$HIDETEXT
280
     1
  9
$XCLIPFRAME
280
     2
  9
$HALOGAP
280
     0
  9
$OBSCOLOR
 70
   257
  9
$OBSLTYPE
280
     0
  9
$INTERSECTIONDISPLAY
280
     0
  9
$INTERSECTIONCOLOR
 70
   257
  9
$DIMASSOC
280
     2
  9
$PROJECTNAME
  1

  9
$CAMERADISPLAY
290
     0
  9
$LENSLENGTH
 40
50.0
  9
$CAMERAHEIGHT
 40
0.0
  9
$STEPSPERSEC
 40
2.0
  9
$STEPSIZE
 40
6.0
  9
$3DDWFPREC
 40
2.0
  9
$PSOLWIDTH
 40
0.25
  9
$PSOLHEIGHT
 40
4.0
  9
$LOFTANG1
 40
1.570796326794896
  9
$LOFTANG2
 40
1.570796326794896
  9
$LOFTMAG1
 40
0.0
  9
$LOFTMAG2
 40
0.0
  9
$LOFTPARAM
 70
     7
  9
$LOFTNORMALS
280
     1
  9
$LATITUDE
 40
37.795
  9
$LONGITUDE
 40
-122.394
  9
$NORTHDIRECTION
 40
0.0
  9
$TIMEZONE
 70
 -8000
  9
$LIGHTGLYPHDISPLAY
280
     1
  9
$TILEMODELIGHTSYNCH
280
     1
  9
$CMATERIAL
347
11
  9
$SOLIDHIST
280
     0
  9
$SHOWHIST
280
     1
  9
$DWFFRAME
280
     2
  9
$DGNFRAME
280
     0
  9
$REALWORLDSCALE
290
     1
  9
$INTERFERECOLOR
 62
     1
  9
$INTERFEREOBJVS
345
33
  9
$INTERFEREVPVS
346
30
  9
$CSHADOW
280
     0
  9
$SHADOWPLANELOCATION
 40
0.0
  0
ENDSEC
  0
SECTION
  2
CLASSES
  0
CLASS
  1
ACDBDICTIONARYWDFLT
  2
AcDbDictionaryWithDefault
  3
ObjectDBX Classes
 90
        0
 91
        1
280
     0
281
     0
  0
CLASS
  1
MATERIAL
  2
AcDbMaterial
  3
ObjectDBX Classes
 90
     1153
 91
        3
280
     0
281
     0
  0
CLASS
  1
VISUALSTYLE
  2
AcDbVisualStyle
  3
ObjectDBX Classes
 90
     4095
 91
       24
280
     0
281
     0
  0
CLASS
  1
SCALE
  2
AcDbScale
  3
ObjectDBX Classes
 90
     1153
 91
       17
280
     0
281
     0
  0
CLASS
  1
TABLESTYLE
  2
AcDbTableStyle
  3
ObjectDBX Classes
 90
     4095
 91
        1
280
     0
281
     0
  0
CLASS
  1
MLEADERSTYLE
  2
AcDbMLeaderStyle
  3
ACDB_MLEADERSTYLE_CLASS
 90
     4095
 91
        1
280
     0
281
     0
  0
CLASS
  1
ACDBSECTIONVIEWSTYLE
  2
AcDbSectionViewStyle
  3
ObjectDBX Classes
 90
     1025
 91
        1
280
     0
281
     0
  0
CLASS
  1
ACDBDETAILVIEWSTYLE
  2
AcDbDetailViewStyle
  3
ObjectDBX Classes
 90
     1025
 91
        1
280
     0
281
     0
  0
CLASS
  1
RASTERVARIABLES
  2
AcDbRasterVariables
  3
ISM
 90
        0
 91
        1
280
     0
281
     0
  0
CLASS
  1
DICTIONARYVAR
  2
AcDbDictionaryVar
  3
ObjectDBX Classes
 90
        0
 91
        5
280
     0
281
     0
  0
CLASS
  1
CELLSTYLEMAP
  2
AcDbCellStyleMap
  3
ObjectDBX Classes
 90
     1152
 91
        2
280
     0
281
     0
  0
CLASS
  1
SORTENTSTABLE
  2
AcDbSortentsTable
  3
ObjectDBX Classes
 90
        0
 91
        1
280
     0
281
     0
  0
ENDSEC
  0
SECTION
  2
TABLES
  0
TABLE
  2
VPORT
  5
8
330
0
100
AcDbSymbolTable
 70
     1
  0
VPORT
  5
57
330
8
100
AcDbSymbolTableRecord
100
AcDbViewportTableRecord
  2
*Active
 70
     0
 10
0.0
 20
0.0
 11
1.0
 21
1.0
 12
928.4697006522314
 22
1943.457994410939
 13
0.0
 23
0.0
 14
1.0
 24
1.0
 15
0.0
 25
0.0
 16
0.0
 26
0.0
 36
1.0
 17
0.0
 27
0.0
 37
0.0
 40
367.3040111982643
 41
1.139673332323787
 42
50.0
 43
0.0
 44
0.0
 50
0.0
 51
0.0
 71
     0
 72
  1000
 73
     1
 74
     1
 75
     0
 76
     0
 77
     0
 78
     0
281
     0
 65
     1
110
0.0
120
0.0
130
0.0
111
1.0
121
0.0
131
0.0
112
0.0
122
1.0
132
0.0
 79
     0
146
0.0
 60
     3
 61
     5
292
     1
282
     1
141
0.0
142
0.0
 63
   250
421
  3355443
  0
ENDTAB
  0
TABLE
  2
LTYPE
  5
5
330
0
100
AcDbSymbolTable
 70
     3
  0
LTYPE
  5
5B
330
5
100
AcDbSymbolTableRecord
100
AcDbLinetypeTableRecord
  2
ByBlock
 70
     0
  3

 72
    65
 73
     0
 40
0.0
  0
LTYPE
  5
5C
330
5
100
AcDbSymbolTableRecord
100
AcDbLinetypeTableRecord
  2
ByLayer
 70
     0
  3

 72
    65
 73
     0
 40
0.0
  0
LTYPE
  5
5D
330
5
100
AcDbSymbolTableRecord
100
AcDbLinetypeTableRecord
  2
Continuous
 70
     0
  3
Solid line
 72
    65
 73
     0
 40
0.0
  0
LTYPE
  5
69
330
5
100
AcDbSymbolTableRecord
100
AcDbLinetypeTableRecord
  2
PHANTOM2
 70
     0
  3
___ _ _ ___ _ _ ___ _ _ ___ _ _
 72
    65
 73
     6
 40
1.25
 49
0.625
 74
     0
 49
-0.125
 74
     0
 49
0.125
 74
     0
 49
-0.125
 74
     0
 49
0.125
 74
     0
 49
-0.125
 74
     0
  0
LTYPE
  5
86
330
5
100
AcDbSymbolTableRecord
100
AcDbLinetypeTableRecord
  2
Nascosto 1_5 mm
 70
     0
  3

 72
    65
 73
     2
 40
2.2
 49
1.5
 74
     0
 49
-0.7000000000000001
 74
     0
  0
ENDTAB
  0
TABLE
  2
LAYER
  5
2
330
0
100
AcDbSymbolTable
 70
     4
  0
LAYER
  5
54
330
2
100
AcDbSymbolTableRecord
100
AcDbLayerTableRecord
  2
0
 70
     0
 62
     7
  6
Continuous
370
    -3
390
F
347
21
348
0
  0
LAYER
  5
85
330
2
100
AcDbSymbolTableRecord
100
AcDbLayerTableRecord
  2
P-SANR-FIXT
 70
     0
 62
     6
  6
Continuous
370
    18
390
F
347
21
348
0
  0
LAYER
  5
88
330
2
100
AcDbSymbolTableRecord
100
AcDbLayerTableRecord
  2
M-PIPE
 70
     0
 62
     3
  6
Continuous
370
    18
390
F
347
21
348
0
  0
ENDTAB
  0
TABLE
  2
STYLE
  5
3
330
0
100
AcDbSymbolTable
 70
     2
  0
STYLE
  5
55
330
3
100
AcDbSymbolTableRecord
100
AcDbTextStyleTableRecord
  2
Standard
 70
     0
 40
0.0
 41
1.0
 50
0.0
 71
     0
 42
0.2
  3
txt
  4

  0
STYLE
  5
5A
330
3
100
AcDbSymbolTableRecord
100
AcDbTextStyleTableRecord
  2
Annotative
 70
     0
 40
0.0
 41
1.0
 50
0.0
 71
     0
 42
0.2
  3
txt
  4

1001
AcadAnnotative
1000
AnnotativeData
1002
{
1070
     1
1070
     1
1002
}
  0
ENDTAB
  0
TABLE
  2
VIEW
  5
6
330
0
100
AcDbSymbolTable
 70
     0
  0
ENDTAB
  0
TABLE
  2
UCS
  5
7
330
0
100
AcDbSymbolTable
 70
     0
  0
ENDTAB
  0
TABLE
  2
APPID
  5
9
330
0
100
AcDbSymbolTable
 70
     3
  0
APPID
  5
56
330
9
100
AcDbSymbolTableRecord
100
AcDbRegAppTableRecord
  2
ACAD
 70
     0
  0
APPID
  5
5E
330
9
100
AcDbSymbolTableRecord
100
AcDbRegAppTableRecord
  2
AcadAnnotative
 70
     0
  0
APPID
  5
79
330
9
100
AcDbSymbolTableRecord
100
AcDbRegAppTableRecord
  2
REVIT
 70
     0
  0
ENDTAB
  0
TABLE
  2
DIMSTYLE
  5
A
330
0
100
AcDbSymbolTable
 70
     2
100
AcDbDimStyleTable
 71
     0
  0
DIMSTYLE
105
58
330
A
100
AcDbSymbolTableRecord
100
AcDbDimStyleTableRecord
  2
Standard
 70
     0
340
55
  0
DIMSTYLE
105
59
330
A
100
AcDbSymbolTableRecord
100
AcDbDimStyleTableRecord
  2
Annotative
 70
     0
340
55
1001
AcadAnnotative
1000
AnnotativeData
1002
{
1070
     1
1070
     1
1002
}
  0
ENDTAB
  0
TABLE
  2
BLOCK_RECORD
  5
1
330
0
100
AcDbSymbolTable
 70
     4
  0
BLOCK_RECORD
  5
71
102
{ACAD_XDICTIONARY
360
2B7
102
}
330
1
100
AcDbSymbolTableRecord
100
AcDbBlockTableRecord
  2
*Model_Space
340
74
 70
     0
280
     1
281
     0
  0
BLOCK_RECORD
  5
6D
330
1
100
AcDbSymbolTableRecord
100
AcDbBlockTableRecord
  2
*Paper_Space
340
70
 70
     0
280
     1
281
     0
  0
BLOCK_RECORD
  5
75
330
1
100
AcDbSymbolTableRecord
100
AcDbBlockTableRecord
  2
*Paper_Space0
340
78
 70
     0
280
     1
281
     0
  0
BLOCK_RECORD
  5
87
330
1
100
AcDbSymbolTableRecord
100
AcDbBlockTableRecord
  2
Automatic flow rate regulator valve_Caleffi_121 DN15 - 1_2__-859151-Est - Idraulica
340
0
102
{BLKREFS
331
151
102
}
 70
     0
280
     1
281
     0
  0
BLOCK_RECORD
  5
152
330
1
100
AcDbSymbolTableRecord
100
AcDbBlockTableRecord
  2
Automatic flow rate regulator valve_Caleffi_121 DN15 - 1_2__-V1-Est - Idraulica
340
0
102
{BLKREFS
331
1B9
102
}
 70
     0
280
     1
281
     0
  0
BLOCK_RECORD
  5
1BA
330
1
100
AcDbSymbolTableRecord
100
AcDbBlockTableRecord
  2
Automatic flow rate regulator valve_Caleffi_121 DN15 - 1_2__-V2-Est - Idraulica
340
0
102
{BLKREFS
331
2B0
102
}
 70
     0
280
     1
281
     0
  0
ENDTAB
  0
ENDSEC
  0
SECTION
  2
BLOCKS
  0
BLOCK
  5
72
330
71
100
AcDbEntity
  8
0
100
AcDbBlockBegin
  2
*Model_Space
 70
     0
 10
0.0
 20
0.0
 30
0.0
  3
*Model_Space
  1

  0
ENDBLK
  5
73
330
71
100
AcDbEntity
  8
0
100
AcDbBlockEnd
  0
BLOCK
  5
6E
330
6D
100
AcDbEntity
 67
     1
  8
0
100
AcDbBlockBegin
  2
*Paper_Space
 70
     0
 10
0.0
 20
0.0
 30
0.0
  3
*Paper_Space
  1

  0
ENDBLK
  5
6F
330
6D
100
AcDbEntity
 67
     1
  8
0
100
AcDbBlockEnd
  0
BLOCK
  5
76
330
75
100
AcDbEntity
 67
     1
  8
0
100
AcDbBlockBegin
  2
*Paper_Space0
 70
     0
 10
0.0
 20
0.0
 30
0.0
  3
*Paper_Space0
  1

  0
ENDBLK
  5
77
330
75
100
AcDbEntity
 67
     1
  8
0
100
AcDbBlockEnd
  0
BLOCK
  5
14F
330
87
100
AcDbEntity
  8
0
100
AcDbBlockBegin
  2
Automatic flow rate regulator valve_Caleffi_121 DN15 - 1_2__-859151-Est - Idraulica
 70
     0
 10
0.0
 20
0.0
 30
0.0
  3
Automatic flow rate regulator valve_Caleffi_121 DN15 - 1_2__-859151-Est - Idraulica
  1

  0
LINE
  5
89
330
87
100
AcDbEntity
  8
M-PIPE
100
AcDbLine
 10
803.8664074431913
 20
2111.025944369272
 30
0.0
 11
803.8664074431913
 21
2110.110000000088
 31
0.0
1001
REVIT
1002
{
1070
     3
1000
923261
1002
}
  0
LINE
  5
8A
330
87
100
AcDbEntity
  8
M-PIPE
100
AcDbLine
 10
827.4664074431912
 20
2110.110000000088
 30
0.0
 11
827.4664074431912
 21
2111.025944369272
 31
0.0
1001
REVIT
1002
{
1070
     3
1000
923261
1002
}
  0
LINE
  5
8B
330
87
100
AcDbEntity
  8
M-PIPE
100
AcDbLine
 10
818.4948345679154
 20
2127.110000000071
 30
0.0
 11
791.9783302734205
 21
2127.110000000071
 31
0.0
1001
REVIT
1002
{
1070
     3
1000
923261
1002
}
  0
LINE
  5
8C
330
87
100
AcDbEntity
  8
M-PIPE
100
AcDbLine
 10
791.9783302734205
 20
2127.110000000071
 30
0.0
 11
791.9783302734203
 21
2123.110000000071
 31
0.0
1001
REVIT
1002
{
1070
     3
1000
923261
1002
}
  0
LINE
  5
8D
330
87
100
AcDbEntity
  8
M-PIPE
100
AcDbLine
 10
791.9783302734203
 20
2123.110000000071
 30
0.0
 11
812.9689415382973
 21
2123.110000000071
 31
0.0
1001
REVIT
1002
{
1070
     3
1000
923261
1002
}
  0
ELLIPSE
  5
8E
330
87
100
AcDbEntity
  8
M-PIPE
100
AcDbEllipse
 10
812.9689415382971
 20
2119.295207133327
 30
0.0
 11
0.0
 21
3.814792866744028
 31
0.0
210
0.0
220
0.0
230
1.0
 40
0.7071067811865332
 41
4.712388980381943
 42
6.283185307179588
1001
REVIT
1002
{
1070
     3
1000
923261
1002
}
  0
LINE
  5
8F
330
87
100
AcDbEntity
  8
M-PIPE
100
AcDbLine
 10
815.6664074431938
 20
2119.295207133317
 30
0.0
 11
815.6664074431779
 21
2111.025944369271
 31
0.0
1001
REVIT
1002
{
1070
     3
1000
923261
1002
}
  0
LINE
  5
90
330
87
100
AcDbEntity
  8
M-PIPE
100
AcDbLine
 10
815.6664074431779
 20
2111.025944369271
 30
0.0
 11
832.363240743416
 21
2111.025944369271
 31
0.0
1001
REVIT
1002
{
1070
     3
1000
923261
1002
}
  0
ELLIPSE
  5
91
330
87
100
AcDbEntity
  8
M-PIPE
100
AcDbEllipse
 10
818.4948345679154
 20
2107.110000000071
 30
0.0
 11
0.0
 21
19.9999999999998
 31
0.0
210
0.0
220
0.0
230
1.0
 40
0.7071067811865516
 41
4.909459318332691
 42
6.283185307179565
1001
REVIT
1002
{
1070
     3
1000
923261
1002
}
  0
ELLIPSE
  5
92
330
87
100
AcDbEntity
  8
M-PIPE
100
AcDbEllipse
 10
795.99837878982
 20
2119.295207133328
 30
0.0
 11
0.0
 21
3.814792866744028
 31
0.0
210
0.0
220
0.0
230
1.0
 40
0.7071067811865332
 41
4.712388980381943
 42
6.283185307179539
1001
REVIT
1002
{
1070
     3
1000
923261
1002
}
  0
LINE
  5
93
330
87
100
AcDbEntity
  8
M-PIPE
100
AcDbLine
 10
775.0077675249435
 20
2123.110000000071
 30
0.0
 11
775.0077675249435
 21
2127.110000000071
 31
0.0
1001
REVIT
1002
{
1070
     3
1000
923261
1002
}
  0
LINE
  5
94
330
87
100
AcDbEntity
  8
M-PIPE
100
AcDbLine
 10
798.6958446947007
 20
2111.025944369271
 30
0.0
 11
798.6958446947166
 21
2119.295207133317
 31
0.0
1001
REVIT
1002
{
1070
     3
1000
923261
1002
}
  0
LINE
  5
95
330
87
100
AcDbEntity
  8
M-PIPE
100
AcDbLine
 10
775.0077675249435
 20
2127.110000000071
 30
0.0
 11
791.9783302734205
 21
2127.110000000071
 31
0.0
1001
REVIT
1002
{
1070
     3
1000
923261
1002
}
  0
LINE
  5
96
330
87
100
AcDbEntity
  8
M-PIPE
100
AcDbLine
 10
775.0077675249435
 20
2123.110000000071
 30
0.0
 11
791.9783302734203
 21
2123.110000000071
 31
0.0
1001
REVIT
1002
{
1070
     3
1000
923261
1002
}
  0
LINE
  5
97
330
87
100
AcDbEntity
  8
M-PIPE
100
AcDbLine
 10
798.6958446947007
 20
2111.025944369271
 30
0.0
 11
815.6664074431779
 21
2111.025944369271
 31
0.0
1001
REVIT
1002
{
1070
     3
1000
923261
1002
}
  0
LINE
  5
98
330
87
100
AcDbEntity
  8
M-PIPE
100
AcDbLine
 10
770.1664074431584
 20
2101.110000000057
 30
0.0
 11
762.1664074431584
 21
2101.110000000057
 31
0.0
1001
REVIT
1002
{
1070
     3
1000
923261
1002
}
  0
LINE
  5
99
330
87
100
AcDbEntity
  8
M-PIPE
100
AcDbLine
 10
762.1664074431581
 20
2077.110000000057
 30
0.0
 11
770.166407443158
 21
2077.110000000057
 31
0.0
1001
REVIT
1002
{
1070
     3
1000
923261
1002
}
  0
LINE
  5
9A
330
87
100
AcDbEntity
  8
M-PIPE
100
AcDbLine
 10
757.1664074431574
 20
2081.110000000057
 30
0.0
 11
762.1664074431581
 21
2081.110000000057
 31
0.0
1001
REVIT
1002
{
1070
     3
1000
923261
1002
}
  0
LINE
  5
9B
330
87
100
AcDbEntity
  8
M-PIPE
100
AcDbLine
 10
770.1664074431582
 20
2081.110000000057
 30
0.0
 11
783.1664074431571
 21
2081.110000000057
 31
0.0
1001
REVIT
1002
{
1070
     3
1000
923261
1002
}
  0
LINE
  5
9C
330
87
100
AcDbEntity
  8
M-PIPE
100
AcDbLine
 10
783.1664074431576
 20
2097.110000000057
 30
0.0
 11
770.1664074431584
 21
2097.110000000057
 31
0.0
1001
REVIT
1002
{
1070
     3
1000
923261
1002
}
  0
LINE
  5
9D
330
87
100
AcDbEntity
  8
M-PIPE
100
AcDbLine
 10
762.1664074431582
 20
2097.110000000057
 30
0.0
 11
757.1664074431578
 21
2097.110000000057
 31
0.0
1001
REVIT
1002
{
1070
     3
1000
923261
1002
}
  0
LINE
  5
9E
330
87
100
AcDbEntity
  8
M-PIPE
100
AcDbLine
 10
828.1664074431695
 20
2030.999999999994
 30
0.0
 11
828.1664074431695
 21
2047.900000000057
 31
0.0
1001
REVIT
1002
{
1070
     3
1000
923261
1002
}
  0
LINE
  5
9F
330
87
100
AcDbEntity
  8
M-PIPE
100
AcDbLine
 10
803.1664074431695
 20
2047.900000000057
 30
0.0
 11
803.1664074431695
 21
2030.999999999994
 31
0.0
1001
REVIT
1002
{
1070
     3
1000
923261
1002
}
  0
LINE
  5
A0
330
87
100
AcDbEntity
  8
M-PIPE
100
AcDbLine
 10
857.5182691002092
 20
2039.900000000058
 30
0.0
 11
857.5182691002092
 21
2047.900000000057
 31
0.0
1001
REVIT
1002
{
1070
     3
1000
923261
1002
}
  0
LINE
  5
A1
330
87
100
AcDbEntity
  8
M-PIPE
100
AcDbLine
 10
841.5182691002092
 20
2047.900000000057
 30
0.0
 11
841.5182691002092
 21
2039.900000000058
 31
0.0
1001
REVIT
1002
{
1070
     3
1000
923261
1002
}
  0
LINE
  5
A2
330
87
100
AcDbEntity
  8
M-PIPE
100
AcDbLine
 10
853.5182691002093
 20
2108.110000000057
 30
0.0
 11
853.5182691002093
 21
2118.109999999994
 31
0.0
1001
REVIT
1002
{
1070
     3
1000
923261
1002
}
  0
LINE
  5
A3
330
87
100
AcDbEntity
  8
M-PIPE
100
AcDbLine
 10
845.5182691002091
 20
2118.109999999994
 30
0.0
 11
845.5182691002091
 21
2108.110000000057
 31
0.0
1001
REVIT
1002
{
1070
     3
1000
923261
1002
}
  0
LINE
  5
A4
330
87
100
AcDbEntity
  8
M-PIPE
100
AcDbLine
 10
857.5182691002092
 20
2118.109999999994
 30
0.0
 11
857.5182691002092
 21
2123.110000000057
 31
0.0
1001
REVIT
1002
{
1070
     3
1000
923261
1002
}
  0
LINE
  5
A5
330
87
100
AcDbEntity
  8
M-PIPE
100
AcDbLine
 10
841.5182691002092
 20
2123.110000000057
 30
0.0
 11
841.5182691002092
 21
2118.109999999994
 31
0.0
1001
REVIT
1002
{
1070
     3
1000
923261
1002
}
  0
LINE
  5
A6
330
87
100
AcDbEntity
  8
M-PIPE
100
AcDbLine
 10
827.6664074431694
 20
2108.110000000058
 30
0.0
 11
827.6664074431694
 21
2110.110000000057
 31
0.0
1001
REVIT
1002
{
1070
     3
1000
923261
1002
}
  0
LINE
  5
A7
330
87
100
AcDbEntity
  8
M-PIPE
100
AcDbLine
 10
803.6664074431694
 20
2110.110000000057
 30
0.0
 11
803.6664074431694
 21
2108.110000000058
 31
0.0
1001
REVIT
1002
{
1070
     3
1000
923261
1002
}
  0
LINE
  5
A8
330
87
100
AcDbEntity
  8
M-PIPE
100
AcDbLine
 10
770.1664074431569
 20
2101.110000000057
 30
0.0
 11
770.1664074431566
 21
2089.110000000057
 31
0.0
1001
REVIT
1002
{
1070
     3
1000
923261
1002
}
  0
LINE
  5
A9
330
87
100
AcDbEntity
  8
M-PIPE
100
AcDbLine
 10
770.1664074431566
 20
2089.110000000057
 30
0.0
 11
770.1664074431565
 21
2077.110000000057
 31
0.0
1001
REVIT
1002
{
1070
     3
1000
923261
1002
}
  0
LINE
  5
AA
330
87
100
AcDbEntity
  8
M-PIPE
100
AcDbLine
 10
762.1664074431566
 20
2077.110000000057
 30
0.0
 11
762.1664074431568
 21
2089.110000000057
 31
0.0
1001
REVIT
1002
{
1070
     3
1000
923261
1002
}
  0
LINE
  5
AB
330
87
100
AcDbEntity
  8
M-PIPE
100
AcDbLine
 10
762.1664074431568
 20
2089.110000000057
 30
0.0
 11
762.1664074431568
 21
2101.110000000057
 31
0.0
1001
REVIT
1002
{
1070
     3
1000
923261
1002
}
  0
LINE
  5
AC
330
87
100
AcDbEntity
  8
M-PIPE
100
AcDbLine
 10
757.1664074431562
 20
2089.110000000057
 30
0.0
 11
757.1664074431562
 21
2097.110000000057
 31
0.0
1001
REVIT
1002
{
1070
     3
1000
923261
1002
}
  0
LINE
  5
AD
330
87
100
AcDbEntity
  8
M-PIPE
100
AcDbLine
 10
757.1664074431559
 20
2081.110000000057
 30
0.0
 11
757.1664074431562
 21
2089.110000000057
 31
0.0
1001
REVIT
1002
{
1070
     3
1000
923261
1002
}
  0
ARC
  5
AE
330
87
100
AcDbEntity
  8
M-PIPE
100
AcDbCircle
 10
803.1664074431564
 20
2067.900000000056
 30
0.0
 40
20.00000000000015
100
AcDbArc
 50
179.9999999999997
 51
269.9999999999987
1001
REVIT
1002
{
1070
     3
1000
923261
1002
}
  0
LINE
  5
AF
330
87
100
AcDbEntity
  8
M-PIPE
100
AcDbLine
 10
803.166407443156
 20
2047.900000000056
 30
0.0
 11
865.666407443156
 21
2047.900000000056
 31
0.0
1001
REVIT
1002
{
1070
     3
1000
923261
1002
}
  0
ARC
  5
B0
330
87
100
AcDbEntity
  8
M-PIPE
100
AcDbCircle
 10
865.6664074431564
 20
2080.900000000056
 30
0.0
 40
32.99999999999977
100
AcDbArc
 50
269.9999999999984
 51
359.9999999999992
1001
REVIT
1002
{
1070
     3
1000
923261
1002
}
  0
LINE
  5
B1
330
87
100
AcDbEntity
  8
M-PIPE
100
AcDbLine
 10
898.6664074431564
 20
2080.900000000056
 30
0.0
 11
898.6664074431564
 21
2086.109519159391
 31
0.0
1001
REVIT
1002
{
1070
     3
1000
923261
1002
}
  0
LINE
  5
B2
330
87
100
AcDbEntity
  8
M-PIPE
100
AcDbLine
 10
783.1664074431563
 20
2068.110000000055
 30
0.0
 11
783.1664074431563
 21
2067.900000000056
 31
0.0
1001
REVIT
1002
{
1070
     3
1000
923261
1002
}
  0
ARC
  5
B3
330
87
100
AcDbEntity
  8
M-PIPE
100
AcDbCircle
 10
891.6664074431563
 20
2101.110000000056
 30
0.0
 40
7.000000000000056
100
AcDbArc
 50
359.9999999999992
 51
90.00000000000047
1001
REVIT
1002
{
1070
     3
1000
923261
1002
}
  0
LINE
  5
B4
330
87
100
AcDbEntity
  8
M-PIPE
100
AcDbLine
 10
891.6664074431563
 20
2108.110000000056
 30
0.0
 11
783.1664074431564
 21
2108.110000000056
 31
0.0
1001
REVIT
1002
{
1070
     3
1000
923261
1002
}
  0
LINE
  5
B5
330
87
100
AcDbEntity
  8
M-PIPE
100
AcDbLine
 10
783.1664074431564
 20
2108.110000000056
 30
0.0
 11
783.1664074431563
 21
2078.222328629041
 31
0.0
1001
REVIT
1002
{
1070
     3
1000
923261
1002
}
  0
LINE
  5
B6
330
87
100
AcDbEntity
  8
M-PIPE
100
AcDbLine
 10
898.6664074431564
 20
2096.110000000055
 30
0.0
 11
898.6664074431564
 21
2101.110000000056
 31
0.0
1001
REVIT
1002
{
1070
     3
1000
923261
1002
}
  0
LINE
  5
B7
330
87
100
AcDbEntity
  8
M-PIPE
100
AcDbLine
 10
857.5182691002076
 20
2039.900000000056
 30
0.0
 11
841.5182691002076
 21
2039.900000000056
 31
0.0
1001
REVIT
1002
{
1070
     3
1000
923261
1002
}
  0
LINE
  5
B8
330
87
100
AcDbEntity
  8
M-PIPE
100
AcDbLine
 10
783.1664074431563
 20
2068.110000000055
 30
0.0
 11
783.1664074431563
 21
2078.222328629041
 31
0.0
1001
REVIT
1002
{
1070
     3
1000
923261
1002
}
  0
ARC
  5
B9
330
87
100
AcDbEntity
  8
M-PIPE
100
AcDbCircle
 10
789.1627547930101
 20
2228.102889362595
 30
0.0
 40
160.1052179915262
100
AcDbArc
 50
267.8536254461362
 51
292.1463745538605
1001
REVIT
1002
{
1070
     3
1000
923261
1002
}
  0
ARC
  5
BA
330
87
100
AcDbEntity
  8
M-PIPE
100
AcDbCircle
 10
893.8163052506492
 20
1929.140924854704
 30
0.0
 40
157.0457663781112
100
AcDbArc
 50
88.20933210116669
 51
106.3838397345608
1001
REVIT
1002
{
1070
     3
1000
923261
1002
}
  0
LINE
  5
BB
330
87
100
AcDbEntity
  8
M-PIPE
100
AcDbLine
 10
898.7236655697483
 20
2086.110000000056
 30
0.0
 11
900.1664074431564
 21
2086.110000000056
 31
0.0
1001
REVIT
1002
{
1070
     3
1000
923261
1002
}
  0
LINE
  5
BC
330
87
100
AcDbEntity
  8
M-PIPE
100
AcDbLine
 10
900.1664074431564
 20
2086.110000000056
 30
0.0
 11
900.1664074431564
 21
2096.110000000055
 31
0.0
1001
REVIT
1002
{
1070
     3
1000
923261
1002
}
  0
LINE
  5
BD
330
87
100
AcDbEntity
  8
M-PIPE
100
AcDbLine
 10
900.1664074431564
 20
2096.110000000055
 30
0.0
 11
886.113460997423
 21
2096.110000000055
 31
0.0
1001
REVIT
1002
{
1070
     3
1000
923261
1002
}
  0
ARC
  5
BE
330
87
100
AcDbEntity
  8
M-PIPE
100
AcDbCircle
 10
893.8163052506492
 20
1939.253253483691
 30
0.0
 40
157.0457663781112
100
AcDbArc
 50
92.81139458151685
 51
106.38383973456
1001
REVIT
1002
{
1070
     3
1000
923261
1002
}
  0
ARC
  5
BF
330
87
100
AcDbEntity
  8
M-PIPE
100
AcDbCircle
 10
789.1627547930101
 20
2238.215217991582
 30
0.0
 40
160.1052179915262
100
AcDbArc
 50
267.853625446137
 51
292.1463745538612
1001
REVIT
1002
{
1070
     3
1000
923261
1002
}
  0
LINE
  5
C0
330
87
100
AcDbEntity
  8
M-PIPE
100
AcDbLine
 10
841.5182691002076
 20
2123.110000000056
 30
0.0
 11
857.5182691002076
 21
2123.110000000056
 31
0.0
1001
REVIT
1002
{
1070
     3
1000
923261
1002
}
  0
LINE
  5
C1
330
87
100
AcDbEntity
  8
M-PIPE
100
AcDbLine
 10
857.5182691002076
 20
2118.109999999993
 30
0.0
 11
841.5182691002076
 21
2118.109999999993
 31
0.0
1001
REVIT
1002
{
1070
     3
1000
923261
1002
}
  0
LINE
  5
C2
330
87
100
AcDbEntity
  8
M-PIPE
100
AcDbLine
 10
803.6664074431678
 20
2110.110000000056
 30
0.0
 11
827.6664074431678
 21
2110.110000000056
 31
0.0
1001
REVIT
1002
{
1070
     3
1000
923261
1002
}
  0
LINE
  5
C3
330
87
100
AcDbEntity
  8
M-PIPE
100
AcDbLine
 10
756.6664074431027
 20
2020.94999999995
 30
0.0
 11
719.1664074431233
 21
2020.949999999949
 31
0.0
1001
REVIT
1002
{
1070
     3
1000
790271
1002
}
  0
LINE
  5
C4
330
87
100
AcDbEntity
  8
M-PIPE
100
AcDbLine
 10
719.1664074431239
 20
1979.050000000043
 30
0.0
 11
756.6664074431032
 21
1979.050000000043
 31
0.0
1001
REVIT
1002
{
1070
     3
1000
790271
1002
}
  0
LINE
  5
C5
330
87
100
AcDbEntity
  8
M-PIPE
100
AcDbLine
 10
743.6664074431603
 20
1979.28325861693
 30
0.0
 11
743.6664074431602
 21
1986.941750635463
 31
0.0
1001
REVIT
1002
{
1070
     3
1000
790271
1002
}
  0
LINE
  5
C6
330
87
100
AcDbEntity
  8
M-PIPE
100
AcDbLine
 10
743.6664074431604
 20
1986.941750635463
 30
0.0
 11
755.6664074431604
 21
1986.941750635464
 31
0.0
1001
REVIT
1002
{
1070
     3
1000
790271
1002
}
  0
LINE
  5
C7
330
87
100
AcDbEntity
  8
M-PIPE
100
AcDbLine
 10
755.6664074431604
 20
1986.941750635463
 30
0.0
 11
755.6664074431605
 21
1979.28325861693
 31
0.0
1001
REVIT
1002
{
1070
     3
1000
790271
1002
}
  0
LINE
  5
C8
330
87
100
AcDbEntity
  8
M-PIPE
100
AcDbLine
 10
755.6664074431603
 20
1979.28325861693
 30
0.0
 11
743.6664074431603
 21
1979.28325861693
 31
0.0
1001
REVIT
1002
{
1070
     3
1000
790271
1002
}
  0
LINE
  5
C9
330
87
100
AcDbEntity
  8
M-PIPE
100
AcDbLine
 10
743.6664074431604
 20
1992.341507981413
 30
0.0
 11
743.6664074431603
 21
2007.658492018578
 31
0.0
1001
REVIT
1002
{
1070
     3
1000
790271
1002
}
  0
LINE
  5
CA
330
87
100
AcDbEntity
  8
M-PIPE
100
AcDbLine
 10
743.6664074431604
 20
2007.658492018576
 30
0.0
 11
755.6664074431604
 21
2007.658492018577
 31
0.0
1001
REVIT
1002
{
1070
     3
1000
790271
1002
}
  0
LINE
  5
CB
330
87
100
AcDbEntity
  8
M-PIPE
100
AcDbLine
 10
755.6664074431604
 20
2007.658492018578
 30
0.0
 11
755.6664074431605
 21
1992.341507981413
 31
0.0
1001
REVIT
1002
{
1070
     3
1000
790271
1002
}
  0
LINE
  5
CC
330
87
100
AcDbEntity
  8
M-PIPE
100
AcDbLine
 10
755.6664074431604
 20
1992.341507981414
 30
0.0
 11
743.6664074431604
 21
1992.341507981414
 31
0.0
1001
REVIT
1002
{
1070
     3
1000
790271
1002
}
  0
LINE
  5
CD
330
87
100
AcDbEntity
  8
M-PIPE
100
AcDbLine
 10
743.6664074431604
 20
2013.058249364481
 30
0.0
 11
743.6664074431604
 21
2020.71674138307
 31
0.0
1001
REVIT
1002
{
1070
     3
1000
790271
1002
}
  0
LINE
  5
CE
330
87
100
AcDbEntity
  8
M-PIPE
100
AcDbLine
 10
743.6664074431603
 20
2020.716741383069
 30
0.0
 11
755.6664074431603
 21
2020.71674138307
 31
0.0
1001
REVIT
1002
{
1070
     3
1000
790271
1002
}
  0
LINE
  5
CF
330
87
100
AcDbEntity
  8
M-PIPE
100
AcDbLine
 10
755.6664074431603
 20
2020.71674138307
 30
0.0
 11
755.6664074431603
 21
2013.058249364481
 31
0.0
1001
REVIT
1002
{
1070
     3
1000
790271
1002
}
  0
LINE
  5
D0
330
87
100
AcDbEntity
  8
M-PIPE
100
AcDbLine
 10
755.6664074431604
 20
2013.058249364482
 30
0.0
 11
743.6664074431604
 21
2013.058249364482
 31
0.0
1001
REVIT
1002
{
1070
     3
1000
790271
1002
}
  0
LINE
  5
D1
330
87
100
AcDbEntity
  8
M-PIPE
100
AcDbLine
 10
719.166407443122
 20
2020.949999999948
 30
0.0
 11
719.1664074431225
 21
1979.050000000041
 31
0.0
1001
REVIT
1002
{
1070
     3
1000
790271
1002
}
  0
LINE
  5
D2
330
87
100
AcDbEntity
  8
M-PIPE
100
AcDbLine
 10
912.1664074431963
 20
2020.949999999949
 30
0.0
 11
887.6664074431579
 21
2020.949999999949
 31
0.0
1001
REVIT
1002
{
1070
     3
1000
790271
1002
}
  0
LINE
  5
D3
330
87
100
AcDbEntity
  8
M-PIPE
100
AcDbLine
 10
875.6664074431579
 20
2020.949999999949
 30
0.0
 11
874.6664074432114
 21
2020.949999999949
 31
0.0
1001
REVIT
1002
{
1070
     3
1000
790271
1002
}
  0
LINE
  5
D4
330
87
100
AcDbEntity
  8
M-PIPE
100
AcDbLine
 10
874.6664074432109
 20
1979.050000000042
 30
0.0
 11
875.6664074431581
 21
1979.050000000042
 31
0.0
1001
REVIT
1002
{
1070
     3
1000
790271
1002
}
  0
LINE
  5
D5
330
87
100
AcDbEntity
  8
M-PIPE
100
AcDbLine
 10
887.6664074431579
 20
1979.050000000042
 30
0.0
 11
912.166407443196
 21
1979.050000000042
 31
0.0
1001
REVIT
1002
{
1070
     3
1000
790271
1002
}
  0
LINE
  5
D6
330
87
100
AcDbEntity
  8
M-PIPE
100
AcDbLine
 10
887.6664074431564
 20
2020.931890978743
 30
0.0
 11
887.6664074431564
 21
2019.499999999978
 31
0.0
1001
REVIT
1002
{
1070
     3
1000
790271
1002
}
  0
LINE
  5
D7
330
87
100
AcDbEntity
  8
M-PIPE
100
AcDbLine
 10
887.6664074431563
 20
2019.499999999979
 30
0.0
 11
875.6664074431563
 21
2019.499999999979
 31
0.0
1001
REVIT
1002
{
1070
     3
1000
790271
1002
}
  0
LINE
  5
D8
330
87
100
AcDbEntity
  8
M-PIPE
100
AcDbLine
 10
875.6664074431563
 20
2019.499999999978
 30
0.0
 11
875.6664074431562
 21
2020.931890978743
 31
0.0
1001
REVIT
1002
{
1070
     3
1000
790271
1002
}
  0
LINE
  5
D9
330
87
100
AcDbEntity
  8
M-PIPE
100
AcDbLine
 10
887.6664074431563
 20
2016.382448642763
 30
0.0
 11
887.6664074431563
 21
2003.117551357207
 31
0.0
1001
REVIT
1002
{
1070
     3
1000
790271
1002
}
  0
LINE
  5
DA
330
87
100
AcDbEntity
  8
M-PIPE
100
AcDbLine
 10
887.6664074431564
 20
2003.117551357209
 30
0.0
 11
875.6664074431565
 21
2003.117551357209
 31
0.0
1001
REVIT
1002
{
1070
     3
1000
790271
1002
}
  0
LINE
  5
DB
330
87
100
AcDbEntity
  8
M-PIPE
100
AcDbLine
 10
875.6664074431565
 20
2003.117551357207
 30
0.0
 11
875.6664074431565
 21
2016.382448642763
 31
0.0
1001
REVIT
1002
{
1070
     3
1000
790271
1002
}
  0
LINE
  5
DC
330
87
100
AcDbEntity
  8
M-PIPE
100
AcDbLine
 10
875.6664074431563
 20
2016.382448642763
 30
0.0
 11
887.6664074431563
 21
2016.382448642762
 31
0.0
1001
REVIT
1002
{
1070
     3
1000
790271
1002
}
  0
LINE
  5
DD
330
87
100
AcDbEntity
  8
M-PIPE
100
AcDbLine
 10
887.6664074431564
 20
1996.882448642737
 30
0.0
 11
887.6664074431559
 21
1983.617551357255
 31
0.0
1001
REVIT
1002
{
1070
     3
1000
790271
1002
}
  0
LINE
  5
DE
330
87
100
AcDbEntity
  8
M-PIPE
100
AcDbLine
 10
887.6664074431563
 20
1983.617551357255
 30
0.0
 11
875.6664074431563
 21
1983.617551357255
 31
0.0
1001
REVIT
1002
{
1070
     3
1000
790271
1002
}
  0
LINE
  5
DF
330
87
100
AcDbEntity
  8
M-PIPE
100
AcDbLine
 10
875.6664074431563
 20
1983.617551357255
 30
0.0
 11
875.6664074431567
 21
1996.882448642738
 31
0.0
1001
REVIT
1002
{
1070
     3
1000
790271
1002
}
  0
LINE
  5
E0
330
87
100
AcDbEntity
  8
M-PIPE
100
AcDbLine
 10
875.6664074431565
 20
1996.882448642737
 30
0.0
 11
887.6664074431564
 21
1996.882448642737
 31
0.0
1001
REVIT
1002
{
1070
     3
1000
790271
1002
}
  0
LINE
  5
E1
330
87
100
AcDbEntity
  8
M-PIPE
100
AcDbLine
 10
887.6664074431563
 20
1980.499999999978
 30
0.0
 11
887.6664074431561
 21
1979.068109021246
 31
0.0
1001
REVIT
1002
{
1070
     3
1000
790271
1002
}
  0
LINE
  5
E2
330
87
100
AcDbEntity
  8
M-PIPE
100
AcDbLine
 10
875.6664074431563
 20
1979.068109021246
 30
0.0
 11
875.6664074431565
 21
1980.499999999978
 31
0.0
1001
REVIT
1002
{
1070
     3
1000
790271
1002
}
  0
LINE
  5
E3
330
87
100
AcDbEntity
  8
M-PIPE
100
AcDbLine
 10
875.6664074431563
 20
1980.499999999979
 30
0.0
 11
887.6664074431563
 21
1980.499999999979
 31
0.0
1001
REVIT
1002
{
1070
     3
1000
790271
1002
}
  0
LINE
  5
E4
330
87
100
AcDbEntity
  8
M-PIPE
100
AcDbLine
 10
912.1664074431945
 20
1999.999999999994
 30
0.0
 11
912.1664074431945
 21
2020.949999999948
 31
0.0
1001
REVIT
1002
{
1070
     3
1000
790271
1002
}
  0
LINE
  5
E5
330
87
100
AcDbEntity
  8
M-PIPE
100
AcDbLine
 10
912.1664074431942
 20
1979.050000000041
 30
0.0
 11
912.1664074431945
 21
1999.999999999994
 31
0.0
1001
REVIT
1002
{
1070
     3
1000
790271
1002
}
  0
LINE
  5
E6
330
87
100
AcDbEntity
  8
M-PIPE
100
AcDbLine
 10
874.6664074432114
 20
2024.248711305947
 30
0.0
 11
871.4858012872381
 21
2029.75768276696
 31
0.0
1001
REVIT
1002
{
1070
     3
1000
790271
1002
}
  0
LINE
  5
E7
330
87
100
AcDbEntity
  8
M-PIPE
100
AcDbLine
 10
871.4630459322325
 20
2029.797096197974
 30
0.0
 11
871.3362804242891
 21
2030.016660498379
 31
0.0
1001
REVIT
1002
{
1070
     3
1000
790271
1002
}
  0
LINE
  5
E8
330
87
100
AcDbEntity
  8
M-PIPE
100
AcDbLine
 10
871.3362804242743
 20
1969.983339501588
 30
0.0
 11
871.4630459322174
 21
1970.202903801993
 31
0.0
1001
REVIT
1002
{
1070
     3
1000
790271
1002
}
  0
LINE
  5
E9
330
87
100
AcDbEntity
  8
M-PIPE
100
AcDbLine
 10
871.485801287223
 20
1970.242317233007
 30
0.0
 11
874.6664074432109
 21
1975.751288694044
 31
0.0
1001
REVIT
1002
{
1070
     3
1000
790271
1002
}
  0
LINE
  5
EA
330
87
100
AcDbEntity
  8
M-PIPE
100
AcDbLine
 10
871.3362804242892
 20
2030.016660498379
 30
0.0
 11
856.4664074432439
 21
2030.016660498379
 31
0.0
1001
REVIT
1002
{
1070
     3
1000
790271
1002
}
  0
LINE
  5
EB
330
87
100
AcDbEntity
  8
M-PIPE
100
AcDbLine
 10
856.4664074432432
 20
1969.983339501588
 30
0.0
 11
871.3362804242743
 21
1969.983339501588
 31
0.0
1001
REVIT
1002
{
1070
     3
1000
790271
1002
}
  0
LINE
  5
EC
330
87
100
AcDbEntity
  8
M-PIPE
100
AcDbLine
 10
856.4664074432439
 20
2030.016660498379
 30
0.0
 11
856.3396227149993
 21
2029.797062907436
 31
0.0
1001
REVIT
1002
{
1070
     3
1000
790271
1002
}
  0
LINE
  5
ED
330
87
100
AcDbEntity
  8
M-PIPE
100
AcDbLine
 10
856.3168865802932
 20
2029.757682766957
 30
0.0
 11
854.6664074432115
 21
2026.8989690447
 31
0.0
1001
REVIT
1002
{
1070
     3
1000
790271
1002
}
  0
LINE
  5
EE
330
87
100
AcDbEntity
  8
M-PIPE
100
AcDbLine
 10
854.666407443211
 20
1973.101030955292
 30
0.0
 11
856.3168865803069
 21
1970.24231723301
 31
0.0
1001
REVIT
1002
{
1070
     3
1000
790271
1002
}
  0
LINE
  5
EF
330
87
100
AcDbEntity
  8
M-PIPE
100
AcDbLine
 10
856.339622715013
 20
1970.202937092531
 30
0.0
 11
856.4664074432574
 21
1969.983339501588
 31
0.0
1001
REVIT
1002
{
1070
     3
1000
790271
1002
}
  0
LINE
  5
F0
330
87
100
AcDbEntity
  8
M-PIPE
100
AcDbLine
 10
874.66640744321
 20
2024.248711305947
 30
0.0
 11
874.6664074432095
 21
1975.751288694043
 31
0.0
1001
REVIT
1002
{
1070
     3
1000
790271
1002
}
  0
LINE
  5
F1
330
87
100
AcDbEntity
  8
M-PIPE
100
AcDbLine
 10
854.6664074432095
 20
1973.101030955292
 30
0.0
 11
854.6664074432102
 21
2026.898969044698
 31
0.0
1001
REVIT
1002
{
1070
     3
1000
790271
1002
}
  0
SPLINE
  5
F2
330
87
100
AcDbEntity
  8
M-PIPE
100
AcDbSpline
210
0.0
220
0.0
230
1.0
 70
     8
 71
     3
 72
     9
 73
     5
 74
     0
 42
0.000000001
 43
0.0000000001
 40
0.0
 40
0.0
 40
0.0
 40
0.0
 40
0.5
 40
1.0
 40
1.0
 40
1.0
 40
1.0
 10
871.7770616891447
 20
2017.753520777564
 30
0.0
 10
872.6442941331489
 20
2019.609566552108
 30
0.0
 10
873.5115265771547
 20
2023.342000701518
 30
0.0
 10
872.6442941331551
 20
2027.115120051573
 30
0.0
 10
871.777061689154
 20
2029.011851026761
 30
0.0
1001
REVIT
1002
{
1070
     3
1000
790271
1002
}
  0
SPLINE
  5
F3
330
87
100
AcDbEntity
  8
M-PIPE
100
AcDbSpline
210
0.0
220
0.0
230
1.0
 70
     8
 71
     3
 72
     9
 73
     5
 74
     0
 42
0.000000001
 43
0.0000000001
 40
0.0
 40
0.0
 40
0.0
 40
0.0
 40
0.5
 40
1.0
 40
1.0
 40
1.0
 40
1.0
 10
856.0256261783759
 20
2029.011851026761
 30
0.0
 10
855.1583937343746
 20
2027.115120051573
 30
0.0
 10
854.2911612903751
 20
2023.342000701518
 30
0.0
 10
855.1583937343806
 20
2019.609566552108
 30
0.0
 10
856.0256261783848
 20
2017.753520777564
 30
0.0
1001
REVIT
1002
{
1070
     3
1000
790271
1002
}
  0
SPLINE
  5
F4
330
87
100
AcDbEntity
  8
M-PIPE
100
AcDbSpline
210
0.0
220
0.0
230
1.0
 70
     8
 71
     3
 72
     9
 73
     5
 74
     0
 42
0.000000001
 43
0.0000000001
 40
0.0
 40
0.0
 40
0.0
 40
0.0
 40
0.5
 40
1.0
 40
1.0
 40
1.0
 40
1.0
 10
871.777061689136
 20
1988.741669750785
 30
0.0
 10
872.644294133139
 20
1992.453761299873
 30
0.0
 10
873.5115265771431
 20
1999.918629598695
 30
0.0
 10
872.6442941331427
 20
2007.464868298804
 30
0.0
 10
871.7770616891417
 20
2011.25833024918
 30
0.0
1001
REVIT
1002
{
1070
     3
1000
790271
1002
}
  0
SPLINE
  5
F5
330
87
100
AcDbEntity
  8
M-PIPE
100
AcDbSpline
210
0.0
220
0.0
230
1.0
 70
     8
 71
     3
 72
     9
 73
     5
 74
     0
 42
0.000000001
 43
0.0000000001
 40
0.0
 40
0.0
 40
0.0
 40
0.0
 40
0.5
 40
1.0
 40
1.0
 40
1.0
 40
1.0
 10
856.0256261783875
 20
2011.25833024918
 30
0.0
 10
855.1583937343863
 20
2007.464868298804
 30
0.0
 10
854.2911612903859
 20
1999.918629598695
 30
0.0
 10
855.1583937343899
 20
1992.453761299874
 30
0.0
 10
856.0256261783928
 20
1988.741669750785
 30
0.0
1001
REVIT
1002
{
1070
     3
1000
790271
1002
}
  0
SPLINE
  5
F6
330
87
100
AcDbEntity
  8
M-PIPE
100
AcDbSpline
210
0.0
220
0.0
230
1.0
 70
     8
 71
     3
 72
     9
 73
     5
 74
     0
 42
0.000000001
 43
0.0000000001
 40
0.0
 40
0.0
 40
0.0
 40
0.0
 40
0.5
 40
1.0
 40
1.0
 40
1.0
 40
1.0
 10
871.7770616891392
 20
1970.988148973203
 30
0.0
 10
872.6442941331406
 20
1972.844194747748
 30
0.0
 10
873.5115265771414
 20
1976.576628897159
 30
0.0
 10
872.6442941331383
 20
1980.349748247213
 30
0.0
 10
871.7770616891355
 20
1982.246479222402
 30
0.0
1001
REVIT
1002
{
1070
     3
1000
790271
1002
}
  0
SPLINE
  5
F7
330
87
100
AcDbEntity
  8
M-PIPE
100
AcDbSpline
210
0.0
220
0.0
230
1.0
 70
     8
 71
     3
 72
     9
 73
     5
 74
     0
 42
0.000000001
 43
0.0000000001
 40
0.0
 40
0.0
 40
0.0
 40
0.0
 40
0.5
 40
1.0
 40
1.0
 40
1.0
 40
1.0
 10
856.0256261783932
 20
1982.246479222402
 30
0.0
 10
855.1583937343906
 20
1980.349748247213
 30
0.0
 10
854.2911612903871
 20
1976.576628897159
 30
0.0
 10
855.1583937343879
 20
1972.844194747748
 30
0.0
 10
856.0256261783894
 20
1970.988148973204
 30
0.0
1001
REVIT
1002
{
1070
     3
1000
790271
1002
}
  0
SPLINE
  5
F8
330
87
100
AcDbEntity
  8
M-PIPE
100
AcDbSpline
210
0.0
220
0.0
230
1.0
 70
     8
 71
     3
 72
     9
 73
     5
 74
     0
 42
0.000000001
 43
0.0000000001
 40
-1.0
 40
-1.0
 40
-1.0
 40
-1.0
 40
-0.5
 40
0.0
 40
0.0
 40
0.0
 40
0.0
 10
871.3362804242878
 20
2030.016660498378
 30
0.0
 10
871.3378346934401
 20
2030.016660498379
 30
0.0
 10
871.4128525067371
 20
2029.839681186713
 30
0.0
 10
871.6316888700177
 20
2029.33470819603
 30
0.0
 10
871.777061689154
 20
2029.011851026761
 30
0.0
1001
REVIT
1002
{
1070
     3
1000
790271
1002
}
  0
SPLINE
  5
F9
330
87
100
AcDbEntity
  8
M-PIPE
100
AcDbSpline
210
0.0
220
0.0
230
1.0
 70
     8
 71
     3
 72
     9
 73
     5
 74
     0
 42
0.000000001
 43
0.0000000001
 40
0.0
 40
0.0
 40
0.0
 40
0.0
 40
0.5
 40
1.0
 40
1.0
 40
1.0
 40
1.0
 10
856.4664074432423
 20
2030.016660498378
 30
0.0
 10
856.4648531740889
 20
2030.016660498377
 30
0.0
 10
856.3898353607912
 20
2029.83968118671
 30
0.0
 10
856.1709989975113
 20
2029.334708196028
 30
0.0
 10
856.0256261783759
 20
2029.011851026762
 30
0.0
1001
REVIT
1002
{
1070
     3
1000
790271
1002
}
  0
SPLINE
  5
FA
330
87
100
AcDbEntity
  8
M-PIPE
100
AcDbSpline
210
0.0
220
0.0
230
1.0
 70
     8
 71
     3
 72
     9
 73
     5
 74
     0
 42
0.000000001
 43
0.0000000001
 40
0.0
 40
0.0
 40
0.0
 40
0.0
 40
0.5
 40
1.0
 40
1.0
 40
1.0
 40
1.0
 10
856.0256261783848
 20
2017.753520777564
 30
0.0
 10
856.1709989975231
 20
2017.430663608296
 30
0.0
 10
856.3898353608042
 20
2016.635173074297
 30
0.0
 10
856.4648531740944
 20
2015.582749831065
 30
0.0
 10
856.4664074432419
 20
2015.008330249175
 30
0.0
1001
REVIT
1002
{
1070
     3
1000
790271
1002
}
  0
SPLINE
  5
FB
330
87
100
AcDbEntity
  8
M-PIPE
100
AcDbSpline
210
0.0
220
0.0
230
1.0
 70
     8
 71
     3
 72
     9
 73
     5
 74
     0
 42
0.000000001
 43
0.0000000001
 40
0.0
 40
0.0
 40
0.0
 40
0.0
 40
0.5
 40
1.0
 40
1.0
 40
1.0
 40
1.0
 10
856.4664074432419
 20
2015.008330249175
 30
0.0
 10
856.4648531740944
 20
2014.433910667287
 30
0.0
 10
856.3898353608047
 20
2013.204508112391
 30
0.0
 10
856.1709989975248
 20
2011.904044587713
 30
0.0
 10
856.0256261783875
 20
2011.258330249181
 30
0.0
1001
REVIT
1002
{
1070
     3
1000
790271
1002
}
  0
SPLINE
  5
FC
330
87
100
AcDbEntity
  8
M-PIPE
100
AcDbSpline
210
0.0
220
0.0
230
1.0
 70
     8
 71
     3
 72
    10
 73
     6
 74
     0
 42
0.000000001
 43
0.0000000001
 40
-1.0
 40
-1.0
 40
-1.0
 40
-1.0
 40
-0.7
 40
-0.4
 40
0.0
 40
0.0
 40
0.0
 40
0.0
 10
871.7770616891447
 20
2017.753520777564
 30
0.0
 10
871.6035992408306
 20
2017.36704237216
 30
0.0
 10
871.356285565513
 20
2016.375903325844
 30
0.0
 10
871.2938684449417
 20
2014.126808572171
 30
0.0
 10
871.5454259366003
 20
2012.2910618313
 30
0.0
 10
871.7770616891417
 20
2011.25833024918
 30
0.0
1001
REVIT
1002
{
1070
     3
1000
790271
1002
}
  0
SPLINE
  5
FD
330
87
100
AcDbEntity
  8
M-PIPE
100
AcDbSpline
210
0.0
220
0.0
230
1.0
 70
     8
 71
     3
 72
     9
 73
     5
 74
     0
 42
0.000000001
 43
0.0000000001
 40
0.0
 40
0.0
 40
0.0
 40
0.0
 40
0.5
 40
1.0
 40
1.0
 40
1.0
 40
1.0
 10
856.0256261783928
 20
1988.741669750785
 30
0.0
 10
856.1709989975319
 20
1988.095955412251
 30
0.0
 10
856.3898353608125
 20
1986.795491887571
 30
0.0
 10
856.4648531740976
 20
1985.566089332672
 30
0.0
 10
856.4664074432414
 20
1984.991669750784
 30
0.0
1001
REVIT
1002
{
1070
     3
1000
790271
1002
}
  0
SPLINE
  5
FE
330
87
100
AcDbEntity
  8
M-PIPE
100
AcDbSpline
210
0.0
220
0.0
230
1.0
 70
     8
 71
     3
 72
     9
 73
     5
 74
     0
 42
0.000000001
 43
0.0000000001
 40
0.0
 40
0.0
 40
0.0
 40
0.0
 40
0.5
 40
1.0
 40
1.0
 40
1.0
 40
1.0
 10
856.4664074432414
 20
1984.991669750784
 30
0.0
 10
856.4648531740976
 20
1984.417250168895
 30
0.0
 10
856.3898353608125
 20
1983.364826925665
 30
0.0
 10
856.1709989975321
 20
1982.569336391668
 30
0.0
 10
856.0256261783932
 20
1982.246479222402
 30
0.0
1001
REVIT
1002
{
1070
     3
1000
790271
1002
}
  0
SPLINE
  5
FF
330
87
100
AcDbEntity
  8
M-PIPE
100
AcDbSpline
210
0.0
220
0.0
230
1.0
 70
     8
 71
     3
 72
    10
 73
     6
 74
     0
 42
0.000000001
 43
0.0000000001
 40
-1.0
 40
-1.0
 40
-1.0
 40
-1.0
 40
-0.7
 40
-0.4
 40
0.0
 40
0.0
 40
0.0
 40
0.0
 10
871.777061689136
 20
1988.741669750785
 30
0.0
 10
871.6035992408222
 20
1987.968712939978
 30
0.0
 10
871.3562855655048
 20
1986.404001633183
 30
0.0
 10
871.2938684449346
 20
1984.011011257967
 30
0.0
 10
871.5454259365937
 20
1982.762845013461
 30
0.0
 10
871.7770616891355
 20
1982.246479222402
 30
0.0
1001
REVIT
1002
{
1070
     3
1000
790271
1002
}
  0
SPLINE
  5
100
330
87
100
AcDbEntity
  8
M-PIPE
100
AcDbSpline
210
0.0
220
0.0
230
1.0
 70
     8
 71
     3
 72
     9
 73
     5
 74
     0
 42
0.000000001
 43
0.0000000001
 40
0.0
 40
0.0
 40
0.0
 40
0.0
 40
0.5
 40
1.0
 40
1.0
 40
1.0
 40
1.0
 10
856.0256261783894
 20
1970.988148973204
 30
0.0
 10
856.1709989975273
 20
1970.665291803937
 30
0.0
 10
856.3898353608072
 20
1970.160318813255
 30
0.0
 10
856.4648531740955
 20
1969.983339501587
 30
0.0
 10
856.4664074432414
 20
1969.983339501587
 30
0.0
1001
REVIT
1002
{
1070
     3
1000
790271
1002
}
  0
SPLINE
  5
101
330
87
100
AcDbEntity
  8
M-PIPE
100
AcDbSpline
210
0.0
220
0.0
230
1.0
 70
     8
 71
     3
 72
     9
 73
     5
 74
     0
 42
0.000000001
 43
0.0000000001
 40
-1.0
 40
-1.0
 40
-1.0
 40
-1.0
 40
-0.5
 40
0.0
 40
0.0
 40
0.0
 40
0.0
 10
871.7770616891391
 20
1970.988148973203
 30
0.0
 10
871.6316888700029
 20
1970.665291803935
 30
0.0
 10
871.4128525067222
 20
1970.160318813251
 30
0.0
 10
871.3378346934252
 20
1969.983339501585
 30
0.0
 10
871.3362804242727
 20
1969.983339501587
 30
0.0
1001
REVIT
1002
{
1070
     3
1000
790271
1002
}
  0
LINE
  5
102
330
87
100
AcDbEntity
  8
M-PIPE
100
AcDbLine
 10
756.6664074431032
 20
1975.751288693999
 30
0.0
 11
759.8470135990886
 21
1970.242317232967
 31
0.0
1001
REVIT
1002
{
1070
     3
1000
790271
1002
}
  0
LINE
  5
103
330
87
100
AcDbEntity
  8
M-PIPE
100
AcDbLine
 10
759.8697689540925
 20
1970.202903801956
 30
0.0
 11
759.99653446204
 21
1969.983339501544
 31
0.0
1001
REVIT
1002
{
1070
     3
1000
790271
1002
}
  0
LINE
  5
104
330
87
100
AcDbEntity
  8
M-PIPE
100
AcDbLine
 10
759.996534462025
 20
2030.016660498334
 30
0.0
 11
759.8697689540776
 21
2029.797096197922
 31
0.0
1001
REVIT
1002
{
1070
     3
1000
790271
1002
}
  0
LINE
  5
105
330
87
100
AcDbEntity
  8
M-PIPE
100
AcDbLine
 10
759.8470135990736
 20
2029.757682766911
 30
0.0
 11
756.6664074431029
 21
2024.248711305904
 31
0.0
1001
REVIT
1002
{
1070
     3
1000
790271
1002
}
  0
LINE
  5
106
330
87
100
AcDbEntity
  8
M-PIPE
100
AcDbLine
 10
774.8664074430707
 20
2030.016660498334
 30
0.0
 11
759.9965344620255
 21
2030.016660498334
 31
0.0
1001
REVIT
1002
{
1070
     3
1000
790271
1002
}
  0
LINE
  5
107
330
87
100
AcDbEntity
  8
M-PIPE
100
AcDbLine
 10
759.9965344620402
 20
1969.983339501544
 30
0.0
 11
774.8664074430713
 21
1969.983339501544
 31
0.0
1001
REVIT
1002
{
1070
     3
1000
790271
1002
}
  0
LINE
  5
108
330
87
100
AcDbEntity
  8
M-PIPE
100
AcDbLine
 10
774.8664074430567
 20
1969.983339501544
 30
0.0
 11
774.9931921713047
 21
1970.202937092493
 31
0.0
1001
REVIT
1002
{
1070
     3
1000
790271
1002
}
  0
LINE
  5
109
330
87
100
AcDbEntity
  8
M-PIPE
100
AcDbLine
 10
775.0159283060066
 20
1970.242317232964
 30
0.0
 11
776.6664074431031
 21
1973.101030955248
 31
0.0
1001
REVIT
1002
{
1070
     3
1000
790271
1002
}
  0
LINE
  5
10A
330
87
100
AcDbEntity
  8
M-PIPE
100
AcDbLine
 10
776.6664074431026
 20
2026.898969044655
 30
0.0
 11
775.0159283060204
 21
2029.757682766914
 31
0.0
1001
REVIT
1002
{
1070
     3
1000
790271
1002
}
  0
LINE
  5
10B
330
87
100
AcDbEntity
  8
M-PIPE
100
AcDbLine
 10
774.9931921713184
 20
2029.797062907386
 30
0.0
 11
774.8664074430706
 21
2030.016660498334
 31
0.0
1001
REVIT
1002
{
1070
     3
1000
790271
1002
}
  0
SPLINE
  5
10C
330
87
100
AcDbEntity
  8
M-PIPE
100
AcDbSpline
210
0.0
220
0.0
230
1.0
 70
     8
 71
     3
 72
     9
 73
     5
 74
     0
 42
0.000000001
 43
0.0000000001
 40
0.0
 40
0.0
 40
0.0
 40
0.0
 40
0.5
 40
1.0
 40
1.0
 40
1.0
 40
1.0
 10
759.5557531971602
 20
1982.246479222357
 30
0.0
 10
758.6885207531593
 20
1980.390433447812
 30
0.0
 10
757.8212883091596
 20
1976.657999298402
 30
0.0
 10
758.6885207531655
 20
1972.884879948347
 30
0.0
 10
759.5557531971695
 20
1970.988148973159
 30
0.0
1001
REVIT
1002
{
1070
     3
1000
790271
1002
}
  0
SPLINE
  5
10D
330
87
100
AcDbEntity
  8
M-PIPE
100
AcDbSpline
210
0.0
220
0.0
230
1.0
 70
     8
 71
     3
 72
     9
 73
     5
 74
     0
 42
0.000000001
 43
0.0000000001
 40
0.0
 40
0.0
 40
0.0
 40
0.0
 40
0.5
 40
1.0
 40
1.0
 40
1.0
 40
1.0
 10
775.3071887079242
 20
1970.988148973159
 30
0.0
 10
776.1744211519282
 20
1972.884879948347
 30
0.0
 10
777.0416535959338
 20
1976.657999298402
 30
0.0
 10
776.1744211519342
 20
1980.390433447812
 30
0.0
 10
775.3071887079332
 20
1982.246479222357
 30
0.0
1001
REVIT
1002
{
1070
     3
1000
790271
1002
}
  0
LINE
  5
10E
330
87
100
AcDbEntity
  8
M-PIPE
100
AcDbLine
 10
756.6664074431018
 20
1975.751288693999
 30
0.0
 11
756.6664074431014
 21
2024.248711305902
 31
0.0
1001
REVIT
1002
{
1070
     3
1000
790271
1002
}
  0
LINE
  5
10F
330
87
100
AcDbEntity
  8
M-PIPE
100
AcDbLine
 10
776.6664074431014
 20
2026.898969044654
 30
0.0
 11
776.6664074431018
 21
1973.101030955247
 31
0.0
1001
REVIT
1002
{
1070
     3
1000
790271
1002
}
  0
SPLINE
  5
110
330
87
100
AcDbEntity
  8
M-PIPE
100
AcDbSpline
210
0.0
220
0.0
230
1.0
 70
     8
 71
     3
 72
     9
 73
     5
 74
     0
 42
0.000000001
 43
0.0000000001
 40
0.0
 40
0.0
 40
0.0
 40
0.0
 40
0.5
 40
1.0
 40
1.0
 40
1.0
 40
1.0
 10
759.5557531971516
 20
2011.258330249136
 30
0.0
 10
758.6885207531495
 20
2007.546238700047
 30
0.0
 10
757.8212883091482
 20
2000.081370401225
 30
0.0
 10
758.6885207531532
 20
1992.535131701117
 30
0.0
 10
759.5557531971572
 20
1988.74166975074
 30
0.0
1001
REVIT
1002
{
1070
     3
1000
790271
1002
}
  0
SPLINE
  5
111
330
87
100
AcDbEntity
  8
M-PIPE
100
AcDbSpline
210
0.0
220
0.0
230
1.0
 70
     8
 71
     3
 72
     9
 73
     5
 74
     0
 42
0.000000001
 43
0.0000000001
 40
0.0
 40
0.0
 40
0.0
 40
0.0
 40
0.5
 40
1.0
 40
1.0
 40
1.0
 40
1.0
 10
775.307188707936
 20
1988.74166975074
 30
0.0
 10
776.1744211519399
 20
1992.535131701117
 30
0.0
 10
777.0416535959448
 20
2000.081370401225
 30
0.0
 10
776.1744211519434
 20
2007.546238700047
 30
0.0
 10
775.3071887079412
 20
2011.258330249136
 30
0.0
1001
REVIT
1002
{
1070
     3
1000
790271
1002
}
  0
SPLINE
  5
112
330
87
100
AcDbEntity
  8
M-PIPE
100
AcDbSpline
210
0.0
220
0.0
230
1.0
 70
     8
 71
     3
 72
     9
 73
     5
 74
     0
 42
0.000000001
 43
0.0000000001
 40
0.0
 40
0.0
 40
0.0
 40
0.0
 40
0.5
 40
1.0
 40
1.0
 40
1.0
 40
1.0
 10
759.555753197155
 20
2029.011851026717
 30
0.0
 10
758.6885207531511
 20
2027.155805252172
 30
0.0
 10
757.8212883091467
 20
2023.423371102762
 30
0.0
 10
758.6885207531487
 20
2019.650251752707
 30
0.0
 10
759.5557531971514
 20
2017.753520777519
 30
0.0
1001
REVIT
1002
{
1070
     3
1000
790271
1002
}
  0
SPLINE
  5
113
330
87
100
AcDbEntity
  8
M-PIPE
100
AcDbSpline
210
0.0
220
0.0
230
1.0
 70
     8
 71
     3
 72
     9
 73
     5
 74
     0
 42
0.000000001
 43
0.0000000001
 40
0.0
 40
0.0
 40
0.0
 40
0.0
 40
0.5
 40
1.0
 40
1.0
 40
1.0
 40
1.0
 10
775.3071887079417
 20
2017.753520777519
 30
0.0
 10
776.1744211519442
 20
2019.650251752707
 30
0.0
 10
777.041653595946
 20
2023.423371102762
 30
0.0
 10
776.1744211519418
 20
2027.155805252172
 30
0.0
 10
775.307188707938
 20
2029.011851026717
 30
0.0
1001
REVIT
1002
{
1070
     3
1000
790271
1002
}
  0
SPLINE
  5
114
330
87
100
AcDbEntity
  8
M-PIPE
100
AcDbSpline
210
0.0
220
0.0
230
1.0
 70
     8
 71
     3
 72
     9
 73
     5
 74
     0
 42
0.000000001
 43
0.0000000001
 40
-1.0
 40
-1.0
 40
-1.0
 40
-1.0
 40
-0.5
 40
0.0
 40
0.0
 40
0.0
 40
0.0
 10
759.555753197155
 20
2029.011851026717
 30
0.0
 10
759.7011260162903
 20
2029.334708195983
 30
0.0
 10
759.9199623795706
 20
2029.839681186663
 30
0.0
 10
759.9949801928696
 20
2030.016660498332
 30
0.0
 10
759.9965344620239
 20
2030.016660498334
 30
0.0
1001
REVIT
1002
{
1070
     3
1000
790271
1002
}
  0
SPLINE
  5
115
330
87
100
AcDbEntity
  8
M-PIPE
100
AcDbSpline
210
0.0
220
0.0
230
1.0
 70
     8
 71
     3
 72
     9
 73
     5
 74
     0
 42
0.000000001
 43
0.0000000001
 40
0.0
 40
0.0
 40
0.0
 40
0.0
 40
0.5
 40
1.0
 40
1.0
 40
1.0
 40
1.0
 10
775.307188707938
 20
2029.011851026717
 30
0.0
 10
775.1618158888017
 20
2029.334708195984
 30
0.0
 10
774.9429795255207
 20
2029.839681186667
 30
0.0
 10
774.8679617122226
 20
2030.016660498334
 30
0.0
 10
774.8664074430693
 20
2030.016660498334
 30
0.0
1001
REVIT
1002
{
1070
     3
1000
790271
1002
}
  0
SPLINE
  5
116
330
87
100
AcDbEntity
  8
M-PIPE
100
AcDbSpline
210
0.0
220
0.0
230
1.0
 70
     8
 71
     3
 72
     9
 73
     5
 74
     0
 42
0.000000001
 43
0.0000000001
 40
0.0
 40
0.0
 40
0.0
 40
0.0
 40
0.5
 40
1.0
 40
1.0
 40
1.0
 40
1.0
 10
774.8664074430698
 20
1969.983339501542
 30
0.0
 10
774.867961712216
 20
1969.983339501542
 30
0.0
 10
774.9429795255045
 20
1970.160318813209
 30
0.0
 10
775.1618158887855
 20
1970.665291803892
 30
0.0
 10
775.3071887079242
 20
1970.988148973159
 30
0.0
1001
REVIT
1002
{
1070
     3
1000
790271
1002
}
  0
SPLINE
  5
117
330
87
100
AcDbEntity
  8
M-PIPE
100
AcDbSpline
210
0.0
220
0.0
230
1.0
 70
     8
 71
     3
 72
     9
 73
     5
 74
     0
 42
0.000000001
 43
0.0000000001
 40
-1.0
 40
-1.0
 40
-1.0
 40
-1.0
 40
-0.5
 40
0.0
 40
0.0
 40
0.0
 40
0.0
 10
759.9965344620385
 20
1969.983339501542
 30
0.0
 10
759.9949801928844
 20
1969.983339501544
 30
0.0
 10
759.9199623795852
 20
1970.160318813213
 30
0.0
 10
759.701126016305
 20
1970.665291803894
 30
0.0
 10
759.5557531971695
 20
1970.988148973159
 30
0.0
1001
REVIT
1002
{
1070
     3
1000
790271
1002
}
  0
SPLINE
  5
118
330
87
100
AcDbEntity
  8
M-PIPE
100
AcDbSpline
210
0.0
220
0.0
230
1.0
 70
     8
 71
     3
 72
     9
 73
     5
 74
     0
 42
0.000000001
 43
0.0000000001
 40
0.0
 40
0.0
 40
0.0
 40
0.0
 40
0.5
 40
1.0
 40
1.0
 40
1.0
 40
1.0
 10
775.3071887079332
 20
1982.246479222357
 30
0.0
 10
775.1618158887973
 20
1982.569336391623
 30
0.0
 10
774.9429795255176
 20
1983.36482692562
 30
0.0
 10
774.8679617122215
 20
1984.417250168847
 30
0.0
 10
774.8664074430694
 20
1984.991669750734
 30
0.0
1001
REVIT
1002
{
1070
     3
1000
790271
1002
}
  0
SPLINE
  5
119
330
87
100
AcDbEntity
  8
M-PIPE
100
AcDbSpline
210
0.0
220
0.0
230
1.0
 70
     8
 71
     3
 72
     9
 73
     5
 74
     0
 42
0.000000001
 43
0.0000000001
 40
0.0
 40
0.0
 40
0.0
 40
0.0
 40
0.5
 40
1.0
 40
1.0
 40
1.0
 40
1.0
 10
774.8664074430694
 20
1984.991669750734
 30
0.0
 10
774.8679617122215
 20
1985.566089332623
 30
0.0
 10
774.9429795255181
 20
1986.795491887523
 30
0.0
 10
775.1618158887992
 20
1988.095955412205
 30
0.0
 10
775.307188707936
 20
1988.74166975074
 30
0.0
1001
REVIT
1002
{
1070
     3
1000
790271
1002
}
  0
SPLINE
  5
11A
330
87
100
AcDbEntity
  8
M-PIPE
100
AcDbSpline
210
0.0
220
0.0
230
1.0
 70
     8
 71
     3
 72
    10
 73
     6
 74
     0
 42
0.000000001
 43
0.0000000001
 40
-1.0
 40
-1.0
 40
-1.0
 40
-1.0
 40
-0.7
 40
-0.4
 40
0.0
 40
0.0
 40
0.0
 40
0.0
 10
759.5557531971602
 20
1982.246479222357
 30
0.0
 10
759.7292156454736
 20
1982.63295762776
 30
0.0
 10
759.9765293207902
 20
1983.624096674076
 30
0.0
 10
760.0389464413592
 20
1985.87319142775
 30
0.0
 10
759.7873889496995
 20
1987.708938168621
 30
0.0
 10
759.5557531971572
 20
1988.74166975074
 30
0.0
1001
REVIT
1002
{
1070
     3
1000
790271
1002
}
  0
SPLINE
  5
11B
330
87
100
AcDbEntity
  8
M-PIPE
100
AcDbSpline
210
0.0
220
0.0
230
1.0
 70
     8
 71
     3
 72
     9
 73
     5
 74
     0
 42
0.000000001
 43
0.0000000001
 40
0.0
 40
0.0
 40
0.0
 40
0.0
 40
0.5
 40
1.0
 40
1.0
 40
1.0
 40
1.0
 10
775.3071887079412
 20
2011.258330249136
 30
0.0
 10
775.1618158888062
 20
2011.904044587669
 30
0.0
 10
774.9429795255259
 20
2013.20450811235
 30
0.0
 10
774.8679617122247
 20
2014.433910667247
 30
0.0
 10
774.8664074430692
 20
2015.008330249135
 30
0.0
1001
REVIT
1002
{
1070
     3
1000
790271
1002
}
  0
SPLINE
  5
11C
330
87
100
AcDbEntity
  8
M-PIPE
100
AcDbSpline
210
0.0
220
0.0
230
1.0
 70
     8
 71
     3
 72
     9
 73
     5
 74
     0
 42
0.000000001
 43
0.0000000001
 40
0.0
 40
0.0
 40
0.0
 40
0.0
 40
0.5
 40
1.0
 40
1.0
 40
1.0
 40
1.0
 10
774.8664074430692
 20
2015.008330249135
 30
0.0
 10
774.8679617122247
 20
2015.582749831023
 30
0.0
 10
774.9429795255259
 20
2016.635173074254
 30
0.0
 10
775.1618158888065
 20
2017.430663608251
 30
0.0
 10
775.3071887079417
 20
2017.753520777519
 30
0.0
1001
REVIT
1002
{
1070
     3
1000
790271
1002
}
  0
SPLINE
  5
11D
330
87
100
AcDbEntity
  8
M-PIPE
100
AcDbSpline
210
0.0
220
0.0
230
1.0
 70
     8
 71
     3
 72
    10
 73
     6
 74
     0
 42
0.000000001
 43
0.0000000001
 40
-1.0
 40
-1.0
 40
-1.0
 40
-1.0
 40
-0.7
 40
-0.4
 40
0.0
 40
0.0
 40
0.0
 40
0.0
 10
759.5557531971516
 20
2011.258330249136
 30
0.0
 10
759.7292156454653
 20
2012.031287059942
 30
0.0
 10
759.9765293207824
 20
2013.595998366737
 30
0.0
 10
760.0389464413522
 20
2015.988988741953
 30
0.0
 10
759.7873889496931
 20
2017.23715498646
 30
0.0
 10
759.5557531971514
 20
2017.753520777519
 30
0.0
1001
REVIT
1002
{
1070
     3
1000
790271
1002
}
  0
LINE
  5
11E
330
87
100
AcDbEntity
  8
P-SANR-FIXT
100
AcDbLine
 10
849.6664074431599
 20
1976.199999999996
 30
0.0
 11
854.666407443211
 21
1976.199999999996
 31
0.0
  0
LINE
  5
11F
330
87
100
AcDbEntity
  8
P-SANR-FIXT
100
AcDbLine
 10
854.6664074432115
 20
2023.799999999996
 30
0.0
 11
849.6664074431599
 21
2023.799999999996
 31
0.0
  0
LINE
  5
120
330
87
100
AcDbEntity
  8
P-SANR-FIXT
100
AcDbLine
 10
781.6664074431598
 20
1970.749999999996
 30
0.0
 11
815.6664074431599
 21
1970.749999999996
 31
0.0
  0
LINE
  5
121
330
87
100
AcDbEntity
  8
P-SANR-FIXT
100
AcDbLine
 10
776.6664074431031
 20
1976.199999999996
 30
0.0
 11
781.6664074431598
 21
1976.199999999996
 31
0.0
  0
LINE
  5
122
330
87
100
AcDbEntity
  8
P-SANR-FIXT
100
AcDbLine
 10
781.6664074431598
 20
2023.799999999996
 30
0.0
 11
776.6664074431028
 21
2023.799999999996
 31
0.0
  0
LINE
  5
123
330
87
100
AcDbEntity
  8
P-SANR-FIXT
100
AcDbLine
 10
815.6664074431599
 20
1970.749999999996
 30
0.0
 11
849.6664074431599
 21
1970.749999999996
 31
0.0
  0
LINE
  5
124
330
87
100
AcDbEntity
  8
P-SANR-FIXT
100
AcDbLine
 10
849.6664074431599
 20
2029.249999999996
 30
0.0
 11
828.66640744316
 21
2029.249999999996
 31
0.0
  0
LINE
  5
125
330
87
100
AcDbEntity
  8
P-SANR-FIXT
100
AcDbLine
 10
802.6664074431597
 20
2029.249999999996
 30
0.0
 11
781.6664074431598
 21
2029.249999999996
 31
0.0
  0
LINE
  5
126
330
87
100
AcDbEntity
  8
P-SANR-FIXT
100
AcDbLine
 10
802.6664074431597
 20
2030.999999999997
 30
0.0
 11
802.6664074431597
 21
2029.249999999996
 31
0.0
  0
LINE
  5
127
330
87
100
AcDbEntity
  8
P-SANR-FIXT
100
AcDbLine
 10
828.66640744316
 20
2029.249999999996
 30
0.0
 11
828.66640744316
 21
2030.999999999997
 31
0.0
  0
LINE
  5
128
330
87
100
AcDbEntity
  8
P-SANR-FIXT
100
AcDbLine
 10
790.1664074431583
 20
1999.999999999995
 30
0.0
 11
790.1664074431583
 21
1988.749999999996
 31
0.0
  0
LINE
  5
129
330
87
100
AcDbEntity
  8
P-SANR-FIXT
100
AcDbLine
 10
790.1664074431583
 20
1988.749999999995
 30
0.0
 11
781.6664074431585
 21
1988.749999999995
 31
0.0
  0
LINE
  5
12A
330
87
100
AcDbEntity
  8
P-SANR-FIXT
100
AcDbLine
 10
781.6664074431585
 20
1982.242314097815
 30
0.0
 11
790.1664074431583
 21
1982.242314097815
 31
0.0
  0
LINE
  5
12B
330
87
100
AcDbEntity
  8
P-SANR-FIXT
100
AcDbLine
 10
790.1664074431583
 20
1982.242314097816
 30
0.0
 11
790.1664074431582
 21
1970.992314097815
 31
0.0
  0
LINE
  5
12C
330
87
100
AcDbEntity
  8
P-SANR-FIXT
100
AcDbLine
 10
790.1664074431582
 20
1970.992314097815
 30
0.0
 11
781.6664074431582
 21
1970.992314097815
 31
0.0
  0
LINE
  5
12D
330
87
100
AcDbEntity
  8
P-SANR-FIXT
100
AcDbLine
 10
781.6664074431582
 20
1970.992314097815
 30
0.0
 11
781.6664074431582
 21
1970.749999999995
 31
0.0
  0
LINE
  5
12E
330
87
100
AcDbEntity
  8
P-SANR-FIXT
100
AcDbLine
 10
781.6664074431582
 20
1970.992314097815
 30
0.0
 11
781.6664074431585
 21
1982.242314097815
 31
0.0
  0
LINE
  5
12F
330
87
100
AcDbEntity
  8
P-SANR-FIXT
100
AcDbLine
 10
781.6664074431585
 20
1988.749999999996
 30
0.0
 11
781.6664074431585
 21
1982.242314097816
 31
0.0
  0
LINE
  5
130
330
87
100
AcDbEntity
  8
P-SANR-FIXT
100
AcDbLine
 10
781.6664074431585
 20
1988.749999999995
 30
0.0
 11
781.6664074431585
 21
1999.999999999995
 31
0.0
  0
LINE
  5
131
330
87
100
AcDbEntity
  8
P-SANR-FIXT
100
AcDbLine
 10
781.6664074431585
 20
1999.999999999995
 30
0.0
 11
781.6664074431585
 21
2011.249999999996
 31
0.0
  0
LINE
  5
132
330
87
100
AcDbEntity
  8
P-SANR-FIXT
100
AcDbLine
 10
781.6664074431585
 20
2011.249999999996
 30
0.0
 11
781.6664074431585
 21
2017.757685902175
 31
0.0
  0
LINE
  5
133
330
87
100
AcDbEntity
  8
P-SANR-FIXT
100
AcDbLine
 10
781.6664074431585
 20
2017.757685902175
 30
0.0
 11
781.6664074431582
 21
2029.007685902175
 31
0.0
  0
LINE
  5
134
330
87
100
AcDbEntity
  8
P-SANR-FIXT
100
AcDbLine
 10
781.6664074431582
 20
2029.007685902175
 30
0.0
 11
781.6664074431582
 21
2029.249999999995
 31
0.0
  0
LINE
  5
135
330
87
100
AcDbEntity
  8
P-SANR-FIXT
100
AcDbLine
 10
849.6664074431583
 20
1999.999999999995
 30
0.0
 11
849.6664074431583
 21
1988.749999999996
 31
0.0
  0
LINE
  5
136
330
87
100
AcDbEntity
  8
P-SANR-FIXT
100
AcDbLine
 10
849.6664074431583
 20
1982.242314097815
 30
0.0
 11
849.6664074431583
 21
1970.992314097815
 31
0.0
  0
LINE
  5
137
330
87
100
AcDbEntity
  8
P-SANR-FIXT
100
AcDbLine
 10
849.6664074431583
 20
2029.007685902175
 30
0.0
 11
849.6664074431583
 21
2017.757685902175
 31
0.0
  0
LINE
  5
138
330
87
100
AcDbEntity
  8
P-SANR-FIXT
100
AcDbLine
 10
849.6664074431583
 20
2011.249999999995
 30
0.0
 11
849.6664074431583
 21
1999.999999999995
 31
0.0
  0
LINE
  5
139
330
87
100
AcDbEntity
  8
P-SANR-FIXT
100
AcDbLine
 10
849.6664074431583
 20
1970.992314097815
 30
0.0
 11
849.6664074431583
 21
1970.749999999995
 31
0.0
  0
LINE
  5
13A
330
87
100
AcDbEntity
  8
P-SANR-FIXT
100
AcDbLine
 10
849.6664074431583
 20
1970.992314097815
 30
0.0
 11
841.166407443158
 21
1970.992314097815
 31
0.0
  0
LINE
  5
13B
330
87
100
AcDbEntity
  8
P-SANR-FIXT
100
AcDbLine
 10
841.166407443158
 20
1970.992314097815
 30
0.0
 11
841.1664074431582
 21
1982.242314097815
 31
0.0
  0
LINE
  5
13C
330
87
100
AcDbEntity
  8
P-SANR-FIXT
100
AcDbLine
 10
841.1664074431582
 20
1982.242314097815
 30
0.0
 11
849.6664074431583
 21
1982.242314097815
 31
0.0
  0
LINE
  5
13D
330
87
100
AcDbEntity
  8
P-SANR-FIXT
100
AcDbLine
 10
849.6664074431583
 20
1988.749999999996
 30
0.0
 11
849.6664074431583
 21
1982.242314097815
 31
0.0
  0
LINE
  5
13E
330
87
100
AcDbEntity
  8
P-SANR-FIXT
100
AcDbLine
 10
849.6664074431583
 20
1988.749999999996
 30
0.0
 11
841.1664074431582
 21
1988.749999999996
 31
0.0
  0
LINE
  5
13F
330
87
100
AcDbEntity
  8
P-SANR-FIXT
100
AcDbLine
 10
841.1664074431582
 20
1988.749999999996
 30
0.0
 11
841.1664074431582
 21
1999.999999999995
 31
0.0
  0
SPLINE
  5
140
330
87
100
AcDbEntity
  8
P-SANR-FIXT
100
AcDbSpline
210
0.0
220
0.0
230
1.0
 70
     8
 71
     3
 72
    16
 73
    12
 74
     0
 42
0.000000001
 43
0.0000000001
 40
0.0
 40
0.0
 40
0.0
 40
0.0
 40
0.1428571428571428
 40
0.2857142857142857
 40
0.5714285714285714
 40
0.6785714285714287
 40
0.7321428571428572
 40
0.7857142857142857
 40
0.8392857142857142
 40
0.8928571428571427
 40
1.0
 40
1.0
 40
1.0
 40
1.0
 10
828.6664074431582
 20
2029.249999999995
 30
0.0
 10
828.6618520229875
 20
2029.249999999995
 30
0.0
 10
828.4430870915077
 20
2029.148640914304
 30
0.0
 10
827.1245687605576
 20
2028.583480246469
 30
0.0
 10
824.8283251035488
 20
2027.698876119843
 30
0.0
 10
822.3155187754166
 20
2027.01960580523
 30
0.0
 10
821.0263027353684
 20
2026.739585926819
 30
0.0
 10
820.0064206170317
 20
2026.553447833872
 30
0.0
 10
818.9512272135951
 20
2026.399706379268
 30
0.0
 10
817.5279134478234
 20
2026.252936421336
 30
0.0
 10
816.4207274692335
 20
2026.204917284895
 30
0.0
 10
815.6664074431583
 20
2026.202337681965
 30
0.0
  0
LINE
  5
141
330
87
100
AcDbEntity
  8
P-SANR-FIXT
100
AcDbLine
 10
841.1664074431582
 20
1999.999999999995
 30
0.0
 11
841.1664074431582
 21
2011.249999999994
 31
0.0
  0
LINE
  5
142
330
87
100
AcDbEntity
  8
P-SANR-FIXT
100
AcDbLine
 10
841.1664074431582
 20
2011.249999999995
 30
0.0
 11
849.6664074431583
 21
2011.249999999995
 31
0.0
  0
LINE
  5
143
330
87
100
AcDbEntity
  8
P-SANR-FIXT
100
AcDbLine
 10
849.6664074431583
 20
2017.757685902175
 30
0.0
 11
849.6664074431583
 21
2011.249999999995
 31
0.0
  0
LINE
  5
144
330
87
100
AcDbEntity
  8
P-SANR-FIXT
100
AcDbLine
 10
849.6664074431583
 20
2017.757685902175
 30
0.0
 11
841.1664074431582
 21
2017.757685902175
 31
0.0
  0
LINE
  5
145
330
87
100
AcDbEntity
  8
P-SANR-FIXT
100
AcDbLine
 10
841.1664074431582
 20
2017.757685902175
 30
0.0
 11
841.166407443158
 21
2029.007685902175
 31
0.0
  0
LINE
  5
146
330
87
100
AcDbEntity
  8
P-SANR-FIXT
100
AcDbLine
 10
841.166407443158
 20
2029.007685902175
 30
0.0
 11
849.6664074431583
 21
2029.007685902175
 31
0.0
  0
LINE
  5
147
330
87
100
AcDbEntity
  8
P-SANR-FIXT
100
AcDbLine
 10
849.6664074431583
 20
2029.249999999995
 30
0.0
 11
849.6664074431583
 21
2029.007685902175
 31
0.0
  0
LINE
  5
148
330
87
100
AcDbEntity
  8
P-SANR-FIXT
100
AcDbLine
 10
781.6664074431582
 20
2029.007685902175
 30
0.0
 11
790.1664074431582
 21
2029.007685902175
 31
0.0
  0
LINE
  5
149
330
87
100
AcDbEntity
  8
P-SANR-FIXT
100
AcDbLine
 10
790.1664074431582
 20
2029.007685902175
 30
0.0
 11
790.1664074431583
 21
2017.757685902175
 31
0.0
  0
LINE
  5
14A
330
87
100
AcDbEntity
  8
P-SANR-FIXT
100
AcDbLine
 10
790.1664074431583
 20
2017.757685902175
 30
0.0
 11
781.6664074431585
 21
2017.757685902175
 31
0.0
  0
LINE
  5
14B
330
87
100
AcDbEntity
  8
P-SANR-FIXT
100
AcDbLine
 10
781.6664074431585
 20
2011.249999999995
 30
0.0
 11
790.1664074431583
 21
2011.249999999995
 31
0.0
  0
LINE
  5
14C
330
87
100
AcDbEntity
  8
P-SANR-FIXT
100
AcDbLine
 10
790.1664074431583
 20
2011.249999999995
 30
0.0
 11
790.1664074431583
 21
1999.999999999995
 31
0.0
  0
SPLINE
  5
14D
330
87
100
AcDbEntity
  8
P-SANR-FIXT
100
AcDbSpline
210
0.0
220
0.0
230
1.0
 70
     8
 71
     3
 72
    12
 73
     8
 74
     0
 42
0.000000001
 43
0.0000000001
 40
0.0
 40
0.0
 40
0.0
 40
0.0
 40
0.1428571428571428
 40
0.2857142857142857
 40
0.5714285714285714
 40
0.7857142857142857
 40
1.0
 40
1.0
 40
1.0
 40
1.0
 10
815.6664074431583
 20
2026.202337681966
 30
0.0
 10
814.6606474083913
 20
2026.205777152539
 30
0.0
 10
812.7157115885745
 20
2026.315029486505
 30
0.0
 10
809.0048006665735
 20
2026.936995068234
 30
0.0
 10
805.5743645140772
 20
2028.030097912819
 30
0.0
 10
803.1770829097061
 20
2029.017053120622
 30
0.0
 10
802.6732405734144
 20
2029.249999999995
 30
0.0
 10
802.6664074431582
 20
2029.249999999995
 30
0.0
  0
LINE
  5
14E
330
87
100
AcDbEntity
  8
P-SANR-FIXT
100
AcDbLine
 10
802.6664074431582
 20
2030.999999999995
 30
0.0
 11
828.6664074431582
 21
2030.999999999995
 31
0.0
  0
ENDBLK
  5
150
330
87
100
AcDbEntity
  8
0
100
AcDbBlockEnd
  0
BLOCK
  5
1B7
330
152
100
AcDbEntity
  8
0
100
AcDbBlockBegin
  2
Automatic flow rate regulator valve_Caleffi_121 DN15 - 1_2__-V1-Est - Idraulica
 70
     0
 10
0.0
 20
0.0
 30
0.0
  3
Automatic flow rate regulator valve_Caleffi_121 DN15 - 1_2__-V1-Est - Idraulica
  1

  0
LINE
  5
153
330
152
100
AcDbEntity
  8
M-PIPE
100
AcDbLine
 10
818.4948345679154
 20
1786.322493106302
 30
0.0
 11
791.9783302734203
 21
1759.805988811806
 31
0.0
1001
REVIT
1002
{
1070
     3
1000
923261
1002
}
  0
LINE
  5
154
330
152
100
AcDbEntity
  8
M-PIPE
100
AcDbLine
 10
832.3632407434159
 20
1800.190899281803
 30
0.0
 11
818.4948345679154
 21
1786.322493106302
 31
0.0
1001
REVIT
1002
{
1070
     3
1000
923261
1002
}
  0
LINE
  5
155
330
152
100
AcDbEntity
  8
M-PIPE
100
AcDbLine
 10
775.0077675249432
 20
1776.776551560283
 30
0.0
 11
801.5242718194382
 21
1803.293055854779
 31
0.0
1001
REVIT
1002
{
1070
     3
1000
923261
1002
}
  0
LINE
  5
156
330
152
100
AcDbEntity
  8
M-PIPE
100
AcDbLine
 10
801.5242718194382
 20
1803.293055854779
 30
0.0
 11
815.3926779949385
 21
1817.16146203028
 31
0.0
1001
REVIT
1002
{
1070
     3
1000
923261
1002
}
  0
LINE
  5
157
330
152
100
AcDbEntity
  8
M-PIPE
100
AcDbLine
 10
832.3632407434159
 20
1800.190899281803
 30
0.0
 11
825.3579644254688
 21
1807.19617559975
 31
0.0
1001
REVIT
1002
{
1070
     3
1000
923261
1002
}
  0
SPLINE
  5
158
330
152
100
AcDbEntity
  8
M-PIPE
100
AcDbSpline
210
0.0
220
0.0
230
1.0
 70
     8
 71
     3
 72
     9
 73
     5
 74
     0
 42
0.000000001
 43
0.0000000001
 40
0.0
 40
0.0
 40
0.0
 40
0.0
 40
0.5
 40
1.0
 40
1.0
 40
1.0
 40
1.0
 10
825.3579644254688
 20
1807.19617559975
 30
0.0
 10
825.2471643164096
 20
1807.359233704957
 30
0.0
 10
825.0002404582684
 20
1807.69398295022
 30
0.0
 10
824.7062662852339
 20
1808.049595230331
 30
0.0
 10
824.5482450366639
 20
1808.23334554577
 30
0.0
1001
REVIT
1002
{
1070
     3
1000
923261
1002
}
  0
LINE
  5
159
330
152
100
AcDbEntity
  8
M-PIPE
100
AcDbLine
 10
823.992101947719
 20
1808.79032323456
 30
0.0
 11
824.5482450366639
 21
1808.23334554577
 31
0.0
1001
REVIT
1002
{
1070
     3
1000
923261
1002
}
  0
LINE
  5
15A
330
152
100
AcDbEntity
  8
M-PIPE
100
AcDbLine
 10
823.4351242589285
 20
1809.346466323504
 30
0.0
 11
823.992101947719
 21
1808.79032323456
 31
0.0
1001
REVIT
1002
{
1070
     3
1000
923261
1002
}
  0
SPLINE
  5
15B
330
152
100
AcDbEntity
  8
M-PIPE
100
AcDbSpline
210
0.0
220
0.0
230
1.0
 70
     8
 71
     3
 72
     9
 73
     5
 74
     0
 42
0.000000001
 43
0.0000000001
 40
0.0
 40
0.0
 40
0.0
 40
0.0
 40
0.5
 40
1.0
 40
1.0
 40
1.0
 40
1.0
 10
823.4351242589285
 20
1809.346466323504
 30
0.0
 10
823.2513739434905
 20
1809.504487572075
 30
0.0
 10
822.8957616633792
 20
1809.798461745109
 30
0.0
 10
822.5610124181166
 20
1810.045385603251
 30
0.0
 10
822.3979543129091
 20
1810.15618571231
 30
0.0
1001
REVIT
1002
{
1070
     3
1000
923261
1002
}
  0
LINE
  5
15C
330
152
100
AcDbEntity
  8
M-PIPE
100
AcDbLine
 10
822.3979543129091
 20
1810.15618571231
 30
0.0
 11
815.3926779949385
 21
1817.16146203028
 31
0.0
1001
REVIT
1002
{
1070
     3
1000
923261
1002
}
  0
LINE
  5
15D
330
152
100
AcDbEntity
  8
M-PIPE
100
AcDbLine
 10
775.0077675249432
 20
1776.776551560283
 30
0.0
 11
791.9783302734203
 21
1759.805988811806
 31
0.0
1001
REVIT
1002
{
1070
     3
1000
923261
1002
}
  0
LINE
  5
15E
330
152
100
AcDbEntity
  8
M-PIPE
100
AcDbLine
 10
762.166407443158
 20
1788.46462873005
 30
0.0
 11
770.1664074431582
 21
1788.46462873005
 31
0.0
1001
REVIT
1002
{
1070
     3
1000
923261
1002
}
  0
LINE
  5
15F
330
152
100
AcDbEntity
  8
M-PIPE
100
AcDbLine
 10
770.1664074431577
 20
1812.46462873005
 30
0.0
 11
762.1664074431577
 21
1812.46462873005
 31
0.0
1001
REVIT
1002
{
1070
     3
1000
923261
1002
}
  0
LINE
  5
160
330
152
100
AcDbEntity
  8
M-PIPE
100
AcDbLine
 10
757.1664074431573
 20
1792.46462873005
 30
0.0
 11
762.1664074431579
 21
1792.46462873005
 31
0.0
1001
REVIT
1002
{
1070
     3
1000
923261
1002
}
  0
LINE
  5
161
330
152
100
AcDbEntity
  8
M-PIPE
100
AcDbLine
 10
770.166407443158
 20
1792.46462873005
 30
0.0
 11
783.1664074431574
 21
1792.46462873005
 31
0.0
1001
REVIT
1002
{
1070
     3
1000
923261
1002
}
  0
LINE
  5
162
330
152
100
AcDbEntity
  8
M-PIPE
100
AcDbLine
 10
783.1664074431574
 20
1808.46462873005
 30
0.0
 11
770.1664074431579
 21
1808.46462873005
 31
0.0
1001
REVIT
1002
{
1070
     3
1000
923261
1002
}
  0
LINE
  5
163
330
152
100
AcDbEntity
  8
M-PIPE
100
AcDbLine
 10
762.1664074431579
 20
1808.46462873005
 30
0.0
 11
757.1664074431573
 21
1808.46462873005
 31
0.0
1001
REVIT
1002
{
1070
     3
1000
923261
1002
}
  0
LINE
  5
164
330
152
100
AcDbEntity
  8
M-PIPE
100
AcDbLine
 10
898.6664074431578
 20
1767.464628730051
 30
0.0
 11
898.6664074431573
 21
1833.464628730051
 31
0.0
1001
REVIT
1002
{
1070
     3
1000
923261
1002
}
  0
LINE
  5
165
330
152
100
AcDbEntity
  8
M-PIPE
100
AcDbLine
 10
770.1664074431563
 20
1812.464628730049
 30
0.0
 11
770.1664074431565
 21
1788.464628730049
 31
0.0
1001
REVIT
1002
{
1070
     3
1000
923261
1002
}
  0
LINE
  5
166
330
152
100
AcDbEntity
  8
M-PIPE
100
AcDbLine
 10
762.1664074431566
 20
1788.464628730049
 30
0.0
 11
762.1664074431562
 21
1812.464628730049
 31
0.0
1001
REVIT
1002
{
1070
     3
1000
923261
1002
}
  0
LINE
  5
167
330
152
100
AcDbEntity
  8
M-PIPE
100
AcDbLine
 10
757.1664074431558
 20
1792.464628730049
 30
0.0
 11
757.1664074431558
 21
1808.464628730049
 31
0.0
1001
REVIT
1002
{
1070
     3
1000
923261
1002
}
  0
LINE
  5
168
330
152
100
AcDbEntity
  8
M-PIPE
100
AcDbLine
 10
898.6664074431564
 20
1767.46462873005
 30
0.0
 11
891.6664074431563
 21
1767.46462873005
 31
0.0
1001
REVIT
1002
{
1070
     3
1000
923261
1002
}
  0
LINE
  5
169
330
152
100
AcDbEntity
  8
M-PIPE
100
AcDbLine
 10
891.6664074431563
 20
1767.46462873005
 30
0.0
 11
799.6369701916626
 21
1767.464628730049
 31
0.0
1001
REVIT
1002
{
1070
     3
1000
923261
1002
}
  0
LINE
  5
16A
330
152
100
AcDbEntity
  8
M-PIPE
100
AcDbLine
 10
784.3196903551779
 20
1767.464628730049
 30
0.0
 11
783.1664074431563
 21
1767.464628730049
 31
0.0
1001
REVIT
1002
{
1070
     3
1000
923261
1002
}
  0
LINE
  5
16B
330
152
100
AcDbEntity
  8
M-PIPE
100
AcDbLine
 10
783.1664074431556
 20
1833.464628730049
 30
0.0
 11
891.6664074431556
 21
1833.46462873005
 31
0.0
1001
REVIT
1002
{
1070
     3
1000
923261
1002
}
  0
LINE
  5
16C
330
152
100
AcDbEntity
  8
M-PIPE
100
AcDbLine
 10
891.6664074431556
 20
1833.46462873005
 30
0.0
 11
898.6664074431557
 21
1833.46462873005
 31
0.0
1001
REVIT
1002
{
1070
     3
1000
923261
1002
}
  0
LINE
  5
16D
330
152
100
AcDbEntity
  8
M-PIPE
100
AcDbLine
 10
783.1664074431562
 20
1766.464628730049
 30
0.0
 11
783.1664074431562
 21
1767.464628730049
 31
0.0
1001
REVIT
1002
{
1070
     3
1000
923261
1002
}
  0
LINE
  5
16E
330
152
100
AcDbEntity
  8
M-PIPE
100
AcDbLine
 10
783.1664074431556
 20
1833.464628730049
 30
0.0
 11
783.1664074431561
 21
1784.935191478497
 31
0.0
1001
REVIT
1002
{
1070
     3
1000
923261
1002
}
  0
LINE
  5
16F
330
152
100
AcDbEntity
  8
M-PIPE
100
AcDbLine
 10
783.1664074431562
 20
1768.61791164207
 30
0.0
 11
783.1664074431563
 21
1767.464628730049
 31
0.0
1001
REVIT
1002
{
1070
     3
1000
923261
1002
}
  0
LINE
  5
170
330
152
100
AcDbEntity
  8
M-PIPE
100
AcDbLine
 10
783.1664074431555
 20
1833.464628730049
 30
0.0
 11
783.1664074431555
 21
1834.464628730049
 31
0.0
1001
REVIT
1002
{
1070
     3
1000
923261
1002
}
  0
LINE
  5
171
330
152
100
AcDbEntity
  8
M-PIPE
100
AcDbLine
 10
900.1664074431563
 20
1766.46462873005
 30
0.0
 11
886.1134609974229
 21
1766.46462873005
 31
0.0
1001
REVIT
1002
{
1070
     3
1000
923261
1002
}
  0
LINE
  5
172
330
152
100
AcDbEntity
  8
M-PIPE
100
AcDbLine
 10
886.1134609974239
 20
1766.46462873005
 30
0.0
 11
849.5182691001971
 21
1766.46462873005
 31
0.0
1001
REVIT
1002
{
1070
     3
1000
923261
1002
}
  0
LINE
  5
173
330
152
100
AcDbEntity
  8
M-PIPE
100
AcDbLine
 10
849.5182691001977
 20
1766.46462873005
 30
0.0
 11
798.6430530177844
 21
1766.464628730049
 31
0.0
1001
REVIT
1002
{
1070
     3
1000
923261
1002
}
  0
LINE
  5
174
330
152
100
AcDbEntity
  8
M-PIPE
100
AcDbLine
 10
785.3191098953454
 20
1766.464628730049
 30
0.0
 11
783.1664074431562
 21
1766.464628730049
 31
0.0
1001
REVIT
1002
{
1070
     3
1000
923261
1002
}
  0
LINE
  5
175
330
152
100
AcDbEntity
  8
M-PIPE
100
AcDbLine
 10
783.1664074431546
 20
1834.464628730049
 30
0.0
 11
849.5182691001959
 21
1834.46462873005
 31
0.0
1001
REVIT
1002
{
1070
     3
1000
923261
1002
}
  0
LINE
  5
176
330
152
100
AcDbEntity
  8
M-PIPE
100
AcDbLine
 10
849.5182691001955
 20
1834.46462873005
 30
0.0
 11
886.1134609974223
 21
1834.46462873005
 31
0.0
1001
REVIT
1002
{
1070
     3
1000
923261
1002
}
  0
LINE
  5
177
330
152
100
AcDbEntity
  8
M-PIPE
100
AcDbLine
 10
886.1134609974223
 20
1834.46462873005
 30
0.0
 11
900.1664074431557
 21
1834.46462873005
 31
0.0
1001
REVIT
1002
{
1070
     3
1000
923261
1002
}
  0
LINE
  5
178
330
152
100
AcDbEntity
  8
M-PIPE
100
AcDbLine
 10
900.1664074431557
 20
1834.46462873005
 30
0.0
 11
900.1664074431563
 21
1766.46462873005
 31
0.0
1001
REVIT
1002
{
1070
     3
1000
923261
1002
}
  0
LINE
  5
179
330
152
100
AcDbEntity
  8
M-PIPE
100
AcDbLine
 10
886.1134609974239
 20
1767.46462873005
 30
0.0
 11
886.1134609974239
 21
1766.46462873005
 31
0.0
1001
REVIT
1002
{
1070
     3
1000
923261
1002
}
  0
LINE
  5
17A
330
152
100
AcDbEntity
  8
M-PIPE
100
AcDbLine
 10
886.1134609974232
 20
1834.46462873005
 30
0.0
 11
886.1134609974232
 21
1833.46462873005
 31
0.0
1001
REVIT
1002
{
1070
     3
1000
923261
1002
}
  0
LINE
  5
17B
330
152
100
AcDbEntity
  8
M-PIPE
100
AcDbLine
 10
849.5182691001977
 20
1767.464628730049
 30
0.0
 11
849.5182691001977
 21
1766.46462873005
 31
0.0
1001
REVIT
1002
{
1070
     3
1000
923261
1002
}
  0
LINE
  5
17C
330
152
100
AcDbEntity
  8
M-PIPE
100
AcDbLine
 10
849.518269100197
 20
1834.46462873005
 30
0.0
 11
849.518269100197
 21
1833.46462873005
 31
0.0
1001
REVIT
1002
{
1070
     3
1000
923261
1002
}
  0
ARC
  5
17D
330
152
100
AcDbEntity
  8
M-PIPE
100
AcDbCircle
 10
849.5182691002076
 20
1787.464628730049
 30
0.0
 40
8.0
100
AcDbArc
 50
180.0
 51
359.999999999998
1001
REVIT
1002
{
1070
     3
1000
923261
1002
}
  0
ARC
  5
17E
330
152
100
AcDbEntity
  8
M-PIPE
100
AcDbCircle
 10
849.5182691002076
 20
1787.464628730049
 30
0.0
 40
7.999999999999702
100
AcDbArc
 50
0.0000000000008142
 51
180.0000000000008
1001
REVIT
1002
{
1070
     3
1000
923261
1002
}
  0
ARC
  5
17F
330
152
100
AcDbEntity
  8
M-PIPE
100
AcDbCircle
 10
815.6664074431674
 20
1800.464628730033
 30
0.0
 40
12.00000000000003
100
AcDbArc
 50
30.48057830519207
 51
59.51942169481089
1001
REVIT
1002
{
1070
     3
1000
923261
1002
}
  0
LINE
  5
180
330
152
100
AcDbEntity
  8
M-PIPE
100
AcDbLine
 10
719.1664074431231
 20
1779.514628730098
 30
0.0
 11
743.6664074431615
 21
1779.514628730098
 31
0.0
1001
REVIT
1002
{
1070
     3
1000
790271
1002
}
  0
LINE
  5
181
330
152
100
AcDbEntity
  8
M-PIPE
100
AcDbLine
 10
755.6664074431616
 20
1779.514628730098
 30
0.0
 11
756.6664074431026
 21
1779.514628730098
 31
0.0
1001
REVIT
1002
{
1070
     3
1000
790271
1002
}
  0
LINE
  5
182
330
152
100
AcDbEntity
  8
M-PIPE
100
AcDbLine
 10
756.6664074431027
 20
1821.414628730004
 30
0.0
 11
755.6664074431613
 21
1821.414628730004
 31
0.0
1001
REVIT
1002
{
1070
     3
1000
790271
1002
}
  0
LINE
  5
183
330
152
100
AcDbEntity
  8
M-PIPE
100
AcDbLine
 10
743.6664074431615
 20
1821.414628730004
 30
0.0
 11
719.1664074431234
 21
1821.414628730004
 31
0.0
1001
REVIT
1002
{
1070
     3
1000
790271
1002
}
  0
LINE
  5
184
330
152
100
AcDbEntity
  8
M-PIPE
100
AcDbLine
 10
743.66640744316
 20
1779.532737751302
 30
0.0
 11
743.66640744316
 21
1780.964628730066
 31
0.0
1001
REVIT
1002
{
1070
     3
1000
790271
1002
}
  0
LINE
  5
185
330
152
100
AcDbEntity
  8
M-PIPE
100
AcDbLine
 10
743.6664074431602
 20
1780.964628730066
 30
0.0
 11
755.6664074431601
 21
1780.964628730066
 31
0.0
1001
REVIT
1002
{
1070
     3
1000
790271
1002
}
  0
LINE
  5
186
330
152
100
AcDbEntity
  8
M-PIPE
100
AcDbLine
 10
755.6664074431601
 20
1780.964628730067
 30
0.0
 11
755.6664074431603
 21
1779.532737751302
 31
0.0
1001
REVIT
1002
{
1070
     3
1000
790271
1002
}
  0
LINE
  5
187
330
152
100
AcDbEntity
  8
M-PIPE
100
AcDbLine
 10
743.6664074431602
 20
1784.082180087282
 30
0.0
 11
743.6664074431602
 21
1797.347077372837
 31
0.0
1001
REVIT
1002
{
1070
     3
1000
790271
1002
}
  0
LINE
  5
188
330
152
100
AcDbEntity
  8
M-PIPE
100
AcDbLine
 10
743.66640744316
 20
1797.347077372836
 30
0.0
 11
755.66640744316
 21
1797.347077372836
 31
0.0
1001
REVIT
1002
{
1070
     3
1000
790271
1002
}
  0
LINE
  5
189
330
152
100
AcDbEntity
  8
M-PIPE
100
AcDbLine
 10
755.66640744316
 20
1797.347077372838
 30
0.0
 11
755.66640744316
 21
1784.082180087281
 31
0.0
1001
REVIT
1002
{
1070
     3
1000
790271
1002
}
  0
LINE
  5
18A
330
152
100
AcDbEntity
  8
M-PIPE
100
AcDbLine
 10
755.6664074431601
 20
1784.082180087282
 30
0.0
 11
743.6664074431602
 21
1784.082180087282
 31
0.0
1001
REVIT
1002
{
1070
     3
1000
790271
1002
}
  0
LINE
  5
18B
330
152
100
AcDbEntity
  8
M-PIPE
100
AcDbLine
 10
743.66640744316
 20
1803.582180087307
 30
0.0
 11
743.6664074431602
 21
1816.84707737279
 31
0.0
1001
REVIT
1002
{
1070
     3
1000
790271
1002
}
  0
LINE
  5
18C
330
152
100
AcDbEntity
  8
M-PIPE
100
AcDbLine
 10
743.6664074431599
 20
1816.84707737279
 30
0.0
 11
755.6664074431599
 21
1816.84707737279
 31
0.0
1001
REVIT
1002
{
1070
     3
1000
790271
1002
}
  0
LINE
  5
18D
330
152
100
AcDbEntity
  8
M-PIPE
100
AcDbLine
 10
755.6664074431599
 20
1816.84707737279
 30
0.0
 11
755.6664074431597
 21
1803.582180087307
 31
0.0
1001
REVIT
1002
{
1070
     3
1000
790271
1002
}
  0
LINE
  5
18E
330
152
100
AcDbEntity
  8
M-PIPE
100
AcDbLine
 10
755.66640744316
 20
1803.582180087308
 30
0.0
 11
743.66640744316
 21
1803.582180087307
 31
0.0
1001
REVIT
1002
{
1070
     3
1000
790271
1002
}
  0
LINE
  5
18F
330
152
100
AcDbEntity
  8
M-PIPE
100
AcDbLine
 10
743.6664074431599
 20
1819.964628730066
 30
0.0
 11
743.66640744316
 21
1821.396519708799
 31
0.0
1001
REVIT
1002
{
1070
     3
1000
790271
1002
}
  0
LINE
  5
190
330
152
100
AcDbEntity
  8
M-PIPE
100
AcDbLine
 10
755.6664074431599
 20
1821.396519708799
 30
0.0
 11
755.6664074431597
 21
1819.964628730067
 31
0.0
1001
REVIT
1002
{
1070
     3
1000
790271
1002
}
  0
LINE
  5
191
330
152
100
AcDbEntity
  8
M-PIPE
100
AcDbLine
 10
755.6664074431599
 20
1819.964628730066
 30
0.0
 11
743.6664074431599
 21
1819.964628730066
 31
0.0
1001
REVIT
1002
{
1070
     3
1000
790271
1002
}
  0
LINE
  5
192
330
152
100
AcDbEntity
  8
M-PIPE
100
AcDbLine
 10
719.1664074431217
 20
1800.46462873005
 30
0.0
 11
719.1664074431217
 21
1779.514628730097
 31
0.0
1001
REVIT
1002
{
1070
     3
1000
790271
1002
}
  0
LINE
  5
193
330
152
100
AcDbEntity
  8
M-PIPE
100
AcDbLine
 10
719.166407443122
 20
1821.414628730003
 30
0.0
 11
719.1664074431217
 21
1800.46462873005
 31
0.0
1001
REVIT
1002
{
1070
     3
1000
790271
1002
}
  0
LINE
  5
194
330
152
100
AcDbEntity
  8
M-PIPE
100
AcDbLine
 10
900.1664074431575
 20
1779.514628730098
 30
0.0
 11
912.1664074431961
 21
1779.514628730098
 31
0.0
1001
REVIT
1002
{
1070
     3
1000
790271
1002
}
  0
LINE
  5
195
330
152
100
AcDbEntity
  8
M-PIPE
100
AcDbLine
 10
912.1664074431953
 20
1821.414628730005
 30
0.0
 11
900.1664074431573
 21
1821.414628730005
 31
0.0
1001
REVIT
1002
{
1070
     3
1000
790271
1002
}
  0
LINE
  5
196
330
152
100
AcDbEntity
  8
M-PIPE
100
AcDbLine
 10
912.1664074431944
 20
1779.514628730098
 30
0.0
 11
912.1664074431937
 21
1821.414628730004
 31
0.0
1001
REVIT
1002
{
1070
     3
1000
790271
1002
}
  0
LINE
  5
197
330
152
100
AcDbEntity
  8
M-PIPE
100
AcDbLine
 10
756.6664074431026
 20
1776.215917424159
 30
0.0
 11
758.2549471117631
 21
1773.4644860082
 31
0.0
1001
REVIT
1002
{
1070
     3
1000
790271
1002
}
  0
LINE
  5
198
330
152
100
AcDbEntity
  8
M-PIPE
100
AcDbLine
 10
758.2549471117827
 20
1827.464771452054
 30
0.0
 11
756.6664074431031
 21
1824.713340036063
 31
0.0
1001
REVIT
1002
{
1070
     3
1000
790271
1002
}
  0
LINE
  5
199
330
152
100
AcDbEntity
  8
M-PIPE
100
AcDbLine
 10
775.3071887079252
 20
1827.464628730127
 30
0.0
 11
759.5557531971709
 21
1827.464628730127
 31
0.0
1001
REVIT
1002
{
1070
     3
1000
790271
1002
}
  0
LINE
  5
19A
330
152
100
AcDbEntity
  8
M-PIPE
100
AcDbLine
 10
759.5557531971528
 20
1773.464628730127
 30
0.0
 11
775.3071887079425
 21
1773.464628730127
 31
0.0
1001
REVIT
1002
{
1070
     3
1000
790271
1002
}
  0
LINE
  5
19B
330
152
100
AcDbEntity
  8
M-PIPE
100
AcDbLine
 10
776.6079947933324
 20
1773.4644860082
 30
0.0
 11
776.6664074431026
 21
1773.565659685407
 31
0.0
1001
REVIT
1002
{
1070
     3
1000
790271
1002
}
  0
LINE
  5
19C
330
152
100
AcDbEntity
  8
M-PIPE
100
AcDbLine
 10
776.666407443103
 20
1827.363597774814
 30
0.0
 11
776.6079947933135
 21
1827.464771452054
 31
0.0
1001
REVIT
1002
{
1070
     3
1000
790271
1002
}
  0
LINE
  5
19D
330
152
100
AcDbEntity
  8
M-PIPE
100
AcDbLine
 10
756.6664074431011
 20
1776.215917424158
 30
0.0
 11
756.6664074431011
 21
1800.46462873011
 31
0.0
1001
REVIT
1002
{
1070
     3
1000
790271
1002
}
  0
LINE
  5
19E
330
152
100
AcDbEntity
  8
M-PIPE
100
AcDbLine
 10
756.6664074431011
 20
1800.46462873011
 30
0.0
 11
756.6664074431015
 21
1824.713340036062
 31
0.0
1001
REVIT
1002
{
1070
     3
1000
790271
1002
}
  0
LINE
  5
19F
330
152
100
AcDbEntity
  8
M-PIPE
100
AcDbLine
 10
776.666407443101
 20
1792.456995990612
 30
0.0
 11
776.666407443101
 21
1778.434910252262
 31
0.0
1001
REVIT
1002
{
1070
     3
1000
790271
1002
}
  0
LINE
  5
1A0
330
152
100
AcDbEntity
  8
M-PIPE
100
AcDbLine
 10
776.666407443101
 20
1775.109222151376
 30
0.0
 11
776.6664074431011
 21
1773.565659685406
 31
0.0
1001
REVIT
1002
{
1070
     3
1000
790271
1002
}
  0
LINE
  5
1A1
330
152
100
AcDbEntity
  8
M-PIPE
100
AcDbLine
 10
776.6664074431015
 20
1827.363597774813
 30
0.0
 11
776.6664074431011
 21
1808.472261469486
 31
0.0
1001
REVIT
1002
{
1070
     3
1000
790271
1002
}
  0
SPLINE
  5
1A2
330
152
100
AcDbEntity
  8
M-PIPE
100
AcDbSpline
210
0.0
220
0.0
230
1.0
 70
     8
 71
     3
 72
     9
 73
     5
 74
     0
 42
0.000000001
 43
0.0000000001
 40
0.0
 40
0.0
 40
0.0
 40
0.0
 40
0.5
 40
0.7927835717241453
 40
0.7927835717241453
 40
0.7927835717241453
 40
0.7927835717241453
 10
759.5557531971665
 20
1823.714628730126
 30
0.0
 10
758.6885207531622
 20
1820.499863147442
 30
0.0
 10
758.0009931186882
 20
1815.374703198442
 30
0.0
 10
758.403586711645
 20
1810.205253178749
 30
0.0
 10
758.7009510726224
 20
1808.29007847267
 30
0.0
1001
REVIT
1002
{
1070
     3
1000
790271
1002
}
  0
SPLINE
  5
1A3
330
152
100
AcDbEntity
  8
M-PIPE
100
AcDbSpline
210
0.0
220
0.0
230
1.0
 70
     8
 71
     3
 72
     9
 73
     5
 74
     0
 42
0.000000001
 43
0.0000000001
 40
0.2072164282758589
 40
0.2072164282758589
 40
0.2072164282758589
 40
0.2072164282758589
 40
0.5
 40
1.0
 40
1.0
 40
1.0
 40
1.0
 10
776.1619908324702
 20
1808.29007847267
 30
0.0
 10
776.4593551934476
 20
1810.205253178749
 30
0.0
 10
776.8619487864043
 20
1815.374703198442
 30
0.0
 10
776.1744211519306
 20
1820.499863147442
 30
0.0
 10
775.3071887079263
 20
1823.714628730126
 30
0.0
1001
REVIT
1002
{
1070
     3
1000
790271
1002
}
  0
SPLINE
  5
1A4
330
152
100
AcDbEntity
  8
M-PIPE
100
AcDbSpline
210
0.0
220
0.0
230
1.0
 70
    24
 71
     3
 72
     8
 73
     4
 74
     0
 42
0.000000001
 43
0.0000000001
 40
0.5
 40
0.5
 40
0.5
 40
0.5
 40
1.0
 40
1.0
 40
1.0
 40
1.0
 10
758.2549045311691
 20
1827.464628730126
 30
0.0
 10
758.2549045311682
 20
1827.464628730126
 30
0.0
 10
758.6885207531683
 20
1827.464628730126
 30
0.0
 10
759.5557531971694
 20
1827.464628730126
 30
0.0
1001
REVIT
1002
{
1070
     3
1000
790271
1002
}
  0
SPLINE
  5
1A5
330
152
100
AcDbEntity
  8
M-PIPE
100
AcDbSpline
210
0.0
220
0.0
230
1.0
 70
    24
 71
     3
 72
     8
 73
     4
 74
     0
 42
0.000000001
 43
0.0000000001
 40
0.0
 40
0.0
 40
0.0
 40
0.0
 40
0.5
 40
0.5
 40
0.5
 40
0.5
 10
775.3071887079237
 20
1827.464628730126
 30
0.0
 10
776.1744211519247
 20
1827.464628730126
 30
0.0
 10
776.6080373739249
 20
1827.464628730126
 30
0.0
 10
776.6080373739241
 20
1827.464628730126
 30
0.0
1001
REVIT
1002
{
1070
     3
1000
790271
1002
}
  0
SPLINE
  5
1A6
330
152
100
AcDbEntity
  8
M-PIPE
100
AcDbSpline
210
0.0
220
0.0
230
1.0
 70
    24
 71
     3
 72
     9
 73
     5
 74
     0
 42
0.000000001
 43
0.0000000001
 40
0.0
 40
0.0
 40
0.0
 40
0.0
 40
0.5
 40
0.5028606357769885
 40
0.5028606357769885
 40
0.5028606357769885
 40
0.5028606357769885
 10
759.5557531971515
 20
1773.464628730126
 30
0.0
 10
758.6885207531492
 20
1773.464628730126
 30
0.0
 10
758.2524236949915
 20
1773.464628730126
 30
0.0
 10
758.2549187246869
 20
1773.464628730126
 30
0.0
 10
758.2549471117616
 20
1773.464628730126
 30
0.0
1001
REVIT
1002
{
1070
     3
1000
790271
1002
}
  0
SPLINE
  5
1A7
330
152
100
AcDbEntity
  8
M-PIPE
100
AcDbSpline
210
0.0
220
0.0
230
1.0
 70
    24
 71
     3
 72
     9
 73
     5
 74
     0
 42
0.000000001
 43
0.0000000001
 40
0.4971393642229817
 40
0.4971393642229817
 40
0.4971393642229817
 40
0.4971393642229817
 40
0.5
 40
1.0
 40
1.0
 40
1.0
 40
1.0
 10
776.6079947933309
 20
1773.464628730126
 30
0.0
 10
776.6080231804056
 20
1773.464628730126
 30
0.0
 10
776.6105182100999
 20
1773.464628730126
 30
0.0
 10
776.1744211521
 20
1773.464628730126
 30
0.0
 10
775.307188707941
 20
1773.464628730126
 30
0.0
1001
REVIT
1002
{
1070
     3
1000
790271
1002
}
  0
SPLINE
  5
1A8
330
152
100
AcDbEntity
  8
M-PIPE
100
AcDbSpline
210
0.0
220
0.0
230
1.0
 70
     8
 71
     3
 72
     9
 73
     5
 74
     0
 42
0.000000001
 43
0.0000000001
 40
0.2106695300408823
 40
0.2106695300408823
 40
0.2106695300408823
 40
0.2106695300408823
 40
0.5
 40
1.0
 40
1.0
 40
1.0
 40
1.0
 10
758.6904917340767
 20
1792.641727233501
 30
0.0
 10
758.4001002654579
 20
1790.772877369968
 30
0.0
 10
758.0039877605607
 20
1785.658322801355
 30
0.0
 10
758.6885207531484
 20
1780.499863147442
 30
0.0
 10
759.555753197151
 20
1777.214628730126
 30
0.0
1001
REVIT
1002
{
1070
     3
1000
790271
1002
}
  0
SPLINE
  5
1A9
330
152
100
AcDbEntity
  8
M-PIPE
100
AcDbSpline
210
0.0
220
0.0
230
1.0
 70
     8
 71
     3
 72
     9
 73
     5
 74
     0
 42
0.000000001
 43
0.0000000001
 40
0.0
 40
0.0
 40
0.0
 40
0.0
 40
0.5
 40
0.7893304699591177
 40
0.7893304699591177
 40
0.7893304699591177
 40
0.7893304699591177
 10
775.3071887079413
 20
1777.214628730126
 30
0.0
 10
776.174421151944
 20
1780.499863147442
 30
0.0
 10
776.8589541445317
 20
1785.658322801355
 30
0.0
 10
776.4628416396342
 20
1790.772877369968
 30
0.0
 10
776.1724501710155
 20
1792.641727233501
 30
0.0
1001
REVIT
1002
{
1070
     3
1000
790271
1002
}
  0
SPLINE
  5
1AA
330
152
100
AcDbEntity
  8
M-PIPE
100
AcDbSpline
210
0.0
220
0.0
230
1.0
 70
     8
 71
     3
 72
     9
 73
     5
 74
     0
 42
0.000000001
 43
0.0000000001
 40
0.0
 40
0.0
 40
0.0
 40
0.0
 40
0.5
 40
1.0
 40
1.0
 40
1.0
 40
1.0
 10
775.3071887079263
 20
1823.714628730126
 30
0.0
 10
775.1618158887882
 20
1824.273833750885
 30
0.0
 10
774.9429795255069
 20
1825.316203009036
 30
0.0
 10
774.8679617122166
 20
1826.128177958281
 30
0.0
 10
774.8664074430693
 20
1826.459819258513
 30
0.0
1001
REVIT
1002
{
1070
     3
1000
790271
1002
}
  0
SPLINE
  5
1AB
330
152
100
AcDbEntity
  8
M-PIPE
100
AcDbSpline
210
0.0
220
0.0
230
1.0
 70
     8
 71
     3
 72
     9
 73
     5
 74
     0
 42
0.000000001
 43
0.0000000001
 40
0.0
 40
0.0
 40
0.0
 40
0.0
 40
0.5
 40
1.0
 40
1.0
 40
1.0
 40
1.0
 10
774.8664074430693
 20
1826.459819258513
 30
0.0
 10
774.8679617122166
 20
1826.791460558743
 30
0.0
 10
774.9429795255064
 20
1827.296898348289
 30
0.0
 10
775.1618158887862
 20
1827.464628730126
 30
0.0
 10
775.3071887079237
 20
1827.464628730126
 30
0.0
1001
REVIT
1002
{
1070
     3
1000
790271
1002
}
  0
SPLINE
  5
1AC
330
152
100
AcDbEntity
  8
M-PIPE
100
AcDbSpline
210
0.0
220
0.0
230
1.0
 70
     8
 71
     3
 72
    10
 73
     6
 74
     0
 42
0.000000001
 43
0.0000000001
 40
-1.0
 40
-1.0
 40
-1.0
 40
-1.0
 40
-0.7
 40
-0.4
 40
0.0
 40
0.0
 40
0.0
 40
0.0
 10
759.5557531971665
 20
1823.714628730126
 30
0.0
 10
759.7292156454805
 20
1824.384028964313
 30
0.0
 10
759.9765293207982
 20
1825.618567557483
 30
0.0
 10
760.0389464413694
 20
1827.083239370614
 30
0.0
 10
759.7873889497109
 20
1827.464628730126
 30
0.0
 10
759.5557531971694
 20
1827.464628730126
 30
0.0
1001
REVIT
1002
{
1070
     3
1000
790271
1002
}
  0
SPLINE
  5
1AD
330
152
100
AcDbEntity
  8
M-PIPE
100
AcDbSpline
210
0.0
220
0.0
230
1.0
 70
     8
 71
     3
 72
     9
 73
     5
 74
     0
 42
0.000000001
 43
0.0000000001
 40
0.0
 40
0.0
 40
0.0
 40
0.0
 40
0.5
 40
1.0
 40
1.0
 40
1.0
 40
1.0
 10
775.307188707941
 20
1773.464628730126
 30
0.0
 10
775.161815888806
 20
1773.464628730126
 30
0.0
 10
774.9429795255256
 20
1773.632359111964
 30
0.0
 10
774.8679617122245
 20
1774.137796901512
 30
0.0
 10
774.8664074430688
 20
1774.469438201742
 30
0.0
1001
REVIT
1002
{
1070
     3
1000
790271
1002
}
  0
SPLINE
  5
1AE
330
152
100
AcDbEntity
  8
M-PIPE
100
AcDbSpline
210
0.0
220
0.0
230
1.0
 70
     8
 71
     3
 72
     9
 73
     5
 74
     0
 42
0.000000001
 43
0.0000000001
 40
0.0
 40
0.0
 40
0.0
 40
0.0
 40
0.5
 40
0.8152745502366499
 40
0.8152745502366499
 40
0.8152745502366499
 40
0.8152745502366499
 10
774.8664074430688
 20
1774.469438201742
 30
0.0
 10
774.8679617122245
 20
1774.801079501973
 30
0.0
 10
774.9291218262234
 20
1775.463062013522
 30
0.0
 10
775.0858741886526
 20
1776.278181307614
 30
0.0
 10
775.1607871248812
 20
1776.611388283787
 30
0.0
1001
REVIT
1002
{
1070
     3
1000
790271
1002
}
  0
SPLINE
  5
1AF
330
152
100
AcDbEntity
  8
M-PIPE
100
AcDbSpline
210
0.0
220
0.0
230
1.0
 70
     8
 71
     3
 72
     8
 73
     4
 74
     0
 42
0.000000001
 43
0.0000000001
 40
0.9439001289842549
 40
0.9439001289842549
 40
0.9439001289842549
 40
0.9439001289842549
 40
1.0
 40
1.0
 40
1.0
 40
1.0
 10
775.2596142048173
 20
1777.027864297558
 30
0.0
 10
775.2750197474279
 20
1777.089622042409
 30
0.0
 10
775.290877915136
 20
1777.151886071054
 30
0.0
 10
775.3071887079413
 20
1777.214628730126
 30
0.0
1001
REVIT
1002
{
1070
     3
1000
790271
1002
}
  0
SPLINE
  5
1B0
330
152
100
AcDbEntity
  8
M-PIPE
100
AcDbSpline
210
0.0
220
0.0
230
1.0
 70
     8
 71
     3
 72
    10
 73
     6
 74
     0
 42
0.000000001
 43
0.0000000001
 40
-1.0
 40
-1.0
 40
-1.0
 40
-1.0
 40
-0.7
 40
-0.4
 40
0.0
 40
0.0
 40
0.0
 40
0.0
 10
759.5557531971514
 20
1773.464628730126
 30
0.0
 10
759.729215645465
 20
1773.464628730126
 30
0.0
 10
759.9765293207822
 20
1773.705711026334
 30
0.0
 10
760.0389464413519
 20
1774.921148311968
 30
0.0
 10
759.7873889496927
 20
1776.32025694472
 30
0.0
 10
759.555753197151
 20
1777.214628730126
 30
0.0
1001
REVIT
1002
{
1070
     3
1000
790271
1002
}
  0
LINE
  5
1B1
330
152
100
AcDbEntity
  8
P-SANR-FIXT
100
AcDbLine
 10
781.6664074431594
 20
1824.264628730051
 30
0.0
 11
776.6664074431028
 21
1824.264628730051
 31
0.0
  0
LINE
  5
1B2
330
152
100
AcDbEntity
  8
P-SANR-FIXT
100
AcDbLine
 10
781.6664074431582
 20
1783.435191478498
 30
0.0
 11
781.666407443158
 21
1792.464628730049
 31
0.0
  0
LINE
  5
1B3
330
152
100
AcDbEntity
  8
P-SANR-FIXT
100
AcDbLine
 10
781.666407443158
 20
1808.464628730049
 30
0.0
 11
781.6664074431579
 21
1823.707414522625
 31
0.0
  0
LINE
  5
1B4
330
152
100
AcDbEntity
  8
P-SANR-FIXT
100
AcDbLine
 10
781.6664074431579
 20
1823.707414522625
 30
0.0
 11
781.6664074431579
 21
1827.46462873005
 31
0.0
  0
LINE
  5
1B5
330
152
100
AcDbEntity
  8
P-SANR-FIXT
100
AcDbLine
 10
783.1664074431556
 20
1827.46462873005
 30
0.0
 11
781.6664074431579
 21
1827.46462873005
 31
0.0
  0
LINE
  5
1B6
330
152
100
AcDbEntity
  8
P-SANR-FIXT
100
AcDbLine
 10
781.6664074431579
 20
1823.707414522625
 30
0.0
 11
783.1664074431557
 21
1823.707414522625
 31
0.0
  0
ENDBLK
  5
1B8
330
152
100
AcDbEntity
  8
0
100
AcDbBlockEnd
  0
BLOCK
  5
2AE
330
1BA
100
AcDbEntity
  8
0
100
AcDbBlockBegin
  2
Automatic flow rate regulator valve_Caleffi_121 DN15 - 1_2__-V2-Est - Idraulica
 70
     0
 10
0.0
 20
0.0
 30
0.0
  3
Automatic flow rate regulator valve_Caleffi_121 DN15 - 1_2__-V2-Est - Idraulica
  1

  0
LINE
  5
1BB
330
1BA
100
AcDbEntity
  8
M-PIPE
100
AcDbLine
 10
1085.31435394312
 20
2111.008503219288
 30
0.0
 11
1085.31435394312
 21
2110.092558850104
 31
0.0
1001
REVIT
1002
{
1070
     3
1000
923261
1002
}
  0
LINE
  5
1BC
330
1BA
100
AcDbEntity
  8
M-PIPE
100
AcDbLine
 10
1108.91435394312
 20
2110.092558850121
 30
0.0
 11
1108.91435394312
 21
2111.008503219288
 31
0.0
1001
REVIT
1002
{
1070
     3
1000
923261
1002
}
  0
LINE
  5
1BD
330
1BA
100
AcDbEntity
  8
M-PIPE
100
AcDbLine
 10
1137.772993861341
 20
2127.092558850087
 30
0.0
 11
1137.772993861341
 21
2123.092558850087
 31
0.0
1001
REVIT
1002
{
1070
     3
1000
923261
1002
}
  0
ELLIPSE
  5
1BE
330
1BA
100
AcDbEntity
  8
M-PIPE
100
AcDbEllipse
 10
1116.782382596464
 20
2119.277765983343
 30
0.0
 11
0.0
 21
3.814792866744028
 31
0.0
210
0.0
220
0.0
230
1.0
 40
0.7071067811865332
 41
0.0000000000000016
 42
1.570796326797633
1001
REVIT
1002
{
1070
     3
1000
923261
1002
}
  0
LINE
  5
1BF
330
1BA
100
AcDbEntity
  8
M-PIPE
100
AcDbLine
 10
1114.084916691568
 20
2119.277765983332
 30
0.0
 11
1114.084916691584
 21
2111.008503219287
 31
0.0
1001
REVIT
1002
{
1070
     3
1000
923261
1002
}
  0
ELLIPSE
  5
1C0
330
1BA
100
AcDbEntity
  8
M-PIPE
100
AcDbEllipse
 10
1099.811819847987
 20
2119.277765983343
 30
0.0
 11
0.0
 21
3.814792866744028
 31
0.0
210
0.0
220
0.0
230
1.0
 40
0.7071067811865332
 41
0.0000000000000016
 42
1.570796326797514
1001
REVIT
1002
{
1070
     3
1000
923261
1002
}
  0
LINE
  5
1C1
330
1BA
100
AcDbEntity
  8
M-PIPE
100
AcDbLine
 10
1099.811819847987
 20
2123.092558850087
 30
0.0
 11
1120.802431112864
 21
2123.092558850087
 31
0.0
1001
REVIT
1002
{
1070
     3
1000
923261
1002
}
  0
LINE
  5
1C2
330
1BA
100
AcDbEntity
  8
M-PIPE
100
AcDbLine
 10
1120.802431112864
 20
2123.092558850087
 30
0.0
 11
1120.802431112864
 21
2127.092558850087
 31
0.0
1001
REVIT
1002
{
1070
     3
1000
923261
1002
}
  0
LINE
  5
1C3
330
1BA
100
AcDbEntity
  8
M-PIPE
100
AcDbLine
 10
1120.802431112864
 20
2127.092558850087
 30
0.0
 11
1094.285926818369
 21
2127.092558850087
 31
0.0
1001
REVIT
1002
{
1070
     3
1000
923261
1002
}
  0
ELLIPSE
  5
1C4
330
1BA
100
AcDbEntity
  8
M-PIPE
100
AcDbEllipse
 10
1094.285926818369
 20
2107.092558850087
 30
0.0
 11
0.0000000000004542
 21
19.99999999999954
 31
0.0
210
0.0
220
0.0
230
0.9999999999999998
 40
0.7071067811865579
 41
0.000000000000016
 42
1.373725988846904
1001
REVIT
1002
{
1070
     3
1000
923261
1002
}
  0
LINE
  5
1C5
330
1BA
100
AcDbEntity
  8
M-PIPE
100
AcDbLine
 10
1080.417520642868
 20
2111.008503219287
 30
0.0
 11
1097.114353943107
 21
2111.008503219287
 31
0.0
1001
REVIT
1002
{
1070
     3
1000
923261
1002
}
  0
LINE
  5
1C6
330
1BA
100
AcDbEntity
  8
M-PIPE
100
AcDbLine
 10
1097.114353943107
 20
2111.008503219287
 30
0.0
 11
1097.114353943091
 21
2119.277765983333
 31
0.0
1001
REVIT
1002
{
1070
     3
1000
923261
1002
}
  0
LINE
  5
1C7
330
1BA
100
AcDbEntity
  8
M-PIPE
100
AcDbLine
 10
1120.802431112864
 20
2127.092558850087
 30
0.0
 11
1137.772993861341
 21
2127.092558850087
 31
0.0
1001
REVIT
1002
{
1070
     3
1000
923261
1002
}
  0
LINE
  5
1C8
330
1BA
100
AcDbEntity
  8
M-PIPE
100
AcDbLine
 10
1120.802431112864
 20
2123.092558850087
 30
0.0
 11
1137.772993861341
 21
2123.092558850087
 31
0.0
1001
REVIT
1002
{
1070
     3
1000
923261
1002
}
  0
LINE
  5
1C9
330
1BA
100
AcDbEntity
  8
M-PIPE
100
AcDbLine
 10
1097.114353943107
 20
2111.008503219287
 30
0.0
 11
1114.084916691584
 21
2111.008503219287
 31
0.0
1001
REVIT
1002
{
1070
     3
1000
923261
1002
}
  0
LINE
  5
1CA
330
1BA
100
AcDbEntity
  8
M-PIPE
100
AcDbLine
 10
1109.614353943116
 20
2030.982558850012
 30
0.0
 11
1109.614353943116
 21
2047.882558850073
 31
0.0
1001
REVIT
1002
{
1070
     3
1000
923261
1002
}
  0
LINE
  5
1CB
330
1BA
100
AcDbEntity
  8
M-PIPE
100
AcDbLine
 10
1084.614353943116
 20
2047.882558850073
 30
0.0
 11
1084.614353943116
 21
2030.982558850012
 31
0.0
1001
REVIT
1002
{
1070
     3
1000
923261
1002
}
  0
LINE
  5
1CC
330
1BA
100
AcDbEntity
  8
M-PIPE
100
AcDbLine
 10
1064.1143539431
 20
2047.882558850073
 30
0.0
 11
1130.1143539431
 21
2047.882558850072
 31
0.0
1001
REVIT
1002
{
1070
     3
1000
923261
1002
}
  0
LINE
  5
1CD
330
1BA
100
AcDbEntity
  8
M-PIPE
100
AcDbLine
 10
1118.114353943101
 20
2039.882558850073
 30
0.0
 11
1118.114353943101
 21
2047.882558850073
 31
0.0
1001
REVIT
1002
{
1070
     3
1000
923261
1002
}
  0
LINE
  5
1CE
330
1BA
100
AcDbEntity
  8
M-PIPE
100
AcDbLine
 10
1063.1143539431
 20
2067.980230221087
 30
0.0
 11
1064.1143539431
 21
2067.980230221087
 31
0.0
1001
REVIT
1002
{
1070
     3
1000
923261
1002
}
  0
LINE
  5
1CF
330
1BA
100
AcDbEntity
  8
M-PIPE
100
AcDbLine
 10
1130.114353943101
 20
2067.980230221085
 30
0.0
 11
1131.114353943101
 21
2067.980230221085
 31
0.0
1001
REVIT
1002
{
1070
     3
1000
923261
1002
}
  0
LINE
  5
1D0
330
1BA
100
AcDbEntity
  8
M-PIPE
100
AcDbLine
 10
1114.114353943101
 20
2108.092558850072
 30
0.0
 11
1114.114353943101
 21
2111.008503219288
 31
0.0
1001
REVIT
1002
{
1070
     3
1000
923261
1002
}
  0
LINE
  5
1D1
330
1BA
100
AcDbEntity
  8
M-PIPE
100
AcDbLine
 10
1118.114353943101
 20
2118.09255885001
 30
0.0
 11
1118.114353943101
 21
2123.092558850073
 31
0.0
1001
REVIT
1002
{
1070
     3
1000
923261
1002
}
  0
LINE
  5
1D2
330
1BA
100
AcDbEntity
  8
M-PIPE
100
AcDbLine
 10
1109.114353943117
 20
2108.092558850073
 30
0.0
 11
1109.114353943117
 21
2110.092558850073
 31
0.0
1001
REVIT
1002
{
1070
     3
1000
923261
1002
}
  0
LINE
  5
1D3
330
1BA
100
AcDbEntity
  8
M-PIPE
100
AcDbLine
 10
1085.114353943117
 20
2110.092558850073
 30
0.0
 11
1085.114353943117
 21
2108.092558850073
 31
0.0
1001
REVIT
1002
{
1070
     3
1000
923261
1002
}
  0
ARC
  5
1D4
330
1BA
100
AcDbEntity
  8
M-PIPE
100
AcDbCircle
 10
1097.114353943098
 20
2089.092558850072
 30
0.0
 40
12.0
100
AcDbArc
 50
180.0
 51
0.0
1001
REVIT
1002
{
1070
     3
1000
923261
1002
}
  0
ARC
  5
1D5
330
1BA
100
AcDbEntity
  8
M-PIPE
100
AcDbCircle
 10
1097.114353943098
 20
2089.092558850072
 30
0.0
 40
11.99999999999977
100
AcDbArc
 50
0.0
 51
180.0
1001
REVIT
1002
{
1070
     3
1000
923261
1002
}
  0
ARC
  5
1D6
330
1BA
100
AcDbEntity
  8
M-PIPE
100
AcDbCircle
 10
1097.114353943098
 20
2089.092558850072
 30
0.0
 40
8.0
100
AcDbArc
 50
0.0
 51
180.0
1001
REVIT
1002
{
1070
     3
1000
923261
1002
}
  0
ARC
  5
1D7
330
1BA
100
AcDbEntity
  8
M-PIPE
100
AcDbCircle
 10
1097.114353943098
 20
2089.092558850072
 30
0.0
 40
8.0
100
AcDbArc
 50
180.0
 51
0.0
1001
REVIT
1002
{
1070
     3
1000
923261
1002
}
  0
LINE
  5
1D8
330
1BA
100
AcDbEntity
  8
M-PIPE
100
AcDbLine
 10
1098.20380072746
 20
2047.882558850072
 30
0.0
 11
1097.114353943115
 21
2047.882558850072
 31
0.0
1001
REVIT
1002
{
1070
     3
1000
923261
1002
}
  0
LINE
  5
1D9
330
1BA
100
AcDbEntity
  8
M-PIPE
100
AcDbLine
 10
1097.114353943115
 20
2047.882558850072
 30
0.0
 11
1096.024907158769
 21
2047.882558850072
 31
0.0
1001
REVIT
1002
{
1070
     3
1000
923261
1002
}
  0
LINE
  5
1DA
330
1BA
100
AcDbEntity
  8
M-PIPE
100
AcDbLine
 10
1130.114353943098
 20
2067.882558850071
 30
0.0
 11
1130.114353943098
 21
2047.882558850071
 31
0.0
1001
REVIT
1002
{
1070
     3
1000
923261
1002
}
  0
LINE
  5
1DB
330
1BA
100
AcDbEntity
  8
M-PIPE
100
AcDbLine
 10
1130.114353943098
 20
2068.092558850071
 30
0.0
 11
1130.114353943098
 21
2067.882558850072
 31
0.0
1001
REVIT
1002
{
1070
     3
1000
923261
1002
}
  0
LINE
  5
1DC
330
1BA
100
AcDbEntity
  8
M-PIPE
100
AcDbLine
 10
1130.114353943099
 20
2108.092558850072
 30
0.0
 11
1130.114353943098
 21
2078.204887479057
 31
0.0
1001
REVIT
1002
{
1070
     3
1000
923261
1002
}
  0
LINE
  5
1DD
330
1BA
100
AcDbEntity
  8
M-PIPE
100
AcDbLine
 10
1064.114353943098
 20
2078.204887479058
 30
0.0
 11
1064.114353943099
 21
2108.092558850072
 31
0.0
1001
REVIT
1002
{
1070
     3
1000
923261
1002
}
  0
LINE
  5
1DE
330
1BA
100
AcDbEntity
  8
M-PIPE
100
AcDbLine
 10
1064.114353943098
 20
2047.882558850072
 30
0.0
 11
1064.114353943098
 21
2067.882558850072
 31
0.0
1001
REVIT
1002
{
1070
     3
1000
923261
1002
}
  0
LINE
  5
1DF
330
1BA
100
AcDbEntity
  8
M-PIPE
100
AcDbLine
 10
1064.114353943098
 20
2067.882558850072
 30
0.0
 11
1064.114353943098
 21
2068.092558850072
 31
0.0
1001
REVIT
1002
{
1070
     3
1000
923261
1002
}
  0
LINE
  5
1E0
330
1BA
100
AcDbEntity
  8
M-PIPE
100
AcDbLine
 10
1131.114353943099
 20
2078.204887479057
 30
0.0
 11
1130.114353943098
 21
2078.204887479057
 31
0.0
1001
REVIT
1002
{
1070
     3
1000
923261
1002
}
  0
LINE
  5
1E1
330
1BA
100
AcDbEntity
  8
M-PIPE
100
AcDbLine
 10
1064.114353943099
 20
2108.092558850072
 30
0.0
 11
1130.114353943099
 21
2108.092558850072
 31
0.0
1001
REVIT
1002
{
1070
     3
1000
923261
1002
}
  0
LINE
  5
1E2
330
1BA
100
AcDbEntity
  8
M-PIPE
100
AcDbLine
 10
1064.114353943098
 20
2078.204887479058
 30
0.0
 11
1063.114353943098
 21
2078.204887479058
 31
0.0
1001
REVIT
1002
{
1070
     3
1000
923261
1002
}
  0
LINE
  5
1E3
330
1BA
100
AcDbEntity
  8
M-PIPE
100
AcDbLine
 10
1110.1143539431
 20
2039.882558850072
 30
0.0
 11
1109.61325144815
 21
2039.882558850072
 31
0.0
1001
REVIT
1002
{
1070
     3
1000
923261
1002
}
  0
LINE
  5
1E4
330
1BA
100
AcDbEntity
  8
M-PIPE
100
AcDbLine
 10
1118.114353943099
 20
2039.882558850072
 30
0.0
 11
1110.1143539431
 21
2039.882558850072
 31
0.0
1001
REVIT
1002
{
1070
     3
1000
923261
1002
}
  0
LINE
  5
1E5
330
1BA
100
AcDbEntity
  8
M-PIPE
100
AcDbLine
 10
1131.114353943098
 20
2068.092558850071
 30
0.0
 11
1131.114353943099
 21
2078.204887479057
 31
0.0
1001
REVIT
1002
{
1070
     3
1000
923261
1002
}
  0
LINE
  5
1E6
330
1BA
100
AcDbEntity
  8
M-PIPE
100
AcDbLine
 10
1131.114353943098
 20
2068.092558850071
 30
0.0
 11
1131.114353943098
 21
2068.068477585899
 31
0.0
1001
REVIT
1002
{
1070
     3
1000
923261
1002
}
  0
LINE
  5
1E7
330
1BA
100
AcDbEntity
  8
M-PIPE
100
AcDbLine
 10
1131.1143539431
 20
2096.092558850071
 30
0.0
 11
1131.114353943099
 21
2089.904510909428
 31
0.0
1001
REVIT
1002
{
1070
     3
1000
923261
1002
}
  0
LINE
  5
1E8
330
1BA
100
AcDbEntity
  8
M-PIPE
100
AcDbLine
 10
1131.114353943099
 20
2089.904510909428
 30
0.0
 11
1131.114353943099
 21
2078.192868349391
 31
0.0
1001
REVIT
1002
{
1070
     3
1000
923261
1002
}
  0
LINE
  5
1E9
330
1BA
100
AcDbEntity
  8
M-PIPE
100
AcDbLine
 10
1063.114353943099
 20
2078.192868349391
 30
0.0
 11
1063.114353943099
 21
2089.904510909429
 31
0.0
1001
REVIT
1002
{
1070
     3
1000
923261
1002
}
  0
LINE
  5
1EA
330
1BA
100
AcDbEntity
  8
M-PIPE
100
AcDbLine
 10
1063.114353943099
 20
2089.904510909429
 30
0.0
 11
1063.1143539431
 21
2096.092558850072
 31
0.0
1001
REVIT
1002
{
1070
     3
1000
923261
1002
}
  0
LINE
  5
1EB
330
1BA
100
AcDbEntity
  8
M-PIPE
100
AcDbLine
 10
1063.114353943098
 20
2068.0684775859
 30
0.0
 11
1063.114353943098
 21
2068.092558850072
 31
0.0
1001
REVIT
1002
{
1070
     3
1000
923261
1002
}
  0
LINE
  5
1EC
330
1BA
100
AcDbEntity
  8
M-PIPE
100
AcDbLine
 10
1063.114353943098
 20
2078.204887479058
 30
0.0
 11
1063.114353943098
 21
2068.092558850072
 31
0.0
1001
REVIT
1002
{
1070
     3
1000
923261
1002
}
  0
LINE
  5
1ED
330
1BA
100
AcDbEntity
  8
M-PIPE
100
AcDbLine
 10
1130.114353943098
 20
2068.092558850071
 30
0.0
 11
1131.114353943099
 21
2068.092558850071
 31
0.0
1001
REVIT
1002
{
1070
     3
1000
923261
1002
}
  0
LINE
  5
1EE
330
1BA
100
AcDbEntity
  8
M-PIPE
100
AcDbLine
 10
1063.114353943098
 20
2068.092558850072
 30
0.0
 11
1064.114353943098
 21
2068.092558850072
 31
0.0
1001
REVIT
1002
{
1070
     3
1000
923261
1002
}
  0
LINE
  5
1EF
330
1BA
100
AcDbEntity
  8
M-PIPE
100
AcDbLine
 10
1130.1143539431
 20
2096.092558850071
 30
0.0
 11
1131.1143539431
 21
2096.092558850071
 31
0.0
1001
REVIT
1002
{
1070
     3
1000
923261
1002
}
  0
LINE
  5
1F0
330
1BA
100
AcDbEntity
  8
M-PIPE
100
AcDbLine
 10
1063.1143539431
 20
2096.092558850072
 30
0.0
 11
1064.114353943099
 21
2096.092558850072
 31
0.0
1001
REVIT
1002
{
1070
     3
1000
923261
1002
}
  0
LINE
  5
1F1
330
1BA
100
AcDbEntity
  8
M-PIPE
100
AcDbLine
 10
1130.114353943099
 20
2089.904510909428
 30
0.0
 11
1131.114353943099
 21
2089.904510909428
 31
0.0
1001
REVIT
1002
{
1070
     3
1000
923261
1002
}
  0
LINE
  5
1F2
330
1BA
100
AcDbEntity
  8
M-PIPE
100
AcDbLine
 10
1063.114353943099
 20
2089.904510909429
 30
0.0
 11
1064.114353943099
 21
2089.904510909429
 31
0.0
1001
REVIT
1002
{
1070
     3
1000
923261
1002
}
  0
LINE
  5
1F3
330
1BA
100
AcDbEntity
  8
M-PIPE
100
AcDbLine
 10
1118.114353943099
 20
2118.092558850008
 30
0.0
 11
1114.085875228723
 21
2118.092558850008
 31
0.0
1001
REVIT
1002
{
1070
     3
1000
923261
1002
}
  0
LINE
  5
1F4
330
1BA
100
AcDbEntity
  8
M-PIPE
100
AcDbLine
 10
1097.114353943115
 20
2110.092558850072
 30
0.0
 11
1109.114353943115
 21
2110.092558850072
 31
0.0
1001
REVIT
1002
{
1070
     3
1000
923261
1002
}
  0
LINE
  5
1F5
330
1BA
100
AcDbEntity
  8
M-PIPE
100
AcDbLine
 10
1085.114353943115
 20
2110.092558850072
 30
0.0
 11
1097.114353943115
 21
2110.092558850072
 31
0.0
1001
REVIT
1002
{
1070
     3
1000
923261
1002
}
  0
ARC
  5
1F6
330
1BA
100
AcDbEntity
  8
M-PIPE
100
AcDbCircle
 10
1097.114353943097
 20
1999.982558850011
 30
0.0
 40
20.9499999999532
100
AcDbArc
 50
319.4586167514136
 51
321.4420795558131
1001
REVIT
1002
{
1070
     3
1000
790271
1002
}
  0
ARC
  5
1F7
330
1BA
100
AcDbEntity
  8
M-PIPE
100
AcDbCircle
 10
1097.114353943097
 20
1999.982558850011
 30
0.0
 40
20.94999999995319
100
AcDbArc
 50
315.0442845143899
 51
316.6771729878549
1001
REVIT
1002
{
1070
     3
1000
790271
1002
}
  0
ARC
  5
1F8
330
1BA
100
AcDbEntity
  8
M-PIPE
100
AcDbCircle
 10
1097.114353943097
 20
1999.982558850011
 30
0.0
 40
20.94999999995325
100
AcDbArc
 50
310.5343343308191
 51
311.9122664198962
1001
REVIT
1002
{
1070
     3
1000
790271
1002
}
  0
ARC
  5
1F9
330
1BA
100
AcDbEntity
  8
M-PIPE
100
AcDbCircle
 10
1097.114353943097
 20
1999.982558850011
 30
0.0
 40
20.94999999995324
100
AcDbArc
 50
306.0254043670819
 51
307.1473598519373
1001
REVIT
1002
{
1070
     3
1000
790271
1002
}
  0
ARC
  5
1FA
330
1BA
100
AcDbEntity
  8
M-PIPE
100
AcDbCircle
 10
1097.114353943097
 20
1999.982558850011
 30
0.0
 40
20.94999999995344
100
AcDbArc
 50
301.5175242017786
 51
302.3824532839788
1001
REVIT
1002
{
1070
     3
1000
790271
1002
}
  0
ARC
  5
1FB
330
1BA
100
AcDbEntity
  8
M-PIPE
100
AcDbCircle
 10
1097.114353943097
 20
1999.982558850011
 30
0.0
 40
20.94999999995325
100
AcDbArc
 50
297.0107643250068
 51
297.6175467160201
1001
REVIT
1002
{
1070
     3
1000
790271
1002
}
  0
ARC
  5
1FC
330
1BA
100
AcDbEntity
  8
M-PIPE
100
AcDbCircle
 10
1097.114353943097
 20
1999.982558850011
 30
0.0
 40
20.94999999995336
100
AcDbArc
 50
292.5052291805366
 51
292.8526401480615
1001
REVIT
1002
{
1070
     3
1000
790271
1002
}
  0
LINE
  5
1FD
330
1BA
100
AcDbEntity
  8
M-PIPE
100
AcDbLine
 10
1103.618761766998
 20
1980.067861291212
 30
0.0
 11
1103.588626758498
 21
1980.05804401251
 31
0.0
1001
REVIT
1002
{
1070
     3
1000
790271
1002
}
  0
ARC
  5
1FE
330
1BA
100
AcDbEntity
  8
M-PIPE
100
AcDbCircle
 10
1097.114353943097
 20
1999.982558850011
 30
0.0
 40
20.94999999995334
100
AcDbArc
 50
283.3228270121445
 51
283.5019035429541
1001
REVIT
1002
{
1070
     3
1000
790271
1002
}
  0
ARC
  5
1FF
330
1BA
100
AcDbEntity
  8
M-PIPE
100
AcDbCircle
 10
1097.114353943097
 20
1999.982558850011
 30
0.0
 40
20.94999999995327
100
AcDbArc
 50
278.5579204441856
 51
279.0030355257329
1001
REVIT
1002
{
1070
     3
1000
790271
1002
}
  0
ARC
  5
200
330
1BA
100
AcDbEntity
  8
M-PIPE
100
AcDbCircle
 10
1097.114353943097
 20
1999.982558850011
 30
0.0
 40
20.94999999995316
100
AcDbArc
 50
16.67717298796676
 51
18.0134846587745
1001
REVIT
1002
{
1070
     3
1000
790271
1002
}
  0
ARC
  5
201
330
1BA
100
AcDbEntity
  8
M-PIPE
100
AcDbCircle
 10
1097.114353943097
 20
1999.982558850011
 30
0.0
 40
20.94999999995332
100
AcDbArc
 50
11.91226641997626
 51
13.51101450965859
1001
REVIT
1002
{
1070
     3
1000
790271
1002
}
  0
ARC
  5
202
330
1BA
100
AcDbEntity
  8
M-PIPE
100
AcDbCircle
 10
1097.114353943097
 20
1999.982558850011
 30
0.0
 40
20.9499999999532
100
AcDbArc
 50
7.147359851985839
 51
9.007760205029148
1001
REVIT
1002
{
1070
     3
1000
790271
1002
}
  0
ARC
  5
203
330
1BA
100
AcDbEntity
  8
M-PIPE
100
AcDbCircle
 10
1097.114353943097
 20
1999.982558850011
 30
0.0
 40
20.94999999995331
100
AcDbArc
 50
2.382453283995059
 51
4.504002989270283
1001
REVIT
1002
{
1070
     3
1000
790271
1002
}
  0
ARC
  5
204
330
1BA
100
AcDbEntity
  8
M-PIPE
100
AcDbCircle
 10
1097.114353943097
 20
1999.982558850011
 30
0.0
 40
20.94999999995321
100
AcDbArc
 50
355.4959970107281
 51
357.6175467160052
1001
REVIT
1002
{
1070
     3
1000
790271
1002
}
  0
ARC
  5
205
330
1BA
100
AcDbEntity
  8
M-PIPE
100
AcDbCircle
 10
1097.114353943097
 20
1999.982558850011
 30
0.0
 40
20.94999999995306
100
AcDbArc
 50
350.9922397949691
 51
352.8526401480144
1001
REVIT
1002
{
1070
     3
1000
790271
1002
}
  0
ARC
  5
206
330
1BA
100
AcDbEntity
  8
M-PIPE
100
AcDbCircle
 10
1097.114353943097
 20
1999.982558850011
 30
0.0
 40
20.94999999995321
100
AcDbArc
 50
346.4889854903404
 51
348.0877335800241
1001
REVIT
1002
{
1070
     3
1000
790271
1002
}
  0
ARC
  5
207
330
1BA
100
AcDbEntity
  8
M-PIPE
100
AcDbCircle
 10
1097.114353943097
 20
1999.982558850011
 30
0.0
 40
20.94999999995323
100
AcDbArc
 50
341.9865153412238
 51
343.3228270120335
1001
REVIT
1002
{
1070
     3
1000
790271
1002
}
  0
ARC
  5
208
330
1BA
100
AcDbEntity
  8
M-PIPE
100
AcDbCircle
 10
1097.114353943097
 20
1999.982558850011
 30
0.0
 40
20.94999999995322
100
AcDbArc
 50
80.99696447426676
 51
81.44207955597554
1001
REVIT
1002
{
1070
     3
1000
790271
1002
}
  0
ARC
  5
209
330
1BA
100
AcDbEntity
  8
M-PIPE
100
AcDbCircle
 10
1097.114353943097
 20
1999.982558850011
 30
0.0
 40
20.94999999995311
100
AcDbArc
 50
76.49809645704498
 51
76.67717298798094
1001
REVIT
1002
{
1070
     3
1000
790271
1002
}
  0
LINE
  5
20A
330
1BA
100
AcDbEntity
  8
M-PIPE
100
AcDbLine
 10
1103.588626758497
 20
2019.907073687512
 30
0.0
 11
1103.618761766967
 21
2019.897256408819
 31
0.0
1001
REVIT
1002
{
1070
     3
1000
790271
1002
}
  0
ARC
  5
20B
330
1BA
100
AcDbEntity
  8
M-PIPE
100
AcDbCircle
 10
1097.114353943097
 20
1999.982558850011
 30
0.0
 40
20.94999999995303
100
AcDbArc
 50
67.14735985199173
 51
67.49477081946402
1001
REVIT
1002
{
1070
     3
1000
790271
1002
}
  0
ARC
  5
20C
330
1BA
100
AcDbEntity
  8
M-PIPE
100
AcDbCircle
 10
1097.114353943097
 20
1999.982558850011
 30
0.0
 40
20.94999999995309
100
AcDbArc
 50
62.3824532839977
 51
62.98923567499317
1001
REVIT
1002
{
1070
     3
1000
790271
1002
}
  0
ARC
  5
20D
330
1BA
100
AcDbEntity
  8
M-PIPE
100
AcDbCircle
 10
1097.114353943097
 20
1999.982558850011
 30
0.0
 40
20.94999999995332
100
AcDbArc
 50
57.61754671600299
 51
58.48247579822111
1001
REVIT
1002
{
1070
     3
1000
790271
1002
}
  0
ARC
  5
20E
330
1BA
100
AcDbEntity
  8
M-PIPE
100
AcDbCircle
 10
1097.114353943097
 20
1999.982558850011
 30
0.0
 40
20.94999999995326
100
AcDbArc
 50
52.85264014800925
 51
53.9745956329174
1001
REVIT
1002
{
1070
     3
1000
790271
1002
}
  0
ARC
  5
20F
330
1BA
100
AcDbEntity
  8
M-PIPE
100
AcDbCircle
 10
1097.114353943097
 20
1999.982558850011
 30
0.0
 40
20.94999999995315
100
AcDbArc
 50
48.08773358001508
 51
49.46566566917987
1001
REVIT
1002
{
1070
     3
1000
790271
1002
}
  0
ARC
  5
210
330
1BA
100
AcDbEntity
  8
M-PIPE
100
AcDbCircle
 10
1097.114353943097
 20
1999.982558850011
 30
0.0
 40
20.94999999995311
100
AcDbArc
 50
43.32282701201967
 51
44.95571548560864
1001
REVIT
1002
{
1070
     3
1000
790271
1002
}
  0
ARC
  5
211
330
1BA
100
AcDbEntity
  8
M-PIPE
100
AcDbCircle
 10
1097.114353943097
 20
1999.982558850011
 30
0.0
 40
20.94999999995329
100
AcDbArc
 50
38.55792044402586
 51
40.54138324858562
1001
REVIT
1002
{
1070
     3
1000
790271
1002
}
  0
ARC
  5
212
330
1BA
100
AcDbEntity
  8
M-PIPE
100
AcDbCircle
 10
1097.114353943097
 20
1999.982558850011
 30
0.0
 40
20.94999999995327
100
AcDbArc
 50
139.4586167514168
 51
141.4420795558499
1001
REVIT
1002
{
1070
     3
1000
790271
1002
}
  0
ARC
  5
213
330
1BA
100
AcDbEntity
  8
M-PIPE
100
AcDbCircle
 10
1097.114353943097
 20
1999.982558850011
 30
0.0
 40
20.94999999995318
100
AcDbArc
 50
135.0442845143962
 51
136.6771729878831
1001
REVIT
1002
{
1070
     3
1000
790271
1002
}
  0
ARC
  5
214
330
1BA
100
AcDbEntity
  8
M-PIPE
100
AcDbCircle
 10
1097.114353943097
 20
1999.982558850011
 30
0.0
 40
20.94999999995317
100
AcDbArc
 50
130.5343343308254
 51
131.9122664199162
1001
REVIT
1002
{
1070
     3
1000
790271
1002
}
  0
ARC
  5
215
330
1BA
100
AcDbEntity
  8
M-PIPE
100
AcDbCircle
 10
1097.114353943097
 20
1999.982558850011
 30
0.0
 40
20.94999999995313
100
AcDbArc
 50
126.0254043670884
 51
127.1473598519495
1001
REVIT
1002
{
1070
     3
1000
790271
1002
}
  0
ARC
  5
216
330
1BA
100
AcDbEntity
  8
M-PIPE
100
AcDbCircle
 10
1097.114353943097
 20
1999.982558850011
 30
0.0
 40
20.94999999995328
100
AcDbArc
 50
121.5175242017848
 51
122.3824532839828
1001
REVIT
1002
{
1070
     3
1000
790271
1002
}
  0
ARC
  5
217
330
1BA
100
AcDbEntity
  8
M-PIPE
100
AcDbCircle
 10
1097.114353943097
 20
1999.982558850011
 30
0.0
 40
20.94999999995322
100
AcDbArc
 50
117.0107643250119
 51
117.6175467160162
1001
REVIT
1002
{
1070
     3
1000
790271
1002
}
  0
ARC
  5
218
330
1BA
100
AcDbEntity
  8
M-PIPE
100
AcDbCircle
 10
1097.114353943097
 20
1999.982558850011
 30
0.0
 40
20.94999999995315
100
AcDbArc
 50
112.5052291805418
 51
112.8526401480492
1001
REVIT
1002
{
1070
     3
1000
790271
1002
}
  0
LINE
  5
219
330
1BA
100
AcDbEntity
  8
M-PIPE
100
AcDbLine
 10
1090.609946119203
 20
2019.897256408812
 30
0.0
 11
1090.640081127695
 21
2019.907073687512
 31
0.0
1001
REVIT
1002
{
1070
     3
1000
790271
1002
}
  0
ARC
  5
21A
330
1BA
100
AcDbEntity
  8
M-PIPE
100
AcDbCircle
 10
1097.114353943097
 20
1999.982558850011
 30
0.0
 40
20.94999999995332
100
AcDbArc
 50
103.322827012116
 51
103.5019035429595
1001
REVIT
1002
{
1070
     3
1000
790271
1002
}
  0
ARC
  5
21B
330
1BA
100
AcDbEntity
  8
M-PIPE
100
AcDbCircle
 10
1097.114353943097
 20
1999.982558850011
 30
0.0
 40
20.94999999995334
100
AcDbArc
 50
98.55792044414892
 51
99.00303552573817
1001
REVIT
1002
{
1070
     3
1000
790271
1002
}
  0
ARC
  5
21C
330
1BA
100
AcDbEntity
  8
M-PIPE
100
AcDbCircle
 10
1097.114353943097
 20
1999.982558850011
 30
0.0
 40
20.94999999995329
100
AcDbArc
 50
196.6771729877711
 51
198.0134846587767
1001
REVIT
1002
{
1070
     3
1000
790271
1002
}
  0
ARC
  5
21D
330
1BA
100
AcDbEntity
  8
M-PIPE
100
AcDbCircle
 10
1097.114353943097
 20
1999.982558850011
 30
0.0
 40
20.94999999995327
100
AcDbArc
 50
191.9122664198357
 51
193.5110145096599
1001
REVIT
1002
{
1070
     3
1000
790271
1002
}
  0
ARC
  5
21E
330
1BA
100
AcDbEntity
  8
M-PIPE
100
AcDbCircle
 10
1097.114353943097
 20
1999.982558850011
 30
0.0
 40
20.94999999995334
100
AcDbArc
 50
187.1473598519015
 51
189.0077602050301
1001
REVIT
1002
{
1070
     3
1000
790271
1002
}
  0
ARC
  5
21F
330
1BA
100
AcDbEntity
  8
M-PIPE
100
AcDbCircle
 10
1097.114353943097
 20
1999.982558850011
 30
0.0
 40
20.94999999995337
100
AcDbArc
 50
182.382453283966
 51
184.5040029892717
1001
REVIT
1002
{
1070
     3
1000
790271
1002
}
  0
ARC
  5
220
330
1BA
100
AcDbEntity
  8
M-PIPE
100
AcDbCircle
 10
1097.114353943097
 20
1999.982558850011
 30
0.0
 40
20.94999999995349
100
AcDbArc
 50
175.4959970107297
 51
177.6175467160311
1001
REVIT
1002
{
1070
     3
1000
790271
1002
}
  0
ARC
  5
221
330
1BA
100
AcDbEntity
  8
M-PIPE
100
AcDbCircle
 10
1097.114353943097
 20
1999.982558850011
 30
0.0
 40
20.94999999995339
100
AcDbArc
 50
170.9922397949716
 51
172.8526401480964
1001
REVIT
1002
{
1070
     3
1000
790271
1002
}
  0
ARC
  5
222
330
1BA
100
AcDbEntity
  8
M-PIPE
100
AcDbCircle
 10
1097.114353943097
 20
1999.982558850011
 30
0.0
 40
20.94999999995348
100
AcDbArc
 50
166.4889854903414
 51
168.0877335801618
1001
REVIT
1002
{
1070
     3
1000
790271
1002
}
  0
ARC
  5
223
330
1BA
100
AcDbEntity
  8
M-PIPE
100
AcDbCircle
 10
1097.114353943097
 20
1999.982558850011
 30
0.0
 40
20.94999999995323
100
AcDbArc
 50
161.9865153412245
 51
163.3228270122266
1001
REVIT
1002
{
1070
     3
1000
790271
1002
}
  0
ARC
  5
224
330
1BA
100
AcDbEntity
  8
M-PIPE
100
AcDbCircle
 10
1097.114353943097
 20
1999.982558850011
 30
0.0
 40
20.94999999995339
100
AcDbArc
 50
260.9969644742628
 51
261.4420795556879
1001
REVIT
1002
{
1070
     3
1000
790271
1002
}
  0
ARC
  5
225
330
1BA
100
AcDbEntity
  8
M-PIPE
100
AcDbCircle
 10
1097.114353943097
 20
1999.982558850011
 30
0.0
 40
20.94999999995331
100
AcDbArc
 50
256.4980964570421
 51
256.677172987757
1001
REVIT
1002
{
1070
     3
1000
790271
1002
}
  0
LINE
  5
226
330
1BA
100
AcDbEntity
  8
M-PIPE
100
AcDbLine
 10
1090.640081127695
 20
1980.05804401251
 30
0.0
 11
1090.609946119171
 21
1980.06786129122
 31
0.0
1001
REVIT
1002
{
1070
     3
1000
790271
1002
}
  0
ARC
  5
227
330
1BA
100
AcDbEntity
  8
M-PIPE
100
AcDbCircle
 10
1097.114353943097
 20
1999.982558850011
 30
0.0
 40
20.94999999995327
100
AcDbArc
 50
247.1473598518945
 51
247.4947708194572
1001
REVIT
1002
{
1070
     3
1000
790271
1002
}
  0
ARC
  5
228
330
1BA
100
AcDbEntity
  8
M-PIPE
100
AcDbCircle
 10
1097.114353943097
 20
1999.982558850011
 30
0.0
 40
20.94999999995331
100
AcDbArc
 50
242.3824532839635
 51
242.9892356749874
1001
REVIT
1002
{
1070
     3
1000
790271
1002
}
  0
ARC
  5
229
330
1BA
100
AcDbEntity
  8
M-PIPE
100
AcDbCircle
 10
1097.114353943097
 20
1999.982558850011
 30
0.0
 40
20.94999999995338
100
AcDbArc
 50
237.6175467160327
 51
238.4824757982157
1001
REVIT
1002
{
1070
     3
1000
790271
1002
}
  0
ARC
  5
22A
330
1BA
100
AcDbEntity
  8
M-PIPE
100
AcDbCircle
 10
1097.114353943097
 20
1999.982558850011
 30
0.0
 40
20.94999999995338
100
AcDbArc
 50
232.852640148102
 51
233.9745956329131
1001
REVIT
1002
{
1070
     3
1000
790271
1002
}
  0
ARC
  5
22B
330
1BA
100
AcDbEntity
  8
M-PIPE
100
AcDbCircle
 10
1097.114353943097
 20
1999.982558850011
 30
0.0
 40
20.94999999995323
100
AcDbArc
 50
228.0877335801709
 51
229.4656656691759
1001
REVIT
1002
{
1070
     3
1000
790271
1002
}
  0
ARC
  5
22C
330
1BA
100
AcDbEntity
  8
M-PIPE
100
AcDbCircle
 10
1097.114353943097
 20
1999.982558850011
 30
0.0
 40
20.94999999995327
100
AcDbArc
 50
223.3228270122401
 51
224.9557154856052
1001
REVIT
1002
{
1070
     3
1000
790271
1002
}
  0
ARC
  5
22D
330
1BA
100
AcDbEntity
  8
M-PIPE
100
AcDbCircle
 10
1097.114353943097
 20
1999.982558850011
 30
0.0
 40
20.94999999995346
100
AcDbArc
 50
218.5579204443095
 51
220.5413832485848
1001
REVIT
1002
{
1070
     3
1000
790271
1002
}
  0
ARC
  5
22E
330
1BA
100
AcDbEntity
  8
M-PIPE
100
AcDbCircle
 10
1097.114353943096
 20
1999.982558850011
 30
0.0
 40
20.94999999995343
100
AcDbArc
 50
270.0000000000002
 51
90.0
1001
REVIT
1002
{
1070
     3
1000
790271
1002
}
  0
ARC
  5
22F
330
1BA
100
AcDbEntity
  8
M-PIPE
100
AcDbCircle
 10
1097.114353943096
 20
1999.982558850011
 30
0.0
 40
20.94999999995298
100
AcDbArc
 50
90.0
 51
269.9999999999997
1001
REVIT
1002
{
1070
     3
1000
790271
1002
}
  0
LINE
  5
230
330
1BA
100
AcDbEntity
  8
M-PIPE
100
AcDbLine
 10
1113.496802585829
 20
1986.924309485479
 30
0.0
 11
1113.459761726282
 21
1986.902923935249
 31
0.0
1001
REVIT
1002
{
1070
     3
1000
790271
1002
}
  0
LINE
  5
231
330
1BA
100
AcDbEntity
  8
M-PIPE
100
AcDbLine
 10
1100.24446086156
 20
1979.27306642358
 30
0.0
 11
1100.231905300367
 21
1979.265817466945
 31
0.0
1001
REVIT
1002
{
1070
     3
1000
790271
1002
}
  0
LINE
  5
232
330
1BA
100
AcDbEntity
  8
M-PIPE
100
AcDbLine
 10
1116.614353943081
 20
2007.641050868594
 30
0.0
 11
1116.614353943081
 21
2007.60748574904
 31
0.0
1001
REVIT
1002
{
1070
     3
1000
790271
1002
}
  0
LINE
  5
233
330
1BA
100
AcDbEntity
  8
M-PIPE
100
AcDbLine
 10
1116.614353943081
 20
1992.357631950981
 30
0.0
 11
1116.614353943081
 21
1992.324066831428
 31
0.0
1001
REVIT
1002
{
1070
     3
1000
790271
1002
}
  0
LINE
  5
234
330
1BA
100
AcDbEntity
  8
M-PIPE
100
AcDbLine
 10
1100.231905300309
 20
2020.699300233085
 30
0.0
 11
1100.244460861508
 21
2020.692051276448
 31
0.0
1001
REVIT
1002
{
1070
     3
1000
790271
1002
}
  0
LINE
  5
235
330
1BA
100
AcDbEntity
  8
M-PIPE
100
AcDbLine
 10
1113.459761726317
 20
2013.062193764728
 30
0.0
 11
1113.496802585866
 21
2013.040808214497
 31
0.0
1001
REVIT
1002
{
1070
     3
1000
790271
1002
}
  0
LINE
  5
236
330
1BA
100
AcDbEntity
  8
M-PIPE
100
AcDbLine
 10
1080.731905300357
 20
2013.040808214533
 30
0.0
 11
1080.768946159902
 21
2013.062193764762
 31
0.0
1001
REVIT
1002
{
1070
     3
1000
790271
1002
}
  0
LINE
  5
237
330
1BA
100
AcDbEntity
  8
M-PIPE
100
AcDbLine
 10
1093.984247024645
 20
2020.692051276443
 30
0.0
 11
1093.99680258584
 21
2020.699300233079
 31
0.0
1001
REVIT
1002
{
1070
     3
1000
790271
1002
}
  0
LINE
  5
238
330
1BA
100
AcDbEntity
  8
M-PIPE
100
AcDbLine
 10
1077.61435394308
 20
1992.324066831513
 30
0.0
 11
1077.61435394308
 21
1992.357631951066
 31
0.0
1001
REVIT
1002
{
1070
     3
1000
790271
1002
}
  0
LINE
  5
239
330
1BA
100
AcDbEntity
  8
M-PIPE
100
AcDbLine
 10
1077.61435394308
 20
2007.607485748955
 30
0.0
 11
1077.61435394308
 21
2007.641050868508
 31
0.0
1001
REVIT
1002
{
1070
     3
1000
790271
1002
}
  0
LINE
  5
23A
330
1BA
100
AcDbEntity
  8
M-PIPE
100
AcDbLine
 10
1093.996802585781
 20
1979.265817466952
 30
0.0
 11
1093.984247024593
 21
1979.273066423584
 31
0.0
1001
REVIT
1002
{
1070
     3
1000
790271
1002
}
  0
LINE
  5
23B
330
1BA
100
AcDbEntity
  8
M-PIPE
100
AcDbLine
 10
1080.768946159937
 20
1986.902923935215
 30
0.0
 11
1080.731905300393
 21
1986.924309485443
 31
0.0
1001
REVIT
1002
{
1070
     3
1000
790271
1002
}
  0
SPLINE
  5
23C
330
1BA
100
AcDbEntity
  8
M-PIPE
100
AcDbSpline
210
0.0
220
0.0
230
1.0
 70
     8
 71
     3
 72
     8
 73
     4
 74
     0
 42
0.000000001
 43
0.0000000001
 40
0.0
 40
0.0
 40
0.0
 40
0.0
 40
0.5
 40
0.5
 40
0.5
 40
0.5
 10
1120.364353943115
 20
2017.736079627579
 30
0.0
 10
1120.923558963873
 20
2017.413222458312
 30
0.0
 10
1121.444743592949
 20
2017.015477191312
 30
0.0
 10
1121.908329644798
 20
2016.553498747004
 30
0.0
1001
REVIT
1002
{
1070
     3
1000
790271
1002
}
  0
SPLINE
  5
23D
330
1BA
100
AcDbEntity
  8
M-PIPE
100
AcDbSpline
210
0.0
220
0.0
230
1.0
 70
     8
 71
     3
 72
     8
 73
     4
 74
     0
 42
0.000000001
 43
0.0000000001
 40
0.75
 40
0.75
 40
0.75
 40
0.75
 40
1.0
 40
1.0
 40
1.0
 40
1.0
 10
1122.558416340007
 20
2015.814359349691
 30
0.0
 10
1122.759316627672
 20
2015.553256691012
 30
0.0
 10
1122.943723821386
 20
2015.278098890135
 30
0.0
 10
1123.109544471501
 20
2014.99088909919
 30
0.0
1001
REVIT
1002
{
1070
     3
1000
790271
1002
}
  0
SPLINE
  5
23E
330
1BA
100
AcDbEntity
  8
M-PIPE
100
AcDbSpline
210
0.0
220
0.0
230
1.0
 70
     8
 71
     3
 72
     8
 73
     4
 74
     0
 42
0.000000001
 43
0.0000000001
 40
0.0
 40
0.0
 40
0.0
 40
0.0
 40
0.25
 40
0.25
 40
0.25
 40
0.25
 10
1123.109544471501
 20
2014.99088909919
 30
0.0
 10
1123.275365121616
 20
2014.703679308246
 30
0.0
 10
1123.421455170367
 20
2014.406399093413
 30
0.0
 10
1123.547126561945
 20
2014.101863011328
 30
0.0
1001
REVIT
1002
{
1070
     3
1000
790271
1002
}
  0
SPLINE
  5
23F
330
1BA
100
AcDbEntity
  8
M-PIPE
100
AcDbSpline
210
0.0
220
0.0
230
1.0
 70
     8
 71
     3
 72
     8
 73
     4
 74
     0
 42
0.000000001
 43
0.0000000001
 40
0.5
 40
0.5
 40
0.5
 40
0.5
 40
1.0
 40
1.0
 40
1.0
 40
1.0
 10
1123.86219670935
 20
2013.169301719961
 30
0.0
 10
1124.030488752196
 20
2012.536835200068
 30
0.0
 10
1124.114353943115
 20
2011.886603437729
 30
0.0
 10
1124.114353943115
 20
2011.240889099196
 30
0.0
1001
REVIT
1002
{
1070
     3
1000
790271
1002
}
  0
SPLINE
  5
240
330
1BA
100
AcDbEntity
  8
M-PIPE
100
AcDbSpline
210
0.0
220
0.0
230
1.0
 70
     8
 71
     3
 72
     8
 73
     4
 74
     0
 42
0.000000001
 43
0.0000000001
 40
0.0
 40
0.0
 40
0.0
 40
0.0
 40
0.5
 40
0.5
 40
0.5
 40
0.5
 10
1124.114353943115
 20
1988.7242286008
 30
0.0
 10
1124.114353943115
 20
1988.078514262267
 30
0.0
 10
1124.030488752196
 20
1987.428282499927
 30
0.0
 10
1123.86219670935
 20
1986.795815980032
 30
0.0
1001
REVIT
1002
{
1070
     3
1000
790271
1002
}
  0
SPLINE
  5
241
330
1BA
100
AcDbEntity
  8
M-PIPE
100
AcDbSpline
210
0.0
220
0.0
230
1.0
 70
     8
 71
     3
 72
     8
 73
     4
 74
     0
 42
0.000000001
 43
0.0000000001
 40
0.75
 40
0.75
 40
0.75
 40
0.75
 40
1.0
 40
1.0
 40
1.0
 40
1.0
 10
1123.547126561943
 20
1985.863254688663
 30
0.0
 10
1123.421455170365
 20
1985.558718606579
 30
0.0
 10
1123.275365121613
 20
1985.261438391744
 30
0.0
 10
1123.109544471498
 20
1984.9742286008
 30
0.0
1001
REVIT
1002
{
1070
     3
1000
790271
1002
}
  0
SPLINE
  5
242
330
1BA
100
AcDbEntity
  8
M-PIPE
100
AcDbSpline
210
0.0
220
0.0
230
1.0
 70
     8
 71
     3
 72
     8
 73
     4
 74
     0
 42
0.000000001
 43
0.0000000001
 40
0.0
 40
0.0
 40
0.0
 40
0.0
 40
0.25
 40
0.25
 40
0.25
 40
0.25
 10
1123.109544471498
 20
1984.9742286008
 30
0.0
 10
1122.943723821382
 20
1984.687018809855
 30
0.0
 10
1122.759316627669
 20
1984.41186100898
 30
0.0
 10
1122.558416340003
 20
1984.150758350302
 30
0.0
1001
REVIT
1002
{
1070
     3
1000
790271
1002
}
  0
SPLINE
  5
243
330
1BA
100
AcDbEntity
  8
M-PIPE
100
AcDbSpline
210
0.0
220
0.0
230
1.0
 70
     8
 71
     3
 72
     8
 73
     4
 74
     0
 42
0.000000001
 43
0.0000000001
 40
0.5
 40
0.5
 40
0.5
 40
0.5
 40
1.0
 40
1.0
 40
1.0
 40
1.0
 10
1121.908329644796
 20
1983.41161895299
 30
0.0
 10
1121.444743592947
 20
1982.949640508683
 30
0.0
 10
1120.923558963873
 20
1982.551895241684
 30
0.0
 10
1120.364353943115
 20
1982.229038072417
 30
0.0
1001
REVIT
1002
{
1070
     3
1000
790271
1002
}
  0
SPLINE
  5
244
330
1BA
100
AcDbEntity
  8
M-PIPE
100
AcDbSpline
210
0.0
220
0.0
230
1.0
 70
     8
 71
     3
 72
     8
 73
     4
 74
     0
 42
0.000000001
 43
0.0000000001
 40
0.0
 40
0.0
 40
0.0
 40
0.0
 40
0.5
 40
0.5
 40
0.5
 40
0.5
 10
1073.864353943115
 20
1982.229038072417
 30
0.0
 10
1073.305148922358
 20
1982.551895241683
 30
0.0
 10
1072.783964293284
 20
1982.949640508681
 30
0.0
 10
1072.320378241436
 20
1983.411618952988
 30
0.0
1001
REVIT
1002
{
1070
     3
1000
790271
1002
}
  0
SPLINE
  5
245
330
1BA
100
AcDbEntity
  8
M-PIPE
100
AcDbSpline
210
0.0
220
0.0
230
1.0
 70
     8
 71
     3
 72
     8
 73
     4
 74
     0
 42
0.000000001
 43
0.0000000001
 40
0.75
 40
0.75
 40
0.75
 40
0.75
 40
1.0
 40
1.0
 40
1.0
 40
1.0
 10
1071.670291546229
 20
1984.150758350298
 30
0.0
 10
1071.469391258563
 20
1984.411861008976
 30
0.0
 10
1071.28498406485
 20
1984.687018809851
 30
0.0
 10
1071.119163414735
 20
1984.974228600795
 30
0.0
1001
REVIT
1002
{
1070
     3
1000
790271
1002
}
  0
SPLINE
  5
246
330
1BA
100
AcDbEntity
  8
M-PIPE
100
AcDbSpline
210
0.0
220
0.0
230
1.0
 70
     8
 71
     3
 72
     8
 73
     4
 74
     0
 42
0.000000001
 43
0.0000000001
 40
0.0
 40
0.0
 40
0.0
 40
0.0
 40
0.25
 40
0.25
 40
0.25
 40
0.25
 10
1071.119163414735
 20
1984.974228600795
 30
0.0
 10
1070.953342764619
 20
1985.261438391739
 30
0.0
 10
1070.807252715867
 20
1985.558718606574
 30
0.0
 10
1070.681581324289
 20
1985.863254688659
 30
0.0
1001
REVIT
1002
{
1070
     3
1000
790271
1002
}
  0
SPLINE
  5
247
330
1BA
100
AcDbEntity
  8
M-PIPE
100
AcDbSpline
210
0.0
220
0.0
230
1.0
 70
     8
 71
     3
 72
     8
 73
     4
 74
     0
 42
0.000000001
 43
0.0000000001
 40
0.5
 40
0.5
 40
0.5
 40
0.5
 40
1.0
 40
1.0
 40
1.0
 40
1.0
 10
1070.366511176881
 20
1986.795815980029
 30
0.0
 10
1070.198219134034
 20
1987.428282499924
 30
0.0
 10
1070.114353943115
 20
1988.078514262265
 30
0.0
 10
1070.114353943115
 20
1988.7242286008
 30
0.0
1001
REVIT
1002
{
1070
     3
1000
790271
1002
}
  0
SPLINE
  5
248
330
1BA
100
AcDbEntity
  8
M-PIPE
100
AcDbSpline
210
0.0
220
0.0
230
1.0
 70
     8
 71
     3
 72
     8
 73
     4
 74
     0
 42
0.000000001
 43
0.0000000001
 40
0.0
 40
0.0
 40
0.0
 40
0.0
 40
0.5
 40
0.5
 40
0.5
 40
0.5
 10
1070.114353943115
 20
2011.240889099196
 30
0.0
 10
1070.114353943115
 20
2011.88660343773
 30
0.0
 10
1070.198219134034
 20
2012.536835200069
 30
0.0
 10
1070.36651117688
 20
2013.169301719964
 30
0.0
1001
REVIT
1002
{
1070
     3
1000
790271
1002
}
  0
SPLINE
  5
249
330
1BA
100
AcDbEntity
  8
M-PIPE
100
AcDbSpline
210
0.0
220
0.0
230
1.0
 70
     8
 71
     3
 72
     8
 73
     4
 74
     0
 42
0.000000001
 43
0.0000000001
 40
0.75
 40
0.75
 40
0.75
 40
0.75
 40
1.0
 40
1.0
 40
1.0
 40
1.0
 10
1070.681581324286
 20
2014.101863011332
 30
0.0
 10
1070.807252715864
 20
2014.406399093417
 30
0.0
 10
1070.953342764616
 20
2014.703679308251
 30
0.0
 10
1071.119163414731
 20
2014.990889099195
 30
0.0
1001
REVIT
1002
{
1070
     3
1000
790271
1002
}
  0
SPLINE
  5
24A
330
1BA
100
AcDbEntity
  8
M-PIPE
100
AcDbSpline
210
0.0
220
0.0
230
1.0
 70
     8
 71
     3
 72
     8
 73
     4
 74
     0
 42
0.000000001
 43
0.0000000001
 40
0.0
 40
0.0
 40
0.0
 40
0.0
 40
0.25
 40
0.25
 40
0.25
 40
0.25
 10
1071.119163414731
 20
2014.990889099195
 30
0.0
 10
1071.284984064846
 20
2015.278098890139
 30
0.0
 10
1071.46939125856
 20
2015.553256691015
 30
0.0
 10
1071.670291546225
 20
2015.814359349693
 30
0.0
1001
REVIT
1002
{
1070
     3
1000
790271
1002
}
  0
SPLINE
  5
24B
330
1BA
100
AcDbEntity
  8
M-PIPE
100
AcDbSpline
210
0.0
220
0.0
230
1.0
 70
     8
 71
     3
 72
     8
 73
     4
 74
     0
 42
0.000000001
 43
0.0000000001
 40
0.5
 40
0.5
 40
0.5
 40
0.5
 40
1.0
 40
1.0
 40
1.0
 40
1.0
 10
1072.320378241433
 20
2016.553498747006
 30
0.0
 10
1072.783964293281
 20
2017.015477191313
 30
0.0
 10
1073.305148922356
 20
2017.413222458312
 30
0.0
 10
1073.864353943115
 20
2017.736079627579
 30
0.0
1001
REVIT
1002
{
1070
     3
1000
790271
1002
}
  0
SPLINE
  5
24C
330
1BA
100
AcDbEntity
  8
M-PIPE
100
AcDbSpline
210
0.0
220
0.0
230
1.0
 70
    24
 71
     3
 72
     9
 73
     5
 74
     0
 42
0.000000001
 43
0.0000000001
 40
0.0
 40
0.0
 40
0.0
 40
0.0
 40
0.5
 40
1.0
 40
1.0
 40
1.0
 40
1.0
 10
1120.364353943021
 20
1982.229038072373
 30
0.0
 10
1117.149588360336
 20
1980.372992297828
 30
0.0
 10
1110.684822777652
 20
1976.640558148417
 30
0.0
 10
1104.149588360336
 20
1972.867438798363
 30
0.0
 10
1100.864353943021
 20
1970.970707823175
 30
0.0
1001
REVIT
1002
{
1070
     3
1000
790271
1002
}
  0
ARC
  5
24D
330
1BA
100
AcDbEntity
  8
M-PIPE
100
AcDbCircle
 10
1097.114353943097
 20
1999.982558850011
 30
0.0
 40
20.94999999995319
100
AcDbArc
 50
274.5010858294762
 51
274.9999999999992
1001
REVIT
1002
{
1070
     3
1000
790271
1002
}
  0
ARC
  5
24E
330
1BA
100
AcDbEntity
  8
M-PIPE
100
AcDbCircle
 10
1097.114353943097
 20
1999.982558850011
 30
0.0
 40
20.94999999995324
100
AcDbArc
 50
279.004900680458
 51
279.9999999999991
1001
REVIT
1002
{
1070
     3
1000
790271
1002
}
  0
ARC
  5
24F
330
1BA
100
AcDbEntity
  8
M-PIPE
100
AcDbCircle
 10
1097.114353943097
 20
1999.982558850011
 30
0.0
 40
20.94999999995327
100
AcDbArc
 50
283.5104248664695
 51
284.9999999999995
1001
REVIT
1002
{
1070
     3
1000
790271
1002
}
  0
ARC
  5
250
330
1BA
100
AcDbEntity
  8
M-PIPE
100
AcDbCircle
 10
1097.114353943097
 20
1999.982558850011
 30
0.0
 40
20.94999999995318
100
AcDbArc
 50
288.1041586683643
 51
289.9999999999995
1001
REVIT
1002
{
1070
     3
1000
790271
1002
}
  0
ARC
  5
251
330
1BA
100
AcDbEntity
  8
M-PIPE
100
AcDbCircle
 10
1097.114353943097
 20
1999.982558850011
 30
0.0
 40
20.94999999995316
100
AcDbArc
 50
299.9999999999994
 51
301.5289246008448
1001
REVIT
1002
{
1070
     3
1000
790271
1002
}
  0
ARC
  5
252
330
1BA
100
AcDbEntity
  8
M-PIPE
100
AcDbCircle
 10
1097.114353943097
 20
1999.982558850011
 30
0.0
 40
20.94999999995312
100
AcDbArc
 50
304.9999999999994
 51
306.0264828102648
1001
REVIT
1002
{
1070
     3
1000
790271
1002
}
  0
ARC
  5
253
330
1BA
100
AcDbEntity
  8
M-PIPE
100
AcDbCircle
 10
1097.114353943097
 20
1999.982558850011
 30
0.0
 40
20.94999999995319
100
AcDbArc
 50
310.0
 51
310.5171795655181
1001
REVIT
1002
{
1070
     3
1000
790271
1002
}
  0
LINE
  5
254
330
1BA
100
AcDbEntity
  8
M-PIPE
100
AcDbLine
 10
1113.155360483911
 20
1986.507077071773
 30
0.0
 11
1113.162985026404
 21
1986.516158427108
 31
0.0
1001
REVIT
1002
{
1070
     3
1000
790271
1002
}
  0
ARC
  5
255
330
1BA
100
AcDbEntity
  8
M-PIPE
100
AcDbCircle
 10
1097.114353943097
 20
1999.982558850011
 30
0.0
 40
20.94999999995312
100
AcDbArc
 50
323.9735171897347
 51
324.9999999999996
1001
REVIT
1002
{
1070
     3
1000
790271
1002
}
  0
ARC
  5
256
330
1BA
100
AcDbEntity
  8
M-PIPE
100
AcDbCircle
 10
1097.114353943097
 20
1999.982558850011
 30
0.0
 40
20.94999999995325
100
AcDbArc
 50
328.4710753991532
 51
329.9999999999999
1001
REVIT
1002
{
1070
     3
1000
790271
1002
}
  0
ARC
  5
257
330
1BA
100
AcDbEntity
  8
M-PIPE
100
AcDbCircle
 10
1097.114353943097
 20
1999.982558850011
 30
0.0
 40
20.94999999995323
100
AcDbArc
 50
332.9728913627061
 51
334.9999999999996
1001
REVIT
1002
{
1070
     3
1000
790271
1002
}
  0
ARC
  5
258
330
1BA
100
AcDbEntity
  8
M-PIPE
100
AcDbCircle
 10
1097.114353943097
 20
1999.982558850011
 30
0.0
 40
20.94999999995325
100
AcDbArc
 50
25.00000000000036
 51
27.02710863729387
1001
REVIT
1002
{
1070
     3
1000
790271
1002
}
  0
ARC
  5
259
330
1BA
100
AcDbEntity
  8
M-PIPE
100
AcDbCircle
 10
1097.114353943097
 20
1999.982558850011
 30
0.0
 40
20.94999999995316
100
AcDbArc
 50
29.99999999999988
 51
31.52892460084606
1001
REVIT
1002
{
1070
     3
1000
790271
1002
}
  0
ARC
  5
25A
330
1BA
100
AcDbEntity
  8
M-PIPE
100
AcDbCircle
 10
1097.114353943097
 20
1999.982558850011
 30
0.0
 40
20.94999999995312
100
AcDbArc
 50
34.9999999999995
 51
36.02648281026364
1001
REVIT
1002
{
1070
     3
1000
790271
1002
}
  0
LINE
  5
25B
330
1BA
100
AcDbEntity
  8
M-PIPE
100
AcDbLine
 10
1113.162985026404
 20
2013.448959272914
 30
0.0
 11
1113.15536048391
 21
2013.458040628249
 31
0.0
1001
REVIT
1002
{
1070
     3
1000
790271
1002
}
  0
ARC
  5
25C
330
1BA
100
AcDbEntity
  8
M-PIPE
100
AcDbCircle
 10
1097.114353943097
 20
1999.982558850011
 30
0.0
 40
20.94999999995322
100
AcDbArc
 50
49.48282043448314
 51
49.99999999999984
1001
REVIT
1002
{
1070
     3
1000
790271
1002
}
  0
ARC
  5
25D
330
1BA
100
AcDbEntity
  8
M-PIPE
100
AcDbCircle
 10
1097.114353943097
 20
1999.982558850011
 30
0.0
 40
20.94999999995335
100
AcDbArc
 50
53.97351718973612
 51
55.00122604276038
1001
REVIT
1002
{
1070
     3
1000
790271
1002
}
  0
ARC
  5
25E
330
1BA
100
AcDbEntity
  8
M-PIPE
100
AcDbCircle
 10
1097.114353943097
 20
1999.982558850011
 30
0.0
 40
20.94999999995335
100
AcDbArc
 50
58.47107539915666
 51
60.0000000000006
1001
REVIT
1002
{
1070
     3
1000
790271
1002
}
  0
ARC
  5
25F
330
1BA
100
AcDbEntity
  8
M-PIPE
100
AcDbCircle
 10
1097.114353943097
 20
1999.982558850011
 30
0.0
 40
20.94999999995316
100
AcDbArc
 50
70.00000000000008
 51
71.89584133172473
1001
REVIT
1002
{
1070
     3
1000
790271
1002
}
  0
ARC
  5
260
330
1BA
100
AcDbEntity
  8
M-PIPE
100
AcDbCircle
 10
1097.114353943097
 20
1999.982558850011
 30
0.0
 40
20.94999999995325
100
AcDbArc
 50
74.9999999999996
 51
76.48957513353083
1001
REVIT
1002
{
1070
     3
1000
790271
1002
}
  0
ARC
  5
261
330
1BA
100
AcDbEntity
  8
M-PIPE
100
AcDbCircle
 10
1097.114353943097
 20
1999.982558850011
 30
0.0
 40
20.9499999999532
100
AcDbArc
 50
80.0000000000004
 51
80.99509931954292
1001
REVIT
1002
{
1070
     3
1000
790271
1002
}
  0
ARC
  5
262
330
1BA
100
AcDbEntity
  8
M-PIPE
100
AcDbCircle
 10
1097.114353943097
 20
1999.982558850011
 30
0.0
 40
20.9499999999533
100
AcDbArc
 50
84.99999999999984
 51
85.49891417052352
1001
REVIT
1002
{
1070
     3
1000
790271
1002
}
  0
ARC
  5
263
330
1BA
100
AcDbEntity
  8
M-PIPE
100
AcDbCircle
 10
1097.114353943097
 20
1999.982558850011
 30
0.0
 40
20.94999999995335
100
AcDbArc
 50
265.0
 51
265.4989141705176
1001
REVIT
1002
{
1070
     3
1000
790271
1002
}
  0
ARC
  5
264
330
1BA
100
AcDbEntity
  8
M-PIPE
100
AcDbCircle
 10
1097.114353943097
 20
1999.982558850011
 30
0.0
 40
20.94999999995327
100
AcDbArc
 50
259.9999999999996
 51
260.9950993195369
1001
REVIT
1002
{
1070
     3
1000
790271
1002
}
  0
ARC
  5
265
330
1BA
100
AcDbEntity
  8
M-PIPE
100
AcDbCircle
 10
1097.114353943097
 20
1999.982558850011
 30
0.0
 40
20.94999999995325
100
AcDbArc
 50
255.0
 51
256.4895751335247
1001
REVIT
1002
{
1070
     3
1000
790271
1002
}
  0
ARC
  5
266
330
1BA
100
AcDbEntity
  8
M-PIPE
100
AcDbCircle
 10
1097.114353943097
 20
1999.982558850011
 30
0.0
 40
20.94999999995346
100
AcDbArc
 50
250.0
 51
251.8958413315646
1001
REVIT
1002
{
1070
     3
1000
790271
1002
}
  0
ARC
  5
267
330
1BA
100
AcDbEntity
  8
M-PIPE
100
AcDbCircle
 10
1097.114353943097
 20
1999.982558850011
 30
0.0
 40
20.94999999995336
100
AcDbArc
 50
238.4710753991493
 51
240.0000000000002
1001
REVIT
1002
{
1070
     3
1000
790271
1002
}
  0
ARC
  5
268
330
1BA
100
AcDbEntity
  8
M-PIPE
100
AcDbCircle
 10
1097.114353943097
 20
1999.982558850011
 30
0.0
 40
20.94999999995331
100
AcDbArc
 50
233.9735171897289
 51
235.0000000000001
1001
REVIT
1002
{
1070
     3
1000
790271
1002
}
  0
ARC
  5
269
330
1BA
100
AcDbEntity
  8
M-PIPE
100
AcDbCircle
 10
1097.114353943097
 20
1999.982558850011
 30
0.0
 40
20.94999999995353
100
AcDbArc
 50
229.4822353515777
 51
229.9999999999998
1001
REVIT
1002
{
1070
     3
1000
790271
1002
}
  0
ARC
  5
26A
330
1BA
100
AcDbEntity
  8
M-PIPE
100
AcDbCircle
 10
1097.114353943097
 20
1999.982558850011
 30
0.0
 40
20.94999999995344
100
AcDbArc
 50
215.0000000000001
 51
216.0264828102646
1001
REVIT
1002
{
1070
     3
1000
790271
1002
}
  0
ARC
  5
26B
330
1BA
100
AcDbEntity
  8
M-PIPE
100
AcDbCircle
 10
1097.114353943097
 20
1999.982558850011
 30
0.0
 40
20.94999999995337
100
AcDbArc
 50
209.9999999999999
 51
211.5289246008466
1001
REVIT
1002
{
1070
     3
1000
790271
1002
}
  0
ARC
  5
26C
330
1BA
100
AcDbEntity
  8
M-PIPE
100
AcDbCircle
 10
1097.114353943097
 20
1999.982558850011
 30
0.0
 40
20.94999999995323
100
AcDbArc
 50
205.0000000000001
 51
207.0271086372936
1001
REVIT
1002
{
1070
     3
1000
790271
1002
}
  0
ARC
  5
26D
330
1BA
100
AcDbEntity
  8
M-PIPE
100
AcDbCircle
 10
1097.114353943097
 20
1999.982558850011
 30
0.0
 40
20.94999999995335
100
AcDbArc
 50
152.9728913627058
 51
155.0000000000007
1001
REVIT
1002
{
1070
     3
1000
790271
1002
}
  0
ARC
  5
26E
330
1BA
100
AcDbEntity
  8
M-PIPE
100
AcDbCircle
 10
1097.114353943097
 20
1999.982558850011
 30
0.0
 40
20.94999999995336
100
AcDbArc
 50
148.471075399153
 51
150.0000000000006
1001
REVIT
1002
{
1070
     3
1000
790271
1002
}
  0
ARC
  5
26F
330
1BA
100
AcDbEntity
  8
M-PIPE
100
AcDbCircle
 10
1097.114353943097
 20
1999.982558850011
 30
0.0
 40
20.94999999995331
100
AcDbArc
 50
143.9735171897347
 51
145.0000000000006
1001
REVIT
1002
{
1070
     3
1000
790271
1002
}
  0
ARC
  5
270
330
1BA
100
AcDbEntity
  8
M-PIPE
100
AcDbCircle
 10
1097.114353943097
 20
1999.982558850011
 30
0.0
 40
20.94999999995314
100
AcDbArc
 50
130.000000000001
 51
130.5177646484205
1001
REVIT
1002
{
1070
     3
1000
790271
1002
}
  0
ARC
  5
271
330
1BA
100
AcDbEntity
  8
M-PIPE
100
AcDbCircle
 10
1097.114353943097
 20
1999.982558850011
 30
0.0
 40
20.94999999995319
100
AcDbArc
 50
124.9987739572405
 51
126.0264828102696
1001
REVIT
1002
{
1070
     3
1000
790271
1002
}
  0
ARC
  5
272
330
1BA
100
AcDbEntity
  8
M-PIPE
100
AcDbCircle
 10
1097.114353943097
 20
1999.982558850011
 30
0.0
 40
20.94999999995334
100
AcDbArc
 50
120.0000000000009
 51
121.528924600849
1001
REVIT
1002
{
1070
     3
1000
790271
1002
}
  0
ARC
  5
273
330
1BA
100
AcDbEntity
  8
M-PIPE
100
AcDbCircle
 10
1097.114353943097
 20
1999.982558850011
 30
0.0
 40
20.94999999995323
100
AcDbArc
 50
108.104158668343
 51
110.0000000000004
1001
REVIT
1002
{
1070
     3
1000
790271
1002
}
  0
ARC
  5
274
330
1BA
100
AcDbEntity
  8
M-PIPE
100
AcDbCircle
 10
1097.114353943097
 20
1999.982558850011
 30
0.0
 40
20.94999999995303
100
AcDbArc
 50
103.5104248664749
 51
105.0000000000006
1001
REVIT
1002
{
1070
     3
1000
790271
1002
}
  0
ARC
  5
275
330
1BA
100
AcDbEntity
  8
M-PIPE
100
AcDbCircle
 10
1097.114353943097
 20
1999.982558850011
 30
0.0
 40
20.94999999995328
100
AcDbArc
 50
99.00490068046277
 51
100.0000000000007
1001
REVIT
1002
{
1070
     3
1000
790271
1002
}
  0
ARC
  5
276
330
1BA
100
AcDbEntity
  8
M-PIPE
100
AcDbCircle
 10
1097.114353943097
 20
1999.982558850011
 30
0.0
 40
20.94999999995309
100
AcDbArc
 50
94.50108582948159
 51
95.00000000000085
1001
REVIT
1002
{
1070
     3
1000
790271
1002
}
  0
ARC
  5
277
330
1BA
100
AcDbEntity
  8
M-PIPE
100
AcDbCircle
 10
1097.114353943037
 20
1999.982558849966
 30
0.0
 40
24.24871130595175
100
AcDbArc
 50
269.9999999999994
 51
89.9999999999992
1001
REVIT
1002
{
1070
     3
1000
790271
1002
}
  0
ARC
  5
278
330
1BA
100
AcDbEntity
  8
M-PIPE
100
AcDbCircle
 10
1097.114353943037
 20
1999.982558849966
 30
0.0
 40
24.2487113059517
100
AcDbArc
 50
90.0
 51
269.9999999999991
1001
REVIT
1002
{
1070
     3
1000
790271
1002
}
  0
SPLINE
  5
279
330
1BA
100
AcDbEntity
  8
M-PIPE
100
AcDbSpline
210
0.0
220
0.0
230
1.0
 70
    24
 71
     3
 72
     9
 73
     5
 74
     0
 42
0.000000001
 43
0.0000000001
 40
0.0
 40
0.0
 40
0.0
 40
0.0
 40
0.5
 40
1.0
 40
1.0
 40
1.0
 40
1.0
 10
1073.864353943021
 20
2017.736079627535
 30
0.0
 10
1077.079119525705
 20
2019.592125402079
 30
0.0
 10
1083.54388510839
 20
2023.32455955149
 30
0.0
 10
1090.079119525705
 20
2027.097678901544
 30
0.0
 10
1093.364353943021
 20
2028.994409876732
 30
0.0
1001
REVIT
1002
{
1070
     3
1000
790271
1002
}
  0
SPLINE
  5
27A
330
1BA
100
AcDbEntity
  8
M-PIPE
100
AcDbSpline
210
0.0
220
0.0
230
1.0
 70
    24
 71
     3
 72
     9
 73
     5
 74
     0
 42
0.000000001
 43
0.0000000001
 40
0.0
 40
0.0
 40
0.0
 40
0.0
 40
0.5
 40
1.0
 40
1.0
 40
1.0
 40
1.0
 10
1070.114353943021
 20
1988.724228600756
 30
0.0
 10
1070.114353943021
 20
1992.436320149845
 30
0.0
 10
1070.114353943021
 20
1999.901188448666
 30
0.0
 10
1070.114353943021
 20
2007.447427148775
 30
0.0
 10
1070.114353943021
 20
2011.240889099152
 30
0.0
1001
REVIT
1002
{
1070
     3
1000
790271
1002
}
  0
SPLINE
  5
27B
330
1BA
100
AcDbEntity
  8
M-PIPE
100
AcDbSpline
210
0.0
220
0.0
230
1.0
 70
    24
 71
     3
 72
     9
 73
     5
 74
     0
 42
0.000000001
 43
0.0000000001
 40
0.0
 40
0.0
 40
0.0
 40
0.0
 40
0.5
 40
1.0
 40
1.0
 40
1.0
 40
1.0
 10
1093.36435394302
 20
1970.970707823175
 30
0.0
 10
1090.149588360336
 20
1972.82675359772
 30
0.0
 10
1083.684822777652
 20
1976.55918774713
 30
0.0
 10
1077.149588360336
 20
1980.332307097185
 30
0.0
 10
1073.864353943021
 20
1982.229038072373
 30
0.0
1001
REVIT
1002
{
1070
     3
1000
790271
1002
}
  0
SPLINE
  5
27C
330
1BA
100
AcDbEntity
  8
M-PIPE
100
AcDbSpline
210
0.0
220
0.0
230
1.0
 70
    24
 71
     3
 72
     9
 73
     5
 74
     0
 42
0.000000001
 43
0.0000000001
 40
0.0
 40
0.0
 40
0.0
 40
0.0
 40
0.5
 40
1.0
 40
1.0
 40
1.0
 40
1.0
 10
1124.114353943021
 20
2011.240889099151
 30
0.0
 10
1124.114353943021
 20
2007.528797550063
 30
0.0
 10
1124.114353943021
 20
2000.063929251241
 30
0.0
 10
1124.114353943021
 20
1992.517690551132
 30
0.0
 10
1124.114353943021
 20
1988.724228600756
 30
0.0
1001
REVIT
1002
{
1070
     3
1000
790271
1002
}
  0
SPLINE
  5
27D
330
1BA
100
AcDbEntity
  8
M-PIPE
100
AcDbSpline
210
0.0
220
0.0
230
1.0
 70
    24
 71
     3
 72
     9
 73
     5
 74
     0
 42
0.000000001
 43
0.0000000001
 40
0.0
 40
0.0
 40
0.0
 40
0.0
 40
0.5
 40
1.0
 40
1.0
 40
1.0
 40
1.0
 10
1100.864353943021
 20
2028.994409876732
 30
0.0
 10
1104.079119525705
 20
2027.138364102188
 30
0.0
 10
1110.543885108389
 20
2023.405929952778
 30
0.0
 10
1117.079119525705
 20
2019.632810602723
 30
0.0
 10
1120.364353943021
 20
2017.736079627535
 30
0.0
1001
REVIT
1002
{
1070
     3
1000
790271
1002
}
  0
SPLINE
  5
27E
330
1BA
100
AcDbEntity
  8
M-PIPE
100
AcDbSpline
210
0.0
220
0.0
230
1.0
 70
     8
 71
     3
 72
     9
 73
     5
 74
     0
 42
0.000000001
 43
0.0000000001
 40
-1.0
 40
-1.0
 40
-1.0
 40
-1.0
 40
-0.5
 40
0.0
 40
0.0
 40
0.0
 40
0.0
 10
1097.114353943037
 20
2029.999219348349
 30
0.0
 10
1096.451071342573
 20
2029.999219348351
 30
0.0
 10
1095.133658603774
 20
2029.822240036684
 30
0.0
 10
1093.923558963782
 20
2029.317267046001
 30
0.0
 10
1093.364353943021
 20
2028.994409876732
 30
0.0
1001
REVIT
1002
{
1070
     3
1000
790271
1002
}
  0
SPLINE
  5
27F
330
1BA
100
AcDbEntity
  8
M-PIPE
100
AcDbSpline
210
0.0
220
0.0
230
1.0
 70
     8
 71
     3
 72
     9
 73
     5
 74
     0
 42
0.000000001
 43
0.0000000001
 40
-1.0
 40
-1.0
 40
-1.0
 40
-1.0
 40
-0.5
 40
0.0
 40
0.0
 40
0.0
 40
0.0
 10
1100.864353943021
 20
2028.994409876732
 30
0.0
 10
1100.305148922265
 20
2029.317267045998
 30
0.0
 10
1099.095049282284
 20
2029.822240036679
 30
0.0
 10
1097.777636543496
 20
2029.999219348348
 30
0.0
 10
1097.114353943037
 20
2029.999219348349
 30
0.0
1001
REVIT
1002
{
1070
     3
1000
790271
1002
}
  0
SPLINE
  5
280
330
1BA
100
AcDbEntity
  8
M-PIPE
100
AcDbSpline
210
0.0
220
0.0
230
1.0
 70
     8
 71
     3
 72
     8
 73
     4
 74
     0
 42
0.000000001
 43
0.0000000001
 40
0.0
 40
0.0
 40
0.0
 40
0.0
 40
0.5
 40
0.5
 40
0.5
 40
0.5
 10
1073.864353943021
 20
2017.736079627535
 30
0.0
 10
1073.305148922262
 20
2017.413222458268
 30
0.0
 10
1072.783964293187
 20
2017.015477191268
 30
0.0
 10
1072.320378241338
 20
2016.55349874696
 30
0.0
1001
REVIT
1002
{
1070
     3
1000
790271
1002
}
  0
SPLINE
  5
281
330
1BA
100
AcDbEntity
  8
M-PIPE
100
AcDbSpline
210
0.0
220
0.0
230
1.0
 70
     8
 71
     3
 72
     8
 73
     4
 74
     0
 42
0.000000001
 43
0.0000000001
 40
0.75
 40
0.75
 40
0.75
 40
0.75
 40
1.0
 40
1.0
 40
1.0
 40
1.0
 10
1071.670291546129
 20
2015.814359349646
 30
0.0
 10
1071.469391258464
 20
2015.553256690967
 30
0.0
 10
1071.28498406475
 20
2015.278098890091
 30
0.0
 10
1071.119163414634
 20
2014.990889099146
 30
0.0
1001
REVIT
1002
{
1070
     3
1000
790271
1002
}
  0
SPLINE
  5
282
330
1BA
100
AcDbEntity
  8
M-PIPE
100
AcDbSpline
210
0.0
220
0.0
230
1.0
 70
     8
 71
     3
 72
     8
 73
     4
 74
     0
 42
0.000000001
 43
0.0000000001
 40
0.0
 40
0.0
 40
0.0
 40
0.0
 40
0.25
 40
0.25
 40
0.25
 40
0.25
 10
1071.119163414634
 20
2014.990889099146
 30
0.0
 10
1070.953342764519
 20
2014.703679308202
 30
0.0
 10
1070.807252715769
 20
2014.406399093368
 30
0.0
 10
1070.681581324191
 20
2014.101863011283
 30
0.0
1001
REVIT
1002
{
1070
     3
1000
790271
1002
}
  0
SPLINE
  5
283
330
1BA
100
AcDbEntity
  8
M-PIPE
100
AcDbSpline
210
0.0
220
0.0
230
1.0
 70
     8
 71
     3
 72
     8
 73
     4
 74
     0
 42
0.000000001
 43
0.0000000001
 40
0.5
 40
0.5
 40
0.5
 40
0.5
 40
1.0
 40
1.0
 40
1.0
 40
1.0
 10
1070.366511176786
 20
2013.169301719917
 30
0.0
 10
1070.19821913394
 20
2012.536835200023
 30
0.0
 10
1070.114353943021
 20
2011.886603437684
 30
0.0
 10
1070.114353943021
 20
2011.240889099152
 30
0.0
1001
REVIT
1002
{
1070
     3
1000
790271
1002
}
  0
SPLINE
  5
284
330
1BA
100
AcDbEntity
  8
M-PIPE
100
AcDbSpline
210
0.0
220
0.0
230
1.0
 70
     8
 71
     3
 72
    10
 73
     6
 74
     0
 42
0.000000001
 43
0.0000000001
 40
-1.0
 40
-1.0
 40
-1.0
 40
-1.0
 40
-0.7
 40
-0.4
 40
0.0
 40
0.0
 40
0.0
 40
0.0
 10
1073.864353943021
 20
2017.736079627535
 30
0.0
 10
1073.194953708834
 20
2017.349601222132
 30
0.0
 10
1071.960415115665
 20
2016.358462175816
 30
0.0
 10
1070.495743302533
 20
2014.109367422143
 30
0.0
 10
1070.114353943021
 20
2012.273620681271
 30
0.0
 10
1070.114353943021
 20
2011.240889099152
 30
0.0
1001
REVIT
1002
{
1070
     3
1000
790271
1002
}
  0
SPLINE
  5
285
330
1BA
100
AcDbEntity
  8
M-PIPE
100
AcDbSpline
210
0.0
220
0.0
230
1.0
 70
     8
 71
     3
 72
     8
 73
     4
 74
     0
 42
0.000000001
 43
0.0000000001
 40
0.0
 40
0.0
 40
0.0
 40
0.0
 40
0.5
 40
0.5
 40
0.5
 40
0.5
 10
1070.114353943021
 20
1988.724228600756
 30
0.0
 10
1070.114353943021
 20
1988.078514262222
 30
0.0
 10
1070.19821913394
 20
1987.428282499882
 30
0.0
 10
1070.366511176786
 20
1986.795815979988
 30
0.0
1001
REVIT
1002
{
1070
     3
1000
790271
1002
}
  0
SPLINE
  5
286
330
1BA
100
AcDbEntity
  8
M-PIPE
100
AcDbSpline
210
0.0
220
0.0
230
1.0
 70
     8
 71
     3
 72
     8
 73
     4
 74
     0
 42
0.000000001
 43
0.0000000001
 40
0.75
 40
0.75
 40
0.75
 40
0.75
 40
1.0
 40
1.0
 40
1.0
 40
1.0
 10
1070.681581324193
 20
1985.863254688619
 30
0.0
 10
1070.807252715771
 20
1985.558718606534
 30
0.0
 10
1070.953342764522
 20
1985.2614383917
 30
0.0
 10
1071.119163414638
 20
1984.974228600755
 30
0.0
1001
REVIT
1002
{
1070
     3
1000
790271
1002
}
  0
SPLINE
  5
287
330
1BA
100
AcDbEntity
  8
M-PIPE
100
AcDbSpline
210
0.0
220
0.0
230
1.0
 70
     8
 71
     3
 72
     8
 73
     4
 74
     0
 42
0.000000001
 43
0.0000000001
 40
0.0
 40
0.0
 40
0.0
 40
0.0
 40
0.25
 40
0.25
 40
0.25
 40
0.25
 10
1071.119163414638
 20
1984.974228600755
 30
0.0
 10
1071.284984064754
 20
1984.687018809811
 30
0.0
 10
1071.469391258467
 20
1984.411861008935
 30
0.0
 10
1071.670291546133
 20
1984.150758350257
 30
0.0
1001
REVIT
1002
{
1070
     3
1000
790271
1002
}
  0
SPLINE
  5
288
330
1BA
100
AcDbEntity
  8
M-PIPE
100
AcDbSpline
210
0.0
220
0.0
230
1.0
 70
     8
 71
     3
 72
     8
 73
     4
 74
     0
 42
0.000000001
 43
0.0000000001
 40
0.5
 40
0.5
 40
0.5
 40
0.5
 40
1.0
 40
1.0
 40
1.0
 40
1.0
 10
1072.32037824134
 20
1983.411618952945
 30
0.0
 10
1072.783964293189
 20
1982.949640508638
 30
0.0
 10
1073.305148922263
 20
1982.551895241639
 30
0.0
 10
1073.864353943021
 20
1982.229038072373
 30
0.0
1001
REVIT
1002
{
1070
     3
1000
790271
1002
}
  0
SPLINE
  5
289
330
1BA
100
AcDbEntity
  8
M-PIPE
100
AcDbSpline
210
0.0
220
0.0
230
1.0
 70
     8
 71
     3
 72
    10
 73
     6
 74
     0
 42
0.000000001
 43
0.0000000001
 40
-1.0
 40
-1.0
 40
-1.0
 40
-1.0
 40
-0.7
 40
-0.4
 40
0.0
 40
0.0
 40
0.0
 40
0.0
 10
1070.114353943021
 20
1988.724228600756
 30
0.0
 10
1070.114353943021
 20
1987.951271789949
 30
0.0
 10
1070.355436239228
 20
1986.386560483155
 30
0.0
 10
1071.570873524862
 20
1983.993570107939
 30
0.0
 10
1072.969982157615
 20
1982.745403863432
 30
0.0
 10
1073.864353943021
 20
1982.229038072373
 30
0.0
1001
REVIT
1002
{
1070
     3
1000
790271
1002
}
  0
SPLINE
  5
28A
330
1BA
100
AcDbEntity
  8
M-PIPE
100
AcDbSpline
210
0.0
220
0.0
230
1.0
 70
     8
 71
     3
 72
     9
 73
     5
 74
     0
 42
0.000000001
 43
0.0000000001
 40
-1.0
 40
-1.0
 40
-1.0
 40
-1.0
 40
-0.5
 40
0.0
 40
0.0
 40
0.0
 40
0.0
 10
1097.114353943037
 20
1969.965898351558
 30
0.0
 10
1097.777636543496
 20
1969.96589835156
 30
0.0
 10
1099.095049282283
 20
1970.142877663229
 30
0.0
 10
1100.305148922265
 20
1970.647850653909
 30
0.0
 10
1100.86435394302
 20
1970.970707823175
 30
0.0
1001
REVIT
1002
{
1070
     3
1000
790271
1002
}
  0
SPLINE
  5
28B
330
1BA
100
AcDbEntity
  8
M-PIPE
100
AcDbSpline
210
0.0
220
0.0
230
1.0
 70
     8
 71
     3
 72
     9
 73
     5
 74
     0
 42
0.000000001
 43
0.0000000001
 40
-1.0
 40
-1.0
 40
-1.0
 40
-1.0
 40
-0.5
 40
0.0
 40
0.0
 40
0.0
 40
0.0
 10
1093.36435394302
 20
1970.970707823175
 30
0.0
 10
1093.923558963781
 20
1970.647850653907
 30
0.0
 10
1095.133658603773
 20
1970.142877663223
 30
0.0
 10
1096.451071342573
 20
1969.965898351557
 30
0.0
 10
1097.114353943037
 20
1969.965898351558
 30
0.0
1001
REVIT
1002
{
1070
     3
1000
790271
1002
}
  0
SPLINE
  5
28C
330
1BA
100
AcDbEntity
  8
M-PIPE
100
AcDbSpline
210
0.0
220
0.0
230
1.0
 70
     8
 71
     3
 72
     8
 73
     4
 74
     0
 42
0.000000001
 43
0.0000000001
 40
0.0
 40
0.0
 40
0.0
 40
0.0
 40
0.5
 40
0.5
 40
0.5
 40
0.5
 10
1120.364353943021
 20
1982.229038072373
 30
0.0
 10
1120.923558963778
 20
1982.551895241639
 30
0.0
 10
1121.444743592852
 20
1982.949640508637
 30
0.0
 10
1121.9083296447
 20
1983.411618952943
 30
0.0
1001
REVIT
1002
{
1070
     3
1000
790271
1002
}
  0
SPLINE
  5
28D
330
1BA
100
AcDbEntity
  8
M-PIPE
100
AcDbSpline
210
0.0
220
0.0
230
1.0
 70
     8
 71
     3
 72
     8
 73
     4
 74
     0
 42
0.000000001
 43
0.0000000001
 40
0.75
 40
0.75
 40
0.75
 40
0.75
 40
1.0
 40
1.0
 40
1.0
 40
1.0
 10
1122.558416339907
 20
1984.150758350254
 30
0.0
 10
1122.759316627572
 20
1984.411861008931
 30
0.0
 10
1122.943723821285
 20
1984.687018809807
 30
0.0
 10
1123.109544471401
 20
1984.97422860075
 30
0.0
1001
REVIT
1002
{
1070
     3
1000
790271
1002
}
  0
SPLINE
  5
28E
330
1BA
100
AcDbEntity
  8
M-PIPE
100
AcDbSpline
210
0.0
220
0.0
230
1.0
 70
     8
 71
     3
 72
     8
 73
     4
 74
     0
 42
0.000000001
 43
0.0000000001
 40
0.0
 40
0.0
 40
0.0
 40
0.0
 40
0.25
 40
0.25
 40
0.25
 40
0.25
 10
1123.109544471401
 20
1984.97422860075
 30
0.0
 10
1123.275365121517
 20
1985.261438391695
 30
0.0
 10
1123.421455170269
 20
1985.558718606529
 30
0.0
 10
1123.547126561847
 20
1985.863254688615
 30
0.0
1001
REVIT
1002
{
1070
     3
1000
790271
1002
}
  0
SPLINE
  5
28F
330
1BA
100
AcDbEntity
  8
M-PIPE
100
AcDbSpline
210
0.0
220
0.0
230
1.0
 70
     8
 71
     3
 72
     8
 73
     4
 74
     0
 42
0.000000001
 43
0.0000000001
 40
0.5
 40
0.5
 40
0.5
 40
0.5
 40
1.0
 40
1.0
 40
1.0
 40
1.0
 10
1123.862196709255
 20
1986.795815979984
 30
0.0
 10
1124.030488752102
 20
1987.42828249988
 30
0.0
 10
1124.114353943021
 20
1988.078514262221
 30
0.0
 10
1124.114353943021
 20
1988.724228600756
 30
0.0
1001
REVIT
1002
{
1070
     3
1000
790271
1002
}
  0
SPLINE
  5
290
330
1BA
100
AcDbEntity
  8
M-PIPE
100
AcDbSpline
210
0.0
220
0.0
230
1.0
 70
     8
 71
     3
 72
    10
 73
     6
 74
     0
 42
0.000000001
 43
0.0000000001
 40
-1.0
 40
-1.0
 40
-1.0
 40
-1.0
 40
-0.7
 40
-0.4
 40
0.0
 40
0.0
 40
0.0
 40
0.0
 10
1120.364353943021
 20
1982.229038072373
 30
0.0
 10
1121.033754177208
 20
1982.615516477776
 30
0.0
 10
1122.268292770377
 20
1983.606655524092
 30
0.0
 10
1123.732964583509
 20
1985.855750277765
 30
0.0
 10
1124.114353943021
 20
1987.691497018636
 30
0.0
 10
1124.114353943021
 20
1988.724228600756
 30
0.0
1001
REVIT
1002
{
1070
     3
1000
790271
1002
}
  0
SPLINE
  5
291
330
1BA
100
AcDbEntity
  8
M-PIPE
100
AcDbSpline
210
0.0
220
0.0
230
1.0
 70
     8
 71
     3
 72
     8
 73
     4
 74
     0
 42
0.000000001
 43
0.0000000001
 40
0.0
 40
0.0
 40
0.0
 40
0.0
 40
0.5
 40
0.5
 40
0.5
 40
0.5
 10
1124.114353943021
 20
2011.240889099151
 30
0.0
 10
1124.114353943021
 20
2011.886603437686
 30
0.0
 10
1124.030488752102
 20
2012.536835200025
 30
0.0
 10
1123.862196709256
 20
2013.16930171992
 30
0.0
1001
REVIT
1002
{
1070
     3
1000
790271
1002
}
  0
SPLINE
  5
292
330
1BA
100
AcDbEntity
  8
M-PIPE
100
AcDbSpline
210
0.0
220
0.0
230
1.0
 70
     8
 71
     3
 72
     8
 73
     4
 74
     0
 42
0.000000001
 43
0.0000000001
 40
0.75
 40
0.75
 40
0.75
 40
0.75
 40
1.0
 40
1.0
 40
1.0
 40
1.0
 10
1123.547126561849
 20
2014.101863011287
 30
0.0
 10
1123.421455170271
 20
2014.406399093372
 30
0.0
 10
1123.27536512152
 20
2014.703679308206
 30
0.0
 10
1123.109544471405
 20
2014.99088909915
 30
0.0
1001
REVIT
1002
{
1070
     3
1000
790271
1002
}
  0
SPLINE
  5
293
330
1BA
100
AcDbEntity
  8
M-PIPE
100
AcDbSpline
210
0.0
220
0.0
230
1.0
 70
     8
 71
     3
 72
     8
 73
     4
 74
     0
 42
0.000000001
 43
0.0000000001
 40
0.0
 40
0.0
 40
0.0
 40
0.0
 40
0.25
 40
0.25
 40
0.25
 40
0.25
 10
1123.109544471405
 20
2014.99088909915
 30
0.0
 10
1122.943723821289
 20
2015.278098890095
 30
0.0
 10
1122.759316627576
 20
2015.553256690971
 30
0.0
 10
1122.55841633991
 20
2015.814359349649
 30
0.0
1001
REVIT
1002
{
1070
     3
1000
790271
1002
}
  0
SPLINE
  5
294
330
1BA
100
AcDbEntity
  8
M-PIPE
100
AcDbSpline
210
0.0
220
0.0
230
1.0
 70
     8
 71
     3
 72
     8
 73
     4
 74
     0
 42
0.000000001
 43
0.0000000001
 40
0.5
 40
0.5
 40
0.5
 40
0.5
 40
1.0
 40
1.0
 40
1.0
 40
1.0
 10
1121.908329644703
 20
2016.553498746961
 30
0.0
 10
1121.444743592854
 20
2017.015477191268
 30
0.0
 10
1120.92355896378
 20
2017.413222458268
 30
0.0
 10
1120.364353943021
 20
2017.736079627535
 30
0.0
1001
REVIT
1002
{
1070
     3
1000
790271
1002
}
  0
SPLINE
  5
295
330
1BA
100
AcDbEntity
  8
M-PIPE
100
AcDbSpline
210
0.0
220
0.0
230
1.0
 70
     8
 71
     3
 72
    10
 73
     6
 74
     0
 42
0.000000001
 43
0.0000000001
 40
-1.0
 40
-1.0
 40
-1.0
 40
-1.0
 40
-0.7
 40
-0.4
 40
0.0
 40
0.0
 40
0.0
 40
0.0
 10
1124.114353943021
 20
2011.240889099151
 30
0.0
 10
1124.114353943021
 20
2012.013845909958
 30
0.0
 10
1123.873271646814
 20
2013.578557216753
 30
0.0
 10
1122.65783436118
 20
2015.971547591969
 30
0.0
 10
1121.258725728426
 20
2017.219713836475
 30
0.0
 10
1120.364353943021
 20
2017.736079627535
 30
0.0
1001
REVIT
1002
{
1070
     3
1000
790271
1002
}
  0
LINE
  5
296
330
1BA
100
AcDbEntity
  8
P-SANR-FIXT
100
AcDbLine
 10
1084.114353943099
 20
2030.982558850012
 30
0.0
 11
1084.114353943099
 21
2026.184896531982
 31
0.0
  0
LINE
  5
297
330
1BA
100
AcDbEntity
  8
P-SANR-FIXT
100
AcDbLine
 10
1110.114353943099
 20
2026.184896531982
 30
0.0
 11
1110.114353943099
 21
2030.982558850012
 31
0.0
  0
ARC
  5
298
330
1BA
100
AcDbEntity
  8
P-SANR-FIXT
100
AcDbCircle
 10
1097.114353943097
 20
1999.982558850011
 30
0.0
 40
29.25000000000012
100
AcDbArc
 50
337.3801350519601
 51
0.0000000000002226
  0
ARC
  5
299
330
1BA
100
AcDbEntity
  8
P-SANR-FIXT
100
AcDbCircle
 10
1097.114353943097
 20
1999.982558850011
 30
0.0
 40
29.2500000000002
100
AcDbArc
 50
277.38013505196
 51
322.6198649480417
  0
ARC
  5
29A
330
1BA
100
AcDbEntity
  8
P-SANR-FIXT
100
AcDbCircle
 10
1097.114353943097
 20
1999.982558850011
 30
0.0
 40
29.24999999999997
100
AcDbArc
 50
217.3801350519599
 51
262.6198649480415
  0
ARC
  5
29B
330
1BA
100
AcDbEntity
  8
P-SANR-FIXT
100
AcDbCircle
 10
1097.114353943097
 20
1999.982558850011
 30
0.0
 40
29.25000000000006
100
AcDbArc
 50
180.0000000000005
 51
202.6198649480415
  0
ARC
  5
29C
330
1BA
100
AcDbEntity
  8
P-SANR-FIXT
100
AcDbCircle
 10
1097.114353943097
 20
1999.982558850011
 30
0.0
 40
29.25
100
AcDbArc
 50
157.3801350519596
 51
179.9999999999996
  0
ARC
  5
29D
330
1BA
100
AcDbEntity
  8
P-SANR-FIXT
100
AcDbCircle
 10
1097.114353943097
 20
1999.982558850011
 30
0.0
 40
29.25000000000011
100
AcDbArc
 50
97.38013505195898
 51
142.6198649480408
  0
ARC
  5
29E
330
1BA
100
AcDbEntity
  8
P-SANR-FIXT
100
AcDbCircle
 10
1097.114353943097
 20
1999.982558850011
 30
0.0
 40
29.25000000000002
100
AcDbArc
 50
37.38013505195899
 51
82.61986494804096
  0
ARC
  5
29F
330
1BA
100
AcDbEntity
  8
P-SANR-FIXT
100
AcDbCircle
 10
1097.114353943097
 20
1999.982558850011
 30
0.0
 40
29.25000000000018
100
AcDbArc
 50
0.0
 51
22.61986494804125
  0
SPLINE
  5
2A0
330
1BA
100
AcDbEntity
  8
P-SANR-FIXT
100
AcDbSpline
210
0.0
220
0.0
230
1.0
 70
     8
 71
     3
 72
     8
 73
     4
 74
     0
 42
0.000000001
 43
0.0000000001
 40
0.0
 40
0.0
 40
0.0
 40
0.0
 40
0.1428571428571428
 40
0.1428571428571428
 40
0.1428571428571428
 40
0.1428571428571428
 10
1110.114353943098
 20
2026.184896531981
 30
0.0
 10
1110.107421468527
 20
2026.188336002554
 30
0.0
 10
1109.999192404747
 20
2026.242962169538
 30
0.0
 10
1109.780249419326
 20
2026.348020950745
 30
0.0
  0
SPLINE
  5
2A1
330
1BA
100
AcDbEntity
  8
P-SANR-FIXT
100
AcDbSpline
210
0.0
220
0.0
230
1.0
 70
     8
 71
     3
 72
     8
 73
     4
 74
     0
 42
0.000000001
 43
0.0000000001
 40
0.3388323437262207
 40
0.3388323437262207
 40
0.3388323437262207
 40
0.3388323437262207
 40
0.3571428571428571
 40
0.3571428571428571
 40
0.3571428571428571
 40
0.3571428571428571
 10
1108.298161841091
 20
2027.010158245513
 30
0.0
 10
1108.235202782543
 20
2027.036227241221
 30
0.0
 10
1108.17043402763
 20
2027.062499837445
 30
0.0
 10
1108.103960110104
 20
2027.088966236055
 30
0.0
  0
SPLINE
  5
2A2
330
1BA
100
AcDbEntity
  8
P-SANR-FIXT
100
AcDbSpline
210
0.0
220
0.0
230
1.0
 70
     8
 71
     3
 72
     8
 73
     4
 74
     0
 42
0.000000001
 43
0.0000000001
 40
0.4867426555121178
 40
0.4867426555121178
 40
0.4867426555121178
 40
0.4867426555121178
 40
0.5
 40
0.5
 40
0.5
 40
0.5
 10
1106.497642071113
 20
2027.68703178524
 30
0.0
 10
1106.43601257276
 20
2027.70790416092
 30
0.0
 10
1106.373542388419
 20
2027.728652319217
 30
0.0
 10
1106.310321305347
 20
2027.749315677789
 30
0.0
  0
SPLINE
  5
2A3
330
1BA
100
AcDbEntity
  8
P-SANR-FIXT
100
AcDbSpline
210
0.0
220
0.0
230
1.0
 70
     8
 71
     3
 72
     8
 73
     4
 74
     0
 42
0.000000001
 43
0.0000000001
 40
0.5714285714285714
 40
0.5714285714285714
 40
0.5714285714285714
 40
0.5714285714285714
 40
0.6428571428571427
 40
0.6428571428571427
 40
0.6428571428571427
 40
0.6428571428571427
 10
1105.237094043138
 20
2028.082088975391
 30
0.0
 10
1104.860997484816
 20
2028.190538932246
 30
0.0
 10
1104.474797416811
 20
2028.304046131807
 30
0.0
 10
1104.073610746016
 20
2028.412059509968
 30
0.0
  0
SPLINE
  5
2A4
330
1BA
100
AcDbEntity
  8
P-SANR-FIXT
100
AcDbSpline
210
0.0
220
0.0
230
1.0
 70
     8
 71
     3
 72
     8
 73
     4
 74
     0
 42
0.000000001
 43
0.0000000001
 40
0.7142857142857141
 40
0.7142857142857141
 40
0.7142857142857141
 40
0.7142857142857141
 40
0.7155315706306169
 40
0.7155315706306169
 40
0.7155315706306169
 40
0.7155315706306169
 10
1102.789667885282
 20
2028.675832230562
 30
0.0
 10
1102.78206242868
 20
2028.677340520812
 30
0.0
 10
1102.774455682738
 20
2028.678849735703
 30
0.0
 10
1102.766847534765
 20
2028.680359691802
 30
0.0
  0
SPLINE
  5
2A5
330
1BA
100
AcDbEntity
  8
P-SANR-FIXT
100
AcDbSpline
210
0.0
220
0.0
230
1.0
 70
     8
 71
     3
 72
     8
 73
     4
 74
     0
 42
0.000000001
 43
0.0000000001
 40
0.7857142857142857
 40
0.7857142857142857
 40
0.7857142857142857
 40
0.7857142857142857
 40
0.8149488271318173
 40
0.8149488271318173
 40
0.8149488271318173
 40
0.8149488271318173
 10
1101.447586742922
 20
2028.909805409311
 30
0.0
 10
1101.260232889136
 20
2028.937947748399
 30
0.0
 10
1101.069325987359
 20
2028.96104448298
 30
0.0
 10
1100.875778390756
 20
2028.980408851852
 30
0.0
  0
SPLINE
  5
2A6
330
1BA
100
AcDbEntity
  8
P-SANR-FIXT
100
AcDbSpline
210
0.0
220
0.0
230
1.0
 70
     8
 71
     3
 72
     8
 73
     4
 74
     0
 42
0.000000001
 43
0.0000000001
 40
0.1850511728682648
 40
0.1850511728682648
 40
0.1850511728682648
 40
0.1850511728682648
 40
0.2142857142857143
 40
0.2142857142857143
 40
0.2142857142857143
 40
0.2142857142857143
 10
1093.35254947302
 20
2028.989342692924
 30
0.0
 10
1093.161122451128
 20
2028.964469270844
 30
0.0
 10
1092.971028623058
 20
2028.937868375961
 30
0.0
 10
1092.782560703378
 20
2028.909658453192
 30
0.0
  0
SPLINE
  5
2A7
330
1BA
100
AcDbEntity
  8
P-SANR-FIXT
100
AcDbSpline
210
0.0
220
0.0
230
1.0
 70
     8
 71
     3
 72
     8
 73
     4
 74
     0
 42
0.000000001
 43
0.0000000001
 40
0.284468429369401
 40
0.284468429369401
 40
0.284468429369401
 40
0.284468429369401
 40
0.2857142857142857
 40
0.2857142857142857
 40
0.2857142857142857
 40
0.2857142857142857
 10
1091.457371369152
 20
2028.680308919062
 30
0.0
 10
1091.449743746065
 20
2028.67880651981
 30
0.0
 10
1091.442120332392
 20
2028.67730171153
 30
0.0
 10
1091.434501173506
 20
2028.675794507841
 30
0.0
  0
SPLINE
  5
2A8
330
1BA
100
AcDbEntity
  8
P-SANR-FIXT
100
AcDbSpline
210
0.0
220
0.0
230
1.0
 70
     8
 71
     3
 72
     8
 73
     4
 74
     0
 42
0.000000001
 43
0.0000000001
 40
0.3571428571428571
 40
0.3571428571428571
 40
0.3571428571428571
 40
0.3571428571428571
 40
0.4285714285714285
 40
0.4285714285714285
 40
0.4285714285714285
 40
0.4285714285714285
 10
1090.167364842422
 20
2028.39529806891
 30
0.0
 10
1089.759951039373
 20
2028.295510241441
 30
0.0
 10
1089.368069536745
 20
2028.190245833563
 30
0.0
 10
1088.993212013017
 20
2028.081881760011
 30
0.0
  0
SPLINE
  5
2A9
330
1BA
100
AcDbEntity
  8
P-SANR-FIXT
100
AcDbSpline
210
0.0
220
0.0
230
1.0
 70
     8
 71
     3
 72
     8
 73
     4
 74
     0
 42
0.000000001
 43
0.0000000001
 40
0.5
 40
0.5
 40
0.5
 40
0.5
 40
0.5132573444879223
 40
0.5132573444879223
 40
0.5132573444879223
 40
0.5132573444879223
 10
1087.920992756172
 20
2027.749807069563
 30
0.0
 10
1087.858014398425
 20
2027.728984940305
 30
0.0
 10
1087.795678500305
 20
2027.708139380007
 30
0.0
 10
1087.733993368718
 20
2027.687285155496
 30
0.0
  0
SPLINE
  5
2AA
330
1BA
100
AcDbEntity
  8
P-SANR-FIXT
100
AcDbSpline
210
0.0
220
0.0
230
1.0
 70
     8
 71
     3
 72
     8
 73
     4
 74
     0
 42
0.000000001
 43
0.0000000001
 40
0.6428571428571427
 40
0.6428571428571427
 40
0.6428571428571427
 40
0.6428571428571427
 40
0.6615441186393962
 40
0.6615441186393962
 40
0.6615441186393962
 40
0.6615441186393962
 10
1086.121696775384
 20
2027.088363616387
 30
0.0
 10
1086.054348692915
 20
2027.061046071514
 30
0.0
 10
1085.988558491158
 20
2027.034068677238
 30
0.0
 10
1085.92441544292
 20
2027.007507539077
 30
0.0
  0
SPLINE
  5
2AB
330
1BA
100
AcDbEntity
  8
P-SANR-FIXT
100
AcDbSpline
210
0.0
220
0.0
230
1.0
 70
     8
 71
     3
 72
     9
 73
     5
 74
     0
 42
0.000000001
 43
0.0000000001
 40
0.8571428571428569
 40
0.8571428571428569
 40
0.8571428571428569
 40
0.8571428571428569
 40
0.8928571428571427
 40
1.0
 40
1.0
 40
1.0
 40
1.0
 10
1084.448378842027
 20
2026.347984370114
 30
0.0
 10
1084.394035169652
 20
2026.321877232394
 30
0.0
 10
1084.204878039265
 20
2026.230159811748
 30
0.0
 10
1084.119553299026
 20
2026.187476134911
 30
0.0
 10
1084.114353943098
 20
2026.184896531981
 30
0.0
  0
LINE
  5
2AC
330
1BA
100
AcDbEntity
  8
P-SANR-FIXT
100
AcDbLine
 10
1084.114353943097
 20
2030.982558850011
 30
0.0
 11
1097.114353943097
 21
2030.982558850011
 31
0.0
  0
LINE
  5
2AD
330
1BA
100
AcDbEntity
  8
P-SANR-FIXT
100
AcDbLine
 10
1097.114353943098
 20
2030.982558850011
 30
0.0
 11
1110.114353943098
 21
2030.982558850011
 31
0.0
  0
ENDBLK
  5
2AF
330
1BA
100
AcDbEntity
  8
0
100
AcDbBlockEnd
  0
ENDSEC
  0
SECTION
  2
ENTITIES
  0
INSERT
  5
151
330
71
100
AcDbEntity
  8
P-SANR-FIXT
100
AcDbBlockReference
  2
Automatic flow rate regulator valve_Caleffi_121 DN15 - 1_2__-859151-Est - Idraulica
 10
0.0
 20
0.0
 30
0.0
1001
REVIT
1002
{
1070
     1
1000
863131
1002
}
1002
{
1070
     5
1000
859151
1002
}
1002
{
1070
     2
1000
-2001160
1002
}
  0
INSERT
  5
1B9
330
71
100
AcDbEntity
  8
P-SANR-FIXT
100
AcDbBlockReference
  2
Automatic flow rate regulator valve_Caleffi_121 DN15 - 1_2__-V1-Est - Idraulica
 10
0.0
 20
0.0
 30
0.0
1001
REVIT
1002
{
1070
     1
1000
863152
1002
}
1002
{
1070
     5
1000
859151
1002
}
1002
{
1070
     2
1000
-2001160
1002
}
  0
INSERT
  5
2B0
330
71
100
AcDbEntity
  8
P-SANR-FIXT
100
AcDbBlockReference
  2
Automatic flow rate regulator valve_Caleffi_121 DN15 - 1_2__-V2-Est - Idraulica
 10
0.0
 20
0.0
 30
0.0
1001
REVIT
1002
{
1070
     1
1000
863172
1002
}
1002
{
1070
     5
1000
859151
1002
}
1002
{
1070
     2
1000
-2001160
1002
}
  0
ENDSEC
  0
SECTION
  2
OBJECTS
  0
DICTIONARY
  5
C
330
0
100
AcDbDictionary
281
     1
  3
ACAD_CIP_PREVIOUS_PRODUCT_INFO
350
7A
  3
ACAD_COLOR
350
63
  3
ACAD_DETAILVIEWSTYLE
350
6B
  3
ACAD_GROUP
350
D
  3
ACAD_IMAGE_VARS
350
7B
  3
ACAD_LAYOUT
350
62
  3
ACAD_MATERIAL
350
10
  3
ACAD_MLEADERSTYLE
350
66
  3
ACAD_MLINESTYLE
350
5F
  3
ACAD_PLOTSETTINGS
350
61
  3
ACAD_PLOTSTYLENAME
350
E
  3
ACAD_SCALELIST
350
42
  3
ACAD_SECTIONVIEWSTYLE
350
68
  3
ACAD_TABLESTYLE
350
64
  3
ACAD_VISUALSTYLE
350
29
  3
ACDB_RECOMPOSE_DATA
350
2BB
  3
AcDbVariableDictionary
350
7C
  3
REVIT_DICTIONARY
350
2B2
  0
DICTIONARY
  5
2B7
330
71
100
AcDbDictionary
280
     1
281
     1
  3
ACAD_SORTENTS
360
2B8
  0
XRECORD
  5
7A
102
{ACAD_REACTORS
330
C
102
}
330
C
100
AcDbXrecord
280
     1
300
RVT
300
2013
300
RVT2013
  0
DICTIONARY
  5
63
102
{ACAD_REACTORS
330
C
102
}
330
C
100
AcDbDictionary
281
     1
  0
DICTIONARY
  5
6B
102
{ACAD_REACTORS
330
C
102
}
330
C
100
AcDbDictionary
281
     1
  3
Imperial24
350
6C
  0
DICTIONARY
  5
D
102
{ACAD_REACTORS
330
C
102
}
330
C
100
AcDbDictionary
281
     1
  0
RASTERVARIABLES
  5
7B
102
{ACAD_REACTORS
330
C
102
}
330
C
100
AcDbRasterVariables
 90
        0
 70
     0
 71
     1
 72
     1
  0
DICTIONARY
  5
62
102
{ACAD_REACTORS
330
C
102
}
330
C
100
AcDbDictionary
281
     1
  3
Layout1
350
70
  3
Layout2
350
78
  3
Model
350
74
  0
DICTIONARY
  5
10
102
{ACAD_REACTORS
330
C
102
}
330
C
100
AcDbDictionary
281
     1
  3
ByBlock
350
19
  3
ByLayer
350
11
  3
Global
350
21
  0
DICTIONARY
  5
66
102
{ACAD_REACTORS
330
C
102
}
330
C
100
AcDbDictionary
281
     1
  3
Standard
350
67
  0
DICTIONARY
  5
5F
102
{ACAD_REACTORS
330
C
102
}
330
C
100
AcDbDictionary
281
     1
  3
Standard
350
60
  0
DICTIONARY
  5
61
102
{ACAD_REACTORS
330
C
102
}
330
C
100
AcDbDictionary
281
     1
  0
ACDBDICTIONARYWDFLT
  5
E
102
{ACAD_REACTORS
330
C
102
}
330
C
100
AcDbDictionary
281
     1
  3
Normal
350
F
100
AcDbDictionaryWithDefault
340
F
  0
DICTIONARY
  5
42
102
{ACAD_REACTORS
330
C
102
}
330
C
100
AcDbDictionary
281
     1
  3
A0
350
43
  3
A1
350
44
  3
A2
350
45
  3
A3
350
46
  3
A4
350
47
  3
A5
350
48
  3
A6
350
49
  3
A7
350
4A
  3
A8
350
4B
  3
A9
350
4C
  3
B0
350
4D
  3
B1
350
4E
  3
B2
350
4F
  3
B3
350
50
  3
B4
350
51
  3
B5
350
52
  3
B6
350
53
  0
DICTIONARY
  5
68
102
{ACAD_REACTORS
330
C
102
}
330
C
100
AcDbDictionary
281
     1
  3
Imperial24
350
6A
  0
DICTIONARY
  5
64
102
{ACAD_REACTORS
330
C
102
}
330
C
100
AcDbDictionary
281
     1
  3
Standard
350
65
  0
DICTIONARY
  5
29
102
{ACAD_REACTORS
330
C
102
}
330
C
100
AcDbDictionary
281
     1
  3
2dWireframe
350
2F
  3
Basic
350
2E
  3
Brighten
350
35
  3
ColorChange
350
39
  3
Conceptual
350
32
  3
Dim
350
34
  3
EdgeColorOff
350
41
  3
Facepattern
350
38
  3
Flat
350
2A
  3
FlatWithEdges
350
2B
  3
Gouraud
350
2C
  3
GouraudWithEdges
350
2D
  3
Hidden
350
31
  3
JitterOff
350
3F
  3
Linepattern
350
37
  3
OverhangOff
350
40
  3
Realistic
350
33
  3
Shaded
350
3E
  3
Shaded with edges
350
3D
  3
Shades of Gray
350
3A
  3
Sketchy
350
3B
  3
Thicken
350
36
  3
Wireframe
350
30
  3
X-Ray
350
3C
  0
XRECORD
  5
2BB
102
{ACAD_REACTORS
330
C
102
}
330
C
100
AcDbXrecord
280
     1
 90
        1
330
65
  0
DICTIONARY
  5
7C
102
{ACAD_REACTORS
330
C
102
}
330
C
100
AcDbDictionary
281
     1
  3
CANNOSCALE
350
81
  3
CMLEADERSTYLE
350
7E
  3
CTABLESTYLE
350
7D
  3
CVIEWDETAILSTYLE
350
7F
  3
CVIEWSECTIONSTYLE
350
80
  0
DICTIONARY
  5
2B2
102
{ACAD_REACTORS
330
C
102
}
330
C
100
AcDbDictionary
281
     1
  3
DRAWING_TOOL
350
2B6
  3
REVIT_CATEGORY_MAPPING
350
2B4
  3
REVIT_SUB_CATEGORY_MAPPING
350
2B5
  3
REVIT_TYPE_MAPPING
350
2B3
  0
SORTENTSTABLE
  5
2B8
102
{ACAD_REACTORS
330
2B7
102
}
330
2B7
100
AcDbSortentsTable
330
71
  0
ACDBDETAILVIEWSTYLE
  5
6C
102
{ACAD_REACTORS
330
6B
102
}
330
6B
100
AcDbModelDocViewStyle
 70
     0
  3
Imperial24
290
     1
100
AcDbDetailViewStyle
 70
     0
 71
     0
 90
        3
 71
     1
340
55
 62
   256
 40
0.24
340
0
 62
   256
 40
0.24
300

 40
0.36
280
     3
 71
     2
340
5D
 90
       25
 62
   256
 71
     3
340
55
 62
   256
 40
0.24
 90
        1
 40
0.75
 90
        1
300
%<\AcVar ViewType \f "%tc1">% %<\AcVar ViewDetailId>%\PSCALA %<\AcVar ViewScale \f "%sn">%
 71
     4
340
5D
 90
       25
 62
   256
340
5D
 90
       25
 62
   256
280
     0
  0
LAYOUT
  5
70
102
{ACAD_REACTORS
330
62
102
}
330
62
100
AcDbPlotSettings
  1

  2

  4

  6

 40
0.0
 41
0.0
 42
0.0
 43
0.0
 44
0.0
 45
0.0
 46
0.0
 47
0.0
 48
0.0
 49
0.0
140
0.0
141
0.0
142
1.0
143
1.0
 70
   688
 72
     0
 73
     0
 74
     5
  7

 75
    16
147
1.0
 76
     0
 77
     2
 78
   300
148
0.0
149
0.0
100
AcDbLayout
  1
Layout1
 70
     1
 71
     1
 10
0.0
 20
0.0
 11
12.0
 21
9.0
 12
0.0
 22
0.0
 32
0.0
 14
0.0
 24
0.0
 34
0.0
 15
0.0
 25
0.0
 35
0.0
146
0.0
 13
0.0
 23
0.0
 33
0.0
 16
1.0
 26
0.0
 36
0.0
 17
0.0
 27
1.0
 37
0.0
 76
     0
330
6D
  0
LAYOUT
  5
78
102
{ACAD_REACTORS
330
62
102
}
330
62
100
AcDbPlotSettings
  1

  2

  4

  6

 40
0.0
 41
0.0
 42
0.0
 43
0.0
 44
0.0
 45
0.0
 46
0.0
 47
0.0
 48
0.0
 49
0.0
140
0.0
141
0.0
142
1.0
143
1.0
 70
   688
 72
     0
 73
     0
 74
     5
  7

 75
    16
147
1.0
 76
     0
 77
     2
 78
   300
148
0.0
149
0.0
100
AcDbLayout
  1
Layout2
 70
     1
 71
     2
 10
0.0
 20
0.0
 11
12.0
 21
9.0
 12
0.0
 22
0.0
 32
0.0
 14
0.0
 24
0.0
 34
0.0
 15
0.0
 25
0.0
 35
0.0
146
0.0
 13
0.0
 23
0.0
 33
0.0
 16
1.0
 26
0.0
 36
0.0
 17
0.0
 27
1.0
 37
0.0
 76
     0
330
75
  0
LAYOUT
  5
74
102
{ACAD_REACTORS
330
62
102
}
330
62
100
AcDbPlotSettings
  1

  2

  4

  6

 40
0.0
 41
0.0
 42
0.0
 43
0.0
 44
0.0
 45
0.0
 46
0.0
 47
0.0
 48
0.0
 49
0.0
140
0.0
141
0.0
142
1.0
143
1.0
 70
  1712
 72
     0
 73
     0
 74
     0
  7

 75
     0
147
1.0
 76
     0
 77
     2
 78
   300
148
0.0
149
0.0
100
AcDbLayout
  1
Model
 70
     1
 71
     0
 10
0.0
 20
0.0
 11
12.0
 21
9.0
 12
0.0
 22
0.0
 32
0.0
 14
0.0
 24
0.0
 34
0.0
 15
0.0
 25
0.0
 35
0.0
146
0.0
 13
0.0
 23
0.0
 33
0.0
 16
1.0
 26
0.0
 36
0.0
 17
0.0
 27
1.0
 37
0.0
 76
     0
330
71
  0
MATERIAL
  5
19
102
{ACAD_XDICTIONARY
360
1A
102
}
102
{ACAD_REACTORS
330
10
102
}
330
10
100
AcDbMaterial
  1
ByBlock
 72
     0
 43
0.0208333333333333
 43
0.0
 43
0.0
 43
0.0
 43
0.0
 43
0.0208333333333333
 43
0.0
 43
0.0
 43
0.0
 43
0.0
 43
1.0
 43
0.0
 43
0.0
 43
0.0
 43
0.0
 43
1.0
 77
     0
 47
0.0208333333333333
 47
0.0
 47
0.0
 47
0.0
 47
0.0
 47
0.0208333333333333
 47
0.0
 47
0.0
 47
0.0
 47
0.0
 47
1.0
 47
0.0
 47
0.0
 47
0.0
 47
0.0
 47
1.0
171
     0
 49
0.0208333333333333
 49
0.0
 49
0.0
 49
0.0
 49
0.0
 49
0.0208333333333333
 49
0.0
 49
0.0
 49
0.0
 49
0.0
 49
1.0
 49
0.0
 49
0.0
 49
0.0
 49
0.0
 49
1.0
175
     0
142
0.0208333333333333
142
0.0
142
0.0
142
0.0
142
0.0
142
0.0208333333333333
142
0.0
142
0.0
142
0.0
142
0.0
142
1.0
142
0.0
142
0.0
142
0.0
142
0.0
142
1.0
179
     0
144
0.0208333333333333
144
0.0
144
0.0
144
0.0
144
0.0
144
0.0208333333333333
144
0.0
144
0.0
144
0.0
144
0.0
144
1.0
144
0.0
144
0.0
144
0.0
144
0.0
144
1.0
147
0.0208333333333333
147
0.0
147
0.0
147
0.0
147
0.0
147
0.0208333333333333
147
0.0
147
0.0
147
0.0
147
0.0
147
1.0
147
0.0
147
0.0
147
0.0
147
0.0
147
1.0
  0
MATERIAL
  5
11
102
{ACAD_XDICTIONARY
360
12
102
}
102
{ACAD_REACTORS
330
10
102
}
330
10
100
AcDbMaterial
  1
ByLayer
 72
     0
 43
0.0208333333333333
 43
0.0
 43
0.0
 43
0.0
 43
0.0
 43
0.0208333333333333
 43
0.0
 43
0.0
 43
0.0
 43
0.0
 43
1.0
 43
0.0
 43
0.0
 43
0.0
 43
0.0
 43
1.0
 77
     0
 47
0.0208333333333333
 47
0.0
 47
0.0
 47
0.0
 47
0.0
 47
0.0208333333333333
 47
0.0
 47
0.0
 47
0.0
 47
0.0
 47
1.0
 47
0.0
 47
0.0
 47
0.0
 47
0.0
 47
1.0
171
     0
 49
0.0208333333333333
 49
0.0
 49
0.0
 49
0.0
 49
0.0
 49
0.0208333333333333
 49
0.0
 49
0.0
 49
0.0
 49
0.0
 49
1.0
 49
0.0
 49
0.0
 49
0.0
 49
0.0
 49
1.0
175
     0
142
0.0208333333333333
142
0.0
142
0.0
142
0.0
142
0.0
142
0.0208333333333333
142
0.0
142
0.0
142
0.0
142
0.0
142
1.0
142
0.0
142
0.0
142
0.0
142
0.0
142
1.0
179
     0
144
0.0208333333333333
144
0.0
144
0.0
144
0.0
144
0.0
144
0.0208333333333333
144
0.0
144
0.0
144
0.0
144
0.0
144
1.0
144
0.0
144
0.0
144
0.0
144
0.0
144
1.0
147
0.0208333333333333
147
0.0
147
0.0
147
0.0
147
0.0
147
0.0208333333333333
147
0.0
147
0.0
147
0.0
147
0.0
147
1.0
147
0.0
147
0.0
147
0.0
147
0.0
147
1.0
  0
MATERIAL
  5
21
102
{ACAD_XDICTIONARY
360
22
102
}
102
{ACAD_REACTORS
330
10
102
}
330
10
100
AcDbMaterial
  1
Global
 72
     0
 43
0.0208333333333333
 43
0.0
 43
0.0
 43
0.0
 43
0.0
 43
0.0208333333333333
 43
0.0
 43
0.0
 43
0.0
 43
0.0
 43
1.0
 43
0.0
 43
0.0
 43
0.0
 43
0.0
 43
1.0
 77
     0
 47
0.0208333333333333
 47
0.0
 47
0.0
 47
0.0
 47
0.0
 47
0.0208333333333333
 47
0.0
 47
0.0
 47
0.0
 47
0.0
 47
1.0
 47
0.0
 47
0.0
 47
0.0
 47
0.0
 47
1.0
171
     0
 49
0.0208333333333333
 49
0.0
 49
0.0
 49
0.0
 49
0.0
 49
0.0208333333333333
 49
0.0
 49
0.0
 49
0.0
 49
0.0
 49
1.0
 49
0.0
 49
0.0
 49
0.0
 49
0.0
 49
1.0
175
     0
142
0.0208333333333333
142
0.0
142
0.0
142
0.0
142
0.0
142
0.0208333333333333
142
0.0
142
0.0
142
0.0
142
0.0
142
1.0
142
0.0
142
0.0
142
0.0
142
0.0
142
1.0
179
     0
144
0.0208333333333333
144
0.0
144
0.0
144
0.0
144
0.0
144
0.0208333333333333
144
0.0
144
0.0
144
0.0
144
0.0
144
1.0
144
0.0
144
0.0
144
0.0
144
0.0
144
1.0
147
0.0208333333333333
147
0.0
147
0.0
147
0.0
147
0.0
147
0.0208333333333333
147
0.0
147
0.0
147
0.0
147
0.0
147
1.0
147
0.0
147
0.0
147
0.0
147
0.0
147
1.0
  0
MLEADERSTYLE
  5
67
102
{ACAD_REACTORS
330
66
102
}
330
66
100
AcDbMLeaderStyle
179
     2
170
     2
171
     1
172
     0
 90
        2
 40
0.0
 41
0.0
173
     1
 91
-1056964608
340
5B
 92
       -2
290
     1
 42
0.09
291
     1
 43
0.36
  3
Standard
 44
0.18
300

342
55
174
     1
178
     6
175
     1
176
     0
 93
-1056964608
 45
0.18
292
     0
297
     0
 46
0.18
 94
-1056964608
 47
1.0
 49
1.0
140
1.0
293
     1
141
0.0
294
     1
177
     0
142
1.0
295
     1
296
     0
143
0.125
271
     0
272
     9
273
     9
298
     1
  0
MLINESTYLE
  5
60
102
{ACAD_REACTORS
330
5F
102
}
330
5F
100
AcDbMlineStyle
  2
STANDARD
 70
     0
  3

 62
   256
 51
90.0
 52
90.0
 71
     2
 49
0.5
 62
   256
  6
BYLAYER
 49
-0.5
 62
   256
  6
BYLAYER
  0
ACDBPLACEHOLDER
  5
F
102
{ACAD_REACTORS
330
E
102
}
330
E
  0
SCALE
  5
43
102
{ACAD_REACTORS
330
42
102
}
330
42
100
AcDbScale
 70
     0
300
1:1
140
1.0
141
1.0
290
     1
  0
SCALE
  5
44
102
{ACAD_REACTORS
330
42
102
}
330
42
100
AcDbScale
 70
     0
300
1/128" = 1'-0"
140
0.0078125
141
12.0
290
     0
  0
SCALE
  5
45
102
{ACAD_REACTORS
330
42
102
}
330
42
100
AcDbScale
 70
     0
300
1/64" = 1'-0"
140
0.015625
141
12.0
290
     0
  0
SCALE
  5
46
102
{ACAD_REACTORS
330
42
102
}
330
42
100
AcDbScale
 70
     0
300
1/32" = 1'-0"
140
0.03125
141
12.0
290
     0
  0
SCALE
  5
47
102
{ACAD_REACTORS
330
42
102
}
330
42
100
AcDbScale
 70
     0
300
1/16" = 1'-0"
140
0.0625
141
12.0
290
     0
  0
SCALE
  5
48
102
{ACAD_REACTORS
330
42
102
}
330
42
100
AcDbScale
 70
     0
300
3/32" = 1'-0"
140
0.09375
141
12.0
290
     0
  0
SCALE
  5
49
102
{ACAD_REACTORS
330
42
102
}
330
42
100
AcDbScale
 70
     0
300
1/8" = 1'-0"
140
0.125
141
12.0
290
     0
  0
SCALE
  5
4A
102
{ACAD_REACTORS
330
42
102
}
330
42
100
AcDbScale
 70
     0
300
3/16" = 1'-0"
140
0.1875
141
12.0
290
     0
  0
SCALE
  5
4B
102
{ACAD_REACTORS
330
42
102
}
330
42
100
AcDbScale
 70
     0
300
1/4" = 1'-0"
140
0.25
141
12.0
290
     0
  0
SCALE
  5
4C
102
{ACAD_REACTORS
330
42
102
}
330
42
100
AcDbScale
 70
     0
300
3/8" = 1'-0"
140
0.375
141
12.0
290
     0
  0
SCALE
  5
4D
102
{ACAD_REACTORS
330
42
102
}
330
42
100
AcDbScale
 70
     0
300
1/2" = 1'-0"
140
0.5
141
12.0
290
     0
  0
SCALE
  5
4E
102
{ACAD_REACTORS
330
42
102
}
330
42
100
AcDbScale
 70
     0
300
3/4" = 1'-0"
140
0.75
141
12.0
290
     0
  0
SCALE
  5
4F
102
{ACAD_REACTORS
330
42
102
}
330
42
100
AcDbScale
 70
     0
300
1" = 1'-0"
140
1.0
141
12.0
290
     0
  0
SCALE
  5
50
102
{ACAD_REACTORS
330
42
102
}
330
42
100
AcDbScale
 70
     0
300
1-1/2" = 1'-0"
140
1.5
141
12.0
290
     0
  0
SCALE
  5
51
102
{ACAD_REACTORS
330
42
102
}
330
42
100
AcDbScale
 70
     0
300
3" = 1'-0"
140
3.0
141
12.0
290
     0
  0
SCALE
  5
52
102
{ACAD_REACTORS
330
42
102
}
330
42
100
AcDbScale
 70
     0
300
6" = 1'-0"
140
6.0
141
12.0
290
     0
  0
SCALE
  5
53
102
{ACAD_REACTORS
330
42
102
}
330
42
100
AcDbScale
 70
     0
300
1'-0" = 1'-0"
140
12.0
141
12.0
290
     0
  0
ACDBSECTIONVIEWSTYLE
  5
6A
102
{ACAD_REACTORS
330
68
102
}
330
68
100
AcDbModelDocViewStyle
 70
     0
  3
Imperial24
290
     1
100
AcDbSectionViewStyle
 70
     0
 71
     0
 90
       78
 71
     1
340
55
 62
   256
 40
0.24
340
0
340
0
 62
   256
 40
0.24
300
I, O, Q, S, X, Z
 40
0.48
 90
        3
 40
0.18
 90
        1
 71
     2
340
69
 90
       25
 62
   256
340
5D
 90
       50
 62
   256
 40
0.24
 40
0.0
 40
0.24
 71
     3
340
55
 62
   256
 40
0.24
 90
        1
 40
0.75
 90
        1
300
%<\AcVar ViewType \f "%tc1">% %<\AcVar ViewSectionStartId>%-%<\AcVar ViewSectionEndId>%\PSCALA %<\AcVar ViewScale \f "%sn">%
 71
     4
 62
   256
 62
   257
300
ANSI31
 40
1.0
 90
        0
290
     0
290
     0
 90
        6
 40
0.0
 40
1.570796326794896
 40
0.2617993877991494
 40
1.308996938995747
 40
-0.2617993877991494
 40
1.832595714594046
  0
TABLESTYLE
  5
65
102
{ACAD_XDICTIONARY
360
2B9
102
}
102
{ACAD_REACTORS
330
64
102
}
330
64
100
AcDbTableStyle
280
     0
  3
Standard
 70
     0
 71
     0
 40
0.06
 41
0.06
280
     0
281
     0
  7
Standard
140
0.18
170
     2
 62
     0
 63
     7
283
     0
 90
      512
 91
        0
  1

274
    -2
284
     1
 64
     0
275
    -2
285
     1
 65
     0
276
    -2
286
     1
 66
     0
277
    -2
287
     1
 67
     0
278
    -2
288
     1
 68
     0
279
    -2
289
     1
 69
     0
  7
Standard
140
0.25
170
     5
 62
     0
 63
     7
283
     0
 90
      512
 91
        0
  1

274
    -2
284
     1
 64
     0
275
    -2
285
     1
 65
     0
276
    -2
286
     1
 66
     0
277
    -2
287
     1
 67
     0
278
    -2
288
     1
 68
     0
279
    -2
289
     1
 69
     0
  7
Standard
140
0.18
170
     5
 62
     0
 63
     7
283
     0
 90
      512
 91
        0
  1

274
    -2
284
     1
 64
     0
275
    -2
285
     1
 65
     0
276
    -2
286
     1
 66
     0
277
    -2
287
     1
 67
     0
278
    -2
288
     1
 68
     0
279
    -2
289
     1
 69
     0
  0
VISUALSTYLE
  5
2F
102
{ACAD_REACTORS
330
29
102
}
330
29
100
AcDbVisualStyle
  2
2dWireframe
 70
     4
177
     3
291
     0
 70
    58
 90
        0
176
     1
 90
        2
176
     1
 90
        0
176
     1
 90
        0
176
     1
 40
0.6
176
     1
 40
30.0
176
     1
 62
     7
420
 16777215
176
     1
 90
        1
176
     1
 90
        4
176
     1
 62
     7
176
     1
 62
   257
176
     1
 90
        1
176
     1
 90
        1
176
     1
 40
1.0
176
     1
 90
        0
176
     1
 62
   257
176
     1
 40
1.0
176
     1
 90
        1
176
     1
 90
        6
176
     1
 90
        2
176
     1
 62
     7
176
     1
 90
        5
176
     1
 90
        0
176
     1
 90
        0
176
     1
290
     0
176
     1
 90
        1
176
     1
 40
0.0
176
     1
 90
        0
176
     1
290
     1
176
     1
290
     1
176
     1
290
     0
176
     1
290
     0
176
     1
290
     0
176
     1
290
     0
176
     1
290
     0
176
     1
290
     0
176
     1
290
     0
176
     1
 90
       50
176
     1
 40
0.0
176
     1
 40
1.0
176
     1
 90
        0
176
     1
 62
    18
420
        0
176
     1
 90
       50
176
     1
 90
        3
176
     1
 62
     5
420
      255
176
     1
290
     0
176
     1
 90
       50
176
     1
 90
       50
176
     1
 90
       50
176
     1
290
     0
176
     1
 90
       50
176
     1
 62
   256
176
     0
 40
1.0
176
     0
 90
        2
176
     1
  1
strokes_ogs.tif
176
     1
290
     0
176
     1
 40
1.0
176
     1
 40
1.0
176
     1
  0
VISUALSTYLE
  5
2E
102
{ACAD_REACTORS
330
29
102
}
330
29
100
AcDbVisualStyle
  2
Basic
 70
     7
177
     3
291
     1
 70
    58
 90
        1
176
     1
 90
        0
176
     1
 90
        1
176
     1
 90
        0
176
     1
 40
0.6
176
     1
 40
30.0
176
     1
 62
     7
420
 16777215
176
     1
 90
        0
176
     1
 90
        4
176
     1
 62
     7
176
     1
 62
   257
176
     1
 90
        1
176
     1
 90
        1
176
     1
 40
1.0
176
     1
 90
        8
176
     1
 62
     7
176
     1
 40
1.0
176
     1
 90
        1
176
     1
 90
        6
176
     1
 90
        2
176
     1
 62
     7
176
     1
 90
        5
176
     1
 90
        0
176
     1
 90
        0
176
     1
290
     0
176
     1
 90
        1
176
     1
 40
0.0
176
     1
 90
        0
176
     1
290
     0
176
     1
290
     1
176
     1
290
     1
176
     1
290
     0
176
     1
290
     0
176
     1
290
     0
176
     1
290
     0
176
     1
290
     0
176
     1
290
     0
176
     1
 90
       50
176
     1
 40
0.0
176
     1
 40
1.0
176
     1
 90
        0
176
     1
 62
    18
420
        0
176
     1
 90
       50
176
     1
 90
        3
176
     1
 62
     5
420
      255
176
     1
290
     0
176
     1
 90
       50
176
     1
 90
       50
176
     1
 90
       50
176
     1
290
     0
176
     1
 90
       50
176
     1
 62
   256
176
     0
 40
1.0
176
     0
 90
        2
176
     1
  1
strokes_ogs.tif
176
     1
290
     0
176
     1
 40
1.0
176
     1
 40
1.0
176
     1
  0
VISUALSTYLE
  5
35
102
{ACAD_REACTORS
330
29
102
}
330
29
100
AcDbVisualStyle
  2
Brighten
 70
    12
177
     3
291
     1
 70
    58
 90
        2
176
     1
 90
        2
176
     1
 90
        0
176
     1
 90
        0
176
     1
 40
0.6
176
     1
 40
30.0
176
     1
 62
     7
420
 16777215
176
     1
 90
        1
176
     1
 90
        4
176
     1
 62
     7
176
     1
 62
   257
176
     1
 90
        1
176
     1
 90
        1
176
     1
 40
1.0
176
     1
 90
        8
176
     1
 62
     7
176
     1
 40
1.0
176
     1
 90
        1
176
     1
 90
        6
176
     1
 90
        2
176
     1
 62
     7
176
     1
 90
        5
176
     1
 90
        0
176
     1
 90
        0
176
     1
290
     0
176
     1
 90
        1
176
     1
 40
50.0
176
     1
 90
        0
176
     1
290
     0
176
     1
290
     1
176
     1
290
     1
176
     1
290
     0
176
     1
290
     0
176
     1
290
     0
176
     1
290
     0
176
     1
290
     0
176
     1
290
     0
176
     1
 90
       50
176
     1
 40
0.0
176
     1
 40
1.0
176
     1
 90
        0
176
     1
 62
    18
420
        0
176
     1
 90
       50
176
     1
 90
        3
176
     1
 62
     5
420
      255
176
     1
290
     0
176
     1
 90
       50
176
     1
 90
       50
176
     1
 90
       50
176
     1
290
     0
176
     1
 90
       50
176
     1
 62
   256
176
     0
 40
1.0
176
     0
 90
        2
176
     1
  1
strokes_ogs.tif
176
     1
290
     0
176
     1
 40
1.0
176
     1
 40
1.0
176
     1
  0
VISUALSTYLE
  5
39
102
{ACAD_REACTORS
330
29
102
}
330
29
100
AcDbVisualStyle
  2
ColorChange
 70
    16
177
     3
291
     1
 70
    58
 90
        2
176
     1
 90
        2
176
     1
 90
        3
176
     1
 90
        0
176
     1
 40
0.6
176
     1
 40
30.0
176
     1
 62
     8
420
  8421504
176
     1
 90
        1
176
     1
 90
        4
176
     1
 62
     7
176
     1
 62
   257
176
     1
 90
        1
176
     1
 90
        1
176
     1
 40
1.0
176
     1
 90
        8
176
     1
 62
     8
420
  8421504
176
     1
 40
1.0
176
     1
 90
        1
176
     1
 90
        6
176
     1
 90
        2
176
     1
 62
     7
176
     1
 90
        5
176
     1
 90
        0
176
     1
 90
        0
176
     1
290
     0
176
     1
 90
        1
176
     1
 40
0.0
176
     1
 90
        0
176
     1
290
     0
176
     1
290
     1
176
     1
290
     1
176
     1
290
     0
176
     1
290
     0
176
     1
290
     0
176
     1
290
     0
176
     1
290
     0
176
     1
290
     0
176
     1
 90
       50
176
     1
 40
0.0
176
     1
 40
1.0
176
     1
 90
        0
176
     1
 62
    18
420
        0
176
     1
 90
       50
176
     1
 90
        3
176
     1
 62
     5
420
      255
176
     1
290
     0
176
     1
 90
       50
176
     1
 90
       50
176
     1
 90
       50
176
     1
290
     0
176
     1
 90
       50
176
     1
 62
   256
176
     0
 40
1.0
176
     0
 90
        2
176
     1
  1
strokes_ogs.tif
176
     1
290
     0
176
     1
 40
1.0
176
     1
 40
1.0
176
     1
  0
VISUALSTYLE
  5
32
102
{ACAD_REACTORS
330
29
102
}
330
29
100
AcDbVisualStyle
  2
Conceptual
 70
     9
177
     3
291
     0
 70
    58
 90
        3
176
     1
 90
        2
176
     1
 90
        0
176
     1
 90
        0
176
     1
 40
0.6
176
     1
 40
30.0
176
     1
 62
     7
420
 16777215
176
     1
 90
        2
176
     1
 90
        2
176
     1
 62
     7
176
     1
 62
   257
176
     1
 90
        1
176
     1
 90
        1
176
     1
 40
179.0
176
     1
 90
        8
176
     1
 62
     7
176
     1
 40
1.0
176
     1
 90
        1
176
     1
 90
        6
176
     1
 90
        2
176
     1
 62
     7
176
     1
 90
        3
176
     1
 90
        0
176
     1
 90
        0
176
     1
290
     0
176
     1
 90
        1
176
     1
 40
0.0
176
     1
 90
        0
176
     1
290
     0
176
     1
290
     1
176
     1
290
     1
176
     1
290
     0
176
     1
290
     0
176
     1
290
     0
176
     1
290
     0
176
     1
290
     0
176
     1
290
     0
176
     1
 90
       50
176
     1
 40
0.0
176
     1
 40
1.0
176
     1
 90
        0
176
     1
 62
    18
420
        0
176
     1
 90
       50
176
     1
 90
        3
176
     1
 62
     5
420
      255
176
     1
290
     0
176
     1
 90
       50
176
     1
 90
       50
176
     1
 90
       50
176
     1
290
     0
176
     1
 90
       50
176
     1
 62
   256
176
     0
 40
1.0
176
     0
 90
        2
176
     1
  1
strokes_ogs.tif
176
     1
290
     0
176
     1
 40
1.0
176
     1
 40
1.0
176
     1
  0
VISUALSTYLE
  5
34
102
{ACAD_REACTORS
330
29
102
}
330
29
100
AcDbVisualStyle
  2
Dim
 70
    11
177
     3
291
     1
 70
    58
 90
        2
176
     1
 90
        2
176
     1
 90
        0
176
     1
 90
        0
176
     1
 40
0.6
176
     1
 40
30.0
176
     1
 62
     7
420
 16777215
176
     1
 90
        1
176
     1
 90
        4
176
     1
 62
     7
176
     1
 62
   257
176
     1
 90
        1
176
     1
 90
        1
176
     1
 40
1.0
176
     1
 90
        8
176
     1
 62
     7
176
     1
 40
1.0
176
     1
 90
        1
176
     1
 90
        6
176
     1
 90
        2
176
     1
 62
     7
176
     1
 90
        5
176
     1
 90
        0
176
     1
 90
        0
176
     1
290
     0
176
     1
 90
        1
176
     1
 40
-50.0
176
     1
 90
        0
176
     1
290
     0
176
     1
290
     1
176
     1
290
     1
176
     1
290
     0
176
     1
290
     0
176
     1
290
     0
176
     1
290
     0
176
     1
290
     0
176
     1
290
     0
176
     1
 90
       50
176
     1
 40
0.0
176
     1
 40
1.0
176
     1
 90
        0
176
     1
 62
    18
420
        0
176
     1
 90
       50
176
     1
 90
        3
176
     1
 62
     5
420
      255
176
     1
290
     0
176
     1
 90
       50
176
     1
 90
       50
176
     1
 90
       50
176
     1
290
     0
176
     1
 90
       50
176
     1
 62
   256
176
     0
 40
1.0
176
     0
 90
        2
176
     1
  1
strokes_ogs.tif
176
     1
290
     0
176
     1
 40
1.0
176
     1
 40
1.0
176
     1
  0
VISUALSTYLE
  5
41
102
{ACAD_REACTORS
330
29
102
}
330
29
100
AcDbVisualStyle
  2
EdgeColorOff
 70
    22
177
     3
291
     1
 70
    58
 90
        2
176
     0
 90
        2
176
     0
 90
        0
176
     0
 90
        0
176
     0
 40
0.6
176
     0
 40
30.0
176
     0
 62
     7
420
 16777215
176
     0
 90
        1
176
     0
 90
        4
176
     0
 62
     7
176
     0
 62
   257
176
     0
 90
        1
176
     0
 90
        1
176
     0
 40
1.0
176
     0
 90
        8
176
     2
 62
     7
176
     0
 40
1.0
176
     0
 90
        1
176
     0
 90
        6
176
     0
 90
        2
176
     0
 62
     7
176
     0
 90
        5
176
     0
 90
        0
176
     0
 90
        0
176
     0
290
     0
176
     0
 90
        1
176
     0
 40
0.0
176
     0
 90
        0
176
     0
290
     0
176
     0
290
     1
176
     0
290
     1
176
     0
290
     0
176
     0
290
     0
176
     0
290
     0
176
     0
290
     0
176
     0
290
     0
176
     0
290
     0
176
     0
 90
       50
176
     0
 40
0.0
176
     0
 40
1.0
176
     0
 90
        0
176
     0
 62
    18
420
        0
176
     0
 90
       50
176
     0
 90
        3
176
     0
 62
     5
420
      255
176
     0
290
     0
176
     0
 90
       50
176
     0
 90
       50
176
     0
 90
       50
176
     0
290
     0
176
     0
 90
       50
176
     0
 62
   256
176
     0
 40
1.0
176
     0
 90
        2
176
     0
  1
strokes_ogs.tif
176
     0
290
     0
176
     0
 40
1.0
176
     0
 40
1.0
176
     0
  0
VISUALSTYLE
  5
38
102
{ACAD_REACTORS
330
29
102
}
330
29
100
AcDbVisualStyle
  2
Facepattern
 70
    15
177
     3
291
     1
 70
    58
 90
        2
176
     1
 90
        2
176
     1
 90
        0
176
     1
 90
        0
176
     1
 40
0.6
176
     1
 40
30.0
176
     1
 62
     7
420
 16777215
176
     1
 90
        1
176
     1
 90
        4
176
     1
 62
     7
176
     1
 62
   257
176
     1
 90
        1
176
     1
 90
        1
176
     1
 40
1.0
176
     1
 90
        8
176
     1
 62
     7
176
     1
 40
1.0
176
     1
 90
        1
176
     1
 90
        6
176
     1
 90
        2
176
     1
 62
     7
176
     1
 90
        5
176
     1
 90
        0
176
     1
 90
        0
176
     1
290
     0
176
     1
 90
        1
176
     1
 40
0.0
176
     1
 90
        0
176
     1
290
     0
176
     1
290
     1
176
     1
290
     1
176
     1
290
     0
176
     1
290
     0
176
     1
290
     0
176
     1
290
     0
176
     1
290
     0
176
     1
290
     0
176
     1
 90
       50
176
     1
 40
0.0
176
     1
 40
1.0
176
     1
 90
        0
176
     1
 62
    18
420
        0
176
     1
 90
       50
176
     1
 90
        3
176
     1
 62
     5
420
      255
176
     1
290
     0
176
     1
 90
       50
176
     1
 90
       50
176
     1
 90
       50
176
     1
290
     0
176
     1
 90
       50
176
     1
 62
   256
176
     0
 40
1.0
176
     0
 90
        2
176
     1
  1
strokes_ogs.tif
176
     1
290
     0
176
     1
 40
1.0
176
     1
 40
1.0
176
     1
  0
VISUALSTYLE
  5
2A
102
{ACAD_REACTORS
330
29
102
}
330
29
100
AcDbVisualStyle
  2
Flat
 70
     0
177
     3
291
     1
 70
    58
 90
        2
176
     1
 90
        1
176
     1
 90
        1
176
     1
 90
        2
176
     1
 40
0.6
176
     1
 40
30.0
176
     1
 62
     7
420
 16777215
176
     1
 90
        0
176
     1
 90
        0
176
     1
 62
     7
176
     1
 62
   257
176
     1
 90
        1
176
     1
 90
        1
176
     1
 40
1.0
176
     1
 90
        8
176
     1
 62
     7
176
     1
 40
1.0
176
     1
 90
        1
176
     1
 90
        6
176
     1
 90
        2
176
     1
 62
     7
176
     1
 90
        5
176
     1
 90
        0
176
     1
 90
        0
176
     1
290
     0
176
     1
 90
       13
176
     1
 40
0.0
176
     1
 90
        0
176
     1
290
     0
176
     1
290
     1
176
     1
290
     1
176
     1
290
     0
176
     1
290
     0
176
     1
290
     0
176
     1
290
     0
176
     1
290
     0
176
     1
290
     0
176
     1
 90
       50
176
     1
 40
0.0
176
     1
 40
1.0
176
     1
 90
        0
176
     1
 62
    18
420
        0
176
     1
 90
       50
176
     1
 90
        3
176
     1
 62
     5
420
      255
176
     1
290
     0
176
     1
 90
       50
176
     1
 90
       50
176
     1
 90
       50
176
     1
290
     0
176
     1
 90
       50
176
     1
 62
   256
176
     0
 40
1.0
176
     0
 90
        2
176
     1
  1
strokes_ogs.tif
176
     1
290
     0
176
     1
 40
1.0
176
     1
 40
1.0
176
     1
  0
VISUALSTYLE
  5
2B
102
{ACAD_REACTORS
330
29
102
}
330
29
100
AcDbVisualStyle
  2
FlatWithEdges
 70
     1
177
     3
291
     1
 70
    58
 90
        2
176
     1
 90
        1
176
     1
 90
        1
176
     1
 90
        2
176
     1
 40
0.6
176
     1
 40
30.0
176
     1
 62
     7
420
 16777215
176
     1
 90
        1
176
     1
 90
        0
176
     1
 62
     7
176
     1
 62
   257
176
     1
 90
        1
176
     1
 90
        1
176
     1
 40
1.0
176
     1
 90
        0
176
     1
 62
   257
176
     1
 40
1.0
176
     1
 90
        1
176
     1
 90
        6
176
     1
 90
        2
176
     1
 62
     7
176
     1
 90
        5
176
     1
 90
        0
176
     1
 90
        0
176
     1
290
     0
176
     1
 90
       13
176
     1
 40
0.0
176
     1
 90
        0
176
     1
290
     0
176
     1
290
     1
176
     1
290
     1
176
     1
290
     0
176
     1
290
     0
176
     1
290
     0
176
     1
290
     0
176
     1
290
     0
176
     1
290
     0
176
     1
 90
       50
176
     1
 40
0.0
176
     1
 40
1.0
176
     1
 90
        0
176
     1
 62
    18
420
        0
176
     1
 90
       50
176
     1
 90
        3
176
     1
 62
     5
420
      255
176
     1
290
     0
176
     1
 90
       50
176
     1
 90
       50
176
     1
 90
       50
176
     1
290
     0
176
     1
 90
       50
176
     1
 62
   256
176
     0
 40
1.0
176
     0
 90
        2
176
     1
  1
strokes_ogs.tif
176
     1
290
     0
176
     1
 40
1.0
176
     1
 40
1.0
176
     1
  0
VISUALSTYLE
  5
2C
102
{ACAD_REACTORS
330
29
102
}
330
29
100
AcDbVisualStyle
  2
Gouraud
 70
     2
177
     3
291
     1
 70
    58
 90
        2
176
     1
 90
        2
176
     1
 90
        1
176
     1
 90
        2
176
     1
 40
0.6
176
     1
 40
30.0
176
     1
 62
     7
420
 16777215
176
     1
 90
        0
176
     1
 90
        0
176
     1
 62
     7
176
     1
 62
   257
176
     1
 90
        1
176
     1
 90
        1
176
     1
 40
1.0
176
     1
 90
        0
176
     1
 62
     7
176
     1
 40
1.0
176
     1
 90
        1
176
     1
 90
        6
176
     1
 90
        2
176
     1
 62
     7
176
     1
 90
        5
176
     1
 90
        0
176
     1
 90
        0
176
     1
290
     0
176
     1
 90
       13
176
     1
 40
0.0
176
     1
 90
        0
176
     1
290
     0
176
     1
290
     1
176
     1
290
     1
176
     1
290
     0
176
     1
290
     0
176
     1
290
     0
176
     1
290
     0
176
     1
290
     0
176
     1
290
     0
176
     1
 90
       50
176
     1
 40
0.0
176
     1
 40
1.0
176
     1
 90
        0
176
     1
 62
    18
420
        0
176
     1
 90
       50
176
     1
 90
        3
176
     1
 62
     5
420
      255
176
     1
290
     0
176
     1
 90
       50
176
     1
 90
       50
176
     1
 90
       50
176
     1
290
     0
176
     1
 90
       50
176
     1
 62
   256
176
     0
 40
1.0
176
     0
 90
        2
176
     1
  1
strokes_ogs.tif
176
     1
290
     0
176
     1
 40
1.0
176
     1
 40
1.0
176
     1
  0
VISUALSTYLE
  5
2D
102
{ACAD_REACTORS
330
29
102
}
330
29
100
AcDbVisualStyle
  2
GouraudWithEdges
 70
     3
177
     3
291
     1
 70
    58
 90
        2
176
     1
 90
        2
176
     1
 90
        1
176
     1
 90
        2
176
     1
 40
0.6
176
     1
 40
30.0
176
     1
 62
     7
420
 16777215
176
     1
 90
        1
176
     1
 90
        0
176
     1
 62
     7
176
     1
 62
   257
176
     1
 90
        1
176
     1
 90
        1
176
     1
 40
1.0
176
     1
 90
        0
176
     1
 62
   257
176
     1
 40
1.0
176
     1
 90
        1
176
     1
 90
        6
176
     1
 90
        2
176
     1
 62
     7
176
     1
 90
        5
176
     1
 90
        0
176
     1
 90
        0
176
     1
290
     0
176
     1
 90
       13
176
     1
 40
0.0
176
     1
 90
        0
176
     1
290
     0
176
     1
290
     1
176
     1
290
     1
176
     1
290
     0
176
     1
290
     0
176
     1
290
     0
176
     1
290
     0
176
     1
290
     0
176
     1
290
     0
176
     1
 90
       50
176
     1
 40
0.0
176
     1
 40
1.0
176
     1
 90
        0
176
     1
 62
    18
420
        0
176
     1
 90
       50
176
     1
 90
        3
176
     1
 62
     5
420
      255
176
     1
290
     0
176
     1
 90
       50
176
     1
 90
       50
176
     1
 90
       50
176
     1
290
     0
176
     1
 90
       50
176
     1
 62
   256
176
     0
 40
1.0
176
     0
 90
        2
176
     1
  1
strokes_ogs.tif
176
     1
290
     0
176
     1
 40
1.0
176
     1
 40
1.0
176
     1
  0
VISUALSTYLE
  5
31
102
{ACAD_REACTORS
330
29
102
}
330
29
100
AcDbVisualStyle
  2
Hidden
 70
     6
177
     3
291
     0
 70
    58
 90
        1
176
     1
 90
        2
176
     1
 90
        2
176
     1
 90
        0
176
     1
 40
0.6
176
     1
 40
30.0
176
     1
 62
     7
420
 16777215
176
     1
 90
        2
176
     1
 90
        2
176
     1
 62
     7
176
     1
 62
   257
176
     1
 90
        2
176
     1
 90
        1
176
     1
 40
40.0
176
     1
 90
        0
176
     1
 62
   257
176
     1
 40
1.0
176
     1
 90
        1
176
     1
 90
        6
176
     1
 90
        2
176
     1
 62
     7
176
     1
 90
        3
176
     1
 90
        0
176
     1
 90
        0
176
     1
290
     0
176
     1
 90
        1
176
     1
 40
0.0
176
     1
 90
        0
176
     1
290
     0
176
     1
290
     1
176
     1
290
     1
176
     1
290
     0
176
     1
290
     0
176
     1
290
     0
176
     1
290
     0
176
     1
290
     0
176
     1
290
     0
176
     1
 90
       50
176
     1
 40
0.0
176
     1
 40
1.0
176
     1
 90
        0
176
     1
 62
    18
420
        0
176
     1
 90
       50
176
     1
 90
        3
176
     1
 62
     5
420
      255
176
     1
290
     0
176
     1
 90
       50
176
     1
 90
       50
176
     1
 90
       50
176
     1
290
     0
176
     1
 90
       50
176
     1
 62
   256
176
     0
 40
1.0
176
     0
 90
        2
176
     1
  1
strokes_ogs.tif
176
     1
290
     0
176
     1
 40
1.0
176
     1
 40
1.0
176
     1
  0
VISUALSTYLE
  5
3F
102
{ACAD_REACTORS
330
29
102
}
330
29
100
AcDbVisualStyle
  2
JitterOff
 70
    20
177
     3
291
     1
 70
    58
 90
        2
176
     0
 90
        2
176
     0
 90
        0
176
     0
 90
        0
176
     0
 40
0.6
176
     0
 40
30.0
176
     0
 62
     7
420
 16777215
176
     0
 90
        1
176
     0
 90
        4
176
     0
 62
     7
176
     0
 62
   257
176
     0
 90
        1
176
     0
 90
        1
176
     0
 40
1.0
176
     0
 90
       10
176
     2
 62
     7
176
     0
 40
1.0
176
     0
 90
        1
176
     0
 90
        6
176
     0
 90
        2
176
     0
 62
     7
176
     0
 90
        5
176
     0
 90
        0
176
     0
 90
        0
176
     0
290
     0
176
     0
 90
        1
176
     0
 40
0.0
176
     0
 90
        0
176
     0
290
     0
176
     0
290
     1
176
     0
290
     1
176
     0
290
     0
176
     0
290
     0
176
     0
290
     0
176
     0
290
     0
176
     0
290
     0
176
     0
290
     0
176
     0
 90
       50
176
     0
 40
0.0
176
     0
 40
1.0
176
     0
 90
        0
176
     0
 62
    18
420
        0
176
     0
 90
       50
176
     0
 90
        3
176
     0
 62
     5
420
      255
176
     0
290
     0
176
     0
 90
       50
176
     0
 90
       50
176
     0
 90
       50
176
     0
290
     0
176
     0
 90
       50
176
     0
 62
   256
176
     0
 40
1.0
176
     0
 90
        2
176
     0
  1
strokes_ogs.tif
176
     0
290
     0
176
     0
 40
1.0
176
     0
 40
1.0
176
     0
  0
VISUALSTYLE
  5
37
102
{ACAD_REACTORS
330
29
102
}
330
29
100
AcDbVisualStyle
  2
Linepattern
 70
    14
177
     3
291
     1
 70
    58
 90
        2
176
     1
 90
        2
176
     1
 90
        0
176
     1
 90
        0
176
     1
 40
0.6
176
     1
 40
30.0
176
     1
 62
     7
420
 16777215
176
     1
 90
        1
176
     1
 90
        4
176
     1
 62
     7
176
     1
 62
   257
176
     1
 90
        7
176
     1
 90
        7
176
     1
 40
1.0
176
     1
 90
        8
176
     1
 62
     7
176
     1
 40
1.0
176
     1
 90
        1
176
     1
 90
        6
176
     1
 90
        2
176
     1
 62
     7
176
     1
 90
        5
176
     1
 90
        0
176
     1
 90
        0
176
     1
290
     0
176
     1
 90
        1
176
     1
 40
0.0
176
     1
 90
        0
176
     1
290
     0
176
     1
290
     1
176
     1
290
     1
176
     1
290
     0
176
     1
290
     0
176
     1
290
     0
176
     1
290
     0
176
     1
290
     0
176
     1
290
     0
176
     1
 90
       50
176
     1
 40
0.0
176
     1
 40
1.0
176
     1
 90
        0
176
     1
 62
    18
420
        0
176
     1
 90
       50
176
     1
 90
        3
176
     1
 62
     5
420
      255
176
     1
290
     0
176
     1
 90
       50
176
     1
 90
       50
176
     1
 90
       50
176
     1
290
     0
176
     1
 90
       50
176
     1
 62
   256
176
     0
 40
1.0
176
     0
 90
        2
176
     1
  1
strokes_ogs.tif
176
     1
290
     0
176
     1
 40
1.0
176
     1
 40
1.0
176
     1
  0
VISUALSTYLE
  5
40
102
{ACAD_REACTORS
330
29
102
}
330
29
100
AcDbVisualStyle
  2
OverhangOff
 70
    21
177
     3
291
     1
 70
    58
 90
        2
176
     0
 90
        2
176
     0
 90
        0
176
     0
 90
        0
176
     0
 40
0.6
176
     0
 40
30.0
176
     0
 62
     7
420
 16777215
176
     0
 90
        1
176
     0
 90
        4
176
     0
 62
     7
176
     0
 62
   257
176
     0
 90
        1
176
     0
 90
        1
176
     0
 40
1.0
176
     0
 90
        9
176
     2
 62
     7
176
     0
 40
1.0
176
     0
 90
        1
176
     0
 90
        6
176
     0
 90
        2
176
     0
 62
     7
176
     0
 90
        5
176
     0
 90
        0
176
     0
 90
        0
176
     0
290
     0
176
     0
 90
        1
176
     0
 40
0.0
176
     0
 90
        0
176
     0
290
     0
176
     0
290
     1
176
     0
290
     1
176
     0
290
     0
176
     0
290
     0
176
     0
290
     0
176
     0
290
     0
176
     0
290
     0
176
     0
290
     0
176
     0
 90
       50
176
     0
 40
0.0
176
     0
 40
1.0
176
     0
 90
        0
176
     0
 62
    18
420
        0
176
     0
 90
       50
176
     0
 90
        3
176
     0
 62
     5
420
      255
176
     0
290
     0
176
     0
 90
       50
176
     0
 90
       50
176
     0
 90
       50
176
     0
290
     0
176
     0
 90
       50
176
     0
 62
   256
176
     0
 40
1.0
176
     0
 90
        2
176
     0
  1
strokes_ogs.tif
176
     0
290
     0
176
     0
 40
1.0
176
     0
 40
1.0
176
     0
  0
VISUALSTYLE
  5
33
102
{ACAD_REACTORS
330
29
102
}
330
29
100
AcDbVisualStyle
  2
Realistic
 70
     8
177
     3
291
     0
 70
    58
 90
        2
176
     1
 90
        3
176
     1
 90
        0
176
     1
 90
        2
176
     1
 40
0.6
176
     1
 40
30.0
176
     1
 62
     7
420
 16777215
176
     1
 90
        0
176
     1
 90
        0
176
     1
 62
     7
176
     1
 62
   257
176
     1
 90
        1
176
     1
 90
        1
176
     1
 40
1.0
176
     1
 90
        8
176
     1
 62
   257
176
     1
 40
1.0
176
     1
 90
        1
176
     1
 90
        6
176
     1
 90
        2
176
     1
 62
     7
176
     1
 90
        3
176
     1
 90
        0
176
     1
 90
        0
176
     1
290
     0
176
     1
 90
       13
176
     1
 40
0.0
176
     1
 90
        0
176
     1
290
     0
176
     1
290
     1
176
     1
290
     1
176
     1
290
     0
176
     1
290
     0
176
     1
290
     0
176
     1
290
     0
176
     1
290
     0
176
     1
290
     0
176
     1
 90
       50
176
     1
 40
0.0
176
     1
 40
1.0
176
     1
 90
        0
176
     1
 62
    18
420
        0
176
     1
 90
       50
176
     1
 90
        3
176
     1
 62
     5
420
      255
176
     1
290
     0
176
     1
 90
       50
176
     1
 90
       50
176
     1
 90
       50
176
     1
290
     0
176
     1
 90
       50
176
     1
 62
   256
176
     0
 40
1.0
176
     0
 90
        2
176
     1
  1
strokes_ogs.tif
176
     1
290
     0
176
     1
 40
1.0
176
     1
 40
1.0
176
     1
  0
VISUALSTYLE
  5
3E
102
{ACAD_REACTORS
330
29
102
}
330
29
100
AcDbVisualStyle
  2
Shaded
 70
    27
177
     3
291
     0
 70
    58
 90
        2
176
     1
 90
        2
176
     1
 90
        1
176
     1
 90
        2
176
     1
 40
0.6
176
     1
 40
30.0
176
     1
 62
     7
420
 16777215
176
     1
 90
        0
176
     1
 90
        4
176
     1
 62
     7
176
     1
 62
   257
176
     1
 90
        1
176
     1
 90
        1
176
     1
 40
1.0
176
     1
 90
        8
176
     1
 62
   257
176
     1
 40
1.0
176
     1
 90
        1
176
     1
 90
        6
176
     1
 90
        2
176
     1
 62
     8
420
  7895160
176
     1
 90
        3
176
     1
 90
        0
176
     1
 90
        0
176
     1
290
     0
176
     1
 90
        5
176
     1
 40
0.0
176
     1
 90
        0
176
     1
290
     0
176
     1
290
     1
176
     1
290
     1
176
     1
290
     0
176
     1
290
     0
176
     1
290
     0
176
     1
290
     0
176
     1
290
     0
176
     1
290
     0
176
     1
 90
       50
176
     1
 40
0.0
176
     1
 40
1.0
176
     1
 90
        0
176
     1
 62
    18
420
        0
176
     1
 90
       50
176
     1
 90
        3
176
     1
 62
     5
420
      255
176
     1
290
     0
176
     1
 90
       50
176
     1
 90
       50
176
     1
 90
       50
176
     1
290
     0
176
     1
 90
       50
176
     1
 62
   256
176
     0
 40
1.0
176
     0
 90
        2
176
     1
  1
strokes_ogs.tif
176
     1
290
     0
176
     1
 40
1.0
176
     1
 40
1.0
176
     1
  0
VISUALSTYLE
  5
3D
102
{ACAD_REACTORS
330
29
102
}
330
29
100
AcDbVisualStyle
  2
Shaded with edges
 70
    26
177
     3
291
     0
 70
    58
 90
        2
176
     1
 90
        2
176
     1
 90
        1
176
     1
 90
        2
176
     1
 40
0.6
176
     1
 40
30.0
176
     1
 62
     7
420
 16777215
176
     1
 90
        1
176
     1
 90
       10
176
     1
 62
     7
176
     1
 62
   257
176
     1
 90
        2
176
     1
 90
        1
176
     1
 40
1.0
176
     1
 90
        8
176
     1
 62
   257
176
     1
 40
1.0
176
     1
 90
        1
176
     1
 90
        6
176
     1
 90
        2
176
     1
 62
     7
176
     1
 90
        3
176
     1
 90
        0
176
     1
 90
        0
176
     1
290
     0
176
     1
 90
        5
176
     1
 40
0.0
176
     1
 90
        0
176
     1
290
     0
176
     1
290
     1
176
     1
290
     1
176
     1
290
     0
176
     1
290
     0
176
     1
290
     0
176
     1
290
     0
176
     1
290
     0
176
     1
290
     0
176
     1
 90
       50
176
     1
 40
0.0
176
     1
 40
1.0
176
     1
 90
        0
176
     1
 62
    18
420
        0
176
     1
 90
       50
176
     1
 90
        3
176
     1
 62
     5
420
      255
176
     1
290
     0
176
     1
 90
       50
176
     1
 90
       50
176
     1
 90
       50
176
     1
290
     0
176
     1
 90
       50
176
     1
 62
   256
176
     0
 40
1.0
176
     0
 90
        2
176
     1
  1
strokes_ogs.tif
176
     1
290
     0
176
     1
 40
1.0
176
     1
 40
1.0
176
     1
  0
VISUALSTYLE
  5
3A
102
{ACAD_REACTORS
330
29
102
}
330
29
100
AcDbVisualStyle
  2
Shades of Gray
 70
    23
177
     3
291
     0
 70
    58
 90
        2
176
     1
 90
        2
176
     1
 90
        3
176
     1
 90
        0
176
     1
 40
0.6
176
     1
 40
30.0
176
     1
 62
     7
420
 16777215
176
     1
 90
        2
176
     1
 90
        2
176
     1
 62
     7
176
     1
 62
     7
176
     1
 90
        1
176
     1
 90
        1
176
     1
 40
40.0
176
     1
 90
        8
176
     1
 62
     7
176
     1
 40
1.0
176
     1
 90
        1
176
     1
 90
        6
176
     1
 90
        2
176
     1
 62
     7
176
     1
 90
        3
176
     1
 90
        0
176
     1
 90
        0
176
     1
290
     0
176
     1
 90
        1
176
     1
 40
0.0
176
     1
 90
        0
176
     1
290
     0
176
     1
290
     1
176
     1
290
     1
176
     1
290
     0
176
     1
290
     0
176
     1
290
     0
176
     1
290
     0
176
     1
290
     0
176
     1
290
     0
176
     1
 90
       50
176
     1
 40
0.0
176
     1
 40
1.0
176
     1
 90
        0
176
     1
 62
    18
420
        0
176
     1
 90
       50
176
     1
 90
        3
176
     1
 62
     5
420
      255
176
     1
290
     0
176
     1
 90
       50
176
     1
 90
       50
176
     1
 90
       50
176
     1
290
     0
176
     1
 90
       50
176
     1
 62
   256
176
     0
 40
1.0
176
     0
 90
        2
176
     1
  1
strokes_ogs.tif
176
     1
290
     0
176
     1
 40
1.0
176
     1
 40
1.0
176
     1
  0
VISUALSTYLE
  5
3B
102
{ACAD_REACTORS
330
29
102
}
330
29
100
AcDbVisualStyle
  2
Sketchy
 70
    24
177
     3
291
     0
 70
    58
 90
        1
176
     1
 90
        2
176
     1
 90
        2
176
     1
 90
        0
176
     1
 40
0.6
176
     1
 40
30.0
176
     1
 62
     7
420
 16777215
176
     1
 90
        2
176
     1
 90
        2
176
     1
 62
     7
176
     1
 62
     7
176
     1
 90
        1
176
     1
 90
        1
176
     1
 40
40.0
176
     1
 90
       11
176
     1
 62
     7
176
     1
 40
1.0
176
     1
 90
        1
176
     1
 90
        6
176
     1
 90
        2
176
     1
 62
     7
176
     1
 90
        6
176
     1
 90
        0
176
     1
 90
        0
176
     1
290
     0
176
     1
 90
        1
176
     1
 40
0.0
176
     1
 90
        0
176
     1
290
     0
176
     1
290
     1
176
     1
290
     1
176
     1
290
     0
176
     1
290
     0
176
     1
290
     0
176
     1
290
     0
176
     1
290
     0
176
     1
290
     0
176
     1
 90
       50
176
     1
 40
0.0
176
     1
 40
1.0
176
     1
 90
        0
176
     1
 62
    18
420
        0
176
     1
 90
       50
176
     1
 90
        3
176
     1
 62
     5
420
      255
176
     1
290
     0
176
     1
 90
       50
176
     1
 90
       50
176
     1
 90
       50
176
     1
290
     0
176
     1
 90
       50
176
     1
 62
   256
176
     0
 40
1.0
176
     0
 90
        2
176
     1
  1
strokes_ogs.tif
176
     1
290
     0
176
     1
 40
1.0
176
     1
 40
1.0
176
     1
  0
VISUALSTYLE
  5
36
102
{ACAD_REACTORS
330
29
102
}
330
29
100
AcDbVisualStyle
  2
Thicken
 70
    13
177
     3
291
     1
 70
    58
 90
        2
176
     1
 90
        2
176
     1
 90
        0
176
     1
 90
        0
176
     1
 40
0.6
176
     1
 40
30.0
176
     1
 62
     7
420
 16777215
176
     1
 90
        1
176
     1
 90
        4
176
     1
 62
     7
176
     1
 62
   257
176
     1
 90
        1
176
     1
 90
        1
176
     1
 40
1.0
176
     1
 90
       12
176
     1
 62
     7
176
     1
 40
1.0
176
     1
 90
        1
176
     1
 90
        6
176
     1
 90
        2
176
     1
 62
     7
176
     1
 90
        5
176
     1
 90
        0
176
     1
 90
        0
176
     1
290
     0
176
     1
 90
        1
176
     1
 40
0.0
176
     1
 90
        0
176
     1
290
     0
176
     1
290
     1
176
     1
290
     1
176
     1
290
     0
176
     1
290
     0
176
     1
290
     0
176
     1
290
     0
176
     1
290
     0
176
     1
290
     0
176
     1
 90
       50
176
     1
 40
0.0
176
     1
 40
1.0
176
     1
 90
        0
176
     1
 62
    18
420
        0
176
     1
 90
       50
176
     1
 90
        3
176
     1
 62
     5
420
      255
176
     1
290
     0
176
     1
 90
       50
176
     1
 90
       50
176
     1
 90
       50
176
     1
290
     0
176
     1
 90
       50
176
     1
 62
   256
176
     0
 40
1.0
176
     0
 90
        2
176
     1
  1
strokes_ogs.tif
176
     1
290
     0
176
     1
 40
1.0
176
     1
 40
1.0
176
     1
  0
VISUALSTYLE
  5
30
102
{ACAD_REACTORS
330
29
102
}
330
29
100
AcDbVisualStyle
  2
Wireframe
 70
     5
177
     3
291
     0
 70
    58
 90
        0
176
     1
 90
        2
176
     1
 90
        0
176
     1
 90
        0
176
     1
 40
0.6
176
     1
 40
30.0
176
     1
 62
     7
420
 16777215
176
     1
 90
        1
176
     1
 90
        4
176
     1
 62
     7
176
     1
 62
   257
176
     1
 90
        1
176
     1
 90
        1
176
     1
 40
1.0
176
     1
 90
        0
176
     1
 62
   257
176
     1
 40
1.0
176
     1
 90
        1
176
     1
 90
        6
176
     1
 90
        2
176
     1
 62
     7
176
     1
 90
        3
176
     1
 90
        0
176
     1
 90
        0
176
     1
290
     0
176
     1
 90
        1
176
     1
 40
0.0
176
     1
 90
        0
176
     1
290
     0
176
     1
290
     1
176
     1
290
     1
176
     1
290
     0
176
     1
290
     0
176
     1
290
     0
176
     1
290
     0
176
     1
290
     0
176
     1
290
     0
176
     1
 90
       50
176
     1
 40
0.0
176
     1
 40
1.0
176
     1
 90
        0
176
     1
 62
    18
420
        0
176
     1
 90
       50
176
     1
 90
        3
176
     1
 62
     5
420
      255
176
     1
290
     0
176
     1
 90
       50
176
     1
 90
       50
176
     1
 90
       50
176
     1
290
     0
176
     1
 90
       50
176
     1
 62
   256
176
     0
 40
1.0
176
     0
 90
        2
176
     1
  1
strokes_ogs.tif
176
     1
290
     0
176
     1
 40
1.0
176
     1
 40
1.0
176
     1
  0
VISUALSTYLE
  5
3C
102
{ACAD_REACTORS
330
29
102
}
330
29
100
AcDbVisualStyle
  2
X-Ray
 70
    25
177
     3
291
     0
 70
    58
 90
        2
176
     1
 90
        2
176
     1
 90
        1
176
     1
 90
        1
176
     1
 40
0.5
176
     1
 40
30.0
176
     1
 62
     7
420
 16777215
176
     1
 90
        1
176
     1
 90
        0
176
     1
 62
     7
176
     1
 62
   257
176
     1
 90
        1
176
     1
 90
        1
176
     1
 40
1.0
176
     1
 90
        8
176
     1
 62
     7
176
     1
 40
1.0
176
     1
 90
        1
176
     1
 90
        6
176
     1
 90
        2
176
     1
 62
     7
176
     1
 90
        3
176
     1
 90
        0
176
     1
 90
        0
176
     1
290
     0
176
     1
 90
       13
176
     1
 40
0.0
176
     1
 90
        0
176
     1
290
     0
176
     1
290
     1
176
     1
290
     1
176
     1
290
     0
176
     1
290
     0
176
     1
290
     0
176
     1
290
     0
176
     1
290
     0
176
     1
290
     0
176
     1
 90
       50
176
     1
 40
0.0
176
     1
 40
1.0
176
     1
 90
        0
176
     1
 62
    18
420
        0
176
     1
 90
       50
176
     1
 90
        3
176
     1
 62
     5
420
      255
176
     1
290
     0
176
     1
 90
       50
176
     1
 90
       50
176
     1
 90
       50
176
     1
290
     0
176
     1
 90
       50
176
     1
 62
   256
176
     0
 40
1.0
176
     0
 90
        2
176
     1
  1
strokes_ogs.tif
176
     1
290
     0
176
     1
 40
1.0
176
     1
 40
1.0
176
     1
  0
DICTIONARYVAR
  5
81
102
{ACAD_REACTORS
330
7C
102
}
330
7C
100
DictionaryVariables
280
     0
  1
1:1
  0
DICTIONARYVAR
  5
7E
102
{ACAD_REACTORS
330
7C
102
}
330
7C
100
DictionaryVariables
280
     0
  1
STANDARD
  0
DICTIONARYVAR
  5
7D
102
{ACAD_REACTORS
330
7C
102
}
330
7C
100
DictionaryVariables
280
     0
  1
STANDARD
  0
DICTIONARYVAR
  5
7F
102
{ACAD_REACTORS
330
7C
102
}
330
7C
100
DictionaryVariables
280
     0
  1
Imperial24
  0
DICTIONARYVAR
  5
80
102
{ACAD_REACTORS
330
7C
102
}
330
7C
100
DictionaryVariables
280
     0
  1
Imperial24
  0
XRECORD
  5
2B6
102
{ACAD_REACTORS
330
2B2
102
}
330
2B2
100
AcDbXrecord
280
     1
  1
BUILDING_ID
  1
Progetto per messa in tavola DXF, DWG
  1
FLOOR_ID
  1
694395
  0
XRECORD
  5
2B4
102
{ACAD_REACTORS
330
2B2
102
}
330
2B2
100
AcDbXrecord
280
     1
  1
-2001160
  1
Apparecchi idraulici
  0
XRECORD
  5
2B5
102
{ACAD_REACTORS
330
2B2
102
}
330
2B2
100
AcDbXrecord
280
     1
  1
790271
  1
Body
  1
923261
  1
Servomotor
  0
XRECORD
  5
2B3
102
{ACAD_REACTORS
330
2B2
102
}
330
2B2
100
AcDbXrecord
280
     1
  1
859151
  1
Automatic flow rate regulator valve_Caleffi_121 DN15 : 1/2''
  0
DICTIONARY
  5
1A
330
19
100
AcDbDictionary
280
     1
281
     1
  3
BUMPTILE
360
1C
  3
DIFFUSETILE
360
1B
  3
OPACITYTILE
360
1F
  3
REFLECTIONTILE
360
1E
  3
REFRACTIONTILE
360
20
  3
SPECULARTILE
360
1D
  0
DICTIONARY
  5
12
330
11
100
AcDbDictionary
280
     1
281
     1
  3
BUMPTILE
360
14
  3
DIFFUSETILE
360
13
  3
OPACITYTILE
360
17
  3
REFLECTIONTILE
360
16
  3
REFRACTIONTILE
360
18
  3
SPECULARTILE
360
15
  0
DICTIONARY
  5
22
330
21
100
AcDbDictionary
280
     1
281
     1
  3
BUMPTILE
360
24
  3
DIFFUSETILE
360
23
  3
OPACITYTILE
360
27
  3
REFLECTIONTILE
360
26
  3
REFRACTIONTILE
360
28
  3
SPECULARTILE
360
25
  0
DICTIONARY
  5
2B9
330
65
100
AcDbDictionary
280
     1
281
     1
  3
ACAD_ROUNDTRIP_2008_TABLESTYLE_CELLSTYLEMAP
360
2BA
  0
XRECORD
  5
1C
102
{ACAD_REACTORS
330
1A
102
}
330
1A
100
AcDbXrecord
280
     1
270
     1
271
     1
  0
XRECORD
  5
1B
102
{ACAD_REACTORS
330
1A
102
}
330
1A
100
AcDbXrecord
280
     1
270
     1
271
     1
  0
XRECORD
  5
1F
102
{ACAD_REACTORS
330
1A
102
}
330
1A
100
AcDbXrecord
280
     1
270
     1
271
     1
  0
XRECORD
  5
1E
102
{ACAD_REACTORS
330
1A
102
}
330
1A
100
AcDbXrecord
280
     1
270
     1
271
     1
  0
XRECORD
  5
20
102
{ACAD_REACTORS
330
1A
102
}
330
1A
100
AcDbXrecord
280
     1
270
     1
271
     1
  0
XRECORD
  5
1D
102
{ACAD_REACTORS
330
1A
102
}
330
1A
100
AcDbXrecord
280
     1
270
     1
271
     1
  0
XRECORD
  5
14
102
{ACAD_REACTORS
330
12
102
}
330
12
100
AcDbXrecord
280
     1
270
     1
271
     1
  0
XRECORD
  5
13
102
{ACAD_REACTORS
330
12
102
}
330
12
100
AcDbXrecord
280
     1
270
     1
271
     1
  0
XRECORD
  5
17
102
{ACAD_REACTORS
330
12
102
}
330
12
100
AcDbXrecord
280
     1
270
     1
271
     1
  0
XRECORD
  5
16
102
{ACAD_REACTORS
330
12
102
}
330
12
100
AcDbXrecord
280
     1
270
     1
271
     1
  0
XRECORD
  5
18
102
{ACAD_REACTORS
330
12
102
}
330
12
100
AcDbXrecord
280
     1
270
     1
271
     1
  0
XRECORD
  5
15
102
{ACAD_REACTORS
330
12
102
}
330
12
100
AcDbXrecord
280
     1
270
     1
271
     1
  0
XRECORD
  5
24
102
{ACAD_REACTORS
330
22
102
}
330
22
100
AcDbXrecord
280
     1
270
     1
271
     1
  0
XRECORD
  5
23
102
{ACAD_REACTORS
330
22
102
}
330
22
100
AcDbXrecord
280
     1
270
     1
271
     1
  0
XRECORD
  5
27
102
{ACAD_REACTORS
330
22
102
}
330
22
100
AcDbXrecord
280
     1
270
     1
271
     1
  0
XRECORD
  5
26
102
{ACAD_REACTORS
330
22
102
}
330
22
100
AcDbXrecord
280
     1
270
     1
271
     1
  0
XRECORD
  5
28
102
{ACAD_REACTORS
330
22
102
}
330
22
100
AcDbXrecord
280
     1
270
     1
271
     1
  0
XRECORD
  5
25
102
{ACAD_REACTORS
330
22
102
}
330
22
100
AcDbXrecord
280
     1
270
     1
271
     1
  0
CELLSTYLEMAP
  5
2BA
102
{ACAD_REACTORS
330
2B9
102
}
330
2B9
100
AcDbCellStyleMap
 90
        3
300
CELLSTYLE
  1
TABLEFORMAT_BEGIN
 90
        5
170
     1
 91
        0
 92
    32768
 62
   257
 93
        1
300
CONTENTFORMAT
  1
CONTENTFORMAT_BEGIN
 90
        0
 91
        0
 92
      512
 93
        0
300

 40
0.0
140
1.0
 94
        5
 62
     0
340
55
144
0.25
309
CONTENTFORMAT_END
171
     0
 94
        0
309
TABLEFORMAT_END
  1
CELLSTYLE_BEGIN
 90
        1
 91
        1
300
_TITLE
309
CELLSTYLE_END
300
CELLSTYLE
  1
TABLEFORMAT_BEGIN
 90
        5
170
     1
 91
        0
 92
        0
 62
   257
 93
        1
300
CONTENTFORMAT
  1
CONTENTFORMAT_BEGIN
 90
        0
 91
        0
 92
      512
 93
        0
300

 40
0.0
140
1.0
 94
        5
 62
     0
340
55
144
0.18
309
CONTENTFORMAT_END
171
     0
 94
        0
309
TABLEFORMAT_END
  1
CELLSTYLE_BEGIN
 90
        2
 91
        1
300
_HEADER
309
CELLSTYLE_END
300
CELLSTYLE
  1
TABLEFORMAT_BEGIN
 90
        5
170
     1
 91
        0
 92
        0
 62
   257
 93
        1
300
CONTENTFORMAT
  1
CONTENTFORMAT_BEGIN
 90
        0
 91
        0
 92
      512
 93
        0
300

 40
0.0
140
1.0
 94
        2
 62
     0
340
55
144
0.18
309
CONTENTFORMAT_END
171
     0
 94
        0
309
TABLEFORMAT_END
  1
CELLSTYLE_BEGIN
 90
        3
 91
        2
300
_DATA
309
CELLSTYLE_END
  0
ENDSEC
  0
EOF
