  0
SECTION
  2
HEADER
  9
$ACADVER
  1
AC1027
  9
$ACADMAINTVER
 70
    20
  9
$DWGCODEPAGE
  3
ANSI_1252
  9
$REQUIREDVERSIONS
160
                 0
  9
$INSBASE
 10
0.0
 20
0.0
 30
0.0
  9
$EXTMIN
 10
727.1664074431598
 20
1759.805988811806
 30
-0.00000001
  9
$EXTMAX
 10
1137.772993861341
 20
2125.610000010071
 30
0.00000001
  9
$LIMMIN
 10
0.0
 20
0.0
  9
$LIMMAX
 10
12.0
 20
9.0
  9
$ORTHOMODE
 70
     0
  9
$REGENMODE
 70
     1
  9
$FILLMODE
 70
     1
  9
$QTEXTMODE
 70
     0
  9
$MIRRTEXT
 70
     0
  9
$LTSCALE
 40
1.0
  9
$ATTMODE
 70
     1
  9
$TEXTSIZE
 40
0.2
  9
$TRACEWID
 40
0.05
  9
$TEXTSTYLE
  7
Standard
  9
$CLAYER
  8
0
  9
$CELTYPE
  6
ByLayer
  9
$CECOLOR
 62
   256
  9
$CELTSCALE
 40
1.0
  9
$DISPSILH
 70
     0
  9
$DIMSCALE
 40
1.0
  9
$DIMASZ
 40
0.18
  9
$DIMEXO
 40
0.0625
  9
$DIMDLI
 40
0.38
  9
$DIMRND
 40
0.0
  9
$DIMDLE
 40
0.0
  9
$DIMEXE
 40
0.18
  9
$DIMTP
 40
0.0
  9
$DIMTM
 40
0.0
  9
$DIMTXT
 40
0.18
  9
$DIMCEN
 40
0.09
  9
$DIMTSZ
 40
0.0
  9
$DIMTOL
 70
     0
  9
$DIMLIM
 70
     0
  9
$DIMTIH
 70
     1
  9
$DIMTOH
 70
     1
  9
$DIMSE1
 70
     0
  9
$DIMSE2
 70
     0
  9
$DIMTAD
 70
     0
  9
$DIMZIN
 70
     0
  9
$DIMBLK
  1

  9
$DIMASO
 70
     1
  9
$DIMSHO
 70
     1
  9
$DIMPOST
  1

  9
$DIMAPOST
  1

  9
$DIMALT
 70
     0
  9
$DIMALTD
 70
     2
  9
$DIMALTF
 40
25.4
  9
$DIMLFAC
 40
1.0
  9
$DIMTOFL
 70
     0
  9
$DIMTVP
 40
0.0
  9
$DIMTIX
 70
     0
  9
$DIMSOXD
 70
     0
  9
$DIMSAH
 70
     0
  9
$DIMBLK1
  1

  9
$DIMBLK2
  1

  9
$DIMSTYLE
  2
Standard
  9
$DIMCLRD
 70
     0
  9
$DIMCLRE
 70
     0
  9
$DIMCLRT
 70
     0
  9
$DIMTFAC
 40
1.0
  9
$DIMGAP
 40
0.09
  9
$DIMJUST
 70
     0
  9
$DIMSD1
 70
     0
  9
$DIMSD2
 70
     0
  9
$DIMTOLJ
 70
     1
  9
$DIMTZIN
 70
     0
  9
$DIMALTZ
 70
     0
  9
$DIMALTTZ
 70
     0
  9
$DIMUPT
 70
     0
  9
$DIMDEC
 70
     4
  9
$DIMTDEC
 70
     4
  9
$DIMALTU
 70
     2
  9
$DIMALTTD
 70
     2
  9
$DIMTXSTY
  7
Standard
  9
$DIMAUNIT
 70
     0
  9
$DIMADEC
 70
     0
  9
$DIMALTRND
 40
0.0
  9
$DIMAZIN
 70
     0
  9
$DIMDSEP
 70
    46
  9
$DIMATFIT
 70
     3
  9
$DIMFRAC
 70
     0
  9
$DIMLDRBLK
  1

  9
$DIMLUNIT
 70
     2
  9
$DIMLWD
 70
    -2
  9
$DIMLWE
 70
    -2
  9
$DIMTMOVE
 70
     0
  9
$DIMFXL
 40
1.0
  9
$DIMFXLON
 70
     0
  9
$DIMJOGANG
 40
0.7853981633974483
  9
$DIMTFILL
 70
     0
  9
$DIMTFILLCLR
 70
     0
  9
$DIMARCSYM
 70
     0
  9
$DIMLTYPE
  6

  9
$DIMLTEX1
  6

  9
$DIMLTEX2
  6

  9
$DIMTXTDIRECTION
 70
     0
  9
$LUNITS
 70
     2
  9
$LUPREC
 70
     4
  9
$SKETCHINC
 40
0.1
  9
$FILLETRAD
 40
0.0
  9
$AUNITS
 70
     0
  9
$AUPREC
 70
     0
  9
$MENU
  1
.
  9
$ELEVATION
 40
0.0
  9
$PELEVATION
 40
0.0
  9
$THICKNESS
 40
0.0
  9
$LIMCHECK
 70
     0
  9
$CHAMFERA
 40
0.0
  9
$CHAMFERB
 40
0.0
  9
$CHAMFERC
 40
0.0
  9
$CHAMFERD
 40
0.0
  9
$SKPOLY
 70
     0
  9
$TDCREATE
 40
2457562.362580290
  9
$TDUCREATE
 40
2457562.279246956
  9
$TDUPDATE
 40
2457562.362580290
  9
$TDUUPDATE
 40
2457562.279246956
  9
$TDINDWG
 40
0.0000070718
  9
$TDUSRTIMER
 40
0.0000070718
  9
$USRTIMER
 70
     1
  9
$ANGBASE
 50
0.0
  9
$ANGDIR
 70
     0
  9
$PDMODE
 70
     0
  9
$PDSIZE
 40
0.0
  9
$PLINEWID
 40
0.0
  9
$SPLFRAME
 70
     0
  9
$SPLINETYPE
 70
     6
  9
$SPLINESEGS
 70
     8
  9
$HANDSEED
  5
221
  9
$SURFTAB1
 70
     6
  9
$SURFTAB2
 70
     6
  9
$SURFTYPE
 70
     6
  9
$SURFU
 70
     6
  9
$SURFV
 70
     6
  9
$UCSBASE
  2

  9
$UCSNAME
  2

  9
$UCSORG
 10
0.0
 20
0.0
 30
0.0
  9
$UCSXDIR
 10
1.0
 20
0.0
 30
0.0
  9
$UCSYDIR
 10
0.0
 20
1.0
 30
0.0
  9
$UCSORTHOREF
  2

  9
$UCSORTHOVIEW
 70
     0
  9
$UCSORGTOP
 10
0.0
 20
0.0
 30
0.0
  9
$UCSORGBOTTOM
 10
0.0
 20
0.0
 30
0.0
  9
$UCSORGLEFT
 10
0.0
 20
0.0
 30
0.0
  9
$UCSORGRIGHT
 10
0.0
 20
0.0
 30
0.0
  9
$UCSORGFRONT
 10
0.0
 20
0.0
 30
0.0
  9
$UCSORGBACK
 10
0.0
 20
0.0
 30
0.0
  9
$PUCSBASE
  2

  9
$PUCSNAME
  2

  9
$PUCSORG
 10
0.0
 20
0.0
 30
0.0
  9
$PUCSXDIR
 10
1.0
 20
0.0
 30
0.0
  9
$PUCSYDIR
 10
0.0
 20
1.0
 30
0.0
  9
$PUCSORTHOREF
  2

  9
$PUCSORTHOVIEW
 70
     0
  9
$PUCSORGTOP
 10
0.0
 20
0.0
 30
0.0
  9
$PUCSORGBOTTOM
 10
0.0
 20
0.0
 30
0.0
  9
$PUCSORGLEFT
 10
0.0
 20
0.0
 30
0.0
  9
$PUCSORGRIGHT
 10
0.0
 20
0.0
 30
0.0
  9
$PUCSORGFRONT
 10
0.0
 20
0.0
 30
0.0
  9
$PUCSORGBACK
 10
0.0
 20
0.0
 30
0.0
  9
$USERI1
 70
     0
  9
$USERI2
 70
     0
  9
$USERI3
 70
     0
  9
$USERI4
 70
     0
  9
$USERI5
 70
     0
  9
$USERR1
 40
0.0
  9
$USERR2
 40
0.0
  9
$USERR3
 40
0.0
  9
$USERR4
 40
0.0
  9
$USERR5
 40
0.0
  9
$WORLDVIEW
 70
     1
  9
$SHADEDGE
 70
     3
  9
$SHADEDIF
 70
    70
  9
$TILEMODE
 70
     1
  9
$MAXACTVP
 70
    64
  9
$PINSBASE
 10
0.0
 20
0.0
 30
0.0
  9
$PLIMCHECK
 70
     0
  9
$PEXTMIN
 10
1.000000000000000E+20
 20
1.000000000000000E+20
 30
1.000000000000000E+20
  9
$PEXTMAX
 10
-1.000000000000000E+20
 20
-1.000000000000000E+20
 30
-1.000000000000000E+20
  9
$PLIMMIN
 10
0.0
 20
0.0
  9
$PLIMMAX
 10
12.0
 20
9.0
  9
$UNITMODE
 70
     0
  9
$VISRETAIN
 70
     1
  9
$PLINEGEN
 70
     0
  9
$PSLTSCALE
 70
     1
  9
$TREEDEPTH
 70
  3020
  9
$CMLSTYLE
  2
Standard
  9
$CMLJUST
 70
     0
  9
$CMLSCALE
 40
1.0
  9
$PROXYGRAPHICS
 70
     1
  9
$MEASUREMENT
 70
     1
  9
$CELWEIGHT
370
    -1
  9
$ENDCAPS
280
     0
  9
$JOINSTYLE
280
     0
  9
$LWDISPLAY
290
     0
  9
$INSUNITS
 70
     4
  9
$HYPERLINKBASE
  1

  9
$STYLESHEET
  1

  9
$XEDIT
290
     1
  9
$CEPSNTYPE
380
     0
  9
$PSTYLEMODE
290
     1
  9
$FINGERPRINTGUID
  2
{035F426E-63CF-4FA7-85F5-E4EBF0239993}
  9
$VERSIONGUID
  2
{12A4BE3F-49EA-4510-BD31-AB121F7C0788}
  9
$EXTNAMES
290
     1
  9
$PSVPSCALE
 40
0.0
  9
$OLESTARTUP
290
     0
  9
$SORTENTS
280
   127
  9
$INDEXCTL
280
     0
  9
$HIDETEXT
280
     1
  9
$XCLIPFRAME
280
     2
  9
$HALOGAP
280
     0
  9
$OBSCOLOR
 70
   257
  9
$OBSLTYPE
280
     0
  9
$INTERSECTIONDISPLAY
280
     0
  9
$INTERSECTIONCOLOR
 70
   257
  9
$DIMASSOC
280
     2
  9
$PROJECTNAME
  1

  9
$CAMERADISPLAY
290
     0
  9
$LENSLENGTH
 40
50.0
  9
$CAMERAHEIGHT
 40
0.0
  9
$STEPSPERSEC
 40
2.0
  9
$STEPSIZE
 40
6.0
  9
$3DDWFPREC
 40
2.0
  9
$PSOLWIDTH
 40
0.25
  9
$PSOLHEIGHT
 40
4.0
  9
$LOFTANG1
 40
1.570796326794896
  9
$LOFTANG2
 40
1.570796326794896
  9
$LOFTMAG1
 40
0.0
  9
$LOFTMAG2
 40
0.0
  9
$LOFTPARAM
 70
     7
  9
$LOFTNORMALS
280
     1
  9
$LATITUDE
 40
37.795
  9
$LONGITUDE
 40
-122.394
  9
$NORTHDIRECTION
 40
0.0
  9
$TIMEZONE
 70
 -8000
  9
$LIGHTGLYPHDISPLAY
280
     1
  9
$TILEMODELIGHTSYNCH
280
     1
  9
$CMATERIAL
347
11
  9
$SOLIDHIST
280
     0
  9
$SHOWHIST
280
     1
  9
$DWFFRAME
280
     2
  9
$DGNFRAME
280
     0
  9
$REALWORLDSCALE
290
     1
  9
$INTERFERECOLOR
 62
     1
  9
$INTERFEREOBJVS
345
33
  9
$INTERFEREVPVS
346
30
  9
$CSHADOW
280
     0
  9
$SHADOWPLANELOCATION
 40
0.0
  0
ENDSEC
  0
SECTION
  2
CLASSES
  0
CLASS
  1
ACDBDICTIONARYWDFLT
  2
AcDbDictionaryWithDefault
  3
ObjectDBX Classes
 90
        0
 91
        1
280
     0
281
     0
  0
CLASS
  1
MATERIAL
  2
AcDbMaterial
  3
ObjectDBX Classes
 90
     1153
 91
        3
280
     0
281
     0
  0
CLASS
  1
VISUALSTYLE
  2
AcDbVisualStyle
  3
ObjectDBX Classes
 90
     4095
 91
       24
280
     0
281
     0
  0
CLASS
  1
SCALE
  2
AcDbScale
  3
ObjectDBX Classes
 90
     1153
 91
       17
280
     0
281
     0
  0
CLASS
  1
TABLESTYLE
  2
AcDbTableStyle
  3
ObjectDBX Classes
 90
     4095
 91
        1
280
     0
281
     0
  0
CLASS
  1
MLEADERSTYLE
  2
AcDbMLeaderStyle
  3
ACDB_MLEADERSTYLE_CLASS
 90
     4095
 91
        1
280
     0
281
     0
  0
CLASS
  1
ACDBSECTIONVIEWSTYLE
  2
AcDbSectionViewStyle
  3
ObjectDBX Classes
 90
     1025
 91
        1
280
     0
281
     0
  0
CLASS
  1
ACDBDETAILVIEWSTYLE
  2
AcDbDetailViewStyle
  3
ObjectDBX Classes
 90
     1025
 91
        1
280
     0
281
     0
  0
CLASS
  1
RASTERVARIABLES
  2
AcDbRasterVariables
  3
ISM
 90
        0
 91
        1
280
     0
281
     0
  0
CLASS
  1
DICTIONARYVAR
  2
AcDbDictionaryVar
  3
ObjectDBX Classes
 90
        0
 91
        5
280
     0
281
     0
  0
CLASS
  1
CELLSTYLEMAP
  2
AcDbCellStyleMap
  3
ObjectDBX Classes
 90
     1152
 91
        2
280
     0
281
     0
  0
CLASS
  1
SORTENTSTABLE
  2
AcDbSortentsTable
  3
ObjectDBX Classes
 90
        0
 91
        1
280
     0
281
     0
  0
ENDSEC
  0
SECTION
  2
TABLES
  0
TABLE
  2
VPORT
  5
8
330
0
100
AcDbSymbolTable
 70
     1
  0
VPORT
  5
57
330
8
100
AcDbSymbolTableRecord
100
AcDbViewportTableRecord
  2
*Active
 70
     0
 10
0.0
 20
0.0
 11
1.0
 21
1.0
 12
932.4697006522505
 22
1942.707994410939
 13
0.0
 23
0.0
 14
1.0
 24
1.0
 15
0.0
 25
0.0
 16
0.0
 26
0.0
 36
1.0
 17
0.0
 27
0.0
 37
0.0
 40
365.8040111982643
 41
1.122476992729406
 42
50.0
 43
0.0
 44
0.0
 50
0.0
 51
0.0
 71
     0
 72
  1000
 73
     1
 74
     1
 75
     0
 76
     0
 77
     0
 78
     0
281
     0
 65
     1
110
0.0
120
0.0
130
0.0
111
1.0
121
0.0
131
0.0
112
0.0
122
1.0
132
0.0
 79
     0
146
0.0
 60
     3
 61
     5
292
     1
282
     1
141
0.0
142
0.0
 63
   250
421
  3355443
  0
ENDTAB
  0
TABLE
  2
LTYPE
  5
5
330
0
100
AcDbSymbolTable
 70
     3
  0
LTYPE
  5
5B
330
5
100
AcDbSymbolTableRecord
100
AcDbLinetypeTableRecord
  2
ByBlock
 70
     0
  3

 72
    65
 73
     0
 40
0.0
  0
LTYPE
  5
5C
330
5
100
AcDbSymbolTableRecord
100
AcDbLinetypeTableRecord
  2
ByLayer
 70
     0
  3

 72
    65
 73
     0
 40
0.0
  0
LTYPE
  5
5D
330
5
100
AcDbSymbolTableRecord
100
AcDbLinetypeTableRecord
  2
Continuous
 70
     0
  3
Solid line
 72
    65
 73
     0
 40
0.0
  0
LTYPE
  5
69
330
5
100
AcDbSymbolTableRecord
100
AcDbLinetypeTableRecord
  2
PHANTOM2
 70
     0
  3
___ _ _ ___ _ _ ___ _ _ ___ _ _
 72
    65
 73
     6
 40
1.25
 49
0.625
 74
     0
 49
-0.125
 74
     0
 49
0.125
 74
     0
 49
-0.125
 74
     0
 49
0.125
 74
     0
 49
-0.125
 74
     0
  0
LTYPE
  5
86
330
5
100
AcDbSymbolTableRecord
100
AcDbLinetypeTableRecord
  2
Nascosto 1_5 mm
 70
     0
  3

 72
    65
 73
     2
 40
2.2
 49
1.5
 74
     0
 49
-0.7000000000000001
 74
     0
  0
ENDTAB
  0
TABLE
  2
LAYER
  5
2
330
0
100
AcDbSymbolTable
 70
     4
  0
LAYER
  5
54
330
2
100
AcDbSymbolTableRecord
100
AcDbLayerTableRecord
  2
0
 70
     0
 62
     7
  6
Continuous
370
    -3
390
F
347
21
348
0
  0
LAYER
  5
85
330
2
100
AcDbSymbolTableRecord
100
AcDbLayerTableRecord
  2
P-SANR-FIXT
 70
     0
 62
     6
  6
Continuous
370
    18
390
F
347
21
348
0
  0
LAYER
  5
88
330
2
100
AcDbSymbolTableRecord
100
AcDbLayerTableRecord
  2
M-PIPE
 70
     0
 62
     3
  6
Continuous
370
    18
390
F
347
21
348
0
  0
ENDTAB
  0
TABLE
  2
STYLE
  5
3
330
0
100
AcDbSymbolTable
 70
     2
  0
STYLE
  5
55
330
3
100
AcDbSymbolTableRecord
100
AcDbTextStyleTableRecord
  2
Standard
 70
     0
 40
0.0
 41
1.0
 50
0.0
 71
     0
 42
0.2
  3
txt
  4

  0
STYLE
  5
5A
330
3
100
AcDbSymbolTableRecord
100
AcDbTextStyleTableRecord
  2
Annotative
 70
     0
 40
0.0
 41
1.0
 50
0.0
 71
     0
 42
0.2
  3
txt
  4

1001
AcadAnnotative
1000
AnnotativeData
1002
{
1070
     1
1070
     1
1002
}
  0
ENDTAB
  0
TABLE
  2
VIEW
  5
6
330
0
100
AcDbSymbolTable
 70
     0
  0
ENDTAB
  0
TABLE
  2
UCS
  5
7
330
0
100
AcDbSymbolTable
 70
     0
  0
ENDTAB
  0
TABLE
  2
APPID
  5
9
330
0
100
AcDbSymbolTable
 70
     3
  0
APPID
  5
56
330
9
100
AcDbSymbolTableRecord
100
AcDbRegAppTableRecord
  2
ACAD
 70
     0
  0
APPID
  5
5E
330
9
100
AcDbSymbolTableRecord
100
AcDbRegAppTableRecord
  2
AcadAnnotative
 70
     0
  0
APPID
  5
79
330
9
100
AcDbSymbolTableRecord
100
AcDbRegAppTableRecord
  2
REVIT
 70
     0
  0
ENDTAB
  0
TABLE
  2
DIMSTYLE
  5
A
330
0
100
AcDbSymbolTable
 70
     2
100
AcDbDimStyleTable
 71
     0
  0
DIMSTYLE
105
58
330
A
100
AcDbSymbolTableRecord
100
AcDbDimStyleTableRecord
  2
Standard
 70
     0
340
55
  0
DIMSTYLE
105
59
330
A
100
AcDbSymbolTableRecord
100
AcDbDimStyleTableRecord
  2
Annotative
 70
     0
340
55
1001
AcadAnnotative
1000
AnnotativeData
1002
{
1070
     1
1070
     1
1002
}
  0
ENDTAB
  0
TABLE
  2
BLOCK_RECORD
  5
1
330
0
100
AcDbSymbolTable
 70
     4
  0
BLOCK_RECORD
  5
71
102
{ACAD_XDICTIONARY
360
21C
102
}
330
1
100
AcDbSymbolTableRecord
100
AcDbBlockTableRecord
  2
*Model_Space
340
74
 70
     0
280
     1
281
     0
  0
BLOCK_RECORD
  5
6D
330
1
100
AcDbSymbolTableRecord
100
AcDbBlockTableRecord
  2
*Paper_Space
340
70
 70
     0
280
     1
281
     0
  0
BLOCK_RECORD
  5
75
330
1
100
AcDbSymbolTableRecord
100
AcDbBlockTableRecord
  2
*Paper_Space0
340
78
 70
     0
280
     1
281
     0
  0
BLOCK_RECORD
  5
87
330
1
100
AcDbSymbolTableRecord
100
AcDbBlockTableRecord
  2
Automatic flow rate regulator valve_Caleffi_121 DN15 - 1_2__-859151-Est - Idraulica
340
0
102
{BLKREFS
331
143
102
}
 70
     0
280
     1
281
     0
  0
BLOCK_RECORD
  5
144
330
1
100
AcDbSymbolTableRecord
100
AcDbBlockTableRecord
  2
Automatic flow rate regulator valve_Caleffi_121 DN15 - 1_2__-V1-Est - Idraulica
340
0
102
{BLKREFS
331
19E
102
}
 70
     0
280
     1
281
     0
  0
BLOCK_RECORD
  5
19F
330
1
100
AcDbSymbolTableRecord
100
AcDbBlockTableRecord
  2
Automatic flow rate regulator valve_Caleffi_121 DN15 - 1_2__-V2-Est - Idraulica
340
0
102
{BLKREFS
331
215
102
}
 70
     0
280
     1
281
     0
  0
ENDTAB
  0
ENDSEC
  0
SECTION
  2
BLOCKS
  0
BLOCK
  5
72
330
71
100
AcDbEntity
  8
0
100
AcDbBlockBegin
  2
*Model_Space
 70
     0
 10
0.0
 20
0.0
 30
0.0
  3
*Model_Space
  1

  0
ENDBLK
  5
73
330
71
100
AcDbEntity
  8
0
100
AcDbBlockEnd
  0
BLOCK
  5
6E
330
6D
100
AcDbEntity
 67
     1
  8
0
100
AcDbBlockBegin
  2
*Paper_Space
 70
     0
 10
0.0
 20
0.0
 30
0.0
  3
*Paper_Space
  1

  0
ENDBLK
  5
6F
330
6D
100
AcDbEntity
 67
     1
  8
0
100
AcDbBlockEnd
  0
BLOCK
  5
76
330
75
100
AcDbEntity
 67
     1
  8
0
100
AcDbBlockBegin
  2
*Paper_Space0
 70
     0
 10
0.0
 20
0.0
 30
0.0
  3
*Paper_Space0
  1

  0
ENDBLK
  5
77
330
75
100
AcDbEntity
 67
     1
  8
0
100
AcDbBlockEnd
  0
BLOCK
  5
141
330
87
100
AcDbEntity
  8
0
100
AcDbBlockBegin
  2
Automatic flow rate regulator valve_Caleffi_121 DN15 - 1_2__-859151-Est - Idraulica
 70
     0
 10
0.0
 20
0.0
 30
0.0
  3
Automatic flow rate regulator valve_Caleffi_121 DN15 - 1_2__-859151-Est - Idraulica
  1

  0
LINE
  5
89
330
87
100
AcDbEntity
  8
M-PIPE
100
AcDbLine
 10
867.1664074431495
 20
2026.05255888322
 30
0.0
 11
854.9286461670289
 21
2026.05255888322
 31
0.0
1001
REVIT
1002
{
1070
     3
1000
790271
1002
}
  0
LINE
  5
8A
330
87
100
AcDbEntity
  8
M-PIPE
100
AcDbLine
 10
854.9286461670517
 20
1973.947441116705
 30
0.0
 11
867.1664074431484
 21
1973.947441116705
 31
0.0
1001
REVIT
1002
{
1070
     3
1000
790271
1002
}
  0
LINE
  5
8B
330
87
100
AcDbEntity
  8
M-PIPE
100
AcDbLine
 10
871.1664074431498
 20
2019.124355652953
 30
0.0
 11
867.305877197268
 21
2025.810990182976
 31
0.0
1001
REVIT
1002
{
1070
     3
1000
790271
1002
}
  0
LINE
  5
8C
330
87
100
AcDbEntity
  8
M-PIPE
100
AcDbLine
 10
867.2828414697992
 20
2025.850889233341
 30
0.0
 11
867.1664074431493
 21
2026.052558883229
 31
0.0
1001
REVIT
1002
{
1070
     3
1000
790271
1002
}
  0
LINE
  5
8D
330
87
100
AcDbEntity
  8
M-PIPE
100
AcDbLine
 10
867.1664074431484
 20
1973.947441116738
 30
0.0
 11
867.2828725698391
 21
1974.149164633476
 31
0.0
1001
REVIT
1002
{
1070
     3
1000
790271
1002
}
  0
LINE
  5
8E
330
87
100
AcDbEntity
  8
M-PIPE
100
AcDbLine
 10
867.3058771972435
 20
1974.18900981695
 30
0.0
 11
871.1664074431491
 21
1980.875644347014
 31
0.0
1001
REVIT
1002
{
1070
     3
1000
790271
1002
}
  0
LINE
  5
8F
330
87
100
AcDbEntity
  8
M-PIPE
100
AcDbLine
 10
854.9286461670281
 20
2026.052287004748
 30
0.0
 11
854.795299850385
 21
2025.821324409321
 31
0.0
1001
REVIT
1002
{
1070
     3
1000
790271
1002
}
  0
LINE
  5
90
330
87
100
AcDbEntity
  8
M-PIPE
100
AcDbLine
 10
854.7286803265111
 20
2025.705936009195
 30
0.0
 11
853.1664074431498
 21
2022.999999999926
 31
0.0
1001
REVIT
1002
{
1070
     3
1000
790271
1002
}
  0
LINE
  5
91
330
87
100
AcDbEntity
  8
M-PIPE
100
AcDbLine
 10
853.1664074431487
 20
1977.000000000041
 30
0.0
 11
854.7290342299854
 21
1974.293451011972
 31
0.0
1001
REVIT
1002
{
1070
     3
1000
790271
1002
}
  0
LINE
  5
92
330
87
100
AcDbEntity
  8
M-PIPE
100
AcDbLine
 10
854.795331351079
 20
1974.178621029843
 30
0.0
 11
854.9286461670511
 21
1973.947712995177
 31
0.0
1001
REVIT
1002
{
1070
     3
1000
790271
1002
}
  0
LINE
  5
93
330
87
100
AcDbEntity
  8
M-PIPE
100
AcDbLine
 10
871.1664074431482
 20
2019.124355652951
 30
0.0
 11
871.1664074431482
 21
2009.562177826467
 31
0.0
1001
REVIT
1002
{
1070
     3
1000
790271
1002
}
  0
LINE
  5
94
330
87
100
AcDbEntity
  8
M-PIPE
100
AcDbLine
 10
871.1664074431482
 20
2009.562177826467
 30
0.0
 11
871.1664074431476
 21
1980.875644347013
 31
0.0
1001
REVIT
1002
{
1070
     3
1000
790271
1002
}
  0
LINE
  5
95
330
87
100
AcDbEntity
  8
M-PIPE
100
AcDbLine
 10
853.1664074431482
 20
2011.499999999954
 30
0.0
 11
853.1664074431482
 21
2022.999999999925
 31
0.0
1001
REVIT
1002
{
1070
     3
1000
790271
1002
}
  0
LINE
  5
96
330
87
100
AcDbEntity
  8
M-PIPE
100
AcDbLine
 10
853.1664074431475
 20
1977.00000000004
 30
0.0
 11
853.1664074431482
 21
2011.499999999953
 31
0.0
1001
REVIT
1002
{
1070
     3
1000
790271
1002
}
  0
SPLINE
  5
97
330
87
100
AcDbEntity
  8
M-PIPE
100
AcDbSpline
210
0.0
220
0.0
230
1.0
 70
     8
 71
     3
 72
     8
 73
     4
 74
     0
 42
0.000000001
 43
0.0000000001
 40
0.4
 40
0.4
 40
0.4
 40
0.4
 40
0.4998696284492552
 40
0.4998696284492552
 40
0.4998696284492552
 40
0.4998696284492552
 10
854.9123799194793
 20
2026.013683134778
 30
0.0
 10
854.9231372937475
 20
2026.039539546556
 30
0.0
 10
854.9327981555174
 20
2026.062317682008
 30
0.0
 10
854.9370556435562
 20
2026.072197555823
 30
0.0
1001
REVIT
1002
{
1070
     3
1000
790271
1002
}
  0
SPLINE
  5
98
330
87
100
AcDbEntity
  8
M-PIPE
100
AcDbSpline
210
0.0
220
0.0
230
1.0
 70
     8
 71
     3
 72
     9
 73
     5
 74
     0
 42
0.000000001
 43
0.0000000001
 40
0.4998697858323236
 40
0.4998697858323236
 40
0.4998697858323236
 40
0.4998697858323236
 40
0.7
 40
1.0
 40
1.0
 40
1.0
 40
1.0
 10
854.9283118277374
 20
2026.052206667246
 30
0.0
 10
854.9280767993122
 20
2026.051961944694
 30
0.0
 10
854.8732080054241
 20
2025.92178220799
 30
0.0
 10
854.6855280805985
 20
2025.475644480473
 30
0.0
 10
854.5274787558067
 20
2025.114736709711
 30
0.0
1001
REVIT
1002
{
1070
     3
1000
790271
1002
}
  0
SPLINE
  5
99
330
87
100
AcDbEntity
  8
M-PIPE
100
AcDbSpline
210
0.0
220
0.0
230
1.0
 70
     8
 71
     3
 72
     9
 73
     5
 74
     0
 42
0.000000001
 43
0.0000000001
 40
0.0
 40
0.0
 40
0.0
 40
0.0
 40
0.5
 40
1.0
 40
1.0
 40
1.0
 40
1.0
 10
867.5677318234814
 20
2025.114736709711
 30
0.0
 10
867.435299059953
 20
2025.416254151499
 30
0.0
 10
867.2359788997026
 20
2025.88757384859
 30
0.0
 10
867.1677494730641
 20
2026.05255888322
 30
0.0
 10
867.1664074431477
 20
2026.05255888322
 30
0.0
1001
REVIT
1002
{
1070
     3
1000
790271
1002
}
  0
SPLINE
  5
9A
330
87
100
AcDbEntity
  8
M-PIPE
100
AcDbSpline
210
0.0
220
0.0
230
1.0
 70
     8
 71
     3
 72
     9
 73
     5
 74
     0
 42
0.000000001
 43
0.0000000001
 40
0.0
 40
0.0
 40
0.0
 40
0.0
 40
0.5
 40
1.0
 40
1.0
 40
1.0
 40
1.0
 10
867.5677318234779
 20
2015.588457268082
 30
0.0
 10
868.2826222368598
 20
2017.152766290545
 30
0.0
 10
868.9975126502421
 20
2020.304788553278
 30
0.0
 10
868.2826222368619
 20
2023.50361925163
 30
0.0
 10
867.5677318234814
 20
2025.114736709711
 30
0.0
1001
REVIT
1002
{
1070
     3
1000
790271
1002
}
  0
SPLINE
  5
9B
330
87
100
AcDbEntity
  8
M-PIPE
100
AcDbSpline
210
0.0
220
0.0
230
1.0
 70
     8
 71
     3
 72
     9
 73
     5
 74
     0
 42
0.000000001
 43
0.0000000001
 40
0.0
 40
0.0
 40
0.0
 40
0.0
 40
0.5
 40
1.0
 40
1.0
 40
1.0
 40
1.0
 10
854.5274787558067
 20
2025.114736709711
 30
0.0
 10
853.812588342426
 20
2023.503619251631
 30
0.0
 10
853.0976979290461
 20
2020.304788553278
 30
0.0
 10
853.8125883424285
 20
2017.152766290545
 30
0.0
 10
854.5274787558101
 20
2015.588457268082
 30
0.0
1001
REVIT
1002
{
1070
     3
1000
790271
1002
}
  0
SPLINE
  5
9C
330
87
100
AcDbEntity
  8
M-PIPE
100
AcDbSpline
210
0.0
220
0.0
230
1.0
 70
     8
 71
     3
 72
     9
 73
     5
 74
     0
 42
0.000000001
 43
0.0000000001
 40
0.0
 40
0.0
 40
0.0
 40
0.0
 40
0.5
 40
1.0
 40
1.0
 40
1.0
 40
1.0
 10
867.1664074431477
 20
2013.026279441586
 30
0.0
 10
867.1677494730616
 20
2013.562085542178
 30
0.0
 10
867.2359788996972
 20
2014.544137882506
 30
0.0
 10
867.4352990599485
 20
2015.286939826294
 30
0.0
 10
867.5677318234779
 20
2015.588457268082
 30
0.0
1001
REVIT
1002
{
1070
     3
1000
790271
1002
}
  0
SPLINE
  5
9D
330
87
100
AcDbEntity
  8
M-PIPE
100
AcDbSpline
210
0.0
220
0.0
230
1.0
 70
     8
 71
     3
 72
     9
 73
     5
 74
     0
 42
0.000000001
 43
0.0000000001
 40
0.0
 40
0.0
 40
0.0
 40
0.0
 40
0.5
 40
1.0
 40
1.0
 40
1.0
 40
1.0
 10
854.5274787558101
 20
2015.588457268082
 30
0.0
 10
854.6599115193389
 20
2015.286939826296
 30
0.0
 10
854.8592316795891
 20
2014.544137882512
 30
0.0
 10
854.9274611062257
 20
2013.562085542194
 30
0.0
 10
854.9288031361403
 20
2013.026279441605
 30
0.0
1001
REVIT
1002
{
1070
     3
1000
790271
1002
}
  0
SPLINE
  5
9E
330
87
100
AcDbEntity
  8
M-PIPE
100
AcDbSpline
210
0.0
220
0.0
230
1.0
 70
     8
 71
     3
 72
     9
 73
     5
 74
     0
 42
0.000000001
 43
0.0000000001
 40
0.0
 40
0.0
 40
0.0
 40
0.0
 40
0.5
 40
1.0
 40
1.0
 40
1.0
 40
1.0
 10
854.9288031361403
 20
2013.026279441605
 30
0.0
 10
854.9274611062273
 20
2012.490473341012
 30
0.0
 10
854.8592316795929
 20
2011.343435966054
 30
0.0
 10
854.6599115193423
 20
2010.12931432517
 30
0.0
 10
854.5274787558128
 20
2009.526279441591
 30
0.0
1001
REVIT
1002
{
1070
     3
1000
790271
1002
}
  0
SPLINE
  5
9F
330
87
100
AcDbEntity
  8
M-PIPE
100
AcDbSpline
210
0.0
220
0.0
230
1.0
 70
     8
 71
     3
 72
     9
 73
     5
 74
     0
 42
0.000000001
 43
0.0000000001
 40
0.0
 40
0.0
 40
0.0
 40
0.0
 40
0.5
 40
1.0
 40
1.0
 40
1.0
 40
1.0
 10
867.5677318234752
 20
2009.526279441591
 30
0.0
 10
867.4352990599466
 20
2010.129314325167
 30
0.0
 10
867.2359788996967
 20
2011.343435966043
 30
0.0
 10
867.1677494730616
 20
2012.490473340995
 30
0.0
 10
867.1664074431477
 20
2013.026279441586
 30
0.0
1001
REVIT
1002
{
1070
     3
1000
790271
1002
}
  0
SPLINE
  5
A0
330
87
100
AcDbEntity
  8
M-PIPE
100
AcDbSpline
210
0.0
220
0.0
230
1.0
 70
     8
 71
     3
 72
     9
 73
     5
 74
     0
 42
0.000000001
 43
0.0000000001
 40
0.0
 40
0.0
 40
0.0
 40
0.0
 40
0.5
 40
1.0
 40
1.0
 40
1.0
 40
1.0
 10
867.567731823466
 20
1990.473720558334
 30
0.0
 10
868.2826222368483
 20
1993.602338603258
 30
0.0
 10
868.9975126502321
 20
1999.906383128726
 30
0.0
 10
868.2826222368545
 20
2006.30404452543
 30
0.0
 10
867.5677318234752
 20
2009.526279441591
 30
0.0
1001
REVIT
1002
{
1070
     3
1000
790271
1002
}
  0
SPLINE
  5
A1
330
87
100
AcDbEntity
  8
M-PIPE
100
AcDbSpline
210
0.0
220
0.0
230
1.0
 70
     8
 71
     3
 72
     9
 73
     5
 74
     0
 42
0.000000001
 43
0.0000000001
 40
0.0
 40
0.0
 40
0.0
 40
0.0
 40
0.5
 40
1.0
 40
1.0
 40
1.0
 40
1.0
 10
854.5274787558128
 20
2009.526279441591
 30
0.0
 10
853.8125883424335
 20
2006.30404452543
 30
0.0
 10
853.0976979290555
 20
1999.906383128726
 30
0.0
 10
853.8125883424394
 20
1993.602338603259
 30
0.0
 10
854.5274787558215
 20
1990.473720558334
 30
0.0
1001
REVIT
1002
{
1070
     3
1000
790271
1002
}
  0
SPLINE
  5
A2
330
87
100
AcDbEntity
  8
M-PIPE
100
AcDbSpline
210
0.0
220
0.0
230
1.0
 70
     8
 71
     3
 72
     9
 73
     5
 74
     0
 42
0.000000001
 43
0.0000000001
 40
0.0
 40
0.0
 40
0.0
 40
0.0
 40
0.5
 40
1.0
 40
1.0
 40
1.0
 40
1.0
 10
867.1664074431472
 20
1986.973720558327
 30
0.0
 10
867.1677494730554
 20
1987.50952665892
 30
0.0
 10
867.235978899683
 20
1988.656564033876
 30
0.0
 10
867.4352990599343
 20
1989.870685674756
 30
0.0
 10
867.567731823466
 20
1990.473720558334
 30
0.0
1001
REVIT
1002
{
1070
     3
1000
790271
1002
}
  0
SPLINE
  5
A3
330
87
100
AcDbEntity
  8
M-PIPE
100
AcDbSpline
210
0.0
220
0.0
230
1.0
 70
     8
 71
     3
 72
    10
 73
     6
 74
     0
 42
0.000000001
 43
0.0000000001
 40
0.0
 40
0.0
 40
0.0
 40
0.0
 40
0.4
 40
0.7
 40
1.0
 40
1.0
 40
1.0
 40
1.0
 10
854.5274787558215
 20
1990.473720558334
 30
0.0
 10
854.7385309641212
 20
1989.509313472889
 30
0.0
 10
854.9673667161027
 20
1987.796098557777
 30
0.0
 10
854.9106853530727
 20
1985.697856208529
 30
0.0
 10
854.6855280806159
 20
1984.772450502604
 30
0.0
 10
854.5274787558243
 20
1984.411542731842
 30
0.0
1001
REVIT
1002
{
1070
     3
1000
790271
1002
}
  0
SPLINE
  5
A4
330
87
100
AcDbEntity
  8
M-PIPE
100
AcDbSpline
210
0.0
220
0.0
230
1.0
 70
     8
 71
     3
 72
     9
 73
     5
 74
     0
 42
0.000000001
 43
0.0000000001
 40
0.0
 40
0.0
 40
0.0
 40
0.0
 40
0.5
 40
1.0
 40
1.0
 40
1.0
 40
1.0
 10
867.5677318234628
 20
1984.411542731842
 30
0.0
 10
867.4352990599322
 20
1984.713060173629
 30
0.0
 10
867.2359788996825
 20
1985.455862117415
 30
0.0
 10
867.1677494730554
 20
1986.437914457737
 30
0.0
 10
867.1664074431472
 20
1986.973720558327
 30
0.0
1001
REVIT
1002
{
1070
     3
1000
790271
1002
}
  0
SPLINE
  5
A5
330
87
100
AcDbEntity
  8
M-PIPE
100
AcDbSpline
210
0.0
220
0.0
230
1.0
 70
     8
 71
     3
 72
     9
 73
     5
 74
     0
 42
0.000000001
 43
0.0000000001
 40
0.0
 40
0.0
 40
0.0
 40
0.0
 40
0.5
 40
1.0
 40
1.0
 40
1.0
 40
1.0
 10
867.5677318234571
 20
1974.885263290213
 30
0.0
 10
868.2826222368383
 20
1976.449572312676
 30
0.0
 10
868.9975126502202
 20
1979.601594575409
 30
0.0
 10
868.282622236842
 20
1982.800425273762
 30
0.0
 10
867.5677318234628
 20
1984.411542731842
 30
0.0
1001
REVIT
1002
{
1070
     3
1000
790271
1002
}
  0
SPLINE
  5
A6
330
87
100
AcDbEntity
  8
M-PIPE
100
AcDbSpline
210
0.0
220
0.0
230
1.0
 70
     8
 71
     3
 72
     9
 73
     5
 74
     0
 42
0.000000001
 43
0.0000000001
 40
0.0
 40
0.0
 40
0.0
 40
0.0
 40
0.5
 40
1.0
 40
1.0
 40
1.0
 40
1.0
 10
854.5274787558243
 20
1984.411542731842
 30
0.0
 10
853.812588342445
 20
1982.800425273762
 30
0.0
 10
853.0976979290665
 20
1979.601594575409
 30
0.0
 10
853.8125883424484
 20
1976.449572312676
 30
0.0
 10
854.5274787558295
 20
1974.885263290213
 30
0.0
1001
REVIT
1002
{
1070
     3
1000
790271
1002
}
  0
SPLINE
  5
A7
330
87
100
AcDbEntity
  8
M-PIPE
100
AcDbSpline
210
0.0
220
0.0
230
1.0
 70
     8
 71
     3
 72
     9
 73
     5
 74
     0
 42
0.000000001
 43
0.0000000001
 40
0.0
 40
0.0
 40
0.0
 40
0.0
 40
0.5
 40
1.0
 40
1.0
 40
1.0
 40
1.0
 10
867.1664074431468
 20
1973.947441116704
 30
0.0
 10
867.1677494730513
 20
1973.947441116704
 30
0.0
 10
867.2359788996741
 20
1974.112426151334
 30
0.0
 10
867.4352990599247
 20
1974.583745848425
 30
0.0
 10
867.5677318234571
 20
1974.885263290213
 30
0.0
1001
REVIT
1002
{
1070
     3
1000
790271
1002
}
  0
SPLINE
  5
A8
330
87
100
AcDbEntity
  8
M-PIPE
100
AcDbSpline
210
0.0
220
0.0
230
1.0
 70
     8
 71
     3
 72
     9
 73
     5
 74
     0
 42
0.000000001
 43
0.0000000001
 40
0.0
 40
0.0
 40
0.0
 40
0.0
 40
0.4
 40
0.499869628390491
 40
0.499869628390491
 40
0.499869628390491
 40
0.499869628390491
 10
854.5274787558295
 20
1974.885263290213
 30
0.0
 10
854.7385309641288
 20
1974.403059747491
 30
0.0
 10
854.9019424531364
 20
1974.01168404567
 30
0.0
 10
854.9284290959073
 20
1973.947671250567
 30
0.0
 10
854.9283118283149
 20
1973.9477933321
 30
0.0
1001
REVIT
1002
{
1070
     3
1000
790271
1002
}
  0
SPLINE
  5
A9
330
87
100
AcDbEntity
  8
M-PIPE
100
AcDbSpline
210
0.0
220
0.0
230
1.0
 70
     8
 71
     3
 72
     8
 73
     4
 74
     0
 42
0.000000001
 43
0.0000000001
 40
0.4998697845485424
 40
0.4998697845485424
 40
0.4998697845485424
 40
0.4998697845485424
 40
0.5994778206780027
 40
0.5994778206780027
 40
0.5994778206780027
 40
0.5994778206780027
 10
854.9283118277648
 20
1973.947793332672
 30
0.0
 10
854.9281948504647
 20
1973.947915134703
 30
0.0
 10
854.9268451106685
 20
1973.951502379702
 30
0.0
 10
854.918125076613
 20
1973.972403546248
 30
0.0
1001
REVIT
1002
{
1070
     3
1000
790271
1002
}
  0
LINE
  5
AA
330
87
100
AcDbEntity
  8
M-PIPE
100
AcDbLine
 10
764.1664074431611
 20
1973.947441116726
 30
0.0
 11
776.4040117501539
 21
1973.947441116726
 31
0.0
1001
REVIT
1002
{
1070
     3
1000
790271
1002
}
  0
LINE
  5
AB
330
87
100
AcDbEntity
  8
M-PIPE
100
AcDbLine
 10
776.4040117501679
 20
2026.052558883241
 30
0.0
 11
764.1664074431605
 21
2026.052558883241
 31
0.0
1001
REVIT
1002
{
1070
     3
1000
790271
1002
}
  0
LINE
  5
AC
330
87
100
AcDbEntity
  8
M-PIPE
100
AcDbLine
 10
760.1664074431602
 20
1980.875644347027
 30
0.0
 11
764.0269376890613
 21
1974.18900981697
 31
0.0
1001
REVIT
1002
{
1070
     3
1000
790271
1002
}
  0
LINE
  5
AD
330
87
100
AcDbEntity
  8
M-PIPE
100
AcDbLine
 10
764.048522933157
 20
1974.151623077503
 30
0.0
 11
764.166407443175
 21
1973.947441116726
 31
0.0
1001
REVIT
1002
{
1070
     3
1000
790271
1002
}
  0
LINE
  5
AE
330
87
100
AcDbEntity
  8
M-PIPE
100
AcDbLine
 10
764.1664074431604
 20
2026.052558883241
 30
0.0
 11
764.0485229331446
 21
2025.848376922469
 31
0.0
1001
REVIT
1002
{
1070
     3
1000
790271
1002
}
  0
LINE
  5
AF
330
87
100
AcDbEntity
  8
M-PIPE
100
AcDbLine
 10
764.0269376890465
 20
2025.810990182997
 30
0.0
 11
760.1664074431599
 21
2019.124355652965
 31
0.0
1001
REVIT
1002
{
1070
     3
1000
790271
1002
}
  0
LINE
  5
B0
330
87
100
AcDbEntity
  8
M-PIPE
100
AcDbLine
 10
776.4040117501537
 20
1973.947441116726
 30
0.0
 11
776.5219303138453
 21
1974.151682060195
 31
0.0
1001
REVIT
1002
{
1070
     3
1000
790271
1002
}
  0
LINE
  5
B1
330
87
100
AcDbEntity
  8
M-PIPE
100
AcDbLine
 10
776.543481504269
 20
1974.189009816973
 30
0.0
 11
778.1664074431602
 21
1977.000000000054
 31
0.0
1001
REVIT
1002
{
1070
     3
1000
790271
1002
}
  0
LINE
  5
B2
330
87
100
AcDbEntity
  8
M-PIPE
100
AcDbLine
 10
778.1664074431599
 20
2022.999999999939
 30
0.0
 11
776.5434815042832
 21
2025.810990182995
 31
0.0
1001
REVIT
1002
{
1070
     3
1000
790271
1002
}
  0
LINE
  5
B3
330
87
100
AcDbEntity
  8
M-PIPE
100
AcDbLine
 10
776.5219303138596
 20
2025.848317939772
 30
0.0
 11
776.4040117501679
 21
2026.052558883241
 31
0.0
1001
REVIT
1002
{
1070
     3
1000
790271
1002
}
  0
LINE
  5
B4
330
87
100
AcDbEntity
  8
M-PIPE
100
AcDbLine
 10
760.1664074431588
 20
1980.875644347026
 30
0.0
 11
760.1664074431584
 21
2019.124355652964
 31
0.0
1001
REVIT
1002
{
1070
     3
1000
790271
1002
}
  0
LINE
  5
B5
330
87
100
AcDbEntity
  8
M-PIPE
100
AcDbLine
 10
778.1664074431583
 20
2022.999999999937
 30
0.0
 11
778.1664074431589
 21
1977.000000000053
 31
0.0
1001
REVIT
1002
{
1070
     3
1000
790271
1002
}
  0
SPLINE
  5
B6
330
87
100
AcDbEntity
  8
M-PIPE
100
AcDbSpline
210
0.0
220
0.0
230
1.0
 70
     8
 71
     3
 72
     9
 73
     5
 74
     0
 42
0.000000001
 43
0.0000000001
 40
0.0
 40
0.0
 40
0.0
 40
0.0
 40
0.5
 40
1.0
 40
1.0
 40
1.0
 40
1.0
 10
763.7650830628435
 20
1974.885263290234
 30
0.0
 10
763.8975158263753
 20
1974.583745848445
 30
0.0
 10
764.0968359866263
 20
1974.112426151354
 30
0.0
 10
764.1650654132526
 20
1973.947441116725
 30
0.0
 10
764.1664074431594
 20
1973.947441116725
 30
0.0
1001
REVIT
1002
{
1070
     3
1000
790271
1002
}
  0
SPLINE
  5
B7
330
87
100
AcDbEntity
  8
M-PIPE
100
AcDbSpline
210
0.0
220
0.0
230
1.0
 70
     8
 71
     3
 72
     9
 73
     5
 74
     0
 42
0.000000001
 43
0.0000000001
 40
0.0
 40
0.0
 40
0.0
 40
0.0
 40
0.5
 40
1.0
 40
1.0
 40
1.0
 40
1.0
 10
776.4040117501524
 20
1973.947441116725
 30
0.0
 10
776.4053537800671
 20
1973.947441116726
 30
0.0
 10
776.4735832067036
 20
1974.112426151357
 30
0.0
 10
776.6729033669539
 20
1974.583745848447
 30
0.0
 10
776.8053361304826
 20
1974.885263290234
 30
0.0
1001
REVIT
1002
{
1070
     3
1000
790271
1002
}
  0
SPLINE
  5
B8
330
87
100
AcDbEntity
  8
M-PIPE
100
AcDbSpline
210
0.0
220
0.0
230
1.0
 70
     8
 71
     3
 72
     9
 73
     5
 74
     0
 42
0.000000001
 43
0.0000000001
 40
0.0
 40
0.0
 40
0.0
 40
0.0
 40
0.5
 40
1.0
 40
1.0
 40
1.0
 40
1.0
 10
763.7650830628343
 20
1984.411542731862
 30
0.0
 10
763.0501926494551
 20
1982.8472337094
 30
0.0
 10
762.3353022360775
 20
1979.695211446666
 30
0.0
 10
763.0501926494612
 20
1976.496380748314
 30
0.0
 10
763.7650830628435
 20
1974.885263290234
 30
0.0
1001
REVIT
1002
{
1070
     3
1000
790271
1002
}
  0
SPLINE
  5
B9
330
87
100
AcDbEntity
  8
M-PIPE
100
AcDbSpline
210
0.0
220
0.0
230
1.0
 70
     8
 71
     3
 72
     9
 73
     5
 74
     0
 42
0.000000001
 43
0.0000000001
 40
0.0
 40
0.0
 40
0.0
 40
0.0
 40
0.5
 40
1.0
 40
1.0
 40
1.0
 40
1.0
 10
776.8053361304826
 20
1974.885263290234
 30
0.0
 10
777.5202265438647
 20
1976.496380748314
 30
0.0
 10
778.2351169572482
 20
1979.695211446666
 30
0.0
 10
777.5202265438706
 20
1982.8472337094
 30
0.0
 10
776.8053361304914
 20
1984.411542731862
 30
0.0
1001
REVIT
1002
{
1070
     3
1000
790271
1002
}
  0
SPLINE
  5
BA
330
87
100
AcDbEntity
  8
M-PIPE
100
AcDbSpline
210
0.0
220
0.0
230
1.0
 70
     8
 71
     3
 72
     9
 73
     5
 74
     0
 42
0.000000001
 43
0.0000000001
 40
0.0
 40
0.0
 40
0.0
 40
0.0
 40
0.5
 40
1.0
 40
1.0
 40
1.0
 40
1.0
 10
764.1664074431592
 20
1986.973720558347
 30
0.0
 10
764.1650654132465
 20
1986.437914457757
 30
0.0
 10
764.0968359866129
 20
1985.455862117435
 30
0.0
 10
763.8975158263632
 20
1984.713060173649
 30
0.0
 10
763.7650830628343
 20
1984.411542731862
 30
0.0
1001
REVIT
1002
{
1070
     3
1000
790271
1002
}
  0
SPLINE
  5
BB
330
87
100
AcDbEntity
  8
M-PIPE
100
AcDbSpline
210
0.0
220
0.0
230
1.0
 70
     8
 71
     3
 72
    10
 73
     6
 74
     0
 42
0.000000001
 43
0.0000000001
 40
0.0
 40
0.0
 40
0.0
 40
0.0
 40
0.4
 40
0.7
 40
1.0
 40
1.0
 40
1.0
 40
1.0
 10
776.8053361304914
 20
1984.411542731862
 30
0.0
 10
776.5942839221925
 20
1984.893746274584
 30
0.0
 10
776.3654481702124
 20
1986.058892301902
 30
0.0
 10
776.4221295332447
 20
1988.29127342587
 30
0.0
 10
776.6472868057023
 20
1989.751905016829
 30
0.0
 10
776.8053361304943
 20
1990.473720558353
 30
0.0
1001
REVIT
1002
{
1070
     3
1000
790271
1002
}
  0
SPLINE
  5
BC
330
87
100
AcDbEntity
  8
M-PIPE
100
AcDbSpline
210
0.0
220
0.0
230
1.0
 70
     8
 71
     3
 72
     9
 73
     5
 74
     0
 42
0.000000001
 43
0.0000000001
 40
0.0
 40
0.0
 40
0.0
 40
0.0
 40
0.5
 40
1.0
 40
1.0
 40
1.0
 40
1.0
 10
763.7650830628311
 20
1990.473720558354
 30
0.0
 10
763.8975158263612
 20
1989.870685674776
 30
0.0
 10
764.0968359866124
 20
1988.656564033895
 30
0.0
 10
764.1650654132464
 20
1987.509526658939
 30
0.0
 10
764.1664074431592
 20
1986.973720558347
 30
0.0
1001
REVIT
1002
{
1070
     3
1000
790271
1002
}
  0
SPLINE
  5
BD
330
87
100
AcDbEntity
  8
M-PIPE
100
AcDbSpline
210
0.0
220
0.0
230
1.0
 70
     8
 71
     3
 72
     9
 73
     5
 74
     0
 42
0.000000001
 43
0.0000000001
 40
0.0
 40
0.0
 40
0.0
 40
0.0
 40
0.5
 40
1.0
 40
1.0
 40
1.0
 40
1.0
 10
763.7650830628257
 20
2009.526279441611
 30
0.0
 10
763.0501926494453
 20
2006.397661396686
 30
0.0
 10
762.3353022360661
 20
2000.093616871218
 30
0.0
 10
763.0501926494491
 20
1993.695955474514
 30
0.0
 10
763.7650830628311
 20
1990.473720558354
 30
0.0
1001
REVIT
1002
{
1070
     3
1000
790271
1002
}
  0
SPLINE
  5
BE
330
87
100
AcDbEntity
  8
M-PIPE
100
AcDbSpline
210
0.0
220
0.0
230
1.0
 70
     8
 71
     3
 72
     9
 73
     5
 74
     0
 42
0.000000001
 43
0.0000000001
 40
0.0
 40
0.0
 40
0.0
 40
0.0
 40
0.5
 40
1.0
 40
1.0
 40
1.0
 40
1.0
 10
776.8053361304943
 20
1990.473720558353
 30
0.0
 10
777.5202265438764
 20
1993.695955474514
 30
0.0
 10
778.2351169572593
 20
2000.093616871218
 30
0.0
 10
777.5202265438799
 20
2006.397661396686
 30
0.0
 10
776.8053361304996
 20
2009.526279441611
 30
0.0
1001
REVIT
1002
{
1070
     3
1000
790271
1002
}
  0
SPLINE
  5
BF
330
87
100
AcDbEntity
  8
M-PIPE
100
AcDbSpline
210
0.0
220
0.0
230
1.0
 70
     8
 71
     3
 72
     9
 73
     5
 74
     0
 42
0.000000001
 43
0.0000000001
 40
0.0
 40
0.0
 40
0.0
 40
0.0
 40
0.5
 40
1.0
 40
1.0
 40
1.0
 40
1.0
 10
764.1664074431589
 20
2013.026279441611
 30
0.0
 10
764.1650654132426
 20
2012.490473341019
 30
0.0
 10
764.0968359866042
 20
2011.343435966066
 30
0.0
 10
763.8975158263539
 20
2010.129314325187
 30
0.0
 10
763.7650830628257
 20
2009.526279441611
 30
0.0
1001
REVIT
1002
{
1070
     3
1000
790271
1002
}
  0
SPLINE
  5
C0
330
87
100
AcDbEntity
  8
M-PIPE
100
AcDbSpline
210
0.0
220
0.0
230
1.0
 70
     8
 71
     3
 72
    10
 73
     6
 74
     0
 42
0.000000001
 43
0.0000000001
 40
0.0
 40
0.0
 40
0.0
 40
0.0
 40
0.4
 40
0.7
 40
1.0
 40
1.0
 40
1.0
 40
1.0
 10
776.8053361304996
 20
2009.526279441611
 30
0.0
 10
776.5942839222004
 20
2010.490686527055
 30
0.0
 10
776.3654481702197
 20
2012.203901442168
 30
0.0
 10
776.422129533251
 20
2014.302143791416
 30
0.0
 10
776.6472868057081
 20
2015.22754949734
 30
0.0
 10
776.8053361305
 20
2015.588457268102
 30
0.0
1001
REVIT
1002
{
1070
     3
1000
790271
1002
}
  0
SPLINE
  5
C1
330
87
100
AcDbEntity
  8
M-PIPE
100
AcDbSpline
210
0.0
220
0.0
230
1.0
 70
     8
 71
     3
 72
     9
 73
     5
 74
     0
 42
0.000000001
 43
0.0000000001
 40
0.0
 40
0.0
 40
0.0
 40
0.0
 40
0.5
 40
1.0
 40
1.0
 40
1.0
 40
1.0
 10
763.7650830628253
 20
2015.588457268102
 30
0.0
 10
763.8975158263535
 20
2015.286939826314
 30
0.0
 10
764.0968359866042
 20
2014.544137882527
 30
0.0
 10
764.1650654132426
 20
2013.562085542202
 30
0.0
 10
764.1664074431589
 20
2013.026279441611
 30
0.0
1001
REVIT
1002
{
1070
     3
1000
790271
1002
}
  0
SPLINE
  5
C2
330
87
100
AcDbEntity
  8
M-PIPE
100
AcDbSpline
210
0.0
220
0.0
230
1.0
 70
     8
 71
     3
 72
     9
 73
     5
 74
     0
 42
0.000000001
 43
0.0000000001
 40
0.0
 40
0.0
 40
0.0
 40
0.0
 40
0.5
 40
1.0
 40
1.0
 40
1.0
 40
1.0
 10
763.7650830628288
 20
2025.114736709731
 30
0.0
 10
763.050192649447
 20
2023.550427687268
 30
0.0
 10
762.3353022360644
 20
2020.398405424535
 30
0.0
 10
763.0501926494446
 20
2017.199574726183
 30
0.0
 10
763.7650830628253
 20
2015.588457268102
 30
0.0
1001
REVIT
1002
{
1070
     3
1000
790271
1002
}
  0
SPLINE
  5
C3
330
87
100
AcDbEntity
  8
M-PIPE
100
AcDbSpline
210
0.0
220
0.0
230
1.0
 70
     8
 71
     3
 72
     9
 73
     5
 74
     0
 42
0.000000001
 43
0.0000000001
 40
0.0
 40
0.0
 40
0.0
 40
0.0
 40
0.5
 40
1.0
 40
1.0
 40
1.0
 40
1.0
 10
776.8053361305
 20
2015.588457268102
 30
0.0
 10
777.5202265438807
 20
2017.199574726183
 30
0.0
 10
778.2351169572607
 20
2020.398405424535
 30
0.0
 10
777.5202265438784
 20
2023.550427687268
 30
0.0
 10
776.8053361304964
 20
2025.114736709731
 30
0.0
1001
REVIT
1002
{
1070
     3
1000
790271
1002
}
  0
SPLINE
  5
C4
330
87
100
AcDbEntity
  8
M-PIPE
100
AcDbSpline
210
0.0
220
0.0
230
1.0
 70
     8
 71
     3
 72
     9
 73
     5
 74
     0
 42
0.000000001
 43
0.0000000001
 40
0.0
 40
0.0
 40
0.0
 40
0.0
 40
0.5
 40
1.0
 40
1.0
 40
1.0
 40
1.0
 10
764.1664074431591
 20
2026.05255888324
 30
0.0
 10
764.165065413245
 20
2026.052558883241
 30
0.0
 10
764.0968359866094
 20
2025.887573848612
 30
0.0
 10
763.8975158263583
 20
2025.41625415152
 30
0.0
 10
763.7650830628288
 20
2025.114736709731
 30
0.0
1001
REVIT
1002
{
1070
     3
1000
790271
1002
}
  0
SPLINE
  5
C5
330
87
100
AcDbEntity
  8
M-PIPE
100
AcDbSpline
210
0.0
220
0.0
230
1.0
 70
     8
 71
     3
 72
     9
 73
     5
 74
     0
 42
0.000000001
 43
0.0000000001
 40
0.0
 40
0.0
 40
0.0
 40
0.0
 40
0.5
 40
1.0
 40
1.0
 40
1.0
 40
1.0
 10
776.8053361304964
 20
2025.114736709731
 30
0.0
 10
776.6729033669679
 20
2025.416254151518
 30
0.0
 10
776.4735832067176
 20
2025.887573848608
 30
0.0
 10
776.4053537800811
 20
2026.052558883239
 30
0.0
 10
776.4040117501664
 20
2026.05255888324
 30
0.0
1001
REVIT
1002
{
1070
     3
1000
790271
1002
}
  0
LINE
  5
C6
330
87
100
AcDbEntity
  8
M-PIPE
100
AcDbLine
 10
871.1664074431492
 20
1983.299999999983
 30
0.0
 11
902.666407443146
 21
1983.299999999983
 31
0.0
1001
REVIT
1002
{
1070
     3
1000
790271
1002
}
  0
LINE
  5
C7
330
87
100
AcDbEntity
  8
M-PIPE
100
AcDbLine
 10
902.666407443146
 20
2016.699999999984
 30
0.0
 11
871.1664074431498
 21
2016.699999999984
 31
0.0
1001
REVIT
1002
{
1070
     3
1000
790271
1002
}
  0
LINE
  5
C8
330
87
100
AcDbEntity
  8
M-PIPE
100
AcDbLine
 10
904.1664074431583
 20
2015.199999999984
 30
0.0
 11
902.7299559850257
 21
2016.636451458115
 31
0.0
1001
REVIT
1002
{
1070
     3
1000
790271
1002
}
  0
LINE
  5
C9
330
87
100
AcDbEntity
  8
M-PIPE
100
AcDbLine
 10
902.7146459388092
 20
2016.651761504332
 30
0.0
 11
902.6664074431399
 21
2016.700000000001
 31
0.0
1001
REVIT
1002
{
1070
     3
1000
790271
1002
}
  0
LINE
  5
CA
330
87
100
AcDbEntity
  8
M-PIPE
100
AcDbLine
 10
902.6664074431396
 20
1983.299999999989
 30
0.0
 11
902.7146459387846
 21
1983.348238495635
 31
0.0
1001
REVIT
1002
{
1070
     3
1000
790271
1002
}
  0
LINE
  5
CB
330
87
100
AcDbEntity
  8
M-PIPE
100
AcDbLine
 10
902.729955985001
 20
1983.363548541851
 30
0.0
 11
904.1664074431579
 21
1984.800000000008
 31
0.0
1001
REVIT
1002
{
1070
     3
1000
790271
1002
}
  0
LINE
  5
CC
330
87
100
AcDbEntity
  8
M-PIPE
100
AcDbLine
 10
904.1664074431565
 20
2015.199999999982
 30
0.0
 11
904.1664074431563
 21
1984.800000000007
 31
0.0
1001
REVIT
1002
{
1070
     3
1000
790271
1002
}
  0
LINE
  5
CD
330
87
100
AcDbEntity
  8
M-PIPE
100
AcDbLine
 10
902.6664074431442
 20
1983.299999999982
 30
0.0
 11
902.6664074431442
 21
2016.699999999983
 31
0.0
1001
REVIT
1002
{
1070
     3
1000
790271
1002
}
  0
LINE
  5
CE
330
87
100
AcDbEntity
  8
M-PIPE
100
AcDbLine
 10
760.1664074431599
 20
2016.700000000013
 30
0.0
 11
728.6664074431739
 21
2016.700000000013
 31
0.0
1001
REVIT
1002
{
1070
     3
1000
790271
1002
}
  0
LINE
  5
CF
330
87
100
AcDbEntity
  8
M-PIPE
100
AcDbLine
 10
728.6664074431739
 20
1983.300000000012
 30
0.0
 11
760.1664074431602
 21
1983.300000000012
 31
0.0
1001
REVIT
1002
{
1070
     3
1000
790271
1002
}
  0
LINE
  5
D0
330
87
100
AcDbEntity
  8
M-PIPE
100
AcDbLine
 10
727.1664074431612
 20
1984.800000000009
 30
0.0
 11
728.6664074431678
 21
1983.300000000003
 31
0.0
1001
REVIT
1002
{
1070
     3
1000
790271
1002
}
  0
LINE
  5
D1
330
87
100
AcDbEntity
  8
M-PIPE
100
AcDbLine
 10
728.6664074431801
 20
2016.700000000003
 30
0.0
 11
727.1664074431616
 21
2015.199999999984
 31
0.0
1001
REVIT
1002
{
1070
     3
1000
790271
1002
}
  0
LINE
  5
D2
330
87
100
AcDbEntity
  8
M-PIPE
100
AcDbLine
 10
727.1664074431599
 20
1984.800000000008
 30
0.0
 11
727.1664074431599
 21
1999.999999999995
 31
0.0
1001
REVIT
1002
{
1070
     3
1000
790271
1002
}
  0
LINE
  5
D3
330
87
100
AcDbEntity
  8
M-PIPE
100
AcDbLine
 10
727.1664074431599
 20
1999.999999999995
 30
0.0
 11
727.1664074431603
 21
2015.199999999984
 31
0.0
1001
REVIT
1002
{
1070
     3
1000
790271
1002
}
  0
LINE
  5
D4
330
87
100
AcDbEntity
  8
M-PIPE
100
AcDbLine
 10
728.6664074431723
 20
2016.700000000012
 30
0.0
 11
728.6664074431723
 21
2000.000000000012
 31
0.0
1001
REVIT
1002
{
1070
     3
1000
790271
1002
}
  0
LINE
  5
D5
330
87
100
AcDbEntity
  8
M-PIPE
100
AcDbLine
 10
728.6664074431723
 20
2000.000000000012
 30
0.0
 11
728.6664074431723
 21
1983.300000000012
 31
0.0
1001
REVIT
1002
{
1070
     3
1000
790271
1002
}
  0
LINE
  5
D6
330
87
100
AcDbEntity
  8
M-PIPE
100
AcDbLine
 10
803.866407443197
 20
2109.525944369272
 30
0.0
 11
803.866407443197
 21
2108.610000000088
 31
0.0
1001
REVIT
1002
{
1070
     3
1000
923261
1002
}
  0
LINE
  5
D7
330
87
100
AcDbEntity
  8
M-PIPE
100
AcDbLine
 10
827.4664074431969
 20
2108.610000000088
 30
0.0
 11
827.4664074431969
 21
2109.525944369272
 31
0.0
1001
REVIT
1002
{
1070
     3
1000
923261
1002
}
  0
LINE
  5
D8
330
87
100
AcDbEntity
  8
M-PIPE
100
AcDbLine
 10
818.4948345679211
 20
2125.610000000071
 30
0.0
 11
791.9783302734259
 21
2125.610000000071
 31
0.0
1001
REVIT
1002
{
1070
     3
1000
923261
1002
}
  0
LINE
  5
D9
330
87
100
AcDbEntity
  8
M-PIPE
100
AcDbLine
 10
791.9783302734259
 20
2125.610000000071
 30
0.0
 11
791.9783302734259
 21
2121.610000000071
 31
0.0
1001
REVIT
1002
{
1070
     3
1000
923261
1002
}
  0
LINE
  5
DA
330
87
100
AcDbEntity
  8
M-PIPE
100
AcDbLine
 10
791.9783302734259
 20
2121.610000000071
 30
0.0
 11
812.9689415383026
 21
2121.610000000071
 31
0.0
1001
REVIT
1002
{
1070
     3
1000
923261
1002
}
  0
ELLIPSE
  5
DB
330
87
100
AcDbEntity
  8
M-PIPE
100
AcDbEllipse
 10
812.9689415383026
 20
2117.795207133328
 30
0.0
 11
0.0
 21
3.814792866743573
 31
0.0
210
0.0
220
0.0
230
1.0
 40
0.7071067811866174
 41
4.712388980381943
 42
6.283185307179588
1001
REVIT
1002
{
1070
     3
1000
923261
1002
}
  0
LINE
  5
DC
330
87
100
AcDbEntity
  8
M-PIPE
100
AcDbLine
 10
815.6664074431994
 20
2117.795207133317
 30
0.0
 11
815.6664074431834
 21
2109.525944369271
 31
0.0
1001
REVIT
1002
{
1070
     3
1000
923261
1002
}
  0
LINE
  5
DD
330
87
100
AcDbEntity
  8
M-PIPE
100
AcDbLine
 10
815.6664074431834
 20
2109.525944369271
 30
0.0
 11
832.3632407434216
 21
2109.525944369271
 31
0.0
1001
REVIT
1002
{
1070
     3
1000
923261
1002
}
  0
ELLIPSE
  5
DE
330
87
100
AcDbEntity
  8
M-PIPE
100
AcDbEllipse
 10
818.494834567921
 20
2105.610000000071
 30
0.0
 11
0.0
 21
19.99999999999989
 31
0.0
210
0.0
220
0.0
230
1.0
 40
0.7071067811865484
 41
4.909459318332713
 42
6.283185307179565
1001
REVIT
1002
{
1070
     3
1000
923261
1002
}
  0
ELLIPSE
  5
DF
330
87
100
AcDbEntity
  8
M-PIPE
100
AcDbEllipse
 10
795.9983787898257
 20
2117.795207133328
 30
0.0
 11
0.0000000000004034
 21
3.814792866744028
 31
0.0
210
0.0
220
0.0
230
1.0
 40
0.7071067811865332
 41
4.712388980382135
 42
6.283185307179735
1001
REVIT
1002
{
1070
     3
1000
923261
1002
}
  0
LINE
  5
E0
330
87
100
AcDbEntity
  8
M-PIPE
100
AcDbLine
 10
775.0077675249489
 20
2121.610000000071
 30
0.0
 11
775.007767524949
 21
2125.610000000071
 31
0.0
1001
REVIT
1002
{
1070
     3
1000
923261
1002
}
  0
LINE
  5
E1
330
87
100
AcDbEntity
  8
M-PIPE
100
AcDbLine
 10
798.6958446947063
 20
2109.525944369271
 30
0.0
 11
798.6958446947223
 21
2117.795207133317
 31
0.0
1001
REVIT
1002
{
1070
     3
1000
923261
1002
}
  0
LINE
  5
E2
330
87
100
AcDbEntity
  8
M-PIPE
100
AcDbLine
 10
775.007767524949
 20
2125.610000000072
 30
0.0
 11
791.9783302734259
 21
2125.610000000071
 31
0.0
1001
REVIT
1002
{
1070
     3
1000
923261
1002
}
  0
LINE
  5
E3
330
87
100
AcDbEntity
  8
M-PIPE
100
AcDbLine
 10
775.0077675249489
 20
2121.610000000071
 30
0.0
 11
791.9783302734259
 21
2121.610000000071
 31
0.0
1001
REVIT
1002
{
1070
     3
1000
923261
1002
}
  0
LINE
  5
E4
330
87
100
AcDbEntity
  8
M-PIPE
100
AcDbLine
 10
798.6958446947063
 20
2109.525944369271
 30
0.0
 11
815.6664074431834
 21
2109.525944369271
 31
0.0
1001
REVIT
1002
{
1070
     3
1000
923261
1002
}
  0
LINE
  5
E5
330
87
100
AcDbEntity
  8
M-PIPE
100
AcDbLine
 10
770.1664074431641
 20
2099.610000000058
 30
0.0
 11
762.1664074431638
 21
2099.610000000058
 31
0.0
1001
REVIT
1002
{
1070
     3
1000
923261
1002
}
  0
LINE
  5
E6
330
87
100
AcDbEntity
  8
M-PIPE
100
AcDbLine
 10
762.1664074431637
 20
2075.610000000058
 30
0.0
 11
770.1664074431636
 21
2075.610000000057
 31
0.0
1001
REVIT
1002
{
1070
     3
1000
923261
1002
}
  0
LINE
  5
E7
330
87
100
AcDbEntity
  8
M-PIPE
100
AcDbLine
 10
757.1664074431631
 20
2079.610000000058
 30
0.0
 11
762.1664074431637
 21
2079.610000000058
 31
0.0
1001
REVIT
1002
{
1070
     3
1000
923261
1002
}
  0
LINE
  5
E8
330
87
100
AcDbEntity
  8
M-PIPE
100
AcDbLine
 10
770.1664074431637
 20
2079.610000000058
 30
0.0
 11
783.1664074431626
 21
2079.610000000057
 31
0.0
1001
REVIT
1002
{
1070
     3
1000
923261
1002
}
  0
LINE
  5
E9
330
87
100
AcDbEntity
  8
M-PIPE
100
AcDbLine
 10
783.1664074431629
 20
2095.610000000057
 30
0.0
 11
770.1664074431641
 21
2095.610000000057
 31
0.0
1001
REVIT
1002
{
1070
     3
1000
923261
1002
}
  0
LINE
  5
EA
330
87
100
AcDbEntity
  8
M-PIPE
100
AcDbLine
 10
762.1664074431638
 20
2095.610000000057
 30
0.0
 11
757.1664074431631
 21
2095.610000000058
 31
0.0
1001
REVIT
1002
{
1070
     3
1000
923261
1002
}
  0
LINE
  5
EB
330
87
100
AcDbEntity
  8
M-PIPE
100
AcDbLine
 10
828.166407443175
 20
2029.499999999996
 30
0.0
 11
828.166407443175
 21
2046.400000000057
 31
0.0
1001
REVIT
1002
{
1070
     3
1000
923261
1002
}
  0
LINE
  5
EC
330
87
100
AcDbEntity
  8
M-PIPE
100
AcDbLine
 10
803.166407443175
 20
2046.400000000057
 30
0.0
 11
803.166407443175
 21
2029.499999999996
 31
0.0
1001
REVIT
1002
{
1070
     3
1000
923261
1002
}
  0
LINE
  5
ED
330
87
100
AcDbEntity
  8
M-PIPE
100
AcDbLine
 10
857.5182691002149
 20
2038.400000000057
 30
0.0
 11
857.5182691002149
 21
2046.400000000057
 31
0.0
1001
REVIT
1002
{
1070
     3
1000
923261
1002
}
  0
LINE
  5
EE
330
87
100
AcDbEntity
  8
M-PIPE
100
AcDbLine
 10
841.5182691002147
 20
2046.400000000057
 30
0.0
 11
841.5182691002147
 21
2038.400000000057
 31
0.0
1001
REVIT
1002
{
1070
     3
1000
923261
1002
}
  0
LINE
  5
EF
330
87
100
AcDbEntity
  8
M-PIPE
100
AcDbLine
 10
853.5182691002146
 20
2106.610000000058
 30
0.0
 11
853.5182691002146
 21
2116.609999999994
 31
0.0
1001
REVIT
1002
{
1070
     3
1000
923261
1002
}
  0
LINE
  5
F0
330
87
100
AcDbEntity
  8
M-PIPE
100
AcDbLine
 10
845.5182691002148
 20
2116.609999999994
 30
0.0
 11
845.5182691002148
 21
2106.610000000058
 31
0.0
1001
REVIT
1002
{
1070
     3
1000
923261
1002
}
  0
LINE
  5
F1
330
87
100
AcDbEntity
  8
M-PIPE
100
AcDbLine
 10
857.5182691002149
 20
2116.609999999994
 30
0.0
 11
857.5182691002149
 21
2121.610000000058
 31
0.0
1001
REVIT
1002
{
1070
     3
1000
923261
1002
}
  0
LINE
  5
F2
330
87
100
AcDbEntity
  8
M-PIPE
100
AcDbLine
 10
841.5182691002147
 20
2121.610000000058
 30
0.0
 11
841.5182691002147
 21
2116.609999999994
 31
0.0
1001
REVIT
1002
{
1070
     3
1000
923261
1002
}
  0
LINE
  5
F3
330
87
100
AcDbEntity
  8
M-PIPE
100
AcDbLine
 10
827.6664074431751
 20
2106.610000000058
 30
0.0
 11
827.6664074431751
 21
2108.610000000057
 31
0.0
1001
REVIT
1002
{
1070
     3
1000
923261
1002
}
  0
LINE
  5
F4
330
87
100
AcDbEntity
  8
M-PIPE
100
AcDbLine
 10
803.6664074431749
 20
2108.610000000057
 30
0.0
 11
803.6664074431749
 21
2106.610000000058
 31
0.0
1001
REVIT
1002
{
1070
     3
1000
923261
1002
}
  0
LINE
  5
F5
330
87
100
AcDbEntity
  8
M-PIPE
100
AcDbLine
 10
770.1664074431623
 20
2099.610000000057
 30
0.0
 11
770.1664074431622
 21
2087.610000000057
 31
0.0
1001
REVIT
1002
{
1070
     3
1000
923261
1002
}
  0
LINE
  5
F6
330
87
100
AcDbEntity
  8
M-PIPE
100
AcDbLine
 10
770.1664074431622
 20
2087.610000000057
 30
0.0
 11
770.1664074431621
 21
2075.610000000057
 31
0.0
1001
REVIT
1002
{
1070
     3
1000
923261
1002
}
  0
LINE
  5
F7
330
87
100
AcDbEntity
  8
M-PIPE
100
AcDbLine
 10
762.1664074431622
 20
2075.610000000057
 30
0.0
 11
762.1664074431623
 21
2087.610000000057
 31
0.0
1001
REVIT
1002
{
1070
     3
1000
923261
1002
}
  0
LINE
  5
F8
330
87
100
AcDbEntity
  8
M-PIPE
100
AcDbLine
 10
762.1664074431623
 20
2087.610000000057
 30
0.0
 11
762.1664074431625
 21
2099.610000000057
 31
0.0
1001
REVIT
1002
{
1070
     3
1000
923261
1002
}
  0
LINE
  5
F9
330
87
100
AcDbEntity
  8
M-PIPE
100
AcDbLine
 10
757.1664074431616
 20
2087.610000000057
 30
0.0
 11
757.1664074431619
 21
2095.610000000057
 31
0.0
1001
REVIT
1002
{
1070
     3
1000
923261
1002
}
  0
LINE
  5
FA
330
87
100
AcDbEntity
  8
M-PIPE
100
AcDbLine
 10
757.1664074431616
 20
2079.610000000057
 30
0.0
 11
757.1664074431616
 21
2087.610000000057
 31
0.0
1001
REVIT
1002
{
1070
     3
1000
923261
1002
}
  0
ARC
  5
FB
330
87
100
AcDbEntity
  8
M-PIPE
100
AcDbCircle
 10
803.1664074431617
 20
2066.400000000056
 30
0.0
 40
19.99999999999988
100
AcDbArc
 50
180.0
 51
269.999999999999
1001
REVIT
1002
{
1070
     3
1000
923261
1002
}
  0
LINE
  5
FC
330
87
100
AcDbEntity
  8
M-PIPE
100
AcDbLine
 10
803.1664074431617
 20
2046.400000000056
 30
0.0
 11
865.6664074431615
 21
2046.400000000056
 31
0.0
1001
REVIT
1002
{
1070
     3
1000
923261
1002
}
  0
ARC
  5
FD
330
87
100
AcDbEntity
  8
M-PIPE
100
AcDbCircle
 10
865.6664074431617
 20
2079.400000000056
 30
0.0
 40
32.99999999999998
100
AcDbArc
 50
269.999999999999
 51
359.9999999999989
1001
REVIT
1002
{
1070
     3
1000
923261
1002
}
  0
LINE
  5
FE
330
87
100
AcDbEntity
  8
M-PIPE
100
AcDbLine
 10
898.6664074431619
 20
2079.400000000056
 30
0.0
 11
898.6664074431619
 21
2084.60951915939
 31
0.0
1001
REVIT
1002
{
1070
     3
1000
923261
1002
}
  0
LINE
  5
FF
330
87
100
AcDbEntity
  8
M-PIPE
100
AcDbLine
 10
783.1664074431619
 20
2066.610000000055
 30
0.0
 11
783.1664074431619
 21
2066.400000000056
 31
0.0
1001
REVIT
1002
{
1070
     3
1000
923261
1002
}
  0
ARC
  5
100
330
87
100
AcDbEntity
  8
M-PIPE
100
AcDbCircle
 10
891.6664074431619
 20
2099.610000000056
 30
0.0
 40
7.000000000000056
100
AcDbArc
 50
359.9999999999992
 51
89.99999999999955
1001
REVIT
1002
{
1070
     3
1000
923261
1002
}
  0
LINE
  5
101
330
87
100
AcDbEntity
  8
M-PIPE
100
AcDbLine
 10
891.666407443162
 20
2106.610000000056
 30
0.0
 11
783.1664074431619
 21
2106.610000000056
 31
0.0
1001
REVIT
1002
{
1070
     3
1000
923261
1002
}
  0
LINE
  5
102
330
87
100
AcDbEntity
  8
M-PIPE
100
AcDbLine
 10
783.1664074431619
 20
2106.610000000056
 30
0.0
 11
783.1664074431619
 21
2076.722328629041
 31
0.0
1001
REVIT
1002
{
1070
     3
1000
923261
1002
}
  0
LINE
  5
103
330
87
100
AcDbEntity
  8
M-PIPE
100
AcDbLine
 10
898.6664074431619
 20
2094.610000000055
 30
0.0
 11
898.6664074431619
 21
2099.610000000056
 31
0.0
1001
REVIT
1002
{
1070
     3
1000
923261
1002
}
  0
LINE
  5
104
330
87
100
AcDbEntity
  8
M-PIPE
100
AcDbLine
 10
857.5182691002133
 20
2038.400000000057
 30
0.0
 11
841.5182691002133
 21
2038.400000000057
 31
0.0
1001
REVIT
1002
{
1070
     3
1000
923261
1002
}
  0
LINE
  5
105
330
87
100
AcDbEntity
  8
M-PIPE
100
AcDbLine
 10
783.1664074431618
 20
2066.610000000055
 30
0.0
 11
783.1664074431619
 21
2076.722328629041
 31
0.0
1001
REVIT
1002
{
1070
     3
1000
923261
1002
}
  0
ARC
  5
106
330
87
100
AcDbEntity
  8
M-PIPE
100
AcDbCircle
 10
789.1627547930156
 20
2226.602889362595
 30
0.0
 40
160.1052179915262
100
AcDbArc
 50
267.8536254461363
 51
292.1463745538604
1001
REVIT
1002
{
1070
     3
1000
923261
1002
}
  0
ARC
  5
107
330
87
100
AcDbEntity
  8
M-PIPE
100
AcDbCircle
 10
893.8163052506546
 20
1927.640924854705
 30
0.0
 40
157.0457663781112
100
AcDbArc
 50
88.20933210116672
 51
106.3838397345608
1001
REVIT
1002
{
1070
     3
1000
923261
1002
}
  0
LINE
  5
108
330
87
100
AcDbEntity
  8
M-PIPE
100
AcDbLine
 10
898.7236655697538
 20
2084.610000000056
 30
0.0
 11
900.1664074431618
 21
2084.610000000056
 31
0.0
1001
REVIT
1002
{
1070
     3
1000
923261
1002
}
  0
LINE
  5
109
330
87
100
AcDbEntity
  8
M-PIPE
100
AcDbLine
 10
900.1664074431618
 20
2084.610000000056
 30
0.0
 11
900.1664074431618
 21
2094.610000000055
 31
0.0
1001
REVIT
1002
{
1070
     3
1000
923261
1002
}
  0
LINE
  5
10A
330
87
100
AcDbEntity
  8
M-PIPE
100
AcDbLine
 10
900.1664074431618
 20
2094.610000000055
 30
0.0
 11
886.1134609974286
 21
2094.610000000055
 31
0.0
1001
REVIT
1002
{
1070
     3
1000
923261
1002
}
  0
ARC
  5
10B
330
87
100
AcDbEntity
  8
M-PIPE
100
AcDbCircle
 10
893.8163052506546
 20
1937.753253483691
 30
0.0
 40
157.0457663781111
100
AcDbArc
 50
92.81139458151681
 51
106.38383973456
1001
REVIT
1002
{
1070
     3
1000
923261
1002
}
  0
ARC
  5
10C
330
87
100
AcDbEntity
  8
M-PIPE
100
AcDbCircle
 10
789.1627547930156
 20
2236.715217991582
 30
0.0
 40
160.1052179915261
100
AcDbArc
 50
267.853625446137
 51
292.1463745538612
1001
REVIT
1002
{
1070
     3
1000
923261
1002
}
  0
LINE
  5
10D
330
87
100
AcDbEntity
  8
M-PIPE
100
AcDbLine
 10
841.5182691002133
 20
2121.610000000057
 30
0.0
 11
857.5182691002133
 21
2121.610000000057
 31
0.0
1001
REVIT
1002
{
1070
     3
1000
923261
1002
}
  0
LINE
  5
10E
330
87
100
AcDbEntity
  8
M-PIPE
100
AcDbLine
 10
857.5182691002133
 20
2116.609999999993
 30
0.0
 11
841.5182691002133
 21
2116.609999999993
 31
0.0
1001
REVIT
1002
{
1070
     3
1000
923261
1002
}
  0
LINE
  5
10F
330
87
100
AcDbEntity
  8
M-PIPE
100
AcDbLine
 10
803.6664074431735
 20
2108.610000000057
 30
0.0
 11
827.6664074431733
 21
2108.610000000057
 31
0.0
1001
REVIT
1002
{
1070
     3
1000
923261
1002
}
  0
LINE
  5
110
330
87
100
AcDbEntity
  8
P-SANR-FIXT
100
AcDbLine
 10
802.6664074431597
 20
2029.499999999996
 30
0.0
 11
802.6664074431597
 21
2022.999999999996
 31
0.0
  0
LINE
  5
111
330
87
100
AcDbEntity
  8
P-SANR-FIXT
100
AcDbLine
 10
828.66640744316
 20
2022.999999999996
 30
0.0
 11
828.66640744316
 21
2029.499999999996
 31
0.0
  0
LINE
  5
112
330
87
100
AcDbEntity
  8
P-SANR-FIXT
100
AcDbLine
 10
846.6664074431598
 20
1980.999999999996
 30
0.0
 11
853.1664074431493
 21
1980.999999999996
 31
0.0
  0
LINE
  5
113
330
87
100
AcDbEntity
  8
P-SANR-FIXT
100
AcDbLine
 10
853.1664074431498
 20
2018.999999999996
 30
0.0
 11
846.6664074431598
 21
2018.999999999996
 31
0.0
  0
LINE
  5
114
330
87
100
AcDbEntity
  8
P-SANR-FIXT
100
AcDbLine
 10
815.6664074431599
 20
1976.999999999996
 30
0.0
 11
846.6664074431598
 21
1976.999999999996
 31
0.0
  0
LINE
  5
115
330
87
100
AcDbEntity
  8
P-SANR-FIXT
100
AcDbLine
 10
846.6664074431598
 20
2022.999999999996
 30
0.0
 11
828.66640744316
 21
2022.999999999996
 31
0.0
  0
LINE
  5
116
330
87
100
AcDbEntity
  8
P-SANR-FIXT
100
AcDbLine
 10
784.6664074431597
 20
1976.999999999996
 30
0.0
 11
815.6664074431599
 21
1976.999999999996
 31
0.0
  0
LINE
  5
117
330
87
100
AcDbEntity
  8
P-SANR-FIXT
100
AcDbLine
 10
802.6664074431597
 20
2022.999999999996
 30
0.0
 11
784.6664074431597
 21
2022.999999999996
 31
0.0
  0
LINE
  5
118
330
87
100
AcDbEntity
  8
P-SANR-FIXT
100
AcDbLine
 10
778.1664074431602
 20
1980.999999999996
 30
0.0
 11
784.6664074431597
 21
1980.999999999996
 31
0.0
  0
LINE
  5
119
330
87
100
AcDbEntity
  8
P-SANR-FIXT
100
AcDbLine
 10
784.6664074431597
 20
2018.999999999996
 30
0.0
 11
778.1664074431599
 21
2018.999999999996
 31
0.0
  0
LINE
  5
11A
330
87
100
AcDbEntity
  8
P-SANR-FIXT
100
AcDbLine
 10
802.6664074431582
 20
2029.499999999995
 30
0.0
 11
828.6664074431582
 21
2029.499999999995
 31
0.0
  0
LINE
  5
11B
330
87
100
AcDbEntity
  8
P-SANR-FIXT
100
AcDbLine
 10
846.6664074431582
 20
1999.999999999995
 30
0.0
 11
846.6664074431582
 21
1990.619168480349
 31
0.0
  0
LINE
  5
11C
330
87
100
AcDbEntity
  8
P-SANR-FIXT
100
AcDbLine
 10
846.6664074431582
 20
1986.503882280345
 30
0.0
 11
846.6664074431582
 21
1977.123050760699
 31
0.0
  0
LINE
  5
11D
330
87
100
AcDbEntity
  8
P-SANR-FIXT
100
AcDbLine
 10
846.6664074431582
 20
2022.876949239291
 30
0.0
 11
846.6664074431582
 21
2013.496117719645
 31
0.0
  0
LINE
  5
11E
330
87
100
AcDbEntity
  8
P-SANR-FIXT
100
AcDbLine
 10
846.6664074431582
 20
2009.380831519642
 30
0.0
 11
846.6664074431582
 21
1999.999999999995
 31
0.0
  0
LINE
  5
11F
330
87
100
AcDbEntity
  8
P-SANR-FIXT
100
AcDbLine
 10
846.6664074431582
 20
1977.123050760699
 30
0.0
 11
846.6664074431582
 21
1976.999999999995
 31
0.0
  0
LINE
  5
120
330
87
100
AcDbEntity
  8
P-SANR-FIXT
100
AcDbLine
 10
846.6664074431582
 20
1977.123050760699
 30
0.0
 11
839.1664074431533
 21
1977.123050760699
 31
0.0
  0
LINE
  5
121
330
87
100
AcDbEntity
  8
P-SANR-FIXT
100
AcDbLine
 10
839.1664074431533
 20
1977.123050760699
 30
0.0
 11
839.1664074431533
 21
1986.503882280345
 31
0.0
  0
LINE
  5
122
330
87
100
AcDbEntity
  8
P-SANR-FIXT
100
AcDbLine
 10
839.1664074431533
 20
1986.503882280345
 30
0.0
 11
846.6664074431582
 21
1986.503882280345
 31
0.0
  0
LINE
  5
123
330
87
100
AcDbEntity
  8
P-SANR-FIXT
100
AcDbLine
 10
846.6664074431582
 20
1990.619168480349
 30
0.0
 11
846.6664074431582
 21
1986.503882280345
 31
0.0
  0
LINE
  5
124
330
87
100
AcDbEntity
  8
P-SANR-FIXT
100
AcDbLine
 10
846.6664074431582
 20
1990.619168480349
 30
0.0
 11
839.1664074431533
 21
1990.619168480349
 31
0.0
  0
LINE
  5
125
330
87
100
AcDbEntity
  8
P-SANR-FIXT
100
AcDbLine
 10
839.1664074431533
 20
1990.619168480349
 30
0.0
 11
839.1664074431533
 21
1999.999999999995
 31
0.0
  0
SPLINE
  5
126
330
87
100
AcDbEntity
  8
P-SANR-FIXT
100
AcDbSpline
210
0.0
220
0.0
230
1.0
 70
     8
 71
     3
 72
    18
 73
    14
 74
     0
 42
0.000000001
 43
0.0000000001
 40
-1.0
 40
-1.0
 40
-1.0
 40
-1.0
 40
-0.8928571428571427
 40
-0.8392857142857142
 40
-0.7857142857142857
 40
-0.7321428571428572
 40
-0.7053571428571429
 40
-0.6785714285714287
 40
-0.5714285714285714
 40
-0.4285714285714286
 40
-0.2857142857142857
 40
-0.1428571428571428
 40
0.0
 40
0.0
 40
0.0
 40
0.0
 10
815.6664074431581
 20
2018.973665961005
 30
0.0
 10
816.429998321759
 20
2018.979065048304
 30
0.0
 10
817.5472974687799
 20
2019.047002612269
 30
0.0
 10
818.977029530821
 20
2019.249100925033
 30
0.0
 10
820.0321164858817
 20
2019.461464576405
 30
0.0
 10
820.8806790509395
 20
2019.674409973056
 30
0.0
 10
821.5291687684466
 20
2019.856300063234
 30
0.0
 10
822.4824150895049
 20
2020.147869801837
 30
0.0
 10
824.0220814252289
 20
2020.706237574822
 30
0.0
 10
825.8793890326556
 20
2021.528392311186
 30
0.0
 10
827.4369330396107
 20
2022.319912374737
 30
0.0
 10
828.4384832514415
 20
2022.868459042227
 30
0.0
 10
828.6605409070977
 20
2022.999999999995
 30
0.0
 10
828.6664074431582
 20
2022.999999999995
 30
0.0
  0
LINE
  5
127
330
87
100
AcDbEntity
  8
P-SANR-FIXT
100
AcDbLine
 10
839.1664074431533
 20
1999.999999999995
 30
0.0
 11
839.1664074431533
 21
2009.380831519641
 31
0.0
  0
LINE
  5
128
330
87
100
AcDbEntity
  8
P-SANR-FIXT
100
AcDbLine
 10
839.1664074431533
 20
2009.380831519641
 30
0.0
 11
846.6664074431582
 21
2009.380831519641
 31
0.0
  0
LINE
  5
129
330
87
100
AcDbEntity
  8
P-SANR-FIXT
100
AcDbLine
 10
846.6664074431582
 20
2013.496117719645
 30
0.0
 11
846.6664074431582
 21
2009.380831519642
 31
0.0
  0
LINE
  5
12A
330
87
100
AcDbEntity
  8
P-SANR-FIXT
100
AcDbLine
 10
846.6664074431582
 20
2013.496117719645
 30
0.0
 11
839.1664074431533
 21
2013.496117719645
 31
0.0
  0
LINE
  5
12B
330
87
100
AcDbEntity
  8
P-SANR-FIXT
100
AcDbLine
 10
839.1664074431533
 20
2013.496117719645
 30
0.0
 11
839.1664074431533
 21
2022.876949239291
 31
0.0
  0
LINE
  5
12C
330
87
100
AcDbEntity
  8
P-SANR-FIXT
100
AcDbLine
 10
839.1664074431533
 20
2022.876949239291
 30
0.0
 11
846.6664074431582
 21
2022.876949239291
 31
0.0
  0
LINE
  5
12D
330
87
100
AcDbEntity
  8
P-SANR-FIXT
100
AcDbLine
 10
846.6664074431582
 20
2022.999999999995
 30
0.0
 11
846.6664074431582
 21
2022.876949239291
 31
0.0
  0
LINE
  5
12E
330
87
100
AcDbEntity
  8
P-SANR-FIXT
100
AcDbLine
 10
792.1664074431533
 20
1999.999999999995
 30
0.0
 11
792.1664074431533
 21
1990.619168480348
 31
0.0
  0
LINE
  5
12F
330
87
100
AcDbEntity
  8
P-SANR-FIXT
100
AcDbLine
 10
792.1664074431533
 20
1990.619168480348
 30
0.0
 11
784.6664074431583
 21
1990.619168480348
 31
0.0
  0
LINE
  5
130
330
87
100
AcDbEntity
  8
P-SANR-FIXT
100
AcDbLine
 10
784.6664074431583
 20
1986.503882280345
 30
0.0
 11
792.1664074431533
 21
1986.503882280345
 31
0.0
  0
LINE
  5
131
330
87
100
AcDbEntity
  8
P-SANR-FIXT
100
AcDbLine
 10
792.1664074431533
 20
1986.503882280346
 30
0.0
 11
792.1664074431533
 21
1977.123050760698
 31
0.0
  0
LINE
  5
132
330
87
100
AcDbEntity
  8
P-SANR-FIXT
100
AcDbLine
 10
792.1664074431532
 20
1977.123050760698
 30
0.0
 11
784.6664074431581
 21
1977.123050760698
 31
0.0
  0
LINE
  5
133
330
87
100
AcDbEntity
  8
P-SANR-FIXT
100
AcDbLine
 10
784.6664074431581
 20
2022.876949239292
 30
0.0
 11
792.1664074431532
 21
2022.876949239292
 31
0.0
  0
LINE
  5
134
330
87
100
AcDbEntity
  8
P-SANR-FIXT
100
AcDbLine
 10
792.1664074431532
 20
2022.876949239292
 30
0.0
 11
792.1664074431533
 21
2013.496117719645
 31
0.0
  0
LINE
  5
135
330
87
100
AcDbEntity
  8
P-SANR-FIXT
100
AcDbLine
 10
792.1664074431533
 20
2013.496117719645
 30
0.0
 11
784.6664074431583
 21
2013.496117719645
 31
0.0
  0
LINE
  5
136
330
87
100
AcDbEntity
  8
P-SANR-FIXT
100
AcDbLine
 10
784.6664074431583
 20
2009.380831519642
 30
0.0
 11
792.1664074431533
 21
2009.380831519642
 31
0.0
  0
LINE
  5
137
330
87
100
AcDbEntity
  8
P-SANR-FIXT
100
AcDbLine
 10
792.1664074431533
 20
2009.380831519643
 30
0.0
 11
792.1664074431533
 21
1999.999999999995
 31
0.0
  0
SPLINE
  5
138
330
87
100
AcDbEntity
  8
P-SANR-FIXT
100
AcDbSpline
210
0.0
220
0.0
230
1.0
 70
     8
 71
     3
 72
    15
 73
    11
 74
     0
 42
0.000000001
 43
0.0000000001
 40
-1.0
 40
-1.0
 40
-1.0
 40
-1.0
 40
-0.7857142857142857
 40
-0.6785714285714287
 40
-0.5714285714285714
 40
-0.4285714285714286
 40
-0.2857142857142857
 40
-0.2142857142857143
 40
-0.1428571428571428
 40
0.0
 40
0.0
 40
0.0
 40
0.0
 10
802.6664074431582
 20
2022.999999999996
 30
0.0
 10
802.675207247249
 20
2022.999999999996
 30
0.0
 10
803.0607321121584
 20
2022.772767750668
 30
0.0
 10
804.272795194895
 20
2022.124893802551
 30
0.0
 10
805.6229717069513
 20
2021.453575509108
 30
0.0
 10
807.4809607058643
 20
2020.630616209318
 30
0.0
 10
809.5039415817005
 20
2019.91765877868
 30
0.0
 10
811.2953458459884
 20
2019.456341697003
 30
0.0
 10
813.178653048503
 20
2019.093568750023
 30
0.0
 10
814.6482862716904
 20
2018.980864744071
 30
0.0
 10
815.6664074431581
 20
2018.973665961005
 30
0.0
  0
LINE
  5
139
330
87
100
AcDbEntity
  8
P-SANR-FIXT
100
AcDbLine
 10
784.6664074431581
 20
1977.123050760698
 30
0.0
 11
784.6664074431581
 21
1976.999999999995
 31
0.0
  0
LINE
  5
13A
330
87
100
AcDbEntity
  8
P-SANR-FIXT
100
AcDbLine
 10
784.6664074431581
 20
1977.123050760698
 30
0.0
 11
784.6664074431583
 21
1986.503882280345
 31
0.0
  0
LINE
  5
13B
330
87
100
AcDbEntity
  8
P-SANR-FIXT
100
AcDbLine
 10
784.6664074431583
 20
1990.619168480348
 30
0.0
 11
784.6664074431583
 21
1986.503882280346
 31
0.0
  0
LINE
  5
13C
330
87
100
AcDbEntity
  8
P-SANR-FIXT
100
AcDbLine
 10
784.6664074431583
 20
1990.619168480348
 30
0.0
 11
784.6664074431583
 21
1999.999999999995
 31
0.0
  0
LINE
  5
13D
330
87
100
AcDbEntity
  8
P-SANR-FIXT
100
AcDbLine
 10
784.6664074431583
 20
1999.999999999995
 30
0.0
 11
784.6664074431583
 21
2009.380831519643
 31
0.0
  0
LINE
  5
13E
330
87
100
AcDbEntity
  8
P-SANR-FIXT
100
AcDbLine
 10
784.6664074431583
 20
2013.496117719645
 30
0.0
 11
784.6664074431583
 21
2009.380831519643
 31
0.0
  0
LINE
  5
13F
330
87
100
AcDbEntity
  8
P-SANR-FIXT
100
AcDbLine
 10
784.6664074431583
 20
2013.496117719645
 30
0.0
 11
784.6664074431581
 21
2022.876949239292
 31
0.0
  0
LINE
  5
140
330
87
100
AcDbEntity
  8
P-SANR-FIXT
100
AcDbLine
 10
784.6664074431581
 20
2022.999999999996
 30
0.0
 11
784.6664074431581
 21
2022.876949239292
 31
0.0
  0
ENDBLK
  5
142
330
87
100
AcDbEntity
  8
0
100
AcDbBlockEnd
  0
BLOCK
  5
19C
330
144
100
AcDbEntity
  8
0
100
AcDbBlockBegin
  2
Automatic flow rate regulator valve_Caleffi_121 DN15 - 1_2__-V1-Est - Idraulica
 70
     0
 10
0.0
 20
0.0
 30
0.0
  3
Automatic flow rate regulator valve_Caleffi_121 DN15 - 1_2__-V1-Est - Idraulica
  1

  0
LINE
  5
145
330
144
100
AcDbEntity
  8
M-PIPE
100
AcDbLine
 10
763.7650830628267
 20
1776.964628730067
 30
0.0
 11
775.1958446947333
 21
1776.964628730067
 31
0.0
1001
REVIT
1002
{
1070
     3
1000
790271
1002
}
  0
LINE
  5
146
330
144
100
AcDbEntity
  8
M-PIPE
100
AcDbLine
 10
776.8053361304835
 20
1823.964628730067
 30
0.0
 11
763.7650830628451
 21
1823.964628730067
 31
0.0
1001
REVIT
1002
{
1070
     3
1000
790271
1002
}
  0
LINE
  5
147
330
144
100
AcDbEntity
  8
M-PIPE
100
AcDbLine
 10
760.1664074431599
 20
1781.340273077082
 30
0.0
 11
762.6928119718877
 21
1776.964412072853
 31
0.0
1001
REVIT
1002
{
1070
     3
1000
790271
1002
}
  0
LINE
  5
148
330
144
100
AcDbEntity
  8
M-PIPE
100
AcDbLine
 10
762.6928119719073
 20
1823.964845387282
 30
0.0
 11
760.16640744316
 21
1819.58898438302
 31
0.0
1001
REVIT
1002
{
1070
     3
1000
790271
1002
}
  0
LINE
  5
149
330
144
100
AcDbEntity
  8
M-PIPE
100
AcDbLine
 10
778.1664074431602
 20
1823.464628729993
 30
0.0
 11
777.8776072214212
 21
1823.964845387282
 31
0.0
1001
REVIT
1002
{
1070
     3
1000
790271
1002
}
  0
LINE
  5
14A
330
144
100
AcDbEntity
  8
M-PIPE
100
AcDbLine
 10
760.1664074431583
 20
1781.340273077081
 30
0.0
 11
760.1664074431582
 21
1792.463176458165
 31
0.0
1001
REVIT
1002
{
1070
     3
1000
790271
1002
}
  0
LINE
  5
14B
330
144
100
AcDbEntity
  8
M-PIPE
100
AcDbLine
 10
760.1664074431583
 20
1808.466081001932
 30
0.0
 11
760.1664074431584
 21
1819.588984383019
 31
0.0
1001
REVIT
1002
{
1070
     3
1000
790271
1002
}
  0
LINE
  5
14C
330
144
100
AcDbEntity
  8
M-PIPE
100
AcDbLine
 10
778.1664074431581
 20
1792.4624563396
 30
0.0
 11
778.1664074431581
 21
1779.917703588074
 31
0.0
1001
REVIT
1002
{
1070
     3
1000
790271
1002
}
  0
LINE
  5
14D
330
144
100
AcDbEntity
  8
M-PIPE
100
AcDbLine
 10
778.1664074431586
 20
1823.464628729992
 30
0.0
 11
778.1664074431582
 21
1808.466801120498
 31
0.0
1001
REVIT
1002
{
1070
     3
1000
790271
1002
}
  0
SPLINE
  5
14E
330
144
100
AcDbEntity
  8
M-PIPE
100
AcDbSpline
210
0.0
220
0.0
230
1.0
 70
    24
 71
     3
 72
     9
 73
     5
 74
     0
 42
0.000000001
 43
0.0000000001
 40
0.0
 40
0.0
 40
0.0
 40
0.0
 40
0.5
 40
0.5038786674278546
 40
0.5038786674278546
 40
0.5038786674278546
 40
0.5038786674278546
 10
763.7650830628254
 20
1776.964628730066
 30
0.0
 10
763.050192649445
 20
1776.964628730067
 30
0.0
 10
762.6899746205946
 20
1776.964628730067
 30
0.0
 10
762.6927689524664
 20
1776.964628730067
 30
0.0
 10
762.6928119718863
 20
1776.964628730067
 30
0.0
1001
REVIT
1002
{
1070
     3
1000
790271
1002
}
  0
SPLINE
  5
14F
330
144
100
AcDbEntity
  8
M-PIPE
100
AcDbSpline
210
0.0
220
0.0
230
1.0
 70
     8
 71
     3
 72
     9
 73
     5
 74
     0
 42
0.000000001
 43
0.0000000001
 40
0.0
 40
0.0
 40
0.0
 40
0.0
 40
0.5
 40
1.0
 40
1.0
 40
1.0
 40
1.0
 10
764.1664074431586
 20
1777.902450903575
 30
0.0
 10
764.1650654132424
 20
1777.593103107165
 30
0.0
 10
764.0968359866039
 20
1777.121369078276
 30
0.0
 10
763.8975158263535
 20
1776.964628730066
 30
0.0
 10
763.7650830628254
 20
1776.964628730066
 30
0.0
1001
REVIT
1002
{
1070
     3
1000
790271
1002
}
  0
SPLINE
  5
150
330
144
100
AcDbEntity
  8
M-PIPE
100
AcDbSpline
210
0.0
220
0.0
230
1.0
 70
     8
 71
     3
 72
     9
 73
     5
 74
     0
 42
0.000000001
 43
0.0000000001
 40
0.5684700562562074
 40
0.5684700562562074
 40
0.5684700562562074
 40
0.5684700562562074
 40
0.7
 40
1.0
 40
1.0
 40
1.0
 40
1.0
 10
776.4123829046105
 20
1778.172088823694
 30
0.0
 10
776.4222889569236
 20
1778.354003528619
 30
0.0
 10
776.4853499638465
 20
1779.010758511493
 30
0.0
 10
776.647286805708
 20
1779.83951813426
 30
0.0
 10
776.8053361304997
 20
1780.464628730066
 30
0.0
1001
REVIT
1002
{
1070
     3
1000
790271
1002
}
  0
SPLINE
  5
151
330
144
100
AcDbEntity
  8
M-PIPE
100
AcDbSpline
210
0.0
220
0.0
230
1.0
 70
     8
 71
     3
 72
     9
 73
     5
 74
     0
 42
0.000000001
 43
0.0000000001
 40
0.0
 40
0.0
 40
0.0
 40
0.0
 40
0.5
 40
1.0
 40
1.0
 40
1.0
 40
1.0
 10
763.765083062825
 20
1780.464628730066
 30
0.0
 10
763.8975158263534
 20
1779.942385201521
 30
0.0
 10
764.0968359866039
 20
1778.969295191341
 30
0.0
 10
764.1650654132424
 20
1778.211798699985
 30
0.0
 10
764.1664074431586
 20
1777.902450903575
 30
0.0
1001
REVIT
1002
{
1070
     3
1000
790271
1002
}
  0
SPLINE
  5
152
330
144
100
AcDbEntity
  8
M-PIPE
100
AcDbSpline
210
0.0
220
0.0
230
1.0
 70
     8
 71
     3
 72
     8
 73
     4
 74
     0
 42
0.000000001
 43
0.0000000001
 40
0.5196524640830259
 40
0.5196524640830259
 40
0.5196524640830259
 40
0.5196524640830259
 40
1.0
 40
1.0
 40
1.0
 40
1.0
 10
762.6944040697962
 20
1788.451075076508
 30
0.0
 10
762.7213983681127
 20
1785.807632938671
 30
0.0
 10
763.0782913657888
 20
1783.145484156523
 30
0.0
 10
763.765083062825
 20
1780.464628730066
 30
0.0
1001
REVIT
1002
{
1070
     3
1000
790271
1002
}
  0
SPLINE
  5
153
330
144
100
AcDbEntity
  8
M-PIPE
100
AcDbSpline
210
0.0
220
0.0
230
1.0
 70
     8
 71
     3
 72
     9
 73
     5
 74
     0
 42
0.000000001
 43
0.0000000001
 40
0.0
 40
0.0
 40
0.0
 40
0.0
 40
0.5
 40
0.7325034587213346
 40
0.7325034587213346
 40
0.7325034587213346
 40
0.7325034587213346
 10
776.8053361304997
 20
1780.464628730066
 30
0.0
 10
777.5202265438805
 20
1783.255166024423
 30
0.0
 10
778.043886244288
 20
1787.313628755714
 30
0.0
 10
777.8003808612113
 20
1791.328589998906
 30
0.0
 10
777.6457990824949
 20
1792.598593584614
 30
0.0
1001
REVIT
1002
{
1070
     3
1000
790271
1002
}
  0
SPLINE
  5
154
330
144
100
AcDbEntity
  8
M-PIPE
100
AcDbSpline
210
0.0
220
0.0
230
1.0
 70
     8
 71
     3
 72
     8
 73
     4
 74
     0
 42
0.000000001
 43
0.0000000001
 40
0.0
 40
0.0
 40
0.0
 40
0.0
 40
0.4879729207689093
 40
0.4879729207689093
 40
0.4879729207689093
 40
0.4879729207689093
 10
763.7650830628403
 20
1820.464628730066
 30
0.0
 10
763.0673887367446
 20
1817.820339869692
 30
0.0
 10
762.710150348757
 20
1815.156745725151
 30
0.0
 10
762.6933678988774
 20
1812.473846296442
 30
0.0
1001
REVIT
1002
{
1070
     3
1000
790271
1002
}
  0
SPLINE
  5
155
330
144
100
AcDbEntity
  8
M-PIPE
100
AcDbSpline
210
0.0
220
0.0
230
1.0
 70
     8
 71
     3
 72
     9
 73
     5
 74
     0
 42
0.000000001
 43
0.0000000001
 40
0.261954462859066
 40
0.261954462859066
 40
0.261954462859066
 40
0.261954462859066
 40
0.5
 40
1.0
 40
1.0
 40
1.0
 40
1.0
 10
777.6346132518036
 20
1808.333900869222
 30
0.0
 10
777.7966522509755
 20
1809.652339616533
 30
0.0
 10
778.0478482230097
 20
1813.725833939336
 30
0.0
 10
777.5202265438671
 20
1817.755166024423
 30
0.0
 10
776.8053361304849
 20
1820.464628730066
 30
0.0
1001
REVIT
1002
{
1070
     3
1000
790271
1002
}
  0
SPLINE
  5
156
330
144
100
AcDbEntity
  8
M-PIPE
100
AcDbSpline
210
0.0
220
0.0
230
1.0
 70
     8
 71
     3
 72
     9
 73
     5
 74
     0
 42
0.000000001
 43
0.0000000001
 40
0.0
 40
0.0
 40
0.0
 40
0.0
 40
0.5
 40
1.0
 40
1.0
 40
1.0
 40
1.0
 10
764.1664074431591
 20
1823.026806556561
 30
0.0
 10
764.165065413251
 20
1822.717458760151
 30
0.0
 10
764.0968359866231
 20
1821.959962268794
 30
0.0
 10
763.8975158263718
 20
1820.986872258612
 30
0.0
 10
763.7650830628403
 20
1820.464628730066
 30
0.0
1001
REVIT
1002
{
1070
     3
1000
790271
1002
}
  0
SPLINE
  5
157
330
144
100
AcDbEntity
  8
M-PIPE
100
AcDbSpline
210
0.0
220
0.0
230
1.0
 70
     8
 71
     3
 72
    10
 73
     6
 74
     0
 42
0.000000001
 43
0.0000000001
 40
0.0
 40
0.0
 40
0.0
 40
0.0
 40
0.4
 40
0.7
 40
1.0
 40
1.0
 40
1.0
 40
1.0
 10
776.8053361304849
 20
1820.464628730066
 30
0.0
 10
776.5942839221851
 20
1821.299829765651
 30
0.0
 10
776.3654481702036
 20
1822.605382577974
 30
0.0
 10
776.4221295332337
 20
1823.739358305443
 30
0.0
 10
776.6472868056903
 20
1823.964628730067
 30
0.0
 10
776.8053361304819
 20
1823.964628730067
 30
0.0
1001
REVIT
1002
{
1070
     3
1000
790271
1002
}
  0
SPLINE
  5
158
330
144
100
AcDbEntity
  8
M-PIPE
100
AcDbSpline
210
0.0
220
0.0
230
1.0
 70
     8
 71
     3
 72
     9
 73
     5
 74
     0
 42
0.000000001
 43
0.0000000001
 40
0.0
 40
0.0
 40
0.0
 40
0.0
 40
0.5
 40
1.0
 40
1.0
 40
1.0
 40
1.0
 10
763.7650830628436
 20
1823.964628730067
 30
0.0
 10
763.897515826374
 20
1823.964628730067
 30
0.0
 10
764.0968359866236
 20
1823.807888381858
 30
0.0
 10
764.165065413251
 20
1823.33615435297
 30
0.0
 10
764.1664074431591
 20
1823.026806556561
 30
0.0
1001
REVIT
1002
{
1070
     3
1000
790271
1002
}
  0
SPLINE
  5
159
330
144
100
AcDbEntity
  8
M-PIPE
100
AcDbSpline
210
0.0
220
0.0
230
1.0
 70
    24
 71
     3
 72
     8
 73
     4
 74
     0
 42
0.000000001
 43
0.0000000001
 40
0.5
 40
0.5
 40
0.5
 40
0.5
 40
1.0
 40
1.0
 40
1.0
 40
1.0
 10
762.6927474427758
 20
1823.964628730067
 30
0.0
 10
762.6927474427749
 20
1823.964628730067
 30
0.0
 10
763.0501926494641
 20
1823.964628730067
 30
0.0
 10
763.7650830628436
 20
1823.964628730067
 30
0.0
1001
REVIT
1002
{
1070
     3
1000
790271
1002
}
  0
SPLINE
  5
15A
330
144
100
AcDbEntity
  8
M-PIPE
100
AcDbSpline
210
0.0
220
0.0
230
1.0
 70
    24
 71
     3
 72
     8
 73
     4
 74
     0
 42
0.000000001
 43
0.0000000001
 40
0.0
 40
0.0
 40
0.0
 40
0.0
 40
0.5
 40
0.5
 40
0.5
 40
0.5
 10
776.8053361304819
 20
1823.964628730067
 30
0.0
 10
777.5202265438612
 20
1823.964628730067
 30
0.0
 10
777.8776717505506
 20
1823.964628730067
 30
0.0
 10
777.8776717505495
 20
1823.964628730067
 30
0.0
1001
REVIT
1002
{
1070
     3
1000
790271
1002
}
  0
LINE
  5
15B
330
144
100
AcDbEntity
  8
M-PIPE
100
AcDbLine
 10
900.1664074431632
 20
1783.764628730035
 30
0.0
 11
902.6664074431456
 21
1783.764628730035
 31
0.0
1001
REVIT
1002
{
1070
     3
1000
790271
1002
}
  0
LINE
  5
15C
330
144
100
AcDbEntity
  8
M-PIPE
100
AcDbLine
 10
902.6664074431455
 20
1817.164628730035
 30
0.0
 11
900.166407443163
 21
1817.164628730035
 31
0.0
1001
REVIT
1002
{
1070
     3
1000
790271
1002
}
  0
LINE
  5
15D
330
144
100
AcDbEntity
  8
M-PIPE
100
AcDbLine
 10
904.1664074431579
 20
1815.664628730039
 30
0.0
 11
902.7299559850296
 21
1817.101080188167
 31
0.0
1001
REVIT
1002
{
1070
     3
1000
790271
1002
}
  0
LINE
  5
15E
330
144
100
AcDbEntity
  8
M-PIPE
100
AcDbLine
 10
902.7146459388141
 20
1817.116390234383
 30
0.0
 11
902.6664074431517
 21
1817.164628730045
 31
0.0
1001
REVIT
1002
{
1070
     3
1000
790271
1002
}
  0
LINE
  5
15F
330
144
100
AcDbEntity
  8
M-PIPE
100
AcDbLine
 10
902.6664074431392
 20
1783.764628730045
 30
0.0
 11
902.7146459387816
 21
1783.812867225687
 31
0.0
1001
REVIT
1002
{
1070
     3
1000
790271
1002
}
  0
LINE
  5
160
330
144
100
AcDbEntity
  8
M-PIPE
100
AcDbLine
 10
902.7299559849971
 20
1783.828177271902
 30
0.0
 11
904.1664074431578
 21
1785.264628730064
 31
0.0
1001
REVIT
1002
{
1070
     3
1000
790271
1002
}
  0
LINE
  5
161
330
144
100
AcDbEntity
  8
M-PIPE
100
AcDbLine
 10
904.1664074431563
 20
1815.664628730038
 30
0.0
 11
904.1664074431563
 21
1800.46462873005
 31
0.0
1001
REVIT
1002
{
1070
     3
1000
790271
1002
}
  0
LINE
  5
162
330
144
100
AcDbEntity
  8
M-PIPE
100
AcDbLine
 10
904.1664074431563
 20
1800.46462873005
 30
0.0
 11
904.1664074431562
 21
1785.264628730063
 31
0.0
1001
REVIT
1002
{
1070
     3
1000
790271
1002
}
  0
LINE
  5
163
330
144
100
AcDbEntity
  8
M-PIPE
100
AcDbLine
 10
902.666407443144
 20
1783.764628730034
 30
0.0
 11
902.6664074431439
 21
1800.464628730034
 31
0.0
1001
REVIT
1002
{
1070
     3
1000
790271
1002
}
  0
LINE
  5
164
330
144
100
AcDbEntity
  8
M-PIPE
100
AcDbLine
 10
902.6664074431439
 20
1800.464628730034
 30
0.0
 11
902.6664074431439
 21
1817.164628730034
 31
0.0
1001
REVIT
1002
{
1070
     3
1000
790271
1002
}
  0
LINE
  5
165
330
144
100
AcDbEntity
  8
M-PIPE
100
AcDbLine
 10
760.1664074431599
 20
1817.164628730063
 30
0.0
 11
728.6664074431733
 21
1817.164628730063
 31
0.0
1001
REVIT
1002
{
1070
     3
1000
790271
1002
}
  0
LINE
  5
166
330
144
100
AcDbEntity
  8
M-PIPE
100
AcDbLine
 10
728.6664074431736
 20
1783.764628730063
 30
0.0
 11
760.1664074431596
 21
1783.764628730063
 31
0.0
1001
REVIT
1002
{
1070
     3
1000
790271
1002
}
  0
LINE
  5
167
330
144
100
AcDbEntity
  8
M-PIPE
100
AcDbLine
 10
727.1664074431612
 20
1785.264628730064
 30
0.0
 11
728.6028589012936
 21
1783.828177271931
 31
0.0
1001
REVIT
1002
{
1070
     3
1000
790271
1002
}
  0
LINE
  5
168
330
144
100
AcDbEntity
  8
M-PIPE
100
AcDbLine
 10
728.6181689475102
 20
1783.812867225714
 30
0.0
 11
728.6664074431795
 21
1783.764628730045
 31
0.0
1001
REVIT
1002
{
1070
     3
1000
790271
1002
}
  0
LINE
  5
169
330
144
100
AcDbEntity
  8
M-PIPE
100
AcDbLine
 10
728.6664074431795
 20
1817.164628730057
 30
0.0
 11
728.6181689475346
 21
1817.116390234412
 31
0.0
1001
REVIT
1002
{
1070
     3
1000
790271
1002
}
  0
LINE
  5
16A
330
144
100
AcDbEntity
  8
M-PIPE
100
AcDbLine
 10
728.6028589013177
 20
1817.101080188195
 30
0.0
 11
727.1664074431612
 21
1815.664628730039
 31
0.0
1001
REVIT
1002
{
1070
     3
1000
790271
1002
}
  0
LINE
  5
16B
330
144
100
AcDbEntity
  8
M-PIPE
100
AcDbLine
 10
727.1664074431598
 20
1785.264628730063
 30
0.0
 11
727.1664074431599
 21
1815.664628730038
 31
0.0
1001
REVIT
1002
{
1070
     3
1000
790271
1002
}
  0
LINE
  5
16C
330
144
100
AcDbEntity
  8
M-PIPE
100
AcDbLine
 10
728.666407443172
 20
1817.164628730062
 30
0.0
 11
728.6664074431721
 21
1783.764628730062
 31
0.0
1001
REVIT
1002
{
1070
     3
1000
790271
1002
}
  0
LINE
  5
16D
330
144
100
AcDbEntity
  8
M-PIPE
100
AcDbLine
 10
818.494834567921
 20
1786.322493106302
 30
0.0
 11
791.9783302734258
 21
1759.805988811806
 31
0.0
1001
REVIT
1002
{
1070
     3
1000
923261
1002
}
  0
LINE
  5
16E
330
144
100
AcDbEntity
  8
M-PIPE
100
AcDbLine
 10
832.3632407434214
 20
1800.190899281803
 30
0.0
 11
818.4948345679211
 21
1786.322493106302
 31
0.0
1001
REVIT
1002
{
1070
     3
1000
923261
1002
}
  0
LINE
  5
16F
330
144
100
AcDbEntity
  8
M-PIPE
100
AcDbLine
 10
775.0077675249488
 20
1776.776551560283
 30
0.0
 11
801.5242718194439
 21
1803.293055854779
 31
0.0
1001
REVIT
1002
{
1070
     3
1000
923261
1002
}
  0
LINE
  5
170
330
144
100
AcDbEntity
  8
M-PIPE
100
AcDbLine
 10
801.5242718194439
 20
1803.293055854779
 30
0.0
 11
815.3926779949442
 21
1817.16146203028
 31
0.0
1001
REVIT
1002
{
1070
     3
1000
923261
1002
}
  0
LINE
  5
171
330
144
100
AcDbEntity
  8
M-PIPE
100
AcDbLine
 10
832.3632407434216
 20
1800.190899281803
 30
0.0
 11
825.3579644254745
 21
1807.19617559975
 31
0.0
1001
REVIT
1002
{
1070
     3
1000
923261
1002
}
  0
SPLINE
  5
172
330
144
100
AcDbEntity
  8
M-PIPE
100
AcDbSpline
210
0.0
220
0.0
230
1.0
 70
     8
 71
     3
 72
     9
 73
     5
 74
     0
 42
0.000000001
 43
0.0000000001
 40
0.0
 40
0.0
 40
0.0
 40
0.0
 40
0.5
 40
1.0
 40
1.0
 40
1.0
 40
1.0
 10
825.3579644254745
 20
1807.19617559975
 30
0.0
 10
825.2471643164152
 20
1807.359233704957
 30
0.0
 10
825.0002404582739
 20
1807.69398295022
 30
0.0
 10
824.7062662852394
 20
1808.049595230331
 30
0.0
 10
824.5482450366694
 20
1808.23334554577
 30
0.0
1001
REVIT
1002
{
1070
     3
1000
923261
1002
}
  0
LINE
  5
173
330
144
100
AcDbEntity
  8
M-PIPE
100
AcDbLine
 10
823.9921019477247
 20
1808.79032323456
 30
0.0
 11
824.5482450366694
 21
1808.23334554577
 31
0.0
1001
REVIT
1002
{
1070
     3
1000
923261
1002
}
  0
LINE
  5
174
330
144
100
AcDbEntity
  8
M-PIPE
100
AcDbLine
 10
823.4351242589342
 20
1809.346466323504
 30
0.0
 11
823.9921019477247
 21
1808.79032323456
 31
0.0
1001
REVIT
1002
{
1070
     3
1000
923261
1002
}
  0
SPLINE
  5
175
330
144
100
AcDbEntity
  8
M-PIPE
100
AcDbSpline
210
0.0
220
0.0
230
1.0
 70
     8
 71
     3
 72
     9
 73
     5
 74
     0
 42
0.000000001
 43
0.0000000001
 40
0.0
 40
0.0
 40
0.0
 40
0.0
 40
0.5
 40
1.0
 40
1.0
 40
1.0
 40
1.0
 10
823.4351242589342
 20
1809.346466323504
 30
0.0
 10
823.2513739434962
 20
1809.504487572074
 30
0.0
 10
822.8957616633849
 20
1809.798461745109
 30
0.0
 10
822.5610124181223
 20
1810.04538560325
 30
0.0
 10
822.3979543129146
 20
1810.15618571231
 30
0.0
1001
REVIT
1002
{
1070
     3
1000
923261
1002
}
  0
LINE
  5
176
330
144
100
AcDbEntity
  8
M-PIPE
100
AcDbLine
 10
822.3979543129146
 20
1810.15618571231
 30
0.0
 11
815.3926779949442
 21
1817.16146203028
 31
0.0
1001
REVIT
1002
{
1070
     3
1000
923261
1002
}
  0
LINE
  5
177
330
144
100
AcDbEntity
  8
M-PIPE
100
AcDbLine
 10
775.0077675249488
 20
1776.776551560283
 30
0.0
 11
791.9783302734258
 21
1759.805988811806
 31
0.0
1001
REVIT
1002
{
1070
     3
1000
923261
1002
}
  0
LINE
  5
178
330
144
100
AcDbEntity
  8
M-PIPE
100
AcDbLine
 10
762.1664074431635
 20
1788.46462873005
 30
0.0
 11
770.1664074431636
 21
1788.46462873005
 31
0.0
1001
REVIT
1002
{
1070
     3
1000
923261
1002
}
  0
LINE
  5
179
330
144
100
AcDbEntity
  8
M-PIPE
100
AcDbLine
 10
770.1664074431635
 20
1812.46462873005
 30
0.0
 11
762.1664074431633
 21
1812.46462873005
 31
0.0
1001
REVIT
1002
{
1070
     3
1000
923261
1002
}
  0
LINE
  5
17A
330
144
100
AcDbEntity
  8
M-PIPE
100
AcDbLine
 10
757.1664074431629
 20
1792.46462873005
 30
0.0
 11
762.1664074431634
 21
1792.46462873005
 31
0.0
1001
REVIT
1002
{
1070
     3
1000
923261
1002
}
  0
LINE
  5
17B
330
144
100
AcDbEntity
  8
M-PIPE
100
AcDbLine
 10
770.1664074431636
 20
1792.46462873005
 30
0.0
 11
783.1664074431629
 21
1792.46462873005
 31
0.0
1001
REVIT
1002
{
1070
     3
1000
923261
1002
}
  0
LINE
  5
17C
330
144
100
AcDbEntity
  8
M-PIPE
100
AcDbLine
 10
783.1664074431631
 20
1808.46462873005
 30
0.0
 11
770.1664074431636
 21
1808.46462873005
 31
0.0
1001
REVIT
1002
{
1070
     3
1000
923261
1002
}
  0
LINE
  5
17D
330
144
100
AcDbEntity
  8
M-PIPE
100
AcDbLine
 10
762.1664074431635
 20
1808.46462873005
 30
0.0
 11
757.166407443163
 21
1808.46462873005
 31
0.0
1001
REVIT
1002
{
1070
     3
1000
923261
1002
}
  0
LINE
  5
17E
330
144
100
AcDbEntity
  8
M-PIPE
100
AcDbLine
 10
898.6664074431635
 20
1767.46462873005
 30
0.0
 11
898.6664074431629
 21
1833.46462873005
 31
0.0
1001
REVIT
1002
{
1070
     3
1000
923261
1002
}
  0
LINE
  5
17F
330
144
100
AcDbEntity
  8
M-PIPE
100
AcDbLine
 10
770.1664074431619
 20
1812.464628730049
 30
0.0
 11
770.1664074431621
 21
1788.464628730049
 31
0.0
1001
REVIT
1002
{
1070
     3
1000
923261
1002
}
  0
LINE
  5
180
330
144
100
AcDbEntity
  8
M-PIPE
100
AcDbLine
 10
762.1664074431622
 20
1788.464628730049
 30
0.0
 11
762.1664074431619
 21
1812.464628730049
 31
0.0
1001
REVIT
1002
{
1070
     3
1000
923261
1002
}
  0
LINE
  5
181
330
144
100
AcDbEntity
  8
M-PIPE
100
AcDbLine
 10
757.1664074431614
 20
1792.464628730049
 30
0.0
 11
757.1664074431614
 21
1808.464628730049
 31
0.0
1001
REVIT
1002
{
1070
     3
1000
923261
1002
}
  0
LINE
  5
182
330
144
100
AcDbEntity
  8
M-PIPE
100
AcDbLine
 10
898.6664074431617
 20
1767.464628730049
 30
0.0
 11
891.6664074431619
 21
1767.464628730049
 31
0.0
1001
REVIT
1002
{
1070
     3
1000
923261
1002
}
  0
LINE
  5
183
330
144
100
AcDbEntity
  8
M-PIPE
100
AcDbLine
 10
891.6664074431619
 20
1767.464628730049
 30
0.0
 11
799.636970191668
 21
1767.464628730049
 31
0.0
1001
REVIT
1002
{
1070
     3
1000
923261
1002
}
  0
LINE
  5
184
330
144
100
AcDbEntity
  8
M-PIPE
100
AcDbLine
 10
784.3196903551834
 20
1767.464628730049
 30
0.0
 11
783.1664074431618
 21
1767.464628730049
 31
0.0
1001
REVIT
1002
{
1070
     3
1000
923261
1002
}
  0
LINE
  5
185
330
144
100
AcDbEntity
  8
M-PIPE
100
AcDbLine
 10
783.1664074431613
 20
1833.464628730049
 30
0.0
 11
891.6664074431613
 21
1833.46462873005
 31
0.0
1001
REVIT
1002
{
1070
     3
1000
923261
1002
}
  0
LINE
  5
186
330
144
100
AcDbEntity
  8
M-PIPE
100
AcDbLine
 10
891.6664074431613
 20
1833.46462873005
 30
0.0
 11
898.6664074431613
 21
1833.46462873005
 31
0.0
1001
REVIT
1002
{
1070
     3
1000
923261
1002
}
  0
LINE
  5
187
330
144
100
AcDbEntity
  8
M-PIPE
100
AcDbLine
 10
783.1664074431618
 20
1766.464628730049
 30
0.0
 11
783.1664074431618
 21
1767.464628730049
 31
0.0
1001
REVIT
1002
{
1070
     3
1000
923261
1002
}
  0
LINE
  5
188
330
144
100
AcDbEntity
  8
M-PIPE
100
AcDbLine
 10
783.1664074431613
 20
1833.464628730049
 30
0.0
 11
783.1664074431617
 21
1784.935191478496
 31
0.0
1001
REVIT
1002
{
1070
     3
1000
923261
1002
}
  0
LINE
  5
189
330
144
100
AcDbEntity
  8
M-PIPE
100
AcDbLine
 10
783.1664074431617
 20
1768.617911642071
 30
0.0
 11
783.1664074431618
 21
1767.464628730049
 31
0.0
1001
REVIT
1002
{
1070
     3
1000
923261
1002
}
  0
LINE
  5
18A
330
144
100
AcDbEntity
  8
M-PIPE
100
AcDbLine
 10
783.1664074431613
 20
1833.464628730049
 30
0.0
 11
783.1664074431613
 21
1834.464628730049
 31
0.0
1001
REVIT
1002
{
1070
     3
1000
923261
1002
}
  0
LINE
  5
18B
330
144
100
AcDbEntity
  8
M-PIPE
100
AcDbLine
 10
900.1664074431616
 20
1766.46462873005
 30
0.0
 11
886.1134609974284
 21
1766.46462873005
 31
0.0
1001
REVIT
1002
{
1070
     3
1000
923261
1002
}
  0
LINE
  5
18C
330
144
100
AcDbEntity
  8
M-PIPE
100
AcDbLine
 10
886.1134609974294
 20
1766.46462873005
 30
0.0
 11
849.5182691002026
 21
1766.464628730049
 31
0.0
1001
REVIT
1002
{
1070
     3
1000
923261
1002
}
  0
LINE
  5
18D
330
144
100
AcDbEntity
  8
M-PIPE
100
AcDbLine
 10
849.5182691002032
 20
1766.464628730049
 30
0.0
 11
798.6430530177896
 21
1766.464628730049
 31
0.0
1001
REVIT
1002
{
1070
     3
1000
923261
1002
}
  0
LINE
  5
18E
330
144
100
AcDbEntity
  8
M-PIPE
100
AcDbLine
 10
785.319109895351
 20
1766.464628730049
 30
0.0
 11
783.1664074431618
 21
1766.464628730049
 31
0.0
1001
REVIT
1002
{
1070
     3
1000
923261
1002
}
  0
LINE
  5
18F
330
144
100
AcDbEntity
  8
M-PIPE
100
AcDbLine
 10
783.1664074431603
 20
1834.464628730049
 30
0.0
 11
849.5182691002016
 21
1834.464628730049
 31
0.0
1001
REVIT
1002
{
1070
     3
1000
923261
1002
}
  0
LINE
  5
190
330
144
100
AcDbEntity
  8
M-PIPE
100
AcDbLine
 10
849.5182691002012
 20
1834.464628730049
 30
0.0
 11
886.113460997428
 21
1834.46462873005
 31
0.0
1001
REVIT
1002
{
1070
     3
1000
923261
1002
}
  0
LINE
  5
191
330
144
100
AcDbEntity
  8
M-PIPE
100
AcDbLine
 10
886.113460997428
 20
1834.46462873005
 30
0.0
 11
900.1664074431614
 21
1834.46462873005
 31
0.0
1001
REVIT
1002
{
1070
     3
1000
923261
1002
}
  0
LINE
  5
192
330
144
100
AcDbEntity
  8
M-PIPE
100
AcDbLine
 10
900.1664074431614
 20
1834.46462873005
 30
0.0
 11
900.1664074431616
 21
1766.46462873005
 31
0.0
1001
REVIT
1002
{
1070
     3
1000
923261
1002
}
  0
LINE
  5
193
330
144
100
AcDbEntity
  8
M-PIPE
100
AcDbLine
 10
886.1134609974294
 20
1767.464628730049
 30
0.0
 11
886.1134609974294
 21
1766.46462873005
 31
0.0
1001
REVIT
1002
{
1070
     3
1000
923261
1002
}
  0
LINE
  5
194
330
144
100
AcDbEntity
  8
M-PIPE
100
AcDbLine
 10
886.1134609974289
 20
1834.46462873005
 30
0.0
 11
886.1134609974289
 21
1833.46462873005
 31
0.0
1001
REVIT
1002
{
1070
     3
1000
923261
1002
}
  0
LINE
  5
195
330
144
100
AcDbEntity
  8
M-PIPE
100
AcDbLine
 10
849.5182691002032
 20
1767.464628730049
 30
0.0
 11
849.5182691002032
 21
1766.464628730049
 31
0.0
1001
REVIT
1002
{
1070
     3
1000
923261
1002
}
  0
LINE
  5
196
330
144
100
AcDbEntity
  8
M-PIPE
100
AcDbLine
 10
849.5182691002026
 20
1834.464628730049
 30
0.0
 11
849.5182691002026
 21
1833.46462873005
 31
0.0
1001
REVIT
1002
{
1070
     3
1000
923261
1002
}
  0
ARC
  5
197
330
144
100
AcDbEntity
  8
M-PIPE
100
AcDbCircle
 10
849.5182691002129
 20
1787.464628730049
 30
0.0
 40
7.999999999999886
100
AcDbArc
 50
180.0
 51
359.999999999998
1001
REVIT
1002
{
1070
     3
1000
923261
1002
}
  0
ARC
  5
198
330
144
100
AcDbEntity
  8
M-PIPE
100
AcDbCircle
 10
849.5182691002129
 20
1787.464628730049
 30
0.0
 40
7.999999999999762
100
AcDbArc
 50
0.0000000000004071
 51
180.0000000000004
1001
REVIT
1002
{
1070
     3
1000
923261
1002
}
  0
ARC
  5
199
330
144
100
AcDbEntity
  8
M-PIPE
100
AcDbCircle
 10
815.6664074431731
 20
1800.464628730033
 30
0.0
 40
11.99999999999992
100
AcDbArc
 50
30.48057830519115
 51
59.51942169480979
1001
REVIT
1002
{
1070
     3
1000
923261
1002
}
  0
LINE
  5
19A
330
144
100
AcDbEntity
  8
P-SANR-FIXT
100
AcDbLine
 10
783.1664074431628
 20
1819.464628730051
 30
0.0
 11
778.1664074431597
 21
1819.464628730051
 31
0.0
  0
LINE
  5
19B
330
144
100
AcDbEntity
  8
P-SANR-FIXT
100
AcDbLine
 10
778.1664074431597
 20
1781.464628730051
 30
0.0
 11
779.6958446947168
 21
1781.464628730051
 31
0.0
  0
ENDBLK
  5
19D
330
144
100
AcDbEntity
  8
0
100
AcDbBlockEnd
  0
BLOCK
  5
213
330
19F
100
AcDbEntity
  8
0
100
AcDbBlockBegin
  2
Automatic flow rate regulator valve_Caleffi_121 DN15 - 1_2__-V2-Est - Idraulica
 70
     0
 10
0.0
 20
0.0
 30
0.0
  3
Automatic flow rate regulator valve_Caleffi_121 DN15 - 1_2__-V2-Est - Idraulica
  1

  0
SPLINE
  5
1A0
330
19F
100
AcDbEntity
  8
M-PIPE
100
AcDbSpline
210
0.0
220
0.0
230
1.0
 70
     8
 71
     3
 72
     8
 73
     4
 74
     0
 42
0.000000001
 43
0.0000000001
 40
0.2
 40
0.2
 40
0.2
 40
0.2
 40
0.2508982807745606
 40
0.2508982807745606
 40
0.2508982807745606
 40
0.2508982807745606
 10
1073.766088940587
 20
2010.954579603068
 30
0.0
 10
1073.791751683961
 20
2011.076147858694
 30
0.0
 10
1073.821639452851
 20
2011.196396493375
 30
0.0
 10
1073.854980426394
 20
2011.315735250912
 30
0.0
1001
REVIT
1002
{
1070
     3
1000
790271
1002
}
  0
SPLINE
  5
1A1
330
19F
100
AcDbEntity
  8
M-PIPE
100
AcDbSpline
210
0.0
220
0.0
230
1.0
 70
     8
 71
     3
 72
     8
 73
     4
 74
     0
 42
0.000000001
 43
0.0000000001
 40
0.375399826753455
 40
0.375399826753455
 40
0.375399826753455
 40
0.375399826753455
 40
0.4
 40
0.4
 40
0.4
 40
0.4
 10
1074.145993961548
 20
2012.184606286486
 30
0.0
 10
1074.169082236875
 20
2012.240486924345
 30
0.0
 10
1074.193168719694
 20
2012.295841788916
 30
0.0
 10
1074.217485947005
 20
2012.351386416154
 30
0.0
1001
REVIT
1002
{
1070
     3
1000
790271
1002
}
  0
SPLINE
  5
1A2
330
19F
100
AcDbEntity
  8
M-PIPE
100
AcDbSpline
210
0.0
220
0.0
230
1.0
 70
     8
 71
     3
 72
     8
 73
     4
 74
     0
 42
0.000000001
 43
0.0000000001
 40
0.6000000000000001
 40
0.6000000000000001
 40
0.6000000000000001
 40
0.6000000000000001
 40
0.6271811010736409
 40
0.6271811010736409
 40
0.6271811010736409
 40
0.6271811010736409
 10
1074.95575514769
 20
2013.628860398926
 30
0.0
 10
1074.995130802925
 20
2013.682987159889
 30
0.0
 10
1075.034727273952
 20
2013.737222412795
 30
0.0
 10
1075.074961282134
 20
2013.790976769032
 30
0.0
1001
REVIT
1002
{
1070
     3
1000
790271
1002
}
  0
SPLINE
  5
1A3
330
19F
100
AcDbEntity
  8
M-PIPE
100
AcDbSpline
210
0.0
220
0.0
230
1.0
 70
     8
 71
     3
 72
     8
 73
     4
 74
     0
 42
0.000000001
 43
0.0000000001
 40
0.7536678542166177
 40
0.7536678542166177
 40
0.7536678542166177
 40
0.7536678542166177
 40
0.8
 40
0.8
 40
0.8
 40
0.8
 10
1075.692445940388
 20
2014.486280293574
 30
0.0
 10
1075.773013388646
 20
2014.565919796012
 30
0.0
 10
1075.857755174313
 20
2014.639786892267
 30
0.0
 10
1075.945226532985
 20
2014.709904344749
 30
0.0
1001
REVIT
1002
{
1070
     3
1000
790271
1002
}
  0
SPLINE
  5
1A4
330
19F
100
AcDbEntity
  8
M-PIPE
100
AcDbSpline
210
0.0
220
0.0
230
1.0
 70
     8
 71
     3
 72
     8
 73
     4
 74
     0
 42
0.000000001
 43
0.0000000001
 40
0.2
 40
0.2
 40
0.2
 40
0.2
 40
0.2508982807696539
 40
0.2508982807696539
 40
0.2508982807696539
 40
0.2508982807696539
 10
1120.462618945638
 20
1989.010538096888
 30
0.0
 10
1120.436956202266
 20
1988.888969841273
 30
0.0
 10
1120.40706843338
 20
1988.768721206604
 30
0.0
 10
1120.373727459841
 20
1988.649382449078
 30
0.0
1001
REVIT
1002
{
1070
     3
1000
790271
1002
}
  0
SPLINE
  5
1A5
330
19F
100
AcDbEntity
  8
M-PIPE
100
AcDbSpline
210
0.0
220
0.0
230
1.0
 70
     8
 71
     3
 72
     8
 73
     4
 74
     0
 42
0.000000001
 43
0.0000000001
 40
0.3753998267490126
 40
0.3753998267490126
 40
0.3753998267490126
 40
0.3753998267490126
 40
0.4
 40
0.4
 40
0.4
 40
0.4
 10
1120.08271392469
 20
1987.7805114135
 30
0.0
 10
1120.059625649358
 20
1987.72463077563
 30
0.0
 10
1120.035539166535
 20
1987.669275911049
 30
0.0
 10
1120.011221939221
 20
1987.613731283801
 30
0.0
1001
REVIT
1002
{
1070
     3
1000
790271
1002
}
  0
SPLINE
  5
1A6
330
19F
100
AcDbEntity
  8
M-PIPE
100
AcDbSpline
210
0.0
220
0.0
230
1.0
 70
     8
 71
     3
 72
     8
 73
     4
 74
     0
 42
0.000000001
 43
0.0000000001
 40
0.6000000000000001
 40
0.6000000000000001
 40
0.6000000000000001
 40
0.6000000000000001
 40
0.6271811010675315
 40
0.6271811010675315
 40
0.6271811010675315
 40
0.6271811010675315
 10
1119.272952738535
 20
1986.336257301029
 30
0.0
 10
1119.233577083309
 20
1986.282130540079
 30
0.0
 10
1119.193980612291
 20
1986.227895287185
 30
0.0
 10
1119.153746604118
 20
1986.17414093096
 30
0.0
1001
REVIT
1002
{
1070
     3
1000
790271
1002
}
  0
SPLINE
  5
1A7
330
19F
100
AcDbEntity
  8
M-PIPE
100
AcDbSpline
210
0.0
220
0.0
230
1.0
 70
     8
 71
     3
 72
     8
 73
     4
 74
     0
 42
0.000000001
 43
0.0000000001
 40
0.7536678542098672
 40
0.7536678542098672
 40
0.7536678542098672
 40
0.7536678542098672
 40
0.8
 40
0.8
 40
0.8
 40
0.8
 10
1118.536261945872
 20
1985.478837406416
 30
0.0
 10
1118.455694497603
 20
1985.399197903966
 30
0.0
 10
1118.370952711923
 20
1985.3253308077
 30
0.0
 10
1118.283481353239
 20
1985.255213355208
 30
0.0
1001
REVIT
1002
{
1070
     3
1000
790271
1002
}
  0
SPLINE
  5
1A8
330
19F
100
AcDbEntity
  8
M-PIPE
100
AcDbSpline
210
0.0
220
0.0
230
1.0
 70
     8
 71
     3
 72
     8
 73
     4
 74
     0
 42
0.000000001
 43
0.0000000001
 40
0.2
 40
0.2
 40
0.2
 40
0.2
 40
0.2487864877538701
 40
0.2487864877538701
 40
0.2487864877538701
 40
0.2487864877538701
 10
1099.286437741349
 20
1974.276357846954
 30
0.0
 10
1099.173225716687
 20
1974.239398159844
 30
0.0
 10
1099.05912179266
 20
1974.206409533981
 30
0.0
 10
1098.944154060802
 20
1974.176620580873
 30
0.0
1001
REVIT
1002
{
1070
     3
1000
790271
1002
}
  0
SPLINE
  5
1A9
330
19F
100
AcDbEntity
  8
M-PIPE
100
AcDbSpline
210
0.0
220
0.0
230
1.0
 70
     8
 71
     3
 72
     8
 73
     4
 74
     0
 42
0.000000001
 43
0.0000000001
 40
0.3741456496272129
 40
0.3741456496272129
 40
0.3741456496272129
 40
0.3741456496272129
 40
0.4
 40
0.4
 40
0.4
 40
0.4
 10
1098.040417254205
 20
1973.991573222354
 30
0.0
 10
1097.977437152692
 20
1973.983138939414
 30
0.0
 10
1097.914407262507
 20
1973.975948073404
 30
0.0
 10
1097.851069053829
 20
1973.968875715161
 30
0.0
1001
REVIT
1002
{
1070
     3
1000
790271
1002
}
  0
SPLINE
  5
1AA
330
19F
100
AcDbEntity
  8
M-PIPE
100
AcDbSpline
210
0.0
220
0.0
230
1.0
 70
     8
 71
     3
 72
     8
 73
     4
 74
     0
 42
0.000000001
 43
0.0000000001
 40
0.6000000000000001
 40
0.6000000000000001
 40
0.6000000000000001
 40
0.6000000000000001
 40
0.6255875094040291
 40
0.6255875094040291
 40
0.6255875094040291
 40
0.6255875094040291
 10
1096.375609531731
 20
1973.9694986064
 30
0.0
 10
1096.312949052614
 20
1973.976122977407
 30
0.0
 10
1096.250106914768
 20
1973.982865417854
 30
0.0
 10
1096.18733553397
 20
1973.990275385553
 30
0.0
1001
REVIT
1002
{
1070
     3
1000
790271
1002
}
  0
SPLINE
  5
1AB
330
19F
100
AcDbEntity
  8
M-PIPE
100
AcDbSpline
210
0.0
220
0.0
230
1.0
 70
     8
 71
     3
 72
     8
 73
     4
 74
     0
 42
0.000000001
 43
0.0000000001
 40
0.7509508168657574
 40
0.7509508168657574
 40
0.7509508168657574
 40
0.7509508168657574
 40
0.8
 40
0.8
 40
0.8
 40
0.8
 10
1095.28394643304
 20
1974.17353900389
 30
0.0
 10
1095.168178142543
 20
1974.204923119669
 30
0.0
 10
1095.055640329837
 20
1974.24355092058
 30
0.0
 10
1094.945141324451
 20
1974.286794291338
 30
0.0
1001
REVIT
1002
{
1070
     3
1000
790271
1002
}
  0
ARC
  5
1AC
330
19F
100
AcDbEntity
  8
M-PIPE
100
AcDbCircle
 10
1097.114353943097
 20
1999.982558850011
 30
0.0
 40
19.12435565296891
100
AcDbArc
 50
269.9999999999997
 51
89.99999999999934
1001
REVIT
1002
{
1070
     3
1000
790271
1002
}
  0
ARC
  5
1AD
330
19F
100
AcDbEntity
  8
M-PIPE
100
AcDbCircle
 10
1097.114353943097
 20
1999.982558850011
 30
0.0
 40
19.1243556529688
100
AcDbArc
 50
90.00000000000035
 51
269.9999999999993
1001
REVIT
1002
{
1070
     3
1000
790271
1002
}
  0
SPLINE
  5
1AE
330
19F
100
AcDbEntity
  8
M-PIPE
100
AcDbSpline
210
0.0
220
0.0
230
1.0
 70
     8
 71
     3
 72
     9
 73
     5
 74
     0
 42
0.000000001
 43
0.0000000001
 40
0.0
 40
0.0
 40
0.0
 40
0.0
 40
0.5
 40
1.0
 40
1.0
 40
1.0
 40
1.0
 10
1100.61435394308
 20
1974.867822140249
 30
0.0
 10
1100.092110414534
 20
1974.566304698461
 30
0.0
 10
1098.962280056143
 20
1974.094985001369
 30
0.0
 10
1097.733049535895
 20
1973.92999996674
 30
0.0
 10
1097.114353943074
 20
1973.929999966741
 30
0.0
1001
REVIT
1002
{
1070
     3
1000
790271
1002
}
  0
SPLINE
  5
1AF
330
19F
100
AcDbEntity
  8
M-PIPE
100
AcDbSpline
210
0.0
220
0.0
230
1.0
 70
     8
 71
     3
 72
     9
 73
     5
 74
     0
 42
0.000000001
 43
0.0000000001
 40
0.0
 40
0.0
 40
0.0
 40
0.0
 40
0.5
 40
1.0
 40
1.0
 40
1.0
 40
1.0
 10
1097.114353943074
 20
1973.929999966741
 30
0.0
 10
1096.495658350255
 20
1973.929999966741
 30
0.0
 10
1095.266427830012
 20
1974.094985001371
 30
0.0
 10
1094.136597471624
 20
1974.566304698462
 30
0.0
 10
1093.61435394308
 20
1974.867822140249
 30
0.0
1001
REVIT
1002
{
1070
     3
1000
790271
1002
}
  0
SPLINE
  5
1B0
330
19F
100
AcDbEntity
  8
M-PIPE
100
AcDbSpline
210
0.0
220
0.0
230
1.0
 70
    24
 71
     3
 72
     9
 73
     5
 74
     0
 42
0.000000001
 43
0.0000000001
 40
0.0
 40
0.0
 40
0.0
 40
0.0
 40
0.5
 40
1.0
 40
1.0
 40
1.0
 40
1.0
 10
1117.11435394308
 20
1984.394101581878
 30
0.0
 10
1114.404891237437
 20
1982.829792559416
 30
0.0
 10
1108.945428531793
 20
1979.677770296682
 30
0.0
 10
1103.404891237437
 20
1976.47893959833
 30
0.0
 10
1100.61435394308
 20
1974.867822140249
 30
0.0
1001
REVIT
1002
{
1070
     3
1000
790271
1002
}
  0
SPLINE
  5
1B1
330
19F
100
AcDbEntity
  8
M-PIPE
100
AcDbSpline
210
0.0
220
0.0
230
1.0
 70
     8
 71
     3
 72
     9
 73
     5
 74
     0
 42
0.000000001
 43
0.0000000001
 40
0.0
 40
0.0
 40
0.0
 40
0.0
 40
0.5
 40
1.0
 40
1.0
 40
1.0
 40
1.0
 10
1119.676531769568
 20
1986.956279408363
 30
0.0
 10
1119.367183973158
 20
1986.420473307773
 30
0.0
 10
1118.609687481803
 20
1985.438420967451
 30
0.0
 10
1117.636597471624
 20
1984.695619023665
 30
0.0
 10
1117.11435394308
 20
1984.394101581878
 30
0.0
1001
REVIT
1002
{
1070
     3
1000
790271
1002
}
  0
SPLINE
  5
1B2
330
19F
100
AcDbEntity
  8
M-PIPE
100
AcDbSpline
210
0.0
220
0.0
230
1.0
 70
     8
 71
     3
 72
     8
 73
     4
 74
     0
 42
0.000000001
 43
0.0000000001
 40
0.2
 40
0.2
 40
0.2
 40
0.2
 40
0.2460800750595698
 40
0.2460800750595698
 40
0.2460800750595698
 40
0.2460800750595698
 10
1118.290535147369
 20
1985.248378600065
 30
0.0
 10
1118.374233355944
 20
1985.323529426044
 30
0.0
 10
1118.455258747403
 20
1985.401143527895
 30
0.0
 10
1118.534164198705
 20
1985.480873441326
 30
0.0
1001
REVIT
1002
{
1070
     3
1000
790271
1002
}
  0
SPLINE
  5
1B3
330
19F
100
AcDbEntity
  8
M-PIPE
100
AcDbSpline
210
0.0
220
0.0
230
1.0
 70
     8
 71
     3
 72
     8
 73
     4
 74
     0
 42
0.000000001
 43
0.0000000001
 40
0.3725383325882428
 40
0.3725383325882428
 40
0.3725383325882428
 40
0.3725383325882428
 40
0.4
 40
0.4
 40
0.4
 40
0.4
 10
1119.152932945543
 20
1986.175692264701
 30
0.0
 10
1119.194228408116
 20
1986.229072521146
 30
0.0
 10
1119.234340386533
 20
1986.283203325763
 30
0.0
 10
1119.274506828473
 20
1986.337703281358
 30
0.0
1001
REVIT
1002
{
1070
     3
1000
790271
1002
}
  0
SPLINE
  5
1B4
330
19F
100
AcDbEntity
  8
M-PIPE
100
AcDbSpline
210
0.0
220
0.0
230
1.0
 70
     8
 71
     3
 72
     8
 73
     4
 74
     0
 42
0.000000001
 43
0.0000000001
 40
0.6000000000000001
 40
0.6000000000000001
 40
0.6000000000000001
 40
0.6000000000000001
 40
0.6243444675303851
 40
0.6243444675303851
 40
0.6243444675303851
 40
0.6243444675303851
 10
1120.011697149884
 20
1987.61580015537
 30
0.0
 10
1120.03604718948
 20
1987.670580778898
 30
0.0
 10
1120.060389117183
 20
1987.725556409002
 30
0.0
 10
1120.084202803771
 20
1987.78077599915
 30
0.0
1001
REVIT
1002
{
1070
     3
1000
790271
1002
}
  0
SPLINE
  5
1B5
330
19F
100
AcDbEntity
  8
M-PIPE
100
AcDbSpline
210
0.0
220
0.0
230
1.0
 70
     8
 71
     3
 72
     8
 73
     4
 74
     0
 42
0.000000001
 43
0.0000000001
 40
0.7488314589061008
 40
0.7488314589061008
 40
0.7488314589061008
 40
0.7488314589061008
 40
0.8
 40
0.8
 40
0.8
 40
0.8
 10
1120.37682738179
 20
1988.648201657293
 30
0.0
 10
1120.409132534387
 20
1988.769104603817
 30
0.0
 10
1120.432897125467
 20
1988.890910704709
 30
0.0
 10
1120.451326894094
 20
1989.013301902401
 30
0.0
1001
REVIT
1002
{
1070
     3
1000
790271
1002
}
  0
SPLINE
  5
1B6
330
19F
100
AcDbEntity
  8
M-PIPE
100
AcDbSpline
210
0.0
220
0.0
230
1.0
 70
     8
 71
     3
 72
     9
 73
     5
 74
     0
 42
0.000000001
 43
0.0000000001
 40
0.0
 40
0.0
 40
0.0
 40
0.0
 40
0.5
 40
1.0
 40
1.0
 40
1.0
 40
1.0
 10
1120.61435394308
 20
1990.456279408369
 30
0.0
 10
1120.61435394308
 20
1989.853244524792
 30
0.0
 10
1120.45761359487
 20
1988.639122883911
 30
0.0
 10
1119.985879565979
 20
1987.492085508955
 30
0.0
 10
1119.676531769568
 20
1986.956279408363
 30
0.0
1001
REVIT
1002
{
1070
     3
1000
790271
1002
}
  0
SPLINE
  5
1B7
330
19F
100
AcDbEntity
  8
M-PIPE
100
AcDbSpline
210
0.0
220
0.0
230
1.0
 70
    24
 71
     3
 72
     9
 73
     5
 74
     0
 42
0.000000001
 43
0.0000000001
 40
0.0
 40
0.0
 40
0.0
 40
0.0
 40
0.5
 40
1.0
 40
1.0
 40
1.0
 40
1.0
 10
1120.61435394308
 20
2009.508838291627
 30
0.0
 10
1120.61435394308
 20
2006.380220246702
 30
0.0
 10
1120.61435394308
 20
2000.076175721234
 30
0.0
 10
1120.61435394308
 20
1993.67851432453
 30
0.0
 10
1120.61435394308
 20
1990.456279408369
 30
0.0
1001
REVIT
1002
{
1070
     3
1000
790271
1002
}
  0
SPLINE
  5
1B8
330
19F
100
AcDbEntity
  8
M-PIPE
100
AcDbSpline
210
0.0
220
0.0
230
1.0
 70
     8
 71
     3
 72
     9
 73
     5
 74
     0
 42
0.000000001
 43
0.0000000001
 40
0.0
 40
0.0
 40
0.0
 40
0.0
 40
0.5
 40
1.0
 40
1.0
 40
1.0
 40
1.0
 10
1119.676531769572
 20
2013.008838291626
 30
0.0
 10
1119.985879565982
 20
2012.473032191035
 30
0.0
 10
1120.457613594871
 20
2011.325994816081
 30
0.0
 10
1120.61435394308
 20
2010.111873175203
 30
0.0
 10
1120.61435394308
 20
2009.508838291627
 30
0.0
1001
REVIT
1002
{
1070
     3
1000
790271
1002
}
  0
SPLINE
  5
1B9
330
19F
100
AcDbEntity
  8
M-PIPE
100
AcDbSpline
210
0.0
220
0.0
230
1.0
 70
     8
 71
     3
 72
     8
 73
     4
 74
     0
 42
0.000000001
 43
0.0000000001
 40
0.2
 40
0.2
 40
0.2
 40
0.2
 40
0.2508982807719626
 40
0.2508982807719626
 40
0.2508982807719626
 40
0.2508982807719626
 10
1120.462618945605
 20
2010.954579603088
 30
0.0
 10
1120.436956202233
 20
2011.076147858709
 30
0.0
 10
1120.407068433345
 20
2011.196396493383
 30
0.0
 10
1120.373727459805
 20
2011.315735250915
 30
0.0
1001
REVIT
1002
{
1070
     3
1000
790271
1002
}
  0
SPLINE
  5
1BA
330
19F
100
AcDbEntity
  8
M-PIPE
100
AcDbSpline
210
0.0
220
0.0
230
1.0
 70
     8
 71
     3
 72
     8
 73
     4
 74
     0
 42
0.000000001
 43
0.0000000001
 40
0.375399826751091
 40
0.375399826751091
 40
0.375399826751091
 40
0.375399826751091
 40
0.4
 40
0.4
 40
0.4
 40
0.4
 10
1120.082713924652
 20
2012.18460628649
 30
0.0
 10
1120.059625649322
 20
2012.240486924355
 30
0.0
 10
1120.035539166501
 20
2012.295841788932
 30
0.0
 10
1120.011221939189
 20
2012.351386416175
 30
0.0
1001
REVIT
1002
{
1070
     3
1000
790271
1002
}
  0
SPLINE
  5
1BB
330
19F
100
AcDbEntity
  8
M-PIPE
100
AcDbSpline
210
0.0
220
0.0
230
1.0
 70
     8
 71
     3
 72
     8
 73
     4
 74
     0
 42
0.000000001
 43
0.0000000001
 40
0.6000000000000001
 40
0.6000000000000001
 40
0.6000000000000001
 40
0.6000000000000001
 40
0.6271811010702444
 40
0.6271811010702444
 40
0.6271811010702444
 40
0.6271811010702444
 10
1119.272952738503
 20
2013.628860398947
 30
0.0
 10
1119.233577083272
 20
2013.682987159903
 30
0.0
 10
1119.19398061225
 20
2013.737222412802
 30
0.0
 10
1119.153746604074
 20
2013.790976769032
 30
0.0
1001
REVIT
1002
{
1070
     3
1000
790271
1002
}
  0
SPLINE
  5
1BC
330
19F
100
AcDbEntity
  8
M-PIPE
100
AcDbSpline
210
0.0
220
0.0
230
1.0
 70
     8
 71
     3
 72
     8
 73
     4
 74
     0
 42
0.000000001
 43
0.0000000001
 40
0.7536678542129628
 40
0.7536678542129628
 40
0.7536678542129628
 40
0.7536678542129628
 40
0.8
 40
0.8
 40
0.8
 40
0.8
 10
1118.536261945824
 20
2014.486280293576
 30
0.0
 10
1118.45569449756
 20
2014.56591979602
 30
0.0
 10
1118.370952711886
 20
2014.639786892281
 30
0.0
 10
1118.283481353208
 20
2014.709904344769
 30
0.0
1001
REVIT
1002
{
1070
     3
1000
790271
1002
}
  0
SPLINE
  5
1BD
330
19F
100
AcDbEntity
  8
M-PIPE
100
AcDbSpline
210
0.0
220
0.0
230
1.0
 70
     8
 71
     3
 72
     9
 73
     5
 74
     0
 42
0.000000001
 43
0.0000000001
 40
0.0
 40
0.0
 40
0.0
 40
0.0
 40
0.5
 40
1.0
 40
1.0
 40
1.0
 40
1.0
 10
1117.114353943081
 20
2015.571016118118
 30
0.0
 10
1117.636597471626
 20
2015.26949867633
 30
0.0
 10
1118.609687481807
 20
2014.526696732542
 30
0.0
 10
1119.367183973162
 20
2013.544644392218
 30
0.0
 10
1119.676531769572
 20
2013.008838291626
 30
0.0
1001
REVIT
1002
{
1070
     3
1000
790271
1002
}
  0
SPLINE
  5
1BE
330
19F
100
AcDbEntity
  8
M-PIPE
100
AcDbSpline
210
0.0
220
0.0
230
1.0
 70
    24
 71
     3
 72
     9
 73
     5
 74
     0
 42
0.000000001
 43
0.0000000001
 40
0.0
 40
0.0
 40
0.0
 40
0.0
 40
0.5
 40
1.0
 40
1.0
 40
1.0
 40
1.0
 10
1100.614353943081
 20
2025.097295559747
 30
0.0
 10
1103.323816648724
 20
2023.532986537285
 30
0.0
 10
1108.783279354367
 20
2020.380964274551
 30
0.0
 10
1114.323816648724
 20
2017.182133576199
 30
0.0
 10
1117.114353943081
 20
2015.571016118118
 30
0.0
1001
REVIT
1002
{
1070
     3
1000
790271
1002
}
  0
SPLINE
  5
1BF
330
19F
100
AcDbEntity
  8
M-PIPE
100
AcDbSpline
210
0.0
220
0.0
230
1.0
 70
     8
 71
     3
 72
     9
 73
     5
 74
     0
 42
0.000000001
 43
0.0000000001
 40
0.0
 40
0.0
 40
0.0
 40
0.0
 40
0.5
 40
1.0
 40
1.0
 40
1.0
 40
1.0
 10
1097.114353943074
 20
2026.035117733256
 30
0.0
 10
1097.733049535896
 20
2026.035117733257
 30
0.0
 10
1098.962280056143
 20
2025.870132698628
 30
0.0
 10
1100.092110414535
 20
2025.398813001535
 30
0.0
 10
1100.614353943081
 20
2025.097295559747
 30
0.0
1001
REVIT
1002
{
1070
     3
1000
790271
1002
}
  0
SPLINE
  5
1C0
330
19F
100
AcDbEntity
  8
M-PIPE
100
AcDbSpline
210
0.0
220
0.0
230
1.0
 70
     8
 71
     3
 72
     9
 73
     5
 74
     0
 42
0.000000001
 43
0.0000000001
 40
0.0
 40
0.0
 40
0.0
 40
0.0
 40
0.5
 40
1.0
 40
1.0
 40
1.0
 40
1.0
 10
1093.614353943081
 20
2025.097295559747
 30
0.0
 10
1094.136597471625
 20
2025.398813001535
 30
0.0
 10
1095.266427830014
 20
2025.870132698626
 30
0.0
 10
1096.495658350256
 20
2026.035117733256
 30
0.0
 10
1097.114353943074
 20
2026.035117733256
 30
0.0
1001
REVIT
1002
{
1070
     3
1000
790271
1002
}
  0
SPLINE
  5
1C1
330
19F
100
AcDbEntity
  8
M-PIPE
100
AcDbSpline
210
0.0
220
0.0
230
1.0
 70
    24
 71
     3
 72
     9
 73
     5
 74
     0
 42
0.000000001
 43
0.0000000001
 40
0.0
 40
0.0
 40
0.0
 40
0.0
 40
0.5
 40
1.0
 40
1.0
 40
1.0
 40
1.0
 10
1077.114353943081
 20
2015.571016118119
 30
0.0
 10
1079.823816648724
 20
2017.135325140581
 30
0.0
 10
1085.283279354367
 20
2020.287347403315
 30
0.0
 10
1090.823816648724
 20
2023.486178101666
 30
0.0
 10
1093.614353943081
 20
2025.097295559747
 30
0.0
1001
REVIT
1002
{
1070
     3
1000
790271
1002
}
  0
SPLINE
  5
1C2
330
19F
100
AcDbEntity
  8
M-PIPE
100
AcDbSpline
210
0.0
220
0.0
230
1.0
 70
     8
 71
     3
 72
     9
 73
     5
 74
     0
 42
0.000000001
 43
0.0000000001
 40
0.0
 40
0.0
 40
0.0
 40
0.0
 40
0.5
 40
1.0
 40
1.0
 40
1.0
 40
1.0
 10
1074.552176116586
 20
2013.008838291622
 30
0.0
 10
1074.861523912996
 20
2013.544644392215
 30
0.0
 10
1075.619020404353
 20
2014.526696732542
 30
0.0
 10
1076.592110414535
 20
2015.26949867633
 30
0.0
 10
1077.114353943081
 20
2015.571016118119
 30
0.0
1001
REVIT
1002
{
1070
     3
1000
790271
1002
}
  0
SPLINE
  5
1C3
330
19F
100
AcDbEntity
  8
M-PIPE
100
AcDbSpline
210
0.0
220
0.0
230
1.0
 70
     8
 71
     3
 72
     8
 73
     4
 74
     0
 42
0.000000001
 43
0.0000000001
 40
0.2
 40
0.2
 40
0.2
 40
0.2
 40
0.2460800750604527
 40
0.2460800750604527
 40
0.2460800750604527
 40
0.2460800750604527
 10
1075.938172738792
 20
2014.716739099931
 30
0.0
 10
1075.854474530216
 20
2014.641588273951
 30
0.0
 10
1075.773449138755
 20
2014.5639741721
 30
0.0
 10
1075.694543687452
 20
2014.484244258667
 30
0.0
1001
REVIT
1002
{
1070
     3
1000
790271
1002
}
  0
SPLINE
  5
1C4
330
19F
100
AcDbEntity
  8
M-PIPE
100
AcDbSpline
210
0.0
220
0.0
230
1.0
 70
     8
 71
     3
 72
     8
 73
     4
 74
     0
 42
0.000000001
 43
0.0000000001
 40
0.3725383325897616
 40
0.3725383325897616
 40
0.3725383325897616
 40
0.3725383325897616
 40
0.4
 40
0.4
 40
0.4
 40
0.4
 10
1075.075774940612
 20
2013.789425435286
 30
0.0
 10
1075.034479478041
 20
2013.736045178844
 30
0.0
 10
1074.994367499627
 20
2013.681914374231
 30
0.0
 10
1074.954201057689
 20
2013.627414418639
 30
0.0
1001
REVIT
1002
{
1070
     3
1000
790271
1002
}
  0
SPLINE
  5
1C5
330
19F
100
AcDbEntity
  8
M-PIPE
100
AcDbSpline
210
0.0
220
0.0
230
1.0
 70
     8
 71
     3
 72
     8
 73
     4
 74
     0
 42
0.000000001
 43
0.0000000001
 40
0.6000000000000001
 40
0.6000000000000001
 40
0.6000000000000001
 40
0.6000000000000001
 40
0.6243444675318922
 40
0.6243444675318922
 40
0.6243444675318922
 40
0.6243444675318922
 10
1074.217010736277
 20
2012.349317544627
 30
0.0
 10
1074.192660696679
 20
2012.294536921095
 30
0.0
 10
1074.168318768975
 20
2012.239561290988
 30
0.0
 10
1074.144505082386
 20
2012.184341700837
 30
0.0
1001
REVIT
1002
{
1070
     3
1000
790271
1002
}
  0
SPLINE
  5
1C6
330
19F
100
AcDbEntity
  8
M-PIPE
100
AcDbSpline
210
0.0
220
0.0
230
1.0
 70
     8
 71
     3
 72
     8
 73
     4
 74
     0
 42
0.000000001
 43
0.0000000001
 40
0.74883145890714
 40
0.74883145890714
 40
0.74883145890714
 40
0.74883145890714
 40
0.8
 40
0.8
 40
0.8
 40
0.8
 10
1073.851880504369
 20
2011.316916042696
 30
0.0
 10
1073.819575351773
 20
2011.196013096174
 30
0.0
 10
1073.795810760694
 20
2011.074206995286
 30
0.0
 10
1073.777380992066
 20
2010.951815797595
 30
0.0
1001
REVIT
1002
{
1070
     3
1000
790271
1002
}
  0
SPLINE
  5
1C7
330
19F
100
AcDbEntity
  8
M-PIPE
100
AcDbSpline
210
0.0
220
0.0
230
1.0
 70
     8
 71
     3
 72
     9
 73
     5
 74
     0
 42
0.000000001
 43
0.0000000001
 40
0.0
 40
0.0
 40
0.0
 40
0.0
 40
0.5
 40
1.0
 40
1.0
 40
1.0
 40
1.0
 10
1073.614353943081
 20
2009.508838291628
 30
0.0
 10
1073.614353943081
 20
2010.111873175203
 30
0.0
 10
1073.77109429129
 20
2011.325994816079
 30
0.0
 10
1074.242828320177
 20
2012.47303219103
 30
0.0
 10
1074.552176116586
 20
2013.008838291622
 30
0.0
1001
REVIT
1002
{
1070
     3
1000
790271
1002
}
  0
SPLINE
  5
1C8
330
19F
100
AcDbEntity
  8
M-PIPE
100
AcDbSpline
210
0.0
220
0.0
230
1.0
 70
    24
 71
     3
 72
     9
 73
     5
 74
     0
 42
0.000000001
 43
0.0000000001
 40
0.0
 40
0.0
 40
0.0
 40
0.0
 40
0.5
 40
1.0
 40
1.0
 40
1.0
 40
1.0
 10
1073.61435394308
 20
1990.45627940837
 30
0.0
 10
1073.61435394308
 20
1993.584897453295
 30
0.0
 10
1073.614353943081
 20
1999.888941978763
 30
0.0
 10
1073.614353943081
 20
2006.286603375467
 30
0.0
 10
1073.614353943081
 20
2009.508838291628
 30
0.0
1001
REVIT
1002
{
1070
     3
1000
790271
1002
}
  0
SPLINE
  5
1C9
330
19F
100
AcDbEntity
  8
M-PIPE
100
AcDbSpline
210
0.0
220
0.0
230
1.0
 70
     8
 71
     3
 72
     9
 73
     5
 74
     0
 42
0.000000001
 43
0.0000000001
 40
0.0
 40
0.0
 40
0.0
 40
0.0
 40
0.5
 40
1.0
 40
1.0
 40
1.0
 40
1.0
 10
1074.552176116589
 20
1986.956279408369
 30
0.0
 10
1074.242828320179
 20
1987.492085508961
 30
0.0
 10
1073.77109429129
 20
1988.639122883916
 30
0.0
 10
1073.61435394308
 20
1989.853244524794
 30
0.0
 10
1073.61435394308
 20
1990.45627940837
 30
0.0
1001
REVIT
1002
{
1070
     3
1000
790271
1002
}
  0
SPLINE
  5
1CA
330
19F
100
AcDbEntity
  8
M-PIPE
100
AcDbSpline
210
0.0
220
0.0
230
1.0
 70
     8
 71
     3
 72
     8
 73
     4
 74
     0
 42
0.000000001
 43
0.0000000001
 40
0.2
 40
0.2
 40
0.2
 40
0.2
 40
0.250898280771955
 40
0.250898280771955
 40
0.250898280771955
 40
0.250898280771955
 10
1073.766088940556
 20
1989.010538096908
 30
0.0
 10
1073.791751683928
 20
1988.888969841288
 30
0.0
 10
1073.821639452816
 20
1988.768721206614
 30
0.0
 10
1073.854980426356
 20
1988.649382449082
 30
0.0
1001
REVIT
1002
{
1070
     3
1000
790271
1002
}
  0
SPLINE
  5
1CB
330
19F
100
AcDbEntity
  8
M-PIPE
100
AcDbSpline
210
0.0
220
0.0
230
1.0
 70
     8
 71
     3
 72
     8
 73
     4
 74
     0
 42
0.000000001
 43
0.0000000001
 40
0.3753998267510978
 40
0.3753998267510978
 40
0.3753998267510978
 40
0.3753998267510978
 40
0.4
 40
0.4
 40
0.4
 40
0.4
 10
1074.145993961509
 20
1987.780511413506
 30
0.0
 10
1074.169082236839
 20
1987.724630775641
 30
0.0
 10
1074.19316871966
 20
1987.669275911065
 30
0.0
 10
1074.217485946972
 20
1987.613731283822
 30
0.0
1001
REVIT
1002
{
1070
     3
1000
790271
1002
}
  0
SPLINE
  5
1CC
330
19F
100
AcDbEntity
  8
M-PIPE
100
AcDbSpline
210
0.0
220
0.0
230
1.0
 70
     8
 71
     3
 72
     8
 73
     4
 74
     0
 42
0.000000001
 43
0.0000000001
 40
0.6000000000000001
 40
0.6000000000000001
 40
0.6000000000000001
 40
0.6000000000000001
 40
0.6271811010705784
 40
0.6271811010705784
 40
0.6271811010705784
 40
0.6271811010705784
 10
1074.955755147658
 20
1986.33625730105
 30
0.0
 10
1074.995130802889
 20
1986.282130540093
 30
0.0
 10
1075.034727273912
 20
1986.227895287193
 30
0.0
 10
1075.074961282088
 20
1986.174140930963
 30
0.0
1001
REVIT
1002
{
1070
     3
1000
790271
1002
}
  0
SPLINE
  5
1CD
330
19F
100
AcDbEntity
  8
M-PIPE
100
AcDbSpline
210
0.0
220
0.0
230
1.0
 70
     8
 71
     3
 72
     8
 73
     4
 74
     0
 42
0.000000001
 43
0.0000000001
 40
0.7536678542131725
 40
0.7536678542131725
 40
0.7536678542131725
 40
0.7536678542131725
 40
0.8
 40
0.8
 40
0.8
 40
0.8
 10
1075.692445940338
 20
1985.478837406419
 30
0.0
 10
1075.773013388601
 20
1985.399197903975
 30
0.0
 10
1075.857755174275
 20
1985.325330807715
 30
0.0
 10
1075.945226532954
 20
1985.255213355228
 30
0.0
1001
REVIT
1002
{
1070
     3
1000
790271
1002
}
  0
SPLINE
  5
1CE
330
19F
100
AcDbEntity
  8
M-PIPE
100
AcDbSpline
210
0.0
220
0.0
230
1.0
 70
     8
 71
     3
 72
     9
 73
     5
 74
     0
 42
0.000000001
 43
0.0000000001
 40
0.0
 40
0.0
 40
0.0
 40
0.0
 40
0.5
 40
1.0
 40
1.0
 40
1.0
 40
1.0
 10
1077.11435394308
 20
1984.394101581878
 30
0.0
 10
1076.592110414535
 20
1984.695619023666
 30
0.0
 10
1075.619020404356
 20
1985.438420967453
 30
0.0
 10
1074.861523913
 20
1986.420473307777
 30
0.0
 10
1074.552176116589
 20
1986.956279408369
 30
0.0
1001
REVIT
1002
{
1070
     3
1000
790271
1002
}
  0
SPLINE
  5
1CF
330
19F
100
AcDbEntity
  8
M-PIPE
100
AcDbSpline
210
0.0
220
0.0
230
1.0
 70
    24
 71
     3
 72
     9
 73
     5
 74
     0
 42
0.000000001
 43
0.0000000001
 40
0.0
 40
0.0
 40
0.0
 40
0.0
 40
0.5
 40
1.0
 40
1.0
 40
1.0
 40
1.0
 10
1093.61435394308
 20
1974.867822140249
 30
0.0
 10
1090.823816648723
 20
1976.47893959833
 30
0.0
 10
1085.283279354367
 20
1979.677770296682
 30
0.0
 10
1079.823816648723
 20
1982.829792559416
 30
0.0
 10
1077.11435394308
 20
1984.394101581878
 30
0.0
1001
REVIT
1002
{
1070
     3
1000
790271
1002
}
  0
ARC
  5
1D0
330
19F
100
AcDbEntity
  8
M-PIPE
100
AcDbCircle
 10
1097.114353943096
 20
1999.982558850011
 30
0.0
 40
15.19999999998781
100
AcDbArc
 50
179.9999999999996
 51
359.9999999999983
1001
REVIT
1002
{
1070
     3
1000
790271
1002
}
  0
ARC
  5
1D1
330
19F
100
AcDbEntity
  8
M-PIPE
100
AcDbCircle
 10
1097.114353943096
 20
1999.982558850011
 30
0.0
 40
15.19999999998754
100
AcDbArc
 50
0.0
 51
180.0
1001
REVIT
1002
{
1070
     3
1000
790271
1002
}
  0
ARC
  5
1D2
330
19F
100
AcDbEntity
  8
M-PIPE
100
AcDbCircle
 10
1097.114353943084
 20
1999.982558850027
 30
0.0
 40
16.6999999999999
100
AcDbArc
 50
0.0000000000007633
 51
179.9999999999992
1001
REVIT
1002
{
1070
     3
1000
790271
1002
}
  0
ARC
  5
1D3
330
19F
100
AcDbEntity
  8
M-PIPE
100
AcDbCircle
 10
1097.114353943084
 20
1999.982558850027
 30
0.0
 40
16.69999999999982
100
AcDbArc
 50
180.0000000000004
 51
0.0
1001
REVIT
1002
{
1070
     3
1000
790271
1002
}
  0
LINE
  5
1D4
330
19F
100
AcDbEntity
  8
M-PIPE
100
AcDbLine
 10
1085.31435394312
 20
2109.508503219288
 30
0.0
 11
1085.31435394312
 21
2108.592558850104
 31
0.0
1001
REVIT
1002
{
1070
     3
1000
923261
1002
}
  0
LINE
  5
1D5
330
19F
100
AcDbEntity
  8
M-PIPE
100
AcDbLine
 10
1108.91435394312
 20
2108.592558850121
 30
0.0
 11
1108.91435394312
 21
2109.508503219288
 31
0.0
1001
REVIT
1002
{
1070
     3
1000
923261
1002
}
  0
LINE
  5
1D6
330
19F
100
AcDbEntity
  8
M-PIPE
100
AcDbLine
 10
1137.772993861341
 20
2125.592558850087
 30
0.0
 11
1137.772993861341
 21
2121.592558850087
 31
0.0
1001
REVIT
1002
{
1070
     3
1000
923261
1002
}
  0
ELLIPSE
  5
1D7
330
19F
100
AcDbEntity
  8
M-PIPE
100
AcDbEllipse
 10
1116.782382596464
 20
2117.777765983343
 30
0.0
 11
0.0000000000004551
 21
3.814792866744028
 31
0.0
210
0.0
220
0.0
230
1.0
 40
0.7071067811865332
 41
0.0000000000000844
 42
1.570796326797841
1001
REVIT
1002
{
1070
     3
1000
923261
1002
}
  0
LINE
  5
1D8
330
19F
100
AcDbEntity
  8
M-PIPE
100
AcDbLine
 10
1114.084916691568
 20
2117.777765983333
 30
0.0
 11
1114.084916691584
 21
2109.508503219287
 31
0.0
1001
REVIT
1002
{
1070
     3
1000
923261
1002
}
  0
ELLIPSE
  5
1D9
330
19F
100
AcDbEntity
  8
M-PIPE
100
AcDbEllipse
 10
1099.811819847987
 20
2117.777765983343
 30
0.0
 11
0.0000000000002399
 21
3.814792866744028
 31
0.0
210
0.0
220
0.0
230
1.0
 40
0.7071067811865332
 41
0.000000000000089
 42
1.570796326797682
1001
REVIT
1002
{
1070
     3
1000
923261
1002
}
  0
LINE
  5
1DA
330
19F
100
AcDbEntity
  8
M-PIPE
100
AcDbLine
 10
1099.811819847987
 20
2121.592558850087
 30
0.0
 11
1120.802431112864
 21
2121.592558850087
 31
0.0
1001
REVIT
1002
{
1070
     3
1000
923261
1002
}
  0
LINE
  5
1DB
330
19F
100
AcDbEntity
  8
M-PIPE
100
AcDbLine
 10
1120.802431112864
 20
2121.592558850087
 30
0.0
 11
1120.802431112864
 21
2125.592558850087
 31
0.0
1001
REVIT
1002
{
1070
     3
1000
923261
1002
}
  0
LINE
  5
1DC
330
19F
100
AcDbEntity
  8
M-PIPE
100
AcDbLine
 10
1120.802431112864
 20
2125.592558850087
 30
0.0
 11
1094.285926818369
 21
2125.592558850087
 31
0.0
1001
REVIT
1002
{
1070
     3
1000
923261
1002
}
  0
ELLIPSE
  5
1DD
330
19F
100
AcDbEntity
  8
M-PIPE
100
AcDbEllipse
 10
1094.285926818369
 20
2105.592558850087
 30
0.0
 11
0.0000000000004542
 21
20.0
 31
0.0
210
0.0
220
0.0
230
1.0
 40
0.7071067811865419
 41
0.000000000000016
 42
1.373725988846905
1001
REVIT
1002
{
1070
     3
1000
923261
1002
}
  0
LINE
  5
1DE
330
19F
100
AcDbEntity
  8
M-PIPE
100
AcDbLine
 10
1080.417520642869
 20
2109.508503219287
 30
0.0
 11
1097.114353943107
 21
2109.508503219287
 31
0.0
1001
REVIT
1002
{
1070
     3
1000
923261
1002
}
  0
LINE
  5
1DF
330
19F
100
AcDbEntity
  8
M-PIPE
100
AcDbLine
 10
1097.114353943107
 20
2109.508503219287
 30
0.0
 11
1097.114353943091
 21
2117.777765983333
 31
0.0
1001
REVIT
1002
{
1070
     3
1000
923261
1002
}
  0
LINE
  5
1E0
330
19F
100
AcDbEntity
  8
M-PIPE
100
AcDbLine
 10
1120.802431112864
 20
2125.592558850087
 30
0.0
 11
1137.772993861341
 21
2125.592558850087
 31
0.0
1001
REVIT
1002
{
1070
     3
1000
923261
1002
}
  0
LINE
  5
1E1
330
19F
100
AcDbEntity
  8
M-PIPE
100
AcDbLine
 10
1120.802431112864
 20
2121.592558850087
 30
0.0
 11
1137.772993861341
 21
2121.592558850087
 31
0.0
1001
REVIT
1002
{
1070
     3
1000
923261
1002
}
  0
LINE
  5
1E2
330
19F
100
AcDbEntity
  8
M-PIPE
100
AcDbLine
 10
1097.114353943107
 20
2109.508503219287
 30
0.0
 11
1114.084916691584
 21
2109.508503219287
 31
0.0
1001
REVIT
1002
{
1070
     3
1000
923261
1002
}
  0
LINE
  5
1E3
330
19F
100
AcDbEntity
  8
M-PIPE
100
AcDbLine
 10
1109.614353943117
 20
2029.482558850012
 30
0.0
 11
1109.614353943117
 21
2046.382558850073
 31
0.0
1001
REVIT
1002
{
1070
     3
1000
923261
1002
}
  0
LINE
  5
1E4
330
19F
100
AcDbEntity
  8
M-PIPE
100
AcDbLine
 10
1084.614353943116
 20
2046.382558850073
 30
0.0
 11
1084.614353943116
 21
2029.482558850012
 31
0.0
1001
REVIT
1002
{
1070
     3
1000
923261
1002
}
  0
LINE
  5
1E5
330
19F
100
AcDbEntity
  8
M-PIPE
100
AcDbLine
 10
1064.1143539431
 20
2046.382558850074
 30
0.0
 11
1130.1143539431
 21
2046.382558850073
 31
0.0
1001
REVIT
1002
{
1070
     3
1000
923261
1002
}
  0
LINE
  5
1E6
330
19F
100
AcDbEntity
  8
M-PIPE
100
AcDbLine
 10
1118.114353943102
 20
2038.382558850073
 30
0.0
 11
1118.114353943102
 21
2046.382558850073
 31
0.0
1001
REVIT
1002
{
1070
     3
1000
923261
1002
}
  0
LINE
  5
1E7
330
19F
100
AcDbEntity
  8
M-PIPE
100
AcDbLine
 10
1063.1143539431
 20
2066.480230221086
 30
0.0
 11
1064.1143539431
 21
2066.480230221086
 31
0.0
1001
REVIT
1002
{
1070
     3
1000
923261
1002
}
  0
LINE
  5
1E8
330
19F
100
AcDbEntity
  8
M-PIPE
100
AcDbLine
 10
1130.114353943101
 20
2066.480230221086
 30
0.0
 11
1131.114353943101
 21
2066.480230221086
 31
0.0
1001
REVIT
1002
{
1070
     3
1000
923261
1002
}
  0
LINE
  5
1E9
330
19F
100
AcDbEntity
  8
M-PIPE
100
AcDbLine
 10
1114.114353943102
 20
2106.592558850073
 30
0.0
 11
1114.114353943102
 21
2109.508503219288
 31
0.0
1001
REVIT
1002
{
1070
     3
1000
923261
1002
}
  0
LINE
  5
1EA
330
19F
100
AcDbEntity
  8
M-PIPE
100
AcDbLine
 10
1118.114353943102
 20
2116.59255885001
 30
0.0
 11
1118.114353943102
 21
2121.592558850073
 31
0.0
1001
REVIT
1002
{
1070
     3
1000
923261
1002
}
  0
LINE
  5
1EB
330
19F
100
AcDbEntity
  8
M-PIPE
100
AcDbLine
 10
1109.114353943117
 20
2106.592558850073
 30
0.0
 11
1109.114353943117
 21
2108.592558850073
 31
0.0
1001
REVIT
1002
{
1070
     3
1000
923261
1002
}
  0
LINE
  5
1EC
330
19F
100
AcDbEntity
  8
M-PIPE
100
AcDbLine
 10
1085.114353943117
 20
2108.592558850073
 30
0.0
 11
1085.114353943117
 21
2106.592558850074
 31
0.0
1001
REVIT
1002
{
1070
     3
1000
923261
1002
}
  0
ARC
  5
1ED
330
19F
100
AcDbEntity
  8
M-PIPE
100
AcDbCircle
 10
1097.114353943098
 20
2087.592558850072
 30
0.0
 40
12.00000000000011
100
AcDbArc
 50
179.9999999999994
 51
359.9999999999991
1001
REVIT
1002
{
1070
     3
1000
923261
1002
}
  0
ARC
  5
1EE
330
19F
100
AcDbEntity
  8
M-PIPE
100
AcDbCircle
 10
1097.114353943098
 20
2087.592558850072
 30
0.0
 40
11.99999999999972
100
AcDbArc
 50
0.0000000000005407
 51
180.0000000000005
1001
REVIT
1002
{
1070
     3
1000
923261
1002
}
  0
ARC
  5
1EF
330
19F
100
AcDbEntity
  8
M-PIPE
100
AcDbCircle
 10
1097.114353943098
 20
2087.592558850072
 30
0.0
 40
7.999999999999772
100
AcDbArc
 50
0.0
 51
180.0
1001
REVIT
1002
{
1070
     3
1000
923261
1002
}
  0
ARC
  5
1F0
330
19F
100
AcDbEntity
  8
M-PIPE
100
AcDbCircle
 10
1097.114353943098
 20
2087.592558850072
 30
0.0
 40
8.000000000000227
100
AcDbArc
 50
180.0
 51
0.0
1001
REVIT
1002
{
1070
     3
1000
923261
1002
}
  0
LINE
  5
1F1
330
19F
100
AcDbEntity
  8
M-PIPE
100
AcDbLine
 10
1098.203800727461
 20
2046.382558850072
 30
0.0
 11
1097.114353943115
 21
2046.382558850072
 31
0.0
1001
REVIT
1002
{
1070
     3
1000
923261
1002
}
  0
LINE
  5
1F2
330
19F
100
AcDbEntity
  8
M-PIPE
100
AcDbLine
 10
1097.114353943115
 20
2046.382558850072
 30
0.0
 11
1096.024907158769
 21
2046.382558850072
 31
0.0
1001
REVIT
1002
{
1070
     3
1000
923261
1002
}
  0
LINE
  5
1F3
330
19F
100
AcDbEntity
  8
M-PIPE
100
AcDbLine
 10
1130.114353943098
 20
2066.382558850072
 30
0.0
 11
1130.114353943098
 21
2046.382558850071
 31
0.0
1001
REVIT
1002
{
1070
     3
1000
923261
1002
}
  0
LINE
  5
1F4
330
19F
100
AcDbEntity
  8
M-PIPE
100
AcDbLine
 10
1130.114353943098
 20
2066.592558850071
 30
0.0
 11
1130.114353943098
 21
2066.382558850072
 31
0.0
1001
REVIT
1002
{
1070
     3
1000
923261
1002
}
  0
LINE
  5
1F5
330
19F
100
AcDbEntity
  8
M-PIPE
100
AcDbLine
 10
1130.114353943099
 20
2106.592558850072
 30
0.0
 11
1130.114353943098
 21
2076.704887479057
 31
0.0
1001
REVIT
1002
{
1070
     3
1000
923261
1002
}
  0
LINE
  5
1F6
330
19F
100
AcDbEntity
  8
M-PIPE
100
AcDbLine
 10
1064.114353943098
 20
2076.704887479058
 30
0.0
 11
1064.114353943099
 21
2106.592558850073
 31
0.0
1001
REVIT
1002
{
1070
     3
1000
923261
1002
}
  0
LINE
  5
1F7
330
19F
100
AcDbEntity
  8
M-PIPE
100
AcDbLine
 10
1064.114353943098
 20
2046.382558850073
 30
0.0
 11
1064.114353943098
 21
2066.382558850073
 31
0.0
1001
REVIT
1002
{
1070
     3
1000
923261
1002
}
  0
LINE
  5
1F8
330
19F
100
AcDbEntity
  8
M-PIPE
100
AcDbLine
 10
1064.114353943098
 20
2066.382558850073
 30
0.0
 11
1064.114353943098
 21
2066.592558850071
 31
0.0
1001
REVIT
1002
{
1070
     3
1000
923261
1002
}
  0
LINE
  5
1F9
330
19F
100
AcDbEntity
  8
M-PIPE
100
AcDbLine
 10
1131.114353943099
 20
2076.704887479057
 30
0.0
 11
1130.114353943098
 21
2076.704887479057
 31
0.0
1001
REVIT
1002
{
1070
     3
1000
923261
1002
}
  0
LINE
  5
1FA
330
19F
100
AcDbEntity
  8
M-PIPE
100
AcDbLine
 10
1064.114353943099
 20
2106.592558850073
 30
0.0
 11
1130.114353943099
 21
2106.592558850072
 31
0.0
1001
REVIT
1002
{
1070
     3
1000
923261
1002
}
  0
LINE
  5
1FB
330
19F
100
AcDbEntity
  8
M-PIPE
100
AcDbLine
 10
1064.114353943098
 20
2076.704887479058
 30
0.0
 11
1063.114353943098
 21
2076.704887479058
 31
0.0
1001
REVIT
1002
{
1070
     3
1000
923261
1002
}
  0
LINE
  5
1FC
330
19F
100
AcDbEntity
  8
M-PIPE
100
AcDbLine
 10
1110.1143539431
 20
2038.382558850072
 30
0.0
 11
1109.61325144815
 21
2038.382558850072
 31
0.0
1001
REVIT
1002
{
1070
     3
1000
923261
1002
}
  0
LINE
  5
1FD
330
19F
100
AcDbEntity
  8
M-PIPE
100
AcDbLine
 10
1118.1143539431
 20
2038.382558850072
 30
0.0
 11
1110.1143539431
 21
2038.382558850072
 31
0.0
1001
REVIT
1002
{
1070
     3
1000
923261
1002
}
  0
LINE
  5
1FE
330
19F
100
AcDbEntity
  8
M-PIPE
100
AcDbLine
 10
1131.114353943098
 20
2066.592558850071
 30
0.0
 11
1131.114353943099
 21
2076.704887479057
 31
0.0
1001
REVIT
1002
{
1070
     3
1000
923261
1002
}
  0
LINE
  5
1FF
330
19F
100
AcDbEntity
  8
M-PIPE
100
AcDbLine
 10
1131.114353943098
 20
2066.592558850071
 30
0.0
 11
1131.114353943099
 21
2066.568477585899
 31
0.0
1001
REVIT
1002
{
1070
     3
1000
923261
1002
}
  0
LINE
  5
200
330
19F
100
AcDbEntity
  8
M-PIPE
100
AcDbLine
 10
1131.1143539431
 20
2094.592558850071
 30
0.0
 11
1131.114353943099
 21
2088.404510909429
 31
0.0
1001
REVIT
1002
{
1070
     3
1000
923261
1002
}
  0
LINE
  5
201
330
19F
100
AcDbEntity
  8
M-PIPE
100
AcDbLine
 10
1131.114353943099
 20
2088.404510909429
 30
0.0
 11
1131.114353943099
 21
2076.692868349391
 31
0.0
1001
REVIT
1002
{
1070
     3
1000
923261
1002
}
  0
LINE
  5
202
330
19F
100
AcDbEntity
  8
M-PIPE
100
AcDbLine
 10
1063.114353943099
 20
2076.692868349391
 30
0.0
 11
1063.114353943099
 21
2088.404510909429
 31
0.0
1001
REVIT
1002
{
1070
     3
1000
923261
1002
}
  0
LINE
  5
203
330
19F
100
AcDbEntity
  8
M-PIPE
100
AcDbLine
 10
1063.114353943099
 20
2088.404510909429
 30
0.0
 11
1063.1143539431
 21
2094.592558850072
 31
0.0
1001
REVIT
1002
{
1070
     3
1000
923261
1002
}
  0
LINE
  5
204
330
19F
100
AcDbEntity
  8
M-PIPE
100
AcDbLine
 10
1063.114353943098
 20
2066.568477585901
 30
0.0
 11
1063.114353943098
 21
2066.592558850071
 31
0.0
1001
REVIT
1002
{
1070
     3
1000
923261
1002
}
  0
LINE
  5
205
330
19F
100
AcDbEntity
  8
M-PIPE
100
AcDbLine
 10
1063.114353943098
 20
2076.704887479058
 30
0.0
 11
1063.114353943098
 21
2066.592558850071
 31
0.0
1001
REVIT
1002
{
1070
     3
1000
923261
1002
}
  0
LINE
  5
206
330
19F
100
AcDbEntity
  8
M-PIPE
100
AcDbLine
 10
1130.114353943098
 20
2066.592558850071
 30
0.0
 11
1131.114353943099
 21
2066.592558850071
 31
0.0
1001
REVIT
1002
{
1070
     3
1000
923261
1002
}
  0
LINE
  5
207
330
19F
100
AcDbEntity
  8
M-PIPE
100
AcDbLine
 10
1063.114353943098
 20
2066.592558850071
 30
0.0
 11
1064.114353943098
 21
2066.592558850071
 31
0.0
1001
REVIT
1002
{
1070
     3
1000
923261
1002
}
  0
LINE
  5
208
330
19F
100
AcDbEntity
  8
M-PIPE
100
AcDbLine
 10
1130.1143539431
 20
2094.592558850071
 30
0.0
 11
1131.1143539431
 21
2094.592558850071
 31
0.0
1001
REVIT
1002
{
1070
     3
1000
923261
1002
}
  0
LINE
  5
209
330
19F
100
AcDbEntity
  8
M-PIPE
100
AcDbLine
 10
1063.1143539431
 20
2094.592558850072
 30
0.0
 11
1064.1143539431
 21
2094.592558850072
 31
0.0
1001
REVIT
1002
{
1070
     3
1000
923261
1002
}
  0
LINE
  5
20A
330
19F
100
AcDbEntity
  8
M-PIPE
100
AcDbLine
 10
1130.114353943099
 20
2088.404510909429
 30
0.0
 11
1131.114353943099
 21
2088.404510909429
 31
0.0
1001
REVIT
1002
{
1070
     3
1000
923261
1002
}
  0
LINE
  5
20B
330
19F
100
AcDbEntity
  8
M-PIPE
100
AcDbLine
 10
1063.114353943099
 20
2088.404510909429
 30
0.0
 11
1064.114353943099
 21
2088.404510909429
 31
0.0
1001
REVIT
1002
{
1070
     3
1000
923261
1002
}
  0
LINE
  5
20C
330
19F
100
AcDbEntity
  8
M-PIPE
100
AcDbLine
 10
1118.1143539431
 20
2116.592558850009
 30
0.0
 11
1114.085875228723
 21
2116.592558850009
 31
0.0
1001
REVIT
1002
{
1070
     3
1000
923261
1002
}
  0
LINE
  5
20D
330
19F
100
AcDbEntity
  8
M-PIPE
100
AcDbLine
 10
1097.114353943115
 20
2108.592558850072
 30
0.0
 11
1109.114353943115
 21
2108.592558850072
 31
0.0
1001
REVIT
1002
{
1070
     3
1000
923261
1002
}
  0
LINE
  5
20E
330
19F
100
AcDbEntity
  8
M-PIPE
100
AcDbLine
 10
1085.114353943115
 20
2108.592558850072
 30
0.0
 11
1097.114353943115
 21
2108.592558850072
 31
0.0
1001
REVIT
1002
{
1070
     3
1000
923261
1002
}
  0
LINE
  5
20F
330
19F
100
AcDbEntity
  8
P-SANR-FIXT
100
AcDbLine
 10
1110.114353943099
 20
2019.612468002437
 30
0.0
 11
1110.114353943099
 21
2029.482558850012
 31
0.0
  0
LINE
  5
210
330
19F
100
AcDbEntity
  8
P-SANR-FIXT
100
AcDbLine
 10
1084.114353943099
 20
2029.482558850012
 30
0.0
 11
1084.114353943099
 21
2019.612468002457
 31
0.0
  0
LINE
  5
211
330
19F
100
AcDbEntity
  8
P-SANR-FIXT
100
AcDbLine
 10
1097.114353943098
 20
2029.482558850011
 30
0.0
 11
1110.114353943098
 21
2029.482558850011
 31
0.0
  0
LINE
  5
212
330
19F
100
AcDbEntity
  8
P-SANR-FIXT
100
AcDbLine
 10
1084.114353943097
 20
2029.482558850011
 30
0.0
 11
1097.114353943097
 21
2029.482558850011
 31
0.0
  0
ENDBLK
  5
214
330
19F
100
AcDbEntity
  8
0
100
AcDbBlockEnd
  0
ENDSEC
  0
SECTION
  2
ENTITIES
  0
INSERT
  5
143
330
71
100
AcDbEntity
  8
P-SANR-FIXT
100
AcDbBlockReference
  2
Automatic flow rate regulator valve_Caleffi_121 DN15 - 1_2__-859151-Est - Idraulica
 10
0.0
 20
0.0
 30
0.0
1001
REVIT
1002
{
1070
     1
1000
863131
1002
}
1002
{
1070
     5
1000
859151
1002
}
1002
{
1070
     2
1000
-2001160
1002
}
  0
INSERT
  5
19E
330
71
100
AcDbEntity
  8
P-SANR-FIXT
100
AcDbBlockReference
  2
Automatic flow rate regulator valve_Caleffi_121 DN15 - 1_2__-V1-Est - Idraulica
 10
0.0
 20
0.0
 30
0.0
1001
REVIT
1002
{
1070
     1
1000
863152
1002
}
1002
{
1070
     5
1000
859151
1002
}
1002
{
1070
     2
1000
-2001160
1002
}
  0
INSERT
  5
215
330
71
100
AcDbEntity
  8
P-SANR-FIXT
100
AcDbBlockReference
  2
Automatic flow rate regulator valve_Caleffi_121 DN15 - 1_2__-V2-Est - Idraulica
 10
0.0
 20
0.0
 30
0.0
1001
REVIT
1002
{
1070
     1
1000
863172
1002
}
1002
{
1070
     5
1000
859151
1002
}
1002
{
1070
     2
1000
-2001160
1002
}
  0
ENDSEC
  0
SECTION
  2
OBJECTS
  0
DICTIONARY
  5
C
330
0
100
AcDbDictionary
281
     1
  3
ACAD_CIP_PREVIOUS_PRODUCT_INFO
350
7A
  3
ACAD_COLOR
350
63
  3
ACAD_DETAILVIEWSTYLE
350
6B
  3
ACAD_GROUP
350
D
  3
ACAD_IMAGE_VARS
350
7B
  3
ACAD_LAYOUT
350
62
  3
ACAD_MATERIAL
350
10
  3
ACAD_MLEADERSTYLE
350
66
  3
ACAD_MLINESTYLE
350
5F
  3
ACAD_PLOTSETTINGS
350
61
  3
ACAD_PLOTSTYLENAME
350
E
  3
ACAD_SCALELIST
350
42
  3
ACAD_SECTIONVIEWSTYLE
350
68
  3
ACAD_TABLESTYLE
350
64
  3
ACAD_VISUALSTYLE
350
29
  3
ACDB_RECOMPOSE_DATA
350
220
  3
AcDbVariableDictionary
350
7C
  3
REVIT_DICTIONARY
350
217
  0
DICTIONARY
  5
21C
330
71
100
AcDbDictionary
280
     1
281
     1
  3
ACAD_SORTENTS
360
21D
  0
XRECORD
  5
7A
102
{ACAD_REACTORS
330
C
102
}
330
C
100
AcDbXrecord
280
     1
300
RVT
300
2013
300
RVT2013
  0
DICTIONARY
  5
63
102
{ACAD_REACTORS
330
C
102
}
330
C
100
AcDbDictionary
281
     1
  0
DICTIONARY
  5
6B
102
{ACAD_REACTORS
330
C
102
}
330
C
100
AcDbDictionary
281
     1
  3
Imperial24
350
6C
  0
DICTIONARY
  5
D
102
{ACAD_REACTORS
330
C
102
}
330
C
100
AcDbDictionary
281
     1
  0
RASTERVARIABLES
  5
7B
102
{ACAD_REACTORS
330
C
102
}
330
C
100
AcDbRasterVariables
 90
        0
 70
     0
 71
     1
 72
     1
  0
DICTIONARY
  5
62
102
{ACAD_REACTORS
330
C
102
}
330
C
100
AcDbDictionary
281
     1
  3
Layout1
350
70
  3
Layout2
350
78
  3
Model
350
74
  0
DICTIONARY
  5
10
102
{ACAD_REACTORS
330
C
102
}
330
C
100
AcDbDictionary
281
     1
  3
ByBlock
350
19
  3
ByLayer
350
11
  3
Global
350
21
  0
DICTIONARY
  5
66
102
{ACAD_REACTORS
330
C
102
}
330
C
100
AcDbDictionary
281
     1
  3
Standard
350
67
  0
DICTIONARY
  5
5F
102
{ACAD_REACTORS
330
C
102
}
330
C
100
AcDbDictionary
281
     1
  3
Standard
350
60
  0
DICTIONARY
  5
61
102
{ACAD_REACTORS
330
C
102
}
330
C
100
AcDbDictionary
281
     1
  0
ACDBDICTIONARYWDFLT
  5
E
102
{ACAD_REACTORS
330
C
102
}
330
C
100
AcDbDictionary
281
     1
  3
Normal
350
F
100
AcDbDictionaryWithDefault
340
F
  0
DICTIONARY
  5
42
102
{ACAD_REACTORS
330
C
102
}
330
C
100
AcDbDictionary
281
     1
  3
A0
350
43
  3
A1
350
44
  3
A2
350
45
  3
A3
350
46
  3
A4
350
47
  3
A5
350
48
  3
A6
350
49
  3
A7
350
4A
  3
A8
350
4B
  3
A9
350
4C
  3
B0
350
4D
  3
B1
350
4E
  3
B2
350
4F
  3
B3
350
50
  3
B4
350
51
  3
B5
350
52
  3
B6
350
53
  0
DICTIONARY
  5
68
102
{ACAD_REACTORS
330
C
102
}
330
C
100
AcDbDictionary
281
     1
  3
Imperial24
350
6A
  0
DICTIONARY
  5
64
102
{ACAD_REACTORS
330
C
102
}
330
C
100
AcDbDictionary
281
     1
  3
Standard
350
65
  0
DICTIONARY
  5
29
102
{ACAD_REACTORS
330
C
102
}
330
C
100
AcDbDictionary
281
     1
  3
2dWireframe
350
2F
  3
Basic
350
2E
  3
Brighten
350
35
  3
ColorChange
350
39
  3
Conceptual
350
32
  3
Dim
350
34
  3
EdgeColorOff
350
41
  3
Facepattern
350
38
  3
Flat
350
2A
  3
FlatWithEdges
350
2B
  3
Gouraud
350
2C
  3
GouraudWithEdges
350
2D
  3
Hidden
350
31
  3
JitterOff
350
3F
  3
Linepattern
350
37
  3
OverhangOff
350
40
  3
Realistic
350
33
  3
Shaded
350
3E
  3
Shaded with edges
350
3D
  3
Shades of Gray
350
3A
  3
Sketchy
350
3B
  3
Thicken
350
36
  3
Wireframe
350
30
  3
X-Ray
350
3C
  0
XRECORD
  5
220
102
{ACAD_REACTORS
330
C
102
}
330
C
100
AcDbXrecord
280
     1
 90
        1
330
65
  0
DICTIONARY
  5
7C
102
{ACAD_REACTORS
330
C
102
}
330
C
100
AcDbDictionary
281
     1
  3
CANNOSCALE
350
81
  3
CMLEADERSTYLE
350
7E
  3
CTABLESTYLE
350
7D
  3
CVIEWDETAILSTYLE
350
7F
  3
CVIEWSECTIONSTYLE
350
80
  0
DICTIONARY
  5
217
102
{ACAD_REACTORS
330
C
102
}
330
C
100
AcDbDictionary
281
     1
  3
DRAWING_TOOL
350
21B
  3
REVIT_CATEGORY_MAPPING
350
219
  3
REVIT_SUB_CATEGORY_MAPPING
350
21A
  3
REVIT_TYPE_MAPPING
350
218
  0
SORTENTSTABLE
  5
21D
102
{ACAD_REACTORS
330
21C
102
}
330
21C
100
AcDbSortentsTable
330
71
  0
ACDBDETAILVIEWSTYLE
  5
6C
102
{ACAD_REACTORS
330
6B
102
}
330
6B
100
AcDbModelDocViewStyle
 70
     0
  3
Imperial24
290
     1
100
AcDbDetailViewStyle
 70
     0
 71
     0
 90
        3
 71
     1
340
55
 62
   256
 40
0.24
340
0
 62
   256
 40
0.24
300

 40
0.36
280
     3
 71
     2
340
5D
 90
       25
 62
   256
 71
     3
340
55
 62
   256
 40
0.24
 90
        1
 40
0.75
 90
        1
300
%<\AcVar ViewType \f "%tc1">% %<\AcVar ViewDetailId>%\PSCALA %<\AcVar ViewScale \f "%sn">%
 71
     4
340
5D
 90
       25
 62
   256
340
5D
 90
       25
 62
   256
280
     0
  0
LAYOUT
  5
70
102
{ACAD_REACTORS
330
62
102
}
330
62
100
AcDbPlotSettings
  1

  2

  4

  6

 40
0.0
 41
0.0
 42
0.0
 43
0.0
 44
0.0
 45
0.0
 46
0.0
 47
0.0
 48
0.0
 49
0.0
140
0.0
141
0.0
142
1.0
143
1.0
 70
   688
 72
     0
 73
     0
 74
     5
  7

 75
    16
147
1.0
 76
     0
 77
     2
 78
   300
148
0.0
149
0.0
100
AcDbLayout
  1
Layout1
 70
     1
 71
     1
 10
0.0
 20
0.0
 11
12.0
 21
9.0
 12
0.0
 22
0.0
 32
0.0
 14
0.0
 24
0.0
 34
0.0
 15
0.0
 25
0.0
 35
0.0
146
0.0
 13
0.0
 23
0.0
 33
0.0
 16
1.0
 26
0.0
 36
0.0
 17
0.0
 27
1.0
 37
0.0
 76
     0
330
6D
  0
LAYOUT
  5
78
102
{ACAD_REACTORS
330
62
102
}
330
62
100
AcDbPlotSettings
  1

  2

  4

  6

 40
0.0
 41
0.0
 42
0.0
 43
0.0
 44
0.0
 45
0.0
 46
0.0
 47
0.0
 48
0.0
 49
0.0
140
0.0
141
0.0
142
1.0
143
1.0
 70
   688
 72
     0
 73
     0
 74
     5
  7

 75
    16
147
1.0
 76
     0
 77
     2
 78
   300
148
0.0
149
0.0
100
AcDbLayout
  1
Layout2
 70
     1
 71
     2
 10
0.0
 20
0.0
 11
12.0
 21
9.0
 12
0.0
 22
0.0
 32
0.0
 14
0.0
 24
0.0
 34
0.0
 15
0.0
 25
0.0
 35
0.0
146
0.0
 13
0.0
 23
0.0
 33
0.0
 16
1.0
 26
0.0
 36
0.0
 17
0.0
 27
1.0
 37
0.0
 76
     0
330
75
  0
LAYOUT
  5
74
102
{ACAD_REACTORS
330
62
102
}
330
62
100
AcDbPlotSettings
  1

  2

  4

  6

 40
0.0
 41
0.0
 42
0.0
 43
0.0
 44
0.0
 45
0.0
 46
0.0
 47
0.0
 48
0.0
 49
0.0
140
0.0
141
0.0
142
1.0
143
1.0
 70
  1712
 72
     0
 73
     0
 74
     0
  7

 75
     0
147
1.0
 76
     0
 77
     2
 78
   300
148
0.0
149
0.0
100
AcDbLayout
  1
Model
 70
     1
 71
     0
 10
0.0
 20
0.0
 11
12.0
 21
9.0
 12
0.0
 22
0.0
 32
0.0
 14
0.0
 24
0.0
 34
0.0
 15
0.0
 25
0.0
 35
0.0
146
0.0
 13
0.0
 23
0.0
 33
0.0
 16
1.0
 26
0.0
 36
0.0
 17
0.0
 27
1.0
 37
0.0
 76
     0
330
71
  0
MATERIAL
  5
19
102
{ACAD_XDICTIONARY
360
1A
102
}
102
{ACAD_REACTORS
330
10
102
}
330
10
100
AcDbMaterial
  1
ByBlock
 72
     0
 43
0.0208333333333333
 43
0.0
 43
0.0
 43
0.0
 43
0.0
 43
0.0208333333333333
 43
0.0
 43
0.0
 43
0.0
 43
0.0
 43
1.0
 43
0.0
 43
0.0
 43
0.0
 43
0.0
 43
1.0
 77
     0
 47
0.0208333333333333
 47
0.0
 47
0.0
 47
0.0
 47
0.0
 47
0.0208333333333333
 47
0.0
 47
0.0
 47
0.0
 47
0.0
 47
1.0
 47
0.0
 47
0.0
 47
0.0
 47
0.0
 47
1.0
171
     0
 49
0.0208333333333333
 49
0.0
 49
0.0
 49
0.0
 49
0.0
 49
0.0208333333333333
 49
0.0
 49
0.0
 49
0.0
 49
0.0
 49
1.0
 49
0.0
 49
0.0
 49
0.0
 49
0.0
 49
1.0
175
     0
142
0.0208333333333333
142
0.0
142
0.0
142
0.0
142
0.0
142
0.0208333333333333
142
0.0
142
0.0
142
0.0
142
0.0
142
1.0
142
0.0
142
0.0
142
0.0
142
0.0
142
1.0
179
     0
144
0.0208333333333333
144
0.0
144
0.0
144
0.0
144
0.0
144
0.0208333333333333
144
0.0
144
0.0
144
0.0
144
0.0
144
1.0
144
0.0
144
0.0
144
0.0
144
0.0
144
1.0
147
0.0208333333333333
147
0.0
147
0.0
147
0.0
147
0.0
147
0.0208333333333333
147
0.0
147
0.0
147
0.0
147
0.0
147
1.0
147
0.0
147
0.0
147
0.0
147
0.0
147
1.0
  0
MATERIAL
  5
11
102
{ACAD_XDICTIONARY
360
12
102
}
102
{ACAD_REACTORS
330
10
102
}
330
10
100
AcDbMaterial
  1
ByLayer
 72
     0
 43
0.0208333333333333
 43
0.0
 43
0.0
 43
0.0
 43
0.0
 43
0.0208333333333333
 43
0.0
 43
0.0
 43
0.0
 43
0.0
 43
1.0
 43
0.0
 43
0.0
 43
0.0
 43
0.0
 43
1.0
 77
     0
 47
0.0208333333333333
 47
0.0
 47
0.0
 47
0.0
 47
0.0
 47
0.0208333333333333
 47
0.0
 47
0.0
 47
0.0
 47
0.0
 47
1.0
 47
0.0
 47
0.0
 47
0.0
 47
0.0
 47
1.0
171
     0
 49
0.0208333333333333
 49
0.0
 49
0.0
 49
0.0
 49
0.0
 49
0.0208333333333333
 49
0.0
 49
0.0
 49
0.0
 49
0.0
 49
1.0
 49
0.0
 49
0.0
 49
0.0
 49
0.0
 49
1.0
175
     0
142
0.0208333333333333
142
0.0
142
0.0
142
0.0
142
0.0
142
0.0208333333333333
142
0.0
142
0.0
142
0.0
142
0.0
142
1.0
142
0.0
142
0.0
142
0.0
142
0.0
142
1.0
179
     0
144
0.0208333333333333
144
0.0
144
0.0
144
0.0
144
0.0
144
0.0208333333333333
144
0.0
144
0.0
144
0.0
144
0.0
144
1.0
144
0.0
144
0.0
144
0.0
144
0.0
144
1.0
147
0.0208333333333333
147
0.0
147
0.0
147
0.0
147
0.0
147
0.0208333333333333
147
0.0
147
0.0
147
0.0
147
0.0
147
1.0
147
0.0
147
0.0
147
0.0
147
0.0
147
1.0
  0
MATERIAL
  5
21
102
{ACAD_XDICTIONARY
360
22
102
}
102
{ACAD_REACTORS
330
10
102
}
330
10
100
AcDbMaterial
  1
Global
 72
     0
 43
0.0208333333333333
 43
0.0
 43
0.0
 43
0.0
 43
0.0
 43
0.0208333333333333
 43
0.0
 43
0.0
 43
0.0
 43
0.0
 43
1.0
 43
0.0
 43
0.0
 43
0.0
 43
0.0
 43
1.0
 77
     0
 47
0.0208333333333333
 47
0.0
 47
0.0
 47
0.0
 47
0.0
 47
0.0208333333333333
 47
0.0
 47
0.0
 47
0.0
 47
0.0
 47
1.0
 47
0.0
 47
0.0
 47
0.0
 47
0.0
 47
1.0
171
     0
 49
0.0208333333333333
 49
0.0
 49
0.0
 49
0.0
 49
0.0
 49
0.0208333333333333
 49
0.0
 49
0.0
 49
0.0
 49
0.0
 49
1.0
 49
0.0
 49
0.0
 49
0.0
 49
0.0
 49
1.0
175
     0
142
0.0208333333333333
142
0.0
142
0.0
142
0.0
142
0.0
142
0.0208333333333333
142
0.0
142
0.0
142
0.0
142
0.0
142
1.0
142
0.0
142
0.0
142
0.0
142
0.0
142
1.0
179
     0
144
0.0208333333333333
144
0.0
144
0.0
144
0.0
144
0.0
144
0.0208333333333333
144
0.0
144
0.0
144
0.0
144
0.0
144
1.0
144
0.0
144
0.0
144
0.0
144
0.0
144
1.0
147
0.0208333333333333
147
0.0
147
0.0
147
0.0
147
0.0
147
0.0208333333333333
147
0.0
147
0.0
147
0.0
147
0.0
147
1.0
147
0.0
147
0.0
147
0.0
147
0.0
147
1.0
  0
MLEADERSTYLE
  5
67
102
{ACAD_REACTORS
330
66
102
}
330
66
100
AcDbMLeaderStyle
179
     2
170
     2
171
     1
172
     0
 90
        2
 40
0.0
 41
0.0
173
     1
 91
-1056964608
340
5B
 92
       -2
290
     1
 42
0.09
291
     1
 43
0.36
  3
Standard
 44
0.18
300

342
55
174
     1
178
     6
175
     1
176
     0
 93
-1056964608
 45
0.18
292
     0
297
     0
 46
0.18
 94
-1056964608
 47
1.0
 49
1.0
140
1.0
293
     1
141
0.0
294
     1
177
     0
142
1.0
295
     1
296
     0
143
0.125
271
     0
272
     9
273
     9
298
     1
  0
MLINESTYLE
  5
60
102
{ACAD_REACTORS
330
5F
102
}
330
5F
100
AcDbMlineStyle
  2
STANDARD
 70
     0
  3

 62
   256
 51
90.0
 52
90.0
 71
     2
 49
0.5
 62
   256
  6
BYLAYER
 49
-0.5
 62
   256
  6
BYLAYER
  0
ACDBPLACEHOLDER
  5
F
102
{ACAD_REACTORS
330
E
102
}
330
E
  0
SCALE
  5
43
102
{ACAD_REACTORS
330
42
102
}
330
42
100
AcDbScale
 70
     0
300
1:1
140
1.0
141
1.0
290
     1
  0
SCALE
  5
44
102
{ACAD_REACTORS
330
42
102
}
330
42
100
AcDbScale
 70
     0
300
1/128" = 1'-0"
140
0.0078125
141
12.0
290
     0
  0
SCALE
  5
45
102
{ACAD_REACTORS
330
42
102
}
330
42
100
AcDbScale
 70
     0
300
1/64" = 1'-0"
140
0.015625
141
12.0
290
     0
  0
SCALE
  5
46
102
{ACAD_REACTORS
330
42
102
}
330
42
100
AcDbScale
 70
     0
300
1/32" = 1'-0"
140
0.03125
141
12.0
290
     0
  0
SCALE
  5
47
102
{ACAD_REACTORS
330
42
102
}
330
42
100
AcDbScale
 70
     0
300
1/16" = 1'-0"
140
0.0625
141
12.0
290
     0
  0
SCALE
  5
48
102
{ACAD_REACTORS
330
42
102
}
330
42
100
AcDbScale
 70
     0
300
3/32" = 1'-0"
140
0.09375
141
12.0
290
     0
  0
SCALE
  5
49
102
{ACAD_REACTORS
330
42
102
}
330
42
100
AcDbScale
 70
     0
300
1/8" = 1'-0"
140
0.125
141
12.0
290
     0
  0
SCALE
  5
4A
102
{ACAD_REACTORS
330
42
102
}
330
42
100
AcDbScale
 70
     0
300
3/16" = 1'-0"
140
0.1875
141
12.0
290
     0
  0
SCALE
  5
4B
102
{ACAD_REACTORS
330
42
102
}
330
42
100
AcDbScale
 70
     0
300
1/4" = 1'-0"
140
0.25
141
12.0
290
     0
  0
SCALE
  5
4C
102
{ACAD_REACTORS
330
42
102
}
330
42
100
AcDbScale
 70
     0
300
3/8" = 1'-0"
140
0.375
141
12.0
290
     0
  0
SCALE
  5
4D
102
{ACAD_REACTORS
330
42
102
}
330
42
100
AcDbScale
 70
     0
300
1/2" = 1'-0"
140
0.5
141
12.0
290
     0
  0
SCALE
  5
4E
102
{ACAD_REACTORS
330
42
102
}
330
42
100
AcDbScale
 70
     0
300
3/4" = 1'-0"
140
0.75
141
12.0
290
     0
  0
SCALE
  5
4F
102
{ACAD_REACTORS
330
42
102
}
330
42
100
AcDbScale
 70
     0
300
1" = 1'-0"
140
1.0
141
12.0
290
     0
  0
SCALE
  5
50
102
{ACAD_REACTORS
330
42
102
}
330
42
100
AcDbScale
 70
     0
300
1-1/2" = 1'-0"
140
1.5
141
12.0
290
     0
  0
SCALE
  5
51
102
{ACAD_REACTORS
330
42
102
}
330
42
100
AcDbScale
 70
     0
300
3" = 1'-0"
140
3.0
141
12.0
290
     0
  0
SCALE
  5
52
102
{ACAD_REACTORS
330
42
102
}
330
42
100
AcDbScale
 70
     0
300
6" = 1'-0"
140
6.0
141
12.0
290
     0
  0
SCALE
  5
53
102
{ACAD_REACTORS
330
42
102
}
330
42
100
AcDbScale
 70
     0
300
1'-0" = 1'-0"
140
12.0
141
12.0
290
     0
  0
ACDBSECTIONVIEWSTYLE
  5
6A
102
{ACAD_REACTORS
330
68
102
}
330
68
100
AcDbModelDocViewStyle
 70
     0
  3
Imperial24
290
     1
100
AcDbSectionViewStyle
 70
     0
 71
     0
 90
       78
 71
     1
340
55
 62
   256
 40
0.24
340
0
340
0
 62
   256
 40
0.24
300
I, O, Q, S, X, Z
 40
0.48
 90
        3
 40
0.18
 90
        1
 71
     2
340
69
 90
       25
 62
   256
340
5D
 90
       50
 62
   256
 40
0.24
 40
0.0
 40
0.24
 71
     3
340
55
 62
   256
 40
0.24
 90
        1
 40
0.75
 90
        1
300
%<\AcVar ViewType \f "%tc1">% %<\AcVar ViewSectionStartId>%-%<\AcVar ViewSectionEndId>%\PSCALA %<\AcVar ViewScale \f "%sn">%
 71
     4
 62
   256
 62
   257
300
ANSI31
 40
1.0
 90
        0
290
     0
290
     0
 90
        6
 40
0.0
 40
1.570796326794896
 40
0.2617993877991494
 40
1.308996938995747
 40
-0.2617993877991494
 40
1.832595714594046
  0
TABLESTYLE
  5
65
102
{ACAD_XDICTIONARY
360
21E
102
}
102
{ACAD_REACTORS
330
64
102
}
330
64
100
AcDbTableStyle
280
     0
  3
Standard
 70
     0
 71
     0
 40
0.06
 41
0.06
280
     0
281
     0
  7
Standard
140
0.18
170
     2
 62
     0
 63
     7
283
     0
 90
      512
 91
        0
  1

274
    -2
284
     1
 64
     0
275
    -2
285
     1
 65
     0
276
    -2
286
     1
 66
     0
277
    -2
287
     1
 67
     0
278
    -2
288
     1
 68
     0
279
    -2
289
     1
 69
     0
  7
Standard
140
0.25
170
     5
 62
     0
 63
     7
283
     0
 90
      512
 91
        0
  1

274
    -2
284
     1
 64
     0
275
    -2
285
     1
 65
     0
276
    -2
286
     1
 66
     0
277
    -2
287
     1
 67
     0
278
    -2
288
     1
 68
     0
279
    -2
289
     1
 69
     0
  7
Standard
140
0.18
170
     5
 62
     0
 63
     7
283
     0
 90
      512
 91
        0
  1

274
    -2
284
     1
 64
     0
275
    -2
285
     1
 65
     0
276
    -2
286
     1
 66
     0
277
    -2
287
     1
 67
     0
278
    -2
288
     1
 68
     0
279
    -2
289
     1
 69
     0
  0
VISUALSTYLE
  5
2F
102
{ACAD_REACTORS
330
29
102
}
330
29
100
AcDbVisualStyle
  2
2dWireframe
 70
     4
177
     3
291
     0
 70
    58
 90
        0
176
     1
 90
        2
176
     1
 90
        0
176
     1
 90
        0
176
     1
 40
0.6
176
     1
 40
30.0
176
     1
 62
     7
420
 16777215
176
     1
 90
        1
176
     1
 90
        4
176
     1
 62
     7
176
     1
 62
   257
176
     1
 90
        1
176
     1
 90
        1
176
     1
 40
1.0
176
     1
 90
        0
176
     1
 62
   257
176
     1
 40
1.0
176
     1
 90
        1
176
     1
 90
        6
176
     1
 90
        2
176
     1
 62
     7
176
     1
 90
        5
176
     1
 90
        0
176
     1
 90
        0
176
     1
290
     0
176
     1
 90
        1
176
     1
 40
0.0
176
     1
 90
        0
176
     1
290
     1
176
     1
290
     1
176
     1
290
     0
176
     1
290
     0
176
     1
290
     0
176
     1
290
     0
176
     1
290
     0
176
     1
290
     0
176
     1
290
     0
176
     1
 90
       50
176
     1
 40
0.0
176
     1
 40
1.0
176
     1
 90
        0
176
     1
 62
    18
420
        0
176
     1
 90
       50
176
     1
 90
        3
176
     1
 62
     5
420
      255
176
     1
290
     0
176
     1
 90
       50
176
     1
 90
       50
176
     1
 90
       50
176
     1
290
     0
176
     1
 90
       50
176
     1
 62
   256
176
     0
 40
1.0
176
     0
 90
        2
176
     1
  1
strokes_ogs.tif
176
     1
290
     0
176
     1
 40
1.0
176
     1
 40
1.0
176
     1
  0
VISUALSTYLE
  5
2E
102
{ACAD_REACTORS
330
29
102
}
330
29
100
AcDbVisualStyle
  2
Basic
 70
     7
177
     3
291
     1
 70
    58
 90
        1
176
     1
 90
        0
176
     1
 90
        1
176
     1
 90
        0
176
     1
 40
0.6
176
     1
 40
30.0
176
     1
 62
     7
420
 16777215
176
     1
 90
        0
176
     1
 90
        4
176
     1
 62
     7
176
     1
 62
   257
176
     1
 90
        1
176
     1
 90
        1
176
     1
 40
1.0
176
     1
 90
        8
176
     1
 62
     7
176
     1
 40
1.0
176
     1
 90
        1
176
     1
 90
        6
176
     1
 90
        2
176
     1
 62
     7
176
     1
 90
        5
176
     1
 90
        0
176
     1
 90
        0
176
     1
290
     0
176
     1
 90
        1
176
     1
 40
0.0
176
     1
 90
        0
176
     1
290
     0
176
     1
290
     1
176
     1
290
     1
176
     1
290
     0
176
     1
290
     0
176
     1
290
     0
176
     1
290
     0
176
     1
290
     0
176
     1
290
     0
176
     1
 90
       50
176
     1
 40
0.0
176
     1
 40
1.0
176
     1
 90
        0
176
     1
 62
    18
420
        0
176
     1
 90
       50
176
     1
 90
        3
176
     1
 62
     5
420
      255
176
     1
290
     0
176
     1
 90
       50
176
     1
 90
       50
176
     1
 90
       50
176
     1
290
     0
176
     1
 90
       50
176
     1
 62
   256
176
     0
 40
1.0
176
     0
 90
        2
176
     1
  1
strokes_ogs.tif
176
     1
290
     0
176
     1
 40
1.0
176
     1
 40
1.0
176
     1
  0
VISUALSTYLE
  5
35
102
{ACAD_REACTORS
330
29
102
}
330
29
100
AcDbVisualStyle
  2
Brighten
 70
    12
177
     3
291
     1
 70
    58
 90
        2
176
     1
 90
        2
176
     1
 90
        0
176
     1
 90
        0
176
     1
 40
0.6
176
     1
 40
30.0
176
     1
 62
     7
420
 16777215
176
     1
 90
        1
176
     1
 90
        4
176
     1
 62
     7
176
     1
 62
   257
176
     1
 90
        1
176
     1
 90
        1
176
     1
 40
1.0
176
     1
 90
        8
176
     1
 62
     7
176
     1
 40
1.0
176
     1
 90
        1
176
     1
 90
        6
176
     1
 90
        2
176
     1
 62
     7
176
     1
 90
        5
176
     1
 90
        0
176
     1
 90
        0
176
     1
290
     0
176
     1
 90
        1
176
     1
 40
50.0
176
     1
 90
        0
176
     1
290
     0
176
     1
290
     1
176
     1
290
     1
176
     1
290
     0
176
     1
290
     0
176
     1
290
     0
176
     1
290
     0
176
     1
290
     0
176
     1
290
     0
176
     1
 90
       50
176
     1
 40
0.0
176
     1
 40
1.0
176
     1
 90
        0
176
     1
 62
    18
420
        0
176
     1
 90
       50
176
     1
 90
        3
176
     1
 62
     5
420
      255
176
     1
290
     0
176
     1
 90
       50
176
     1
 90
       50
176
     1
 90
       50
176
     1
290
     0
176
     1
 90
       50
176
     1
 62
   256
176
     0
 40
1.0
176
     0
 90
        2
176
     1
  1
strokes_ogs.tif
176
     1
290
     0
176
     1
 40
1.0
176
     1
 40
1.0
176
     1
  0
VISUALSTYLE
  5
39
102
{ACAD_REACTORS
330
29
102
}
330
29
100
AcDbVisualStyle
  2
ColorChange
 70
    16
177
     3
291
     1
 70
    58
 90
        2
176
     1
 90
        2
176
     1
 90
        3
176
     1
 90
        0
176
     1
 40
0.6
176
     1
 40
30.0
176
     1
 62
     8
420
  8421504
176
     1
 90
        1
176
     1
 90
        4
176
     1
 62
     7
176
     1
 62
   257
176
     1
 90
        1
176
     1
 90
        1
176
     1
 40
1.0
176
     1
 90
        8
176
     1
 62
     8
420
  8421504
176
     1
 40
1.0
176
     1
 90
        1
176
     1
 90
        6
176
     1
 90
        2
176
     1
 62
     7
176
     1
 90
        5
176
     1
 90
        0
176
     1
 90
        0
176
     1
290
     0
176
     1
 90
        1
176
     1
 40
0.0
176
     1
 90
        0
176
     1
290
     0
176
     1
290
     1
176
     1
290
     1
176
     1
290
     0
176
     1
290
     0
176
     1
290
     0
176
     1
290
     0
176
     1
290
     0
176
     1
290
     0
176
     1
 90
       50
176
     1
 40
0.0
176
     1
 40
1.0
176
     1
 90
        0
176
     1
 62
    18
420
        0
176
     1
 90
       50
176
     1
 90
        3
176
     1
 62
     5
420
      255
176
     1
290
     0
176
     1
 90
       50
176
     1
 90
       50
176
     1
 90
       50
176
     1
290
     0
176
     1
 90
       50
176
     1
 62
   256
176
     0
 40
1.0
176
     0
 90
        2
176
     1
  1
strokes_ogs.tif
176
     1
290
     0
176
     1
 40
1.0
176
     1
 40
1.0
176
     1
  0
VISUALSTYLE
  5
32
102
{ACAD_REACTORS
330
29
102
}
330
29
100
AcDbVisualStyle
  2
Conceptual
 70
     9
177
     3
291
     0
 70
    58
 90
        3
176
     1
 90
        2
176
     1
 90
        0
176
     1
 90
        0
176
     1
 40
0.6
176
     1
 40
30.0
176
     1
 62
     7
420
 16777215
176
     1
 90
        2
176
     1
 90
        2
176
     1
 62
     7
176
     1
 62
   257
176
     1
 90
        1
176
     1
 90
        1
176
     1
 40
179.0
176
     1
 90
        8
176
     1
 62
     7
176
     1
 40
1.0
176
     1
 90
        1
176
     1
 90
        6
176
     1
 90
        2
176
     1
 62
     7
176
     1
 90
        3
176
     1
 90
        0
176
     1
 90
        0
176
     1
290
     0
176
     1
 90
        1
176
     1
 40
0.0
176
     1
 90
        0
176
     1
290
     0
176
     1
290
     1
176
     1
290
     1
176
     1
290
     0
176
     1
290
     0
176
     1
290
     0
176
     1
290
     0
176
     1
290
     0
176
     1
290
     0
176
     1
 90
       50
176
     1
 40
0.0
176
     1
 40
1.0
176
     1
 90
        0
176
     1
 62
    18
420
        0
176
     1
 90
       50
176
     1
 90
        3
176
     1
 62
     5
420
      255
176
     1
290
     0
176
     1
 90
       50
176
     1
 90
       50
176
     1
 90
       50
176
     1
290
     0
176
     1
 90
       50
176
     1
 62
   256
176
     0
 40
1.0
176
     0
 90
        2
176
     1
  1
strokes_ogs.tif
176
     1
290
     0
176
     1
 40
1.0
176
     1
 40
1.0
176
     1
  0
VISUALSTYLE
  5
34
102
{ACAD_REACTORS
330
29
102
}
330
29
100
AcDbVisualStyle
  2
Dim
 70
    11
177
     3
291
     1
 70
    58
 90
        2
176
     1
 90
        2
176
     1
 90
        0
176
     1
 90
        0
176
     1
 40
0.6
176
     1
 40
30.0
176
     1
 62
     7
420
 16777215
176
     1
 90
        1
176
     1
 90
        4
176
     1
 62
     7
176
     1
 62
   257
176
     1
 90
        1
176
     1
 90
        1
176
     1
 40
1.0
176
     1
 90
        8
176
     1
 62
     7
176
     1
 40
1.0
176
     1
 90
        1
176
     1
 90
        6
176
     1
 90
        2
176
     1
 62
     7
176
     1
 90
        5
176
     1
 90
        0
176
     1
 90
        0
176
     1
290
     0
176
     1
 90
        1
176
     1
 40
-50.0
176
     1
 90
        0
176
     1
290
     0
176
     1
290
     1
176
     1
290
     1
176
     1
290
     0
176
     1
290
     0
176
     1
290
     0
176
     1
290
     0
176
     1
290
     0
176
     1
290
     0
176
     1
 90
       50
176
     1
 40
0.0
176
     1
 40
1.0
176
     1
 90
        0
176
     1
 62
    18
420
        0
176
     1
 90
       50
176
     1
 90
        3
176
     1
 62
     5
420
      255
176
     1
290
     0
176
     1
 90
       50
176
     1
 90
       50
176
     1
 90
       50
176
     1
290
     0
176
     1
 90
       50
176
     1
 62
   256
176
     0
 40
1.0
176
     0
 90
        2
176
     1
  1
strokes_ogs.tif
176
     1
290
     0
176
     1
 40
1.0
176
     1
 40
1.0
176
     1
  0
VISUALSTYLE
  5
41
102
{ACAD_REACTORS
330
29
102
}
330
29
100
AcDbVisualStyle
  2
EdgeColorOff
 70
    22
177
     3
291
     1
 70
    58
 90
        2
176
     0
 90
        2
176
     0
 90
        0
176
     0
 90
        0
176
     0
 40
0.6
176
     0
 40
30.0
176
     0
 62
     7
420
 16777215
176
     0
 90
        1
176
     0
 90
        4
176
     0
 62
     7
176
     0
 62
   257
176
     0
 90
        1
176
     0
 90
        1
176
     0
 40
1.0
176
     0
 90
        8
176
     2
 62
     7
176
     0
 40
1.0
176
     0
 90
        1
176
     0
 90
        6
176
     0
 90
        2
176
     0
 62
     7
176
     0
 90
        5
176
     0
 90
        0
176
     0
 90
        0
176
     0
290
     0
176
     0
 90
        1
176
     0
 40
0.0
176
     0
 90
        0
176
     0
290
     0
176
     0
290
     1
176
     0
290
     1
176
     0
290
     0
176
     0
290
     0
176
     0
290
     0
176
     0
290
     0
176
     0
290
     0
176
     0
290
     0
176
     0
 90
       50
176
     0
 40
0.0
176
     0
 40
1.0
176
     0
 90
        0
176
     0
 62
    18
420
        0
176
     0
 90
       50
176
     0
 90
        3
176
     0
 62
     5
420
      255
176
     0
290
     0
176
     0
 90
       50
176
     0
 90
       50
176
     0
 90
       50
176
     0
290
     0
176
     0
 90
       50
176
     0
 62
   256
176
     0
 40
1.0
176
     0
 90
        2
176
     0
  1
strokes_ogs.tif
176
     0
290
     0
176
     0
 40
1.0
176
     0
 40
1.0
176
     0
  0
VISUALSTYLE
  5
38
102
{ACAD_REACTORS
330
29
102
}
330
29
100
AcDbVisualStyle
  2
Facepattern
 70
    15
177
     3
291
     1
 70
    58
 90
        2
176
     1
 90
        2
176
     1
 90
        0
176
     1
 90
        0
176
     1
 40
0.6
176
     1
 40
30.0
176
     1
 62
     7
420
 16777215
176
     1
 90
        1
176
     1
 90
        4
176
     1
 62
     7
176
     1
 62
   257
176
     1
 90
        1
176
     1
 90
        1
176
     1
 40
1.0
176
     1
 90
        8
176
     1
 62
     7
176
     1
 40
1.0
176
     1
 90
        1
176
     1
 90
        6
176
     1
 90
        2
176
     1
 62
     7
176
     1
 90
        5
176
     1
 90
        0
176
     1
 90
        0
176
     1
290
     0
176
     1
 90
        1
176
     1
 40
0.0
176
     1
 90
        0
176
     1
290
     0
176
     1
290
     1
176
     1
290
     1
176
     1
290
     0
176
     1
290
     0
176
     1
290
     0
176
     1
290
     0
176
     1
290
     0
176
     1
290
     0
176
     1
 90
       50
176
     1
 40
0.0
176
     1
 40
1.0
176
     1
 90
        0
176
     1
 62
    18
420
        0
176
     1
 90
       50
176
     1
 90
        3
176
     1
 62
     5
420
      255
176
     1
290
     0
176
     1
 90
       50
176
     1
 90
       50
176
     1
 90
       50
176
     1
290
     0
176
     1
 90
       50
176
     1
 62
   256
176
     0
 40
1.0
176
     0
 90
        2
176
     1
  1
strokes_ogs.tif
176
     1
290
     0
176
     1
 40
1.0
176
     1
 40
1.0
176
     1
  0
VISUALSTYLE
  5
2A
102
{ACAD_REACTORS
330
29
102
}
330
29
100
AcDbVisualStyle
  2
Flat
 70
     0
177
     3
291
     1
 70
    58
 90
        2
176
     1
 90
        1
176
     1
 90
        1
176
     1
 90
        2
176
     1
 40
0.6
176
     1
 40
30.0
176
     1
 62
     7
420
 16777215
176
     1
 90
        0
176
     1
 90
        0
176
     1
 62
     7
176
     1
 62
   257
176
     1
 90
        1
176
     1
 90
        1
176
     1
 40
1.0
176
     1
 90
        8
176
     1
 62
     7
176
     1
 40
1.0
176
     1
 90
        1
176
     1
 90
        6
176
     1
 90
        2
176
     1
 62
     7
176
     1
 90
        5
176
     1
 90
        0
176
     1
 90
        0
176
     1
290
     0
176
     1
 90
       13
176
     1
 40
0.0
176
     1
 90
        0
176
     1
290
     0
176
     1
290
     1
176
     1
290
     1
176
     1
290
     0
176
     1
290
     0
176
     1
290
     0
176
     1
290
     0
176
     1
290
     0
176
     1
290
     0
176
     1
 90
       50
176
     1
 40
0.0
176
     1
 40
1.0
176
     1
 90
        0
176
     1
 62
    18
420
        0
176
     1
 90
       50
176
     1
 90
        3
176
     1
 62
     5
420
      255
176
     1
290
     0
176
     1
 90
       50
176
     1
 90
       50
176
     1
 90
       50
176
     1
290
     0
176
     1
 90
       50
176
     1
 62
   256
176
     0
 40
1.0
176
     0
 90
        2
176
     1
  1
strokes_ogs.tif
176
     1
290
     0
176
     1
 40
1.0
176
     1
 40
1.0
176
     1
  0
VISUALSTYLE
  5
2B
102
{ACAD_REACTORS
330
29
102
}
330
29
100
AcDbVisualStyle
  2
FlatWithEdges
 70
     1
177
     3
291
     1
 70
    58
 90
        2
176
     1
 90
        1
176
     1
 90
        1
176
     1
 90
        2
176
     1
 40
0.6
176
     1
 40
30.0
176
     1
 62
     7
420
 16777215
176
     1
 90
        1
176
     1
 90
        0
176
     1
 62
     7
176
     1
 62
   257
176
     1
 90
        1
176
     1
 90
        1
176
     1
 40
1.0
176
     1
 90
        0
176
     1
 62
   257
176
     1
 40
1.0
176
     1
 90
        1
176
     1
 90
        6
176
     1
 90
        2
176
     1
 62
     7
176
     1
 90
        5
176
     1
 90
        0
176
     1
 90
        0
176
     1
290
     0
176
     1
 90
       13
176
     1
 40
0.0
176
     1
 90
        0
176
     1
290
     0
176
     1
290
     1
176
     1
290
     1
176
     1
290
     0
176
     1
290
     0
176
     1
290
     0
176
     1
290
     0
176
     1
290
     0
176
     1
290
     0
176
     1
 90
       50
176
     1
 40
0.0
176
     1
 40
1.0
176
     1
 90
        0
176
     1
 62
    18
420
        0
176
     1
 90
       50
176
     1
 90
        3
176
     1
 62
     5
420
      255
176
     1
290
     0
176
     1
 90
       50
176
     1
 90
       50
176
     1
 90
       50
176
     1
290
     0
176
     1
 90
       50
176
     1
 62
   256
176
     0
 40
1.0
176
     0
 90
        2
176
     1
  1
strokes_ogs.tif
176
     1
290
     0
176
     1
 40
1.0
176
     1
 40
1.0
176
     1
  0
VISUALSTYLE
  5
2C
102
{ACAD_REACTORS
330
29
102
}
330
29
100
AcDbVisualStyle
  2
Gouraud
 70
     2
177
     3
291
     1
 70
    58
 90
        2
176
     1
 90
        2
176
     1
 90
        1
176
     1
 90
        2
176
     1
 40
0.6
176
     1
 40
30.0
176
     1
 62
     7
420
 16777215
176
     1
 90
        0
176
     1
 90
        0
176
     1
 62
     7
176
     1
 62
   257
176
     1
 90
        1
176
     1
 90
        1
176
     1
 40
1.0
176
     1
 90
        0
176
     1
 62
     7
176
     1
 40
1.0
176
     1
 90
        1
176
     1
 90
        6
176
     1
 90
        2
176
     1
 62
     7
176
     1
 90
        5
176
     1
 90
        0
176
     1
 90
        0
176
     1
290
     0
176
     1
 90
       13
176
     1
 40
0.0
176
     1
 90
        0
176
     1
290
     0
176
     1
290
     1
176
     1
290
     1
176
     1
290
     0
176
     1
290
     0
176
     1
290
     0
176
     1
290
     0
176
     1
290
     0
176
     1
290
     0
176
     1
 90
       50
176
     1
 40
0.0
176
     1
 40
1.0
176
     1
 90
        0
176
     1
 62
    18
420
        0
176
     1
 90
       50
176
     1
 90
        3
176
     1
 62
     5
420
      255
176
     1
290
     0
176
     1
 90
       50
176
     1
 90
       50
176
     1
 90
       50
176
     1
290
     0
176
     1
 90
       50
176
     1
 62
   256
176
     0
 40
1.0
176
     0
 90
        2
176
     1
  1
strokes_ogs.tif
176
     1
290
     0
176
     1
 40
1.0
176
     1
 40
1.0
176
     1
  0
VISUALSTYLE
  5
2D
102
{ACAD_REACTORS
330
29
102
}
330
29
100
AcDbVisualStyle
  2
GouraudWithEdges
 70
     3
177
     3
291
     1
 70
    58
 90
        2
176
     1
 90
        2
176
     1
 90
        1
176
     1
 90
        2
176
     1
 40
0.6
176
     1
 40
30.0
176
     1
 62
     7
420
 16777215
176
     1
 90
        1
176
     1
 90
        0
176
     1
 62
     7
176
     1
 62
   257
176
     1
 90
        1
176
     1
 90
        1
176
     1
 40
1.0
176
     1
 90
        0
176
     1
 62
   257
176
     1
 40
1.0
176
     1
 90
        1
176
     1
 90
        6
176
     1
 90
        2
176
     1
 62
     7
176
     1
 90
        5
176
     1
 90
        0
176
     1
 90
        0
176
     1
290
     0
176
     1
 90
       13
176
     1
 40
0.0
176
     1
 90
        0
176
     1
290
     0
176
     1
290
     1
176
     1
290
     1
176
     1
290
     0
176
     1
290
     0
176
     1
290
     0
176
     1
290
     0
176
     1
290
     0
176
     1
290
     0
176
     1
 90
       50
176
     1
 40
0.0
176
     1
 40
1.0
176
     1
 90
        0
176
     1
 62
    18
420
        0
176
     1
 90
       50
176
     1
 90
        3
176
     1
 62
     5
420
      255
176
     1
290
     0
176
     1
 90
       50
176
     1
 90
       50
176
     1
 90
       50
176
     1
290
     0
176
     1
 90
       50
176
     1
 62
   256
176
     0
 40
1.0
176
     0
 90
        2
176
     1
  1
strokes_ogs.tif
176
     1
290
     0
176
     1
 40
1.0
176
     1
 40
1.0
176
     1
  0
VISUALSTYLE
  5
31
102
{ACAD_REACTORS
330
29
102
}
330
29
100
AcDbVisualStyle
  2
Hidden
 70
     6
177
     3
291
     0
 70
    58
 90
        1
176
     1
 90
        2
176
     1
 90
        2
176
     1
 90
        0
176
     1
 40
0.6
176
     1
 40
30.0
176
     1
 62
     7
420
 16777215
176
     1
 90
        2
176
     1
 90
        2
176
     1
 62
     7
176
     1
 62
   257
176
     1
 90
        2
176
     1
 90
        1
176
     1
 40
40.0
176
     1
 90
        0
176
     1
 62
   257
176
     1
 40
1.0
176
     1
 90
        1
176
     1
 90
        6
176
     1
 90
        2
176
     1
 62
     7
176
     1
 90
        3
176
     1
 90
        0
176
     1
 90
        0
176
     1
290
     0
176
     1
 90
        1
176
     1
 40
0.0
176
     1
 90
        0
176
     1
290
     0
176
     1
290
     1
176
     1
290
     1
176
     1
290
     0
176
     1
290
     0
176
     1
290
     0
176
     1
290
     0
176
     1
290
     0
176
     1
290
     0
176
     1
 90
       50
176
     1
 40
0.0
176
     1
 40
1.0
176
     1
 90
        0
176
     1
 62
    18
420
        0
176
     1
 90
       50
176
     1
 90
        3
176
     1
 62
     5
420
      255
176
     1
290
     0
176
     1
 90
       50
176
     1
 90
       50
176
     1
 90
       50
176
     1
290
     0
176
     1
 90
       50
176
     1
 62
   256
176
     0
 40
1.0
176
     0
 90
        2
176
     1
  1
strokes_ogs.tif
176
     1
290
     0
176
     1
 40
1.0
176
     1
 40
1.0
176
     1
  0
VISUALSTYLE
  5
3F
102
{ACAD_REACTORS
330
29
102
}
330
29
100
AcDbVisualStyle
  2
JitterOff
 70
    20
177
     3
291
     1
 70
    58
 90
        2
176
     0
 90
        2
176
     0
 90
        0
176
     0
 90
        0
176
     0
 40
0.6
176
     0
 40
30.0
176
     0
 62
     7
420
 16777215
176
     0
 90
        1
176
     0
 90
        4
176
     0
 62
     7
176
     0
 62
   257
176
     0
 90
        1
176
     0
 90
        1
176
     0
 40
1.0
176
     0
 90
       10
176
     2
 62
     7
176
     0
 40
1.0
176
     0
 90
        1
176
     0
 90
        6
176
     0
 90
        2
176
     0
 62
     7
176
     0
 90
        5
176
     0
 90
        0
176
     0
 90
        0
176
     0
290
     0
176
     0
 90
        1
176
     0
 40
0.0
176
     0
 90
        0
176
     0
290
     0
176
     0
290
     1
176
     0
290
     1
176
     0
290
     0
176
     0
290
     0
176
     0
290
     0
176
     0
290
     0
176
     0
290
     0
176
     0
290
     0
176
     0
 90
       50
176
     0
 40
0.0
176
     0
 40
1.0
176
     0
 90
        0
176
     0
 62
    18
420
        0
176
     0
 90
       50
176
     0
 90
        3
176
     0
 62
     5
420
      255
176
     0
290
     0
176
     0
 90
       50
176
     0
 90
       50
176
     0
 90
       50
176
     0
290
     0
176
     0
 90
       50
176
     0
 62
   256
176
     0
 40
1.0
176
     0
 90
        2
176
     0
  1
strokes_ogs.tif
176
     0
290
     0
176
     0
 40
1.0
176
     0
 40
1.0
176
     0
  0
VISUALSTYLE
  5
37
102
{ACAD_REACTORS
330
29
102
}
330
29
100
AcDbVisualStyle
  2
Linepattern
 70
    14
177
     3
291
     1
 70
    58
 90
        2
176
     1
 90
        2
176
     1
 90
        0
176
     1
 90
        0
176
     1
 40
0.6
176
     1
 40
30.0
176
     1
 62
     7
420
 16777215
176
     1
 90
        1
176
     1
 90
        4
176
     1
 62
     7
176
     1
 62
   257
176
     1
 90
        7
176
     1
 90
        7
176
     1
 40
1.0
176
     1
 90
        8
176
     1
 62
     7
176
     1
 40
1.0
176
     1
 90
        1
176
     1
 90
        6
176
     1
 90
        2
176
     1
 62
     7
176
     1
 90
        5
176
     1
 90
        0
176
     1
 90
        0
176
     1
290
     0
176
     1
 90
        1
176
     1
 40
0.0
176
     1
 90
        0
176
     1
290
     0
176
     1
290
     1
176
     1
290
     1
176
     1
290
     0
176
     1
290
     0
176
     1
290
     0
176
     1
290
     0
176
     1
290
     0
176
     1
290
     0
176
     1
 90
       50
176
     1
 40
0.0
176
     1
 40
1.0
176
     1
 90
        0
176
     1
 62
    18
420
        0
176
     1
 90
       50
176
     1
 90
        3
176
     1
 62
     5
420
      255
176
     1
290
     0
176
     1
 90
       50
176
     1
 90
       50
176
     1
 90
       50
176
     1
290
     0
176
     1
 90
       50
176
     1
 62
   256
176
     0
 40
1.0
176
     0
 90
        2
176
     1
  1
strokes_ogs.tif
176
     1
290
     0
176
     1
 40
1.0
176
     1
 40
1.0
176
     1
  0
VISUALSTYLE
  5
40
102
{ACAD_REACTORS
330
29
102
}
330
29
100
AcDbVisualStyle
  2
OverhangOff
 70
    21
177
     3
291
     1
 70
    58
 90
        2
176
     0
 90
        2
176
     0
 90
        0
176
     0
 90
        0
176
     0
 40
0.6
176
     0
 40
30.0
176
     0
 62
     7
420
 16777215
176
     0
 90
        1
176
     0
 90
        4
176
     0
 62
     7
176
     0
 62
   257
176
     0
 90
        1
176
     0
 90
        1
176
     0
 40
1.0
176
     0
 90
        9
176
     2
 62
     7
176
     0
 40
1.0
176
     0
 90
        1
176
     0
 90
        6
176
     0
 90
        2
176
     0
 62
     7
176
     0
 90
        5
176
     0
 90
        0
176
     0
 90
        0
176
     0
290
     0
176
     0
 90
        1
176
     0
 40
0.0
176
     0
 90
        0
176
     0
290
     0
176
     0
290
     1
176
     0
290
     1
176
     0
290
     0
176
     0
290
     0
176
     0
290
     0
176
     0
290
     0
176
     0
290
     0
176
     0
290
     0
176
     0
 90
       50
176
     0
 40
0.0
176
     0
 40
1.0
176
     0
 90
        0
176
     0
 62
    18
420
        0
176
     0
 90
       50
176
     0
 90
        3
176
     0
 62
     5
420
      255
176
     0
290
     0
176
     0
 90
       50
176
     0
 90
       50
176
     0
 90
       50
176
     0
290
     0
176
     0
 90
       50
176
     0
 62
   256
176
     0
 40
1.0
176
     0
 90
        2
176
     0
  1
strokes_ogs.tif
176
     0
290
     0
176
     0
 40
1.0
176
     0
 40
1.0
176
     0
  0
VISUALSTYLE
  5
33
102
{ACAD_REACTORS
330
29
102
}
330
29
100
AcDbVisualStyle
  2
Realistic
 70
     8
177
     3
291
     0
 70
    58
 90
        2
176
     1
 90
        3
176
     1
 90
        0
176
     1
 90
        2
176
     1
 40
0.6
176
     1
 40
30.0
176
     1
 62
     7
420
 16777215
176
     1
 90
        0
176
     1
 90
        0
176
     1
 62
     7
176
     1
 62
   257
176
     1
 90
        1
176
     1
 90
        1
176
     1
 40
1.0
176
     1
 90
        8
176
     1
 62
   257
176
     1
 40
1.0
176
     1
 90
        1
176
     1
 90
        6
176
     1
 90
        2
176
     1
 62
     7
176
     1
 90
        3
176
     1
 90
        0
176
     1
 90
        0
176
     1
290
     0
176
     1
 90
       13
176
     1
 40
0.0
176
     1
 90
        0
176
     1
290
     0
176
     1
290
     1
176
     1
290
     1
176
     1
290
     0
176
     1
290
     0
176
     1
290
     0
176
     1
290
     0
176
     1
290
     0
176
     1
290
     0
176
     1
 90
       50
176
     1
 40
0.0
176
     1
 40
1.0
176
     1
 90
        0
176
     1
 62
    18
420
        0
176
     1
 90
       50
176
     1
 90
        3
176
     1
 62
     5
420
      255
176
     1
290
     0
176
     1
 90
       50
176
     1
 90
       50
176
     1
 90
       50
176
     1
290
     0
176
     1
 90
       50
176
     1
 62
   256
176
     0
 40
1.0
176
     0
 90
        2
176
     1
  1
strokes_ogs.tif
176
     1
290
     0
176
     1
 40
1.0
176
     1
 40
1.0
176
     1
  0
VISUALSTYLE
  5
3E
102
{ACAD_REACTORS
330
29
102
}
330
29
100
AcDbVisualStyle
  2
Shaded
 70
    27
177
     3
291
     0
 70
    58
 90
        2
176
     1
 90
        2
176
     1
 90
        1
176
     1
 90
        2
176
     1
 40
0.6
176
     1
 40
30.0
176
     1
 62
     7
420
 16777215
176
     1
 90
        0
176
     1
 90
        4
176
     1
 62
     7
176
     1
 62
   257
176
     1
 90
        1
176
     1
 90
        1
176
     1
 40
1.0
176
     1
 90
        8
176
     1
 62
   257
176
     1
 40
1.0
176
     1
 90
        1
176
     1
 90
        6
176
     1
 90
        2
176
     1
 62
     8
420
  7895160
176
     1
 90
        3
176
     1
 90
        0
176
     1
 90
        0
176
     1
290
     0
176
     1
 90
        5
176
     1
 40
0.0
176
     1
 90
        0
176
     1
290
     0
176
     1
290
     1
176
     1
290
     1
176
     1
290
     0
176
     1
290
     0
176
     1
290
     0
176
     1
290
     0
176
     1
290
     0
176
     1
290
     0
176
     1
 90
       50
176
     1
 40
0.0
176
     1
 40
1.0
176
     1
 90
        0
176
     1
 62
    18
420
        0
176
     1
 90
       50
176
     1
 90
        3
176
     1
 62
     5
420
      255
176
     1
290
     0
176
     1
 90
       50
176
     1
 90
       50
176
     1
 90
       50
176
     1
290
     0
176
     1
 90
       50
176
     1
 62
   256
176
     0
 40
1.0
176
     0
 90
        2
176
     1
  1
strokes_ogs.tif
176
     1
290
     0
176
     1
 40
1.0
176
     1
 40
1.0
176
     1
  0
VISUALSTYLE
  5
3D
102
{ACAD_REACTORS
330
29
102
}
330
29
100
AcDbVisualStyle
  2
Shaded with edges
 70
    26
177
     3
291
     0
 70
    58
 90
        2
176
     1
 90
        2
176
     1
 90
        1
176
     1
 90
        2
176
     1
 40
0.6
176
     1
 40
30.0
176
     1
 62
     7
420
 16777215
176
     1
 90
        1
176
     1
 90
       10
176
     1
 62
     7
176
     1
 62
   257
176
     1
 90
        2
176
     1
 90
        1
176
     1
 40
1.0
176
     1
 90
        8
176
     1
 62
   257
176
     1
 40
1.0
176
     1
 90
        1
176
     1
 90
        6
176
     1
 90
        2
176
     1
 62
     7
176
     1
 90
        3
176
     1
 90
        0
176
     1
 90
        0
176
     1
290
     0
176
     1
 90
        5
176
     1
 40
0.0
176
     1
 90
        0
176
     1
290
     0
176
     1
290
     1
176
     1
290
     1
176
     1
290
     0
176
     1
290
     0
176
     1
290
     0
176
     1
290
     0
176
     1
290
     0
176
     1
290
     0
176
     1
 90
       50
176
     1
 40
0.0
176
     1
 40
1.0
176
     1
 90
        0
176
     1
 62
    18
420
        0
176
     1
 90
       50
176
     1
 90
        3
176
     1
 62
     5
420
      255
176
     1
290
     0
176
     1
 90
       50
176
     1
 90
       50
176
     1
 90
       50
176
     1
290
     0
176
     1
 90
       50
176
     1
 62
   256
176
     0
 40
1.0
176
     0
 90
        2
176
     1
  1
strokes_ogs.tif
176
     1
290
     0
176
     1
 40
1.0
176
     1
 40
1.0
176
     1
  0
VISUALSTYLE
  5
3A
102
{ACAD_REACTORS
330
29
102
}
330
29
100
AcDbVisualStyle
  2
Shades of Gray
 70
    23
177
     3
291
     0
 70
    58
 90
        2
176
     1
 90
        2
176
     1
 90
        3
176
     1
 90
        0
176
     1
 40
0.6
176
     1
 40
30.0
176
     1
 62
     7
420
 16777215
176
     1
 90
        2
176
     1
 90
        2
176
     1
 62
     7
176
     1
 62
     7
176
     1
 90
        1
176
     1
 90
        1
176
     1
 40
40.0
176
     1
 90
        8
176
     1
 62
     7
176
     1
 40
1.0
176
     1
 90
        1
176
     1
 90
        6
176
     1
 90
        2
176
     1
 62
     7
176
     1
 90
        3
176
     1
 90
        0
176
     1
 90
        0
176
     1
290
     0
176
     1
 90
        1
176
     1
 40
0.0
176
     1
 90
        0
176
     1
290
     0
176
     1
290
     1
176
     1
290
     1
176
     1
290
     0
176
     1
290
     0
176
     1
290
     0
176
     1
290
     0
176
     1
290
     0
176
     1
290
     0
176
     1
 90
       50
176
     1
 40
0.0
176
     1
 40
1.0
176
     1
 90
        0
176
     1
 62
    18
420
        0
176
     1
 90
       50
176
     1
 90
        3
176
     1
 62
     5
420
      255
176
     1
290
     0
176
     1
 90
       50
176
     1
 90
       50
176
     1
 90
       50
176
     1
290
     0
176
     1
 90
       50
176
     1
 62
   256
176
     0
 40
1.0
176
     0
 90
        2
176
     1
  1
strokes_ogs.tif
176
     1
290
     0
176
     1
 40
1.0
176
     1
 40
1.0
176
     1
  0
VISUALSTYLE
  5
3B
102
{ACAD_REACTORS
330
29
102
}
330
29
100
AcDbVisualStyle
  2
Sketchy
 70
    24
177
     3
291
     0
 70
    58
 90
        1
176
     1
 90
        2
176
     1
 90
        2
176
     1
 90
        0
176
     1
 40
0.6
176
     1
 40
30.0
176
     1
 62
     7
420
 16777215
176
     1
 90
        2
176
     1
 90
        2
176
     1
 62
     7
176
     1
 62
     7
176
     1
 90
        1
176
     1
 90
        1
176
     1
 40
40.0
176
     1
 90
       11
176
     1
 62
     7
176
     1
 40
1.0
176
     1
 90
        1
176
     1
 90
        6
176
     1
 90
        2
176
     1
 62
     7
176
     1
 90
        6
176
     1
 90
        0
176
     1
 90
        0
176
     1
290
     0
176
     1
 90
        1
176
     1
 40
0.0
176
     1
 90
        0
176
     1
290
     0
176
     1
290
     1
176
     1
290
     1
176
     1
290
     0
176
     1
290
     0
176
     1
290
     0
176
     1
290
     0
176
     1
290
     0
176
     1
290
     0
176
     1
 90
       50
176
     1
 40
0.0
176
     1
 40
1.0
176
     1
 90
        0
176
     1
 62
    18
420
        0
176
     1
 90
       50
176
     1
 90
        3
176
     1
 62
     5
420
      255
176
     1
290
     0
176
     1
 90
       50
176
     1
 90
       50
176
     1
 90
       50
176
     1
290
     0
176
     1
 90
       50
176
     1
 62
   256
176
     0
 40
1.0
176
     0
 90
        2
176
     1
  1
strokes_ogs.tif
176
     1
290
     0
176
     1
 40
1.0
176
     1
 40
1.0
176
     1
  0
VISUALSTYLE
  5
36
102
{ACAD_REACTORS
330
29
102
}
330
29
100
AcDbVisualStyle
  2
Thicken
 70
    13
177
     3
291
     1
 70
    58
 90
        2
176
     1
 90
        2
176
     1
 90
        0
176
     1
 90
        0
176
     1
 40
0.6
176
     1
 40
30.0
176
     1
 62
     7
420
 16777215
176
     1
 90
        1
176
     1
 90
        4
176
     1
 62
     7
176
     1
 62
   257
176
     1
 90
        1
176
     1
 90
        1
176
     1
 40
1.0
176
     1
 90
       12
176
     1
 62
     7
176
     1
 40
1.0
176
     1
 90
        1
176
     1
 90
        6
176
     1
 90
        2
176
     1
 62
     7
176
     1
 90
        5
176
     1
 90
        0
176
     1
 90
        0
176
     1
290
     0
176
     1
 90
        1
176
     1
 40
0.0
176
     1
 90
        0
176
     1
290
     0
176
     1
290
     1
176
     1
290
     1
176
     1
290
     0
176
     1
290
     0
176
     1
290
     0
176
     1
290
     0
176
     1
290
     0
176
     1
290
     0
176
     1
 90
       50
176
     1
 40
0.0
176
     1
 40
1.0
176
     1
 90
        0
176
     1
 62
    18
420
        0
176
     1
 90
       50
176
     1
 90
        3
176
     1
 62
     5
420
      255
176
     1
290
     0
176
     1
 90
       50
176
     1
 90
       50
176
     1
 90
       50
176
     1
290
     0
176
     1
 90
       50
176
     1
 62
   256
176
     0
 40
1.0
176
     0
 90
        2
176
     1
  1
strokes_ogs.tif
176
     1
290
     0
176
     1
 40
1.0
176
     1
 40
1.0
176
     1
  0
VISUALSTYLE
  5
30
102
{ACAD_REACTORS
330
29
102
}
330
29
100
AcDbVisualStyle
  2
Wireframe
 70
     5
177
     3
291
     0
 70
    58
 90
        0
176
     1
 90
        2
176
     1
 90
        0
176
     1
 90
        0
176
     1
 40
0.6
176
     1
 40
30.0
176
     1
 62
     7
420
 16777215
176
     1
 90
        1
176
     1
 90
        4
176
     1
 62
     7
176
     1
 62
   257
176
     1
 90
        1
176
     1
 90
        1
176
     1
 40
1.0
176
     1
 90
        0
176
     1
 62
   257
176
     1
 40
1.0
176
     1
 90
        1
176
     1
 90
        6
176
     1
 90
        2
176
     1
 62
     7
176
     1
 90
        3
176
     1
 90
        0
176
     1
 90
        0
176
     1
290
     0
176
     1
 90
        1
176
     1
 40
0.0
176
     1
 90
        0
176
     1
290
     0
176
     1
290
     1
176
     1
290
     1
176
     1
290
     0
176
     1
290
     0
176
     1
290
     0
176
     1
290
     0
176
     1
290
     0
176
     1
290
     0
176
     1
 90
       50
176
     1
 40
0.0
176
     1
 40
1.0
176
     1
 90
        0
176
     1
 62
    18
420
        0
176
     1
 90
       50
176
     1
 90
        3
176
     1
 62
     5
420
      255
176
     1
290
     0
176
     1
 90
       50
176
     1
 90
       50
176
     1
 90
       50
176
     1
290
     0
176
     1
 90
       50
176
     1
 62
   256
176
     0
 40
1.0
176
     0
 90
        2
176
     1
  1
strokes_ogs.tif
176
     1
290
     0
176
     1
 40
1.0
176
     1
 40
1.0
176
     1
  0
VISUALSTYLE
  5
3C
102
{ACAD_REACTORS
330
29
102
}
330
29
100
AcDbVisualStyle
  2
X-Ray
 70
    25
177
     3
291
     0
 70
    58
 90
        2
176
     1
 90
        2
176
     1
 90
        1
176
     1
 90
        1
176
     1
 40
0.5
176
     1
 40
30.0
176
     1
 62
     7
420
 16777215
176
     1
 90
        1
176
     1
 90
        0
176
     1
 62
     7
176
     1
 62
   257
176
     1
 90
        1
176
     1
 90
        1
176
     1
 40
1.0
176
     1
 90
        8
176
     1
 62
     7
176
     1
 40
1.0
176
     1
 90
        1
176
     1
 90
        6
176
     1
 90
        2
176
     1
 62
     7
176
     1
 90
        3
176
     1
 90
        0
176
     1
 90
        0
176
     1
290
     0
176
     1
 90
       13
176
     1
 40
0.0
176
     1
 90
        0
176
     1
290
     0
176
     1
290
     1
176
     1
290
     1
176
     1
290
     0
176
     1
290
     0
176
     1
290
     0
176
     1
290
     0
176
     1
290
     0
176
     1
290
     0
176
     1
 90
       50
176
     1
 40
0.0
176
     1
 40
1.0
176
     1
 90
        0
176
     1
 62
    18
420
        0
176
     1
 90
       50
176
     1
 90
        3
176
     1
 62
     5
420
      255
176
     1
290
     0
176
     1
 90
       50
176
     1
 90
       50
176
     1
 90
       50
176
     1
290
     0
176
     1
 90
       50
176
     1
 62
   256
176
     0
 40
1.0
176
     0
 90
        2
176
     1
  1
strokes_ogs.tif
176
     1
290
     0
176
     1
 40
1.0
176
     1
 40
1.0
176
     1
  0
DICTIONARYVAR
  5
81
102
{ACAD_REACTORS
330
7C
102
}
330
7C
100
DictionaryVariables
280
     0
  1
1:1
  0
DICTIONARYVAR
  5
7E
102
{ACAD_REACTORS
330
7C
102
}
330
7C
100
DictionaryVariables
280
     0
  1
STANDARD
  0
DICTIONARYVAR
  5
7D
102
{ACAD_REACTORS
330
7C
102
}
330
7C
100
DictionaryVariables
280
     0
  1
STANDARD
  0
DICTIONARYVAR
  5
7F
102
{ACAD_REACTORS
330
7C
102
}
330
7C
100
DictionaryVariables
280
     0
  1
Imperial24
  0
DICTIONARYVAR
  5
80
102
{ACAD_REACTORS
330
7C
102
}
330
7C
100
DictionaryVariables
280
     0
  1
Imperial24
  0
XRECORD
  5
21B
102
{ACAD_REACTORS
330
217
102
}
330
217
100
AcDbXrecord
280
     1
  1
BUILDING_ID
  1
Progetto per messa in tavola DXF, DWG
  1
FLOOR_ID
  1
694395
  0
XRECORD
  5
219
102
{ACAD_REACTORS
330
217
102
}
330
217
100
AcDbXrecord
280
     1
  1
-2001160
  1
Apparecchi idraulici
  0
XRECORD
  5
21A
102
{ACAD_REACTORS
330
217
102
}
330
217
100
AcDbXrecord
280
     1
  1
790271
  1
Body
  1
923261
  1
Servomotor
  0
XRECORD
  5
218
102
{ACAD_REACTORS
330
217
102
}
330
217
100
AcDbXrecord
280
     1
  1
859151
  1
Automatic flow rate regulator valve_Caleffi_121 DN15 : 1/2''
  0
DICTIONARY
  5
1A
330
19
100
AcDbDictionary
280
     1
281
     1
  3
BUMPTILE
360
1C
  3
DIFFUSETILE
360
1B
  3
OPACITYTILE
360
1F
  3
REFLECTIONTILE
360
1E
  3
REFRACTIONTILE
360
20
  3
SPECULARTILE
360
1D
  0
DICTIONARY
  5
12
330
11
100
AcDbDictionary
280
     1
281
     1
  3
BUMPTILE
360
14
  3
DIFFUSETILE
360
13
  3
OPACITYTILE
360
17
  3
REFLECTIONTILE
360
16
  3
REFRACTIONTILE
360
18
  3
SPECULARTILE
360
15
  0
DICTIONARY
  5
22
330
21
100
AcDbDictionary
280
     1
281
     1
  3
BUMPTILE
360
24
  3
DIFFUSETILE
360
23
  3
OPACITYTILE
360
27
  3
REFLECTIONTILE
360
26
  3
REFRACTIONTILE
360
28
  3
SPECULARTILE
360
25
  0
DICTIONARY
  5
21E
330
65
100
AcDbDictionary
280
     1
281
     1
  3
ACAD_ROUNDTRIP_2008_TABLESTYLE_CELLSTYLEMAP
360
21F
  0
XRECORD
  5
1C
102
{ACAD_REACTORS
330
1A
102
}
330
1A
100
AcDbXrecord
280
     1
270
     1
271
     1
  0
XRECORD
  5
1B
102
{ACAD_REACTORS
330
1A
102
}
330
1A
100
AcDbXrecord
280
     1
270
     1
271
     1
  0
XRECORD
  5
1F
102
{ACAD_REACTORS
330
1A
102
}
330
1A
100
AcDbXrecord
280
     1
270
     1
271
     1
  0
XRECORD
  5
1E
102
{ACAD_REACTORS
330
1A
102
}
330
1A
100
AcDbXrecord
280
     1
270
     1
271
     1
  0
XRECORD
  5
20
102
{ACAD_REACTORS
330
1A
102
}
330
1A
100
AcDbXrecord
280
     1
270
     1
271
     1
  0
XRECORD
  5
1D
102
{ACAD_REACTORS
330
1A
102
}
330
1A
100
AcDbXrecord
280
     1
270
     1
271
     1
  0
XRECORD
  5
14
102
{ACAD_REACTORS
330
12
102
}
330
12
100
AcDbXrecord
280
     1
270
     1
271
     1
  0
XRECORD
  5
13
102
{ACAD_REACTORS
330
12
102
}
330
12
100
AcDbXrecord
280
     1
270
     1
271
     1
  0
XRECORD
  5
17
102
{ACAD_REACTORS
330
12
102
}
330
12
100
AcDbXrecord
280
     1
270
     1
271
     1
  0
XRECORD
  5
16
102
{ACAD_REACTORS
330
12
102
}
330
12
100
AcDbXrecord
280
     1
270
     1
271
     1
  0
XRECORD
  5
18
102
{ACAD_REACTORS
330
12
102
}
330
12
100
AcDbXrecord
280
     1
270
     1
271
     1
  0
XRECORD
  5
15
102
{ACAD_REACTORS
330
12
102
}
330
12
100
AcDbXrecord
280
     1
270
     1
271
     1
  0
XRECORD
  5
24
102
{ACAD_REACTORS
330
22
102
}
330
22
100
AcDbXrecord
280
     1
270
     1
271
     1
  0
XRECORD
  5
23
102
{ACAD_REACTORS
330
22
102
}
330
22
100
AcDbXrecord
280
     1
270
     1
271
     1
  0
XRECORD
  5
27
102
{ACAD_REACTORS
330
22
102
}
330
22
100
AcDbXrecord
280
     1
270
     1
271
     1
  0
XRECORD
  5
26
102
{ACAD_REACTORS
330
22
102
}
330
22
100
AcDbXrecord
280
     1
270
     1
271
     1
  0
XRECORD
  5
28
102
{ACAD_REACTORS
330
22
102
}
330
22
100
AcDbXrecord
280
     1
270
     1
271
     1
  0
XRECORD
  5
25
102
{ACAD_REACTORS
330
22
102
}
330
22
100
AcDbXrecord
280
     1
270
     1
271
     1
  0
CELLSTYLEMAP
  5
21F
102
{ACAD_REACTORS
330
21E
102
}
330
21E
100
AcDbCellStyleMap
 90
        3
300
CELLSTYLE
  1
TABLEFORMAT_BEGIN
 90
        5
170
     1
 91
        0
 92
    32768
 62
   257
 93
        1
300
CONTENTFORMAT
  1
CONTENTFORMAT_BEGIN
 90
        0
 91
        0
 92
      512
 93
        0
300

 40
0.0
140
1.0
 94
        5
 62
     0
340
55
144
0.25
309
CONTENTFORMAT_END
171
     0
 94
        0
309
TABLEFORMAT_END
  1
CELLSTYLE_BEGIN
 90
        1
 91
        1
300
_TITLE
309
CELLSTYLE_END
300
CELLSTYLE
  1
TABLEFORMAT_BEGIN
 90
        5
170
     1
 91
        0
 92
        0
 62
   257
 93
        1
300
CONTENTFORMAT
  1
CONTENTFORMAT_BEGIN
 90
        0
 91
        0
 92
      512
 93
        0
300

 40
0.0
140
1.0
 94
        5
 62
     0
340
55
144
0.18
309
CONTENTFORMAT_END
171
     0
 94
        0
309
TABLEFORMAT_END
  1
CELLSTYLE_BEGIN
 90
        2
 91
        1
300
_HEADER
309
CELLSTYLE_END
300
CELLSTYLE
  1
TABLEFORMAT_BEGIN
 90
        5
170
     1
 91
        0
 92
        0
 62
   257
 93
        1
300
CONTENTFORMAT
  1
CONTENTFORMAT_BEGIN
 90
        0
 91
        0
 92
      512
 93
        0
300

 40
0.0
140
1.0
 94
        2
 62
     0
340
55
144
0.18
309
CONTENTFORMAT_END
171
     0
 94
        0
309
TABLEFORMAT_END
  1
CELLSTYLE_BEGIN
 90
        3
 91
        2
300
_DATA
309
CELLSTYLE_END
  0
ENDSEC
  0
EOF
