  0
SECTION
  2
HEADER
  9
$ACADVER
  1
AC1027
  9
$ACADMAINTVER
 70
    20
  9
$DWGCODEPAGE
  3
ANSI_1252
  9
$REQUIREDVERSIONS
160
                 0
  9
$INSBASE
 10
0.0
 20
0.0
 30
0.0
  9
$EXTMIN
 10
748.1664074431621
 20
1792.305988811806
 30
-0.00000001
  9
$EXTMAX
 10
1137.772993861341
 20
2117.000000010071
 30
0.00000001
  9
$LIMMIN
 10
0.0
 20
0.0
  9
$LIMMAX
 10
12.0
 20
9.0
  9
$ORTHOMODE
 70
     0
  9
$REGENMODE
 70
     1
  9
$FILLMODE
 70
     1
  9
$QTEXTMODE
 70
     0
  9
$MIRRTEXT
 70
     0
  9
$LTSCALE
 40
1.0
  9
$ATTMODE
 70
     1
  9
$TEXTSIZE
 40
0.2
  9
$TRACEWID
 40
0.05
  9
$TEXTSTYLE
  7
Standard
  9
$CLAYER
  8
0
  9
$CELTYPE
  6
ByLayer
  9
$CECOLOR
 62
   256
  9
$CELTSCALE
 40
1.0
  9
$DISPSILH
 70
     0
  9
$DIMSCALE
 40
1.0
  9
$DIMASZ
 40
0.18
  9
$DIMEXO
 40
0.0625
  9
$DIMDLI
 40
0.38
  9
$DIMRND
 40
0.0
  9
$DIMDLE
 40
0.0
  9
$DIMEXE
 40
0.18
  9
$DIMTP
 40
0.0
  9
$DIMTM
 40
0.0
  9
$DIMTXT
 40
0.18
  9
$DIMCEN
 40
0.09
  9
$DIMTSZ
 40
0.0
  9
$DIMTOL
 70
     0
  9
$DIMLIM
 70
     0
  9
$DIMTIH
 70
     1
  9
$DIMTOH
 70
     1
  9
$DIMSE1
 70
     0
  9
$DIMSE2
 70
     0
  9
$DIMTAD
 70
     0
  9
$DIMZIN
 70
     0
  9
$DIMBLK
  1

  9
$DIMASO
 70
     1
  9
$DIMSHO
 70
     1
  9
$DIMPOST
  1

  9
$DIMAPOST
  1

  9
$DIMALT
 70
     0
  9
$DIMALTD
 70
     2
  9
$DIMALTF
 40
25.4
  9
$DIMLFAC
 40
1.0
  9
$DIMTOFL
 70
     0
  9
$DIMTVP
 40
0.0
  9
$DIMTIX
 70
     0
  9
$DIMSOXD
 70
     0
  9
$DIMSAH
 70
     0
  9
$DIMBLK1
  1

  9
$DIMBLK2
  1

  9
$DIMSTYLE
  2
Standard
  9
$DIMCLRD
 70
     0
  9
$DIMCLRE
 70
     0
  9
$DIMCLRT
 70
     0
  9
$DIMTFAC
 40
1.0
  9
$DIMGAP
 40
0.09
  9
$DIMJUST
 70
     0
  9
$DIMSD1
 70
     0
  9
$DIMSD2
 70
     0
  9
$DIMTOLJ
 70
     1
  9
$DIMTZIN
 70
     0
  9
$DIMALTZ
 70
     0
  9
$DIMALTTZ
 70
     0
  9
$DIMUPT
 70
     0
  9
$DIMDEC
 70
     4
  9
$DIMTDEC
 70
     4
  9
$DIMALTU
 70
     2
  9
$DIMALTTD
 70
     2
  9
$DIMTXSTY
  7
Standard
  9
$DIMAUNIT
 70
     0
  9
$DIMADEC
 70
     0
  9
$DIMALTRND
 40
0.0
  9
$DIMAZIN
 70
     0
  9
$DIMDSEP
 70
    46
  9
$DIMATFIT
 70
     3
  9
$DIMFRAC
 70
     0
  9
$DIMLDRBLK
  1

  9
$DIMLUNIT
 70
     2
  9
$DIMLWD
 70
    -2
  9
$DIMLWE
 70
    -2
  9
$DIMTMOVE
 70
     0
  9
$DIMFXL
 40
1.0
  9
$DIMFXLON
 70
     0
  9
$DIMJOGANG
 40
0.7853981633974483
  9
$DIMTFILL
 70
     0
  9
$DIMTFILLCLR
 70
     0
  9
$DIMARCSYM
 70
     0
  9
$DIMLTYPE
  6

  9
$DIMLTEX1
  6

  9
$DIMLTEX2
  6

  9
$DIMTXTDIRECTION
 70
     0
  9
$LUNITS
 70
     2
  9
$LUPREC
 70
     4
  9
$SKETCHINC
 40
0.1
  9
$FILLETRAD
 40
0.0
  9
$AUNITS
 70
     0
  9
$AUPREC
 70
     0
  9
$MENU
  1
.
  9
$ELEVATION
 40
0.0
  9
$PELEVATION
 40
0.0
  9
$THICKNESS
 40
0.0
  9
$LIMCHECK
 70
     0
  9
$CHAMFERA
 40
0.0
  9
$CHAMFERB
 40
0.0
  9
$CHAMFERC
 40
0.0
  9
$CHAMFERD
 40
0.0
  9
$SKPOLY
 70
     0
  9
$TDCREATE
 40
2457562.343926331
  9
$TDUCREATE
 40
2457562.260592998
  9
$TDUPDATE
 40
2457562.343926331
  9
$TDUUPDATE
 40
2457562.260592998
  9
$TDINDWG
 40
0.0000065856
  9
$TDUSRTIMER
 40
0.0000065856
  9
$USRTIMER
 70
     1
  9
$ANGBASE
 50
0.0
  9
$ANGDIR
 70
     0
  9
$PDMODE
 70
     0
  9
$PDSIZE
 40
0.0
  9
$PLINEWID
 40
0.0
  9
$SPLFRAME
 70
     0
  9
$SPLINETYPE
 70
     6
  9
$SPLINESEGS
 70
     8
  9
$HANDSEED
  5
295
  9
$SURFTAB1
 70
     6
  9
$SURFTAB2
 70
     6
  9
$SURFTYPE
 70
     6
  9
$SURFU
 70
     6
  9
$SURFV
 70
     6
  9
$UCSBASE
  2

  9
$UCSNAME
  2

  9
$UCSORG
 10
0.0
 20
0.0
 30
0.0
  9
$UCSXDIR
 10
1.0
 20
0.0
 30
0.0
  9
$UCSYDIR
 10
0.0
 20
1.0
 30
0.0
  9
$UCSORTHOREF
  2

  9
$UCSORTHOVIEW
 70
     0
  9
$UCSORGTOP
 10
0.0
 20
0.0
 30
0.0
  9
$UCSORGBOTTOM
 10
0.0
 20
0.0
 30
0.0
  9
$UCSORGLEFT
 10
0.0
 20
0.0
 30
0.0
  9
$UCSORGRIGHT
 10
0.0
 20
0.0
 30
0.0
  9
$UCSORGFRONT
 10
0.0
 20
0.0
 30
0.0
  9
$UCSORGBACK
 10
0.0
 20
0.0
 30
0.0
  9
$PUCSBASE
  2

  9
$PUCSNAME
  2

  9
$PUCSORG
 10
0.0
 20
0.0
 30
0.0
  9
$PUCSXDIR
 10
1.0
 20
0.0
 30
0.0
  9
$PUCSYDIR
 10
0.0
 20
1.0
 30
0.0
  9
$PUCSORTHOREF
  2

  9
$PUCSORTHOVIEW
 70
     0
  9
$PUCSORGTOP
 10
0.0
 20
0.0
 30
0.0
  9
$PUCSORGBOTTOM
 10
0.0
 20
0.0
 30
0.0
  9
$PUCSORGLEFT
 10
0.0
 20
0.0
 30
0.0
  9
$PUCSORGRIGHT
 10
0.0
 20
0.0
 30
0.0
  9
$PUCSORGFRONT
 10
0.0
 20
0.0
 30
0.0
  9
$PUCSORGBACK
 10
0.0
 20
0.0
 30
0.0
  9
$USERI1
 70
     0
  9
$USERI2
 70
     0
  9
$USERI3
 70
     0
  9
$USERI4
 70
     0
  9
$USERI5
 70
     0
  9
$USERR1
 40
0.0
  9
$USERR2
 40
0.0
  9
$USERR3
 40
0.0
  9
$USERR4
 40
0.0
  9
$USERR5
 40
0.0
  9
$WORLDVIEW
 70
     1
  9
$SHADEDGE
 70
     3
  9
$SHADEDIF
 70
    70
  9
$TILEMODE
 70
     1
  9
$MAXACTVP
 70
    64
  9
$PINSBASE
 10
0.0
 20
0.0
 30
0.0
  9
$PLIMCHECK
 70
     0
  9
$PEXTMIN
 10
1.000000000000000E+20
 20
1.000000000000000E+20
 30
1.000000000000000E+20
  9
$PEXTMAX
 10
-1.000000000000000E+20
 20
-1.000000000000000E+20
 30
-1.000000000000000E+20
  9
$PLIMMIN
 10
0.0
 20
0.0
  9
$PLIMMAX
 10
12.0
 20
9.0
  9
$UNITMODE
 70
     0
  9
$VISRETAIN
 70
     1
  9
$PLINEGEN
 70
     0
  9
$PSLTSCALE
 70
     1
  9
$TREEDEPTH
 70
  3020
  9
$CMLSTYLE
  2
Standard
  9
$CMLJUST
 70
     0
  9
$CMLSCALE
 40
1.0
  9
$PROXYGRAPHICS
 70
     1
  9
$MEASUREMENT
 70
     1
  9
$CELWEIGHT
370
    -1
  9
$ENDCAPS
280
     0
  9
$JOINSTYLE
280
     0
  9
$LWDISPLAY
290
     0
  9
$INSUNITS
 70
     4
  9
$HYPERLINKBASE
  1

  9
$STYLESHEET
  1

  9
$XEDIT
290
     1
  9
$CEPSNTYPE
380
     0
  9
$PSTYLEMODE
290
     1
  9
$FINGERPRINTGUID
  2
{23B83544-97B6-4EEB-8CE8-3025CB041D01}
  9
$VERSIONGUID
  2
{EFBC4348-7034-4E70-8D11-3D26A595EE20}
  9
$EXTNAMES
290
     1
  9
$PSVPSCALE
 40
0.0
  9
$OLESTARTUP
290
     0
  9
$SORTENTS
280
   127
  9
$INDEXCTL
280
     0
  9
$HIDETEXT
280
     1
  9
$XCLIPFRAME
280
     2
  9
$HALOGAP
280
     0
  9
$OBSCOLOR
 70
   257
  9
$OBSLTYPE
280
     0
  9
$INTERSECTIONDISPLAY
280
     0
  9
$INTERSECTIONCOLOR
 70
   257
  9
$DIMASSOC
280
     2
  9
$PROJECTNAME
  1

  9
$CAMERADISPLAY
290
     0
  9
$LENSLENGTH
 40
50.0
  9
$CAMERAHEIGHT
 40
0.0
  9
$STEPSPERSEC
 40
2.0
  9
$STEPSIZE
 40
6.0
  9
$3DDWFPREC
 40
2.0
  9
$PSOLWIDTH
 40
0.25
  9
$PSOLHEIGHT
 40
4.0
  9
$LOFTANG1
 40
1.570796326794896
  9
$LOFTANG2
 40
1.570796326794896
  9
$LOFTMAG1
 40
0.0
  9
$LOFTMAG2
 40
0.0
  9
$LOFTPARAM
 70
     7
  9
$LOFTNORMALS
280
     1
  9
$LATITUDE
 40
37.795
  9
$LONGITUDE
 40
-122.394
  9
$NORTHDIRECTION
 40
0.0
  9
$TIMEZONE
 70
 -8000
  9
$LIGHTGLYPHDISPLAY
280
     1
  9
$TILEMODELIGHTSYNCH
280
     1
  9
$CMATERIAL
347
11
  9
$SOLIDHIST
280
     0
  9
$SHOWHIST
280
     1
  9
$DWFFRAME
280
     2
  9
$DGNFRAME
280
     0
  9
$REALWORLDSCALE
290
     1
  9
$INTERFERECOLOR
 62
     1
  9
$INTERFEREOBJVS
345
33
  9
$INTERFEREVPVS
346
30
  9
$CSHADOW
280
     0
  9
$SHADOWPLANELOCATION
 40
0.0
  0
ENDSEC
  0
SECTION
  2
CLASSES
  0
CLASS
  1
ACDBDICTIONARYWDFLT
  2
AcDbDictionaryWithDefault
  3
ObjectDBX Classes
 90
        0
 91
        1
280
     0
281
     0
  0
CLASS
  1
MATERIAL
  2
AcDbMaterial
  3
ObjectDBX Classes
 90
     1153
 91
        3
280
     0
281
     0
  0
CLASS
  1
VISUALSTYLE
  2
AcDbVisualStyle
  3
ObjectDBX Classes
 90
     4095
 91
       24
280
     0
281
     0
  0
CLASS
  1
SCALE
  2
AcDbScale
  3
ObjectDBX Classes
 90
     1153
 91
       17
280
     0
281
     0
  0
CLASS
  1
TABLESTYLE
  2
AcDbTableStyle
  3
ObjectDBX Classes
 90
     4095
 91
        1
280
     0
281
     0
  0
CLASS
  1
MLEADERSTYLE
  2
AcDbMLeaderStyle
  3
ACDB_MLEADERSTYLE_CLASS
 90
     4095
 91
        1
280
     0
281
     0
  0
CLASS
  1
ACDBSECTIONVIEWSTYLE
  2
AcDbSectionViewStyle
  3
ObjectDBX Classes
 90
     1025
 91
        1
280
     0
281
     0
  0
CLASS
  1
ACDBDETAILVIEWSTYLE
  2
AcDbDetailViewStyle
  3
ObjectDBX Classes
 90
     1025
 91
        1
280
     0
281
     0
  0
CLASS
  1
RASTERVARIABLES
  2
AcDbRasterVariables
  3
ISM
 90
        0
 91
        1
280
     0
281
     0
  0
CLASS
  1
DICTIONARYVAR
  2
AcDbDictionaryVar
  3
ObjectDBX Classes
 90
        0
 91
        5
280
     0
281
     0
  0
CLASS
  1
CELLSTYLEMAP
  2
AcDbCellStyleMap
  3
ObjectDBX Classes
 90
     1152
 91
        2
280
     0
281
     0
  0
CLASS
  1
SORTENTSTABLE
  2
AcDbSortentsTable
  3
ObjectDBX Classes
 90
        0
 91
        1
280
     0
281
     0
  0
ENDSEC
  0
SECTION
  2
TABLES
  0
TABLE
  2
VPORT
  5
8
330
0
100
AcDbSymbolTable
 70
     1
  0
VPORT
  5
57
330
8
100
AcDbSymbolTableRecord
100
AcDbViewportTableRecord
  2
*Active
 70
     0
 10
0.0
 20
0.0
 11
1.0
 21
1.0
 12
942.9697006522516
 22
1954.652994410938
 13
0.0
 23
0.0
 14
1.0
 24
1.0
 15
0.0
 25
0.0
 16
0.0
 26
0.0
 36
1.0
 17
0.0
 27
0.0
 37
0.0
 40
324.6940111982647
 41
1.199919225428144
 42
50.0
 43
0.0
 44
0.0
 50
0.0
 51
0.0
 71
     0
 72
  1000
 73
     1
 74
     1
 75
     0
 76
     0
 77
     0
 78
     0
281
     0
 65
     1
110
0.0
120
0.0
130
0.0
111
1.0
121
0.0
131
0.0
112
0.0
122
1.0
132
0.0
 79
     0
146
0.0
 60
     3
 61
     5
292
     1
282
     1
141
0.0
142
0.0
 63
   250
421
  3355443
  0
ENDTAB
  0
TABLE
  2
LTYPE
  5
5
330
0
100
AcDbSymbolTable
 70
     3
  0
LTYPE
  5
5B
330
5
100
AcDbSymbolTableRecord
100
AcDbLinetypeTableRecord
  2
ByBlock
 70
     0
  3

 72
    65
 73
     0
 40
0.0
  0
LTYPE
  5
5C
330
5
100
AcDbSymbolTableRecord
100
AcDbLinetypeTableRecord
  2
ByLayer
 70
     0
  3

 72
    65
 73
     0
 40
0.0
  0
LTYPE
  5
5D
330
5
100
AcDbSymbolTableRecord
100
AcDbLinetypeTableRecord
  2
Continuous
 70
     0
  3
Solid line
 72
    65
 73
     0
 40
0.0
  0
LTYPE
  5
69
330
5
100
AcDbSymbolTableRecord
100
AcDbLinetypeTableRecord
  2
PHANTOM2
 70
     0
  3
___ _ _ ___ _ _ ___ _ _ ___ _ _
 72
    65
 73
     6
 40
1.25
 49
0.625
 74
     0
 49
-0.125
 74
     0
 49
0.125
 74
     0
 49
-0.125
 74
     0
 49
0.125
 74
     0
 49
-0.125
 74
     0
  0
LTYPE
  5
86
330
5
100
AcDbSymbolTableRecord
100
AcDbLinetypeTableRecord
  2
Nascosto 1_5 mm
 70
     0
  3

 72
    65
 73
     2
 40
2.2
 49
1.5
 74
     0
 49
-0.7000000000000001
 74
     0
  0
ENDTAB
  0
TABLE
  2
LAYER
  5
2
330
0
100
AcDbSymbolTable
 70
     4
  0
LAYER
  5
54
330
2
100
AcDbSymbolTableRecord
100
AcDbLayerTableRecord
  2
0
 70
     0
 62
     7
  6
Continuous
370
    -3
390
F
347
21
348
0
  0
LAYER
  5
85
330
2
100
AcDbSymbolTableRecord
100
AcDbLayerTableRecord
  2
P-SANR-FIXT
 70
     0
 62
     6
  6
Continuous
370
    18
390
F
347
21
348
0
  0
LAYER
  5
88
330
2
100
AcDbSymbolTableRecord
100
AcDbLayerTableRecord
  2
M-PIPE
 70
     0
 62
     3
  6
Continuous
370
    18
390
F
347
21
348
0
  0
ENDTAB
  0
TABLE
  2
STYLE
  5
3
330
0
100
AcDbSymbolTable
 70
     2
  0
STYLE
  5
55
330
3
100
AcDbSymbolTableRecord
100
AcDbTextStyleTableRecord
  2
Standard
 70
     0
 40
0.0
 41
1.0
 50
0.0
 71
     0
 42
0.2
  3
txt
  4

  0
STYLE
  5
5A
330
3
100
AcDbSymbolTableRecord
100
AcDbTextStyleTableRecord
  2
Annotative
 70
     0
 40
0.0
 41
1.0
 50
0.0
 71
     0
 42
0.2
  3
txt
  4

1001
AcadAnnotative
1000
AnnotativeData
1002
{
1070
     1
1070
     1
1002
}
  0
ENDTAB
  0
TABLE
  2
VIEW
  5
6
330
0
100
AcDbSymbolTable
 70
     0
  0
ENDTAB
  0
TABLE
  2
UCS
  5
7
330
0
100
AcDbSymbolTable
 70
     0
  0
ENDTAB
  0
TABLE
  2
APPID
  5
9
330
0
100
AcDbSymbolTable
 70
     3
  0
APPID
  5
56
330
9
100
AcDbSymbolTableRecord
100
AcDbRegAppTableRecord
  2
ACAD
 70
     0
  0
APPID
  5
5E
330
9
100
AcDbSymbolTableRecord
100
AcDbRegAppTableRecord
  2
AcadAnnotative
 70
     0
  0
APPID
  5
79
330
9
100
AcDbSymbolTableRecord
100
AcDbRegAppTableRecord
  2
REVIT
 70
     0
  0
ENDTAB
  0
TABLE
  2
DIMSTYLE
  5
A
330
0
100
AcDbSymbolTable
 70
     2
100
AcDbDimStyleTable
 71
     0
  0
DIMSTYLE
105
58
330
A
100
AcDbSymbolTableRecord
100
AcDbDimStyleTableRecord
  2
Standard
 70
     0
340
55
  0
DIMSTYLE
105
59
330
A
100
AcDbSymbolTableRecord
100
AcDbDimStyleTableRecord
  2
Annotative
 70
     0
340
55
1001
AcadAnnotative
1000
AnnotativeData
1002
{
1070
     1
1070
     1
1002
}
  0
ENDTAB
  0
TABLE
  2
BLOCK_RECORD
  5
1
330
0
100
AcDbSymbolTable
 70
     4
  0
BLOCK_RECORD
  5
71
102
{ACAD_XDICTIONARY
360
290
102
}
330
1
100
AcDbSymbolTableRecord
100
AcDbBlockTableRecord
  2
*Model_Space
340
74
 70
     0
280
     1
281
     0
  0
BLOCK_RECORD
  5
6D
330
1
100
AcDbSymbolTableRecord
100
AcDbBlockTableRecord
  2
*Paper_Space
340
70
 70
     0
280
     1
281
     0
  0
BLOCK_RECORD
  5
75
330
1
100
AcDbSymbolTableRecord
100
AcDbBlockTableRecord
  2
*Paper_Space0
340
78
 70
     0
280
     1
281
     0
  0
BLOCK_RECORD
  5
87
330
1
100
AcDbSymbolTableRecord
100
AcDbBlockTableRecord
  2
Automatic flow rate regulator valve_Caleffi_121 DN15 - 1_2__-859151-Est - Idraulica
340
0
102
{BLKREFS
331
186
102
}
 70
     0
280
     1
281
     0
  0
BLOCK_RECORD
  5
187
330
1
100
AcDbSymbolTableRecord
100
AcDbBlockTableRecord
  2
Automatic flow rate regulator valve_Caleffi_121 DN15 - 1_2__-V1-Est - Idraulica
340
0
102
{BLKREFS
331
1D1
102
}
 70
     0
280
     1
281
     0
  0
BLOCK_RECORD
  5
1D2
330
1
100
AcDbSymbolTableRecord
100
AcDbBlockTableRecord
  2
Automatic flow rate regulator valve_Caleffi_121 DN15 - 1_2__-V2-Est - Idraulica
340
0
102
{BLKREFS
331
289
102
}
 70
     0
280
     1
281
     0
  0
ENDTAB
  0
ENDSEC
  0
SECTION
  2
BLOCKS
  0
BLOCK
  5
72
330
71
100
AcDbEntity
  8
0
100
AcDbBlockBegin
  2
*Model_Space
 70
     0
 10
0.0
 20
0.0
 30
0.0
  3
*Model_Space
  1

  0
ENDBLK
  5
73
330
71
100
AcDbEntity
  8
0
100
AcDbBlockEnd
  0
BLOCK
  5
6E
330
6D
100
AcDbEntity
 67
     1
  8
0
100
AcDbBlockBegin
  2
*Paper_Space
 70
     0
 10
0.0
 20
0.0
 30
0.0
  3
*Paper_Space
  1

  0
ENDBLK
  5
6F
330
6D
100
AcDbEntity
 67
     1
  8
0
100
AcDbBlockEnd
  0
BLOCK
  5
76
330
75
100
AcDbEntity
 67
     1
  8
0
100
AcDbBlockBegin
  2
*Paper_Space0
 70
     0
 10
0.0
 20
0.0
 30
0.0
  3
*Paper_Space0
  1

  0
ENDBLK
  5
77
330
75
100
AcDbEntity
 67
     1
  8
0
100
AcDbBlockEnd
  0
BLOCK
  5
184
330
87
100
AcDbEntity
  8
0
100
AcDbBlockBegin
  2
Automatic flow rate regulator valve_Caleffi_121 DN15 - 1_2__-859151-Est - Idraulica
 70
     0
 10
0.0
 20
0.0
 30
0.0
  3
Automatic flow rate regulator valve_Caleffi_121 DN15 - 1_2__-859151-Est - Idraulica
  1

  0
LINE
  5
89
330
87
100
AcDbEntity
  8
M-PIPE
100
AcDbLine
 10
803.8664074431947
 20
2100.915944369272
 30
0.0
 11
803.8664074431947
 21
2100.000000000088
 31
0.0
1001
REVIT
1002
{
1070
     3
1000
923261
1002
}
  0
LINE
  5
8A
330
87
100
AcDbEntity
  8
M-PIPE
100
AcDbLine
 10
827.4664074431949
 20
2100.000000000088
 30
0.0
 11
827.4664074431949
 21
2100.915944369272
 31
0.0
1001
REVIT
1002
{
1070
     3
1000
923261
1002
}
  0
LINE
  5
8B
330
87
100
AcDbEntity
  8
M-PIPE
100
AcDbLine
 10
818.494834567919
 20
2117.000000000071
 30
0.0
 11
791.9783302734238
 21
2117.000000000071
 31
0.0
1001
REVIT
1002
{
1070
     3
1000
923261
1002
}
  0
LINE
  5
8C
330
87
100
AcDbEntity
  8
M-PIPE
100
AcDbLine
 10
791.9783302734238
 20
2117.000000000071
 30
0.0
 11
791.9783302734238
 21
2113.000000000071
 31
0.0
1001
REVIT
1002
{
1070
     3
1000
923261
1002
}
  0
LINE
  5
8D
330
87
100
AcDbEntity
  8
M-PIPE
100
AcDbLine
 10
791.9783302734238
 20
2113.000000000071
 30
0.0
 11
812.9689415383007
 21
2113.000000000071
 31
0.0
1001
REVIT
1002
{
1070
     3
1000
923261
1002
}
  0
ELLIPSE
  5
8E
330
87
100
AcDbEntity
  8
M-PIPE
100
AcDbEllipse
 10
812.9689415383005
 20
2109.185207133327
 30
0.0
 11
0.0
 21
3.814792866744028
 31
0.0
210
0.0
220
0.0
230
1.0
 40
0.7071067811865332
 41
4.712388980381943
 42
6.283185307179588
1001
REVIT
1002
{
1070
     3
1000
923261
1002
}
  0
LINE
  5
8F
330
87
100
AcDbEntity
  8
M-PIPE
100
AcDbLine
 10
815.6664074431972
 20
2109.185207133316
 30
0.0
 11
815.6664074431811
 21
2100.915944369271
 31
0.0
1001
REVIT
1002
{
1070
     3
1000
923261
1002
}
  0
LINE
  5
90
330
87
100
AcDbEntity
  8
M-PIPE
100
AcDbLine
 10
815.6664074431811
 20
2100.915944369271
 30
0.0
 11
832.3632407434194
 21
2100.915944369271
 31
0.0
1001
REVIT
1002
{
1070
     3
1000
923261
1002
}
  0
ELLIPSE
  5
91
330
87
100
AcDbEntity
  8
M-PIPE
100
AcDbEllipse
 10
818.4948345679188
 20
2097.000000000071
 30
0.0
 11
0.0
 21
19.99999999999989
 31
0.0
210
0.0
220
0.0
230
1.0
 40
0.7071067811865484
 41
4.909459318332713
 42
6.283185307179565
1001
REVIT
1002
{
1070
     3
1000
923261
1002
}
  0
ELLIPSE
  5
92
330
87
100
AcDbEntity
  8
M-PIPE
100
AcDbEllipse
 10
795.9983787898234
 20
2109.185207133327
 30
0.0
 11
0.0
 21
3.814792866744028
 31
0.0
210
0.0
220
0.0
230
1.0
 40
0.7071067811865332
 41
4.712388980381943
 42
6.283185307179588
1001
REVIT
1002
{
1070
     3
1000
923261
1002
}
  0
LINE
  5
93
330
87
100
AcDbEntity
  8
M-PIPE
100
AcDbLine
 10
775.0077675249468
 20
2113.000000000072
 30
0.0
 11
775.0077675249468
 21
2117.000000000071
 31
0.0
1001
REVIT
1002
{
1070
     3
1000
923261
1002
}
  0
LINE
  5
94
330
87
100
AcDbEntity
  8
M-PIPE
100
AcDbLine
 10
798.695844694704
 20
2100.915944369271
 30
0.0
 11
798.6958446947202
 21
2109.185207133317
 31
0.0
1001
REVIT
1002
{
1070
     3
1000
923261
1002
}
  0
LINE
  5
95
330
87
100
AcDbEntity
  8
M-PIPE
100
AcDbLine
 10
775.0077675249468
 20
2117.000000000071
 30
0.0
 11
791.9783302734238
 21
2117.000000000071
 31
0.0
1001
REVIT
1002
{
1070
     3
1000
923261
1002
}
  0
LINE
  5
96
330
87
100
AcDbEntity
  8
M-PIPE
100
AcDbLine
 10
775.0077675249468
 20
2113.000000000072
 30
0.0
 11
791.9783302734238
 21
2113.000000000071
 31
0.0
1001
REVIT
1002
{
1070
     3
1000
923261
1002
}
  0
LINE
  5
97
330
87
100
AcDbEntity
  8
M-PIPE
100
AcDbLine
 10
798.695844694704
 20
2100.915944369271
 30
0.0
 11
815.6664074431811
 21
2100.915944369271
 31
0.0
1001
REVIT
1002
{
1070
     3
1000
923261
1002
}
  0
LINE
  5
98
330
87
100
AcDbEntity
  8
M-PIPE
100
AcDbLine
 10
770.1664074431618
 20
2091.000000000057
 30
0.0
 11
762.1664074431617
 21
2091.000000000057
 31
0.0
1001
REVIT
1002
{
1070
     3
1000
923261
1002
}
  0
LINE
  5
99
330
87
100
AcDbEntity
  8
M-PIPE
100
AcDbLine
 10
762.1664074431615
 20
2067.000000000057
 30
0.0
 11
770.1664074431613
 21
2067.000000000057
 31
0.0
1001
REVIT
1002
{
1070
     3
1000
923261
1002
}
  0
LINE
  5
9A
330
87
100
AcDbEntity
  8
M-PIPE
100
AcDbLine
 10
757.1664074431609
 20
2071.000000000058
 30
0.0
 11
762.1664074431615
 21
2071.000000000058
 31
0.0
1001
REVIT
1002
{
1070
     3
1000
923261
1002
}
  0
LINE
  5
9B
330
87
100
AcDbEntity
  8
M-PIPE
100
AcDbLine
 10
770.1664074431615
 20
2071.000000000057
 30
0.0
 11
783.1664074431603
 21
2071.000000000057
 31
0.0
1001
REVIT
1002
{
1070
     3
1000
923261
1002
}
  0
LINE
  5
9C
330
87
100
AcDbEntity
  8
M-PIPE
100
AcDbLine
 10
783.1664074431608
 20
2087.000000000057
 30
0.0
 11
770.1664074431618
 21
2087.000000000057
 31
0.0
1001
REVIT
1002
{
1070
     3
1000
923261
1002
}
  0
LINE
  5
9D
330
87
100
AcDbEntity
  8
M-PIPE
100
AcDbLine
 10
762.1664074431617
 20
2087.000000000057
 30
0.0
 11
757.1664074431612
 21
2087.000000000057
 31
0.0
1001
REVIT
1002
{
1070
     3
1000
923261
1002
}
  0
LINE
  5
9E
330
87
100
AcDbEntity
  8
M-PIPE
100
AcDbLine
 10
828.1664074431727
 20
2020.889999999994
 30
0.0
 11
828.1664074431727
 21
2037.790000000057
 31
0.0
1001
REVIT
1002
{
1070
     3
1000
923261
1002
}
  0
LINE
  5
9F
330
87
100
AcDbEntity
  8
M-PIPE
100
AcDbLine
 10
803.1664074431727
 20
2037.790000000057
 30
0.0
 11
803.1664074431727
 21
2020.889999999994
 31
0.0
1001
REVIT
1002
{
1070
     3
1000
923261
1002
}
  0
LINE
  5
A0
330
87
100
AcDbEntity
  8
M-PIPE
100
AcDbLine
 10
857.5182691002124
 20
2029.790000000057
 30
0.0
 11
857.5182691002124
 21
2037.790000000057
 31
0.0
1001
REVIT
1002
{
1070
     3
1000
923261
1002
}
  0
LINE
  5
A1
330
87
100
AcDbEntity
  8
M-PIPE
100
AcDbLine
 10
841.5182691002124
 20
2037.790000000057
 30
0.0
 11
841.5182691002124
 21
2029.790000000057
 31
0.0
1001
REVIT
1002
{
1070
     3
1000
923261
1002
}
  0
LINE
  5
A2
330
87
100
AcDbEntity
  8
M-PIPE
100
AcDbLine
 10
853.5182691002125
 20
2098.000000000057
 30
0.0
 11
853.5182691002125
 21
2107.999999999994
 31
0.0
1001
REVIT
1002
{
1070
     3
1000
923261
1002
}
  0
LINE
  5
A3
330
87
100
AcDbEntity
  8
M-PIPE
100
AcDbLine
 10
845.5182691002125
 20
2107.999999999994
 30
0.0
 11
845.5182691002125
 21
2098.000000000057
 31
0.0
1001
REVIT
1002
{
1070
     3
1000
923261
1002
}
  0
LINE
  5
A4
330
87
100
AcDbEntity
  8
M-PIPE
100
AcDbLine
 10
857.5182691002126
 20
2107.999999999994
 30
0.0
 11
857.5182691002126
 21
2113.000000000057
 31
0.0
1001
REVIT
1002
{
1070
     3
1000
923261
1002
}
  0
LINE
  5
A5
330
87
100
AcDbEntity
  8
M-PIPE
100
AcDbLine
 10
841.5182691002126
 20
2113.000000000058
 30
0.0
 11
841.5182691002126
 21
2107.999999999994
 31
0.0
1001
REVIT
1002
{
1070
     3
1000
923261
1002
}
  0
LINE
  5
A6
330
87
100
AcDbEntity
  8
M-PIPE
100
AcDbLine
 10
827.666407443173
 20
2098.000000000057
 30
0.0
 11
827.666407443173
 21
2100.000000000057
 31
0.0
1001
REVIT
1002
{
1070
     3
1000
923261
1002
}
  0
LINE
  5
A7
330
87
100
AcDbEntity
  8
M-PIPE
100
AcDbLine
 10
803.666407443173
 20
2100.000000000057
 30
0.0
 11
803.666407443173
 21
2098.000000000057
 31
0.0
1001
REVIT
1002
{
1070
     3
1000
923261
1002
}
  0
LINE
  5
A8
330
87
100
AcDbEntity
  8
M-PIPE
100
AcDbLine
 10
770.1664074431602
 20
2091.000000000057
 30
0.0
 11
770.1664074431599
 21
2079.000000000057
 31
0.0
1001
REVIT
1002
{
1070
     3
1000
923261
1002
}
  0
LINE
  5
A9
330
87
100
AcDbEntity
  8
M-PIPE
100
AcDbLine
 10
770.1664074431599
 20
2079.000000000057
 30
0.0
 11
770.1664074431598
 21
2067.000000000057
 31
0.0
1001
REVIT
1002
{
1070
     3
1000
923261
1002
}
  0
LINE
  5
AA
330
87
100
AcDbEntity
  8
M-PIPE
100
AcDbLine
 10
762.1664074431598
 20
2067.000000000057
 30
0.0
 11
762.1664074431601
 21
2079.000000000057
 31
0.0
1001
REVIT
1002
{
1070
     3
1000
923261
1002
}
  0
LINE
  5
AB
330
87
100
AcDbEntity
  8
M-PIPE
100
AcDbLine
 10
762.1664074431601
 20
2079.000000000057
 30
0.0
 11
762.1664074431602
 21
2091.000000000057
 31
0.0
1001
REVIT
1002
{
1070
     3
1000
923261
1002
}
  0
LINE
  5
AC
330
87
100
AcDbEntity
  8
M-PIPE
100
AcDbLine
 10
757.1664074431594
 20
2079.000000000057
 30
0.0
 11
757.1664074431595
 21
2087.000000000057
 31
0.0
1001
REVIT
1002
{
1070
     3
1000
923261
1002
}
  0
LINE
  5
AD
330
87
100
AcDbEntity
  8
M-PIPE
100
AcDbLine
 10
757.1664074431594
 20
2071.000000000057
 30
0.0
 11
757.1664074431594
 21
2079.000000000057
 31
0.0
1001
REVIT
1002
{
1070
     3
1000
923261
1002
}
  0
LINE
  5
AE
330
87
100
AcDbEntity
  8
M-PIPE
100
AcDbLine
 10
828.1664074431711
 20
2020.889999999993
 30
0.0
 11
828.0741618520899
 21
2020.889999999993
 31
0.0
1001
REVIT
1002
{
1070
     3
1000
923261
1002
}
  0
LINE
  5
AF
330
87
100
AcDbEntity
  8
M-PIPE
100
AcDbLine
 10
828.0311941690561
 20
2020.889999999993
 30
0.0
 11
827.7404802717844
 21
2020.889999999993
 31
0.0
1001
REVIT
1002
{
1070
     3
1000
923261
1002
}
  0
LINE
  5
B0
330
87
100
AcDbEntity
  8
M-PIPE
100
AcDbLine
 10
827.7394932678364
 20
2020.889999999993
 30
0.0
 11
827.2140920157582
 21
2020.889999999993
 31
0.0
1001
REVIT
1002
{
1070
     3
1000
923261
1002
}
  0
LINE
  5
B1
330
87
100
AcDbEntity
  8
M-PIPE
100
AcDbLine
 10
827.1373632517494
 20
2020.889999999993
 30
0.0
 11
825.5808233686412
 21
2020.889999999993
 31
0.0
1001
REVIT
1002
{
1070
     3
1000
923261
1002
}
  0
LINE
  5
B2
330
87
100
AcDbEntity
  8
M-PIPE
100
AcDbLine
 10
825.2419629821583
 20
2020.889999999993
 30
0.0
 11
824.5052422080028
 21
2020.889999999993
 31
0.0
1001
REVIT
1002
{
1070
     3
1000
923261
1002
}
  0
LINE
  5
B3
330
87
100
AcDbEntity
  8
M-PIPE
100
AcDbLine
 10
824.5044941416786
 20
2020.889999999993
 30
0.0
 11
823.2735471639147
 21
2020.889999999993
 31
0.0
1001
REVIT
1002
{
1070
     3
1000
923261
1002
}
  0
LINE
  5
B4
330
87
100
AcDbEntity
  8
M-PIPE
100
AcDbLine
 10
822.8361128975592
 20
2020.889999999993
 30
0.0
 11
821.9174479401489
 21
2020.889999999993
 31
0.0
1001
REVIT
1002
{
1070
     3
1000
923261
1002
}
  0
LINE
  5
B5
330
87
100
AcDbEntity
  8
M-PIPE
100
AcDbLine
 10
821.9164074431711
 20
2020.889999999993
 30
0.0
 11
820.4463514302304
 21
2020.889999999993
 31
0.0
1001
REVIT
1002
{
1070
     3
1000
923261
1002
}
  0
LINE
  5
B6
330
87
100
AcDbEntity
  8
M-PIPE
100
AcDbLine
 10
819.9416592347418
 20
2020.889999999993
 30
0.0
 11
818.9036042526007
 21
2020.889999999993
 31
0.0
1001
REVIT
1002
{
1070
     3
1000
923261
1002
}
  0
LINE
  5
B7
330
87
100
AcDbEntity
  8
M-PIPE
100
AcDbLine
 10
818.9016455069525
 20
2020.889999999993
 30
0.0
 11
811.3911556516002
 21
2020.889999999993
 31
0.0
1001
REVIT
1002
{
1070
     3
1000
923261
1002
}
  0
LINE
  5
B8
330
87
100
AcDbEntity
  8
M-PIPE
100
AcDbLine
 10
810.8864634560863
 20
2020.889999999993
 30
0.0
 11
809.4164074431711
 21
2020.889999999993
 31
0.0
1001
REVIT
1002
{
1070
     3
1000
923261
1002
}
  0
LINE
  5
B9
330
87
100
AcDbEntity
  8
M-PIPE
100
AcDbLine
 10
809.415366946167
 20
2020.889999999993
 30
0.0
 11
808.496701988783
 21
2020.889999999993
 31
0.0
1001
REVIT
1002
{
1070
     3
1000
923261
1002
}
  0
LINE
  5
BA
330
87
100
AcDbEntity
  8
M-PIPE
100
AcDbLine
 10
808.0592677224023
 20
2020.889999999993
 30
0.0
 11
806.8283207446391
 21
2020.889999999993
 31
0.0
1001
REVIT
1002
{
1070
     3
1000
923261
1002
}
  0
LINE
  5
BB
330
87
100
AcDbEntity
  8
M-PIPE
100
AcDbLine
 10
806.8275726783392
 20
2020.889999999993
 30
0.0
 11
806.0908519041838
 21
2020.889999999993
 31
0.0
1001
REVIT
1002
{
1070
     3
1000
923261
1002
}
  0
LINE
  5
BC
330
87
100
AcDbEntity
  8
M-PIPE
100
AcDbLine
 10
805.7519915176754
 20
2020.889999999993
 30
0.0
 11
804.8430630404586
 21
2020.889999999993
 31
0.0
1001
REVIT
1002
{
1070
     3
1000
923261
1002
}
  0
LINE
  5
BD
330
87
100
AcDbEntity
  8
M-PIPE
100
AcDbLine
 10
804.8410898958655
 20
2020.889999999993
 30
0.0
 11
804.1954516347319
 21
2020.889999999993
 31
0.0
1001
REVIT
1002
{
1070
     3
1000
923261
1002
}
  0
LINE
  5
BE
330
87
100
AcDbEntity
  8
M-PIPE
100
AcDbLine
 10
804.1187228705586
 20
2020.889999999993
 30
0.0
 11
803.5933216184838
 21
2020.889999999993
 31
0.0
1001
REVIT
1002
{
1070
     3
1000
923261
1002
}
  0
LINE
  5
BF
330
87
100
AcDbEntity
  8
M-PIPE
100
AcDbLine
 10
803.5923346145578
 20
2020.889999999993
 30
0.0
 11
803.3016207173425
 21
2020.889999999993
 31
0.0
1001
REVIT
1002
{
1070
     3
1000
923261
1002
}
  0
LINE
  5
C0
330
87
100
AcDbEntity
  8
M-PIPE
100
AcDbLine
 10
803.2586530342284
 20
2020.889999999993
 30
0.0
 11
803.1664074431711
 21
2020.889999999993
 31
0.0
1001
REVIT
1002
{
1070
     3
1000
923261
1002
}
  0
ARC
  5
C1
330
87
100
AcDbEntity
  8
M-PIPE
100
AcDbCircle
 10
803.1664074431596
 20
2057.790000000055
 30
0.0
 40
19.99999999999991
100
AcDbArc
 50
179.9999999999998
 51
269.9999999999985
1001
REVIT
1002
{
1070
     3
1000
923261
1002
}
  0
LINE
  5
C2
330
87
100
AcDbEntity
  8
M-PIPE
100
AcDbLine
 10
803.1664074431592
 20
2037.790000000056
 30
0.0
 11
865.6664074431592
 21
2037.790000000055
 31
0.0
1001
REVIT
1002
{
1070
     3
1000
923261
1002
}
  0
ARC
  5
C3
330
87
100
AcDbEntity
  8
M-PIPE
100
AcDbCircle
 10
865.6664074431596
 20
2070.790000000056
 30
0.0
 40
32.99999999999995
100
AcDbArc
 50
269.9999999999983
 51
359.9999999999983
1001
REVIT
1002
{
1070
     3
1000
923261
1002
}
  0
LINE
  5
C4
330
87
100
AcDbEntity
  8
M-PIPE
100
AcDbLine
 10
898.6664074431596
 20
2070.790000000055
 30
0.0
 11
898.6664074431596
 21
2075.99951915939
 31
0.0
1001
REVIT
1002
{
1070
     3
1000
923261
1002
}
  0
LINE
  5
C5
330
87
100
AcDbEntity
  8
M-PIPE
100
AcDbLine
 10
783.1664074431596
 20
2058.000000000054
 30
0.0
 11
783.1664074431596
 21
2057.790000000055
 31
0.0
1001
REVIT
1002
{
1070
     3
1000
923261
1002
}
  0
ARC
  5
C6
330
87
100
AcDbEntity
  8
M-PIPE
100
AcDbCircle
 10
891.6664074431597
 20
2091.000000000055
 30
0.0
 40
7.000000000000056
100
AcDbArc
 50
359.9999999999992
 51
89.99999999999955
1001
REVIT
1002
{
1070
     3
1000
923261
1002
}
  0
LINE
  5
C7
330
87
100
AcDbEntity
  8
M-PIPE
100
AcDbLine
 10
891.6664074431597
 20
2098.000000000055
 30
0.0
 11
783.1664074431597
 21
2098.000000000056
 31
0.0
1001
REVIT
1002
{
1070
     3
1000
923261
1002
}
  0
LINE
  5
C8
330
87
100
AcDbEntity
  8
M-PIPE
100
AcDbLine
 10
783.1664074431597
 20
2098.000000000056
 30
0.0
 11
783.1664074431596
 21
2068.112328629041
 31
0.0
1001
REVIT
1002
{
1070
     3
1000
923261
1002
}
  0
LINE
  5
C9
330
87
100
AcDbEntity
  8
M-PIPE
100
AcDbLine
 10
898.6664074431596
 20
2086.000000000055
 30
0.0
 11
898.6664074431597
 21
2091.000000000055
 31
0.0
1001
REVIT
1002
{
1070
     3
1000
923261
1002
}
  0
LINE
  5
CA
330
87
100
AcDbEntity
  8
M-PIPE
100
AcDbLine
 10
857.5182691002108
 20
2029.790000000056
 30
0.0
 11
841.5182691002108
 21
2029.790000000056
 31
0.0
1001
REVIT
1002
{
1070
     3
1000
923261
1002
}
  0
LINE
  5
CB
330
87
100
AcDbEntity
  8
M-PIPE
100
AcDbLine
 10
783.1664074431594
 20
2058.000000000054
 30
0.0
 11
783.1664074431596
 21
2068.112328629041
 31
0.0
1001
REVIT
1002
{
1070
     3
1000
923261
1002
}
  0
ARC
  5
CC
330
87
100
AcDbEntity
  8
M-PIPE
100
AcDbCircle
 10
789.1627547930137
 20
2217.992889362595
 30
0.0
 40
160.1052179915262
100
AcDbArc
 50
267.8536254461361
 51
292.1463745538603
1001
REVIT
1002
{
1070
     3
1000
923261
1002
}
  0
ARC
  5
CD
330
87
100
AcDbEntity
  8
M-PIPE
100
AcDbCircle
 10
893.8163052506519
 20
1919.030924854704
 30
0.0
 40
157.0457663781111
100
AcDbArc
 50
88.20933210116651
 51
106.3838397345606
1001
REVIT
1002
{
1070
     3
1000
923261
1002
}
  0
LINE
  5
CE
330
87
100
AcDbEntity
  8
M-PIPE
100
AcDbLine
 10
898.7236655697515
 20
2076.000000000055
 30
0.0
 11
900.1664074431594
 21
2076.000000000055
 31
0.0
1001
REVIT
1002
{
1070
     3
1000
923261
1002
}
  0
LINE
  5
CF
330
87
100
AcDbEntity
  8
M-PIPE
100
AcDbLine
 10
900.1664074431594
 20
2076.000000000055
 30
0.0
 11
900.1664074431596
 21
2086.000000000055
 31
0.0
1001
REVIT
1002
{
1070
     3
1000
923261
1002
}
  0
LINE
  5
D0
330
87
100
AcDbEntity
  8
M-PIPE
100
AcDbLine
 10
900.1664074431596
 20
2086.000000000055
 30
0.0
 11
886.1134609974264
 21
2086.000000000055
 31
0.0
1001
REVIT
1002
{
1070
     3
1000
923261
1002
}
  0
ARC
  5
D1
330
87
100
AcDbEntity
  8
M-PIPE
100
AcDbCircle
 10
893.8163052506519
 20
1929.14325348369
 30
0.0
 40
157.0457663781112
100
AcDbArc
 50
92.81139458151663
 51
106.3838397345598
1001
REVIT
1002
{
1070
     3
1000
923261
1002
}
  0
ARC
  5
D2
330
87
100
AcDbEntity
  8
M-PIPE
100
AcDbCircle
 10
789.1627547930137
 20
2228.105217991581
 30
0.0
 40
160.1052179915261
100
AcDbArc
 50
267.8536254461369
 51
292.1463745538611
1001
REVIT
1002
{
1070
     3
1000
923261
1002
}
  0
LINE
  5
D3
330
87
100
AcDbEntity
  8
M-PIPE
100
AcDbLine
 10
841.5182691002112
 20
2113.000000000056
 30
0.0
 11
857.518269100211
 21
2113.000000000056
 31
0.0
1001
REVIT
1002
{
1070
     3
1000
923261
1002
}
  0
LINE
  5
D4
330
87
100
AcDbEntity
  8
M-PIPE
100
AcDbLine
 10
857.518269100211
 20
2107.999999999993
 30
0.0
 11
841.5182691002112
 21
2107.999999999993
 31
0.0
1001
REVIT
1002
{
1070
     3
1000
923261
1002
}
  0
LINE
  5
D5
330
87
100
AcDbEntity
  8
M-PIPE
100
AcDbLine
 10
803.6664074431714
 20
2100.000000000056
 30
0.0
 11
827.6664074431712
 21
2100.000000000056
 31
0.0
1001
REVIT
1002
{
1070
     3
1000
923261
1002
}
  0
LINE
  5
D6
330
87
100
AcDbEntity
  8
M-PIPE
100
AcDbLine
 10
881.8664074431559
 20
2013.250000000085
 30
0.0
 11
866.6664074431563
 21
2013.250000000085
 31
0.0
1001
REVIT
1002
{
1070
     3
1000
790271
1002
}
  0
LINE
  5
D7
330
87
100
AcDbEntity
  8
M-PIPE
100
AcDbLine
 10
866.6664074431563
 20
1986.749999999993
 30
0.0
 11
881.8664074431557
 21
1986.749999999993
 31
0.0
1001
REVIT
1002
{
1070
     3
1000
790271
1002
}
  0
LINE
  5
D8
330
87
100
AcDbEntity
  8
M-PIPE
100
AcDbLine
 10
883.1664074431561
 20
2011.95000000007
 30
0.0
 11
881.8664074431559
 21
2013.25000000007
 31
0.0
1001
REVIT
1002
{
1070
     3
1000
790271
1002
}
  0
LINE
  5
D9
330
87
100
AcDbEntity
  8
M-PIPE
100
AcDbLine
 10
881.8664074431557
 20
1986.750000000008
 30
0.0
 11
883.1664074431555
 21
1988.050000000008
 31
0.0
1001
REVIT
1002
{
1070
     3
1000
790271
1002
}
  0
LINE
  5
DA
330
87
100
AcDbEntity
  8
M-PIPE
100
AcDbLine
 10
866.6664074431547
 20
2013.250000000085
 30
0.0
 11
866.6664074431546
 21
2012.500000000026
 31
0.0
1001
REVIT
1002
{
1070
     3
1000
790271
1002
}
  0
LINE
  5
DB
330
87
100
AcDbEntity
  8
M-PIPE
100
AcDbLine
 10
866.6664074431547
 20
2012.500000000026
 30
0.0
 11
858.6664074431546
 21
2012.500000000026
 31
0.0
1001
REVIT
1002
{
1070
     3
1000
790271
1002
}
  0
LINE
  5
DC
330
87
100
AcDbEntity
  8
M-PIPE
100
AcDbLine
 10
858.6664074431546
 20
2010.055834337053
 30
0.0
 11
866.6664074431547
 21
2010.055834337053
 31
0.0
1001
REVIT
1002
{
1070
     3
1000
790271
1002
}
  0
LINE
  5
DD
330
87
100
AcDbEntity
  8
M-PIPE
100
AcDbLine
 10
866.6664074431547
 20
2010.055834337052
 30
0.0
 11
866.6664074431546
 21
2002.444165663033
 31
0.0
1001
REVIT
1002
{
1070
     3
1000
790271
1002
}
  0
LINE
  5
DE
330
87
100
AcDbEntity
  8
M-PIPE
100
AcDbLine
 10
866.6664074431547
 20
2002.444165663032
 30
0.0
 11
858.6664074431546
 21
2002.444165663032
 31
0.0
1001
REVIT
1002
{
1070
     3
1000
790271
1002
}
  0
LINE
  5
DF
330
87
100
AcDbEntity
  8
M-PIPE
100
AcDbLine
 10
858.6664074431546
 20
1997.555834337009
 30
0.0
 11
866.6664074431547
 21
1997.555834337009
 31
0.0
1001
REVIT
1002
{
1070
     3
1000
790271
1002
}
  0
LINE
  5
E0
330
87
100
AcDbEntity
  8
M-PIPE
100
AcDbLine
 10
866.6664074431547
 20
1997.555834337007
 30
0.0
 11
866.6664074431547
 21
1989.944165663049
 31
0.0
1001
REVIT
1002
{
1070
     3
1000
790271
1002
}
  0
LINE
  5
E1
330
87
100
AcDbEntity
  8
M-PIPE
100
AcDbLine
 10
866.6664074431547
 20
1989.944165663048
 30
0.0
 11
858.6664074431542
 21
1989.944165663048
 31
0.0
1001
REVIT
1002
{
1070
     3
1000
790271
1002
}
  0
LINE
  5
E2
330
87
100
AcDbEntity
  8
M-PIPE
100
AcDbLine
 10
858.6664074431542
 20
1987.500000000026
 30
0.0
 11
866.6664074431547
 21
1987.500000000026
 31
0.0
1001
REVIT
1002
{
1070
     3
1000
790271
1002
}
  0
LINE
  5
E3
330
87
100
AcDbEntity
  8
M-PIPE
100
AcDbLine
 10
866.6664074431547
 20
1987.500000000026
 30
0.0
 11
866.6664074431549
 21
1986.749999999992
 31
0.0
1001
REVIT
1002
{
1070
     3
1000
790271
1002
}
  0
LINE
  5
E4
330
87
100
AcDbEntity
  8
M-PIPE
100
AcDbLine
 10
883.1664074431543
 20
2011.950000000069
 30
0.0
 11
883.1664074431541
 21
2000.000000000039
 31
0.0
1001
REVIT
1002
{
1070
     3
1000
790271
1002
}
  0
LINE
  5
E5
330
87
100
AcDbEntity
  8
M-PIPE
100
AcDbLine
 10
883.1664074431541
 20
2000.000000000039
 30
0.0
 11
883.1664074431541
 21
1988.050000000007
 31
0.0
1001
REVIT
1002
{
1070
     3
1000
790271
1002
}
  0
LINE
  5
E6
330
87
100
AcDbEntity
  8
M-PIPE
100
AcDbLine
 10
881.866407443154
 20
2000.000000000038
 30
0.0
 11
881.8664074431543
 21
2013.250000000069
 31
0.0
1001
REVIT
1002
{
1070
     3
1000
790271
1002
}
  0
LINE
  5
E7
330
87
100
AcDbEntity
  8
M-PIPE
100
AcDbLine
 10
881.8664074431541
 20
1986.750000000007
 30
0.0
 11
881.866407443154
 21
2000.000000000038
 31
0.0
1001
REVIT
1002
{
1070
     3
1000
790271
1002
}
  0
LINE
  5
E8
330
87
100
AcDbEntity
  8
M-PIPE
100
AcDbLine
 10
764.6664074431635
 20
2013.249999999997
 30
0.0
 11
749.4664074431639
 21
2013.249999999997
 31
0.0
1001
REVIT
1002
{
1070
     3
1000
790271
1002
}
  0
LINE
  5
E9
330
87
100
AcDbEntity
  8
M-PIPE
100
AcDbLine
 10
749.4664074431641
 20
1986.749999999905
 30
0.0
 11
764.6664074431633
 21
1986.749999999905
 31
0.0
1001
REVIT
1002
{
1070
     3
1000
790271
1002
}
  0
LINE
  5
EA
330
87
100
AcDbEntity
  8
M-PIPE
100
AcDbLine
 10
749.4664074431639
 20
2013.249999999982
 30
0.0
 11
748.1664074431637
 21
2011.949999999982
 31
0.0
1001
REVIT
1002
{
1070
     3
1000
790271
1002
}
  0
LINE
  5
EB
330
87
100
AcDbEntity
  8
M-PIPE
100
AcDbLine
 10
748.166407443164
 20
1988.04999999992
 30
0.0
 11
749.4664074431641
 21
1986.74999999992
 31
0.0
1001
REVIT
1002
{
1070
     3
1000
790271
1002
}
  0
LINE
  5
EC
330
87
100
AcDbEntity
  8
M-PIPE
100
AcDbLine
 10
772.666407443162
 20
2002.444165662861
 30
0.0
 11
764.6664074431619
 21
2002.444165662861
 31
0.0
1001
REVIT
1002
{
1070
     3
1000
790271
1002
}
  0
LINE
  5
ED
330
87
100
AcDbEntity
  8
M-PIPE
100
AcDbLine
 10
764.6664074431619
 20
2002.444165662859
 30
0.0
 11
764.6664074431619
 21
2010.055834337021
 31
0.0
1001
REVIT
1002
{
1070
     3
1000
790271
1002
}
  0
LINE
  5
EE
330
87
100
AcDbEntity
  8
M-PIPE
100
AcDbLine
 10
764.6664074431619
 20
2010.05583433702
 30
0.0
 11
772.6664074431618
 21
2010.05583433702
 31
0.0
1001
REVIT
1002
{
1070
     3
1000
790271
1002
}
  0
LINE
  5
EF
330
87
100
AcDbEntity
  8
M-PIPE
100
AcDbLine
 10
772.6664074431618
 20
2012.499999999938
 30
0.0
 11
764.6664074431619
 21
2012.499999999938
 31
0.0
1001
REVIT
1002
{
1070
     3
1000
790271
1002
}
  0
LINE
  5
F0
330
87
100
AcDbEntity
  8
M-PIPE
100
AcDbLine
 10
764.6664074431619
 20
2012.499999999938
 30
0.0
 11
764.6664074431619
 21
2013.249999999997
 31
0.0
1001
REVIT
1002
{
1070
     3
1000
790271
1002
}
  0
LINE
  5
F1
330
87
100
AcDbEntity
  8
M-PIPE
100
AcDbLine
 10
764.6664074431619
 20
1986.749999999904
 30
0.0
 11
764.6664074431618
 21
1987.499999999938
 31
0.0
1001
REVIT
1002
{
1070
     3
1000
790271
1002
}
  0
LINE
  5
F2
330
87
100
AcDbEntity
  8
M-PIPE
100
AcDbLine
 10
764.6664074431619
 20
1987.499999999938
 30
0.0
 11
772.6664074431621
 21
1987.499999999938
 31
0.0
1001
REVIT
1002
{
1070
     3
1000
790271
1002
}
  0
LINE
  5
F3
330
87
100
AcDbEntity
  8
M-PIPE
100
AcDbLine
 10
772.666407443162
 20
1989.944165662905
 30
0.0
 11
764.6664074431619
 21
1989.944165662905
 31
0.0
1001
REVIT
1002
{
1070
     3
1000
790271
1002
}
  0
LINE
  5
F4
330
87
100
AcDbEntity
  8
M-PIPE
100
AcDbLine
 10
764.6664074431619
 20
1989.944165662904
 30
0.0
 11
764.6664074431618
 21
1997.555834337005
 31
0.0
1001
REVIT
1002
{
1070
     3
1000
790271
1002
}
  0
LINE
  5
F5
330
87
100
AcDbEntity
  8
M-PIPE
100
AcDbLine
 10
764.6664074431619
 20
1997.555834337004
 30
0.0
 11
772.666407443162
 21
1997.555834337004
 31
0.0
1001
REVIT
1002
{
1070
     3
1000
790271
1002
}
  0
LINE
  5
F6
330
87
100
AcDbEntity
  8
M-PIPE
100
AcDbLine
 10
748.1664074431622
 20
1999.99999999995
 30
0.0
 11
748.1664074431622
 21
2011.949999999981
 31
0.0
1001
REVIT
1002
{
1070
     3
1000
790271
1002
}
  0
LINE
  5
F7
330
87
100
AcDbEntity
  8
M-PIPE
100
AcDbLine
 10
748.1664074431626
 20
1988.049999999919
 30
0.0
 11
748.1664074431622
 21
1999.99999999995
 31
0.0
1001
REVIT
1002
{
1070
     3
1000
790271
1002
}
  0
LINE
  5
F8
330
87
100
AcDbEntity
  8
M-PIPE
100
AcDbLine
 10
749.4664074431621
 20
2013.249999999981
 30
0.0
 11
749.4664074431621
 21
1999.99999999995
 31
0.0
1001
REVIT
1002
{
1070
     3
1000
790271
1002
}
  0
LINE
  5
F9
330
87
100
AcDbEntity
  8
M-PIPE
100
AcDbLine
 10
749.4664074431621
 20
1999.99999999995
 30
0.0
 11
749.4664074431625
 21
1986.749999999919
 31
0.0
1001
REVIT
1002
{
1070
     3
1000
790271
1002
}
  0
LINE
  5
FA
330
87
100
AcDbEntity
  8
M-PIPE
100
AcDbLine
 10
772.6664074431615
 20
1983.834192462669
 30
0.0
 11
774.9565431430637
 21
1979.867561074211
 31
0.0
1001
REVIT
1002
{
1070
     3
1000
790271
1002
}
  0
LINE
  5
FB
330
87
100
AcDbEntity
  8
M-PIPE
100
AcDbLine
 10
774.9849171288842
 20
1979.818415889157
 30
0.0
 11
775.085850859541
 21
1979.643593539462
 31
0.0
1001
REVIT
1002
{
1070
     3
1000
790271
1002
}
  0
LINE
  5
FC
330
87
100
AcDbEntity
  8
M-PIPE
100
AcDbLine
 10
775.0858508595607
 20
2020.356406460564
 30
0.0
 11
774.9849171289042
 21
2020.18158411087
 31
0.0
1001
REVIT
1002
{
1070
     3
1000
790271
1002
}
  0
LINE
  5
FD
330
87
100
AcDbEntity
  8
M-PIPE
100
AcDbLine
 10
774.9565431430838
 20
2020.132438925815
 30
0.0
 11
772.6664074431621
 21
2016.165807537324
 31
0.0
1001
REVIT
1002
{
1070
     3
1000
790271
1002
}
  0
LINE
  5
FE
330
87
100
AcDbEntity
  8
M-PIPE
100
AcDbLine
 10
787.5946106734468
 20
1979.643593539462
 30
0.0
 11
787.6955685042474
 21
1979.818457631831
 31
0.0
1001
REVIT
1002
{
1070
     3
1000
790271
1002
}
  0
LINE
  5
FF
330
87
100
AcDbEntity
  8
M-PIPE
100
AcDbLine
 10
787.7239183899239
 20
1979.867561074211
 30
0.0
 11
788.6664074431616
 21
1981.499999999996
 31
0.0
1001
REVIT
1002
{
1070
     3
1000
790271
1002
}
  0
LINE
  5
100
330
87
100
AcDbEntity
  8
M-PIPE
100
AcDbLine
 10
788.666407443162
 20
2018.499999999996
 30
0.0
 11
787.7239183899048
 21
2020.132438925815
 31
0.0
1001
REVIT
1002
{
1070
     3
1000
790271
1002
}
  0
LINE
  5
101
330
87
100
AcDbEntity
  8
M-PIPE
100
AcDbLine
 10
787.6955685042284
 20
2020.181542368196
 30
0.0
 11
787.5946106734278
 21
2020.356406460564
 31
0.0
1001
REVIT
1002
{
1070
     3
1000
790271
1002
}
  0
LINE
  5
102
330
87
100
AcDbEntity
  8
M-PIPE
100
AcDbLine
 10
775.0858508595411
 20
1979.643593539462
 30
0.0
 11
787.5946106734467
 21
1979.643593539462
 31
0.0
1001
REVIT
1002
{
1070
     3
1000
790271
1002
}
  0
LINE
  5
103
330
87
100
AcDbEntity
  8
M-PIPE
100
AcDbLine
 10
787.594610673428
 20
2020.356406460564
 30
0.0
 11
775.0858508595609
 21
2020.356406460564
 31
0.0
1001
REVIT
1002
{
1070
     3
1000
790271
1002
}
  0
LINE
  5
104
330
87
100
AcDbEntity
  8
M-PIPE
100
AcDbLine
 10
772.66640744316
 20
1983.834192462669
 30
0.0
 11
772.6664074431605
 21
2016.165807537322
 31
0.0
1001
REVIT
1002
{
1070
     3
1000
790271
1002
}
  0
LINE
  5
105
330
87
100
AcDbEntity
  8
M-PIPE
100
AcDbLine
 10
788.6664074431607
 20
2018.499999999995
 30
0.0
 11
788.6664074431605
 21
2016.021469970008
 31
0.0
1001
REVIT
1002
{
1070
     3
1000
790271
1002
}
  0
LINE
  5
106
330
87
100
AcDbEntity
  8
M-PIPE
100
AcDbLine
 10
788.6664074431605
 20
2016.021469970008
 30
0.0
 11
788.6664074431601
 21
1999.999999999996
 31
0.0
1001
REVIT
1002
{
1070
     3
1000
790271
1002
}
  0
LINE
  5
107
330
87
100
AcDbEntity
  8
M-PIPE
100
AcDbLine
 10
788.6664074431601
 20
1999.999999999996
 30
0.0
 11
788.66640744316
 21
1983.978530029984
 31
0.0
1001
REVIT
1002
{
1070
     3
1000
790271
1002
}
  0
LINE
  5
108
330
87
100
AcDbEntity
  8
M-PIPE
100
AcDbLine
 10
788.6664074431601
 20
1983.978530029984
 30
0.0
 11
788.6664074431601
 21
1981.499999999995
 31
0.0
1001
REVIT
1002
{
1070
     3
1000
790271
1002
}
  0
LINE
  5
109
330
87
100
AcDbEntity
  8
M-PIPE
100
AcDbLine
 10
788.6664074431601
 20
1983.679092257748
 30
0.0
 11
788.6664074431601
 21
1983.978530029983
 31
0.0
1001
REVIT
1002
{
1070
     3
1000
790271
1002
}
  0
LINE
  5
10A
330
87
100
AcDbEntity
  8
M-PIPE
100
AcDbLine
 10
788.6664074431601
 20
1983.978530029983
 30
0.0
 11
788.6664074431601
 21
1984.250102743477
 31
0.0
1001
REVIT
1002
{
1070
     3
1000
790271
1002
}
  0
LINE
  5
10B
330
87
100
AcDbEntity
  8
M-PIPE
100
AcDbLine
 10
788.6664074431607
 20
2015.749897256844
 30
0.0
 11
788.6664074431607
 21
2016.021469970008
 31
0.0
1001
REVIT
1002
{
1070
     3
1000
790271
1002
}
  0
LINE
  5
10C
330
87
100
AcDbEntity
  8
M-PIPE
100
AcDbLine
 10
788.6664074431607
 20
2016.021469970008
 30
0.0
 11
788.6664074431607
 21
2016.3209077418
 31
0.0
1001
REVIT
1002
{
1070
     3
1000
790271
1002
}
  0
SPLINE
  5
10D
330
87
100
AcDbEntity
  8
M-PIPE
100
AcDbSpline
210
0.0
220
0.0
230
1.0
 70
     8
 71
     3
 72
     9
 73
     5
 74
     0
 42
0.000000001
 43
0.0000000001
 40
0.0
 40
0.0
 40
0.0
 40
0.0
 40
0.5
 40
1.0
 40
1.0
 40
1.0
 40
1.0
 10
787.9419793492283
 20
1980.514428414862
 30
0.0
 10
788.1791685919623
 20
1981.085828184288
 30
0.0
 10
788.5370958503515
 20
1982.234578222903
 30
0.0
 10
788.6621206545835
 20
1983.395229261047
 30
0.0
 10
788.6664074431601
 20
1983.978530030001
 30
0.0
1001
REVIT
1002
{
1070
     3
1000
790271
1002
}
  0
SPLINE
  5
10E
330
87
100
AcDbEntity
  8
M-PIPE
100
AcDbSpline
210
0.0
220
0.0
230
1.0
 70
     8
 71
     3
 72
     9
 73
     5
 74
     0
 42
0.000000001
 43
0.0000000001
 40
0.0
 40
0.0
 40
0.0
 40
0.0
 40
0.5
 40
1.0
 40
1.0
 40
1.0
 40
1.0
 10
788.6664074431601
 20
1983.978530030001
 30
0.0
 10
788.6621206545835
 20
1984.561830798955
 30
0.0
 10
788.5370958503516
 20
1985.722481837099
 30
0.0
 10
788.1791685919631
 20
1986.871231875713
 30
0.0
 10
787.9419793492295
 20
1987.442631645138
 30
0.0
1001
REVIT
1002
{
1070
     3
1000
790271
1002
}
  0
SPLINE
  5
10F
330
87
100
AcDbEntity
  8
M-PIPE
100
AcDbSpline
210
0.0
220
0.0
230
1.0
 70
     8
 71
     3
 72
     9
 73
     5
 74
     0
 42
0.000000001
 43
0.0000000001
 40
0.0
 40
0.0
 40
0.0
 40
0.0
 40
0.5
 40
1.0
 40
1.0
 40
1.0
 40
1.0
 10
774.7384821837555
 20
1987.442631645138
 30
0.0
 10
774.2555619079609
 20
1986.306357047585
 30
0.0
 10
773.7726416321663
 20
1984.015381911653
 30
0.0
 10
774.2555619079616
 20
1981.687554894068
 30
0.0
 10
774.7384821837563
 20
1980.514428414862
 30
0.0
1001
REVIT
1002
{
1070
     3
1000
790271
1002
}
  0
SPLINE
  5
110
330
87
100
AcDbEntity
  8
M-PIPE
100
AcDbSpline
210
0.0
220
0.0
230
1.0
 70
     8
 71
     3
 72
     9
 73
     5
 74
     0
 42
0.000000001
 43
0.0000000001
 40
0.0
 40
0.0
 40
0.0
 40
0.0
 40
0.5
 40
1.0
 40
1.0
 40
1.0
 40
1.0
 10
787.9419793492279
 20
1993.071796769737
 30
0.0
 10
788.1791685919597
 20
1994.214596308584
 30
0.0
 10
788.537095850347
 20
1996.512096385808
 30
0.0
 10
788.6621206545814
 20
1998.83339846209
 30
0.0
 10
788.6664074431604
 20
1999.999999999996
 30
0.0
1001
REVIT
1002
{
1070
     3
1000
790271
1002
}
  0
SPLINE
  5
111
330
87
100
AcDbEntity
  8
M-PIPE
100
AcDbSpline
210
0.0
220
0.0
230
1.0
 70
     8
 71
     3
 72
     9
 73
     5
 74
     0
 42
0.000000001
 43
0.0000000001
 40
0.0
 40
0.0
 40
0.0
 40
0.0
 40
0.5
 40
1.0
 40
1.0
 40
1.0
 40
1.0
 10
788.6664074431604
 20
1999.999999999996
 30
0.0
 10
788.6621206545812
 20
2001.166601537907
 30
0.0
 10
788.5370958503457
 20
2003.487903614201
 30
0.0
 10
788.1791685919552
 20
2005.785403691435
 30
0.0
 10
787.9419793492212
 20
2006.928203230288
 30
0.0
1001
REVIT
1002
{
1070
     3
1000
790271
1002
}
  0
SPLINE
  5
112
330
87
100
AcDbEntity
  8
M-PIPE
100
AcDbSpline
210
0.0
220
0.0
230
1.0
 70
     8
 71
     3
 72
     9
 73
     5
 74
     0
 42
0.000000001
 43
0.0000000001
 40
0.0
 40
0.0
 40
0.0
 40
0.0
 40
0.5
 40
1.0
 40
1.0
 40
1.0
 40
1.0
 10
774.738482183764
 20
2006.928203230288
 30
0.0
 10
774.2555619079683
 20
2004.655654035182
 30
0.0
 10
773.7726416321716
 20
2000.073703763317
 30
0.0
 10
774.2555619079638
 20
1995.418049728147
 30
0.0
 10
774.7384821837572
 20
1993.071796769737
 30
0.0
1001
REVIT
1002
{
1070
     3
1000
790271
1002
}
  0
SPLINE
  5
113
330
87
100
AcDbEntity
  8
M-PIPE
100
AcDbSpline
210
0.0
220
0.0
230
1.0
 70
     8
 71
     3
 72
     9
 73
     5
 74
     0
 42
0.000000001
 43
0.0000000001
 40
0.0
 40
0.0
 40
0.0
 40
0.0
 40
0.5
 40
1.0
 40
1.0
 40
1.0
 40
1.0
 10
787.9419793492175
 20
2012.557368354887
 30
0.0
 10
788.1791685919467
 20
2013.128768124311
 30
0.0
 10
788.5370958503334
 20
2014.277518162922
 30
0.0
 10
788.6621206545754
 20
2015.438169201063
 30
0.0
 10
788.6664074431601
 20
2016.021469970015
 30
0.0
1001
REVIT
1002
{
1070
     3
1000
790271
1002
}
  0
SPLINE
  5
114
330
87
100
AcDbEntity
  8
M-PIPE
100
AcDbSpline
210
0.0
220
0.0
230
1.0
 70
     8
 71
     3
 72
     9
 73
     5
 74
     0
 42
0.000000001
 43
0.0000000001
 40
0.0
 40
0.0
 40
0.0
 40
0.0
 40
0.5
 40
1.0
 40
1.0
 40
1.0
 40
1.0
 10
788.6664074431601
 20
2016.021469970015
 30
0.0
 10
788.6621206545753
 20
2016.604770738971
 30
0.0
 10
788.5370958503321
 20
2017.765421777118
 30
0.0
 10
788.1791685919417
 20
2018.914171815736
 30
0.0
 10
787.9419793492099
 20
2019.485571585162
 30
0.0
1001
REVIT
1002
{
1070
     3
1000
790271
1002
}
  0
SPLINE
  5
115
330
87
100
AcDbEntity
  8
M-PIPE
100
AcDbSpline
210
0.0
220
0.0
230
1.0
 70
     8
 71
     3
 72
     9
 73
     5
 74
     0
 42
0.000000001
 43
0.0000000001
 40
0.0
 40
0.0
 40
0.0
 40
0.0
 40
0.5
 40
1.0
 40
1.0
 40
1.0
 40
1.0
 10
774.7384821837759
 20
2019.485571585162
 30
0.0
 10
774.2555619079805
 20
2018.349296987609
 30
0.0
 10
773.772641632184
 20
2016.058321851676
 30
0.0
 10
774.2555619079753
 20
2013.730494834092
 30
0.0
 10
774.7384821837681
 20
2012.557368354887
 30
0.0
1001
REVIT
1002
{
1070
     3
1000
790271
1002
}
  0
SPLINE
  5
116
330
87
100
AcDbEntity
  8
M-PIPE
100
AcDbSpline
210
0.0
220
0.0
230
1.0
 70
     8
 71
     3
 72
     9
 73
     5
 74
     0
 42
0.000000001
 43
0.0000000001
 40
-1.0
 40
-1.0
 40
-1.0
 40
-1.0
 40
-0.5
 40
0.0
 40
0.0
 40
0.0
 40
0.0
 10
775.0858508595396
 20
1979.643593539461
 30
0.0
 10
775.0848452520633
 20
1979.643593539462
 30
0.0
 10
775.0259448652899
 20
1979.796323082123
 30
0.0
 10
774.8532661348746
 20
1980.234004593134
 30
0.0
 10
774.7384821837563
 20
1980.514428414862
 30
0.0
1001
REVIT
1002
{
1070
     3
1000
790271
1002
}
  0
SPLINE
  5
117
330
87
100
AcDbEntity
  8
M-PIPE
100
AcDbSpline
210
0.0
220
0.0
230
1.0
 70
     8
 71
     3
 72
     9
 73
     5
 74
     0
 42
0.000000001
 43
0.0000000001
 40
-1.0
 40
-1.0
 40
-1.0
 40
-1.0
 40
-0.5
 40
0.0
 40
0.0
 40
0.0
 40
0.0
 10
787.9419793492283
 20
1980.514428414862
 30
0.0
 10
787.8271953981102
 20
1980.234004593134
 30
0.0
 10
787.6545166676948
 20
1979.796323082123
 30
0.0
 10
787.5956162809215
 20
1979.643593539462
 30
0.0
 10
787.5946106734454
 20
1979.643593539461
 30
0.0
1001
REVIT
1002
{
1070
     3
1000
790271
1002
}
  0
SPLINE
  5
118
330
87
100
AcDbEntity
  8
M-PIPE
100
AcDbSpline
210
0.0
220
0.0
230
1.0
 70
     8
 71
     3
 72
    10
 73
     6
 74
     0
 42
0.000000001
 43
0.0000000001
 40
-1.0
 40
-1.0
 40
-1.0
 40
-1.0
 40
-0.7
 40
-0.4
 40
0.0
 40
0.0
 40
0.0
 40
0.0
 10
774.7384821837555
 20
1987.442631645138
 30
0.0
 10
774.8755276526431
 20
1987.778236811194
 30
0.0
 10
775.07037544061
 20
1988.638372413349
 30
0.0
 10
775.1191187686113
 20
1990.584519154434
 30
0.0
 10
774.9214829036954
 20
1992.174999126885
 30
0.0
 10
774.7384821837572
 20
1993.071796769737
 30
0.0
1001
REVIT
1002
{
1070
     3
1000
790271
1002
}
  0
SPLINE
  5
119
330
87
100
AcDbEntity
  8
M-PIPE
100
AcDbSpline
210
0.0
220
0.0
230
1.0
 70
     8
 71
     3
 72
    10
 73
     6
 74
     0
 42
0.000000001
 43
0.0000000001
 40
-1.0
 40
-1.0
 40
-1.0
 40
-1.0
 40
-0.7
 40
-0.4
 40
0.0
 40
0.0
 40
0.0
 40
0.0
 10
787.9419793492281
 20
1993.071796769737
 30
0.0
 10
787.8047288092743
 20
1992.399198537597
 30
0.0
 10
787.6098623104304
 20
1991.041681188596
 30
0.0
 10
787.5614609234965
 20
1988.972223716154
 30
0.0
 10
787.7592520573795
 20
1987.89010519988
 30
0.0
 10
787.9419793492295
 20
1987.442631645138
 30
0.0
1001
REVIT
1002
{
1070
     3
1000
790271
1002
}
  0
SPLINE
  5
11A
330
87
100
AcDbEntity
  8
M-PIPE
100
AcDbSpline
210
0.0
220
0.0
230
1.0
 70
     8
 71
     3
 72
    10
 73
     6
 74
     0
 42
0.000000001
 43
0.0000000001
 40
-1.0
 40
-1.0
 40
-1.0
 40
-1.0
 40
-0.7
 40
-0.4
 40
0.0
 40
0.0
 40
0.0
 40
0.0
 10
774.738482183764
 20
2006.928203230288
 30
0.0
 10
774.8755276526519
 20
2007.5994135624
 30
0.0
 10
775.0703754406194
 20
2008.956276915913
 30
0.0
 10
775.1191187686217
 20
2011.026584272366
 30
0.0
 10
774.921482903706
 20
2012.108969533461
 30
0.0
 10
774.7384821837681
 20
2012.557368354887
 30
0.0
1001
REVIT
1002
{
1070
     3
1000
790271
1002
}
  0
SPLINE
  5
11B
330
87
100
AcDbEntity
  8
M-PIPE
100
AcDbSpline
210
0.0
220
0.0
230
1.0
 70
     8
 71
     3
 72
    10
 73
     6
 74
     0
 42
0.000000001
 43
0.0000000001
 40
-1.0
 40
-1.0
 40
-1.0
 40
-1.0
 40
-0.7
 40
-0.4
 40
0.0
 40
0.0
 40
0.0
 40
0.0
 10
787.9419793492175
 20
2012.557368354887
 30
0.0
 10
787.8047288092639
 20
2012.221069238817
 30
0.0
 10
787.6098623104206
 20
2011.359978202619
 30
0.0
 10
787.5614609234873
 20
2009.414129053782
 30
0.0
 10
787.759252057371
 20
2007.823150339771
 30
0.0
 10
787.9419793492214
 20
2006.928203230288
 30
0.0
1001
REVIT
1002
{
1070
     3
1000
790271
1002
}
  0
SPLINE
  5
11C
330
87
100
AcDbEntity
  8
M-PIPE
100
AcDbSpline
210
0.0
220
0.0
230
1.0
 70
     8
 71
     3
 72
     9
 73
     5
 74
     0
 42
0.000000001
 43
0.0000000001
 40
-1.0
 40
-1.0
 40
-1.0
 40
-1.0
 40
-0.5
 40
0.0
 40
0.0
 40
0.0
 40
0.0
 10
774.7384821837759
 20
2019.485571585162
 30
0.0
 10
774.8532661348942
 20
2019.765995406891
 30
0.0
 10
775.0259448653098
 20
2020.203676917902
 30
0.0
 10
775.0848452520832
 20
2020.356406460562
 30
0.0
 10
775.0858508595594
 20
2020.356406460563
 30
0.0
1001
REVIT
1002
{
1070
     3
1000
790271
1002
}
  0
SPLINE
  5
11D
330
87
100
AcDbEntity
  8
M-PIPE
100
AcDbSpline
210
0.0
220
0.0
230
1.0
 70
     8
 71
     3
 72
     9
 73
     5
 74
     0
 42
0.000000001
 43
0.0000000001
 40
-1.0
 40
-1.0
 40
-1.0
 40
-1.0
 40
-0.5
 40
0.0
 40
0.0
 40
0.0
 40
0.0
 10
787.5946106734263
 20
2020.356406460563
 30
0.0
 10
787.5956162809026
 20
2020.356406460562
 30
0.0
 10
787.654516667676
 20
2020.203676917902
 30
0.0
 10
787.8271953980916
 20
2019.765995406891
 30
0.0
 10
787.9419793492099
 20
2019.485571585162
 30
0.0
1001
REVIT
1002
{
1070
     3
1000
790271
1002
}
  0
LINE
  5
11E
330
87
100
AcDbEntity
  8
M-PIPE
100
AcDbLine
 10
858.6664074431579
 20
2016.165807537357
 30
0.0
 11
856.2470818562685
 21
2020.356202373901
 31
0.0
1001
REVIT
1002
{
1070
     3
1000
790271
1002
}
  0
LINE
  5
11F
330
87
100
AcDbEntity
  8
M-PIPE
100
AcDbLine
 10
856.2470818562658
 20
1979.643797626155
 30
0.0
 11
858.6664074431579
 21
1983.834192462703
 31
0.0
1001
REVIT
1002
{
1070
     3
1000
790271
1002
}
  0
LINE
  5
120
330
87
100
AcDbEntity
  8
M-PIPE
100
AcDbLine
 10
843.7380863833825
 20
2020.356202373901
 30
0.0
 11
842.6664074431577
 21
2018.500000000031
 31
0.0
1001
REVIT
1002
{
1070
     3
1000
790271
1002
}
  0
LINE
  5
121
330
87
100
AcDbEntity
  8
M-PIPE
100
AcDbLine
 10
842.6664074431577
 20
1981.50000000003
 30
0.0
 11
843.7380863833851
 21
1979.643797626155
 31
0.0
1001
REVIT
1002
{
1070
     3
1000
790271
1002
}
  0
LINE
  5
122
330
87
100
AcDbEntity
  8
M-PIPE
100
AcDbLine
 10
856.2470818562688
 20
2020.356406460579
 30
0.0
 11
843.7380863833825
 21
2020.356406460579
 31
0.0
1001
REVIT
1002
{
1070
     3
1000
790271
1002
}
  0
LINE
  5
123
330
87
100
AcDbEntity
  8
M-PIPE
100
AcDbLine
 10
843.7380863833849
 20
1979.643593539477
 30
0.0
 11
856.2470818562662
 21
1979.643593539477
 31
0.0
1001
REVIT
1002
{
1070
     3
1000
790271
1002
}
  0
LINE
  5
124
330
87
100
AcDbEntity
  8
M-PIPE
100
AcDbLine
 10
858.6664074431563
 20
2016.165807537356
 30
0.0
 11
858.6664074431562
 21
2008.082903768698
 31
0.0
1001
REVIT
1002
{
1070
     3
1000
790271
1002
}
  0
LINE
  5
125
330
87
100
AcDbEntity
  8
M-PIPE
100
AcDbLine
 10
858.6664074431562
 20
2008.082903768698
 30
0.0
 11
858.6664074431563
 21
1983.834192462703
 31
0.0
1001
REVIT
1002
{
1070
     3
1000
790271
1002
}
  0
LINE
  5
126
330
87
100
AcDbEntity
  8
M-PIPE
100
AcDbLine
 10
842.6664074431561
 20
2009.250000000036
 30
0.0
 11
842.6664074431561
 21
2016.021469970045
 31
0.0
1001
REVIT
1002
{
1070
     3
1000
790271
1002
}
  0
LINE
  5
127
330
87
100
AcDbEntity
  8
M-PIPE
100
AcDbLine
 10
842.6664074431561
 20
2016.021469970045
 30
0.0
 11
842.6664074431563
 21
2018.500000000029
 31
0.0
1001
REVIT
1002
{
1070
     3
1000
790271
1002
}
  0
LINE
  5
128
330
87
100
AcDbEntity
  8
M-PIPE
100
AcDbLine
 10
842.6664074431565
 20
2016.320906677126
 30
0.0
 11
842.6664074431565
 21
2016.021469970038
 31
0.0
1001
REVIT
1002
{
1070
     3
1000
790271
1002
}
  0
LINE
  5
129
330
87
100
AcDbEntity
  8
M-PIPE
100
AcDbLine
 10
842.6664074431565
 20
2016.021469970038
 30
0.0
 11
842.6664074431565
 21
2015.749896237428
 31
0.0
1001
REVIT
1002
{
1070
     3
1000
790271
1002
}
  0
LINE
  5
12A
330
87
100
AcDbEntity
  8
M-PIPE
100
AcDbLine
 10
842.6664074431563
 20
1984.25010274279
 30
0.0
 11
842.6664074431563
 21
1983.978530030013
 31
0.0
1001
REVIT
1002
{
1070
     3
1000
790271
1002
}
  0
LINE
  5
12B
330
87
100
AcDbEntity
  8
M-PIPE
100
AcDbLine
 10
842.6664074431563
 20
1983.978530030013
 30
0.0
 11
842.6664074431563
 21
1983.679093323356
 31
0.0
1001
REVIT
1002
{
1070
     3
1000
790271
1002
}
  0
LINE
  5
12C
330
87
100
AcDbEntity
  8
M-PIPE
100
AcDbLine
 10
842.6664074431561
 20
1981.500000000029
 30
0.0
 11
842.6664074431561
 21
1983.978530030021
 31
0.0
1001
REVIT
1002
{
1070
     3
1000
790271
1002
}
  0
LINE
  5
12D
330
87
100
AcDbEntity
  8
M-PIPE
100
AcDbLine
 10
842.6664074431561
 20
1983.978530030021
 30
0.0
 11
842.6664074431561
 21
2000.000000000037
 31
0.0
1001
REVIT
1002
{
1070
     3
1000
790271
1002
}
  0
LINE
  5
12E
330
87
100
AcDbEntity
  8
M-PIPE
100
AcDbLine
 10
842.6664074431561
 20
2000.000000000037
 30
0.0
 11
842.6664074431561
 21
2009.250000000036
 31
0.0
1001
REVIT
1002
{
1070
     3
1000
790271
1002
}
  0
SPLINE
  5
12F
330
87
100
AcDbEntity
  8
M-PIPE
100
AcDbSpline
210
0.0
220
0.0
230
1.0
 70
     8
 71
     3
 72
     9
 73
     5
 74
     0
 42
0.000000001
 43
0.0000000001
 40
0.0
 40
0.0
 40
0.0
 40
0.0
 40
0.5
 40
1.0
 40
1.0
 40
1.0
 40
1.0
 10
843.3908355370993
 20
2019.485571585178
 30
0.0
 10
843.1536462943698
 20
2018.914171815755
 30
0.0
 10
842.7957190359832
 20
2017.765421777145
 30
0.0
 10
842.6706942317412
 20
2016.604770739005
 30
0.0
 10
842.6664074431563
 20
2016.021469970053
 30
0.0
1001
REVIT
1002
{
1070
     3
1000
790271
1002
}
  0
SPLINE
  5
130
330
87
100
AcDbEntity
  8
M-PIPE
100
AcDbSpline
210
0.0
220
0.0
230
1.0
 70
     8
 71
     3
 72
     9
 73
     5
 74
     0
 42
0.000000001
 43
0.0000000001
 40
0.0
 40
0.0
 40
0.0
 40
0.0
 40
0.5
 40
1.0
 40
1.0
 40
1.0
 40
1.0
 10
842.6664074431563
 20
2016.021469970053
 30
0.0
 10
842.6706942317412
 20
2015.438169201097
 30
0.0
 10
842.7957190359846
 20
2014.277518162951
 30
0.0
 10
843.1536462943748
 20
2013.128768124334
 30
0.0
 10
843.390835537107
 20
2012.557368354908
 30
0.0
1001
REVIT
1002
{
1070
     3
1000
790271
1002
}
  0
SPLINE
  5
131
330
87
100
AcDbEntity
  8
M-PIPE
100
AcDbSpline
210
0.0
220
0.0
230
1.0
 70
     8
 71
     3
 72
     9
 73
     5
 74
     0
 42
0.000000001
 43
0.0000000001
 40
0.0
 40
0.0
 40
0.0
 40
0.0
 40
0.5
 40
1.0
 40
1.0
 40
1.0
 40
1.0
 10
856.5943327025408
 20
2012.557368354908
 30
0.0
 10
857.0772529783361
 20
2013.693642952461
 30
0.0
 10
857.5601732541326
 20
2015.984618088391
 30
0.0
 10
857.0772529783413
 20
2018.312445105974
 30
0.0
 10
856.5943327025486
 20
2019.485571585178
 30
0.0
1001
REVIT
1002
{
1070
     3
1000
790271
1002
}
  0
SPLINE
  5
132
330
87
100
AcDbEntity
  8
M-PIPE
100
AcDbSpline
210
0.0
220
0.0
230
1.0
 70
     8
 71
     3
 72
     9
 73
     5
 74
     0
 42
0.000000001
 43
0.0000000001
 40
0.0
 40
0.0
 40
0.0
 40
0.0
 40
0.5
 40
1.0
 40
1.0
 40
1.0
 40
1.0
 10
843.3908355371093
 20
2006.928203230311
 30
0.0
 10
843.15364629438
 20
2005.78540369146
 30
0.0
 10
842.7957190359919
 20
2003.487903614231
 30
0.0
 10
842.6706942317448
 20
2001.166601537945
 30
0.0
 10
842.6664074431565
 20
2000.000000000037
 30
0.0
1001
REVIT
1002
{
1070
     3
1000
790271
1002
}
  0
SPLINE
  5
133
330
87
100
AcDbEntity
  8
M-PIPE
100
AcDbSpline
210
0.0
220
0.0
230
1.0
 70
     8
 71
     3
 72
     9
 73
     5
 74
     0
 42
0.000000001
 43
0.0000000001
 40
0.0
 40
0.0
 40
0.0
 40
0.0
 40
0.5
 40
1.0
 40
1.0
 40
1.0
 40
1.0
 10
842.6664074431565
 20
2000.000000000037
 30
0.0
 10
842.6706942317448
 20
1998.833398462128
 30
0.0
 10
842.795719035992
 20
1996.51209638584
 30
0.0
 10
843.1536462943807
 20
1994.21459630861
 30
0.0
 10
843.39083553711
 20
1993.071796769759
 30
0.0
1001
REVIT
1002
{
1070
     3
1000
790271
1002
}
  0
SPLINE
  5
134
330
87
100
AcDbEntity
  8
M-PIPE
100
AcDbSpline
210
0.0
220
0.0
230
1.0
 70
     8
 71
     3
 72
     9
 73
     5
 74
     0
 42
0.000000001
 43
0.0000000001
 40
0.0
 40
0.0
 40
0.0
 40
0.0
 40
0.5
 40
1.0
 40
1.0
 40
1.0
 40
1.0
 10
856.5943327025374
 20
1993.071796769759
 30
0.0
 10
857.0772529783313
 20
1995.344345964866
 30
0.0
 10
857.5601732541255
 20
1999.92629623673
 30
0.0
 10
857.0772529783321
 20
2004.5819502719
 30
0.0
 10
856.5943327025383
 20
2006.928203230311
 30
0.0
1001
REVIT
1002
{
1070
     3
1000
790271
1002
}
  0
SPLINE
  5
135
330
87
100
AcDbEntity
  8
M-PIPE
100
AcDbSpline
210
0.0
220
0.0
230
1.0
 70
     8
 71
     3
 72
     9
 73
     5
 74
     0
 42
0.000000001
 43
0.0000000001
 40
0.0
 40
0.0
 40
0.0
 40
0.0
 40
0.5
 40
1.0
 40
1.0
 40
1.0
 40
1.0
 10
843.3908355371086
 20
1987.442631645159
 30
0.0
 10
843.1536462943771
 20
1986.871231875732
 30
0.0
 10
842.7957190359871
 20
1985.722481837114
 30
0.0
 10
842.6706942317425
 20
1984.561830798966
 30
0.0
 10
842.6664074431563
 20
1983.97853003001
 30
0.0
1001
REVIT
1002
{
1070
     3
1000
790271
1002
}
  0
SPLINE
  5
136
330
87
100
AcDbEntity
  8
M-PIPE
100
AcDbSpline
210
0.0
220
0.0
230
1.0
 70
     8
 71
     3
 72
     9
 73
     5
 74
     0
 42
0.000000001
 43
0.0000000001
 40
0.0
 40
0.0
 40
0.0
 40
0.0
 40
0.5
 40
1.0
 40
1.0
 40
1.0
 40
1.0
 10
842.6664074431563
 20
1983.97853003001
 30
0.0
 10
842.6706942317425
 20
1983.395229261057
 30
0.0
 10
842.7957190359858
 20
1982.234578222915
 30
0.0
 10
843.1536462943727
 20
1981.085828184302
 30
0.0
 10
843.3908355371018
 20
1980.514428414878
 30
0.0
1001
REVIT
1002
{
1070
     3
1000
790271
1002
}
  0
SPLINE
  5
137
330
87
100
AcDbEntity
  8
M-PIPE
100
AcDbSpline
210
0.0
220
0.0
230
1.0
 70
     8
 71
     3
 72
     9
 73
     5
 74
     0
 42
0.000000001
 43
0.0000000001
 40
0.0
 40
0.0
 40
0.0
 40
0.0
 40
0.5
 40
1.0
 40
1.0
 40
1.0
 40
1.0
 10
856.5943327025459
 20
1980.514428414878
 30
0.0
 10
857.0772529783386
 20
1981.650703012433
 30
0.0
 10
857.5601732541302
 20
1983.941678148367
 30
0.0
 10
857.077252978334
 20
1986.269505165953
 30
0.0
 10
856.594332702539
 20
1987.442631645159
 30
0.0
1001
REVIT
1002
{
1070
     3
1000
790271
1002
}
  0
SPLINE
  5
138
330
87
100
AcDbEntity
  8
M-PIPE
100
AcDbSpline
210
0.0
220
0.0
230
1.0
 70
     8
 71
     3
 72
     8
 73
     4
 74
     0
 42
0.000000001
 43
0.0000000001
 40
-0.5995186197401188
 40
-0.5995186197401188
 40
-0.5995186197401188
 40
-0.5995186197401188
 40
-0.4998809423275146
 40
-0.4998809423275146
 40
-0.4998809423275146
 40
-0.4998809423275146
 10
856.2615239429669
 20
2020.320174484923
 30
0.0
 10
856.2521714970895
 20
2020.343980259064
 30
0.0
 10
856.2436334961594
 20
2020.365294765454
 30
0.0
 10
856.2416389253007
 20
2020.370062887964
 30
0.0
1001
REVIT
1002
{
1070
     3
1000
790271
1002
}
  0
SPLINE
  5
139
330
87
100
AcDbEntity
  8
M-PIPE
100
AcDbSpline
210
0.0
220
0.0
230
1.0
 70
     8
 71
     3
 72
     9
 73
     5
 74
     0
 42
0.000000001
 43
0.0000000001
 40
-0.4998808483201183
 40
-0.4998808483201183
 40
-0.4998808483201183
 40
-0.4998808483201183
 40
-0.4
 40
0.0
 40
0.0
 40
0.0
 40
0.0
 10
856.2473390383596
 20
2020.356110412132
 30
0.0
 10
856.2472489222887
 20
2020.356216618032
 30
0.0
 10
856.270197148593
 20
2020.296808714232
 30
0.0
 10
856.4113319826105
 20
2019.933970406604
 30
0.0
 10
856.5943327025486
 20
2019.485571585178
 30
0.0
1001
REVIT
1002
{
1070
     3
1000
790271
1002
}
  0
SPLINE
  5
13A
330
87
100
AcDbEntity
  8
M-PIPE
100
AcDbSpline
210
0.0
220
0.0
230
1.0
 70
     8
 71
     3
 72
     9
 73
     5
 74
     0
 42
0.000000001
 43
0.0000000001
 40
-1.0
 40
-1.0
 40
-1.0
 40
-1.0
 40
-0.7
 40
-0.5001191516798805
 40
-0.5001191516798805
 40
-0.5001191516798805
 40
-0.5001191516798805
 10
843.3908355370993
 20
2019.485571585178
 30
0.0
 10
843.5280860770527
 20
2019.821870701248
 30
0.0
 10
843.6904361283046
 20
2020.235460711869
 30
0.0
 10
843.7376843445051
 20
2020.35595343774
 30
0.0
 10
843.737849703762
 20
2020.35614992046
 30
0.0
1001
REVIT
1002
{
1070
     3
1000
790271
1002
}
  0
SPLINE
  5
13B
330
87
100
AcDbEntity
  8
M-PIPE
100
AcDbSpline
210
0.0
220
0.0
230
1.0
 70
     8
 71
     3
 72
     8
 73
     4
 74
     0
 42
0.000000001
 43
0.0000000001
 40
-0.5001190576725822
 40
-0.5001190576725822
 40
-0.5001190576725822
 40
-0.5001190576725822
 40
-0.4004813802598817
 40
-0.4004813802598817
 40
-0.4004813802598817
 40
-0.4004813802598817
 10
843.7378497039954
 20
2020.356149920737
 30
0.0
 10
843.7379321243836
 20
2020.356247841998
 30
0.0
 10
843.7369722442712
 20
2020.353146232231
 30
0.0
 10
843.7241485031911
 20
2020.320660790612
 30
0.0
1001
REVIT
1002
{
1070
     3
1000
790271
1002
}
  0
SPLINE
  5
13C
330
87
100
AcDbEntity
  8
M-PIPE
100
AcDbSpline
210
0.0
220
0.0
230
1.0
 70
     8
 71
     3
 72
     9
 73
     5
 74
     0
 42
0.000000001
 43
0.0000000001
 40
-1.0
 40
-1.0
 40
-1.0
 40
-1.0
 40
-0.5
 40
0.0
 40
0.0
 40
0.0
 40
0.0
 10
856.2469640267574
 20
2010.178203230321
 30
0.0
 10
856.2479696342322
 20
2009.681436881582
 30
0.0
 10
856.306870021004
 20
2008.617306059647
 30
0.0
 10
856.4795487514198
 20
2007.489050873772
 30
0.0
 10
856.5943327025383
 20
2006.928203230311
 30
0.0
1001
REVIT
1002
{
1070
     3
1000
790271
1002
}
  0
SPLINE
  5
13D
330
87
100
AcDbEntity
  8
M-PIPE
100
AcDbSpline
210
0.0
220
0.0
230
1.0
 70
     8
 71
     3
 72
     9
 73
     5
 74
     0
 42
0.000000001
 43
0.0000000001
 40
-1.0
 40
-1.0
 40
-1.0
 40
-1.0
 40
-0.5
 40
0.0
 40
0.0
 40
0.0
 40
0.0
 10
856.5943327025408
 20
2012.557368354908
 30
0.0
 10
856.4795487514226
 20
2012.276944533179
 30
0.0
 10
856.306870021007
 20
2011.586370858323
 30
0.0
 10
856.2479696342336
 20
2010.674969579056
 30
0.0
 10
856.2469640267574
 20
2010.178203230321
 30
0.0
1001
REVIT
1002
{
1070
     3
1000
790271
1002
}
  0
SPLINE
  5
13E
330
87
100
AcDbEntity
  8
M-PIPE
100
AcDbSpline
210
0.0
220
0.0
230
1.0
 70
     8
 71
     3
 72
     9
 73
     5
 74
     0
 42
0.000000001
 43
0.0000000001
 40
-1.0
 40
-1.0
 40
-1.0
 40
-1.0
 40
-0.5
 40
0.0
 40
0.0
 40
0.0
 40
0.0
 10
843.7382042128902
 20
2010.178203230321
 30
0.0
 10
843.7371986054142
 20
2010.674969579056
 30
0.0
 10
843.6782982186407
 20
2011.586370858323
 30
0.0
 10
843.5056194882252
 20
2012.276944533179
 30
0.0
 10
843.390835537107
 20
2012.557368354908
 30
0.0
1001
REVIT
1002
{
1070
     3
1000
790271
1002
}
  0
SPLINE
  5
13F
330
87
100
AcDbEntity
  8
M-PIPE
100
AcDbSpline
210
0.0
220
0.0
230
1.0
 70
     8
 71
     3
 72
     9
 73
     5
 74
     0
 42
0.000000001
 43
0.0000000001
 40
-1.0
 40
-1.0
 40
-1.0
 40
-1.0
 40
-0.5
 40
0.0
 40
0.0
 40
0.0
 40
0.0
 10
843.3908355371093
 20
2006.928203230311
 30
0.0
 10
843.505619488228
 20
2007.489050873772
 30
0.0
 10
843.6782982186436
 20
2008.617306059647
 30
0.0
 10
843.7371986054154
 20
2009.681436881582
 30
0.0
 10
843.7382042128902
 20
2010.178203230321
 30
0.0
1001
REVIT
1002
{
1070
     3
1000
790271
1002
}
  0
SPLINE
  5
140
330
87
100
AcDbEntity
  8
M-PIPE
100
AcDbSpline
210
0.0
220
0.0
230
1.0
 70
     8
 71
     3
 72
    10
 73
     6
 74
     0
 42
0.000000001
 43
0.0000000001
 40
-1.0
 40
-1.0
 40
-1.0
 40
-1.0
 40
-0.7
 40
-0.4
 40
0.0
 40
0.0
 40
0.0
 40
0.0
 10
856.5943327025374
 20
1993.071796769759
 30
0.0
 10
856.4572872336501
 20
1992.400586437647
 30
0.0
 10
856.2624394456836
 20
1991.043723084134
 30
0.0
 10
856.2136961176834
 20
1988.97341572768
 30
0.0
 10
856.4113319826004
 20
1987.891030466585
 30
0.0
 10
856.594332702539
 20
1987.442631645159
 30
0.0
1001
REVIT
1002
{
1070
     3
1000
790271
1002
}
  0
SPLINE
  5
141
330
87
100
AcDbEntity
  8
M-PIPE
100
AcDbSpline
210
0.0
220
0.0
230
1.0
 70
     8
 71
     3
 72
    10
 73
     6
 74
     0
 42
0.000000001
 43
0.0000000001
 40
-1.0
 40
-1.0
 40
-1.0
 40
-1.0
 40
-0.7
 40
-0.4
 40
0.0
 40
0.0
 40
0.0
 40
0.0
 10
843.3908355371086
 20
1987.442631645159
 30
0.0
 10
843.5280860770626
 20
1987.778930761229
 30
0.0
 10
843.7229525759072
 20
1988.640021797427
 30
0.0
 10
843.7713539628424
 20
1990.585870946265
 30
0.0
 10
843.57356282896
 20
1992.176849660276
 30
0.0
 10
843.39083553711
 20
1993.071796769759
 30
0.0
1001
REVIT
1002
{
1070
     3
1000
790271
1002
}
  0
SPLINE
  5
142
330
87
100
AcDbEntity
  8
M-PIPE
100
AcDbSpline
210
0.0
220
0.0
230
1.0
 70
     8
 71
     3
 72
     9
 73
     5
 74
     0
 42
0.000000001
 43
0.0000000001
 40
-1.0
 40
-1.0
 40
-1.0
 40
-1.0
 40
-0.7
 40
-0.4998809389244997
 40
-0.4998809389244997
 40
-0.4998809389244997
 40
-0.4998809389244997
 10
856.5943327025459
 20
1980.514428414878
 30
0.0
 10
856.4572872336588
 20
1980.178823248822
 30
0.0
 10
856.2948754123752
 20
1979.764784887789
 30
0.0
 10
856.2475196101649
 20
1979.64410242354
 30
0.0
 10
856.2473390386021
 20
1979.643889588211
 30
0.0
1001
REVIT
1002
{
1070
     3
1000
790271
1002
}
  0
SPLINE
  5
143
330
87
100
AcDbEntity
  8
M-PIPE
100
AcDbSpline
210
0.0
220
0.0
230
1.0
 70
     8
 71
     3
 72
     8
 73
     4
 74
     0
 42
0.000000001
 43
0.0000000001
 40
-0.499880848320178
 40
-0.499880848320178
 40
-0.499880848320178
 40
-0.499880848320178
 40
-0.4
 40
-0.4
 40
-0.4
 40
-0.4
 10
856.2473390383567
 20
1979.643889587922
 30
0.0
 10
856.2472489222862
 20
1979.643783382021
 30
0.0
 10
856.2481984668812
 20
1979.646863842808
 30
0.0
 10
856.2611379147925
 20
1979.679637969734
 30
0.0
1001
REVIT
1002
{
1070
     3
1000
790271
1002
}
  0
SPLINE
  5
144
330
87
100
AcDbEntity
  8
M-PIPE
100
AcDbSpline
210
0.0
220
0.0
230
1.0
 70
     8
 71
     3
 72
     8
 73
     4
 74
     0
 42
0.000000001
 43
0.0000000001
 40
-0.5999999999999999
 40
-0.5999999999999999
 40
-0.5999999999999999
 40
-0.5999999999999999
 40
-0.5001191516798233
 40
-0.5001191516798233
 40
-0.5001191516798233
 40
-0.5001191516798233
 10
843.7236136085482
 20
1979.679949350181
 30
0.0
 10
843.7330082306843
 20
1979.656027991488
 30
0.0
 10
843.7415717032878
 20
1979.634639926792
 30
0.0
 10
843.7435634484835
 20
1979.629870939638
 30
0.0
1001
REVIT
1002
{
1070
     3
1000
790271
1002
}
  0
SPLINE
  5
145
330
87
100
AcDbEntity
  8
M-PIPE
100
AcDbSpline
210
0.0
220
0.0
230
1.0
 70
     8
 71
     3
 72
     9
 73
     5
 74
     0
 42
0.000000001
 43
0.0000000001
 40
-0.5001190576784467
 40
-0.5001190576784467
 40
-0.5001190576784467
 40
-0.5001190576784467
 40
-0.4
 40
0.0
 40
0.0
 40
0.0
 40
0.0
 10
843.7378497039981
 20
1979.643850079317
 30
0.0
 10
843.7379325225855
 20
1979.643751684967
 30
0.0
 10
843.7148758510858
 20
1979.703396742162
 30
0.0
 10
843.5735628289513
 20
1980.066954860137
 30
0.0
 10
843.3908355371018
 20
1980.514428414878
 30
0.0
1001
REVIT
1002
{
1070
     3
1000
790271
1002
}
  0
LINE
  5
146
330
87
100
AcDbEntity
  8
P-SANR-FIXT
100
AcDbLine
 10
837.1664074431603
 20
1984.999999999995
 30
0.0
 11
842.6664074431577
 21
1984.999999999995
 31
0.0
  0
LINE
  5
147
330
87
100
AcDbEntity
  8
P-SANR-FIXT
100
AcDbLine
 10
842.6664074431577
 20
2014.999999999997
 30
0.0
 11
837.1664074431603
 21
2014.999999999997
 31
0.0
  0
LINE
  5
148
330
87
100
AcDbEntity
  8
P-SANR-FIXT
100
AcDbLine
 10
831.6452009755268
 20
1980.749999999995
 30
0.0
 11
837.1664074431601
 21
1980.749999999995
 31
0.0
  0
LINE
  5
149
330
87
100
AcDbEntity
  8
P-SANR-FIXT
100
AcDbLine
 10
837.1664074431601
 20
2019.249999999997
 30
0.0
 11
828.1556048971031
 21
2019.249999999997
 31
0.0
  0
LINE
  5
14A
330
87
100
AcDbEntity
  8
P-SANR-FIXT
100
AcDbLine
 10
794.1664074431598
 20
1980.749999999995
 30
0.0
 11
799.6876139107931
 21
1980.749999999995
 31
0.0
  0
LINE
  5
14B
330
87
100
AcDbEntity
  8
P-SANR-FIXT
100
AcDbLine
 10
803.1772099892165
 20
2019.249999999997
 30
0.0
 11
794.1664074431598
 21
2019.249999999997
 31
0.0
  0
LINE
  5
14C
330
87
100
AcDbEntity
  8
P-SANR-FIXT
100
AcDbLine
 10
788.6664074431616
 20
1984.999999999995
 30
0.0
 11
794.1664074431598
 21
1984.999999999995
 31
0.0
  0
LINE
  5
14D
330
87
100
AcDbEntity
  8
P-SANR-FIXT
100
AcDbLine
 10
794.1664074431598
 20
2014.999999999997
 30
0.0
 11
788.666407443162
 21
2014.999999999997
 31
0.0
  0
LINE
  5
14E
330
87
100
AcDbEntity
  8
P-SANR-FIXT
100
AcDbLine
 10
799.6664074431597
 20
1980.772850351899
 30
0.0
 11
799.6664074431597
 21
1967.999999999996
 31
0.0
  0
LINE
  5
14F
330
87
100
AcDbEntity
  8
P-SANR-FIXT
100
AcDbLine
 10
831.6664074431599
 20
1967.999999999996
 30
0.0
 11
831.6664074431599
 21
1980.772850351899
 31
0.0
  0
LINE
  5
150
330
87
100
AcDbEntity
  8
P-SANR-FIXT
100
AcDbLine
 10
803.1664074431599
 20
2020.889999999994
 30
0.0
 11
803.1664074431599
 21
2019.237720454249
 31
0.0
  0
LINE
  5
151
330
87
100
AcDbEntity
  8
P-SANR-FIXT
100
AcDbLine
 10
828.1664074431599
 20
2019.237720454249
 30
0.0
 11
828.1664074431599
 21
2020.889999999994
 31
0.0
  0
LINE
  5
152
330
87
100
AcDbEntity
  8
P-SANR-FIXT
100
AcDbLine
 10
842.6664074431583
 20
1999.429793855779
 30
0.0
 11
842.6664074431583
 21
1999.999999999995
 31
0.0
  0
LINE
  5
153
330
87
100
AcDbEntity
  8
P-SANR-FIXT
100
AcDbLine
 10
842.6664074431583
 20
1999.999999999995
 30
0.0
 11
842.6664074431583
 21
2000.570208233794
 31
0.0
  0
LINE
  5
154
330
87
100
AcDbEntity
  8
P-SANR-FIXT
100
AcDbLine
 10
837.1664074431587
 20
1999.999999999995
 30
0.0
 11
837.1664074431583
 21
1980.749999999994
 31
0.0
  0
SPLINE
  5
155
330
87
100
AcDbEntity
  8
P-SANR-FIXT
100
AcDbSpline
210
0.0
220
0.0
230
1.0
 70
     8
 71
     3
 72
    24
 73
    20
 74
     0
 42
0.000000001
 43
0.0000000001
 40
0.0
 40
0.0
 40
0.0
 40
0.0
 40
0.0555555555555556
 40
0.0833333333333333
 40
0.0972222222222222
 40
0.1111111111111111
 40
0.125
 40
0.1388888888888889
 40
0.1666666666666666
 40
0.1944444444444444
 40
0.2222222222222222
 40
0.25
 40
0.2777777777777778
 40
0.3333333333333333
 40
0.3611111111111111
 40
0.3888888888888888
 40
0.4166666666666666
 40
0.4444444444444445
 40
0.4722222222222224
 40
0.4722222222222224
 40
0.4722222222222224
 40
0.4722222222222224
 10
815.6664074431583
 20
1989.29661268569
 30
0.0
 10
816.6957307549237
 20
1989.198912679969
 30
0.0
 10
818.1728917130998
 20
1988.945698611615
 30
0.0
 10
819.7792889161501
 20
1988.476966083047
 30
0.0
 10
820.6638312259393
 20
1988.162180115974
 30
0.0
 10
821.3104906130554
 20
1987.905511678128
 30
0.0
 10
821.9405984895356
 20
1987.621465195198
 30
0.0
 10
822.758816587285
 20
1987.204161147418
 30
0.0
 10
823.7398196566326
 20
1986.631637480996
 30
0.0
 10
824.8504069945377
 20
1985.908234635726
 30
0.0
 10
825.8894773046236
 20
1985.201949556079
 30
0.0
 10
826.8706400338011
 20
1984.517131550991
 30
0.0
 10
828.1023136873887
 20
1983.613981989448
 30
0.0
 10
829.159730908114
 20
1982.78564815303
 30
0.0
 10
830.0313252689928
 20
1982.075466372726
 30
0.0
 10
830.6131145575701
 20
1981.610069328554
 30
0.0
 10
831.0850204341834
 20
1981.233901989196
 30
0.0
 10
831.4152081775748
 20
1980.960308590842
 30
0.0
 10
831.5425734656651
 20
1980.846486465852
 30
0.0
 10
831.5843444218579
 20
1980.808113084881
 30
0.0
  0
LINE
  5
156
330
87
100
AcDbEntity
  8
P-SANR-FIXT
100
AcDbLine
 10
837.1664074431583
 20
2019.249999999995
 30
0.0
 11
837.1664074431587
 21
1999.999999999995
 31
0.0
  0
SPLINE
  5
157
330
87
100
AcDbEntity
  8
P-SANR-FIXT
100
AcDbSpline
210
0.0
220
0.0
230
1.0
 70
     8
 71
     3
 72
    20
 73
    16
 74
     0
 42
0.000000001
 43
0.0000000001
 40
0.5277777777777778
 40
0.5277777777777778
 40
0.5277777777777778
 40
0.5277777777777778
 40
0.5555555555555556
 40
0.6111111111111112
 40
0.6666666666666666
 40
0.75
 40
0.7708333333333333
 40
0.7916666666666666
 40
0.8333333333333332
 40
0.875
 40
0.8854166666666666
 40
0.8958333333333332
 40
0.9166666666666666
 40
0.9583333333333332
 40
1.0
 40
1.0
 40
1.0
 40
1.0
 10
828.1096185345257
 20
2019.217057131808
 30
0.0
 10
828.0783683333943
 20
2019.19520588718
 30
0.0
 10
827.9352994433333
 20
2019.097508358349
 30
0.0
 10
827.4269529663198
 20
2018.780968115256
 30
0.0
 10
826.3316121422143
 20
2018.100524856998
 30
0.0
 10
825.0668175031064
 20
2017.377022976476
 30
0.0
 10
823.905357889263
 20
2016.794653831482
 30
0.0
 10
823.096988905927
 20
2016.413391771087
 30
0.0
 10
821.9840429569867
 20
2015.924374052268
 30
0.0
 10
820.8985865867804
 20
2015.528725059439
 30
0.0
 10
820.1517493606008
 20
2015.30769652514
 30
0.0
 10
819.6485159731363
 20
2015.17340890233
 30
0.0
 10
818.7460627833157
 20
2014.963217723305
 30
0.0
 10
817.3972302106337
 20
2014.742634937627
 30
0.0
 10
816.2540093432715
 20
2014.657925267229
 30
0.0
 10
815.6664074431583
 20
2014.639415971953
 30
0.0
  0
SPLINE
  5
158
330
87
100
AcDbEntity
  8
P-SANR-FIXT
100
AcDbSpline
210
0.0
220
0.0
230
1.0
 70
     8
 71
     3
 72
    23
 73
    19
 74
     0
 42
0.000000001
 43
0.0000000001
 40
0.5277777777777778
 40
0.5277777777777778
 40
0.5277777777777778
 40
0.5277777777777778
 40
0.5555555555555556
 40
0.6111111111111112
 40
0.6666666666666666
 40
0.6944444444444445
 40
0.7222222222222223
 40
0.75
 40
0.7777777777777778
 40
0.8055555555555555
 40
0.8333333333333332
 40
0.861111111111111
 40
0.875
 40
0.8888888888888889
 40
0.9027777777777776
 40
0.9166666666666666
 40
0.9444444444444444
 40
1.0
 40
1.0
 40
1.0
 40
1.0
 10
799.7507216070659
 20
1980.808057313513
 30
0.0
 10
799.7921155277418
 20
1980.846342572879
 30
0.0
 10
799.9769616872157
 20
1981.01649705151
 30
0.0
 10
800.6667942680728
 20
1981.565183859533
 30
0.0
 10
801.7127266622681
 20
1982.412656100005
 30
0.0
 10
802.6957450332131
 20
1983.198028385976
 30
0.0
 10
803.5400400508539
 20
1983.84024812099
 30
0.0
 10
804.4617406537506
 20
1984.51700327163
 30
0.0
 10
805.4434539382231
 20
1985.201983932365
 30
0.0
 10
806.4823766644229
 20
1985.908225409939
 30
0.0
 10
807.5930037825775
 20
1986.631640007857
 30
0.0
 10
808.5739972376652
 20
1987.204160833848
 30
0.0
 10
809.3922165966617
 20
1987.621465254251
 30
0.0
 10
810.0223242197934
 20
1987.905511662331
 30
0.0
 10
810.668983674369
 20
1988.162180120108
 30
0.0
 10
811.5535259621717
 20
1988.476966080685
 30
0.0
 10
813.1599231792135
 20
1988.945698613387
 30
0.0
 10
814.6370841313931
 20
1989.198912679969
 30
0.0
 10
815.6664074431583
 20
1989.29661268569
 30
0.0
  0
SPLINE
  5
159
330
87
100
AcDbEntity
  8
P-SANR-FIXT
100
AcDbSpline
210
0.0
220
0.0
230
1.0
 70
     8
 71
     3
 72
    18
 73
    14
 74
     0
 42
0.000000001
 43
0.0000000001
 40
0.0
 40
0.0
 40
0.0
 40
0.0
 40
0.0555555555555556
 40
0.0833333333333333
 40
0.1111111111111111
 40
0.1388888888888889
 40
0.1666666666666666
 40
0.1944444444444444
 40
0.2222222222222222
 40
0.3333333333333333
 40
0.3888888888888888
 40
0.4444444444444445
 40
0.4722222222222224
 40
0.4722222222222224
 40
0.4722222222222224
 40
0.4722222222222224
 10
815.6664074431583
 20
2014.639415971953
 30
0.0
 10
814.8829382430072
 20
2014.66409503232
 30
0.0
 10
813.7506351320144
 20
2014.764587730795
 30
0.0
 10
812.3254102813213
 20
2015.019711267096
 30
0.0
 10
811.3013254542902
 20
2015.264296522933
 30
0.0
 10
810.3117644555547
 20
2015.571259564814
 30
0.0
 10
809.3590847591709
 20
2015.929889482457
 30
0.0
 10
808.4562681052872
 20
2016.314716091111
 30
0.0
 10
806.7870118573971
 20
2017.083693638918
 30
0.0
 10
805.15754901392
 20
2018.003088824173
 30
0.0
 10
803.9058864690266
 20
2018.781011238342
 30
0.0
 10
803.3975144592369
 20
2019.097506476108
 30
0.0
 10
803.2544439526887
 20
2019.195201489182
 30
0.0
 10
803.223193997494
 20
2019.21705320437
 30
0.0
  0
LINE
  5
15A
330
87
100
AcDbEntity
  8
P-SANR-FIXT
100
AcDbLine
 10
794.1664074431585
 20
1999.999999999995
 30
0.0
 11
794.1664074431582
 21
1980.749999999994
 31
0.0
  0
LINE
  5
15B
330
87
100
AcDbEntity
  8
P-SANR-FIXT
100
AcDbLine
 10
794.1664074431582
 20
2019.249999999995
 30
0.0
 11
794.1664074431585
 21
1999.999999999995
 31
0.0
  0
LINE
  5
15C
330
87
100
AcDbEntity
  8
P-SANR-FIXT
100
AcDbLine
 10
788.6664074431585
 20
1999.999999999995
 30
0.0
 11
788.6664074431585
 21
1999.429793854649
 31
0.0
  0
LINE
  5
15D
330
87
100
AcDbEntity
  8
P-SANR-FIXT
100
AcDbLine
 10
788.6664074431585
 20
2000.570206145253
 30
0.0
 11
788.6664074431585
 21
1999.999999999995
 31
0.0
  0
LINE
  5
15E
330
87
100
AcDbEntity
  8
P-SANR-FIXT
100
AcDbLine
 10
803.2509011632908
 20
2020.999999999995
 30
0.0
 11
803.2984204332143
 21
2020.999999999995
 31
0.0
  0
LINE
  5
15F
330
87
100
AcDbEntity
  8
P-SANR-FIXT
100
AcDbLine
 10
804.8410898958643
 20
2020.999999999995
 30
0.0
 11
805.4067121044013
 21
2020.999999999995
 31
0.0
  0
LINE
  5
160
330
87
100
AcDbEntity
  8
P-SANR-FIXT
100
AcDbLine
 10
805.4111601041871
 20
2020.999999999995
 30
0.0
 11
806.0733148251777
 21
2020.999999999995
 31
0.0
  0
LINE
  5
161
330
87
100
AcDbEntity
  8
P-SANR-FIXT
100
AcDbLine
 10
806.0779823956561
 20
2020.999999999995
 30
0.0
 11
807.6157131896383
 21
2020.999999999995
 31
0.0
  0
LINE
  5
162
330
87
100
AcDbEntity
  8
P-SANR-FIXT
100
AcDbLine
 10
807.6214482228774
 20
2020.999999999995
 30
0.0
 11
808.0568895805491
 21
2020.999999999995
 31
0.0
  0
LINE
  5
163
330
87
100
AcDbEntity
  8
P-SANR-FIXT
100
AcDbLine
 10
808.483536230984
 20
2020.999999999995
 30
0.0
 11
810.3731985633167
 21
2020.999999999995
 31
0.0
  0
LINE
  5
164
330
87
100
AcDbEntity
  8
P-SANR-FIXT
100
AcDbLine
 10
810.8828645385948
 20
2020.999999999995
 30
0.0
 11
811.3768904015696
 21
2020.999999999995
 31
0.0
  0
LINE
  5
165
330
87
100
AcDbEntity
  8
P-SANR-FIXT
100
AcDbLine
 10
811.3834002438732
 20
2020.999999999995
 30
0.0
 11
813.4913125577529
 21
2020.999999999995
 31
0.0
  0
LINE
  5
166
330
87
100
AcDbEntity
  8
P-SANR-FIXT
100
AcDbLine
 10
814.5752338036464
 20
2020.999999999995
 30
0.0
 11
815.6664074431583
 21
2020.999999999995
 31
0.0
  0
LINE
  5
167
330
87
100
AcDbEntity
  8
P-SANR-FIXT
100
AcDbLine
 10
815.6664074431583
 20
2020.999999999995
 30
0.0
 11
816.7575810826953
 21
2020.999999999995
 31
0.0
  0
LINE
  5
168
330
87
100
AcDbEntity
  8
P-SANR-FIXT
100
AcDbLine
 10
817.8415023285889
 20
2020.999999999995
 30
0.0
 11
819.9494146424685
 21
2020.999999999995
 31
0.0
  0
LINE
  5
169
330
87
100
AcDbEntity
  8
P-SANR-FIXT
100
AcDbLine
 10
820.9596163230253
 20
2020.999999999995
 30
0.0
 11
822.8492786553573
 21
2020.999999999995
 31
0.0
  0
LINE
  5
16A
330
87
100
AcDbEntity
  8
P-SANR-FIXT
100
AcDbLine
 10
823.7171016967037
 20
2020.999999999995
 30
0.0
 11
825.254832490685
 21
2020.999999999995
 31
0.0
  0
LINE
  5
16B
330
87
100
AcDbEntity
  8
P-SANR-FIXT
100
AcDbLine
 10
825.2595000611634
 20
2020.999999999995
 30
0.0
 11
825.5833241967987
 21
2020.999999999995
 31
0.0
  0
LINE
  5
16C
330
87
100
AcDbEntity
  8
P-SANR-FIXT
100
AcDbLine
 10
825.9261027819416
 20
2020.999999999995
 30
0.0
 11
826.4917249904637
 21
2020.999999999995
 31
0.0
  0
LINE
  5
16D
330
87
100
AcDbEntity
  8
P-SANR-FIXT
100
AcDbLine
 10
828.0343944531589
 20
2020.999999999995
 30
0.0
 11
828.0819137229805
 21
2020.999999999995
 31
0.0
  0
LINE
  5
16E
330
87
100
AcDbEntity
  8
P-SANR-FIXT
100
AcDbLine
 10
815.6664074431583
 20
1961.999999999995
 30
0.0
 11
807.1811260689194
 21
1961.999999999995
 31
0.0
  0
LINE
  5
16F
330
87
100
AcDbEntity
  8
P-SANR-FIXT
100
AcDbLine
 10
805.186616265942
 20
1961.999999999995
 30
0.0
 11
796.7013348917036
 21
1961.999999999995
 31
0.0
  0
LINE
  5
170
330
87
100
AcDbEntity
  8
P-SANR-FIXT
100
AcDbLine
 10
834.631479994613
 20
1961.999999999995
 30
0.0
 11
826.1461986203745
 21
1961.999999999995
 31
0.0
  0
LINE
  5
171
330
87
100
AcDbEntity
  8
P-SANR-FIXT
100
AcDbLine
 10
824.1516888173968
 20
1961.999999999995
 30
0.0
 11
815.6664074431583
 21
1961.999999999995
 31
0.0
  0
LINE
  5
172
330
87
100
AcDbEntity
  8
P-SANR-FIXT
100
AcDbLine
 10
807.1811260689198
 20
1961.999999999995
 30
0.0
 11
805.186616265942
 21
1961.999999999995
 31
0.0
  0
LINE
  5
173
330
87
100
AcDbEntity
  8
P-SANR-FIXT
100
AcDbLine
 10
807.1811260689194
 20
1961.999999999995
 30
0.0
 11
807.1811260689194
 21
1967.999999999995
 31
0.0
  0
LINE
  5
174
330
87
100
AcDbEntity
  8
P-SANR-FIXT
100
AcDbLine
 10
805.186616265942
 20
1967.999999999995
 30
0.0
 11
805.186616265942
 21
1961.999999999995
 31
0.0
  0
LINE
  5
175
330
87
100
AcDbEntity
  8
P-SANR-FIXT
100
AcDbLine
 10
796.7013348917036
 20
1961.999999999995
 30
0.0
 11
796.6664074431583
 21
1961.999999999995
 31
0.0
  0
LINE
  5
176
330
87
100
AcDbEntity
  8
P-SANR-FIXT
100
AcDbLine
 10
796.7013348917036
 20
1961.999999999995
 30
0.0
 11
796.7013348917036
 21
1967.999999999995
 31
0.0
  0
LINE
  5
177
330
87
100
AcDbEntity
  8
P-SANR-FIXT
100
AcDbLine
 10
834.6664074431583
 20
1961.999999999995
 30
0.0
 11
834.631479994613
 21
1961.999999999995
 31
0.0
  0
LINE
  5
178
330
87
100
AcDbEntity
  8
P-SANR-FIXT
100
AcDbLine
 10
834.631479994613
 20
1967.999999999995
 30
0.0
 11
834.631479994613
 21
1961.999999999995
 31
0.0
  0
LINE
  5
179
330
87
100
AcDbEntity
  8
P-SANR-FIXT
100
AcDbLine
 10
826.1461986203746
 20
1961.999999999995
 30
0.0
 11
824.1516888173968
 21
1961.999999999995
 31
0.0
  0
LINE
  5
17A
330
87
100
AcDbEntity
  8
P-SANR-FIXT
100
AcDbLine
 10
826.1461986203743
 20
1961.999999999995
 30
0.0
 11
826.1461986203743
 21
1967.999999999995
 31
0.0
  0
LINE
  5
17B
330
87
100
AcDbEntity
  8
P-SANR-FIXT
100
AcDbLine
 10
824.1516888173968
 20
1967.999999999995
 30
0.0
 11
824.1516888173968
 21
1961.999999999995
 31
0.0
  0
LINE
  5
17C
330
87
100
AcDbEntity
  8
P-SANR-FIXT
100
AcDbLine
 10
796.7013348917036
 20
1967.999999999995
 30
0.0
 11
796.6664074431583
 21
1967.999999999995
 31
0.0
  0
LINE
  5
17D
330
87
100
AcDbEntity
  8
P-SANR-FIXT
100
AcDbLine
 10
796.7013348917036
 20
1967.999999999995
 30
0.0
 11
805.186616265942
 21
1967.999999999995
 31
0.0
  0
LINE
  5
17E
330
87
100
AcDbEntity
  8
P-SANR-FIXT
100
AcDbLine
 10
807.1811260689198
 20
1967.999999999995
 30
0.0
 11
805.186616265942
 21
1967.999999999995
 31
0.0
  0
LINE
  5
17F
330
87
100
AcDbEntity
  8
P-SANR-FIXT
100
AcDbLine
 10
807.1811260689194
 20
1967.999999999995
 30
0.0
 11
815.6664074431583
 21
1967.999999999995
 31
0.0
  0
LINE
  5
180
330
87
100
AcDbEntity
  8
P-SANR-FIXT
100
AcDbLine
 10
815.6664074431583
 20
1967.999999999995
 30
0.0
 11
824.1516888173968
 21
1967.999999999995
 31
0.0
  0
LINE
  5
181
330
87
100
AcDbEntity
  8
P-SANR-FIXT
100
AcDbLine
 10
826.1461986203746
 20
1967.999999999995
 30
0.0
 11
824.1516888173968
 21
1967.999999999995
 31
0.0
  0
LINE
  5
182
330
87
100
AcDbEntity
  8
P-SANR-FIXT
100
AcDbLine
 10
826.1461986203745
 20
1967.999999999995
 30
0.0
 11
834.631479994613
 21
1967.999999999995
 31
0.0
  0
LINE
  5
183
330
87
100
AcDbEntity
  8
P-SANR-FIXT
100
AcDbLine
 10
834.6664074431583
 20
1967.999999999995
 30
0.0
 11
834.631479994613
 21
1967.999999999995
 31
0.0
  0
ENDBLK
  5
185
330
87
100
AcDbEntity
  8
0
100
AcDbBlockEnd
  0
BLOCK
  5
1CF
330
187
100
AcDbEntity
  8
0
100
AcDbBlockBegin
  2
Automatic flow rate regulator valve_Caleffi_121 DN15 - 1_2__-V1-Est - Idraulica
 70
     0
 10
0.0
 20
0.0
 30
0.0
  3
Automatic flow rate regulator valve_Caleffi_121 DN15 - 1_2__-V1-Est - Idraulica
  1

  0
LINE
  5
188
330
187
100
AcDbEntity
  8
M-PIPE
100
AcDbLine
 10
818.4948345679188
 20
1818.822493106302
 30
0.0
 11
791.9783302734235
 21
1792.305988811806
 31
0.0
1001
REVIT
1002
{
1070
     3
1000
923261
1002
}
  0
LINE
  5
189
330
187
100
AcDbEntity
  8
M-PIPE
100
AcDbLine
 10
832.3632407434191
 20
1832.690899281803
 30
0.0
 11
818.4948345679188
 21
1818.822493106302
 31
0.0
1001
REVIT
1002
{
1070
     3
1000
923261
1002
}
  0
LINE
  5
18A
330
187
100
AcDbEntity
  8
M-PIPE
100
AcDbLine
 10
775.0077675249465
 20
1809.276551560283
 30
0.0
 11
801.5242718194418
 21
1835.793055854779
 31
0.0
1001
REVIT
1002
{
1070
     3
1000
923261
1002
}
  0
LINE
  5
18B
330
187
100
AcDbEntity
  8
M-PIPE
100
AcDbLine
 10
801.5242718194418
 20
1835.793055854779
 30
0.0
 11
815.392677994942
 21
1849.66146203028
 31
0.0
1001
REVIT
1002
{
1070
     3
1000
923261
1002
}
  0
LINE
  5
18C
330
187
100
AcDbEntity
  8
M-PIPE
100
AcDbLine
 10
832.3632407434191
 20
1832.690899281803
 30
0.0
 11
825.3579644254724
 21
1839.69617559975
 31
0.0
1001
REVIT
1002
{
1070
     3
1000
923261
1002
}
  0
SPLINE
  5
18D
330
187
100
AcDbEntity
  8
M-PIPE
100
AcDbSpline
210
0.0
220
0.0
230
1.0
 70
     8
 71
     3
 72
     9
 73
     5
 74
     0
 42
0.000000001
 43
0.0000000001
 40
0.0
 40
0.0
 40
0.0
 40
0.0
 40
0.5
 40
1.0
 40
1.0
 40
1.0
 40
1.0
 10
825.3579644254724
 20
1839.69617559975
 30
0.0
 10
825.2471643164131
 20
1839.859233704957
 30
0.0
 10
825.0002404582717
 20
1840.19398295022
 30
0.0
 10
824.7062662852373
 20
1840.549595230331
 30
0.0
 10
824.5482450366672
 20
1840.733345545769
 30
0.0
1001
REVIT
1002
{
1070
     3
1000
923261
1002
}
  0
LINE
  5
18E
330
187
100
AcDbEntity
  8
M-PIPE
100
AcDbLine
 10
823.9921019477225
 20
1841.290323234559
 30
0.0
 11
824.5482450366672
 21
1840.733345545769
 31
0.0
1001
REVIT
1002
{
1070
     3
1000
923261
1002
}
  0
LINE
  5
18F
330
187
100
AcDbEntity
  8
M-PIPE
100
AcDbLine
 10
823.4351242589321
 20
1841.846466323504
 30
0.0
 11
823.9921019477225
 21
1841.290323234559
 31
0.0
1001
REVIT
1002
{
1070
     3
1000
923261
1002
}
  0
SPLINE
  5
190
330
187
100
AcDbEntity
  8
M-PIPE
100
AcDbSpline
210
0.0
220
0.0
230
1.0
 70
     8
 71
     3
 72
     9
 73
     5
 74
     0
 42
0.000000001
 43
0.0000000001
 40
0.0
 40
0.0
 40
0.0
 40
0.0
 40
0.5
 40
1.0
 40
1.0
 40
1.0
 40
1.0
 10
823.4351242589321
 20
1841.846466323504
 30
0.0
 10
823.251373943494
 20
1842.004487572074
 30
0.0
 10
822.8957616633827
 20
1842.298461745109
 30
0.0
 10
822.56101241812
 20
1842.54538560325
 30
0.0
 10
822.3979543129125
 20
1842.656185712309
 30
0.0
1001
REVIT
1002
{
1070
     3
1000
923261
1002
}
  0
LINE
  5
191
330
187
100
AcDbEntity
  8
M-PIPE
100
AcDbLine
 10
822.3979543129125
 20
1842.656185712309
 30
0.0
 11
815.392677994942
 21
1849.66146203028
 31
0.0
1001
REVIT
1002
{
1070
     3
1000
923261
1002
}
  0
LINE
  5
192
330
187
100
AcDbEntity
  8
M-PIPE
100
AcDbLine
 10
775.0077675249465
 20
1809.276551560283
 30
0.0
 11
791.9783302734235
 21
1792.305988811806
 31
0.0
1001
REVIT
1002
{
1070
     3
1000
923261
1002
}
  0
LINE
  5
193
330
187
100
AcDbEntity
  8
M-PIPE
100
AcDbLine
 10
762.1664074431609
 20
1820.964628730049
 30
0.0
 11
770.1664074431609
 21
1820.964628730049
 31
0.0
1001
REVIT
1002
{
1070
     3
1000
923261
1002
}
  0
LINE
  5
194
330
187
100
AcDbEntity
  8
M-PIPE
100
AcDbLine
 10
770.1664074431607
 20
1844.964628730049
 30
0.0
 11
762.1664074431607
 21
1844.964628730049
 31
0.0
1001
REVIT
1002
{
1070
     3
1000
923261
1002
}
  0
LINE
  5
195
330
187
100
AcDbEntity
  8
M-PIPE
100
AcDbLine
 10
757.1664074431603
 20
1824.96462873005
 30
0.0
 11
762.1664074431609
 21
1824.96462873005
 31
0.0
1001
REVIT
1002
{
1070
     3
1000
923261
1002
}
  0
LINE
  5
196
330
187
100
AcDbEntity
  8
M-PIPE
100
AcDbLine
 10
770.1664074431609
 20
1824.96462873005
 30
0.0
 11
783.1664074431604
 21
1824.96462873005
 31
0.0
1001
REVIT
1002
{
1070
     3
1000
923261
1002
}
  0
LINE
  5
197
330
187
100
AcDbEntity
  8
M-PIPE
100
AcDbLine
 10
783.1664074431604
 20
1840.964628730049
 30
0.0
 11
770.1664074431609
 21
1840.964628730049
 31
0.0
1001
REVIT
1002
{
1070
     3
1000
923261
1002
}
  0
LINE
  5
198
330
187
100
AcDbEntity
  8
M-PIPE
100
AcDbLine
 10
762.1664074431607
 20
1840.96462873005
 30
0.0
 11
757.1664074431602
 21
1840.96462873005
 31
0.0
1001
REVIT
1002
{
1070
     3
1000
923261
1002
}
  0
LINE
  5
199
330
187
100
AcDbEntity
  8
M-PIPE
100
AcDbLine
 10
898.6664074431606
 20
1799.96462873005
 30
0.0
 11
898.6664074431601
 21
1865.96462873005
 31
0.0
1001
REVIT
1002
{
1070
     3
1000
923261
1002
}
  0
LINE
  5
19A
330
187
100
AcDbEntity
  8
M-PIPE
100
AcDbLine
 10
770.1664074431597
 20
1844.964628730048
 30
0.0
 11
770.1664074431598
 21
1820.964628730049
 31
0.0
1001
REVIT
1002
{
1070
     3
1000
923261
1002
}
  0
LINE
  5
19B
330
187
100
AcDbEntity
  8
M-PIPE
100
AcDbLine
 10
762.1664074431598
 20
1820.964628730049
 30
0.0
 11
762.1664074431596
 21
1844.964628730048
 31
0.0
1001
REVIT
1002
{
1070
     3
1000
923261
1002
}
  0
LINE
  5
19C
330
187
100
AcDbEntity
  8
M-PIPE
100
AcDbLine
 10
757.1664074431591
 20
1824.964628730049
 30
0.0
 11
757.1664074431593
 21
1840.964628730049
 31
0.0
1001
REVIT
1002
{
1070
     3
1000
923261
1002
}
  0
LINE
  5
19D
330
187
100
AcDbEntity
  8
M-PIPE
100
AcDbLine
 10
898.6664074431596
 20
1799.964628730049
 30
0.0
 11
891.6664074431597
 21
1799.964628730049
 31
0.0
1001
REVIT
1002
{
1070
     3
1000
923261
1002
}
  0
LINE
  5
19E
330
187
100
AcDbEntity
  8
M-PIPE
100
AcDbLine
 10
891.6664074431595
 20
1799.964628730049
 30
0.0
 11
799.636970191666
 21
1799.964628730049
 31
0.0
1001
REVIT
1002
{
1070
     3
1000
923261
1002
}
  0
LINE
  5
19F
330
187
100
AcDbEntity
  8
M-PIPE
100
AcDbLine
 10
784.3196903551813
 20
1799.964628730049
 30
0.0
 11
783.1664074431596
 21
1799.964628730049
 31
0.0
1001
REVIT
1002
{
1070
     3
1000
923261
1002
}
  0
LINE
  5
1A0
330
187
100
AcDbEntity
  8
M-PIPE
100
AcDbLine
 10
783.1664074431592
 20
1865.964628730049
 30
0.0
 11
891.6664074431592
 21
1865.964628730049
 31
0.0
1001
REVIT
1002
{
1070
     3
1000
923261
1002
}
  0
LINE
  5
1A1
330
187
100
AcDbEntity
  8
M-PIPE
100
AcDbLine
 10
891.6664074431592
 20
1865.964628730049
 30
0.0
 11
898.6664074431592
 21
1865.96462873005
 31
0.0
1001
REVIT
1002
{
1070
     3
1000
923261
1002
}
  0
LINE
  5
1A2
330
187
100
AcDbEntity
  8
M-PIPE
100
AcDbLine
 10
783.1664074431594
 20
1798.964628730049
 30
0.0
 11
783.1664074431594
 21
1799.964628730049
 31
0.0
1001
REVIT
1002
{
1070
     3
1000
923261
1002
}
  0
LINE
  5
1A3
330
187
100
AcDbEntity
  8
M-PIPE
100
AcDbLine
 10
783.1664074431592
 20
1865.964628730049
 30
0.0
 11
783.1664074431594
 21
1817.435191478496
 31
0.0
1001
REVIT
1002
{
1070
     3
1000
923261
1002
}
  0
LINE
  5
1A4
330
187
100
AcDbEntity
  8
M-PIPE
100
AcDbLine
 10
783.1664074431594
 20
1801.117911642071
 30
0.0
 11
783.1664074431596
 21
1799.964628730049
 31
0.0
1001
REVIT
1002
{
1070
     3
1000
923261
1002
}
  0
LINE
  5
1A5
330
187
100
AcDbEntity
  8
M-PIPE
100
AcDbLine
 10
783.166407443159
 20
1865.964628730049
 30
0.0
 11
783.166407443159
 21
1866.964628730048
 31
0.0
1001
REVIT
1002
{
1070
     3
1000
923261
1002
}
  0
LINE
  5
1A6
330
187
100
AcDbEntity
  8
M-PIPE
100
AcDbLine
 10
900.1664074431594
 20
1798.964628730049
 30
0.0
 11
886.1134609974261
 21
1798.964628730049
 31
0.0
1001
REVIT
1002
{
1070
     3
1000
923261
1002
}
  0
LINE
  5
1A7
330
187
100
AcDbEntity
  8
M-PIPE
100
AcDbLine
 10
886.1134609974271
 20
1798.964628730049
 30
0.0
 11
849.5182691002005
 21
1798.964628730049
 31
0.0
1001
REVIT
1002
{
1070
     3
1000
923261
1002
}
  0
LINE
  5
1A8
330
187
100
AcDbEntity
  8
M-PIPE
100
AcDbLine
 10
849.5182691002009
 20
1798.964628730049
 30
0.0
 11
798.6430530177877
 21
1798.964628730049
 31
0.0
1001
REVIT
1002
{
1070
     3
1000
923261
1002
}
  0
LINE
  5
1A9
330
187
100
AcDbEntity
  8
M-PIPE
100
AcDbLine
 10
785.3191098953488
 20
1798.964628730049
 30
0.0
 11
783.1664074431594
 21
1798.964628730049
 31
0.0
1001
REVIT
1002
{
1070
     3
1000
923261
1002
}
  0
LINE
  5
1AA
330
187
100
AcDbEntity
  8
M-PIPE
100
AcDbLine
 10
783.1664074431579
 20
1866.964628730048
 30
0.0
 11
849.5182691001994
 21
1866.964628730049
 31
0.0
1001
REVIT
1002
{
1070
     3
1000
923261
1002
}
  0
LINE
  5
1AB
330
187
100
AcDbEntity
  8
M-PIPE
100
AcDbLine
 10
849.5182691001991
 20
1866.964628730049
 30
0.0
 11
886.1134609974257
 21
1866.964628730049
 31
0.0
1001
REVIT
1002
{
1070
     3
1000
923261
1002
}
  0
LINE
  5
1AC
330
187
100
AcDbEntity
  8
M-PIPE
100
AcDbLine
 10
886.1134609974257
 20
1866.964628730049
 30
0.0
 11
900.1664074431591
 21
1866.964628730049
 31
0.0
1001
REVIT
1002
{
1070
     3
1000
923261
1002
}
  0
LINE
  5
1AD
330
187
100
AcDbEntity
  8
M-PIPE
100
AcDbLine
 10
900.1664074431591
 20
1866.964628730049
 30
0.0
 11
900.1664074431594
 21
1798.964628730049
 31
0.0
1001
REVIT
1002
{
1070
     3
1000
923261
1002
}
  0
LINE
  5
1AE
330
187
100
AcDbEntity
  8
M-PIPE
100
AcDbLine
 10
886.1134609974271
 20
1799.964628730049
 30
0.0
 11
886.1134609974271
 21
1798.964628730049
 31
0.0
1001
REVIT
1002
{
1070
     3
1000
923261
1002
}
  0
LINE
  5
1AF
330
187
100
AcDbEntity
  8
M-PIPE
100
AcDbLine
 10
886.1134609974268
 20
1866.964628730049
 30
0.0
 11
886.1134609974268
 21
1865.96462873005
 31
0.0
1001
REVIT
1002
{
1070
     3
1000
923261
1002
}
  0
LINE
  5
1B0
330
187
100
AcDbEntity
  8
M-PIPE
100
AcDbLine
 10
849.5182691002009
 20
1799.964628730049
 30
0.0
 11
849.5182691002009
 21
1798.964628730049
 31
0.0
1001
REVIT
1002
{
1070
     3
1000
923261
1002
}
  0
LINE
  5
1B1
330
187
100
AcDbEntity
  8
M-PIPE
100
AcDbLine
 10
849.5182691002005
 20
1866.964628730049
 30
0.0
 11
849.5182691002005
 21
1865.964628730049
 31
0.0
1001
REVIT
1002
{
1070
     3
1000
923261
1002
}
  0
ARC
  5
1B2
330
187
100
AcDbEntity
  8
M-PIPE
100
AcDbCircle
 10
849.5182691002108
 20
1819.964628730048
 30
0.0
 40
7.999999999999886
100
AcDbArc
 50
180.0
 51
0.0
1001
REVIT
1002
{
1070
     3
1000
923261
1002
}
  0
ARC
  5
1B3
330
187
100
AcDbEntity
  8
M-PIPE
100
AcDbCircle
 10
849.5182691002108
 20
1819.964628730048
 30
0.0
 40
8.00000000000009
100
AcDbArc
 50
0.0000000000004039
 51
180.0000000000004
1001
REVIT
1002
{
1070
     3
1000
923261
1002
}
  0
ARC
  5
1B4
330
187
100
AcDbEntity
  8
M-PIPE
100
AcDbCircle
 10
815.6664074431709
 20
1832.964628730033
 30
0.0
 40
12.00000000000005
100
AcDbArc
 50
30.48057830519169
 51
59.51942169480865
1001
REVIT
1002
{
1070
     3
1000
923261
1002
}
  0
LINE
  5
1B5
330
187
100
AcDbEntity
  8
M-PIPE
100
AcDbLine
 10
772.6664074431612
 20
1846.214628730156
 30
0.0
 11
749.4664074431632
 21
1846.214628730156
 31
0.0
1001
REVIT
1002
{
1070
     3
1000
790271
1002
}
  0
LINE
  5
1B6
330
187
100
AcDbEntity
  8
M-PIPE
100
AcDbLine
 10
749.4664074431631
 20
1819.714628730064
 30
0.0
 11
772.6664074431612
 21
1819.714628730064
 31
0.0
1001
REVIT
1002
{
1070
     3
1000
790271
1002
}
  0
LINE
  5
1B7
330
187
100
AcDbEntity
  8
M-PIPE
100
AcDbLine
 10
749.4664074431632
 20
1846.214628730141
 30
0.0
 11
749.4183605263379
 21
1846.166581813316
 31
0.0
1001
REVIT
1002
{
1070
     3
1000
790271
1002
}
  0
LINE
  5
1B8
330
187
100
AcDbEntity
  8
M-PIPE
100
AcDbLine
 10
749.4026050715848
 20
1846.150826358563
 30
0.0
 11
748.1664074431634
 21
1844.914628730141
 31
0.0
1001
REVIT
1002
{
1070
     3
1000
790271
1002
}
  0
LINE
  5
1B9
330
187
100
AcDbEntity
  8
M-PIPE
100
AcDbLine
 10
748.166407443163
 20
1821.014628730079
 30
0.0
 11
749.4026050715845
 21
1819.778431101658
 31
0.0
1001
REVIT
1002
{
1070
     3
1000
790271
1002
}
  0
LINE
  5
1BA
330
187
100
AcDbEntity
  8
M-PIPE
100
AcDbLine
 10
749.4182595199637
 20
1819.762776653278
 30
0.0
 11
749.4664074431631
 21
1819.714628730079
 31
0.0
1001
REVIT
1002
{
1070
     3
1000
790271
1002
}
  0
LINE
  5
1BB
330
187
100
AcDbEntity
  8
M-PIPE
100
AcDbLine
 10
772.6664074431618
 20
1819.942011703818
 30
0.0
 11
764.6664074431618
 21
1819.942011703818
 31
0.0
1001
REVIT
1002
{
1070
     3
1000
790271
1002
}
  0
LINE
  5
1BC
330
187
100
AcDbEntity
  8
M-PIPE
100
AcDbLine
 10
764.6664074431618
 20
1819.942011703817
 30
0.0
 11
764.6664074431618
 21
1820.95172792928
 31
0.0
1001
REVIT
1002
{
1070
     3
1000
790271
1002
}
  0
LINE
  5
1BD
330
187
100
AcDbEntity
  8
M-PIPE
100
AcDbLine
 10
770.1664074431598
 20
1824.336610661825
 30
0.0
 11
772.6664074431615
 21
1824.336610661825
 31
0.0
1001
REVIT
1002
{
1070
     3
1000
790271
1002
}
  0
LINE
  5
1BE
330
187
100
AcDbEntity
  8
M-PIPE
100
AcDbLine
 10
772.6664074431618
 20
1841.592646798458
 30
0.0
 11
770.1664074431598
 21
1841.592646798458
 31
0.0
1001
REVIT
1002
{
1070
     3
1000
790271
1002
}
  0
LINE
  5
1BF
330
187
100
AcDbEntity
  8
M-PIPE
100
AcDbLine
 10
764.6664074431616
 20
1844.977529530824
 30
0.0
 11
764.6664074431616
 21
1845.987245756386
 31
0.0
1001
REVIT
1002
{
1070
     3
1000
790271
1002
}
  0
LINE
  5
1C0
330
187
100
AcDbEntity
  8
M-PIPE
100
AcDbLine
 10
764.6664074431614
 20
1845.987245756386
 30
0.0
 11
772.6664074431615
 21
1845.987245756386
 31
0.0
1001
REVIT
1002
{
1070
     3
1000
790271
1002
}
  0
LINE
  5
1C1
330
187
100
AcDbEntity
  8
M-PIPE
100
AcDbLine
 10
748.1664074431621
 20
1821.014628730079
 30
0.0
 11
748.1664074431621
 21
1844.914628730141
 31
0.0
1001
REVIT
1002
{
1070
     3
1000
790271
1002
}
  0
LINE
  5
1C2
330
187
100
AcDbEntity
  8
M-PIPE
100
AcDbLine
 10
749.4664074431621
 20
1846.214628730141
 30
0.0
 11
749.4664074431621
 21
1819.714628730079
 31
0.0
1001
REVIT
1002
{
1070
     3
1000
790271
1002
}
  0
LINE
  5
1C3
330
187
100
AcDbEntity
  8
M-PIPE
100
AcDbLine
 10
772.666407443161
 20
1816.798821192724
 30
0.0
 11
774.0141521312294
 21
1814.464458917358
 31
0.0
1001
REVIT
1002
{
1070
     3
1000
790271
1002
}
  0
LINE
  5
1C4
330
187
100
AcDbEntity
  8
M-PIPE
100
AcDbLine
 10
774.0141521312436
 20
1851.464798542768
 30
0.0
 11
772.6664074431612
 21
1849.130436267378
 31
0.0
1001
REVIT
1002
{
1070
     3
1000
790271
1002
}
  0
LINE
  5
1C5
330
187
100
AcDbEntity
  8
M-PIPE
100
AcDbLine
 10
774.7384821837647
 20
1814.464628730063
 30
0.0
 11
780.1958446947272
 21
1814.464628730063
 31
0.0
1001
REVIT
1002
{
1070
     3
1000
790271
1002
}
  0
LINE
  5
1C6
330
187
100
AcDbEntity
  8
M-PIPE
100
AcDbLine
 10
783.1664074431603
 20
1851.464628730063
 30
0.0
 11
774.7384821837782
 21
1851.464628730063
 31
0.0
1001
REVIT
1002
{
1070
     3
1000
790271
1002
}
  0
LINE
  5
1C7
330
187
100
AcDbEntity
  8
M-PIPE
100
AcDbLine
 10
772.6664074431599
 20
1816.798821192724
 30
0.0
 11
772.66640744316
 21
1824.962827760103
 31
0.0
1001
REVIT
1002
{
1070
     3
1000
790271
1002
}
  0
LINE
  5
1C8
330
187
100
AcDbEntity
  8
M-PIPE
100
AcDbLine
 10
772.6664074431602
 20
1840.966429699994
 30
0.0
 11
772.66640744316
 21
1849.130436267377
 31
0.0
1001
REVIT
1002
{
1070
     3
1000
790271
1002
}
  0
SPLINE
  5
1C9
330
187
100
AcDbEntity
  8
M-PIPE
100
AcDbSpline
210
0.0
220
0.0
230
1.0
 70
    24
 71
     3
 72
     9
 73
     5
 74
     0
 42
0.000000001
 43
0.0000000001
 40
0.0
 40
0.0
 40
0.0
 40
0.0
 40
0.5
 40
0.5041690251603061
 40
0.5041690251603061
 40
0.5041690251603061
 40
0.5041690251603061
 10
774.7384821837638
 20
1814.464628730062
 30
0.0
 10
774.2555619079682
 20
1814.464628730062
 30
0.0
 10
774.012088463289
 20
1814.464628730062
 30
0.0
 10
774.0141185571219
 20
1814.464628730062
 30
0.0
 10
774.0141521312284
 20
1814.464628730062
 30
0.0
1001
REVIT
1002
{
1070
     3
1000
790271
1002
}
  0
SPLINE
  5
1CA
330
187
100
AcDbEntity
  8
M-PIPE
100
AcDbSpline
210
0.0
220
0.0
230
1.0
 70
     8
 71
     3
 72
     9
 73
     5
 74
     0
 42
0.000000001
 43
0.0000000001
 40
0.3955518083008671
 40
0.3955518083008671
 40
0.3955518083008671
 40
0.3955518083008671
 40
0.5
 40
1.0
 40
1.0
 40
1.0
 40
1.0
 10
774.0457120645333
 20
1825.013790005122
 30
0.0
 10
774.0246385348984
 20
1824.5973899209
 30
0.0
 10
773.9636616205383
 20
1822.183626924511
 30
0.0
 10
774.2555619079753
 20
1819.746543395751
 30
0.0
 10
774.7384821837679
 20
1817.714628730062
 30
0.0
1001
REVIT
1002
{
1070
     3
1000
790271
1002
}
  0
SPLINE
  5
1CB
330
187
100
AcDbEntity
  8
M-PIPE
100
AcDbSpline
210
0.0
220
0.0
230
1.0
 70
     8
 71
     3
 72
     9
 73
     5
 74
     0
 42
0.000000001
 43
0.0000000001
 40
0.0
 40
0.0
 40
0.0
 40
0.0
 40
0.5
 40
0.6121226663179196
 40
0.6121226663179196
 40
0.6121226663179196
 40
0.6121226663179196
 10
774.7384821837788
 20
1848.214628730062
 30
0.0
 10
774.2555619079849
 20
1846.246543395751
 30
0.0
 10
773.9599554611469
 20
1843.817588420735
 30
0.0
 10
774.0262438271472
 20
1841.364716968103
 30
0.0
 10
774.0505279412663
 20
1840.914621442935
 30
0.0
1001
REVIT
1002
{
1070
     3
1000
790271
1002
}
  0
SPLINE
  5
1CC
330
187
100
AcDbEntity
  8
M-PIPE
100
AcDbSpline
210
0.0
220
0.0
230
1.0
 70
    24
 71
     3
 72
     8
 73
     4
 74
     0
 42
0.000000001
 43
0.0000000001
 40
0.5
 40
0.5
 40
0.5
 40
0.5
 40
1.0
 40
1.0
 40
1.0
 40
1.0
 10
774.0141017700827
 20
1851.464628730063
 30
0.0
 10
774.014101770084
 20
1851.464628730063
 30
0.0
 10
774.2555619079821
 20
1851.464628730063
 30
0.0
 10
774.7384821837772
 20
1851.464628730063
 30
0.0
1001
REVIT
1002
{
1070
     3
1000
790271
1002
}
  0
SPLINE
  5
1CD
330
187
100
AcDbEntity
  8
M-PIPE
100
AcDbSpline
210
0.0
220
0.0
230
1.0
 70
     8
 71
     3
 72
    10
 73
     6
 74
     0
 42
0.000000001
 43
0.0000000001
 40
-1.0
 40
-1.0
 40
-1.0
 40
-1.0
 40
-0.7
 40
-0.4
 40
0.0
 40
0.0
 40
0.0
 40
0.0
 10
774.7384821837638
 20
1814.464628730062
 30
0.0
 10
774.8755276526516
 20
1814.464628730062
 30
0.0
 10
775.0703754406191
 20
1814.674442350546
 30
0.0
 10
775.1191187686213
 20
1815.726366530688
 30
0.0
 10
774.9214829037057
 20
1816.937979189298
 30
0.0
 10
774.7384821837679
 20
1817.714628730062
 30
0.0
1001
REVIT
1002
{
1070
     3
1000
790271
1002
}
  0
SPLINE
  5
1CE
330
187
100
AcDbEntity
  8
M-PIPE
100
AcDbSpline
210
0.0
220
0.0
230
1.0
 70
     8
 71
     3
 72
    10
 73
     6
 74
     0
 42
0.000000001
 43
0.0000000001
 40
-1.0
 40
-1.0
 40
-1.0
 40
-1.0
 40
-0.7
 40
-0.4
 40
0.0
 40
0.0
 40
0.0
 40
0.0
 10
774.7384821837788
 20
1848.214628730062
 30
0.0
 10
774.8755276526662
 20
1848.795913928954
 30
0.0
 10
775.0703754406327
 20
1849.866085252318
 30
0.0
 10
775.1191187686328
 20
1851.133061926578
 30
0.0
 10
774.9214829037158
 20
1851.464628730063
 30
0.0
 10
774.7384821837772
 20
1851.464628730063
 30
0.0
1001
REVIT
1002
{
1070
     3
1000
790271
1002
}
  0
ENDBLK
  5
1D0
330
187
100
AcDbEntity
  8
0
100
AcDbBlockEnd
  0
BLOCK
  5
287
330
1D2
100
AcDbEntity
  8
0
100
AcDbBlockBegin
  2
Automatic flow rate regulator valve_Caleffi_121 DN15 - 1_2__-V2-Est - Idraulica
 70
     0
 10
0.0
 20
0.0
 30
0.0
  3
Automatic flow rate regulator valve_Caleffi_121 DN15 - 1_2__-V2-Est - Idraulica
  1

  0
LINE
  5
1D3
330
1D2
100
AcDbEntity
  8
M-PIPE
100
AcDbLine
 10
1085.31435394312
 20
2100.898503219288
 30
0.0
 11
1085.31435394312
 21
2099.982558850103
 31
0.0
1001
REVIT
1002
{
1070
     3
1000
923261
1002
}
  0
LINE
  5
1D4
330
1D2
100
AcDbEntity
  8
M-PIPE
100
AcDbLine
 10
1108.91435394312
 20
2099.98255885012
 30
0.0
 11
1108.91435394312
 21
2100.898503219287
 31
0.0
1001
REVIT
1002
{
1070
     3
1000
923261
1002
}
  0
LINE
  5
1D5
330
1D2
100
AcDbEntity
  8
M-PIPE
100
AcDbLine
 10
1137.772993861341
 20
2116.982558850087
 30
0.0
 11
1137.772993861341
 21
2112.982558850087
 31
0.0
1001
REVIT
1002
{
1070
     3
1000
923261
1002
}
  0
ELLIPSE
  5
1D6
330
1D2
100
AcDbEntity
  8
M-PIPE
100
AcDbEllipse
 10
1116.782382596464
 20
2109.167765983343
 30
0.0
 11
0.0
 21
3.814792866744028
 31
0.0
210
0.0
220
0.0
230
1.0
 40
0.7071067811865332
 41
0.0000000000000016
 42
1.570796326797633
1001
REVIT
1002
{
1070
     3
1000
923261
1002
}
  0
LINE
  5
1D7
330
1D2
100
AcDbEntity
  8
M-PIPE
100
AcDbLine
 10
1114.084916691568
 20
2109.167765983332
 30
0.0
 11
1114.084916691584
 21
2100.898503219287
 31
0.0
1001
REVIT
1002
{
1070
     3
1000
923261
1002
}
  0
ELLIPSE
  5
1D8
330
1D2
100
AcDbEntity
  8
M-PIPE
100
AcDbEllipse
 10
1099.811819847987
 20
2109.167765983343
 30
0.0
 11
0.0
 21
3.814792866744028
 31
0.0
210
0.0
220
0.0
230
1.0
 40
0.7071067811865332
 41
0.0000000000000016
 42
1.570796326797633
1001
REVIT
1002
{
1070
     3
1000
923261
1002
}
  0
LINE
  5
1D9
330
1D2
100
AcDbEntity
  8
M-PIPE
100
AcDbLine
 10
1099.811819847987
 20
2112.982558850087
 30
0.0
 11
1120.802431112864
 21
2112.982558850087
 31
0.0
1001
REVIT
1002
{
1070
     3
1000
923261
1002
}
  0
LINE
  5
1DA
330
1D2
100
AcDbEntity
  8
M-PIPE
100
AcDbLine
 10
1120.802431112864
 20
2112.982558850087
 30
0.0
 11
1120.802431112864
 21
2116.982558850087
 31
0.0
1001
REVIT
1002
{
1070
     3
1000
923261
1002
}
  0
LINE
  5
1DB
330
1D2
100
AcDbEntity
  8
M-PIPE
100
AcDbLine
 10
1120.802431112864
 20
2116.982558850087
 30
0.0
 11
1094.285926818369
 21
2116.982558850087
 31
0.0
1001
REVIT
1002
{
1070
     3
1000
923261
1002
}
  0
ELLIPSE
  5
1DC
330
1D2
100
AcDbEntity
  8
M-PIPE
100
AcDbEllipse
 10
1094.285926818369
 20
2096.982558850087
 30
0.0
 11
0.0
 21
20.00000000000046
 31
0.0
210
0.0
220
0.0
230
1.0
 40
0.7071067811865372
 41
0.0000000000000016
 42
1.373725988846895
1001
REVIT
1002
{
1070
     3
1000
923261
1002
}
  0
LINE
  5
1DD
330
1D2
100
AcDbEntity
  8
M-PIPE
100
AcDbLine
 10
1080.417520642868
 20
2100.898503219287
 30
0.0
 11
1097.114353943106
 21
2100.898503219287
 31
0.0
1001
REVIT
1002
{
1070
     3
1000
923261
1002
}
  0
LINE
  5
1DE
330
1D2
100
AcDbEntity
  8
M-PIPE
100
AcDbLine
 10
1097.114353943106
 20
2100.898503219287
 30
0.0
 11
1097.114353943091
 21
2109.167765983332
 31
0.0
1001
REVIT
1002
{
1070
     3
1000
923261
1002
}
  0
LINE
  5
1DF
330
1D2
100
AcDbEntity
  8
M-PIPE
100
AcDbLine
 10
1120.802431112864
 20
2116.982558850087
 30
0.0
 11
1137.772993861341
 21
2116.982558850087
 31
0.0
1001
REVIT
1002
{
1070
     3
1000
923261
1002
}
  0
LINE
  5
1E0
330
1D2
100
AcDbEntity
  8
M-PIPE
100
AcDbLine
 10
1120.802431112864
 20
2112.982558850087
 30
0.0
 11
1137.772993861341
 21
2112.982558850087
 31
0.0
1001
REVIT
1002
{
1070
     3
1000
923261
1002
}
  0
LINE
  5
1E1
330
1D2
100
AcDbEntity
  8
M-PIPE
100
AcDbLine
 10
1097.114353943106
 20
2100.898503219287
 30
0.0
 11
1114.084916691584
 21
2100.898503219287
 31
0.0
1001
REVIT
1002
{
1070
     3
1000
923261
1002
}
  0
LINE
  5
1E2
330
1D2
100
AcDbEntity
  8
M-PIPE
100
AcDbLine
 10
1109.614353943116
 20
2020.87255885001
 30
0.0
 11
1109.614353943116
 21
2037.772558850073
 31
0.0
1001
REVIT
1002
{
1070
     3
1000
923261
1002
}
  0
LINE
  5
1E3
330
1D2
100
AcDbEntity
  8
M-PIPE
100
AcDbLine
 10
1084.614353943116
 20
2037.772558850073
 30
0.0
 11
1084.614353943116
 21
2020.87255885001
 31
0.0
1001
REVIT
1002
{
1070
     3
1000
923261
1002
}
  0
LINE
  5
1E4
330
1D2
100
AcDbEntity
  8
M-PIPE
100
AcDbLine
 10
1064.1143539431
 20
2037.772558850074
 30
0.0
 11
1130.1143539431
 21
2037.772558850072
 31
0.0
1001
REVIT
1002
{
1070
     3
1000
923261
1002
}
  0
LINE
  5
1E5
330
1D2
100
AcDbEntity
  8
M-PIPE
100
AcDbLine
 10
1118.114353943101
 20
2029.772558850073
 30
0.0
 11
1118.114353943101
 21
2037.772558850072
 31
0.0
1001
REVIT
1002
{
1070
     3
1000
923261
1002
}
  0
LINE
  5
1E6
330
1D2
100
AcDbEntity
  8
M-PIPE
100
AcDbLine
 10
1063.1143539431
 20
2057.870230221086
 30
0.0
 11
1064.1143539431
 21
2057.870230221086
 31
0.0
1001
REVIT
1002
{
1070
     3
1000
923261
1002
}
  0
LINE
  5
1E7
330
1D2
100
AcDbEntity
  8
M-PIPE
100
AcDbLine
 10
1130.1143539431
 20
2057.870230221086
 30
0.0
 11
1131.1143539431
 21
2057.870230221086
 31
0.0
1001
REVIT
1002
{
1070
     3
1000
923261
1002
}
  0
LINE
  5
1E8
330
1D2
100
AcDbEntity
  8
M-PIPE
100
AcDbLine
 10
1114.114353943102
 20
2097.982558850073
 30
0.0
 11
1114.114353943102
 21
2100.898503219288
 31
0.0
1001
REVIT
1002
{
1070
     3
1000
923261
1002
}
  0
LINE
  5
1E9
330
1D2
100
AcDbEntity
  8
M-PIPE
100
AcDbLine
 10
1118.114353943101
 20
2107.982558850009
 30
0.0
 11
1118.114353943101
 21
2112.982558850073
 31
0.0
1001
REVIT
1002
{
1070
     3
1000
923261
1002
}
  0
LINE
  5
1EA
330
1D2
100
AcDbEntity
  8
M-PIPE
100
AcDbLine
 10
1109.114353943117
 20
2097.982558850073
 30
0.0
 11
1109.114353943117
 21
2099.982558850073
 31
0.0
1001
REVIT
1002
{
1070
     3
1000
923261
1002
}
  0
LINE
  5
1EB
330
1D2
100
AcDbEntity
  8
M-PIPE
100
AcDbLine
 10
1085.114353943116
 20
2099.982558850073
 30
0.0
 11
1085.114353943116
 21
2097.982558850073
 31
0.0
1001
REVIT
1002
{
1070
     3
1000
923261
1002
}
  0
ARC
  5
1EC
330
1D2
100
AcDbEntity
  8
M-PIPE
100
AcDbCircle
 10
1097.114353943098
 20
2078.982558850072
 30
0.0
 40
12.0
100
AcDbArc
 50
180.0
 51
0.0
1001
REVIT
1002
{
1070
     3
1000
923261
1002
}
  0
ARC
  5
1ED
330
1D2
100
AcDbEntity
  8
M-PIPE
100
AcDbCircle
 10
1097.114353943098
 20
2078.982558850072
 30
0.0
 40
12.0
100
AcDbArc
 50
0.0
 51
180.0
1001
REVIT
1002
{
1070
     3
1000
923261
1002
}
  0
ARC
  5
1EE
330
1D2
100
AcDbEntity
  8
M-PIPE
100
AcDbCircle
 10
1097.114353943098
 20
2078.982558850072
 30
0.0
 40
8.000000000000227
100
AcDbArc
 50
0.0
 51
180.0
1001
REVIT
1002
{
1070
     3
1000
923261
1002
}
  0
ARC
  5
1EF
330
1D2
100
AcDbEntity
  8
M-PIPE
100
AcDbCircle
 10
1097.114353943098
 20
2078.982558850072
 30
0.0
 40
7.999999999999772
100
AcDbArc
 50
180.0
 51
0.0
1001
REVIT
1002
{
1070
     3
1000
923261
1002
}
  0
LINE
  5
1F0
330
1D2
100
AcDbEntity
  8
M-PIPE
100
AcDbLine
 10
1097.114215367345
 20
2020.872558850009
 30
0.0
 11
1095.445692066281
 21
2020.872558850009
 31
0.0
1001
REVIT
1002
{
1070
     3
1000
923261
1002
}
  0
LINE
  5
1F1
330
1D2
100
AcDbEntity
  8
M-PIPE
100
AcDbLine
 10
1094.943751722278
 20
2020.872558850009
 30
0.0
 11
1092.29970396529
 21
2020.872558850009
 31
0.0
1001
REVIT
1002
{
1070
     3
1000
923261
1002
}
  0
LINE
  5
1F2
330
1D2
100
AcDbEntity
  8
M-PIPE
100
AcDbLine
 10
1091.831625671356
 20
2020.872558850009
 30
0.0
 11
1090.864353943115
 21
2020.872558850009
 31
0.0
1001
REVIT
1002
{
1070
     3
1000
923261
1002
}
  0
LINE
  5
1F3
330
1D2
100
AcDbEntity
  8
M-PIPE
100
AcDbLine
 10
1090.860551363756
 20
2020.872558850009
 30
0.0
 11
1089.48273341641
 21
2020.872558850009
 31
0.0
1001
REVIT
1002
{
1070
     3
1000
923261
1002
}
  0
LINE
  5
1F4
330
1D2
100
AcDbEntity
  8
M-PIPE
100
AcDbLine
 10
1089.079508822033
 20
2020.872558850009
 30
0.0
 11
1088.275519178283
 21
2020.872558850009
 31
0.0
1001
REVIT
1002
{
1070
     3
1000
923261
1002
}
  0
LINE
  5
1F5
330
1D2
100
AcDbEntity
  8
M-PIPE
100
AcDbLine
 10
1088.274617462955
 20
2020.872558850009
 30
0.0
 11
1087.538798404127
 21
2020.872558850009
 31
0.0
1001
REVIT
1002
{
1070
     3
1000
923261
1002
}
  0
LINE
  5
1F6
330
1D2
100
AcDbEntity
  8
M-PIPE
100
AcDbLine
 10
1087.196669881285
 20
2020.872558850009
 30
0.0
 11
1086.289552786999
 21
2020.872558850009
 31
0.0
1001
REVIT
1002
{
1070
     3
1000
923261
1002
}
  0
LINE
  5
1F7
330
1D2
100
AcDbEntity
  8
M-PIPE
100
AcDbLine
 10
1086.289036395809
 20
2020.872558850009
 30
0.0
 11
1085.639645493245
 21
2020.872558850009
 31
0.0
1001
REVIT
1002
{
1070
     3
1000
923261
1002
}
  0
LINE
  5
1F8
330
1D2
100
AcDbEntity
  8
M-PIPE
100
AcDbLine
 10
1085.559904778119
 20
2020.872558850009
 30
0.0
 11
1085.040732582996
 21
2020.872558850009
 31
0.0
1001
REVIT
1002
{
1070
     3
1000
923261
1002
}
  0
LINE
  5
1F9
330
1D2
100
AcDbEntity
  8
M-PIPE
100
AcDbLine
 10
1085.040281114501
 20
2020.872558850009
 30
0.0
 11
1084.747312212432
 21
2020.872558850009
 31
0.0
1001
REVIT
1002
{
1070
     3
1000
923261
1002
}
  0
LINE
  5
1FA
330
1D2
100
AcDbEntity
  8
M-PIPE
100
AcDbLine
 10
1084.698219564562
 20
2020.872558850009
 30
0.0
 11
1084.614353943115
 21
2020.872558850009
 31
0.0
1001
REVIT
1002
{
1070
     3
1000
923261
1002
}
  0
LINE
  5
1FB
330
1D2
100
AcDbEntity
  8
M-PIPE
100
AcDbLine
 10
1109.614353943115
 20
2020.872558850009
 30
0.0
 11
1109.530488254414
 21
2020.872558850009
 31
0.0
1001
REVIT
1002
{
1070
     3
1000
923261
1002
}
  0
LINE
  5
1FC
330
1D2
100
AcDbEntity
  8
M-PIPE
100
AcDbLine
 10
1109.481395524206
 20
2020.872558850009
 30
0.0
 11
1109.188426771728
 21
2020.872558850009
 31
0.0
1001
REVIT
1002
{
1070
     3
1000
923261
1002
}
  0
LINE
  5
1FD
330
1D2
100
AcDbEntity
  8
M-PIPE
100
AcDbLine
 10
1109.187972827106
 20
2020.872558850009
 30
0.0
 11
1108.668786375559
 21
2020.872558850009
 31
0.0
1001
REVIT
1002
{
1070
     3
1000
923261
1002
}
  0
LINE
  5
1FE
330
1D2
100
AcDbEntity
  8
M-PIPE
100
AcDbLine
 10
1108.589058266864
 20
2020.872558850009
 30
0.0
 11
1107.031959451577
 21
2020.872558850009
 31
0.0
1001
REVIT
1002
{
1070
     3
1000
923261
1002
}
  0
LINE
  5
1FF
330
1D2
100
AcDbEntity
  8
M-PIPE
100
AcDbLine
 10
1106.689909482102
 20
2020.872558850009
 30
0.0
 11
1105.954002453055
 21
2020.872558850009
 31
0.0
1001
REVIT
1002
{
1070
     3
1000
923261
1002
}
  0
LINE
  5
200
330
1D2
100
AcDbEntity
  8
M-PIPE
100
AcDbLine
 10
1105.953188707946
 20
2020.872558850009
 30
0.0
 11
1105.149199064196
 21
2020.872558850009
 31
0.0
1001
REVIT
1002
{
1070
     3
1000
923261
1002
}
  0
LINE
  5
201
330
1D2
100
AcDbEntity
  8
M-PIPE
100
AcDbLine
 10
1104.745898619461
 20
2020.872558850009
 30
0.0
 11
1103.368086288177
 21
2020.872558850009
 31
0.0
1001
REVIT
1002
{
1070
     3
1000
923261
1002
}
  0
LINE
  5
202
330
1D2
100
AcDbEntity
  8
M-PIPE
100
AcDbLine
 10
1103.364353943115
 20
2020.872558850009
 30
0.0
 11
1102.397082214873
 21
2020.872558850009
 31
0.0
1001
REVIT
1002
{
1070
     3
1000
923261
1002
}
  0
LINE
  5
203
330
1D2
100
AcDbEntity
  8
M-PIPE
100
AcDbLine
 10
1101.928919618899
 20
2020.872558850009
 30
0.0
 11
1100.353868334107
 21
2020.872558850009
 31
0.0
1001
REVIT
1002
{
1070
     3
1000
923261
1002
}
  0
LINE
  5
204
330
1D2
100
AcDbEntity
  8
M-PIPE
100
AcDbLine
 10
1100.349592006896
 20
2020.872558850009
 30
0.0
 11
1097.114353943115
 21
2020.872558850009
 31
0.0
1001
REVIT
1002
{
1070
     3
1000
923261
1002
}
  0
LINE
  5
205
330
1D2
100
AcDbEntity
  8
M-PIPE
100
AcDbLine
 10
1098.20380072746
 20
2037.772558850072
 30
0.0
 11
1097.114353943115
 21
2037.772558850072
 31
0.0
1001
REVIT
1002
{
1070
     3
1000
923261
1002
}
  0
LINE
  5
206
330
1D2
100
AcDbEntity
  8
M-PIPE
100
AcDbLine
 10
1097.114353943115
 20
2037.772558850072
 30
0.0
 11
1096.024907158769
 21
2037.772558850072
 31
0.0
1001
REVIT
1002
{
1070
     3
1000
923261
1002
}
  0
LINE
  5
207
330
1D2
100
AcDbEntity
  8
M-PIPE
100
AcDbLine
 10
1130.114353943098
 20
2057.772558850071
 30
0.0
 11
1130.114353943098
 21
2037.772558850071
 31
0.0
1001
REVIT
1002
{
1070
     3
1000
923261
1002
}
  0
LINE
  5
208
330
1D2
100
AcDbEntity
  8
M-PIPE
100
AcDbLine
 10
1130.114353943098
 20
2057.982558850071
 30
0.0
 11
1130.114353943098
 21
2057.772558850071
 31
0.0
1001
REVIT
1002
{
1070
     3
1000
923261
1002
}
  0
LINE
  5
209
330
1D2
100
AcDbEntity
  8
M-PIPE
100
AcDbLine
 10
1130.114353943099
 20
2097.982558850072
 30
0.0
 11
1130.114353943098
 21
2068.094887479057
 31
0.0
1001
REVIT
1002
{
1070
     3
1000
923261
1002
}
  0
LINE
  5
20A
330
1D2
100
AcDbEntity
  8
M-PIPE
100
AcDbLine
 10
1064.114353943098
 20
2068.094887479058
 30
0.0
 11
1064.114353943099
 21
2097.982558850072
 31
0.0
1001
REVIT
1002
{
1070
     3
1000
923261
1002
}
  0
LINE
  5
20B
330
1D2
100
AcDbEntity
  8
M-PIPE
100
AcDbLine
 10
1064.114353943098
 20
2037.772558850072
 30
0.0
 11
1064.114353943098
 21
2057.772558850072
 31
0.0
1001
REVIT
1002
{
1070
     3
1000
923261
1002
}
  0
LINE
  5
20C
330
1D2
100
AcDbEntity
  8
M-PIPE
100
AcDbLine
 10
1064.114353943098
 20
2057.772558850073
 30
0.0
 11
1064.114353943098
 21
2057.982558850071
 31
0.0
1001
REVIT
1002
{
1070
     3
1000
923261
1002
}
  0
LINE
  5
20D
330
1D2
100
AcDbEntity
  8
M-PIPE
100
AcDbLine
 10
1131.114353943098
 20
2068.094887479057
 30
0.0
 11
1130.114353943098
 21
2068.094887479057
 31
0.0
1001
REVIT
1002
{
1070
     3
1000
923261
1002
}
  0
LINE
  5
20E
330
1D2
100
AcDbEntity
  8
M-PIPE
100
AcDbLine
 10
1064.114353943099
 20
2097.982558850072
 30
0.0
 11
1130.114353943099
 21
2097.982558850072
 31
0.0
1001
REVIT
1002
{
1070
     3
1000
923261
1002
}
  0
LINE
  5
20F
330
1D2
100
AcDbEntity
  8
M-PIPE
100
AcDbLine
 10
1064.114353943098
 20
2068.094887479058
 30
0.0
 11
1063.114353943098
 21
2068.094887479058
 31
0.0
1001
REVIT
1002
{
1070
     3
1000
923261
1002
}
  0
LINE
  5
210
330
1D2
100
AcDbEntity
  8
M-PIPE
100
AcDbLine
 10
1110.1143539431
 20
2029.772558850071
 30
0.0
 11
1109.61325144815
 21
2029.772558850071
 31
0.0
1001
REVIT
1002
{
1070
     3
1000
923261
1002
}
  0
LINE
  5
211
330
1D2
100
AcDbEntity
  8
M-PIPE
100
AcDbLine
 10
1118.1143539431
 20
2029.772558850071
 30
0.0
 11
1110.1143539431
 21
2029.772558850071
 31
0.0
1001
REVIT
1002
{
1070
     3
1000
923261
1002
}
  0
LINE
  5
212
330
1D2
100
AcDbEntity
  8
M-PIPE
100
AcDbLine
 10
1131.114353943098
 20
2057.982558850071
 30
0.0
 11
1131.114353943098
 21
2068.094887479057
 31
0.0
1001
REVIT
1002
{
1070
     3
1000
923261
1002
}
  0
LINE
  5
213
330
1D2
100
AcDbEntity
  8
M-PIPE
100
AcDbLine
 10
1131.114353943098
 20
2057.982558850071
 30
0.0
 11
1131.114353943098
 21
2057.958477585899
 31
0.0
1001
REVIT
1002
{
1070
     3
1000
923261
1002
}
  0
LINE
  5
214
330
1D2
100
AcDbEntity
  8
M-PIPE
100
AcDbLine
 10
1131.1143539431
 20
2085.982558850071
 30
0.0
 11
1131.114353943099
 21
2079.794510909428
 31
0.0
1001
REVIT
1002
{
1070
     3
1000
923261
1002
}
  0
LINE
  5
215
330
1D2
100
AcDbEntity
  8
M-PIPE
100
AcDbLine
 10
1131.114353943099
 20
2079.794510909428
 30
0.0
 11
1131.114353943099
 21
2068.082868349391
 31
0.0
1001
REVIT
1002
{
1070
     3
1000
923261
1002
}
  0
LINE
  5
216
330
1D2
100
AcDbEntity
  8
M-PIPE
100
AcDbLine
 10
1063.114353943098
 20
2068.082868349391
 30
0.0
 11
1063.114353943099
 21
2079.794510909429
 31
0.0
1001
REVIT
1002
{
1070
     3
1000
923261
1002
}
  0
LINE
  5
217
330
1D2
100
AcDbEntity
  8
M-PIPE
100
AcDbLine
 10
1063.114353943099
 20
2079.794510909429
 30
0.0
 11
1063.1143539431
 21
2085.982558850071
 31
0.0
1001
REVIT
1002
{
1070
     3
1000
923261
1002
}
  0
LINE
  5
218
330
1D2
100
AcDbEntity
  8
M-PIPE
100
AcDbLine
 10
1063.114353943098
 20
2057.9584775859
 30
0.0
 11
1063.114353943098
 21
2057.982558850071
 31
0.0
1001
REVIT
1002
{
1070
     3
1000
923261
1002
}
  0
LINE
  5
219
330
1D2
100
AcDbEntity
  8
M-PIPE
100
AcDbLine
 10
1063.114353943098
 20
2068.094887479058
 30
0.0
 11
1063.114353943098
 21
2057.982558850071
 31
0.0
1001
REVIT
1002
{
1070
     3
1000
923261
1002
}
  0
LINE
  5
21A
330
1D2
100
AcDbEntity
  8
M-PIPE
100
AcDbLine
 10
1130.114353943098
 20
2057.982558850071
 30
0.0
 11
1131.114353943098
 21
2057.982558850071
 31
0.0
1001
REVIT
1002
{
1070
     3
1000
923261
1002
}
  0
LINE
  5
21B
330
1D2
100
AcDbEntity
  8
M-PIPE
100
AcDbLine
 10
1063.114353943098
 20
2057.982558850071
 30
0.0
 11
1064.114353943098
 21
2057.982558850071
 31
0.0
1001
REVIT
1002
{
1070
     3
1000
923261
1002
}
  0
LINE
  5
21C
330
1D2
100
AcDbEntity
  8
M-PIPE
100
AcDbLine
 10
1130.1143539431
 20
2085.982558850071
 30
0.0
 11
1131.1143539431
 21
2085.982558850071
 31
0.0
1001
REVIT
1002
{
1070
     3
1000
923261
1002
}
  0
LINE
  5
21D
330
1D2
100
AcDbEntity
  8
M-PIPE
100
AcDbLine
 10
1063.1143539431
 20
2085.982558850071
 30
0.0
 11
1064.114353943099
 21
2085.982558850071
 31
0.0
1001
REVIT
1002
{
1070
     3
1000
923261
1002
}
  0
LINE
  5
21E
330
1D2
100
AcDbEntity
  8
M-PIPE
100
AcDbLine
 10
1130.114353943099
 20
2079.794510909428
 30
0.0
 11
1131.114353943099
 21
2079.794510909428
 31
0.0
1001
REVIT
1002
{
1070
     3
1000
923261
1002
}
  0
LINE
  5
21F
330
1D2
100
AcDbEntity
  8
M-PIPE
100
AcDbLine
 10
1063.114353943099
 20
2079.794510909429
 30
0.0
 11
1064.114353943099
 21
2079.794510909429
 31
0.0
1001
REVIT
1002
{
1070
     3
1000
923261
1002
}
  0
LINE
  5
220
330
1D2
100
AcDbEntity
  8
M-PIPE
100
AcDbLine
 10
1118.1143539431
 20
2107.982558850009
 30
0.0
 11
1114.085875228723
 21
2107.982558850009
 31
0.0
1001
REVIT
1002
{
1070
     3
1000
923261
1002
}
  0
LINE
  5
221
330
1D2
100
AcDbEntity
  8
M-PIPE
100
AcDbLine
 10
1097.114353943115
 20
2099.982558850072
 30
0.0
 11
1109.114353943115
 21
2099.982558850072
 31
0.0
1001
REVIT
1002
{
1070
     3
1000
923261
1002
}
  0
LINE
  5
222
330
1D2
100
AcDbEntity
  8
M-PIPE
100
AcDbLine
 10
1085.114353943115
 20
2099.982558850072
 30
0.0
 11
1097.114353943115
 21
2099.982558850072
 31
0.0
1001
REVIT
1002
{
1070
     3
1000
923261
1002
}
  0
ARC
  5
223
330
1D2
100
AcDbEntity
  8
M-PIPE
100
AcDbCircle
 10
1097.114353943037
 20
1999.982558849966
 30
0.0
 40
11.95000000003092
100
AcDbArc
 50
0.0000000000016348
 51
180.0000000000016
1001
REVIT
1002
{
1070
     3
1000
790271
1002
}
  0
ARC
  5
224
330
1D2
100
AcDbEntity
  8
M-PIPE
100
AcDbCircle
 10
1097.114353943037
 20
1999.982558849966
 30
0.0
 40
11.95000000003119
100
AcDbArc
 50
180.0000000000007
 51
0.0000000000010902
1001
REVIT
1002
{
1070
     3
1000
790271
1002
}
  0
ARC
  5
225
330
1D2
100
AcDbEntity
  8
M-PIPE
100
AcDbCircle
 10
1097.114353943037
 20
1999.982558849966
 30
0.0
 40
13.25000000003104
100
AcDbArc
 50
0.0000000000024554
 51
180.0000000000015
1001
REVIT
1002
{
1070
     3
1000
790271
1002
}
  0
ARC
  5
226
330
1D2
100
AcDbEntity
  8
M-PIPE
100
AcDbCircle
 10
1097.114353943037
 20
1999.982558849966
 30
0.0
 40
13.2500000000312
100
AcDbArc
 50
180.0000000000005
 51
0.0000000000014758
1001
REVIT
1002
{
1070
     3
1000
790271
1002
}
  0
ARC
  5
227
330
1D2
100
AcDbEntity
  8
M-PIPE
100
AcDbCircle
 10
1097.114353943097
 20
1999.982558850011
 30
0.0
 40
16.16580753732671
100
AcDbArc
 50
270.0000000000008
 51
89.99999999999959
1001
REVIT
1002
{
1070
     3
1000
790271
1002
}
  0
ARC
  5
228
330
1D2
100
AcDbEntity
  8
M-PIPE
100
AcDbCircle
 10
1097.114353943097
 20
1999.982558850011
 30
0.0
 40
16.16580753732671
100
AcDbArc
 50
90.00000000000119
 51
270.0000000000017
1001
REVIT
1002
{
1070
     3
1000
790271
1002
}
  0
ARC
  5
229
330
1D2
100
AcDbEntity
  8
M-PIPE
100
AcDbCircle
 10
1097.114353943097
 20
1999.982558850011
 30
0.0
 40
18.49999999999983
100
AcDbArc
 50
60.00000000000086
 51
60.16720195586412
1001
REVIT
1002
{
1070
     3
1000
790271
1002
}
  0
ARC
  5
22A
330
1D2
100
AcDbEntity
  8
M-PIPE
100
AcDbCircle
 10
1097.114353943097
 20
1999.982558850011
 30
0.0
 40
18.50000000000008
100
AcDbArc
 50
0.0000000000007042
 51
0.171416725448307
1001
REVIT
1002
{
1070
     3
1000
790271
1002
}
  0
ARC
  5
22B
330
1D2
100
AcDbEntity
  8
M-PIPE
100
AcDbCircle
 10
1097.114353943097
 20
1999.982558850011
 30
0.0
 40
18.50000000000003
100
AcDbArc
 50
300.0000000000012
 51
300.1758494787182
1001
REVIT
1002
{
1070
     3
1000
790271
1002
}
  0
ARC
  5
22C
330
1D2
100
AcDbEntity
  8
M-PIPE
100
AcDbCircle
 10
1097.114353943097
 20
1999.982558850011
 30
0.0
 40
18.50000000000013
100
AcDbArc
 50
240.0000000000015
 51
240.1672019557758
1001
REVIT
1002
{
1070
     3
1000
790271
1002
}
  0
ARC
  5
22D
330
1D2
100
AcDbEntity
  8
M-PIPE
100
AcDbCircle
 10
1097.114353943097
 20
1999.982558850011
 30
0.0
 40
18.49999999999998
100
AcDbArc
 50
180.000000000001
 51
180.171416725343
1001
REVIT
1002
{
1070
     3
1000
790271
1002
}
  0
ARC
  5
22E
330
1D2
100
AcDbEntity
  8
M-PIPE
100
AcDbCircle
 10
1097.114353943097
 20
1999.982558850011
 30
0.0
 40
18.50000000000009
100
AcDbArc
 50
120.0000000000015
 51
120.1758494788109
1001
REVIT
1002
{
1070
     3
1000
790271
1002
}
  0
SPLINE
  5
22F
330
1D2
100
AcDbEntity
  8
M-PIPE
100
AcDbSpline
210
0.0
220
0.0
230
1.0
 70
    24
 71
     3
 72
     9
 73
     5
 74
     0
 42
0.000000001
 43
0.0000000001
 40
0.0
 40
0.0
 40
0.0
 40
0.0
 40
0.5
 40
1.0
 40
1.0
 40
1.0
 40
1.0
 10
1112.364353943085
 20
1987.425190495154
 30
0.0
 10
1110.396268608773
 20
1986.288915897601
 30
0.0
 10
1106.428183274461
 20
1983.997940761668
 30
0.0
 10
1102.396268608773
 20
1981.670113744083
 30
0.0
 10
1100.364353943085
 20
1980.496987264878
 30
0.0
1001
REVIT
1002
{
1070
     3
1000
790271
1002
}
  0
SPLINE
  5
230
330
1D2
100
AcDbEntity
  8
M-PIPE
100
AcDbSpline
210
0.0
220
0.0
230
1.0
 70
    24
 71
     3
 72
     9
 73
     5
 74
     0
 42
0.000000001
 43
0.0000000001
 40
0.0
 40
0.0
 40
0.0
 40
0.0
 40
0.5
 40
1.0
 40
1.0
 40
1.0
 40
1.0
 10
1115.614353943084
 20
2006.910762080304
 30
0.0
 10
1115.614353943084
 20
2004.638212885198
 30
0.0
 10
1115.614353943085
 20
2000.056262613333
 30
0.0
 10
1115.614353943085
 20
1995.400608578163
 30
0.0
 10
1115.614353943085
 20
1993.054355619753
 30
0.0
1001
REVIT
1002
{
1070
     3
1000
790271
1002
}
  0
SPLINE
  5
231
330
1D2
100
AcDbEntity
  8
M-PIPE
100
AcDbSpline
210
0.0
220
0.0
230
1.0
 70
    24
 71
     3
 72
     9
 73
     5
 74
     0
 42
0.000000001
 43
0.0000000001
 40
0.0
 40
0.0
 40
0.0
 40
0.0
 40
0.5
 40
1.0
 40
1.0
 40
1.0
 40
1.0
 10
1100.364353943084
 20
2019.468130435178
 30
0.0
 10
1102.332439277396
 20
2018.331855837625
 30
0.0
 10
1106.300524611708
 20
2016.040880701692
 30
0.0
 10
1110.332439277396
 20
2013.713053684108
 30
0.0
 10
1112.364353943084
 20
2012.539927204903
 30
0.0
1001
REVIT
1002
{
1070
     3
1000
790271
1002
}
  0
SPLINE
  5
232
330
1D2
100
AcDbEntity
  8
M-PIPE
100
AcDbSpline
210
0.0
220
0.0
230
1.0
 70
    24
 71
     3
 72
     9
 73
     5
 74
     0
 42
0.000000001
 43
0.0000000001
 40
0.0
 40
0.0
 40
0.0
 40
0.0
 40
0.5
 40
1.0
 40
1.0
 40
1.0
 40
1.0
 10
1081.864353943084
 20
2012.539927204902
 30
0.0
 10
1083.832439277396
 20
2013.676201802455
 30
0.0
 10
1087.800524611708
 20
2015.967176938388
 30
0.0
 10
1091.832439277396
 20
2018.295003955973
 30
0.0
 10
1093.864353943084
 20
2019.468130435178
 30
0.0
1001
REVIT
1002
{
1070
     3
1000
790271
1002
}
  0
SPLINE
  5
233
330
1D2
100
AcDbEntity
  8
M-PIPE
100
AcDbSpline
210
0.0
220
0.0
230
1.0
 70
    24
 71
     3
 72
     9
 73
     5
 74
     0
 42
0.000000001
 43
0.0000000001
 40
0.0
 40
0.0
 40
0.0
 40
0.0
 40
0.5
 40
1.0
 40
1.0
 40
1.0
 40
1.0
 10
1078.614353943085
 20
1993.054355619752
 30
0.0
 10
1078.614353943085
 20
1995.326904814859
 30
0.0
 10
1078.614353943085
 20
1999.908855086724
 30
0.0
 10
1078.614353943084
 20
2004.564509121893
 30
0.0
 10
1078.614353943084
 20
2006.910762080304
 30
0.0
1001
REVIT
1002
{
1070
     3
1000
790271
1002
}
  0
SPLINE
  5
234
330
1D2
100
AcDbEntity
  8
M-PIPE
100
AcDbSpline
210
0.0
220
0.0
230
1.0
 70
    24
 71
     3
 72
     9
 73
     5
 74
     0
 42
0.000000001
 43
0.0000000001
 40
0.0
 40
0.0
 40
0.0
 40
0.0
 40
0.5
 40
1.0
 40
1.0
 40
1.0
 40
1.0
 10
1093.864353943085
 20
1980.496987264878
 30
0.0
 10
1091.896268608773
 20
1981.633261862431
 30
0.0
 10
1087.928183274461
 20
1983.924236998364
 30
0.0
 10
1083.896268608772
 20
1986.252064015948
 30
0.0
 10
1081.864353943085
 20
1987.425190495153
 30
0.0
1001
REVIT
1002
{
1070
     3
1000
790271
1002
}
  0
SPLINE
  5
235
330
1D2
100
AcDbEntity
  8
M-PIPE
100
AcDbSpline
210
0.0
220
0.0
230
1.0
 70
     8
 71
     3
 72
     9
 73
     5
 74
     0
 42
0.000000001
 43
0.0000000001
 40
-1.0
 40
-1.0
 40
-1.0
 40
-1.0
 40
-0.5
 40
0.0
 40
0.0
 40
0.0
 40
0.0
 10
1097.114353943097
 20
1979.626152389477
 30
0.0
 10
1097.687970313432
 20
1979.626152389478
 30
0.0
 10
1098.82854430385
 20
1979.778881932139
 30
0.0
 10
1099.878645636198
 20
1980.216563443149
 30
0.0
 10
1100.364353943085
 20
1980.496987264878
 30
0.0
1001
REVIT
1002
{
1070
     3
1000
790271
1002
}
  0
SPLINE
  5
236
330
1D2
100
AcDbEntity
  8
M-PIPE
100
AcDbSpline
210
0.0
220
0.0
230
1.0
 70
     8
 71
     3
 72
     9
 73
     5
 74
     0
 42
0.000000001
 43
0.0000000001
 40
-1.0
 40
-1.0
 40
-1.0
 40
-1.0
 40
-0.5
 40
0.0
 40
0.0
 40
0.0
 40
0.0
 10
1093.864353943085
 20
1980.496987264878
 30
0.0
 10
1094.350062249976
 20
1980.216563443147
 30
0.0
 10
1095.400163582332
 20
1979.778881932134
 30
0.0
 10
1096.540737572759
 20
1979.626152389476
 30
0.0
 10
1097.114353943097
 20
1979.626152389477
 30
0.0
1001
REVIT
1002
{
1070
     3
1000
790271
1002
}
  0
SPLINE
  5
237
330
1D2
100
AcDbEntity
  8
M-PIPE
100
AcDbSpline
210
0.0
220
0.0
230
1.0
 70
     8
 71
     3
 72
    10
 73
     6
 74
     0
 42
0.000000001
 43
0.0000000001
 40
-1.0
 40
-1.0
 40
-1.0
 40
-1.0
 40
-0.7
 40
-0.4
 40
0.0
 40
0.0
 40
0.0
 40
0.0
 10
1112.364353943085
 20
1987.425190495154
 30
0.0
 10
1112.945639141976
 20
1987.76079566121
 30
0.0
 10
1114.01581046534
 20
1988.620931263364
 30
0.0
 10
1115.2827871396
 20
1990.567078004449
 30
0.0
 10
1115.614353943085
 20
1992.1575579769
 30
0.0
 10
1115.614353943085
 20
1993.054355619753
 30
0.0
1001
REVIT
1002
{
1070
     3
1000
790271
1002
}
  0
SPLINE
  5
238
330
1D2
100
AcDbEntity
  8
M-PIPE
100
AcDbSpline
210
0.0
220
0.0
230
1.0
 70
     8
 71
     3
 72
    10
 73
     6
 74
     0
 42
0.000000001
 43
0.0000000001
 40
-1.0
 40
-1.0
 40
-1.0
 40
-1.0
 40
-0.7
 40
-0.4
 40
0.0
 40
0.0
 40
0.0
 40
0.0
 10
1115.614353943084
 20
2006.910762080304
 30
0.0
 10
1115.614353943084
 20
2007.581972412416
 30
0.0
 10
1115.404540322601
 20
2008.938835765928
 30
0.0
 10
1114.352616142459
 20
2011.009143122382
 30
0.0
 10
1113.141003483849
 20
2012.091528383476
 30
0.0
 10
1112.364353943084
 20
2012.539927204903
 30
0.0
1001
REVIT
1002
{
1070
     3
1000
790271
1002
}
  0
SPLINE
  5
239
330
1D2
100
AcDbEntity
  8
M-PIPE
100
AcDbSpline
210
0.0
220
0.0
230
1.0
 70
     8
 71
     3
 72
     9
 73
     5
 74
     0
 42
0.000000001
 43
0.0000000001
 40
-1.0
 40
-1.0
 40
-1.0
 40
-1.0
 40
-0.5
 40
0.0
 40
0.0
 40
0.0
 40
0.0
 10
1097.114353943096
 20
2020.338965310579
 30
0.0
 10
1096.540737572758
 20
2020.33896531058
 30
0.0
 10
1095.400163582331
 20
2020.186235767922
 30
0.0
 10
1094.350062249975
 20
2019.748554256909
 30
0.0
 10
1093.864353943084
 20
2019.468130435178
 30
0.0
1001
REVIT
1002
{
1070
     3
1000
790271
1002
}
  0
SPLINE
  5
23A
330
1D2
100
AcDbEntity
  8
M-PIPE
100
AcDbSpline
210
0.0
220
0.0
230
1.0
 70
     8
 71
     3
 72
     9
 73
     5
 74
     0
 42
0.000000001
 43
0.0000000001
 40
-1.0
 40
-1.0
 40
-1.0
 40
-1.0
 40
-0.5
 40
0.0
 40
0.0
 40
0.0
 40
0.0
 10
1100.364353943084
 20
2019.468130435178
 30
0.0
 10
1099.878645636197
 20
2019.748554256907
 30
0.0
 10
1098.828544303849
 20
2020.186235767917
 30
0.0
 10
1097.687970313431
 20
2020.338965310578
 30
0.0
 10
1097.114353943096
 20
2020.338965310579
 30
0.0
1001
REVIT
1002
{
1070
     3
1000
790271
1002
}
  0
SPLINE
  5
23B
330
1D2
100
AcDbEntity
  8
M-PIPE
100
AcDbSpline
210
0.0
220
0.0
230
1.0
 70
     8
 71
     3
 72
    10
 73
     6
 74
     0
 42
0.000000001
 43
0.0000000001
 40
-1.0
 40
-1.0
 40
-1.0
 40
-1.0
 40
-0.7
 40
-0.4
 40
0.0
 40
0.0
 40
0.0
 40
0.0
 10
1081.864353943084
 20
2012.539927204902
 30
0.0
 10
1081.283068744193
 20
2012.204322038846
 30
0.0
 10
1080.212897420828
 20
2011.344186436692
 30
0.0
 10
1078.945920746569
 20
2009.398039695607
 30
0.0
 10
1078.614353943084
 20
2007.807559723156
 30
0.0
 10
1078.614353943084
 20
2006.910762080304
 30
0.0
1001
REVIT
1002
{
1070
     3
1000
790271
1002
}
  0
SPLINE
  5
23C
330
1D2
100
AcDbEntity
  8
M-PIPE
100
AcDbSpline
210
0.0
220
0.0
230
1.0
 70
     8
 71
     3
 72
    10
 73
     6
 74
     0
 42
0.000000001
 43
0.0000000001
 40
-1.0
 40
-1.0
 40
-1.0
 40
-1.0
 40
-0.7
 40
-0.4
 40
0.0
 40
0.0
 40
0.0
 40
0.0
 10
1078.614353943085
 20
1993.054355619752
 30
0.0
 10
1078.614353943085
 20
1992.38314528764
 30
0.0
 10
1078.824167563568
 20
1991.026281934128
 30
0.0
 10
1079.87609174371
 20
1988.955974577674
 30
0.0
 10
1081.087704402321
 20
1987.873589316579
 30
0.0
 10
1081.864353943085
 20
1987.425190495153
 30
0.0
1001
REVIT
1002
{
1070
     3
1000
790271
1002
}
  0
SPLINE
  5
23D
330
1D2
100
AcDbEntity
  8
M-PIPE
100
AcDbSpline
210
0.0
220
0.0
230
1.0
 70
     8
 71
     3
 72
     8
 73
     4
 74
     0
 42
0.000000001
 43
0.0000000001
 40
-1.0
 40
-1.0
 40
-1.0
 40
-1.0
 40
-0.75
 40
-0.75
 40
-0.75
 40
-0.75
 10
1079.485188818458
 20
1989.804355619771
 30
0.0
 10
1079.628592911042
 20
1989.5559724454
 30
0.0
 10
1079.788114289717
 20
1989.317855698306
 30
0.0
 10
1079.961992415014
 20
1989.091773027487
 30
0.0
1001
REVIT
1002
{
1070
     3
1000
790271
1002
}
  0
SPLINE
  5
23E
330
1D2
100
AcDbEntity
  8
M-PIPE
100
AcDbSpline
210
0.0
220
0.0
230
1.0
 70
     8
 71
     3
 72
     8
 73
     4
 74
     0
 42
0.000000001
 43
0.0000000001
 40
-0.5
 40
-0.5
 40
-0.5
 40
-0.5
 40
-0.269069865521073
 40
-0.269069865521073
 40
-0.269069865521073
 40
-0.269069865521073
 10
1080.524936491295
 20
1988.451394892858
 30
0.0
 10
1080.710448283683
 20
1988.266422747062
 30
0.0
 10
1080.915469185627
 20
1988.107522221587
 30
0.0
 10
1081.126212115208
 20
1987.955837546418
 30
0.0
1001
REVIT
1002
{
1070
     3
1000
790271
1002
}
  0
SPLINE
  5
23F
330
1D2
100
AcDbEntity
  8
M-PIPE
100
AcDbSpline
210
0.0
220
0.0
230
1.0
 70
     8
 71
     3
 72
     8
 73
     4
 74
     0
 42
0.000000001
 43
0.0000000001
 40
-1.0
 40
-1.0
 40
-1.0
 40
-1.0
 40
-0.5
 40
-0.5
 40
-0.5
 40
-0.5
 10
1078.614353943062
 20
1993.054355619759
 30
0.0
 10
1078.614353943062
 20
1992.493507976302
 30
0.0
 10
1078.687357622498
 20
1991.929380383368
 30
0.0
 10
1078.833364295055
 20
1991.38128388142
 30
0.0
1001
REVIT
1002
{
1070
     3
1000
790271
1002
}
  0
SPLINE
  5
240
330
1D2
100
AcDbEntity
  8
M-PIPE
100
AcDbSpline
210
0.0
220
0.0
230
1.0
 70
     8
 71
     3
 72
     8
 73
     4
 74
     0
 42
0.000000001
 43
0.0000000001
 40
-0.25
 40
-0.25
 40
-0.25
 40
-0.25
 40
0.0
 40
0.0
 40
0.0
 40
0.0
 10
1079.106475989528
 20
1990.573570943141
 30
0.0
 10
1079.215330263163
 20
1990.309946734064
 30
0.0
 10
1079.341784725875
 20
1990.052738794139
 30
0.0
 10
1079.485188818458
 20
1989.804355619771
 30
0.0
1001
REVIT
1002
{
1070
     3
1000
790271
1002
}
  0
SPLINE
  5
241
330
1D2
100
AcDbEntity
  8
M-PIPE
100
AcDbSpline
210
0.0
220
0.0
230
1.0
 70
     8
 71
     3
 72
     8
 73
     4
 74
     0
 42
0.000000001
 43
0.0000000001
 40
-1.0
 40
-1.0
 40
-1.0
 40
-1.0
 40
-0.75
 40
-0.75
 40
-0.75
 40
-0.75
 10
1114.743519067648
 20
2010.160762080336
 30
0.0
 10
1114.600114975063
 20
2010.409145254704
 30
0.0
 10
1114.440593596388
 20
2010.647262001796
 30
0.0
 10
1114.266715471093
 20
2010.873344672613
 30
0.0
1001
REVIT
1002
{
1070
     3
1000
790271
1002
}
  0
SPLINE
  5
242
330
1D2
100
AcDbEntity
  8
M-PIPE
100
AcDbSpline
210
0.0
220
0.0
230
1.0
 70
     8
 71
     3
 72
     8
 73
     4
 74
     0
 42
0.000000001
 43
0.0000000001
 40
-0.5
 40
-0.5
 40
-0.5
 40
-0.5
 40
0.0
 40
0.0
 40
0.0
 40
0.0
 10
1113.703771394813
 20
2011.513722807236
 30
0.0
 10
1113.302109236679
 20
2011.914216545767
 30
0.0
 10
1112.850062249941
 20
2012.259503383194
 30
0.0
 10
1112.364353943054
 20
2012.539927204923
 30
0.0
1001
REVIT
1002
{
1070
     3
1000
790271
1002
}
  0
SPLINE
  5
243
330
1D2
100
AcDbEntity
  8
M-PIPE
100
AcDbSpline
210
0.0
220
0.0
230
1.0
 70
     8
 71
     3
 72
     8
 73
     4
 74
     0
 42
0.000000001
 43
0.0000000001
 40
-1.0
 40
-1.0
 40
-1.0
 40
-1.0
 40
-0.5
 40
-0.5
 40
-0.5
 40
-0.5
 10
1115.614353943056
 20
2006.910762080326
 30
0.0
 10
1115.614353943056
 20
2007.471609723788
 30
0.0
 10
1115.541350263618
 20
2008.035737316725
 30
0.0
 10
1115.395343591059
 20
2008.583833818677
 30
0.0
1001
REVIT
1002
{
1070
     3
1000
790271
1002
}
  0
SPLINE
  5
244
330
1D2
100
AcDbEntity
  8
M-PIPE
100
AcDbSpline
210
0.0
220
0.0
230
1.0
 70
     8
 71
     3
 72
     8
 73
     4
 74
     0
 42
0.000000001
 43
0.0000000001
 40
-0.25
 40
-0.25
 40
-0.25
 40
-0.25
 40
0.0
 40
0.0
 40
0.0
 40
0.0
 10
1115.122231896582
 20
2009.391546756962
 30
0.0
 10
1115.013377622946
 20
2009.65517096604
 30
0.0
 10
1114.886923160232
 20
2009.912378905966
 30
0.0
 10
1114.743519067648
 20
2010.160762080336
 30
0.0
1001
REVIT
1002
{
1070
     3
1000
790271
1002
}
  0
LINE
  5
245
330
1D2
100
AcDbEntity
  8
P-SANR-FIXT
100
AcDbLine
 10
1113.114353943099
 20
1967.982558850011
 30
0.0
 11
1113.114353943099
 21
1987.969135164338
 31
0.0
  0
LINE
  5
246
330
1D2
100
AcDbEntity
  8
P-SANR-FIXT
100
AcDbLine
 10
1081.114353943099
 20
1987.969293770439
 30
0.0
 11
1081.114353943099
 21
1967.982558850011
 31
0.0
  0
LINE
  5
247
330
1D2
100
AcDbEntity
  8
P-SANR-FIXT
100
AcDbLine
 10
1109.614353943099
 20
2014.62197482197
 30
0.0
 11
1109.614353943099
 21
2020.87255885001
 31
0.0
  0
LINE
  5
248
330
1D2
100
AcDbEntity
  8
P-SANR-FIXT
100
AcDbLine
 10
1084.614353943099
 20
2020.87255885001
 30
0.0
 11
1084.614353943099
 21
2014.62197482197
 31
0.0
  0
SPLINE
  5
249
330
1D2
100
AcDbEntity
  8
P-SANR-FIXT
100
AcDbSpline
210
0.0
220
0.0
230
1.0
 70
     8
 71
     3
 72
     8
 73
     4
 74
     0
 42
0.000000001
 43
0.0000000001
 40
0.1666666666666666
 40
0.1666666666666666
 40
0.1666666666666666
 40
0.1666666666666666
 40
0.1944444444444444
 40
0.1944444444444444
 40
0.1944444444444444
 40
0.1944444444444444
 10
1083.267519259771
 20
1986.60991254299
 30
0.0
 10
1083.494478460097
 20
1986.374952635631
 30
0.0
 10
1083.739078689845
 20
1986.133915543748
 30
0.0
 10
1083.994785378454
 20
1985.895706090162
 30
0.0
  0
SPLINE
  5
24A
330
1D2
100
AcDbEntity
  8
P-SANR-FIXT
100
AcDbSpline
210
0.0
220
0.0
230
1.0
 70
     8
 71
     3
 72
     8
 73
     4
 74
     0
 42
0.000000001
 43
0.0000000001
 40
0.2222222222222222
 40
0.2222222222222222
 40
0.2222222222222222
 40
0.2222222222222222
 40
0.2255918700261406
 40
0.2255918700261406
 40
0.2255918700261406
 40
0.2255918700261406
 10
1084.795644119678
 20
1985.190267334278
 30
0.0
 10
1084.829408666574
 20
1985.162142536762
 30
0.0
 10
1084.863342820368
 20
1985.134069748534
 30
0.0
 10
1084.897457194646
 20
1985.106044836376
 30
0.0
  0
SPLINE
  5
24B
330
1D2
100
AcDbEntity
  8
P-SANR-FIXT
100
AcDbSpline
210
0.0
220
0.0
230
1.0
 70
     8
 71
     3
 72
     8
 73
     4
 74
     0
 42
0.000000001
 43
0.0000000001
 40
0.25
 40
0.25
 40
0.25
 40
0.25
 40
0.2777777777777778
 40
0.2777777777777778
 40
0.2777777777777778
 40
0.2777777777777778
 10
1085.67118378372
 20
1984.503012451503
 30
0.0
 10
1085.978519879802
 20
1984.275918214473
 30
0.0
 10
1086.303327409151
 20
1984.050042899148
 30
0.0
 10
1086.641985635341
 20
1983.830407227805
 30
0.0
  0
SPLINE
  5
24C
330
1D2
100
AcDbEntity
  8
P-SANR-FIXT
100
AcDbSpline
210
0.0
220
0.0
230
1.0
 70
     8
 71
     3
 72
     9
 73
     5
 74
     0
 42
0.000000001
 43
0.0000000001
 40
0.3055555555555556
 40
0.3055555555555556
 40
0.3055555555555556
 40
0.3055555555555556
 40
0.3333333333333333
 40
0.3611111111111111
 40
0.3611111111111111
 40
0.3611111111111111
 40
0.3611111111111111
 10
1087.699389178282
 20
1983.192036253864
 30
0.0
 10
1088.065625572003
 20
1982.986696978628
 30
0.0
 10
1088.825553300823
 20
1982.592131932405
 30
0.0
 10
1089.639898007801
 20
1982.237062327252
 30
0.0
 10
1090.062485174011
 20
1982.070729047793
 30
0.0
  0
SPLINE
  5
24D
330
1D2
100
AcDbEntity
  8
P-SANR-FIXT
100
AcDbSpline
210
0.0
220
0.0
230
1.0
 70
     8
 71
     3
 72
     8
 73
     4
 74
     0
 42
0.000000001
 43
0.0000000001
 40
0.3888888888888888
 40
0.3888888888888888
 40
0.3888888888888888
 40
0.3888888888888888
 40
0.3920500274761717
 40
0.3920500274761717
 40
0.3920500274761717
 40
0.3920500274761717
 10
1091.372049723109
 20
1981.608978843786
 30
0.0
 10
1091.42314356818
 20
1981.593014252882
 30
0.0
 10
1091.474379526404
 20
1981.57724193517
 30
0.0
 10
1091.525748153253
 20
1981.561665156044
 30
0.0
  0
SPLINE
  5
24E
330
1D2
100
AcDbEntity
  8
P-SANR-FIXT
100
AcDbSpline
210
0.0
220
0.0
230
1.0
 70
     8
 71
     3
 72
     8
 73
     4
 74
     0
 42
0.000000001
 43
0.0000000001
 40
0.6080464550766679
 40
0.6080464550766679
 40
0.6080464550766679
 40
0.6080464550766679
 40
0.6111111111111112
 40
0.6111111111111112
 40
0.6111111111111112
 40
0.6111111111111112
 10
1102.703603693772
 20
1981.561836692001
 30
0.0
 10
1102.753168254295
 20
1981.576874659367
 30
0.0
 10
1102.802609307434
 20
1981.59209630592
 30
0.0
 10
1102.85192352987
 20
1981.607499796038
 30
0.0
  0
SPLINE
  5
24F
330
1D2
100
AcDbEntity
  8
P-SANR-FIXT
100
AcDbSpline
210
0.0
220
0.0
230
1.0
 70
     8
 71
     3
 72
     9
 73
     5
 74
     0
 42
0.000000001
 43
0.0000000001
 40
0.6388888888888891
 40
0.6388888888888891
 40
0.6388888888888891
 40
0.6388888888888891
 40
0.6666666666666666
 40
0.6944444444444445
 40
0.6944444444444445
 40
0.6944444444444445
 40
0.6944444444444445
 10
1104.158808535275
 20
1982.068170460209
 30
0.0
 10
1104.582153552335
 20
1982.234670043059
 30
0.0
 10
1105.402413368424
 20
1982.591558027939
 30
0.0
 10
1106.158631092746
 20
1982.984244151645
 30
0.0
 10
1106.524671321593
 20
1983.189452322747
 30
0.0
  0
SPLINE
  5
250
330
1D2
100
AcDbEntity
  8
P-SANR-FIXT
100
AcDbSpline
210
0.0
220
0.0
230
1.0
 70
     8
 71
     3
 72
     8
 73
     4
 74
     0
 42
0.000000001
 43
0.0000000001
 40
0.7222222222222223
 40
0.7222222222222223
 40
0.7222222222222223
 40
0.7222222222222223
 40
0.75
 40
0.75
 40
0.75
 40
0.75
 10
1107.58387704563
 20
1983.82856287361
 30
0.0
 10
1107.92307104805
 20
1984.048392021219
 30
0.0
 10
1108.247487239437
 20
1984.273976881172
 30
0.0
 10
1108.554710680485
 20
1984.500933039995
 30
0.0
  0
SPLINE
  5
251
330
1D2
100
AcDbEntity
  8
P-SANR-FIXT
100
AcDbSpline
210
0.0
220
0.0
230
1.0
 70
     8
 71
     3
 72
     8
 73
     4
 74
     0
 42
0.000000001
 43
0.0000000001
 40
0.7744917827195215
 40
0.7744917827195215
 40
0.7744917827195215
 40
0.7744917827195215
 40
0.7777777777777778
 40
0.7777777777777778
 40
0.7777777777777778
 40
0.7777777777777778
 10
1109.331120775709
 20
1985.105943532973
 30
0.0
 10
1109.364396449016
 20
1985.13327724996
 30
0.0
 10
1109.3975011838
 20
1985.16065697471
 30
0.0
 10
1109.430444253843
 20
1985.188086251854
 30
0.0
  0
SPLINE
  5
252
330
1D2
100
AcDbEntity
  8
P-SANR-FIXT
100
AcDbSpline
210
0.0
220
0.0
230
1.0
 70
     8
 71
     3
 72
     8
 73
     4
 74
     0
 42
0.000000001
 43
0.0000000001
 40
0.8055555555555555
 40
0.8055555555555555
 40
0.8055555555555555
 40
0.8055555555555555
 40
0.8333333333333332
 40
0.8333333333333332
 40
0.8333333333333332
 40
0.8333333333333332
 10
1110.231710662013
 20
1985.893646446679
 30
0.0
 10
1110.487565036894
 20
1986.131922459261
 30
0.0
 10
1110.73235318406
 20
1986.373071016964
 30
0.0
 10
1110.95947069533
 20
1986.608133923418
 30
0.0
  0
SPLINE
  5
253
330
1D2
100
AcDbEntity
  8
P-SANR-FIXT
100
AcDbSpline
210
0.0
220
0.0
230
1.0
 70
     8
 71
     3
 72
    10
 73
     6
 74
     0
 42
0.000000001
 43
0.0000000001
 40
0.0
 40
0.0
 40
0.0
 40
0.0
 40
0.0555555555555556
 40
0.0833333333333333
 40
0.1111111111111111
 40
0.1111111111111111
 40
0.1111111111111111
 40
0.1111111111111111
 10
1109.614353943098
 20
2014.621974821969
 30
0.0
 10
1109.585450980657
 20
2014.646653882336
 30
0.0
 10
1109.468410220747
 20
2014.74714658081
 30
0.0
 10
1109.156392343289
 20
2015.002270117111
 30
0.0
 10
1108.949442003131
 20
2015.165326954337
 30
0.0
 10
1108.829568803951
 20
2015.257251670623
 30
0.0
  0
SPLINE
  5
254
330
1D2
100
AcDbEntity
  8
P-SANR-FIXT
100
AcDbSpline
210
0.0
220
0.0
230
1.0
 70
     8
 71
     3
 72
     9
 73
     5
 74
     0
 42
0.000000001
 43
0.0000000001
 40
0.1388888888888889
 40
0.1388888888888889
 40
0.1388888888888889
 40
0.1388888888888889
 40
0.1666666666666666
 40
0.1944444444444444
 40
0.1944444444444444
 40
0.1944444444444444
 40
0.1944444444444444
 10
1108.420552625034
 20
2015.56242956079
 30
0.0
 10
1108.267680873578
 20
2015.673361720711
 30
0.0
 10
1107.928736324316
 20
2015.912448332473
 30
0.0
 10
1107.536335863565
 20
2016.168999404905
 30
0.0
 10
1107.331710552768
 20
2016.297218635334
 30
0.0
  0
SPLINE
  5
255
330
1D2
100
AcDbEntity
  8
P-SANR-FIXT
100
AcDbSpline
210
0.0
220
0.0
230
1.0
 70
     8
 71
     3
 72
     8
 73
     4
 74
     0
 42
0.000000001
 43
0.0000000001
 40
0.2222222222222222
 40
0.2222222222222222
 40
0.2222222222222222
 40
0.2222222222222222
 40
0.25
 40
0.25
 40
0.25
 40
0.25
 10
1106.689207473491
 20
2016.682399563967
 30
0.0
 10
1106.464380096221
 20
2016.811198337539
 30
0.0
 10
1106.227775732922
 20
2016.94063296003
 30
0.0
 10
1105.979889753794
 20
2017.06912355807
 30
0.0
  0
SPLINE
  5
256
330
1D2
100
AcDbEntity
  8
P-SANR-FIXT
100
AcDbSpline
210
0.0
220
0.0
230
1.0
 70
     8
 71
     3
 72
     8
 73
     4
 74
     0
 42
0.000000001
 43
0.0000000001
 40
0.2777777777777779
 40
0.2777777777777779
 40
0.2777777777777779
 40
0.2777777777777779
 40
0.3055555555555556
 40
0.3055555555555556
 40
0.3055555555555556
 40
0.3055555555555556
 10
1105.20288233893
 20
2017.450183405591
 30
0.0
 10
1104.93292849831
 20
2017.575206081384
 30
0.0
 10
1104.652188412131
 20
2017.697704859323
 30
0.0
 10
1104.361157450532
 20
2017.816099866066
 30
0.0
  0
SPLINE
  5
257
330
1D2
100
AcDbEntity
  8
P-SANR-FIXT
100
AcDbSpline
210
0.0
220
0.0
230
1.0
 70
     8
 71
     3
 72
     8
 73
     4
 74
     0
 42
0.000000001
 43
0.0000000001
 40
0.3333333333333333
 40
0.3333333333333333
 40
0.3333333333333333
 40
0.3333333333333333
 40
0.3611111111111112
 40
0.3611111111111112
 40
0.3611111111111112
 40
0.3611111111111112
 10
1103.457687309617
 20
2018.157393699363
 30
0.0
 10
1103.146569967429
 20
2018.266001290318
 30
0.0
 10
1102.825657119837
 20
2018.368925236762
 30
0.0
 10
1102.496498784254
 20
2018.464764704091
 30
0.0
  0
SPLINE
  5
258
330
1D2
100
AcDbEntity
  8
P-SANR-FIXT
100
AcDbSpline
210
0.0
220
0.0
230
1.0
 70
     8
 71
     3
 72
     8
 73
     4
 74
     0
 42
0.000000001
 43
0.0000000001
 40
0.6388888888888891
 40
0.6388888888888891
 40
0.6388888888888891
 40
0.6388888888888891
 40
0.6666666666666666
 40
0.6666666666666666
 40
0.6666666666666666
 40
0.6666666666666666
 10
1091.730279125023
 20
2018.464198305762
 30
0.0
 10
1091.401355291951
 20
2018.368384172228
 30
0.0
 10
1091.080552376278
 20
2018.265460949488
 30
0.0
 10
1090.769243193567
 20
2018.156773264291
 30
0.0
  0
SPLINE
  5
259
330
1D2
100
AcDbEntity
  8
P-SANR-FIXT
100
AcDbSpline
210
0.0
220
0.0
230
1.0
 70
     8
 71
     3
 72
     8
 73
     4
 74
     0
 42
0.000000001
 43
0.0000000001
 40
0.6944444444444447
 40
0.6944444444444447
 40
0.6944444444444447
 40
0.6944444444444447
 40
0.7222222222222224
 40
0.7222222222222224
 40
0.7222222222222224
 40
0.7222222222222224
 10
1089.864499101867
 20
2017.815025580373
 30
0.0
 10
1089.572878856552
 20
2017.696417474247
 30
0.0
 10
1089.291452625053
 20
2017.573652953239
 30
0.0
 10
1089.020921797836
 20
2017.448340600187
 30
0.0
  0
SPLINE
  5
25A
330
1D2
100
AcDbEntity
  8
P-SANR-FIXT
100
AcDbSpline
210
0.0
220
0.0
230
1.0
 70
     8
 71
     3
 72
     9
 73
     5
 74
     0
 42
0.000000001
 43
0.0000000001
 40
0.75
 40
0.75
 40
0.75
 40
0.75
 40
0.7708333333333333
 40
0.7777777777777781
 40
0.7777777777777781
 40
0.7777777777777781
 40
0.7777777777777781
 10
1088.242716919499
 20
2017.066368627737
 30
0.0
 10
1088.056687046769
 20
2016.969768654334
 30
0.0
 10
1087.817346332079
 20
2016.84026519636
 30
0.0
 10
1087.591709669256
 20
2016.712374504076
 30
0.0
 10
1087.53602119789
 20
2016.68043972647
 30
0.0
  0
SPLINE
  5
25B
330
1D2
100
AcDbEntity
  8
P-SANR-FIXT
100
AcDbSpline
210
0.0
220
0.0
230
1.0
 70
     8
 71
     3
 72
     9
 73
     5
 74
     0
 42
0.000000001
 43
0.0000000001
 40
0.8055555555555557
 40
0.8055555555555557
 40
0.8055555555555557
 40
0.8055555555555557
 40
0.8333333333333332
 40
0.8611111111111114
 40
0.8611111111111114
 40
0.8611111111111114
 40
0.8611111111111114
 10
1086.895240812049
 20
2016.29598710353
 30
0.0
 10
1086.690047467561
 20
2016.167394840891
 30
0.0
 10
1086.298237476225
 20
2015.9112960111
 30
0.0
 10
1085.960049475289
 20
2015.672681186507
 30
0.0
 10
1085.807059854134
 20
2015.561636621827
 30
0.0
  0
SPLINE
  5
25C
330
1D2
100
AcDbEntity
  8
P-SANR-FIXT
100
AcDbSpline
210
0.0
220
0.0
230
1.0
 70
     8
 71
     3
 72
    11
 73
     7
 74
     0
 42
0.000000001
 43
0.0000000001
 40
0.8888888888888891
 40
0.8888888888888891
 40
0.8888888888888891
 40
0.8888888888888891
 40
0.8958333333333332
 40
0.9166666666666666
 40
0.9583333333333332
 40
1.0
 40
1.0
 40
1.0
 40
1.0
 10
1085.398721006516
 20
2015.256932687965
 30
0.0
 10
1085.369051387511
 20
2015.234176565517
 30
0.0
 10
1085.254519608329
 20
2015.145778629494
 30
0.0
 10
1085.001508651659
 20
2014.945766120812
 30
0.0
 10
1084.735262939503
 20
2014.725306076542
 30
0.0
 10
1084.636104985113
 20
2014.640547149288
 30
0.0
 10
1084.614353943098
 20
2014.621974821969
 30
0.0
  0
ARC
  5
25D
330
1D2
100
AcDbEntity
  8
P-SANR-FIXT
100
AcDbCircle
 10
1097.114353943097
 20
1999.982558850011
 30
0.0
 40
19.25000000000063
100
AcDbArc
 50
344.0918618512086
 51
0.0000000000003244
  0
ARC
  5
25E
330
1D2
100
AcDbEntity
  8
P-SANR-FIXT
100
AcDbCircle
 10
1097.114353943097
 20
1999.982558850011
 30
0.0
 40
19.25000000000069
100
AcDbArc
 50
284.1951374861672
 51
315.9156798479374
  0
ARC
  5
25F
330
1D2
100
AcDbEntity
  8
P-SANR-FIXT
100
AcDbCircle
 10
1097.114353943097
 20
1999.982558850011
 30
0.0
 40
19.25000000000047
100
AcDbArc
 50
224.0843201521893
 51
255.8048625136953
  0
ARC
  5
260
330
1D2
100
AcDbEntity
  8
P-SANR-FIXT
100
AcDbCircle
 10
1097.114353943097
 20
1999.982558850011
 30
0.0
 40
19.25000000000064
100
AcDbArc
 50
180.0
 51
195.9081381484766
  0
ARC
  5
261
330
1D2
100
AcDbEntity
  8
P-SANR-FIXT
100
AcDbCircle
 10
1097.114353943097
 20
1999.982558850011
 30
0.0
 40
19.25000000000045
100
AcDbArc
 50
164.0918618515264
 51
180.0
  0
ARC
  5
262
330
1D2
100
AcDbEntity
  8
P-SANR-FIXT
100
AcDbCircle
 10
1097.114353943097
 20
1999.982558850011
 30
0.0
 40
19.25000000000055
100
AcDbArc
 50
104.1951374866338
 51
135.9156798475209
  0
ARC
  5
263
330
1D2
100
AcDbEntity
  8
P-SANR-FIXT
100
AcDbCircle
 10
1097.114353943097
 20
1999.982558850011
 30
0.0
 40
19.25000000000081
100
AcDbArc
 50
44.08432015235649
 51
75.80486251350951
  0
ARC
  5
264
330
1D2
100
AcDbEntity
  8
P-SANR-FIXT
100
AcDbCircle
 10
1097.114353943097
 20
1999.982558850011
 30
0.0
 40
19.25000000000079
100
AcDbArc
 50
0.0
 51
15.90813814879584
  0
LINE
  5
265
330
1D2
100
AcDbEntity
  8
P-SANR-FIXT
100
AcDbLine
 10
1084.698847663216
 20
2020.982558850011
 30
0.0
 11
1084.746366933171
 21
2020.982558850011
 31
0.0
  0
LINE
  5
266
330
1D2
100
AcDbEntity
  8
P-SANR-FIXT
100
AcDbLine
 10
1086.289036395792
 20
2020.982558850011
 30
0.0
 11
1086.854658604345
 21
2020.982558850011
 31
0.0
  0
LINE
  5
267
330
1D2
100
AcDbEntity
  8
P-SANR-FIXT
100
AcDbLine
 10
1087.197437189457
 20
2020.982558850011
 30
0.0
 11
1087.521261325121
 21
2020.982558850011
 31
0.0
  0
LINE
  5
268
330
1D2
100
AcDbEntity
  8
P-SANR-FIXT
100
AcDbLine
 10
1088.275519178266
 20
2020.982558850011
 30
0.0
 11
1089.063659689582
 21
2020.982558850011
 31
0.0
  0
LINE
  5
269
330
1D2
100
AcDbEntity
  8
P-SANR-FIXT
100
AcDbLine
 10
1089.931482730928
 20
2020.982558850011
 30
0.0
 11
1091.82114506326
 21
2020.982558850011
 31
0.0
  0
LINE
  5
26A
330
1D2
100
AcDbEntity
  8
P-SANR-FIXT
100
AcDbLine
 10
1092.330811038534
 20
2020.982558850011
 30
0.0
 11
1092.824836901513
 21
2020.982558850011
 31
0.0
  0
LINE
  5
26B
330
1D2
100
AcDbEntity
  8
P-SANR-FIXT
100
AcDbLine
 10
1092.831346743817
 20
2020.982558850011
 30
0.0
 11
1094.939259057697
 21
2020.982558850011
 31
0.0
  0
LINE
  5
26C
330
1D2
100
AcDbEntity
  8
P-SANR-FIXT
100
AcDbLine
 10
1095.482776540347
 20
2020.982558850011
 30
0.0
 11
1096.01615017505
 21
2020.982558850011
 31
0.0
  0
LINE
  5
26D
330
1D2
100
AcDbEntity
  8
P-SANR-FIXT
100
AcDbLine
 10
1096.02318030359
 20
2020.982558850011
 30
0.0
 11
1098.205527582639
 21
2020.982558850011
 31
0.0
  0
LINE
  5
26E
330
1D2
100
AcDbEntity
  8
P-SANR-FIXT
100
AcDbLine
 10
1098.212557711178
 20
2020.982558850011
 30
0.0
 11
1098.745931345848
 21
2020.982558850011
 31
0.0
  0
LINE
  5
26F
330
1D2
100
AcDbEntity
  8
P-SANR-FIXT
100
AcDbLine
 10
1099.289448828533
 20
2020.982558850011
 30
0.0
 11
1101.397361142412
 21
2020.982558850011
 31
0.0
  0
LINE
  5
270
330
1D2
100
AcDbEntity
  8
P-SANR-FIXT
100
AcDbLine
 10
1101.403870984716
 20
2020.982558850011
 30
0.0
 11
1101.897896847661
 21
2020.982558850011
 31
0.0
  0
LINE
  5
271
330
1D2
100
AcDbEntity
  8
P-SANR-FIXT
100
AcDbLine
 10
1102.407562822969
 20
2020.982558850011
 30
0.0
 11
1104.297225155301
 21
2020.982558850011
 31
0.0
  0
LINE
  5
272
330
1D2
100
AcDbEntity
  8
P-SANR-FIXT
100
AcDbLine
 10
1104.302770723372
 20
2020.982558850011
 30
0.0
 11
1104.723871805707
 21
2020.982558850011
 31
0.0
  0
LINE
  5
273
330
1D2
100
AcDbEntity
  8
P-SANR-FIXT
100
AcDbLine
 10
1105.165048196647
 20
2020.982558850011
 30
0.0
 11
1105.953188707929
 21
2020.982558850011
 31
0.0
  0
LINE
  5
274
330
1D2
100
AcDbEntity
  8
P-SANR-FIXT
100
AcDbLine
 10
1106.707446561107
 20
2020.982558850011
 30
0.0
 11
1107.031270696738
 21
2020.982558850011
 31
0.0
  0
LINE
  5
275
330
1D2
100
AcDbEntity
  8
P-SANR-FIXT
100
AcDbLine
 10
1107.374049281885
 20
2020.982558850011
 30
0.0
 11
1107.939671490403
 21
2020.982558850011
 31
0.0
  0
LINE
  5
276
330
1D2
100
AcDbEntity
  8
P-SANR-FIXT
100
AcDbLine
 10
1109.482340953099
 20
2020.982558850011
 30
0.0
 11
1109.529860222919
 21
2020.982558850011
 31
0.0
  0
LINE
  5
277
330
1D2
100
AcDbEntity
  8
P-SANR-FIXT
100
AcDbLine
 10
1112.962823171447
 20
1961.982558850011
 30
0.0
 11
1098.265884714748
 21
1961.982558850011
 31
0.0
  0
LINE
  5
278
330
1D2
100
AcDbEntity
  8
P-SANR-FIXT
100
AcDbLine
 10
1095.962823171447
 20
1961.982558850011
 30
0.0
 11
1081.265884714748
 21
1961.982558850011
 31
0.0
  0
LINE
  5
279
330
1D2
100
AcDbEntity
  8
P-SANR-FIXT
100
AcDbLine
 10
1114.114353943097
 20
1961.982558850011
 30
0.0
 11
1112.962823171447
 21
1961.982558850011
 31
0.0
  0
LINE
  5
27A
330
1D2
100
AcDbEntity
  8
P-SANR-FIXT
100
AcDbLine
 10
1114.114353943097
 20
1961.982558850011
 30
0.0
 11
1114.114353943097
 21
1967.982558850011
 31
0.0
  0
LINE
  5
27B
330
1D2
100
AcDbEntity
  8
P-SANR-FIXT
100
AcDbLine
 10
1112.962823171447
 20
1967.982558850011
 30
0.0
 11
1112.962823171447
 21
1961.982558850011
 31
0.0
  0
LINE
  5
27C
330
1D2
100
AcDbEntity
  8
P-SANR-FIXT
100
AcDbLine
 10
1098.265884714748
 20
1961.982558850011
 30
0.0
 11
1095.962823171447
 21
1961.982558850011
 31
0.0
  0
LINE
  5
27D
330
1D2
100
AcDbEntity
  8
P-SANR-FIXT
100
AcDbLine
 10
1098.265884714748
 20
1961.982558850011
 30
0.0
 11
1098.265884714748
 21
1967.982558850011
 31
0.0
  0
LINE
  5
27E
330
1D2
100
AcDbEntity
  8
P-SANR-FIXT
100
AcDbLine
 10
1095.962823171447
 20
1967.982558850011
 30
0.0
 11
1095.962823171447
 21
1961.982558850011
 31
0.0
  0
LINE
  5
27F
330
1D2
100
AcDbEntity
  8
P-SANR-FIXT
100
AcDbLine
 10
1081.265884714748
 20
1961.982558850011
 30
0.0
 11
1080.114353943097
 21
1961.982558850011
 31
0.0
  0
LINE
  5
280
330
1D2
100
AcDbEntity
  8
P-SANR-FIXT
100
AcDbLine
 10
1081.265884714748
 20
1961.982558850011
 30
0.0
 11
1081.265884714748
 21
1967.982558850011
 31
0.0
  0
LINE
  5
281
330
1D2
100
AcDbEntity
  8
P-SANR-FIXT
100
AcDbLine
 10
1080.114353943097
 20
1967.982558850011
 30
0.0
 11
1080.114353943097
 21
1961.982558850011
 31
0.0
  0
LINE
  5
282
330
1D2
100
AcDbEntity
  8
P-SANR-FIXT
100
AcDbLine
 10
1081.265884714748
 20
1967.982558850011
 30
0.0
 11
1080.114353943097
 21
1967.982558850011
 31
0.0
  0
LINE
  5
283
330
1D2
100
AcDbEntity
  8
P-SANR-FIXT
100
AcDbLine
 10
1081.265884714748
 20
1967.982558850011
 30
0.0
 11
1095.962823171447
 21
1967.982558850011
 31
0.0
  0
LINE
  5
284
330
1D2
100
AcDbEntity
  8
P-SANR-FIXT
100
AcDbLine
 10
1098.265884714748
 20
1967.982558850011
 30
0.0
 11
1095.962823171447
 21
1967.982558850011
 31
0.0
  0
LINE
  5
285
330
1D2
100
AcDbEntity
  8
P-SANR-FIXT
100
AcDbLine
 10
1098.265884714748
 20
1967.982558850011
 30
0.0
 11
1112.962823171447
 21
1967.982558850011
 31
0.0
  0
LINE
  5
286
330
1D2
100
AcDbEntity
  8
P-SANR-FIXT
100
AcDbLine
 10
1114.114353943097
 20
1967.982558850011
 30
0.0
 11
1112.962823171447
 21
1967.982558850011
 31
0.0
  0
ENDBLK
  5
288
330
1D2
100
AcDbEntity
  8
0
100
AcDbBlockEnd
  0
ENDSEC
  0
SECTION
  2
ENTITIES
  0
INSERT
  5
186
330
71
100
AcDbEntity
  8
P-SANR-FIXT
100
AcDbBlockReference
  2
Automatic flow rate regulator valve_Caleffi_121 DN15 - 1_2__-859151-Est - Idraulica
 10
0.0
 20
0.0
 30
0.0
1001
REVIT
1002
{
1070
     1
1000
863131
1002
}
1002
{
1070
     5
1000
859151
1002
}
1002
{
1070
     2
1000
-2001160
1002
}
  0
INSERT
  5
1D1
330
71
100
AcDbEntity
  8
P-SANR-FIXT
100
AcDbBlockReference
  2
Automatic flow rate regulator valve_Caleffi_121 DN15 - 1_2__-V1-Est - Idraulica
 10
0.0
 20
0.0
 30
0.0
1001
REVIT
1002
{
1070
     1
1000
863152
1002
}
1002
{
1070
     5
1000
859151
1002
}
1002
{
1070
     2
1000
-2001160
1002
}
  0
INSERT
  5
289
330
71
100
AcDbEntity
  8
P-SANR-FIXT
100
AcDbBlockReference
  2
Automatic flow rate regulator valve_Caleffi_121 DN15 - 1_2__-V2-Est - Idraulica
 10
0.0
 20
0.0
 30
0.0
1001
REVIT
1002
{
1070
     1
1000
863172
1002
}
1002
{
1070
     5
1000
859151
1002
}
1002
{
1070
     2
1000
-2001160
1002
}
  0
ENDSEC
  0
SECTION
  2
OBJECTS
  0
DICTIONARY
  5
C
330
0
100
AcDbDictionary
281
     1
  3
ACAD_CIP_PREVIOUS_PRODUCT_INFO
350
7A
  3
ACAD_COLOR
350
63
  3
ACAD_DETAILVIEWSTYLE
350
6B
  3
ACAD_GROUP
350
D
  3
ACAD_IMAGE_VARS
350
7B
  3
ACAD_LAYOUT
350
62
  3
ACAD_MATERIAL
350
10
  3
ACAD_MLEADERSTYLE
350
66
  3
ACAD_MLINESTYLE
350
5F
  3
ACAD_PLOTSETTINGS
350
61
  3
ACAD_PLOTSTYLENAME
350
E
  3
ACAD_SCALELIST
350
42
  3
ACAD_SECTIONVIEWSTYLE
350
68
  3
ACAD_TABLESTYLE
350
64
  3
ACAD_VISUALSTYLE
350
29
  3
ACDB_RECOMPOSE_DATA
350
294
  3
AcDbVariableDictionary
350
7C
  3
REVIT_DICTIONARY
350
28B
  0
DICTIONARY
  5
290
330
71
100
AcDbDictionary
280
     1
281
     1
  3
ACAD_SORTENTS
360
291
  0
XRECORD
  5
7A
102
{ACAD_REACTORS
330
C
102
}
330
C
100
AcDbXrecord
280
     1
300
RVT
300
2013
300
RVT2013
  0
DICTIONARY
  5
63
102
{ACAD_REACTORS
330
C
102
}
330
C
100
AcDbDictionary
281
     1
  0
DICTIONARY
  5
6B
102
{ACAD_REACTORS
330
C
102
}
330
C
100
AcDbDictionary
281
     1
  3
Imperial24
350
6C
  0
DICTIONARY
  5
D
102
{ACAD_REACTORS
330
C
102
}
330
C
100
AcDbDictionary
281
     1
  0
RASTERVARIABLES
  5
7B
102
{ACAD_REACTORS
330
C
102
}
330
C
100
AcDbRasterVariables
 90
        0
 70
     0
 71
     1
 72
     1
  0
DICTIONARY
  5
62
102
{ACAD_REACTORS
330
C
102
}
330
C
100
AcDbDictionary
281
     1
  3
Layout1
350
70
  3
Layout2
350
78
  3
Model
350
74
  0
DICTIONARY
  5
10
102
{ACAD_REACTORS
330
C
102
}
330
C
100
AcDbDictionary
281
     1
  3
ByBlock
350
19
  3
ByLayer
350
11
  3
Global
350
21
  0
DICTIONARY
  5
66
102
{ACAD_REACTORS
330
C
102
}
330
C
100
AcDbDictionary
281
     1
  3
Standard
350
67
  0
DICTIONARY
  5
5F
102
{ACAD_REACTORS
330
C
102
}
330
C
100
AcDbDictionary
281
     1
  3
Standard
350
60
  0
DICTIONARY
  5
61
102
{ACAD_REACTORS
330
C
102
}
330
C
100
AcDbDictionary
281
     1
  0
ACDBDICTIONARYWDFLT
  5
E
102
{ACAD_REACTORS
330
C
102
}
330
C
100
AcDbDictionary
281
     1
  3
Normal
350
F
100
AcDbDictionaryWithDefault
340
F
  0
DICTIONARY
  5
42
102
{ACAD_REACTORS
330
C
102
}
330
C
100
AcDbDictionary
281
     1
  3
A0
350
43
  3
A1
350
44
  3
A2
350
45
  3
A3
350
46
  3
A4
350
47
  3
A5
350
48
  3
A6
350
49
  3
A7
350
4A
  3
A8
350
4B
  3
A9
350
4C
  3
B0
350
4D
  3
B1
350
4E
  3
B2
350
4F
  3
B3
350
50
  3
B4
350
51
  3
B5
350
52
  3
B6
350
53
  0
DICTIONARY
  5
68
102
{ACAD_REACTORS
330
C
102
}
330
C
100
AcDbDictionary
281
     1
  3
Imperial24
350
6A
  0
DICTIONARY
  5
64
102
{ACAD_REACTORS
330
C
102
}
330
C
100
AcDbDictionary
281
     1
  3
Standard
350
65
  0
DICTIONARY
  5
29
102
{ACAD_REACTORS
330
C
102
}
330
C
100
AcDbDictionary
281
     1
  3
2dWireframe
350
2F
  3
Basic
350
2E
  3
Brighten
350
35
  3
ColorChange
350
39
  3
Conceptual
350
32
  3
Dim
350
34
  3
EdgeColorOff
350
41
  3
Facepattern
350
38
  3
Flat
350
2A
  3
FlatWithEdges
350
2B
  3
Gouraud
350
2C
  3
GouraudWithEdges
350
2D
  3
Hidden
350
31
  3
JitterOff
350
3F
  3
Linepattern
350
37
  3
OverhangOff
350
40
  3
Realistic
350
33
  3
Shaded
350
3E
  3
Shaded with edges
350
3D
  3
Shades of Gray
350
3A
  3
Sketchy
350
3B
  3
Thicken
350
36
  3
Wireframe
350
30
  3
X-Ray
350
3C
  0
XRECORD
  5
294
102
{ACAD_REACTORS
330
C
102
}
330
C
100
AcDbXrecord
280
     1
 90
        1
330
65
  0
DICTIONARY
  5
7C
102
{ACAD_REACTORS
330
C
102
}
330
C
100
AcDbDictionary
281
     1
  3
CANNOSCALE
350
81
  3
CMLEADERSTYLE
350
7E
  3
CTABLESTYLE
350
7D
  3
CVIEWDETAILSTYLE
350
7F
  3
CVIEWSECTIONSTYLE
350
80
  0
DICTIONARY
  5
28B
102
{ACAD_REACTORS
330
C
102
}
330
C
100
AcDbDictionary
281
     1
  3
DRAWING_TOOL
350
28F
  3
REVIT_CATEGORY_MAPPING
350
28D
  3
REVIT_SUB_CATEGORY_MAPPING
350
28E
  3
REVIT_TYPE_MAPPING
350
28C
  0
SORTENTSTABLE
  5
291
102
{ACAD_REACTORS
330
290
102
}
330
290
100
AcDbSortentsTable
330
71
  0
ACDBDETAILVIEWSTYLE
  5
6C
102
{ACAD_REACTORS
330
6B
102
}
330
6B
100
AcDbModelDocViewStyle
 70
     0
  3
Imperial24
290
     1
100
AcDbDetailViewStyle
 70
     0
 71
     0
 90
        3
 71
     1
340
55
 62
   256
 40
0.24
340
0
 62
   256
 40
0.24
300

 40
0.36
280
     3
 71
     2
340
5D
 90
       25
 62
   256
 71
     3
340
55
 62
   256
 40
0.24
 90
        1
 40
0.75
 90
        1
300
%<\AcVar ViewType \f "%tc1">% %<\AcVar ViewDetailId>%\PSCALA %<\AcVar ViewScale \f "%sn">%
 71
     4
340
5D
 90
       25
 62
   256
340
5D
 90
       25
 62
   256
280
     0
  0
LAYOUT
  5
70
102
{ACAD_REACTORS
330
62
102
}
330
62
100
AcDbPlotSettings
  1

  2

  4

  6

 40
0.0
 41
0.0
 42
0.0
 43
0.0
 44
0.0
 45
0.0
 46
0.0
 47
0.0
 48
0.0
 49
0.0
140
0.0
141
0.0
142
1.0
143
1.0
 70
   688
 72
     0
 73
     0
 74
     5
  7

 75
    16
147
1.0
 76
     0
 77
     2
 78
   300
148
0.0
149
0.0
100
AcDbLayout
  1
Layout1
 70
     1
 71
     1
 10
0.0
 20
0.0
 11
12.0
 21
9.0
 12
0.0
 22
0.0
 32
0.0
 14
0.0
 24
0.0
 34
0.0
 15
0.0
 25
0.0
 35
0.0
146
0.0
 13
0.0
 23
0.0
 33
0.0
 16
1.0
 26
0.0
 36
0.0
 17
0.0
 27
1.0
 37
0.0
 76
     0
330
6D
  0
LAYOUT
  5
78
102
{ACAD_REACTORS
330
62
102
}
330
62
100
AcDbPlotSettings
  1

  2

  4

  6

 40
0.0
 41
0.0
 42
0.0
 43
0.0
 44
0.0
 45
0.0
 46
0.0
 47
0.0
 48
0.0
 49
0.0
140
0.0
141
0.0
142
1.0
143
1.0
 70
   688
 72
     0
 73
     0
 74
     5
  7

 75
    16
147
1.0
 76
     0
 77
     2
 78
   300
148
0.0
149
0.0
100
AcDbLayout
  1
Layout2
 70
     1
 71
     2
 10
0.0
 20
0.0
 11
12.0
 21
9.0
 12
0.0
 22
0.0
 32
0.0
 14
0.0
 24
0.0
 34
0.0
 15
0.0
 25
0.0
 35
0.0
146
0.0
 13
0.0
 23
0.0
 33
0.0
 16
1.0
 26
0.0
 36
0.0
 17
0.0
 27
1.0
 37
0.0
 76
     0
330
75
  0
LAYOUT
  5
74
102
{ACAD_REACTORS
330
62
102
}
330
62
100
AcDbPlotSettings
  1

  2

  4

  6

 40
0.0
 41
0.0
 42
0.0
 43
0.0
 44
0.0
 45
0.0
 46
0.0
 47
0.0
 48
0.0
 49
0.0
140
0.0
141
0.0
142
1.0
143
1.0
 70
  1712
 72
     0
 73
     0
 74
     0
  7

 75
     0
147
1.0
 76
     0
 77
     2
 78
   300
148
0.0
149
0.0
100
AcDbLayout
  1
Model
 70
     1
 71
     0
 10
0.0
 20
0.0
 11
12.0
 21
9.0
 12
0.0
 22
0.0
 32
0.0
 14
0.0
 24
0.0
 34
0.0
 15
0.0
 25
0.0
 35
0.0
146
0.0
 13
0.0
 23
0.0
 33
0.0
 16
1.0
 26
0.0
 36
0.0
 17
0.0
 27
1.0
 37
0.0
 76
     0
330
71
  0
MATERIAL
  5
19
102
{ACAD_XDICTIONARY
360
1A
102
}
102
{ACAD_REACTORS
330
10
102
}
330
10
100
AcDbMaterial
  1
ByBlock
 72
     0
 43
0.0208333333333333
 43
0.0
 43
0.0
 43
0.0
 43
0.0
 43
0.0208333333333333
 43
0.0
 43
0.0
 43
0.0
 43
0.0
 43
1.0
 43
0.0
 43
0.0
 43
0.0
 43
0.0
 43
1.0
 77
     0
 47
0.0208333333333333
 47
0.0
 47
0.0
 47
0.0
 47
0.0
 47
0.0208333333333333
 47
0.0
 47
0.0
 47
0.0
 47
0.0
 47
1.0
 47
0.0
 47
0.0
 47
0.0
 47
0.0
 47
1.0
171
     0
 49
0.0208333333333333
 49
0.0
 49
0.0
 49
0.0
 49
0.0
 49
0.0208333333333333
 49
0.0
 49
0.0
 49
0.0
 49
0.0
 49
1.0
 49
0.0
 49
0.0
 49
0.0
 49
0.0
 49
1.0
175
     0
142
0.0208333333333333
142
0.0
142
0.0
142
0.0
142
0.0
142
0.0208333333333333
142
0.0
142
0.0
142
0.0
142
0.0
142
1.0
142
0.0
142
0.0
142
0.0
142
0.0
142
1.0
179
     0
144
0.0208333333333333
144
0.0
144
0.0
144
0.0
144
0.0
144
0.0208333333333333
144
0.0
144
0.0
144
0.0
144
0.0
144
1.0
144
0.0
144
0.0
144
0.0
144
0.0
144
1.0
147
0.0208333333333333
147
0.0
147
0.0
147
0.0
147
0.0
147
0.0208333333333333
147
0.0
147
0.0
147
0.0
147
0.0
147
1.0
147
0.0
147
0.0
147
0.0
147
0.0
147
1.0
  0
MATERIAL
  5
11
102
{ACAD_XDICTIONARY
360
12
102
}
102
{ACAD_REACTORS
330
10
102
}
330
10
100
AcDbMaterial
  1
ByLayer
 72
     0
 43
0.0208333333333333
 43
0.0
 43
0.0
 43
0.0
 43
0.0
 43
0.0208333333333333
 43
0.0
 43
0.0
 43
0.0
 43
0.0
 43
1.0
 43
0.0
 43
0.0
 43
0.0
 43
0.0
 43
1.0
 77
     0
 47
0.0208333333333333
 47
0.0
 47
0.0
 47
0.0
 47
0.0
 47
0.0208333333333333
 47
0.0
 47
0.0
 47
0.0
 47
0.0
 47
1.0
 47
0.0
 47
0.0
 47
0.0
 47
0.0
 47
1.0
171
     0
 49
0.0208333333333333
 49
0.0
 49
0.0
 49
0.0
 49
0.0
 49
0.0208333333333333
 49
0.0
 49
0.0
 49
0.0
 49
0.0
 49
1.0
 49
0.0
 49
0.0
 49
0.0
 49
0.0
 49
1.0
175
     0
142
0.0208333333333333
142
0.0
142
0.0
142
0.0
142
0.0
142
0.0208333333333333
142
0.0
142
0.0
142
0.0
142
0.0
142
1.0
142
0.0
142
0.0
142
0.0
142
0.0
142
1.0
179
     0
144
0.0208333333333333
144
0.0
144
0.0
144
0.0
144
0.0
144
0.0208333333333333
144
0.0
144
0.0
144
0.0
144
0.0
144
1.0
144
0.0
144
0.0
144
0.0
144
0.0
144
1.0
147
0.0208333333333333
147
0.0
147
0.0
147
0.0
147
0.0
147
0.0208333333333333
147
0.0
147
0.0
147
0.0
147
0.0
147
1.0
147
0.0
147
0.0
147
0.0
147
0.0
147
1.0
  0
MATERIAL
  5
21
102
{ACAD_XDICTIONARY
360
22
102
}
102
{ACAD_REACTORS
330
10
102
}
330
10
100
AcDbMaterial
  1
Global
 72
     0
 43
0.0208333333333333
 43
0.0
 43
0.0
 43
0.0
 43
0.0
 43
0.0208333333333333
 43
0.0
 43
0.0
 43
0.0
 43
0.0
 43
1.0
 43
0.0
 43
0.0
 43
0.0
 43
0.0
 43
1.0
 77
     0
 47
0.0208333333333333
 47
0.0
 47
0.0
 47
0.0
 47
0.0
 47
0.0208333333333333
 47
0.0
 47
0.0
 47
0.0
 47
0.0
 47
1.0
 47
0.0
 47
0.0
 47
0.0
 47
0.0
 47
1.0
171
     0
 49
0.0208333333333333
 49
0.0
 49
0.0
 49
0.0
 49
0.0
 49
0.0208333333333333
 49
0.0
 49
0.0
 49
0.0
 49
0.0
 49
1.0
 49
0.0
 49
0.0
 49
0.0
 49
0.0
 49
1.0
175
     0
142
0.0208333333333333
142
0.0
142
0.0
142
0.0
142
0.0
142
0.0208333333333333
142
0.0
142
0.0
142
0.0
142
0.0
142
1.0
142
0.0
142
0.0
142
0.0
142
0.0
142
1.0
179
     0
144
0.0208333333333333
144
0.0
144
0.0
144
0.0
144
0.0
144
0.0208333333333333
144
0.0
144
0.0
144
0.0
144
0.0
144
1.0
144
0.0
144
0.0
144
0.0
144
0.0
144
1.0
147
0.0208333333333333
147
0.0
147
0.0
147
0.0
147
0.0
147
0.0208333333333333
147
0.0
147
0.0
147
0.0
147
0.0
147
1.0
147
0.0
147
0.0
147
0.0
147
0.0
147
1.0
  0
MLEADERSTYLE
  5
67
102
{ACAD_REACTORS
330
66
102
}
330
66
100
AcDbMLeaderStyle
179
     2
170
     2
171
     1
172
     0
 90
        2
 40
0.0
 41
0.0
173
     1
 91
-1056964608
340
5B
 92
       -2
290
     1
 42
0.09
291
     1
 43
0.36
  3
Standard
 44
0.18
300

342
55
174
     1
178
     6
175
     1
176
     0
 93
-1056964608
 45
0.18
292
     0
297
     0
 46
0.18
 94
-1056964608
 47
1.0
 49
1.0
140
1.0
293
     1
141
0.0
294
     1
177
     0
142
1.0
295
     1
296
     0
143
0.125
271
     0
272
     9
273
     9
298
     1
  0
MLINESTYLE
  5
60
102
{ACAD_REACTORS
330
5F
102
}
330
5F
100
AcDbMlineStyle
  2
STANDARD
 70
     0
  3

 62
   256
 51
90.0
 52
90.0
 71
     2
 49
0.5
 62
   256
  6
BYLAYER
 49
-0.5
 62
   256
  6
BYLAYER
  0
ACDBPLACEHOLDER
  5
F
102
{ACAD_REACTORS
330
E
102
}
330
E
  0
SCALE
  5
43
102
{ACAD_REACTORS
330
42
102
}
330
42
100
AcDbScale
 70
     0
300
1:1
140
1.0
141
1.0
290
     1
  0
SCALE
  5
44
102
{ACAD_REACTORS
330
42
102
}
330
42
100
AcDbScale
 70
     0
300
1/128" = 1'-0"
140
0.0078125
141
12.0
290
     0
  0
SCALE
  5
45
102
{ACAD_REACTORS
330
42
102
}
330
42
100
AcDbScale
 70
     0
300
1/64" = 1'-0"
140
0.015625
141
12.0
290
     0
  0
SCALE
  5
46
102
{ACAD_REACTORS
330
42
102
}
330
42
100
AcDbScale
 70
     0
300
1/32" = 1'-0"
140
0.03125
141
12.0
290
     0
  0
SCALE
  5
47
102
{ACAD_REACTORS
330
42
102
}
330
42
100
AcDbScale
 70
     0
300
1/16" = 1'-0"
140
0.0625
141
12.0
290
     0
  0
SCALE
  5
48
102
{ACAD_REACTORS
330
42
102
}
330
42
100
AcDbScale
 70
     0
300
3/32" = 1'-0"
140
0.09375
141
12.0
290
     0
  0
SCALE
  5
49
102
{ACAD_REACTORS
330
42
102
}
330
42
100
AcDbScale
 70
     0
300
1/8" = 1'-0"
140
0.125
141
12.0
290
     0
  0
SCALE
  5
4A
102
{ACAD_REACTORS
330
42
102
}
330
42
100
AcDbScale
 70
     0
300
3/16" = 1'-0"
140
0.1875
141
12.0
290
     0
  0
SCALE
  5
4B
102
{ACAD_REACTORS
330
42
102
}
330
42
100
AcDbScale
 70
     0
300
1/4" = 1'-0"
140
0.25
141
12.0
290
     0
  0
SCALE
  5
4C
102
{ACAD_REACTORS
330
42
102
}
330
42
100
AcDbScale
 70
     0
300
3/8" = 1'-0"
140
0.375
141
12.0
290
     0
  0
SCALE
  5
4D
102
{ACAD_REACTORS
330
42
102
}
330
42
100
AcDbScale
 70
     0
300
1/2" = 1'-0"
140
0.5
141
12.0
290
     0
  0
SCALE
  5
4E
102
{ACAD_REACTORS
330
42
102
}
330
42
100
AcDbScale
 70
     0
300
3/4" = 1'-0"
140
0.75
141
12.0
290
     0
  0
SCALE
  5
4F
102
{ACAD_REACTORS
330
42
102
}
330
42
100
AcDbScale
 70
     0
300
1" = 1'-0"
140
1.0
141
12.0
290
     0
  0
SCALE
  5
50
102
{ACAD_REACTORS
330
42
102
}
330
42
100
AcDbScale
 70
     0
300
1-1/2" = 1'-0"
140
1.5
141
12.0
290
     0
  0
SCALE
  5
51
102
{ACAD_REACTORS
330
42
102
}
330
42
100
AcDbScale
 70
     0
300
3" = 1'-0"
140
3.0
141
12.0
290
     0
  0
SCALE
  5
52
102
{ACAD_REACTORS
330
42
102
}
330
42
100
AcDbScale
 70
     0
300
6" = 1'-0"
140
6.0
141
12.0
290
     0
  0
SCALE
  5
53
102
{ACAD_REACTORS
330
42
102
}
330
42
100
AcDbScale
 70
     0
300
1'-0" = 1'-0"
140
12.0
141
12.0
290
     0
  0
ACDBSECTIONVIEWSTYLE
  5
6A
102
{ACAD_REACTORS
330
68
102
}
330
68
100
AcDbModelDocViewStyle
 70
     0
  3
Imperial24
290
     1
100
AcDbSectionViewStyle
 70
     0
 71
     0
 90
       78
 71
     1
340
55
 62
   256
 40
0.24
340
0
340
0
 62
   256
 40
0.24
300
I, O, Q, S, X, Z
 40
0.48
 90
        3
 40
0.18
 90
        1
 71
     2
340
69
 90
       25
 62
   256
340
5D
 90
       50
 62
   256
 40
0.24
 40
0.0
 40
0.24
 71
     3
340
55
 62
   256
 40
0.24
 90
        1
 40
0.75
 90
        1
300
%<\AcVar ViewType \f "%tc1">% %<\AcVar ViewSectionStartId>%-%<\AcVar ViewSectionEndId>%\PSCALA %<\AcVar ViewScale \f "%sn">%
 71
     4
 62
   256
 62
   257
300
ANSI31
 40
1.0
 90
        0
290
     0
290
     0
 90
        6
 40
0.0
 40
1.570796326794896
 40
0.2617993877991494
 40
1.308996938995747
 40
-0.2617993877991494
 40
1.832595714594046
  0
TABLESTYLE
  5
65
102
{ACAD_XDICTIONARY
360
292
102
}
102
{ACAD_REACTORS
330
64
102
}
330
64
100
AcDbTableStyle
280
     0
  3
Standard
 70
     0
 71
     0
 40
0.06
 41
0.06
280
     0
281
     0
  7
Standard
140
0.18
170
     2
 62
     0
 63
     7
283
     0
 90
      512
 91
        0
  1

274
    -2
284
     1
 64
     0
275
    -2
285
     1
 65
     0
276
    -2
286
     1
 66
     0
277
    -2
287
     1
 67
     0
278
    -2
288
     1
 68
     0
279
    -2
289
     1
 69
     0
  7
Standard
140
0.25
170
     5
 62
     0
 63
     7
283
     0
 90
      512
 91
        0
  1

274
    -2
284
     1
 64
     0
275
    -2
285
     1
 65
     0
276
    -2
286
     1
 66
     0
277
    -2
287
     1
 67
     0
278
    -2
288
     1
 68
     0
279
    -2
289
     1
 69
     0
  7
Standard
140
0.18
170
     5
 62
     0
 63
     7
283
     0
 90
      512
 91
        0
  1

274
    -2
284
     1
 64
     0
275
    -2
285
     1
 65
     0
276
    -2
286
     1
 66
     0
277
    -2
287
     1
 67
     0
278
    -2
288
     1
 68
     0
279
    -2
289
     1
 69
     0
  0
VISUALSTYLE
  5
2F
102
{ACAD_REACTORS
330
29
102
}
330
29
100
AcDbVisualStyle
  2
2dWireframe
 70
     4
177
     3
291
     0
 70
    58
 90
        0
176
     1
 90
        2
176
     1
 90
        0
176
     1
 90
        0
176
     1
 40
0.6
176
     1
 40
30.0
176
     1
 62
     7
420
 16777215
176
     1
 90
        1
176
     1
 90
        4
176
     1
 62
     7
176
     1
 62
   257
176
     1
 90
        1
176
     1
 90
        1
176
     1
 40
1.0
176
     1
 90
        0
176
     1
 62
   257
176
     1
 40
1.0
176
     1
 90
        1
176
     1
 90
        6
176
     1
 90
        2
176
     1
 62
     7
176
     1
 90
        5
176
     1
 90
        0
176
     1
 90
        0
176
     1
290
     0
176
     1
 90
        1
176
     1
 40
0.0
176
     1
 90
        0
176
     1
290
     1
176
     1
290
     1
176
     1
290
     0
176
     1
290
     0
176
     1
290
     0
176
     1
290
     0
176
     1
290
     0
176
     1
290
     0
176
     1
290
     0
176
     1
 90
       50
176
     1
 40
0.0
176
     1
 40
1.0
176
     1
 90
        0
176
     1
 62
    18
420
        0
176
     1
 90
       50
176
     1
 90
        3
176
     1
 62
     5
420
      255
176
     1
290
     0
176
     1
 90
       50
176
     1
 90
       50
176
     1
 90
       50
176
     1
290
     0
176
     1
 90
       50
176
     1
 62
   256
176
     0
 40
1.0
176
     0
 90
        2
176
     1
  1
strokes_ogs.tif
176
     1
290
     0
176
     1
 40
1.0
176
     1
 40
1.0
176
     1
  0
VISUALSTYLE
  5
2E
102
{ACAD_REACTORS
330
29
102
}
330
29
100
AcDbVisualStyle
  2
Basic
 70
     7
177
     3
291
     1
 70
    58
 90
        1
176
     1
 90
        0
176
     1
 90
        1
176
     1
 90
        0
176
     1
 40
0.6
176
     1
 40
30.0
176
     1
 62
     7
420
 16777215
176
     1
 90
        0
176
     1
 90
        4
176
     1
 62
     7
176
     1
 62
   257
176
     1
 90
        1
176
     1
 90
        1
176
     1
 40
1.0
176
     1
 90
        8
176
     1
 62
     7
176
     1
 40
1.0
176
     1
 90
        1
176
     1
 90
        6
176
     1
 90
        2
176
     1
 62
     7
176
     1
 90
        5
176
     1
 90
        0
176
     1
 90
        0
176
     1
290
     0
176
     1
 90
        1
176
     1
 40
0.0
176
     1
 90
        0
176
     1
290
     0
176
     1
290
     1
176
     1
290
     1
176
     1
290
     0
176
     1
290
     0
176
     1
290
     0
176
     1
290
     0
176
     1
290
     0
176
     1
290
     0
176
     1
 90
       50
176
     1
 40
0.0
176
     1
 40
1.0
176
     1
 90
        0
176
     1
 62
    18
420
        0
176
     1
 90
       50
176
     1
 90
        3
176
     1
 62
     5
420
      255
176
     1
290
     0
176
     1
 90
       50
176
     1
 90
       50
176
     1
 90
       50
176
     1
290
     0
176
     1
 90
       50
176
     1
 62
   256
176
     0
 40
1.0
176
     0
 90
        2
176
     1
  1
strokes_ogs.tif
176
     1
290
     0
176
     1
 40
1.0
176
     1
 40
1.0
176
     1
  0
VISUALSTYLE
  5
35
102
{ACAD_REACTORS
330
29
102
}
330
29
100
AcDbVisualStyle
  2
Brighten
 70
    12
177
     3
291
     1
 70
    58
 90
        2
176
     1
 90
        2
176
     1
 90
        0
176
     1
 90
        0
176
     1
 40
0.6
176
     1
 40
30.0
176
     1
 62
     7
420
 16777215
176
     1
 90
        1
176
     1
 90
        4
176
     1
 62
     7
176
     1
 62
   257
176
     1
 90
        1
176
     1
 90
        1
176
     1
 40
1.0
176
     1
 90
        8
176
     1
 62
     7
176
     1
 40
1.0
176
     1
 90
        1
176
     1
 90
        6
176
     1
 90
        2
176
     1
 62
     7
176
     1
 90
        5
176
     1
 90
        0
176
     1
 90
        0
176
     1
290
     0
176
     1
 90
        1
176
     1
 40
50.0
176
     1
 90
        0
176
     1
290
     0
176
     1
290
     1
176
     1
290
     1
176
     1
290
     0
176
     1
290
     0
176
     1
290
     0
176
     1
290
     0
176
     1
290
     0
176
     1
290
     0
176
     1
 90
       50
176
     1
 40
0.0
176
     1
 40
1.0
176
     1
 90
        0
176
     1
 62
    18
420
        0
176
     1
 90
       50
176
     1
 90
        3
176
     1
 62
     5
420
      255
176
     1
290
     0
176
     1
 90
       50
176
     1
 90
       50
176
     1
 90
       50
176
     1
290
     0
176
     1
 90
       50
176
     1
 62
   256
176
     0
 40
1.0
176
     0
 90
        2
176
     1
  1
strokes_ogs.tif
176
     1
290
     0
176
     1
 40
1.0
176
     1
 40
1.0
176
     1
  0
VISUALSTYLE
  5
39
102
{ACAD_REACTORS
330
29
102
}
330
29
100
AcDbVisualStyle
  2
ColorChange
 70
    16
177
     3
291
     1
 70
    58
 90
        2
176
     1
 90
        2
176
     1
 90
        3
176
     1
 90
        0
176
     1
 40
0.6
176
     1
 40
30.0
176
     1
 62
     8
420
  8421504
176
     1
 90
        1
176
     1
 90
        4
176
     1
 62
     7
176
     1
 62
   257
176
     1
 90
        1
176
     1
 90
        1
176
     1
 40
1.0
176
     1
 90
        8
176
     1
 62
     8
420
  8421504
176
     1
 40
1.0
176
     1
 90
        1
176
     1
 90
        6
176
     1
 90
        2
176
     1
 62
     7
176
     1
 90
        5
176
     1
 90
        0
176
     1
 90
        0
176
     1
290
     0
176
     1
 90
        1
176
     1
 40
0.0
176
     1
 90
        0
176
     1
290
     0
176
     1
290
     1
176
     1
290
     1
176
     1
290
     0
176
     1
290
     0
176
     1
290
     0
176
     1
290
     0
176
     1
290
     0
176
     1
290
     0
176
     1
 90
       50
176
     1
 40
0.0
176
     1
 40
1.0
176
     1
 90
        0
176
     1
 62
    18
420
        0
176
     1
 90
       50
176
     1
 90
        3
176
     1
 62
     5
420
      255
176
     1
290
     0
176
     1
 90
       50
176
     1
 90
       50
176
     1
 90
       50
176
     1
290
     0
176
     1
 90
       50
176
     1
 62
   256
176
     0
 40
1.0
176
     0
 90
        2
176
     1
  1
strokes_ogs.tif
176
     1
290
     0
176
     1
 40
1.0
176
     1
 40
1.0
176
     1
  0
VISUALSTYLE
  5
32
102
{ACAD_REACTORS
330
29
102
}
330
29
100
AcDbVisualStyle
  2
Conceptual
 70
     9
177
     3
291
     0
 70
    58
 90
        3
176
     1
 90
        2
176
     1
 90
        0
176
     1
 90
        0
176
     1
 40
0.6
176
     1
 40
30.0
176
     1
 62
     7
420
 16777215
176
     1
 90
        2
176
     1
 90
        2
176
     1
 62
     7
176
     1
 62
   257
176
     1
 90
        1
176
     1
 90
        1
176
     1
 40
179.0
176
     1
 90
        8
176
     1
 62
     7
176
     1
 40
1.0
176
     1
 90
        1
176
     1
 90
        6
176
     1
 90
        2
176
     1
 62
     7
176
     1
 90
        3
176
     1
 90
        0
176
     1
 90
        0
176
     1
290
     0
176
     1
 90
        1
176
     1
 40
0.0
176
     1
 90
        0
176
     1
290
     0
176
     1
290
     1
176
     1
290
     1
176
     1
290
     0
176
     1
290
     0
176
     1
290
     0
176
     1
290
     0
176
     1
290
     0
176
     1
290
     0
176
     1
 90
       50
176
     1
 40
0.0
176
     1
 40
1.0
176
     1
 90
        0
176
     1
 62
    18
420
        0
176
     1
 90
       50
176
     1
 90
        3
176
     1
 62
     5
420
      255
176
     1
290
     0
176
     1
 90
       50
176
     1
 90
       50
176
     1
 90
       50
176
     1
290
     0
176
     1
 90
       50
176
     1
 62
   256
176
     0
 40
1.0
176
     0
 90
        2
176
     1
  1
strokes_ogs.tif
176
     1
290
     0
176
     1
 40
1.0
176
     1
 40
1.0
176
     1
  0
VISUALSTYLE
  5
34
102
{ACAD_REACTORS
330
29
102
}
330
29
100
AcDbVisualStyle
  2
Dim
 70
    11
177
     3
291
     1
 70
    58
 90
        2
176
     1
 90
        2
176
     1
 90
        0
176
     1
 90
        0
176
     1
 40
0.6
176
     1
 40
30.0
176
     1
 62
     7
420
 16777215
176
     1
 90
        1
176
     1
 90
        4
176
     1
 62
     7
176
     1
 62
   257
176
     1
 90
        1
176
     1
 90
        1
176
     1
 40
1.0
176
     1
 90
        8
176
     1
 62
     7
176
     1
 40
1.0
176
     1
 90
        1
176
     1
 90
        6
176
     1
 90
        2
176
     1
 62
     7
176
     1
 90
        5
176
     1
 90
        0
176
     1
 90
        0
176
     1
290
     0
176
     1
 90
        1
176
     1
 40
-50.0
176
     1
 90
        0
176
     1
290
     0
176
     1
290
     1
176
     1
290
     1
176
     1
290
     0
176
     1
290
     0
176
     1
290
     0
176
     1
290
     0
176
     1
290
     0
176
     1
290
     0
176
     1
 90
       50
176
     1
 40
0.0
176
     1
 40
1.0
176
     1
 90
        0
176
     1
 62
    18
420
        0
176
     1
 90
       50
176
     1
 90
        3
176
     1
 62
     5
420
      255
176
     1
290
     0
176
     1
 90
       50
176
     1
 90
       50
176
     1
 90
       50
176
     1
290
     0
176
     1
 90
       50
176
     1
 62
   256
176
     0
 40
1.0
176
     0
 90
        2
176
     1
  1
strokes_ogs.tif
176
     1
290
     0
176
     1
 40
1.0
176
     1
 40
1.0
176
     1
  0
VISUALSTYLE
  5
41
102
{ACAD_REACTORS
330
29
102
}
330
29
100
AcDbVisualStyle
  2
EdgeColorOff
 70
    22
177
     3
291
     1
 70
    58
 90
        2
176
     0
 90
        2
176
     0
 90
        0
176
     0
 90
        0
176
     0
 40
0.6
176
     0
 40
30.0
176
     0
 62
     7
420
 16777215
176
     0
 90
        1
176
     0
 90
        4
176
     0
 62
     7
176
     0
 62
   257
176
     0
 90
        1
176
     0
 90
        1
176
     0
 40
1.0
176
     0
 90
        8
176
     2
 62
     7
176
     0
 40
1.0
176
     0
 90
        1
176
     0
 90
        6
176
     0
 90
        2
176
     0
 62
     7
176
     0
 90
        5
176
     0
 90
        0
176
     0
 90
        0
176
     0
290
     0
176
     0
 90
        1
176
     0
 40
0.0
176
     0
 90
        0
176
     0
290
     0
176
     0
290
     1
176
     0
290
     1
176
     0
290
     0
176
     0
290
     0
176
     0
290
     0
176
     0
290
     0
176
     0
290
     0
176
     0
290
     0
176
     0
 90
       50
176
     0
 40
0.0
176
     0
 40
1.0
176
     0
 90
        0
176
     0
 62
    18
420
        0
176
     0
 90
       50
176
     0
 90
        3
176
     0
 62
     5
420
      255
176
     0
290
     0
176
     0
 90
       50
176
     0
 90
       50
176
     0
 90
       50
176
     0
290
     0
176
     0
 90
       50
176
     0
 62
   256
176
     0
 40
1.0
176
     0
 90
        2
176
     0
  1
strokes_ogs.tif
176
     0
290
     0
176
     0
 40
1.0
176
     0
 40
1.0
176
     0
  0
VISUALSTYLE
  5
38
102
{ACAD_REACTORS
330
29
102
}
330
29
100
AcDbVisualStyle
  2
Facepattern
 70
    15
177
     3
291
     1
 70
    58
 90
        2
176
     1
 90
        2
176
     1
 90
        0
176
     1
 90
        0
176
     1
 40
0.6
176
     1
 40
30.0
176
     1
 62
     7
420
 16777215
176
     1
 90
        1
176
     1
 90
        4
176
     1
 62
     7
176
     1
 62
   257
176
     1
 90
        1
176
     1
 90
        1
176
     1
 40
1.0
176
     1
 90
        8
176
     1
 62
     7
176
     1
 40
1.0
176
     1
 90
        1
176
     1
 90
        6
176
     1
 90
        2
176
     1
 62
     7
176
     1
 90
        5
176
     1
 90
        0
176
     1
 90
        0
176
     1
290
     0
176
     1
 90
        1
176
     1
 40
0.0
176
     1
 90
        0
176
     1
290
     0
176
     1
290
     1
176
     1
290
     1
176
     1
290
     0
176
     1
290
     0
176
     1
290
     0
176
     1
290
     0
176
     1
290
     0
176
     1
290
     0
176
     1
 90
       50
176
     1
 40
0.0
176
     1
 40
1.0
176
     1
 90
        0
176
     1
 62
    18
420
        0
176
     1
 90
       50
176
     1
 90
        3
176
     1
 62
     5
420
      255
176
     1
290
     0
176
     1
 90
       50
176
     1
 90
       50
176
     1
 90
       50
176
     1
290
     0
176
     1
 90
       50
176
     1
 62
   256
176
     0
 40
1.0
176
     0
 90
        2
176
     1
  1
strokes_ogs.tif
176
     1
290
     0
176
     1
 40
1.0
176
     1
 40
1.0
176
     1
  0
VISUALSTYLE
  5
2A
102
{ACAD_REACTORS
330
29
102
}
330
29
100
AcDbVisualStyle
  2
Flat
 70
     0
177
     3
291
     1
 70
    58
 90
        2
176
     1
 90
        1
176
     1
 90
        1
176
     1
 90
        2
176
     1
 40
0.6
176
     1
 40
30.0
176
     1
 62
     7
420
 16777215
176
     1
 90
        0
176
     1
 90
        0
176
     1
 62
     7
176
     1
 62
   257
176
     1
 90
        1
176
     1
 90
        1
176
     1
 40
1.0
176
     1
 90
        8
176
     1
 62
     7
176
     1
 40
1.0
176
     1
 90
        1
176
     1
 90
        6
176
     1
 90
        2
176
     1
 62
     7
176
     1
 90
        5
176
     1
 90
        0
176
     1
 90
        0
176
     1
290
     0
176
     1
 90
       13
176
     1
 40
0.0
176
     1
 90
        0
176
     1
290
     0
176
     1
290
     1
176
     1
290
     1
176
     1
290
     0
176
     1
290
     0
176
     1
290
     0
176
     1
290
     0
176
     1
290
     0
176
     1
290
     0
176
     1
 90
       50
176
     1
 40
0.0
176
     1
 40
1.0
176
     1
 90
        0
176
     1
 62
    18
420
        0
176
     1
 90
       50
176
     1
 90
        3
176
     1
 62
     5
420
      255
176
     1
290
     0
176
     1
 90
       50
176
     1
 90
       50
176
     1
 90
       50
176
     1
290
     0
176
     1
 90
       50
176
     1
 62
   256
176
     0
 40
1.0
176
     0
 90
        2
176
     1
  1
strokes_ogs.tif
176
     1
290
     0
176
     1
 40
1.0
176
     1
 40
1.0
176
     1
  0
VISUALSTYLE
  5
2B
102
{ACAD_REACTORS
330
29
102
}
330
29
100
AcDbVisualStyle
  2
FlatWithEdges
 70
     1
177
     3
291
     1
 70
    58
 90
        2
176
     1
 90
        1
176
     1
 90
        1
176
     1
 90
        2
176
     1
 40
0.6
176
     1
 40
30.0
176
     1
 62
     7
420
 16777215
176
     1
 90
        1
176
     1
 90
        0
176
     1
 62
     7
176
     1
 62
   257
176
     1
 90
        1
176
     1
 90
        1
176
     1
 40
1.0
176
     1
 90
        0
176
     1
 62
   257
176
     1
 40
1.0
176
     1
 90
        1
176
     1
 90
        6
176
     1
 90
        2
176
     1
 62
     7
176
     1
 90
        5
176
     1
 90
        0
176
     1
 90
        0
176
     1
290
     0
176
     1
 90
       13
176
     1
 40
0.0
176
     1
 90
        0
176
     1
290
     0
176
     1
290
     1
176
     1
290
     1
176
     1
290
     0
176
     1
290
     0
176
     1
290
     0
176
     1
290
     0
176
     1
290
     0
176
     1
290
     0
176
     1
 90
       50
176
     1
 40
0.0
176
     1
 40
1.0
176
     1
 90
        0
176
     1
 62
    18
420
        0
176
     1
 90
       50
176
     1
 90
        3
176
     1
 62
     5
420
      255
176
     1
290
     0
176
     1
 90
       50
176
     1
 90
       50
176
     1
 90
       50
176
     1
290
     0
176
     1
 90
       50
176
     1
 62
   256
176
     0
 40
1.0
176
     0
 90
        2
176
     1
  1
strokes_ogs.tif
176
     1
290
     0
176
     1
 40
1.0
176
     1
 40
1.0
176
     1
  0
VISUALSTYLE
  5
2C
102
{ACAD_REACTORS
330
29
102
}
330
29
100
AcDbVisualStyle
  2
Gouraud
 70
     2
177
     3
291
     1
 70
    58
 90
        2
176
     1
 90
        2
176
     1
 90
        1
176
     1
 90
        2
176
     1
 40
0.6
176
     1
 40
30.0
176
     1
 62
     7
420
 16777215
176
     1
 90
        0
176
     1
 90
        0
176
     1
 62
     7
176
     1
 62
   257
176
     1
 90
        1
176
     1
 90
        1
176
     1
 40
1.0
176
     1
 90
        0
176
     1
 62
     7
176
     1
 40
1.0
176
     1
 90
        1
176
     1
 90
        6
176
     1
 90
        2
176
     1
 62
     7
176
     1
 90
        5
176
     1
 90
        0
176
     1
 90
        0
176
     1
290
     0
176
     1
 90
       13
176
     1
 40
0.0
176
     1
 90
        0
176
     1
290
     0
176
     1
290
     1
176
     1
290
     1
176
     1
290
     0
176
     1
290
     0
176
     1
290
     0
176
     1
290
     0
176
     1
290
     0
176
     1
290
     0
176
     1
 90
       50
176
     1
 40
0.0
176
     1
 40
1.0
176
     1
 90
        0
176
     1
 62
    18
420
        0
176
     1
 90
       50
176
     1
 90
        3
176
     1
 62
     5
420
      255
176
     1
290
     0
176
     1
 90
       50
176
     1
 90
       50
176
     1
 90
       50
176
     1
290
     0
176
     1
 90
       50
176
     1
 62
   256
176
     0
 40
1.0
176
     0
 90
        2
176
     1
  1
strokes_ogs.tif
176
     1
290
     0
176
     1
 40
1.0
176
     1
 40
1.0
176
     1
  0
VISUALSTYLE
  5
2D
102
{ACAD_REACTORS
330
29
102
}
330
29
100
AcDbVisualStyle
  2
GouraudWithEdges
 70
     3
177
     3
291
     1
 70
    58
 90
        2
176
     1
 90
        2
176
     1
 90
        1
176
     1
 90
        2
176
     1
 40
0.6
176
     1
 40
30.0
176
     1
 62
     7
420
 16777215
176
     1
 90
        1
176
     1
 90
        0
176
     1
 62
     7
176
     1
 62
   257
176
     1
 90
        1
176
     1
 90
        1
176
     1
 40
1.0
176
     1
 90
        0
176
     1
 62
   257
176
     1
 40
1.0
176
     1
 90
        1
176
     1
 90
        6
176
     1
 90
        2
176
     1
 62
     7
176
     1
 90
        5
176
     1
 90
        0
176
     1
 90
        0
176
     1
290
     0
176
     1
 90
       13
176
     1
 40
0.0
176
     1
 90
        0
176
     1
290
     0
176
     1
290
     1
176
     1
290
     1
176
     1
290
     0
176
     1
290
     0
176
     1
290
     0
176
     1
290
     0
176
     1
290
     0
176
     1
290
     0
176
     1
 90
       50
176
     1
 40
0.0
176
     1
 40
1.0
176
     1
 90
        0
176
     1
 62
    18
420
        0
176
     1
 90
       50
176
     1
 90
        3
176
     1
 62
     5
420
      255
176
     1
290
     0
176
     1
 90
       50
176
     1
 90
       50
176
     1
 90
       50
176
     1
290
     0
176
     1
 90
       50
176
     1
 62
   256
176
     0
 40
1.0
176
     0
 90
        2
176
     1
  1
strokes_ogs.tif
176
     1
290
     0
176
     1
 40
1.0
176
     1
 40
1.0
176
     1
  0
VISUALSTYLE
  5
31
102
{ACAD_REACTORS
330
29
102
}
330
29
100
AcDbVisualStyle
  2
Hidden
 70
     6
177
     3
291
     0
 70
    58
 90
        1
176
     1
 90
        2
176
     1
 90
        2
176
     1
 90
        0
176
     1
 40
0.6
176
     1
 40
30.0
176
     1
 62
     7
420
 16777215
176
     1
 90
        2
176
     1
 90
        2
176
     1
 62
     7
176
     1
 62
   257
176
     1
 90
        2
176
     1
 90
        1
176
     1
 40
40.0
176
     1
 90
        0
176
     1
 62
   257
176
     1
 40
1.0
176
     1
 90
        1
176
     1
 90
        6
176
     1
 90
        2
176
     1
 62
     7
176
     1
 90
        3
176
     1
 90
        0
176
     1
 90
        0
176
     1
290
     0
176
     1
 90
        1
176
     1
 40
0.0
176
     1
 90
        0
176
     1
290
     0
176
     1
290
     1
176
     1
290
     1
176
     1
290
     0
176
     1
290
     0
176
     1
290
     0
176
     1
290
     0
176
     1
290
     0
176
     1
290
     0
176
     1
 90
       50
176
     1
 40
0.0
176
     1
 40
1.0
176
     1
 90
        0
176
     1
 62
    18
420
        0
176
     1
 90
       50
176
     1
 90
        3
176
     1
 62
     5
420
      255
176
     1
290
     0
176
     1
 90
       50
176
     1
 90
       50
176
     1
 90
       50
176
     1
290
     0
176
     1
 90
       50
176
     1
 62
   256
176
     0
 40
1.0
176
     0
 90
        2
176
     1
  1
strokes_ogs.tif
176
     1
290
     0
176
     1
 40
1.0
176
     1
 40
1.0
176
     1
  0
VISUALSTYLE
  5
3F
102
{ACAD_REACTORS
330
29
102
}
330
29
100
AcDbVisualStyle
  2
JitterOff
 70
    20
177
     3
291
     1
 70
    58
 90
        2
176
     0
 90
        2
176
     0
 90
        0
176
     0
 90
        0
176
     0
 40
0.6
176
     0
 40
30.0
176
     0
 62
     7
420
 16777215
176
     0
 90
        1
176
     0
 90
        4
176
     0
 62
     7
176
     0
 62
   257
176
     0
 90
        1
176
     0
 90
        1
176
     0
 40
1.0
176
     0
 90
       10
176
     2
 62
     7
176
     0
 40
1.0
176
     0
 90
        1
176
     0
 90
        6
176
     0
 90
        2
176
     0
 62
     7
176
     0
 90
        5
176
     0
 90
        0
176
     0
 90
        0
176
     0
290
     0
176
     0
 90
        1
176
     0
 40
0.0
176
     0
 90
        0
176
     0
290
     0
176
     0
290
     1
176
     0
290
     1
176
     0
290
     0
176
     0
290
     0
176
     0
290
     0
176
     0
290
     0
176
     0
290
     0
176
     0
290
     0
176
     0
 90
       50
176
     0
 40
0.0
176
     0
 40
1.0
176
     0
 90
        0
176
     0
 62
    18
420
        0
176
     0
 90
       50
176
     0
 90
        3
176
     0
 62
     5
420
      255
176
     0
290
     0
176
     0
 90
       50
176
     0
 90
       50
176
     0
 90
       50
176
     0
290
     0
176
     0
 90
       50
176
     0
 62
   256
176
     0
 40
1.0
176
     0
 90
        2
176
     0
  1
strokes_ogs.tif
176
     0
290
     0
176
     0
 40
1.0
176
     0
 40
1.0
176
     0
  0
VISUALSTYLE
  5
37
102
{ACAD_REACTORS
330
29
102
}
330
29
100
AcDbVisualStyle
  2
Linepattern
 70
    14
177
     3
291
     1
 70
    58
 90
        2
176
     1
 90
        2
176
     1
 90
        0
176
     1
 90
        0
176
     1
 40
0.6
176
     1
 40
30.0
176
     1
 62
     7
420
 16777215
176
     1
 90
        1
176
     1
 90
        4
176
     1
 62
     7
176
     1
 62
   257
176
     1
 90
        7
176
     1
 90
        7
176
     1
 40
1.0
176
     1
 90
        8
176
     1
 62
     7
176
     1
 40
1.0
176
     1
 90
        1
176
     1
 90
        6
176
     1
 90
        2
176
     1
 62
     7
176
     1
 90
        5
176
     1
 90
        0
176
     1
 90
        0
176
     1
290
     0
176
     1
 90
        1
176
     1
 40
0.0
176
     1
 90
        0
176
     1
290
     0
176
     1
290
     1
176
     1
290
     1
176
     1
290
     0
176
     1
290
     0
176
     1
290
     0
176
     1
290
     0
176
     1
290
     0
176
     1
290
     0
176
     1
 90
       50
176
     1
 40
0.0
176
     1
 40
1.0
176
     1
 90
        0
176
     1
 62
    18
420
        0
176
     1
 90
       50
176
     1
 90
        3
176
     1
 62
     5
420
      255
176
     1
290
     0
176
     1
 90
       50
176
     1
 90
       50
176
     1
 90
       50
176
     1
290
     0
176
     1
 90
       50
176
     1
 62
   256
176
     0
 40
1.0
176
     0
 90
        2
176
     1
  1
strokes_ogs.tif
176
     1
290
     0
176
     1
 40
1.0
176
     1
 40
1.0
176
     1
  0
VISUALSTYLE
  5
40
102
{ACAD_REACTORS
330
29
102
}
330
29
100
AcDbVisualStyle
  2
OverhangOff
 70
    21
177
     3
291
     1
 70
    58
 90
        2
176
     0
 90
        2
176
     0
 90
        0
176
     0
 90
        0
176
     0
 40
0.6
176
     0
 40
30.0
176
     0
 62
     7
420
 16777215
176
     0
 90
        1
176
     0
 90
        4
176
     0
 62
     7
176
     0
 62
   257
176
     0
 90
        1
176
     0
 90
        1
176
     0
 40
1.0
176
     0
 90
        9
176
     2
 62
     7
176
     0
 40
1.0
176
     0
 90
        1
176
     0
 90
        6
176
     0
 90
        2
176
     0
 62
     7
176
     0
 90
        5
176
     0
 90
        0
176
     0
 90
        0
176
     0
290
     0
176
     0
 90
        1
176
     0
 40
0.0
176
     0
 90
        0
176
     0
290
     0
176
     0
290
     1
176
     0
290
     1
176
     0
290
     0
176
     0
290
     0
176
     0
290
     0
176
     0
290
     0
176
     0
290
     0
176
     0
290
     0
176
     0
 90
       50
176
     0
 40
0.0
176
     0
 40
1.0
176
     0
 90
        0
176
     0
 62
    18
420
        0
176
     0
 90
       50
176
     0
 90
        3
176
     0
 62
     5
420
      255
176
     0
290
     0
176
     0
 90
       50
176
     0
 90
       50
176
     0
 90
       50
176
     0
290
     0
176
     0
 90
       50
176
     0
 62
   256
176
     0
 40
1.0
176
     0
 90
        2
176
     0
  1
strokes_ogs.tif
176
     0
290
     0
176
     0
 40
1.0
176
     0
 40
1.0
176
     0
  0
VISUALSTYLE
  5
33
102
{ACAD_REACTORS
330
29
102
}
330
29
100
AcDbVisualStyle
  2
Realistic
 70
     8
177
     3
291
     0
 70
    58
 90
        2
176
     1
 90
        3
176
     1
 90
        0
176
     1
 90
        2
176
     1
 40
0.6
176
     1
 40
30.0
176
     1
 62
     7
420
 16777215
176
     1
 90
        0
176
     1
 90
        0
176
     1
 62
     7
176
     1
 62
   257
176
     1
 90
        1
176
     1
 90
        1
176
     1
 40
1.0
176
     1
 90
        8
176
     1
 62
   257
176
     1
 40
1.0
176
     1
 90
        1
176
     1
 90
        6
176
     1
 90
        2
176
     1
 62
     7
176
     1
 90
        3
176
     1
 90
        0
176
     1
 90
        0
176
     1
290
     0
176
     1
 90
       13
176
     1
 40
0.0
176
     1
 90
        0
176
     1
290
     0
176
     1
290
     1
176
     1
290
     1
176
     1
290
     0
176
     1
290
     0
176
     1
290
     0
176
     1
290
     0
176
     1
290
     0
176
     1
290
     0
176
     1
 90
       50
176
     1
 40
0.0
176
     1
 40
1.0
176
     1
 90
        0
176
     1
 62
    18
420
        0
176
     1
 90
       50
176
     1
 90
        3
176
     1
 62
     5
420
      255
176
     1
290
     0
176
     1
 90
       50
176
     1
 90
       50
176
     1
 90
       50
176
     1
290
     0
176
     1
 90
       50
176
     1
 62
   256
176
     0
 40
1.0
176
     0
 90
        2
176
     1
  1
strokes_ogs.tif
176
     1
290
     0
176
     1
 40
1.0
176
     1
 40
1.0
176
     1
  0
VISUALSTYLE
  5
3E
102
{ACAD_REACTORS
330
29
102
}
330
29
100
AcDbVisualStyle
  2
Shaded
 70
    27
177
     3
291
     0
 70
    58
 90
        2
176
     1
 90
        2
176
     1
 90
        1
176
     1
 90
        2
176
     1
 40
0.6
176
     1
 40
30.0
176
     1
 62
     7
420
 16777215
176
     1
 90
        0
176
     1
 90
        4
176
     1
 62
     7
176
     1
 62
   257
176
     1
 90
        1
176
     1
 90
        1
176
     1
 40
1.0
176
     1
 90
        8
176
     1
 62
   257
176
     1
 40
1.0
176
     1
 90
        1
176
     1
 90
        6
176
     1
 90
        2
176
     1
 62
     8
420
  7895160
176
     1
 90
        3
176
     1
 90
        0
176
     1
 90
        0
176
     1
290
     0
176
     1
 90
        5
176
     1
 40
0.0
176
     1
 90
        0
176
     1
290
     0
176
     1
290
     1
176
     1
290
     1
176
     1
290
     0
176
     1
290
     0
176
     1
290
     0
176
     1
290
     0
176
     1
290
     0
176
     1
290
     0
176
     1
 90
       50
176
     1
 40
0.0
176
     1
 40
1.0
176
     1
 90
        0
176
     1
 62
    18
420
        0
176
     1
 90
       50
176
     1
 90
        3
176
     1
 62
     5
420
      255
176
     1
290
     0
176
     1
 90
       50
176
     1
 90
       50
176
     1
 90
       50
176
     1
290
     0
176
     1
 90
       50
176
     1
 62
   256
176
     0
 40
1.0
176
     0
 90
        2
176
     1
  1
strokes_ogs.tif
176
     1
290
     0
176
     1
 40
1.0
176
     1
 40
1.0
176
     1
  0
VISUALSTYLE
  5
3D
102
{ACAD_REACTORS
330
29
102
}
330
29
100
AcDbVisualStyle
  2
Shaded with edges
 70
    26
177
     3
291
     0
 70
    58
 90
        2
176
     1
 90
        2
176
     1
 90
        1
176
     1
 90
        2
176
     1
 40
0.6
176
     1
 40
30.0
176
     1
 62
     7
420
 16777215
176
     1
 90
        1
176
     1
 90
       10
176
     1
 62
     7
176
     1
 62
   257
176
     1
 90
        2
176
     1
 90
        1
176
     1
 40
1.0
176
     1
 90
        8
176
     1
 62
   257
176
     1
 40
1.0
176
     1
 90
        1
176
     1
 90
        6
176
     1
 90
        2
176
     1
 62
     7
176
     1
 90
        3
176
     1
 90
        0
176
     1
 90
        0
176
     1
290
     0
176
     1
 90
        5
176
     1
 40
0.0
176
     1
 90
        0
176
     1
290
     0
176
     1
290
     1
176
     1
290
     1
176
     1
290
     0
176
     1
290
     0
176
     1
290
     0
176
     1
290
     0
176
     1
290
     0
176
     1
290
     0
176
     1
 90
       50
176
     1
 40
0.0
176
     1
 40
1.0
176
     1
 90
        0
176
     1
 62
    18
420
        0
176
     1
 90
       50
176
     1
 90
        3
176
     1
 62
     5
420
      255
176
     1
290
     0
176
     1
 90
       50
176
     1
 90
       50
176
     1
 90
       50
176
     1
290
     0
176
     1
 90
       50
176
     1
 62
   256
176
     0
 40
1.0
176
     0
 90
        2
176
     1
  1
strokes_ogs.tif
176
     1
290
     0
176
     1
 40
1.0
176
     1
 40
1.0
176
     1
  0
VISUALSTYLE
  5
3A
102
{ACAD_REACTORS
330
29
102
}
330
29
100
AcDbVisualStyle
  2
Shades of Gray
 70
    23
177
     3
291
     0
 70
    58
 90
        2
176
     1
 90
        2
176
     1
 90
        3
176
     1
 90
        0
176
     1
 40
0.6
176
     1
 40
30.0
176
     1
 62
     7
420
 16777215
176
     1
 90
        2
176
     1
 90
        2
176
     1
 62
     7
176
     1
 62
     7
176
     1
 90
        1
176
     1
 90
        1
176
     1
 40
40.0
176
     1
 90
        8
176
     1
 62
     7
176
     1
 40
1.0
176
     1
 90
        1
176
     1
 90
        6
176
     1
 90
        2
176
     1
 62
     7
176
     1
 90
        3
176
     1
 90
        0
176
     1
 90
        0
176
     1
290
     0
176
     1
 90
        1
176
     1
 40
0.0
176
     1
 90
        0
176
     1
290
     0
176
     1
290
     1
176
     1
290
     1
176
     1
290
     0
176
     1
290
     0
176
     1
290
     0
176
     1
290
     0
176
     1
290
     0
176
     1
290
     0
176
     1
 90
       50
176
     1
 40
0.0
176
     1
 40
1.0
176
     1
 90
        0
176
     1
 62
    18
420
        0
176
     1
 90
       50
176
     1
 90
        3
176
     1
 62
     5
420
      255
176
     1
290
     0
176
     1
 90
       50
176
     1
 90
       50
176
     1
 90
       50
176
     1
290
     0
176
     1
 90
       50
176
     1
 62
   256
176
     0
 40
1.0
176
     0
 90
        2
176
     1
  1
strokes_ogs.tif
176
     1
290
     0
176
     1
 40
1.0
176
     1
 40
1.0
176
     1
  0
VISUALSTYLE
  5
3B
102
{ACAD_REACTORS
330
29
102
}
330
29
100
AcDbVisualStyle
  2
Sketchy
 70
    24
177
     3
291
     0
 70
    58
 90
        1
176
     1
 90
        2
176
     1
 90
        2
176
     1
 90
        0
176
     1
 40
0.6
176
     1
 40
30.0
176
     1
 62
     7
420
 16777215
176
     1
 90
        2
176
     1
 90
        2
176
     1
 62
     7
176
     1
 62
     7
176
     1
 90
        1
176
     1
 90
        1
176
     1
 40
40.0
176
     1
 90
       11
176
     1
 62
     7
176
     1
 40
1.0
176
     1
 90
        1
176
     1
 90
        6
176
     1
 90
        2
176
     1
 62
     7
176
     1
 90
        6
176
     1
 90
        0
176
     1
 90
        0
176
     1
290
     0
176
     1
 90
        1
176
     1
 40
0.0
176
     1
 90
        0
176
     1
290
     0
176
     1
290
     1
176
     1
290
     1
176
     1
290
     0
176
     1
290
     0
176
     1
290
     0
176
     1
290
     0
176
     1
290
     0
176
     1
290
     0
176
     1
 90
       50
176
     1
 40
0.0
176
     1
 40
1.0
176
     1
 90
        0
176
     1
 62
    18
420
        0
176
     1
 90
       50
176
     1
 90
        3
176
     1
 62
     5
420
      255
176
     1
290
     0
176
     1
 90
       50
176
     1
 90
       50
176
     1
 90
       50
176
     1
290
     0
176
     1
 90
       50
176
     1
 62
   256
176
     0
 40
1.0
176
     0
 90
        2
176
     1
  1
strokes_ogs.tif
176
     1
290
     0
176
     1
 40
1.0
176
     1
 40
1.0
176
     1
  0
VISUALSTYLE
  5
36
102
{ACAD_REACTORS
330
29
102
}
330
29
100
AcDbVisualStyle
  2
Thicken
 70
    13
177
     3
291
     1
 70
    58
 90
        2
176
     1
 90
        2
176
     1
 90
        0
176
     1
 90
        0
176
     1
 40
0.6
176
     1
 40
30.0
176
     1
 62
     7
420
 16777215
176
     1
 90
        1
176
     1
 90
        4
176
     1
 62
     7
176
     1
 62
   257
176
     1
 90
        1
176
     1
 90
        1
176
     1
 40
1.0
176
     1
 90
       12
176
     1
 62
     7
176
     1
 40
1.0
176
     1
 90
        1
176
     1
 90
        6
176
     1
 90
        2
176
     1
 62
     7
176
     1
 90
        5
176
     1
 90
        0
176
     1
 90
        0
176
     1
290
     0
176
     1
 90
        1
176
     1
 40
0.0
176
     1
 90
        0
176
     1
290
     0
176
     1
290
     1
176
     1
290
     1
176
     1
290
     0
176
     1
290
     0
176
     1
290
     0
176
     1
290
     0
176
     1
290
     0
176
     1
290
     0
176
     1
 90
       50
176
     1
 40
0.0
176
     1
 40
1.0
176
     1
 90
        0
176
     1
 62
    18
420
        0
176
     1
 90
       50
176
     1
 90
        3
176
     1
 62
     5
420
      255
176
     1
290
     0
176
     1
 90
       50
176
     1
 90
       50
176
     1
 90
       50
176
     1
290
     0
176
     1
 90
       50
176
     1
 62
   256
176
     0
 40
1.0
176
     0
 90
        2
176
     1
  1
strokes_ogs.tif
176
     1
290
     0
176
     1
 40
1.0
176
     1
 40
1.0
176
     1
  0
VISUALSTYLE
  5
30
102
{ACAD_REACTORS
330
29
102
}
330
29
100
AcDbVisualStyle
  2
Wireframe
 70
     5
177
     3
291
     0
 70
    58
 90
        0
176
     1
 90
        2
176
     1
 90
        0
176
     1
 90
        0
176
     1
 40
0.6
176
     1
 40
30.0
176
     1
 62
     7
420
 16777215
176
     1
 90
        1
176
     1
 90
        4
176
     1
 62
     7
176
     1
 62
   257
176
     1
 90
        1
176
     1
 90
        1
176
     1
 40
1.0
176
     1
 90
        0
176
     1
 62
   257
176
     1
 40
1.0
176
     1
 90
        1
176
     1
 90
        6
176
     1
 90
        2
176
     1
 62
     7
176
     1
 90
        3
176
     1
 90
        0
176
     1
 90
        0
176
     1
290
     0
176
     1
 90
        1
176
     1
 40
0.0
176
     1
 90
        0
176
     1
290
     0
176
     1
290
     1
176
     1
290
     1
176
     1
290
     0
176
     1
290
     0
176
     1
290
     0
176
     1
290
     0
176
     1
290
     0
176
     1
290
     0
176
     1
 90
       50
176
     1
 40
0.0
176
     1
 40
1.0
176
     1
 90
        0
176
     1
 62
    18
420
        0
176
     1
 90
       50
176
     1
 90
        3
176
     1
 62
     5
420
      255
176
     1
290
     0
176
     1
 90
       50
176
     1
 90
       50
176
     1
 90
       50
176
     1
290
     0
176
     1
 90
       50
176
     1
 62
   256
176
     0
 40
1.0
176
     0
 90
        2
176
     1
  1
strokes_ogs.tif
176
     1
290
     0
176
     1
 40
1.0
176
     1
 40
1.0
176
     1
  0
VISUALSTYLE
  5
3C
102
{ACAD_REACTORS
330
29
102
}
330
29
100
AcDbVisualStyle
  2
X-Ray
 70
    25
177
     3
291
     0
 70
    58
 90
        2
176
     1
 90
        2
176
     1
 90
        1
176
     1
 90
        1
176
     1
 40
0.5
176
     1
 40
30.0
176
     1
 62
     7
420
 16777215
176
     1
 90
        1
176
     1
 90
        0
176
     1
 62
     7
176
     1
 62
   257
176
     1
 90
        1
176
     1
 90
        1
176
     1
 40
1.0
176
     1
 90
        8
176
     1
 62
     7
176
     1
 40
1.0
176
     1
 90
        1
176
     1
 90
        6
176
     1
 90
        2
176
     1
 62
     7
176
     1
 90
        3
176
     1
 90
        0
176
     1
 90
        0
176
     1
290
     0
176
     1
 90
       13
176
     1
 40
0.0
176
     1
 90
        0
176
     1
290
     0
176
     1
290
     1
176
     1
290
     1
176
     1
290
     0
176
     1
290
     0
176
     1
290
     0
176
     1
290
     0
176
     1
290
     0
176
     1
290
     0
176
     1
 90
       50
176
     1
 40
0.0
176
     1
 40
1.0
176
     1
 90
        0
176
     1
 62
    18
420
        0
176
     1
 90
       50
176
     1
 90
        3
176
     1
 62
     5
420
      255
176
     1
290
     0
176
     1
 90
       50
176
     1
 90
       50
176
     1
 90
       50
176
     1
290
     0
176
     1
 90
       50
176
     1
 62
   256
176
     0
 40
1.0
176
     0
 90
        2
176
     1
  1
strokes_ogs.tif
176
     1
290
     0
176
     1
 40
1.0
176
     1
 40
1.0
176
     1
  0
DICTIONARYVAR
  5
81
102
{ACAD_REACTORS
330
7C
102
}
330
7C
100
DictionaryVariables
280
     0
  1
1:1
  0
DICTIONARYVAR
  5
7E
102
{ACAD_REACTORS
330
7C
102
}
330
7C
100
DictionaryVariables
280
     0
  1
STANDARD
  0
DICTIONARYVAR
  5
7D
102
{ACAD_REACTORS
330
7C
102
}
330
7C
100
DictionaryVariables
280
     0
  1
STANDARD
  0
DICTIONARYVAR
  5
7F
102
{ACAD_REACTORS
330
7C
102
}
330
7C
100
DictionaryVariables
280
     0
  1
Imperial24
  0
DICTIONARYVAR
  5
80
102
{ACAD_REACTORS
330
7C
102
}
330
7C
100
DictionaryVariables
280
     0
  1
Imperial24
  0
XRECORD
  5
28F
102
{ACAD_REACTORS
330
28B
102
}
330
28B
100
AcDbXrecord
280
     1
  1
BUILDING_ID
  1
Progetto per messa in tavola DXF, DWG
  1
FLOOR_ID
  1
694395
  0
XRECORD
  5
28D
102
{ACAD_REACTORS
330
28B
102
}
330
28B
100
AcDbXrecord
280
     1
  1
-2001160
  1
Apparecchi idraulici
  0
XRECORD
  5
28E
102
{ACAD_REACTORS
330
28B
102
}
330
28B
100
AcDbXrecord
280
     1
  1
790271
  1
Body
  1
923261
  1
Servomotor
  0
XRECORD
  5
28C
102
{ACAD_REACTORS
330
28B
102
}
330
28B
100
AcDbXrecord
280
     1
  1
859151
  1
Automatic flow rate regulator valve_Caleffi_121 DN15 : 1/2''
  0
DICTIONARY
  5
1A
330
19
100
AcDbDictionary
280
     1
281
     1
  3
BUMPTILE
360
1C
  3
DIFFUSETILE
360
1B
  3
OPACITYTILE
360
1F
  3
REFLECTIONTILE
360
1E
  3
REFRACTIONTILE
360
20
  3
SPECULARTILE
360
1D
  0
DICTIONARY
  5
12
330
11
100
AcDbDictionary
280
     1
281
     1
  3
BUMPTILE
360
14
  3
DIFFUSETILE
360
13
  3
OPACITYTILE
360
17
  3
REFLECTIONTILE
360
16
  3
REFRACTIONTILE
360
18
  3
SPECULARTILE
360
15
  0
DICTIONARY
  5
22
330
21
100
AcDbDictionary
280
     1
281
     1
  3
BUMPTILE
360
24
  3
DIFFUSETILE
360
23
  3
OPACITYTILE
360
27
  3
REFLECTIONTILE
360
26
  3
REFRACTIONTILE
360
28
  3
SPECULARTILE
360
25
  0
DICTIONARY
  5
292
330
65
100
AcDbDictionary
280
     1
281
     1
  3
ACAD_ROUNDTRIP_2008_TABLESTYLE_CELLSTYLEMAP
360
293
  0
XRECORD
  5
1C
102
{ACAD_REACTORS
330
1A
102
}
330
1A
100
AcDbXrecord
280
     1
270
     1
271
     1
  0
XRECORD
  5
1B
102
{ACAD_REACTORS
330
1A
102
}
330
1A
100
AcDbXrecord
280
     1
270
     1
271
     1
  0
XRECORD
  5
1F
102
{ACAD_REACTORS
330
1A
102
}
330
1A
100
AcDbXrecord
280
     1
270
     1
271
     1
  0
XRECORD
  5
1E
102
{ACAD_REACTORS
330
1A
102
}
330
1A
100
AcDbXrecord
280
     1
270
     1
271
     1
  0
XRECORD
  5
20
102
{ACAD_REACTORS
330
1A
102
}
330
1A
100
AcDbXrecord
280
     1
270
     1
271
     1
  0
XRECORD
  5
1D
102
{ACAD_REACTORS
330
1A
102
}
330
1A
100
AcDbXrecord
280
     1
270
     1
271
     1
  0
XRECORD
  5
14
102
{ACAD_REACTORS
330
12
102
}
330
12
100
AcDbXrecord
280
     1
270
     1
271
     1
  0
XRECORD
  5
13
102
{ACAD_REACTORS
330
12
102
}
330
12
100
AcDbXrecord
280
     1
270
     1
271
     1
  0
XRECORD
  5
17
102
{ACAD_REACTORS
330
12
102
}
330
12
100
AcDbXrecord
280
     1
270
     1
271
     1
  0
XRECORD
  5
16
102
{ACAD_REACTORS
330
12
102
}
330
12
100
AcDbXrecord
280
     1
270
     1
271
     1
  0
XRECORD
  5
18
102
{ACAD_REACTORS
330
12
102
}
330
12
100
AcDbXrecord
280
     1
270
     1
271
     1
  0
XRECORD
  5
15
102
{ACAD_REACTORS
330
12
102
}
330
12
100
AcDbXrecord
280
     1
270
     1
271
     1
  0
XRECORD
  5
24
102
{ACAD_REACTORS
330
22
102
}
330
22
100
AcDbXrecord
280
     1
270
     1
271
     1
  0
XRECORD
  5
23
102
{ACAD_REACTORS
330
22
102
}
330
22
100
AcDbXrecord
280
     1
270
     1
271
     1
  0
XRECORD
  5
27
102
{ACAD_REACTORS
330
22
102
}
330
22
100
AcDbXrecord
280
     1
270
     1
271
     1
  0
XRECORD
  5
26
102
{ACAD_REACTORS
330
22
102
}
330
22
100
AcDbXrecord
280
     1
270
     1
271
     1
  0
XRECORD
  5
28
102
{ACAD_REACTORS
330
22
102
}
330
22
100
AcDbXrecord
280
     1
270
     1
271
     1
  0
XRECORD
  5
25
102
{ACAD_REACTORS
330
22
102
}
330
22
100
AcDbXrecord
280
     1
270
     1
271
     1
  0
CELLSTYLEMAP
  5
293
102
{ACAD_REACTORS
330
292
102
}
330
292
100
AcDbCellStyleMap
 90
        3
300
CELLSTYLE
  1
TABLEFORMAT_BEGIN
 90
        5
170
     1
 91
        0
 92
    32768
 62
   257
 93
        1
300
CONTENTFORMAT
  1
CONTENTFORMAT_BEGIN
 90
        0
 91
        0
 92
      512
 93
        0
300

 40
0.0
140
1.0
 94
        5
 62
     0
340
55
144
0.25
309
CONTENTFORMAT_END
171
     0
 94
        0
309
TABLEFORMAT_END
  1
CELLSTYLE_BEGIN
 90
        1
 91
        1
300
_TITLE
309
CELLSTYLE_END
300
CELLSTYLE
  1
TABLEFORMAT_BEGIN
 90
        5
170
     1
 91
        0
 92
        0
 62
   257
 93
        1
300
CONTENTFORMAT
  1
CONTENTFORMAT_BEGIN
 90
        0
 91
        0
 92
      512
 93
        0
300

 40
0.0
140
1.0
 94
        5
 62
     0
340
55
144
0.18
309
CONTENTFORMAT_END
171
     0
 94
        0
309
TABLEFORMAT_END
  1
CELLSTYLE_BEGIN
 90
        2
 91
        1
300
_HEADER
309
CELLSTYLE_END
300
CELLSTYLE
  1
TABLEFORMAT_BEGIN
 90
        5
170
     1
 91
        0
 92
        0
 62
   257
 93
        1
300
CONTENTFORMAT
  1
CONTENTFORMAT_BEGIN
 90
        0
 91
        0
 92
      512
 93
        0
300

 40
0.0
140
1.0
 94
        2
 62
     0
340
55
144
0.18
309
CONTENTFORMAT_END
171
     0
 94
        0
309
TABLEFORMAT_END
  1
CELLSTYLE_BEGIN
 90
        3
 91
        2
300
_DATA
309
CELLSTYLE_END
  0
ENDSEC
  0
EOF
