  0
SECTION
  2
HEADER
  9
$ACADVER
  1
AC1027
  9
$ACADMAINTVER
 70
    20
  9
$DWGCODEPAGE
  3
ANSI_1252
  9
$REQUIREDVERSIONS
160
                 0
  9
$INSBASE
 10
0.0
 20
0.0
 30
0.0
  9
$EXTMIN
 10
740.6664074431597
 20
1759.805988811806
 30
-0.00000001
  9
$EXTMAX
 10
1137.772993861341
 20
2121.110000010071
 30
0.00000001
  9
$LIMMIN
 10
0.0
 20
0.0
  9
$LIMMAX
 10
12.0
 20
9.0
  9
$ORTHOMODE
 70
     0
  9
$REGENMODE
 70
     1
  9
$FILLMODE
 70
     1
  9
$QTEXTMODE
 70
     0
  9
$MIRRTEXT
 70
     0
  9
$LTSCALE
 40
1.0
  9
$ATTMODE
 70
     1
  9
$TEXTSIZE
 40
0.2
  9
$TRACEWID
 40
0.05
  9
$TEXTSTYLE
  7
Standard
  9
$CLAYER
  8
0
  9
$CELTYPE
  6
ByLayer
  9
$CECOLOR
 62
   256
  9
$CELTSCALE
 40
1.0
  9
$DISPSILH
 70
     0
  9
$DIMSCALE
 40
1.0
  9
$DIMASZ
 40
0.18
  9
$DIMEXO
 40
0.0625
  9
$DIMDLI
 40
0.38
  9
$DIMRND
 40
0.0
  9
$DIMDLE
 40
0.0
  9
$DIMEXE
 40
0.18
  9
$DIMTP
 40
0.0
  9
$DIMTM
 40
0.0
  9
$DIMTXT
 40
0.18
  9
$DIMCEN
 40
0.09
  9
$DIMTSZ
 40
0.0
  9
$DIMTOL
 70
     0
  9
$DIMLIM
 70
     0
  9
$DIMTIH
 70
     1
  9
$DIMTOH
 70
     1
  9
$DIMSE1
 70
     0
  9
$DIMSE2
 70
     0
  9
$DIMTAD
 70
     0
  9
$DIMZIN
 70
     0
  9
$DIMBLK
  1

  9
$DIMASO
 70
     1
  9
$DIMSHO
 70
     1
  9
$DIMPOST
  1

  9
$DIMAPOST
  1

  9
$DIMALT
 70
     0
  9
$DIMALTD
 70
     2
  9
$DIMALTF
 40
25.4
  9
$DIMLFAC
 40
1.0
  9
$DIMTOFL
 70
     0
  9
$DIMTVP
 40
0.0
  9
$DIMTIX
 70
     0
  9
$DIMSOXD
 70
     0
  9
$DIMSAH
 70
     0
  9
$DIMBLK1
  1

  9
$DIMBLK2
  1

  9
$DIMSTYLE
  2
Standard
  9
$DIMCLRD
 70
     0
  9
$DIMCLRE
 70
     0
  9
$DIMCLRT
 70
     0
  9
$DIMTFAC
 40
1.0
  9
$DIMGAP
 40
0.09
  9
$DIMJUST
 70
     0
  9
$DIMSD1
 70
     0
  9
$DIMSD2
 70
     0
  9
$DIMTOLJ
 70
     1
  9
$DIMTZIN
 70
     0
  9
$DIMALTZ
 70
     0
  9
$DIMALTTZ
 70
     0
  9
$DIMUPT
 70
     0
  9
$DIMDEC
 70
     4
  9
$DIMTDEC
 70
     4
  9
$DIMALTU
 70
     2
  9
$DIMALTTD
 70
     2
  9
$DIMTXSTY
  7
Standard
  9
$DIMAUNIT
 70
     0
  9
$DIMADEC
 70
     0
  9
$DIMALTRND
 40
0.0
  9
$DIMAZIN
 70
     0
  9
$DIMDSEP
 70
    46
  9
$DIMATFIT
 70
     3
  9
$DIMFRAC
 70
     0
  9
$DIMLDRBLK
  1

  9
$DIMLUNIT
 70
     2
  9
$DIMLWD
 70
    -2
  9
$DIMLWE
 70
    -2
  9
$DIMTMOVE
 70
     0
  9
$DIMFXL
 40
1.0
  9
$DIMFXLON
 70
     0
  9
$DIMJOGANG
 40
0.7853981633974483
  9
$DIMTFILL
 70
     0
  9
$DIMTFILLCLR
 70
     0
  9
$DIMARCSYM
 70
     0
  9
$DIMLTYPE
  6

  9
$DIMLTEX1
  6

  9
$DIMLTEX2
  6

  9
$DIMTXTDIRECTION
 70
     0
  9
$LUNITS
 70
     2
  9
$LUPREC
 70
     4
  9
$SKETCHINC
 40
0.1
  9
$FILLETRAD
 40
0.0
  9
$AUNITS
 70
     0
  9
$AUPREC
 70
     0
  9
$MENU
  1
.
  9
$ELEVATION
 40
0.0
  9
$PELEVATION
 40
0.0
  9
$THICKNESS
 40
0.0
  9
$LIMCHECK
 70
     0
  9
$CHAMFERA
 40
0.0
  9
$CHAMFERB
 40
0.0
  9
$CHAMFERC
 40
0.0
  9
$CHAMFERD
 40
0.0
  9
$SKPOLY
 70
     0
  9
$TDCREATE
 40
2457562.359420822
  9
$TDUCREATE
 40
2457562.276087489
  9
$TDUPDATE
 40
2457562.359420822
  9
$TDUUPDATE
 40
2457562.276087489
  9
$TDINDWG
 40
0.0000074537
  9
$TDUSRTIMER
 40
0.0000074537
  9
$USRTIMER
 70
     1
  9
$ANGBASE
 50
0.0
  9
$ANGDIR
 70
     0
  9
$PDMODE
 70
     0
  9
$PDSIZE
 40
0.0
  9
$PLINEWID
 40
0.0
  9
$SPLFRAME
 70
     0
  9
$SPLINETYPE
 70
     6
  9
$SPLINESEGS
 70
     8
  9
$HANDSEED
  5
25F
  9
$SURFTAB1
 70
     6
  9
$SURFTAB2
 70
     6
  9
$SURFTYPE
 70
     6
  9
$SURFU
 70
     6
  9
$SURFV
 70
     6
  9
$UCSBASE
  2

  9
$UCSNAME
  2

  9
$UCSORG
 10
0.0
 20
0.0
 30
0.0
  9
$UCSXDIR
 10
1.0
 20
0.0
 30
0.0
  9
$UCSYDIR
 10
0.0
 20
1.0
 30
0.0
  9
$UCSORTHOREF
  2

  9
$UCSORTHOVIEW
 70
     0
  9
$UCSORGTOP
 10
0.0
 20
0.0
 30
0.0
  9
$UCSORGBOTTOM
 10
0.0
 20
0.0
 30
0.0
  9
$UCSORGLEFT
 10
0.0
 20
0.0
 30
0.0
  9
$UCSORGRIGHT
 10
0.0
 20
0.0
 30
0.0
  9
$UCSORGFRONT
 10
0.0
 20
0.0
 30
0.0
  9
$UCSORGBACK
 10
0.0
 20
0.0
 30
0.0
  9
$PUCSBASE
  2

  9
$PUCSNAME
  2

  9
$PUCSORG
 10
0.0
 20
0.0
 30
0.0
  9
$PUCSXDIR
 10
1.0
 20
0.0
 30
0.0
  9
$PUCSYDIR
 10
0.0
 20
1.0
 30
0.0
  9
$PUCSORTHOREF
  2

  9
$PUCSORTHOVIEW
 70
     0
  9
$PUCSORGTOP
 10
0.0
 20
0.0
 30
0.0
  9
$PUCSORGBOTTOM
 10
0.0
 20
0.0
 30
0.0
  9
$PUCSORGLEFT
 10
0.0
 20
0.0
 30
0.0
  9
$PUCSORGRIGHT
 10
0.0
 20
0.0
 30
0.0
  9
$PUCSORGFRONT
 10
0.0
 20
0.0
 30
0.0
  9
$PUCSORGBACK
 10
0.0
 20
0.0
 30
0.0
  9
$USERI1
 70
     0
  9
$USERI2
 70
     0
  9
$USERI3
 70
     0
  9
$USERI4
 70
     0
  9
$USERI5
 70
     0
  9
$USERR1
 40
0.0
  9
$USERR2
 40
0.0
  9
$USERR3
 40
0.0
  9
$USERR4
 40
0.0
  9
$USERR5
 40
0.0
  9
$WORLDVIEW
 70
     1
  9
$SHADEDGE
 70
     3
  9
$SHADEDIF
 70
    70
  9
$TILEMODE
 70
     1
  9
$MAXACTVP
 70
    64
  9
$PINSBASE
 10
0.0
 20
0.0
 30
0.0
  9
$PLIMCHECK
 70
     0
  9
$PEXTMIN
 10
1.000000000000000E+20
 20
1.000000000000000E+20
 30
1.000000000000000E+20
  9
$PEXTMAX
 10
-1.000000000000000E+20
 20
-1.000000000000000E+20
 30
-1.000000000000000E+20
  9
$PLIMMIN
 10
0.0
 20
0.0
  9
$PLIMMAX
 10
12.0
 20
9.0
  9
$UNITMODE
 70
     0
  9
$VISRETAIN
 70
     1
  9
$PLINEGEN
 70
     0
  9
$PSLTSCALE
 70
     1
  9
$TREEDEPTH
 70
  3020
  9
$CMLSTYLE
  2
Standard
  9
$CMLJUST
 70
     0
  9
$CMLSCALE
 40
1.0
  9
$PROXYGRAPHICS
 70
     1
  9
$MEASUREMENT
 70
     1
  9
$CELWEIGHT
370
    -1
  9
$ENDCAPS
280
     0
  9
$JOINSTYLE
280
     0
  9
$LWDISPLAY
290
     0
  9
$INSUNITS
 70
     4
  9
$HYPERLINKBASE
  1

  9
$STYLESHEET
  1

  9
$XEDIT
290
     1
  9
$CEPSNTYPE
380
     0
  9
$PSTYLEMODE
290
     1
  9
$FINGERPRINTGUID
  2
{E8B397E1-A6F3-4685-A82C-A7AF10AC26FC}
  9
$VERSIONGUID
  2
{BC83A54D-5828-4E0B-8433-E0EAC6125F8F}
  9
$EXTNAMES
290
     1
  9
$PSVPSCALE
 40
0.0
  9
$OLESTARTUP
290
     0
  9
$SORTENTS
280
   127
  9
$INDEXCTL
280
     0
  9
$HIDETEXT
280
     1
  9
$XCLIPFRAME
280
     2
  9
$HALOGAP
280
     0
  9
$OBSCOLOR
 70
   257
  9
$OBSLTYPE
280
     0
  9
$INTERSECTIONDISPLAY
280
     0
  9
$INTERSECTIONCOLOR
 70
   257
  9
$DIMASSOC
280
     2
  9
$PROJECTNAME
  1

  9
$CAMERADISPLAY
290
     0
  9
$LENSLENGTH
 40
50.0
  9
$CAMERAHEIGHT
 40
0.0
  9
$STEPSPERSEC
 40
2.0
  9
$STEPSIZE
 40
6.0
  9
$3DDWFPREC
 40
2.0
  9
$PSOLWIDTH
 40
0.25
  9
$PSOLHEIGHT
 40
4.0
  9
$LOFTANG1
 40
1.570796326794896
  9
$LOFTANG2
 40
1.570796326794896
  9
$LOFTMAG1
 40
0.0
  9
$LOFTMAG2
 40
0.0
  9
$LOFTPARAM
 70
     7
  9
$LOFTNORMALS
280
     1
  9
$LATITUDE
 40
37.795
  9
$LONGITUDE
 40
-122.394
  9
$NORTHDIRECTION
 40
0.0
  9
$TIMEZONE
 70
 -8000
  9
$LIGHTGLYPHDISPLAY
280
     1
  9
$TILEMODELIGHTSYNCH
280
     1
  9
$CMATERIAL
347
11
  9
$SOLIDHIST
280
     0
  9
$SHOWHIST
280
     1
  9
$DWFFRAME
280
     2
  9
$DGNFRAME
280
     0
  9
$REALWORLDSCALE
290
     1
  9
$INTERFERECOLOR
 62
     1
  9
$INTERFEREOBJVS
345
33
  9
$INTERFEREVPVS
346
30
  9
$CSHADOW
280
     0
  9
$SHADOWPLANELOCATION
 40
0.0
  0
ENDSEC
  0
SECTION
  2
CLASSES
  0
CLASS
  1
ACDBDICTIONARYWDFLT
  2
AcDbDictionaryWithDefault
  3
ObjectDBX Classes
 90
        0
 91
        1
280
     0
281
     0
  0
CLASS
  1
MATERIAL
  2
AcDbMaterial
  3
ObjectDBX Classes
 90
     1153
 91
        3
280
     0
281
     0
  0
CLASS
  1
VISUALSTYLE
  2
AcDbVisualStyle
  3
ObjectDBX Classes
 90
     4095
 91
       24
280
     0
281
     0
  0
CLASS
  1
SCALE
  2
AcDbScale
  3
ObjectDBX Classes
 90
     1153
 91
       17
280
     0
281
     0
  0
CLASS
  1
TABLESTYLE
  2
AcDbTableStyle
  3
ObjectDBX Classes
 90
     4095
 91
        1
280
     0
281
     0
  0
CLASS
  1
MLEADERSTYLE
  2
AcDbMLeaderStyle
  3
ACDB_MLEADERSTYLE_CLASS
 90
     4095
 91
        1
280
     0
281
     0
  0
CLASS
  1
ACDBSECTIONVIEWSTYLE
  2
AcDbSectionViewStyle
  3
ObjectDBX Classes
 90
     1025
 91
        1
280
     0
281
     0
  0
CLASS
  1
ACDBDETAILVIEWSTYLE
  2
AcDbDetailViewStyle
  3
ObjectDBX Classes
 90
     1025
 91
        1
280
     0
281
     0
  0
CLASS
  1
RASTERVARIABLES
  2
AcDbRasterVariables
  3
ISM
 90
        0
 91
        1
280
     0
281
     0
  0
CLASS
  1
DICTIONARYVAR
  2
AcDbDictionaryVar
  3
ObjectDBX Classes
 90
        0
 91
        5
280
     0
281
     0
  0
CLASS
  1
CELLSTYLEMAP
  2
AcDbCellStyleMap
  3
ObjectDBX Classes
 90
     1152
 91
        2
280
     0
281
     0
  0
CLASS
  1
SORTENTSTABLE
  2
AcDbSortentsTable
  3
ObjectDBX Classes
 90
        0
 91
        1
280
     0
281
     0
  0
ENDSEC
  0
SECTION
  2
TABLES
  0
TABLE
  2
VPORT
  5
8
330
0
100
AcDbSymbolTable
 70
     1
  0
VPORT
  5
57
330
8
100
AcDbSymbolTableRecord
100
AcDbViewportTableRecord
  2
*Active
 70
     0
 10
0.0
 20
0.0
 11
1.0
 21
1.0
 12
939.2197006522506
 22
1940.457994410938
 13
0.0
 23
0.0
 14
1.0
 24
1.0
 15
0.0
 25
0.0
 16
0.0
 26
0.0
 36
1.0
 17
0.0
 27
0.0
 37
0.0
 40
361.3040111982643
 41
1.099092659118779
 42
50.0
 43
0.0
 44
0.0
 50
0.0
 51
0.0
 71
     0
 72
  1000
 73
     1
 74
     1
 75
     0
 76
     0
 77
     0
 78
     0
281
     0
 65
     1
110
0.0
120
0.0
130
0.0
111
1.0
121
0.0
131
0.0
112
0.0
122
1.0
132
0.0
 79
     0
146
0.0
 60
     3
 61
     5
292
     1
282
     1
141
0.0
142
0.0
 63
   250
421
  3355443
  0
ENDTAB
  0
TABLE
  2
LTYPE
  5
5
330
0
100
AcDbSymbolTable
 70
     3
  0
LTYPE
  5
5B
330
5
100
AcDbSymbolTableRecord
100
AcDbLinetypeTableRecord
  2
ByBlock
 70
     0
  3

 72
    65
 73
     0
 40
0.0
  0
LTYPE
  5
5C
330
5
100
AcDbSymbolTableRecord
100
AcDbLinetypeTableRecord
  2
ByLayer
 70
     0
  3

 72
    65
 73
     0
 40
0.0
  0
LTYPE
  5
5D
330
5
100
AcDbSymbolTableRecord
100
AcDbLinetypeTableRecord
  2
Continuous
 70
     0
  3
Solid line
 72
    65
 73
     0
 40
0.0
  0
LTYPE
  5
69
330
5
100
AcDbSymbolTableRecord
100
AcDbLinetypeTableRecord
  2
PHANTOM2
 70
     0
  3
___ _ _ ___ _ _ ___ _ _ ___ _ _
 72
    65
 73
     6
 40
1.25
 49
0.625
 74
     0
 49
-0.125
 74
     0
 49
0.125
 74
     0
 49
-0.125
 74
     0
 49
0.125
 74
     0
 49
-0.125
 74
     0
  0
LTYPE
  5
86
330
5
100
AcDbSymbolTableRecord
100
AcDbLinetypeTableRecord
  2
Nascosto 1_5 mm
 70
     0
  3

 72
    65
 73
     2
 40
2.2
 49
1.5
 74
     0
 49
-0.7000000000000001
 74
     0
  0
ENDTAB
  0
TABLE
  2
LAYER
  5
2
330
0
100
AcDbSymbolTable
 70
     4
  0
LAYER
  5
54
330
2
100
AcDbSymbolTableRecord
100
AcDbLayerTableRecord
  2
0
 70
     0
 62
     7
  6
Continuous
370
    -3
390
F
347
21
348
0
  0
LAYER
  5
85
330
2
100
AcDbSymbolTableRecord
100
AcDbLayerTableRecord
  2
P-SANR-FIXT
 70
     0
 62
     6
  6
Continuous
370
    18
390
F
347
21
348
0
  0
LAYER
  5
88
330
2
100
AcDbSymbolTableRecord
100
AcDbLayerTableRecord
  2
M-PIPE
 70
     0
 62
     3
  6
Continuous
370
    18
390
F
347
21
348
0
  0
ENDTAB
  0
TABLE
  2
STYLE
  5
3
330
0
100
AcDbSymbolTable
 70
     2
  0
STYLE
  5
55
330
3
100
AcDbSymbolTableRecord
100
AcDbTextStyleTableRecord
  2
Standard
 70
     0
 40
0.0
 41
1.0
 50
0.0
 71
     0
 42
0.2
  3
txt
  4

  0
STYLE
  5
5A
330
3
100
AcDbSymbolTableRecord
100
AcDbTextStyleTableRecord
  2
Annotative
 70
     0
 40
0.0
 41
1.0
 50
0.0
 71
     0
 42
0.2
  3
txt
  4

1001
AcadAnnotative
1000
AnnotativeData
1002
{
1070
     1
1070
     1
1002
}
  0
ENDTAB
  0
TABLE
  2
VIEW
  5
6
330
0
100
AcDbSymbolTable
 70
     0
  0
ENDTAB
  0
TABLE
  2
UCS
  5
7
330
0
100
AcDbSymbolTable
 70
     0
  0
ENDTAB
  0
TABLE
  2
APPID
  5
9
330
0
100
AcDbSymbolTable
 70
     3
  0
APPID
  5
56
330
9
100
AcDbSymbolTableRecord
100
AcDbRegAppTableRecord
  2
ACAD
 70
     0
  0
APPID
  5
5E
330
9
100
AcDbSymbolTableRecord
100
AcDbRegAppTableRecord
  2
AcadAnnotative
 70
     0
  0
APPID
  5
79
330
9
100
AcDbSymbolTableRecord
100
AcDbRegAppTableRecord
  2
REVIT
 70
     0
  0
ENDTAB
  0
TABLE
  2
DIMSTYLE
  5
A
330
0
100
AcDbSymbolTable
 70
     2
100
AcDbDimStyleTable
 71
     0
  0
DIMSTYLE
105
58
330
A
100
AcDbSymbolTableRecord
100
AcDbDimStyleTableRecord
  2
Standard
 70
     0
340
55
  0
DIMSTYLE
105
59
330
A
100
AcDbSymbolTableRecord
100
AcDbDimStyleTableRecord
  2
Annotative
 70
     0
340
55
1001
AcadAnnotative
1000
AnnotativeData
1002
{
1070
     1
1070
     1
1002
}
  0
ENDTAB
  0
TABLE
  2
BLOCK_RECORD
  5
1
330
0
100
AcDbSymbolTable
 70
     4
  0
BLOCK_RECORD
  5
71
102
{ACAD_XDICTIONARY
360
25A
102
}
330
1
100
AcDbSymbolTableRecord
100
AcDbBlockTableRecord
  2
*Model_Space
340
74
 70
     0
280
     1
281
     0
  0
BLOCK_RECORD
  5
6D
330
1
100
AcDbSymbolTableRecord
100
AcDbBlockTableRecord
  2
*Paper_Space
340
70
 70
     0
280
     1
281
     0
  0
BLOCK_RECORD
  5
75
330
1
100
AcDbSymbolTableRecord
100
AcDbBlockTableRecord
  2
*Paper_Space0
340
78
 70
     0
280
     1
281
     0
  0
BLOCK_RECORD
  5
87
330
1
100
AcDbSymbolTableRecord
100
AcDbBlockTableRecord
  2
Automatic flow rate regulator valve_Caleffi_121 DN15 - 1_2__-859151-Est - Idraulica
340
0
102
{BLKREFS
331
15F
102
}
 70
     0
280
     1
281
     0
  0
BLOCK_RECORD
  5
160
330
1
100
AcDbSymbolTableRecord
100
AcDbBlockTableRecord
  2
Automatic flow rate regulator valve_Caleffi_121 DN15 - 1_2__-V1-Est - Idraulica
340
0
102
{BLKREFS
331
1B6
102
}
 70
     0
280
     1
281
     0
  0
BLOCK_RECORD
  5
1B7
330
1
100
AcDbSymbolTableRecord
100
AcDbBlockTableRecord
  2
Automatic flow rate regulator valve_Caleffi_121 DN15 - 1_2__-V2-Est - Idraulica
340
0
102
{BLKREFS
331
253
102
}
 70
     0
280
     1
281
     0
  0
ENDTAB
  0
ENDSEC
  0
SECTION
  2
BLOCKS
  0
BLOCK
  5
72
330
71
100
AcDbEntity
  8
0
100
AcDbBlockBegin
  2
*Model_Space
 70
     0
 10
0.0
 20
0.0
 30
0.0
  3
*Model_Space
  1

  0
ENDBLK
  5
73
330
71
100
AcDbEntity
  8
0
100
AcDbBlockEnd
  0
BLOCK
  5
6E
330
6D
100
AcDbEntity
 67
     1
  8
0
100
AcDbBlockBegin
  2
*Paper_Space
 70
     0
 10
0.0
 20
0.0
 30
0.0
  3
*Paper_Space
  1

  0
ENDBLK
  5
6F
330
6D
100
AcDbEntity
 67
     1
  8
0
100
AcDbBlockEnd
  0
BLOCK
  5
76
330
75
100
AcDbEntity
 67
     1
  8
0
100
AcDbBlockBegin
  2
*Paper_Space0
 70
     0
 10
0.0
 20
0.0
 30
0.0
  3
*Paper_Space0
  1

  0
ENDBLK
  5
77
330
75
100
AcDbEntity
 67
     1
  8
0
100
AcDbBlockEnd
  0
BLOCK
  5
15D
330
87
100
AcDbEntity
  8
0
100
AcDbBlockBegin
  2
Automatic flow rate regulator valve_Caleffi_121 DN15 - 1_2__-859151-Est - Idraulica
 70
     0
 10
0.0
 20
0.0
 30
0.0
  3
Automatic flow rate regulator valve_Caleffi_121 DN15 - 1_2__-859151-Est - Idraulica
  1

  0
LINE
  5
89
330
87
100
AcDbEntity
  8
M-PIPE
100
AcDbLine
 10
803.866407443197
 20
2105.025944369272
 30
0.0
 11
803.866407443197
 21
2104.110000000088
 31
0.0
1001
REVIT
1002
{
1070
     3
1000
923261
1002
}
  0
LINE
  5
8A
330
87
100
AcDbEntity
  8
M-PIPE
100
AcDbLine
 10
827.4664074431973
 20
2104.110000000087
 30
0.0
 11
827.4664074431973
 21
2105.025944369272
 31
0.0
1001
REVIT
1002
{
1070
     3
1000
923261
1002
}
  0
LINE
  5
8B
330
87
100
AcDbEntity
  8
M-PIPE
100
AcDbLine
 10
818.4948345679211
 20
2121.110000000071
 30
0.0
 11
791.978330273426
 21
2121.110000000071
 31
0.0
1001
REVIT
1002
{
1070
     3
1000
923261
1002
}
  0
LINE
  5
8C
330
87
100
AcDbEntity
  8
M-PIPE
100
AcDbLine
 10
791.978330273426
 20
2121.110000000071
 30
0.0
 11
791.978330273426
 21
2117.110000000071
 31
0.0
1001
REVIT
1002
{
1070
     3
1000
923261
1002
}
  0
LINE
  5
8D
330
87
100
AcDbEntity
  8
M-PIPE
100
AcDbLine
 10
791.978330273426
 20
2117.110000000071
 30
0.0
 11
812.9689415383028
 21
2117.110000000071
 31
0.0
1001
REVIT
1002
{
1070
     3
1000
923261
1002
}
  0
ELLIPSE
  5
8E
330
87
100
AcDbEntity
  8
M-PIPE
100
AcDbEllipse
 10
812.9689415383028
 20
2113.295207133327
 30
0.0
 11
0.0
 21
3.814792866744028
 31
0.0
210
0.0
220
0.0
230
1.0
 40
0.7071067811865332
 41
4.712388980381943
 42
6.283185307179588
1001
REVIT
1002
{
1070
     3
1000
923261
1002
}
  0
LINE
  5
8F
330
87
100
AcDbEntity
  8
M-PIPE
100
AcDbLine
 10
815.6664074431995
 20
2113.295207133317
 30
0.0
 11
815.6664074431835
 21
2105.025944369271
 31
0.0
1001
REVIT
1002
{
1070
     3
1000
923261
1002
}
  0
LINE
  5
90
330
87
100
AcDbEntity
  8
M-PIPE
100
AcDbLine
 10
815.6664074431835
 20
2105.025944369271
 30
0.0
 11
832.3632407434217
 21
2105.025944369271
 31
0.0
1001
REVIT
1002
{
1070
     3
1000
923261
1002
}
  0
ELLIPSE
  5
91
330
87
100
AcDbEntity
  8
M-PIPE
100
AcDbEllipse
 10
818.4948345679211
 20
2101.110000000071
 30
0.0
 11
0.0
 21
19.9999999999998
 31
0.0
210
0.0
220
0.0
230
1.0
 40
0.7071067811865516
 41
4.909459318332691
 42
6.283185307179565
1001
REVIT
1002
{
1070
     3
1000
923261
1002
}
  0
ELLIPSE
  5
92
330
87
100
AcDbEntity
  8
M-PIPE
100
AcDbEllipse
 10
795.9983787898258
 20
2113.295207133328
 30
0.0
 11
0.0
 21
3.814792866744028
 31
0.0
210
0.0
220
0.0
230
1.0
 40
0.7071067811865034
 41
4.712388980381943
 42
6.283185307179588
1001
REVIT
1002
{
1070
     3
1000
923261
1002
}
  0
LINE
  5
93
330
87
100
AcDbEntity
  8
M-PIPE
100
AcDbLine
 10
775.007767524949
 20
2117.110000000072
 30
0.0
 11
775.0077675249491
 21
2121.110000000072
 31
0.0
1001
REVIT
1002
{
1070
     3
1000
923261
1002
}
  0
LINE
  5
94
330
87
100
AcDbEntity
  8
M-PIPE
100
AcDbLine
 10
798.6958446947064
 20
2105.025944369271
 30
0.0
 11
798.6958446947225
 21
2113.295207133317
 31
0.0
1001
REVIT
1002
{
1070
     3
1000
923261
1002
}
  0
LINE
  5
95
330
87
100
AcDbEntity
  8
M-PIPE
100
AcDbLine
 10
775.0077675249491
 20
2121.110000000072
 30
0.0
 11
791.978330273426
 21
2121.110000000071
 31
0.0
1001
REVIT
1002
{
1070
     3
1000
923261
1002
}
  0
LINE
  5
96
330
87
100
AcDbEntity
  8
M-PIPE
100
AcDbLine
 10
775.007767524949
 20
2117.110000000072
 30
0.0
 11
791.978330273426
 21
2117.110000000071
 31
0.0
1001
REVIT
1002
{
1070
     3
1000
923261
1002
}
  0
LINE
  5
97
330
87
100
AcDbEntity
  8
M-PIPE
100
AcDbLine
 10
798.6958446947064
 20
2105.025944369271
 30
0.0
 11
815.6664074431835
 21
2105.025944369271
 31
0.0
1001
REVIT
1002
{
1070
     3
1000
923261
1002
}
  0
LINE
  5
98
330
87
100
AcDbEntity
  8
M-PIPE
100
AcDbLine
 10
762.1664074431637
 20
2071.110000000057
 30
0.0
 11
770.1664074431637
 21
2071.110000000057
 31
0.0
1001
REVIT
1002
{
1070
     3
1000
923261
1002
}
  0
LINE
  5
99
330
87
100
AcDbEntity
  8
M-PIPE
100
AcDbLine
 10
770.1664074431641
 20
2095.110000000058
 30
0.0
 11
762.1664074431639
 21
2095.110000000058
 31
0.0
1001
REVIT
1002
{
1070
     3
1000
923261
1002
}
  0
LINE
  5
9A
330
87
100
AcDbEntity
  8
M-PIPE
100
AcDbLine
 10
757.1664074431631
 20
2075.110000000057
 30
0.0
 11
762.1664074431638
 21
2075.110000000057
 31
0.0
1001
REVIT
1002
{
1070
     3
1000
923261
1002
}
  0
LINE
  5
9B
330
87
100
AcDbEntity
  8
M-PIPE
100
AcDbLine
 10
770.1664074431637
 20
2075.110000000057
 30
0.0
 11
783.1664074431626
 21
2075.110000000057
 31
0.0
1001
REVIT
1002
{
1070
     3
1000
923261
1002
}
  0
LINE
  5
9C
330
87
100
AcDbEntity
  8
M-PIPE
100
AcDbLine
 10
783.1664074431629
 20
2091.110000000057
 30
0.0
 11
770.1664074431641
 21
2091.110000000057
 31
0.0
1001
REVIT
1002
{
1070
     3
1000
923261
1002
}
  0
LINE
  5
9D
330
87
100
AcDbEntity
  8
M-PIPE
100
AcDbLine
 10
762.1664074431639
 20
2091.110000000057
 30
0.0
 11
757.1664074431635
 21
2091.110000000057
 31
0.0
1001
REVIT
1002
{
1070
     3
1000
923261
1002
}
  0
LINE
  5
9E
330
87
100
AcDbEntity
  8
M-PIPE
100
AcDbLine
 10
828.166407443175
 20
2024.999999999996
 30
0.0
 11
828.166407443175
 21
2041.900000000057
 31
0.0
1001
REVIT
1002
{
1070
     3
1000
923261
1002
}
  0
LINE
  5
9F
330
87
100
AcDbEntity
  8
M-PIPE
100
AcDbLine
 10
803.166407443175
 20
2041.900000000057
 30
0.0
 11
803.166407443175
 21
2024.999999999996
 31
0.0
1001
REVIT
1002
{
1070
     3
1000
923261
1002
}
  0
LINE
  5
A0
330
87
100
AcDbEntity
  8
M-PIPE
100
AcDbLine
 10
857.5182691002149
 20
2033.900000000057
 30
0.0
 11
857.5182691002149
 21
2041.900000000057
 31
0.0
1001
REVIT
1002
{
1070
     3
1000
923261
1002
}
  0
LINE
  5
A1
330
87
100
AcDbEntity
  8
M-PIPE
100
AcDbLine
 10
841.5182691002147
 20
2041.900000000057
 30
0.0
 11
841.5182691002147
 21
2033.900000000057
 31
0.0
1001
REVIT
1002
{
1070
     3
1000
923261
1002
}
  0
LINE
  5
A2
330
87
100
AcDbEntity
  8
M-PIPE
100
AcDbLine
 10
853.5182691002148
 20
2102.110000000057
 30
0.0
 11
853.5182691002148
 21
2112.109999999994
 31
0.0
1001
REVIT
1002
{
1070
     3
1000
923261
1002
}
  0
LINE
  5
A3
330
87
100
AcDbEntity
  8
M-PIPE
100
AcDbLine
 10
845.518269100215
 20
2112.109999999994
 30
0.0
 11
845.518269100215
 21
2102.110000000057
 31
0.0
1001
REVIT
1002
{
1070
     3
1000
923261
1002
}
  0
LINE
  5
A4
330
87
100
AcDbEntity
  8
M-PIPE
100
AcDbLine
 10
857.5182691002149
 20
2112.109999999994
 30
0.0
 11
857.5182691002149
 21
2117.110000000058
 31
0.0
1001
REVIT
1002
{
1070
     3
1000
923261
1002
}
  0
LINE
  5
A5
330
87
100
AcDbEntity
  8
M-PIPE
100
AcDbLine
 10
841.5182691002149
 20
2117.110000000058
 30
0.0
 11
841.5182691002149
 21
2112.109999999994
 31
0.0
1001
REVIT
1002
{
1070
     3
1000
923261
1002
}
  0
LINE
  5
A6
330
87
100
AcDbEntity
  8
M-PIPE
100
AcDbLine
 10
827.6664074431751
 20
2102.110000000057
 30
0.0
 11
827.6664074431751
 21
2104.110000000058
 31
0.0
1001
REVIT
1002
{
1070
     3
1000
923261
1002
}
  0
LINE
  5
A7
330
87
100
AcDbEntity
  8
M-PIPE
100
AcDbLine
 10
803.6664074431751
 20
2104.110000000058
 30
0.0
 11
803.6664074431751
 21
2102.110000000058
 31
0.0
1001
REVIT
1002
{
1070
     3
1000
923261
1002
}
  0
LINE
  5
A8
330
87
100
AcDbEntity
  8
M-PIPE
100
AcDbLine
 10
770.1664074431626
 20
2095.110000000056
 30
0.0
 11
770.1664074431623
 21
2083.110000000056
 31
0.0
1001
REVIT
1002
{
1070
     3
1000
923261
1002
}
  0
LINE
  5
A9
330
87
100
AcDbEntity
  8
M-PIPE
100
AcDbLine
 10
770.1664074431623
 20
2083.110000000056
 30
0.0
 11
770.1664074431622
 21
2071.110000000057
 31
0.0
1001
REVIT
1002
{
1070
     3
1000
923261
1002
}
  0
LINE
  5
AA
330
87
100
AcDbEntity
  8
M-PIPE
100
AcDbLine
 10
757.1664074431619
 20
2083.110000000056
 30
0.0
 11
757.1664074431619
 21
2091.110000000057
 31
0.0
1001
REVIT
1002
{
1070
     3
1000
923261
1002
}
  0
LINE
  5
AB
330
87
100
AcDbEntity
  8
M-PIPE
100
AcDbLine
 10
757.1664074431616
 20
2075.110000000057
 30
0.0
 11
757.1664074431619
 21
2083.110000000056
 31
0.0
1001
REVIT
1002
{
1070
     3
1000
923261
1002
}
  0
LINE
  5
AC
330
87
100
AcDbEntity
  8
M-PIPE
100
AcDbLine
 10
762.1664074431623
 20
2083.110000000056
 30
0.0
 11
762.1664074431622
 21
2071.110000000057
 31
0.0
1001
REVIT
1002
{
1070
     3
1000
923261
1002
}
  0
LINE
  5
AD
330
87
100
AcDbEntity
  8
M-PIPE
100
AcDbLine
 10
762.1664074431623
 20
2083.110000000056
 30
0.0
 11
762.1664074431625
 21
2095.110000000056
 31
0.0
1001
REVIT
1002
{
1070
     3
1000
923261
1002
}
  0
ARC
  5
AE
330
87
100
AcDbEntity
  8
M-PIPE
100
AcDbCircle
 10
803.1664074431619
 20
2061.900000000056
 30
0.0
 40
19.99999999999983
100
AcDbArc
 50
179.9999999999992
 51
269.9999999999982
1001
REVIT
1002
{
1070
     3
1000
923261
1002
}
  0
LINE
  5
AF
330
87
100
AcDbEntity
  8
M-PIPE
100
AcDbLine
 10
803.1664074431617
 20
2041.900000000056
 30
0.0
 11
865.6664074431615
 21
2041.900000000056
 31
0.0
1001
REVIT
1002
{
1070
     3
1000
923261
1002
}
  0
ARC
  5
B0
330
87
100
AcDbEntity
  8
M-PIPE
100
AcDbCircle
 10
865.6664074431619
 20
2074.900000000056
 30
0.0
 40
32.99999999999986
100
AcDbArc
 50
269.9999999999985
 51
359.9999999999984
1001
REVIT
1002
{
1070
     3
1000
923261
1002
}
  0
LINE
  5
B1
330
87
100
AcDbEntity
  8
M-PIPE
100
AcDbLine
 10
898.6664074431619
 20
2074.900000000055
 30
0.0
 11
898.6664074431619
 21
2080.109519159391
 31
0.0
1001
REVIT
1002
{
1070
     3
1000
923261
1002
}
  0
LINE
  5
B2
330
87
100
AcDbEntity
  8
M-PIPE
100
AcDbLine
 10
783.1664074431619
 20
2062.110000000055
 30
0.0
 11
783.1664074431619
 21
2061.900000000056
 31
0.0
1001
REVIT
1002
{
1070
     3
1000
923261
1002
}
  0
ARC
  5
B3
330
87
100
AcDbEntity
  8
M-PIPE
100
AcDbCircle
 10
891.666407443162
 20
2095.110000000055
 30
0.0
 40
7.000000000000056
100
AcDbArc
 50
359.9999999999992
 51
89.99999999999955
1001
REVIT
1002
{
1070
     3
1000
923261
1002
}
  0
LINE
  5
B4
330
87
100
AcDbEntity
  8
M-PIPE
100
AcDbLine
 10
891.666407443162
 20
2102.110000000055
 30
0.0
 11
783.166407443162
 21
2102.110000000056
 31
0.0
1001
REVIT
1002
{
1070
     3
1000
923261
1002
}
  0
LINE
  5
B5
330
87
100
AcDbEntity
  8
M-PIPE
100
AcDbLine
 10
783.166407443162
 20
2102.110000000056
 30
0.0
 11
783.1664074431619
 21
2072.222328629042
 31
0.0
1001
REVIT
1002
{
1070
     3
1000
923261
1002
}
  0
LINE
  5
B6
330
87
100
AcDbEntity
  8
M-PIPE
100
AcDbLine
 10
898.6664074431621
 20
2090.110000000055
 30
0.0
 11
898.6664074431621
 21
2095.110000000055
 31
0.0
1001
REVIT
1002
{
1070
     3
1000
923261
1002
}
  0
LINE
  5
B7
330
87
100
AcDbEntity
  8
M-PIPE
100
AcDbLine
 10
857.5182691002133
 20
2033.900000000056
 30
0.0
 11
841.5182691002133
 21
2033.900000000056
 31
0.0
1001
REVIT
1002
{
1070
     3
1000
923261
1002
}
  0
LINE
  5
B8
330
87
100
AcDbEntity
  8
M-PIPE
100
AcDbLine
 10
783.1664074431619
 20
2062.110000000055
 30
0.0
 11
783.1664074431619
 21
2072.222328629042
 31
0.0
1001
REVIT
1002
{
1070
     3
1000
923261
1002
}
  0
ARC
  5
B9
330
87
100
AcDbEntity
  8
M-PIPE
100
AcDbCircle
 10
789.1627547930157
 20
2222.102889362595
 30
0.0
 40
160.1052179915263
100
AcDbArc
 50
267.8536254461362
 51
292.1463745538604
1001
REVIT
1002
{
1070
     3
1000
923261
1002
}
  0
ARC
  5
BA
330
87
100
AcDbEntity
  8
M-PIPE
100
AcDbCircle
 10
893.8163052506546
 20
1923.140924854704
 30
0.0
 40
157.045766378111
100
AcDbArc
 50
88.2093321011666
 51
106.3838397345607
1001
REVIT
1002
{
1070
     3
1000
923261
1002
}
  0
LINE
  5
BB
330
87
100
AcDbEntity
  8
M-PIPE
100
AcDbLine
 10
898.7236655697538
 20
2080.110000000056
 30
0.0
 11
900.1664074431619
 21
2080.110000000056
 31
0.0
1001
REVIT
1002
{
1070
     3
1000
923261
1002
}
  0
LINE
  5
BC
330
87
100
AcDbEntity
  8
M-PIPE
100
AcDbLine
 10
900.1664074431619
 20
2080.110000000056
 30
0.0
 11
900.1664074431619
 21
2090.110000000055
 31
0.0
1001
REVIT
1002
{
1070
     3
1000
923261
1002
}
  0
LINE
  5
BD
330
87
100
AcDbEntity
  8
M-PIPE
100
AcDbLine
 10
900.1664074431619
 20
2090.110000000055
 30
0.0
 11
886.1134609974286
 21
2090.110000000055
 31
0.0
1001
REVIT
1002
{
1070
     3
1000
923261
1002
}
  0
ARC
  5
BE
330
87
100
AcDbEntity
  8
M-PIPE
100
AcDbCircle
 10
893.8163052506546
 20
1933.253253483691
 30
0.0
 40
157.0457663781112
100
AcDbArc
 50
92.81139458151676
 51
106.38383973456
1001
REVIT
1002
{
1070
     3
1000
923261
1002
}
  0
ARC
  5
BF
330
87
100
AcDbEntity
  8
M-PIPE
100
AcDbCircle
 10
789.1627547930158
 20
2232.215217991582
 30
0.0
 40
160.1052179915262
100
AcDbArc
 50
267.8536254461369
 51
292.1463745538611
1001
REVIT
1002
{
1070
     3
1000
923261
1002
}
  0
LINE
  5
C0
330
87
100
AcDbEntity
  8
M-PIPE
100
AcDbLine
 10
841.5182691002133
 20
2117.110000000056
 30
0.0
 11
857.5182691002133
 21
2117.110000000056
 31
0.0
1001
REVIT
1002
{
1070
     3
1000
923261
1002
}
  0
LINE
  5
C1
330
87
100
AcDbEntity
  8
M-PIPE
100
AcDbLine
 10
857.5182691002133
 20
2112.109999999992
 30
0.0
 11
841.5182691002133
 21
2112.109999999993
 31
0.0
1001
REVIT
1002
{
1070
     3
1000
923261
1002
}
  0
LINE
  5
C2
330
87
100
AcDbEntity
  8
M-PIPE
100
AcDbLine
 10
803.6664074431737
 20
2104.110000000056
 30
0.0
 11
827.6664074431735
 21
2104.110000000056
 31
0.0
1001
REVIT
1002
{
1070
     3
1000
923261
1002
}
  0
LINE
  5
C3
330
87
100
AcDbEntity
  8
M-PIPE
100
AcDbLine
 10
766.1664074431886
 20
1983.834192462669
 30
0.0
 11
768.4565431430907
 21
1979.867561074211
 31
0.0
1001
REVIT
1002
{
1070
     3
1000
790271
1002
}
  0
LINE
  5
C4
330
87
100
AcDbEntity
  8
M-PIPE
100
AcDbLine
 10
768.4849171289113
 20
1979.818415889157
 30
0.0
 11
768.5858508595679
 21
1979.643593539462
 31
0.0
1001
REVIT
1002
{
1070
     3
1000
790271
1002
}
  0
LINE
  5
C5
330
87
100
AcDbEntity
  8
M-PIPE
100
AcDbLine
 10
768.5858508595877
 20
2020.356406460564
 30
0.0
 11
768.4849171289311
 21
2020.181584110869
 31
0.0
1001
REVIT
1002
{
1070
     3
1000
790271
1002
}
  0
LINE
  5
C6
330
87
100
AcDbEntity
  8
M-PIPE
100
AcDbLine
 10
768.4565431431106
 20
2020.132438925815
 30
0.0
 11
766.166407443189
 21
2016.165807537323
 31
0.0
1001
REVIT
1002
{
1070
     3
1000
790271
1002
}
  0
LINE
  5
C7
330
87
100
AcDbEntity
  8
M-PIPE
100
AcDbLine
 10
782.1664074431891
 20
2018.499999999996
 30
0.0
 11
781.2239183899318
 21
2020.132438925815
 31
0.0
1001
REVIT
1002
{
1070
     3
1000
790271
1002
}
  0
LINE
  5
C8
330
87
100
AcDbEntity
  8
M-PIPE
100
AcDbLine
 10
781.1955685042556
 20
2020.181542368195
 30
0.0
 11
781.0946106734547
 21
2020.356406460564
 31
0.0
1001
REVIT
1002
{
1070
     3
1000
790271
1002
}
  0
LINE
  5
C9
330
87
100
AcDbEntity
  8
M-PIPE
100
AcDbLine
 10
768.585850859568
 20
1979.643593539462
 30
0.0
 11
781.0946106734737
 21
1979.643593539462
 31
0.0
1001
REVIT
1002
{
1070
     3
1000
790271
1002
}
  0
LINE
  5
CA
330
87
100
AcDbEntity
  8
M-PIPE
100
AcDbLine
 10
781.0946106734548
 20
2020.356406460564
 30
0.0
 11
768.5858508595879
 21
2020.356406460564
 31
0.0
1001
REVIT
1002
{
1070
     3
1000
790271
1002
}
  0
LINE
  5
CB
330
87
100
AcDbEntity
  8
M-PIPE
100
AcDbLine
 10
781.0946106734736
 20
1979.643593539462
 30
0.0
 11
781.1955685042743
 21
1979.81845763183
 31
0.0
1001
REVIT
1002
{
1070
     3
1000
790271
1002
}
  0
LINE
  5
CC
330
87
100
AcDbEntity
  8
M-PIPE
100
AcDbLine
 10
781.2239183899507
 20
1979.867561074211
 30
0.0
 11
782.1664074431885
 21
1981.499999999996
 31
0.0
1001
REVIT
1002
{
1070
     3
1000
790271
1002
}
  0
LINE
  5
CD
330
87
100
AcDbEntity
  8
M-PIPE
100
AcDbLine
 10
766.166407443187
 20
1983.834192462668
 30
0.0
 11
766.1664074431874
 21
2016.165807537322
 31
0.0
1001
REVIT
1002
{
1070
     3
1000
790271
1002
}
  0
LINE
  5
CE
330
87
100
AcDbEntity
  8
M-PIPE
100
AcDbLine
 10
782.1664074431875
 20
2018.499999999995
 30
0.0
 11
782.1664074431875
 21
2016.021469970008
 31
0.0
1001
REVIT
1002
{
1070
     3
1000
790271
1002
}
  0
LINE
  5
CF
330
87
100
AcDbEntity
  8
M-PIPE
100
AcDbLine
 10
782.1664074431875
 20
2016.021469970008
 30
0.0
 11
782.1664074431873
 21
1999.999999999995
 31
0.0
1001
REVIT
1002
{
1070
     3
1000
790271
1002
}
  0
LINE
  5
D0
330
87
100
AcDbEntity
  8
M-PIPE
100
AcDbLine
 10
782.1664074431873
 20
1999.999999999995
 30
0.0
 11
782.166407443187
 21
1983.978530029983
 31
0.0
1001
REVIT
1002
{
1070
     3
1000
790271
1002
}
  0
LINE
  5
D1
330
87
100
AcDbEntity
  8
M-PIPE
100
AcDbLine
 10
782.166407443187
 20
1983.978530029983
 30
0.0
 11
782.166407443187
 21
1981.499999999995
 31
0.0
1001
REVIT
1002
{
1070
     3
1000
790271
1002
}
  0
LINE
  5
D2
330
87
100
AcDbEntity
  8
M-PIPE
100
AcDbLine
 10
782.1664074431871
 20
1983.67909225841
 30
0.0
 11
782.1664074431871
 21
1983.978530029983
 31
0.0
1001
REVIT
1002
{
1070
     3
1000
790271
1002
}
  0
LINE
  5
D3
330
87
100
AcDbEntity
  8
M-PIPE
100
AcDbLine
 10
782.1664074431871
 20
1983.978530029983
 30
0.0
 11
782.1664074431871
 21
1984.25010342691
 31
0.0
1001
REVIT
1002
{
1070
     3
1000
790271
1002
}
  0
LINE
  5
D4
330
87
100
AcDbEntity
  8
M-PIPE
100
AcDbLine
 10
782.1664074431877
 20
2015.749896572665
 30
0.0
 11
782.1664074431877
 21
2016.021469970008
 31
0.0
1001
REVIT
1002
{
1070
     3
1000
790271
1002
}
  0
LINE
  5
D5
330
87
100
AcDbEntity
  8
M-PIPE
100
AcDbLine
 10
782.1664074431877
 20
2016.021469970008
 30
0.0
 11
782.1664074431877
 21
2016.320907747385
 31
0.0
1001
REVIT
1002
{
1070
     3
1000
790271
1002
}
  0
SPLINE
  5
D6
330
87
100
AcDbEntity
  8
M-PIPE
100
AcDbSpline
210
0.0
220
0.0
230
1.0
 70
     8
 71
     3
 72
     9
 73
     5
 74
     0
 42
0.000000001
 43
0.0000000001
 40
0.0
 40
0.0
 40
0.0
 40
0.0
 40
0.5
 40
1.0
 40
1.0
 40
1.0
 40
1.0
 10
781.4419793492553
 20
1980.514428414862
 30
0.0
 10
781.6791685919893
 20
1981.085828184287
 30
0.0
 10
782.0370958503785
 20
1982.234578222902
 30
0.0
 10
782.1621206546105
 20
1983.395229261046
 30
0.0
 10
782.1664074431871
 20
1983.97853003
 30
0.0
1001
REVIT
1002
{
1070
     3
1000
790271
1002
}
  0
SPLINE
  5
D7
330
87
100
AcDbEntity
  8
M-PIPE
100
AcDbSpline
210
0.0
220
0.0
230
1.0
 70
     8
 71
     3
 72
     9
 73
     5
 74
     0
 42
0.000000001
 43
0.0000000001
 40
0.0
 40
0.0
 40
0.0
 40
0.0
 40
0.5
 40
1.0
 40
1.0
 40
1.0
 40
1.0
 10
782.1664074431871
 20
1983.97853003
 30
0.0
 10
782.1621206546105
 20
1984.561830798955
 30
0.0
 10
782.0370958503786
 20
1985.722481837098
 30
0.0
 10
781.6791685919899
 20
1986.871231875712
 30
0.0
 10
781.4419793492564
 20
1987.442631645137
 30
0.0
1001
REVIT
1002
{
1070
     3
1000
790271
1002
}
  0
SPLINE
  5
D8
330
87
100
AcDbEntity
  8
M-PIPE
100
AcDbSpline
210
0.0
220
0.0
230
1.0
 70
     8
 71
     3
 72
     9
 73
     5
 74
     0
 42
0.000000001
 43
0.0000000001
 40
0.0
 40
0.0
 40
0.0
 40
0.0
 40
0.5
 40
1.0
 40
1.0
 40
1.0
 40
1.0
 10
768.2384821837825
 20
1987.442631645137
 30
0.0
 10
767.7555619079877
 20
1986.306357047584
 30
0.0
 10
767.2726416321934
 20
1984.015381911652
 30
0.0
 10
767.7555619079884
 20
1981.687554894067
 30
0.0
 10
768.2384821837833
 20
1980.514428414862
 30
0.0
1001
REVIT
1002
{
1070
     3
1000
790271
1002
}
  0
SPLINE
  5
D9
330
87
100
AcDbEntity
  8
M-PIPE
100
AcDbSpline
210
0.0
220
0.0
230
1.0
 70
     8
 71
     3
 72
     9
 73
     5
 74
     0
 42
0.000000001
 43
0.0000000001
 40
0.0
 40
0.0
 40
0.0
 40
0.0
 40
0.5
 40
1.0
 40
1.0
 40
1.0
 40
1.0
 10
781.4419793492549
 20
1993.071796769736
 30
0.0
 10
781.6791685919866
 20
1994.214596308583
 30
0.0
 10
782.0370958503739
 20
1996.512096385807
 30
0.0
 10
782.1621206546083
 20
1998.833398462089
 30
0.0
 10
782.1664074431873
 20
1999.999999999995
 30
0.0
1001
REVIT
1002
{
1070
     3
1000
790271
1002
}
  0
SPLINE
  5
DA
330
87
100
AcDbEntity
  8
M-PIPE
100
AcDbSpline
210
0.0
220
0.0
230
1.0
 70
     8
 71
     3
 72
     9
 73
     5
 74
     0
 42
0.000000001
 43
0.0000000001
 40
0.0
 40
0.0
 40
0.0
 40
0.0
 40
0.5
 40
1.0
 40
1.0
 40
1.0
 40
1.0
 10
782.1664074431873
 20
1999.999999999995
 30
0.0
 10
782.1621206546083
 20
2001.166601537907
 30
0.0
 10
782.0370958503728
 20
2003.4879036142
 30
0.0
 10
781.6791685919822
 20
2005.785403691435
 30
0.0
 10
781.4419793492483
 20
2006.928203230287
 30
0.0
1001
REVIT
1002
{
1070
     3
1000
790271
1002
}
  0
SPLINE
  5
DB
330
87
100
AcDbEntity
  8
M-PIPE
100
AcDbSpline
210
0.0
220
0.0
230
1.0
 70
     8
 71
     3
 72
     9
 73
     5
 74
     0
 42
0.000000001
 43
0.0000000001
 40
0.0
 40
0.0
 40
0.0
 40
0.0
 40
0.5
 40
1.0
 40
1.0
 40
1.0
 40
1.0
 10
768.2384821837911
 20
2006.928203230287
 30
0.0
 10
767.7555619079954
 20
2004.655654035181
 30
0.0
 10
767.2726416321986
 20
2000.073703763316
 30
0.0
 10
767.7555619079908
 20
1995.418049728147
 30
0.0
 10
768.2384821837841
 20
1993.071796769736
 30
0.0
1001
REVIT
1002
{
1070
     3
1000
790271
1002
}
  0
SPLINE
  5
DC
330
87
100
AcDbEntity
  8
M-PIPE
100
AcDbSpline
210
0.0
220
0.0
230
1.0
 70
     8
 71
     3
 72
     9
 73
     5
 74
     0
 42
0.000000001
 43
0.0000000001
 40
0.0
 40
0.0
 40
0.0
 40
0.0
 40
0.5
 40
1.0
 40
1.0
 40
1.0
 40
1.0
 10
781.4419793492445
 20
2012.557368354887
 30
0.0
 10
781.6791685919739
 20
2013.12876812431
 30
0.0
 10
782.0370958503604
 20
2014.277518162922
 30
0.0
 10
782.1621206546024
 20
2015.438169201062
 30
0.0
 10
782.1664074431871
 20
2016.021469970015
 30
0.0
1001
REVIT
1002
{
1070
     3
1000
790271
1002
}
  0
SPLINE
  5
DD
330
87
100
AcDbEntity
  8
M-PIPE
100
AcDbSpline
210
0.0
220
0.0
230
1.0
 70
     8
 71
     3
 72
     9
 73
     5
 74
     0
 42
0.000000001
 43
0.0000000001
 40
0.0
 40
0.0
 40
0.0
 40
0.0
 40
0.5
 40
1.0
 40
1.0
 40
1.0
 40
1.0
 10
782.1664074431871
 20
2016.021469970015
 30
0.0
 10
782.1621206546024
 20
2016.60477073897
 30
0.0
 10
782.0370958503591
 20
2017.765421777117
 30
0.0
 10
781.6791685919688
 20
2018.914171815735
 30
0.0
 10
781.4419793492368
 20
2019.485571585162
 30
0.0
1001
REVIT
1002
{
1070
     3
1000
790271
1002
}
  0
SPLINE
  5
DE
330
87
100
AcDbEntity
  8
M-PIPE
100
AcDbSpline
210
0.0
220
0.0
230
1.0
 70
     8
 71
     3
 72
     9
 73
     5
 74
     0
 42
0.000000001
 43
0.0000000001
 40
0.0
 40
0.0
 40
0.0
 40
0.0
 40
0.5
 40
1.0
 40
1.0
 40
1.0
 40
1.0
 10
768.2384821838029
 20
2019.485571585162
 30
0.0
 10
767.7555619080075
 20
2018.349296987608
 30
0.0
 10
767.2726416322109
 20
2016.058321851676
 30
0.0
 10
767.7555619080022
 20
2013.730494834092
 30
0.0
 10
768.2384821837951
 20
2012.557368354887
 30
0.0
1001
REVIT
1002
{
1070
     3
1000
790271
1002
}
  0
SPLINE
  5
DF
330
87
100
AcDbEntity
  8
M-PIPE
100
AcDbSpline
210
0.0
220
0.0
230
1.0
 70
     8
 71
     3
 72
     9
 73
     5
 74
     0
 42
0.000000001
 43
0.0000000001
 40
-1.0
 40
-1.0
 40
-1.0
 40
-1.0
 40
-0.5
 40
0.0
 40
0.0
 40
0.0
 40
0.0
 10
768.5858508595665
 20
1979.643593539461
 30
0.0
 10
768.5848452520901
 20
1979.643593539462
 30
0.0
 10
768.525944865317
 20
1979.796323082122
 30
0.0
 10
768.3532661349016
 20
1980.234004593133
 30
0.0
 10
768.2384821837833
 20
1980.514428414862
 30
0.0
1001
REVIT
1002
{
1070
     3
1000
790271
1002
}
  0
SPLINE
  5
E0
330
87
100
AcDbEntity
  8
M-PIPE
100
AcDbSpline
210
0.0
220
0.0
230
1.0
 70
     8
 71
     3
 72
     9
 73
     5
 74
     0
 42
0.000000001
 43
0.0000000001
 40
0.0
 40
0.0
 40
0.0
 40
0.0
 40
0.5
 40
1.0
 40
1.0
 40
1.0
 40
1.0
 10
781.0946106734722
 20
1979.643593539461
 30
0.0
 10
781.0956162809484
 20
1979.643593539462
 30
0.0
 10
781.1545166677218
 20
1979.796323082122
 30
0.0
 10
781.3271953981373
 20
1980.234004593133
 30
0.0
 10
781.4419793492553
 20
1980.514428414862
 30
0.0
1001
REVIT
1002
{
1070
     3
1000
790271
1002
}
  0
SPLINE
  5
E1
330
87
100
AcDbEntity
  8
M-PIPE
100
AcDbSpline
210
0.0
220
0.0
230
1.0
 70
     8
 71
     3
 72
    10
 73
     6
 74
     0
 42
0.000000001
 43
0.0000000001
 40
0.0
 40
0.0
 40
0.0
 40
0.0
 40
0.4
 40
0.7
 40
1.0
 40
1.0
 40
1.0
 40
1.0
 10
781.4419793492564
 20
1987.442631645137
 30
0.0
 10
781.2592520574063
 20
1987.890105199879
 30
0.0
 10
781.0614609235233
 20
1988.972223716153
 30
0.0
 10
781.1098623104574
 20
1991.041681188595
 30
0.0
 10
781.3047288093013
 20
1992.399198537597
 30
0.0
 10
781.4419793492549
 20
1993.071796769736
 30
0.0
1001
REVIT
1002
{
1070
     3
1000
790271
1002
}
  0
SPLINE
  5
E2
330
87
100
AcDbEntity
  8
M-PIPE
100
AcDbSpline
210
0.0
220
0.0
230
1.0
 70
     8
 71
     3
 72
    10
 73
     6
 74
     0
 42
0.000000001
 43
0.0000000001
 40
-1.0
 40
-1.0
 40
-1.0
 40
-1.0
 40
-0.7
 40
-0.4
 40
0.0
 40
0.0
 40
0.0
 40
0.0
 10
768.2384821837825
 20
1987.442631645137
 30
0.0
 10
768.37552765267
 20
1987.778236811194
 30
0.0
 10
768.570375440637
 20
1988.638372413348
 30
0.0
 10
768.6191187686382
 20
1990.584519154433
 30
0.0
 10
768.4214829037222
 20
1992.174999126884
 30
0.0
 10
768.2384821837841
 20
1993.071796769736
 30
0.0
1001
REVIT
1002
{
1070
     3
1000
790271
1002
}
  0
SPLINE
  5
E3
330
87
100
AcDbEntity
  8
M-PIPE
100
AcDbSpline
210
0.0
220
0.0
230
1.0
 70
     8
 71
     3
 72
    10
 73
     6
 74
     0
 42
0.000000001
 43
0.0000000001
 40
0.0
 40
0.0
 40
0.0
 40
0.0
 40
0.4
 40
0.7
 40
1.0
 40
1.0
 40
1.0
 40
1.0
 10
781.4419793492483
 20
2006.928203230287
 30
0.0
 10
781.2592520573978
 20
2007.82315033977
 30
0.0
 10
781.0614609235143
 20
2009.414129053781
 30
0.0
 10
781.1098623104475
 20
2011.359978202619
 30
0.0
 10
781.3047288092909
 20
2012.221069238817
 30
0.0
 10
781.4419793492445
 20
2012.557368354887
 30
0.0
1001
REVIT
1002
{
1070
     3
1000
790271
1002
}
  0
SPLINE
  5
E4
330
87
100
AcDbEntity
  8
M-PIPE
100
AcDbSpline
210
0.0
220
0.0
230
1.0
 70
     8
 71
     3
 72
    10
 73
     6
 74
     0
 42
0.000000001
 43
0.0000000001
 40
-1.0
 40
-1.0
 40
-1.0
 40
-1.0
 40
-0.7
 40
-0.4
 40
0.0
 40
0.0
 40
0.0
 40
0.0
 10
768.2384821837911
 20
2006.928203230287
 30
0.0
 10
768.375527652679
 20
2007.599413562399
 30
0.0
 10
768.5703754406464
 20
2008.956276915911
 30
0.0
 10
768.6191187686485
 20
2011.026584272365
 30
0.0
 10
768.4214829037331
 20
2012.10896953346
 30
0.0
 10
768.2384821837951
 20
2012.557368354887
 30
0.0
1001
REVIT
1002
{
1070
     3
1000
790271
1002
}
  0
SPLINE
  5
E5
330
87
100
AcDbEntity
  8
M-PIPE
100
AcDbSpline
210
0.0
220
0.0
230
1.0
 70
     8
 71
     3
 72
     9
 73
     5
 74
     0
 42
0.000000001
 43
0.0000000001
 40
-1.0
 40
-1.0
 40
-1.0
 40
-1.0
 40
-0.5
 40
0.0
 40
0.0
 40
0.0
 40
0.0
 10
781.0946106734534
 20
2020.356406460563
 30
0.0
 10
781.0956162809296
 20
2020.356406460562
 30
0.0
 10
781.1545166677031
 20
2020.203676917901
 30
0.0
 10
781.3271953981186
 20
2019.765995406891
 30
0.0
 10
781.4419793492368
 20
2019.485571585162
 30
0.0
1001
REVIT
1002
{
1070
     3
1000
790271
1002
}
  0
SPLINE
  5
E6
330
87
100
AcDbEntity
  8
M-PIPE
100
AcDbSpline
210
0.0
220
0.0
230
1.0
 70
     8
 71
     3
 72
     9
 73
     5
 74
     0
 42
0.000000001
 43
0.0000000001
 40
-1.0
 40
-1.0
 40
-1.0
 40
-1.0
 40
-0.5
 40
0.0
 40
0.0
 40
0.0
 40
0.0
 10
768.2384821838029
 20
2019.485571585162
 30
0.0
 10
768.3532661349211
 20
2019.765995406891
 30
0.0
 10
768.5259448653368
 20
2020.203676917901
 30
0.0
 10
768.58484525211
 20
2020.356406460562
 30
0.0
 10
768.5858508595863
 20
2020.356406460563
 30
0.0
1001
REVIT
1002
{
1070
     3
1000
790271
1002
}
  0
LINE
  5
E7
330
87
100
AcDbEntity
  8
M-PIPE
100
AcDbLine
 10
862.7470818562786
 20
1979.643797626134
 30
0.0
 11
865.1664074431682
 21
1983.834192462678
 31
0.0
1001
REVIT
1002
{
1070
     3
1000
790271
1002
}
  0
LINE
  5
E8
330
87
100
AcDbEntity
  8
M-PIPE
100
AcDbLine
 10
865.1664074431682
 20
2016.165807537332
 30
0.0
 11
862.7470818562759
 21
2020.35620237388
 31
0.0
1001
REVIT
1002
{
1070
     3
1000
790271
1002
}
  0
LINE
  5
E9
330
87
100
AcDbEntity
  8
M-PIPE
100
AcDbLine
 10
850.2380863833925
 20
1979.643593539456
 30
0.0
 11
862.7470818562789
 21
1979.643593539456
 31
0.0
1001
REVIT
1002
{
1070
     3
1000
790271
1002
}
  0
LINE
  5
EA
330
87
100
AcDbEntity
  8
M-PIPE
100
AcDbLine
 10
862.7470818562764
 20
2020.356406460559
 30
0.0
 11
850.238086383395
 21
2020.356406460559
 31
0.0
1001
REVIT
1002
{
1070
     3
1000
790271
1002
}
  0
LINE
  5
EB
330
87
100
AcDbEntity
  8
M-PIPE
100
AcDbLine
 10
849.1664074431678
 20
1981.500000000005
 30
0.0
 11
850.2380863833927
 21
1979.643797626134
 31
0.0
1001
REVIT
1002
{
1070
     3
1000
790271
1002
}
  0
LINE
  5
EC
330
87
100
AcDbEntity
  8
M-PIPE
100
AcDbLine
 10
850.2380863833952
 20
2020.35620237388
 30
0.0
 11
849.1664074431678
 21
2018.500000000005
 31
0.0
1001
REVIT
1002
{
1070
     3
1000
790271
1002
}
  0
LINE
  5
ED
330
87
100
AcDbEntity
  8
M-PIPE
100
AcDbLine
 10
865.1664074431668
 20
2008.082903768668
 30
0.0
 11
865.1664074431666
 21
1983.834192462677
 31
0.0
1001
REVIT
1002
{
1070
     3
1000
790271
1002
}
  0
LINE
  5
EE
330
87
100
AcDbEntity
  8
M-PIPE
100
AcDbLine
 10
865.1664074431666
 20
2016.165807537331
 30
0.0
 11
865.1664074431668
 21
2008.082903768668
 31
0.0
1001
REVIT
1002
{
1070
     3
1000
790271
1002
}
  0
LINE
  5
EF
330
87
100
AcDbEntity
  8
M-PIPE
100
AcDbLine
 10
849.1664074431662
 20
1984.250103426843
 30
0.0
 11
849.1664074431664
 21
1983.978530029992
 31
0.0
1001
REVIT
1002
{
1070
     3
1000
790271
1002
}
  0
LINE
  5
F0
330
87
100
AcDbEntity
  8
M-PIPE
100
AcDbLine
 10
849.1664074431664
 20
1983.978530029992
 30
0.0
 11
849.1664074431664
 21
1983.67909260804
 31
0.0
1001
REVIT
1002
{
1070
     3
1000
790271
1002
}
  0
LINE
  5
F1
330
87
100
AcDbEntity
  8
M-PIPE
100
AcDbLine
 10
849.1664074431666
 20
1981.500000000004
 30
0.0
 11
849.1664074431666
 21
1983.978530029992
 31
0.0
1001
REVIT
1002
{
1070
     3
1000
790271
1002
}
  0
LINE
  5
F2
330
87
100
AcDbEntity
  8
M-PIPE
100
AcDbLine
 10
849.1664074431666
 20
1983.978530029992
 30
0.0
 11
849.1664074431669
 21
2000.000000000005
 31
0.0
1001
REVIT
1002
{
1070
     3
1000
790271
1002
}
  0
LINE
  5
F3
330
87
100
AcDbEntity
  8
M-PIPE
100
AcDbLine
 10
849.1664074431669
 20
2000.000000000005
 30
0.0
 11
849.1664074431669
 21
2009.250000000005
 31
0.0
1001
REVIT
1002
{
1070
     3
1000
790271
1002
}
  0
LINE
  5
F4
330
87
100
AcDbEntity
  8
M-PIPE
100
AcDbLine
 10
849.1664074431669
 20
2009.250000000005
 30
0.0
 11
849.1664074431666
 21
2016.021469970016
 31
0.0
1001
REVIT
1002
{
1070
     3
1000
790271
1002
}
  0
LINE
  5
F5
330
87
100
AcDbEntity
  8
M-PIPE
100
AcDbLine
 10
849.1664074431666
 20
2016.021469970016
 30
0.0
 11
849.1664074431666
 21
2018.500000000004
 31
0.0
1001
REVIT
1002
{
1070
     3
1000
790271
1002
}
  0
LINE
  5
F6
330
87
100
AcDbEntity
  8
M-PIPE
100
AcDbLine
 10
849.1664074431662
 20
2016.320907390848
 30
0.0
 11
849.1664074431662
 21
2016.021469970016
 31
0.0
1001
REVIT
1002
{
1070
     3
1000
790271
1002
}
  0
LINE
  5
F7
330
87
100
AcDbEntity
  8
M-PIPE
100
AcDbLine
 10
849.1664074431662
 20
2016.021469970016
 30
0.0
 11
849.1664074431662
 21
2015.749896237658
 31
0.0
1001
REVIT
1002
{
1070
     3
1000
790271
1002
}
  0
SPLINE
  5
F8
330
87
100
AcDbEntity
  8
M-PIPE
100
AcDbSpline
210
0.0
220
0.0
230
1.0
 70
     8
 71
     3
 72
     9
 73
     5
 74
     0
 42
0.000000001
 43
0.0000000001
 40
0.0
 40
0.0
 40
0.0
 40
0.0
 40
0.5
 40
1.0
 40
1.0
 40
1.0
 40
1.0
 10
849.8908355370984
 20
2006.928203230282
 30
0.0
 10
849.6536462943645
 20
2005.785403691432
 30
0.0
 10
849.2957190359753
 20
2003.487903614202
 30
0.0
 10
849.1706942317435
 20
2001.166601537914
 30
0.0
 10
849.1664074431668
 20
2000.000000000005
 30
0.0
1001
REVIT
1002
{
1070
     3
1000
790271
1002
}
  0
SPLINE
  5
F9
330
87
100
AcDbEntity
  8
M-PIPE
100
AcDbSpline
210
0.0
220
0.0
230
1.0
 70
     8
 71
     3
 72
     9
 73
     5
 74
     0
 42
0.000000001
 43
0.0000000001
 40
0.0
 40
0.0
 40
0.0
 40
0.0
 40
0.5
 40
1.0
 40
1.0
 40
1.0
 40
1.0
 10
849.1664074431668
 20
2000.000000000005
 30
0.0
 10
849.1706942317433
 20
1998.833398462096
 30
0.0
 10
849.2957190359753
 20
1996.512096385809
 30
0.0
 10
849.6536462943639
 20
1994.21459630858
 30
0.0
 10
849.8908355370975
 20
1993.071796769731
 30
0.0
1001
REVIT
1002
{
1070
     3
1000
790271
1002
}
  0
SPLINE
  5
FA
330
87
100
AcDbEntity
  8
M-PIPE
100
AcDbSpline
210
0.0
220
0.0
230
1.0
 70
     8
 71
     3
 72
     9
 73
     5
 74
     0
 42
0.000000001
 43
0.0000000001
 40
0.0
 40
0.0
 40
0.0
 40
0.0
 40
0.5
 40
1.0
 40
1.0
 40
1.0
 40
1.0
 10
863.0943327025716
 20
1993.071796769731
 30
0.0
 10
863.5772529783659
 20
1995.344345964837
 30
0.0
 10
864.0601732541606
 20
1999.926296236702
 30
0.0
 10
863.5772529783656
 20
2004.581950271871
 30
0.0
 10
863.0943327025706
 20
2006.928203230282
 30
0.0
1001
REVIT
1002
{
1070
     3
1000
790271
1002
}
  0
SPLINE
  5
FB
330
87
100
AcDbEntity
  8
M-PIPE
100
AcDbSpline
210
0.0
220
0.0
230
1.0
 70
     8
 71
     3
 72
     9
 73
     5
 74
     0
 42
0.000000001
 43
0.0000000001
 40
0.0
 40
0.0
 40
0.0
 40
0.0
 40
0.5
 40
1.0
 40
1.0
 40
1.0
 40
1.0
 10
849.8908355370991
 20
1987.442631645132
 30
0.0
 10
849.6536462943671
 20
1986.871231875708
 30
0.0
 10
849.2957190359799
 20
1985.722481837096
 30
0.0
 10
849.1706942317454
 20
1984.561830798955
 30
0.0
 10
849.1664074431666
 20
1983.978530030003
 30
0.0
1001
REVIT
1002
{
1070
     3
1000
790271
1002
}
  0
SPLINE
  5
FC
330
87
100
AcDbEntity
  8
M-PIPE
100
AcDbSpline
210
0.0
220
0.0
230
1.0
 70
     8
 71
     3
 72
     9
 73
     5
 74
     0
 42
0.000000001
 43
0.0000000001
 40
0.0
 40
0.0
 40
0.0
 40
0.0
 40
0.5
 40
1.0
 40
1.0
 40
1.0
 40
1.0
 10
849.1664074431666
 20
1983.978530030003
 30
0.0
 10
849.1706942317456
 20
1983.395229261047
 30
0.0
 10
849.2957190359812
 20
1982.2345782229
 30
0.0
 10
849.6536462943716
 20
1981.085828184283
 30
0.0
 10
849.8908355371057
 20
1980.514428414856
 30
0.0
1001
REVIT
1002
{
1070
     3
1000
790271
1002
}
  0
SPLINE
  5
FD
330
87
100
AcDbEntity
  8
M-PIPE
100
AcDbSpline
210
0.0
220
0.0
230
1.0
 70
     8
 71
     3
 72
     9
 73
     5
 74
     0
 42
0.000000001
 43
0.0000000001
 40
0.0
 40
0.0
 40
0.0
 40
0.0
 40
0.5
 40
1.0
 40
1.0
 40
1.0
 40
1.0
 10
863.0943327025628
 20
1980.514428414856
 30
0.0
 10
863.5772529783585
 20
1981.65070301241
 30
0.0
 10
864.0601732541552
 20
1983.941678148342
 30
0.0
 10
863.5772529783631
 20
1986.269505165927
 30
0.0
 10
863.0943327025699
 20
1987.442631645132
 30
0.0
1001
REVIT
1002
{
1070
     3
1000
790271
1002
}
  0
SPLINE
  5
FE
330
87
100
AcDbEntity
  8
M-PIPE
100
AcDbSpline
210
0.0
220
0.0
230
1.0
 70
     8
 71
     3
 72
     9
 73
     5
 74
     0
 42
0.000000001
 43
0.0000000001
 40
0.0
 40
0.0
 40
0.0
 40
0.0
 40
0.5
 40
1.0
 40
1.0
 40
1.0
 40
1.0
 10
849.8908355371082
 20
2019.485571585157
 30
0.0
 10
849.6536462943746
 20
2018.91417181573
 30
0.0
 10
849.2957190359838
 20
2017.765421777112
 30
0.0
 10
849.1706942317469
 20
2016.604770738965
 30
0.0
 10
849.1664074431666
 20
2016.021469970009
 30
0.0
1001
REVIT
1002
{
1070
     3
1000
790271
1002
}
  0
SPLINE
  5
FF
330
87
100
AcDbEntity
  8
M-PIPE
100
AcDbSpline
210
0.0
220
0.0
230
1.0
 70
     8
 71
     3
 72
     9
 73
     5
 74
     0
 42
0.000000001
 43
0.0000000001
 40
0.0
 40
0.0
 40
0.0
 40
0.0
 40
0.5
 40
1.0
 40
1.0
 40
1.0
 40
1.0
 10
849.1664074431666
 20
2016.021469970009
 30
0.0
 10
849.1706942317467
 20
2015.438169201057
 30
0.0
 10
849.2957190359826
 20
2014.277518162916
 30
0.0
 10
849.6536462943694
 20
2013.128768124305
 30
0.0
 10
849.8908355371007
 20
2012.557368354881
 30
0.0
1001
REVIT
1002
{
1070
     3
1000
790271
1002
}
  0
SPLINE
  5
100
330
87
100
AcDbEntity
  8
M-PIPE
100
AcDbSpline
210
0.0
220
0.0
230
1.0
 70
     8
 71
     3
 72
     9
 73
     5
 74
     0
 42
0.000000001
 43
0.0000000001
 40
0.0
 40
0.0
 40
0.0
 40
0.0
 40
0.5
 40
1.0
 40
1.0
 40
1.0
 40
1.0
 10
863.0943327025681
 20
2012.557368354881
 30
0.0
 10
863.5772529783611
 20
2013.693642952434
 30
0.0
 10
864.0601732541529
 20
2015.984618088367
 30
0.0
 10
863.5772529783558
 20
2018.312445105951
 30
0.0
 10
863.0943327025603
 20
2019.485571585157
 30
0.0
1001
REVIT
1002
{
1070
     3
1000
790271
1002
}
  0
SPLINE
  5
101
330
87
100
AcDbEntity
  8
M-PIPE
100
AcDbSpline
210
0.0
220
0.0
230
1.0
 70
     8
 71
     3
 72
     9
 73
     5
 74
     0
 42
0.000000001
 43
0.0000000001
 40
-1.0
 40
-1.0
 40
-1.0
 40
-1.0
 40
-0.5
 40
0.0
 40
0.0
 40
0.0
 40
0.0
 10
862.7469640267873
 20
2010.178203230271
 30
0.0
 10
862.7479696342636
 20
2009.681436881535
 30
0.0
 10
862.806870021037
 20
2008.617306059607
 30
0.0
 10
862.9795487514524
 20
2007.48905087374
 30
0.0
 10
863.0943327025706
 20
2006.928203230282
 30
0.0
1001
REVIT
1002
{
1070
     3
1000
790271
1002
}
  0
SPLINE
  5
102
330
87
100
AcDbEntity
  8
M-PIPE
100
AcDbSpline
210
0.0
220
0.0
230
1.0
 70
     8
 71
     3
 72
     9
 73
     5
 74
     0
 42
0.000000001
 43
0.0000000001
 40
-1.0
 40
-1.0
 40
-1.0
 40
-1.0
 40
-0.5
 40
0.0
 40
0.0
 40
0.0
 40
0.0
 10
863.0943327025681
 20
2012.557368354881
 30
0.0
 10
862.9795487514495
 20
2012.27694453315
 30
0.0
 10
862.8068700210342
 20
2011.586370858288
 30
0.0
 10
862.7479696342623
 20
2010.674969579012
 30
0.0
 10
862.7469640267873
 20
2010.178203230271
 30
0.0
1001
REVIT
1002
{
1070
     3
1000
790271
1002
}
  0
SPLINE
  5
103
330
87
100
AcDbEntity
  8
M-PIPE
100
AcDbSpline
210
0.0
220
0.0
230
1.0
 70
     8
 71
     3
 72
     9
 73
     5
 74
     0
 42
0.000000001
 43
0.0000000001
 40
-1.0
 40
-1.0
 40
-1.0
 40
-1.0
 40
-0.5
 40
0.0
 40
0.0
 40
0.0
 40
0.0
 10
850.2382042128816
 20
2010.178203230271
 30
0.0
 10
850.2371986054068
 20
2010.674969579012
 30
0.0
 10
850.178298218635
 20
2011.586370858288
 30
0.0
 10
850.0056194882194
 20
2012.27694453315
 30
0.0
 10
849.8908355371007
 20
2012.557368354881
 30
0.0
1001
REVIT
1002
{
1070
     3
1000
790271
1002
}
  0
SPLINE
  5
104
330
87
100
AcDbEntity
  8
M-PIPE
100
AcDbSpline
210
0.0
220
0.0
230
1.0
 70
     8
 71
     3
 72
     9
 73
     5
 74
     0
 42
0.000000001
 43
0.0000000001
 40
0.0
 40
0.0
 40
0.0
 40
0.0
 40
0.5
 40
1.0
 40
1.0
 40
1.0
 40
1.0
 10
850.2382042128816
 20
2010.178203230271
 30
0.0
 10
850.2371986054054
 20
2009.681436881534
 30
0.0
 10
850.1782982186322
 20
2008.617306059607
 30
0.0
 10
850.0056194882166
 20
2007.48905087374
 30
0.0
 10
849.8908355370984
 20
2006.928203230282
 30
0.0
1001
REVIT
1002
{
1070
     3
1000
790271
1002
}
  0
SPLINE
  5
105
330
87
100
AcDbEntity
  8
M-PIPE
100
AcDbSpline
210
0.0
220
0.0
230
1.0
 70
     8
 71
     3
 72
    10
 73
     6
 74
     0
 42
0.000000001
 43
0.0000000001
 40
0.0
 40
0.0
 40
0.0
 40
0.0
 40
0.4
 40
0.7
 40
1.0
 40
1.0
 40
1.0
 40
1.0
 10
849.8908355370975
 20
1993.071796769731
 30
0.0
 10
850.0735628289477
 20
1992.176849660248
 30
0.0
 10
850.2713539628306
 20
1990.585870946237
 30
0.0
 10
850.2229525758965
 20
1988.6400217974
 30
0.0
 10
850.0280860770526
 20
1987.778930761202
 30
0.0
 10
849.8908355370991
 20
1987.442631645132
 30
0.0
1001
REVIT
1002
{
1070
     3
1000
790271
1002
}
  0
SPLINE
  5
106
330
87
100
AcDbEntity
  8
M-PIPE
100
AcDbSpline
210
0.0
220
0.0
230
1.0
 70
     8
 71
     3
 72
    10
 73
     6
 74
     0
 42
0.000000001
 43
0.0000000001
 40
-1.0
 40
-1.0
 40
-1.0
 40
-1.0
 40
-0.7
 40
-0.4
 40
0.0
 40
0.0
 40
0.0
 40
0.0
 10
863.0943327025716
 20
1993.071796769731
 30
0.0
 10
862.957287233684
 20
1992.400586437619
 30
0.0
 10
862.7624394457169
 20
1991.043723084107
 30
0.0
 10
862.7136961177157
 20
1988.973415727653
 30
0.0
 10
862.9113319826316
 20
1987.891030466558
 30
0.0
 10
863.0943327025699
 20
1987.442631645132
 30
0.0
1001
REVIT
1002
{
1070
     3
1000
790271
1002
}
  0
SPLINE
  5
107
330
87
100
AcDbEntity
  8
M-PIPE
100
AcDbSpline
210
0.0
220
0.0
230
1.0
 70
     8
 71
     3
 72
     9
 73
     5
 74
     0
 42
0.000000001
 43
0.0000000001
 40
0.0
 40
0.0
 40
0.0
 40
0.0
 40
0.4
 40
0.5001190610683942
 40
0.5001190610683942
 40
0.5001190610683942
 40
0.5001190610683942
 10
849.8908355371057
 20
1980.514428414856
 30
0.0
 10
850.0735628289559
 20
1980.066954860115
 30
0.0
 10
850.2148758520496
 20
1979.703396739677
 30
0.0
 10
850.2379325229053
 20
1979.643751684138
 30
0.0
 10
850.237849703997
 20
1979.643850079306
 30
0.0
1001
REVIT
1002
{
1070
     3
1000
790271
1002
}
  0
SPLINE
  5
108
330
87
100
AcDbEntity
  8
M-PIPE
100
AcDbSpline
210
0.0
220
0.0
230
1.0
 70
     8
 71
     3
 72
     8
 73
     4
 74
     0
 42
0.000000001
 43
0.0000000001
 40
0.5001191516795
 40
0.5001191516795
 40
0.5001191516795
 40
0.5001191516795
 40
0.6
 40
0.6
 40
0.6
 40
0.6
 10
850.2378497037723
 20
1979.643850079574
 30
0.0
 10
850.2377670734302
 20
1979.64394826237
 30
0.0
 10
850.2366348741773
 20
1979.647231908217
 30
0.0
 10
850.2290568166207
 20
1979.666747360087
 30
0.0
1001
REVIT
1002
{
1070
     3
1000
790271
1002
}
  0
SPLINE
  5
109
330
87
100
AcDbEntity
  8
M-PIPE
100
AcDbSpline
210
0.0
220
0.0
230
1.0
 70
     8
 71
     3
 72
     9
 73
     5
 74
     0
 42
0.000000001
 43
0.0000000001
 40
-1.0
 40
-1.0
 40
-1.0
 40
-1.0
 40
-0.7
 40
-0.4998809389317964
 40
-0.4998809389317964
 40
-0.4998809389317964
 40
-0.4998809389317964
 10
863.0943327025628
 20
1980.514428414856
 30
0.0
 10
862.9572872336749
 20
1980.178823248801
 30
0.0
 10
862.7948754123924
 20
1979.764784887775
 30
0.0
 10
862.74751961018
 20
1979.644102423523
 30
0.0
 10
862.747339038615
 20
1979.64388958819
 30
0.0
1001
REVIT
1002
{
1070
     3
1000
790271
1002
}
  0
SPLINE
  5
10A
330
87
100
AcDbEntity
  8
M-PIPE
100
AcDbSpline
210
0.0
220
0.0
230
1.0
 70
     8
 71
     3
 72
     8
 73
     4
 74
     0
 42
0.000000001
 43
0.0000000001
 40
-0.4998808483204993
 40
-0.4998808483204993
 40
-0.4998808483204993
 40
-0.4998808483204993
 40
-0.4
 40
-0.4
 40
-0.4
 40
-0.4
 10
862.7473390383697
 20
1979.643889587902
 30
0.0
 10
862.7472489222988
 20
1979.643783382001
 30
0.0
 10
862.7481984668934
 20
1979.646863842788
 30
0.0
 10
862.7611379148046
 20
1979.679637969714
 30
0.0
1001
REVIT
1002
{
1070
     3
1000
790271
1002
}
  0
SPLINE
  5
10B
330
87
100
AcDbEntity
  8
M-PIPE
100
AcDbSpline
210
0.0
220
0.0
230
1.0
 70
     8
 71
     3
 72
     8
 73
     4
 74
     0
 42
0.000000001
 43
0.0000000001
 40
0.4004813802581636
 40
0.4004813802581636
 40
0.4004813802581636
 40
0.4004813802581636
 40
0.5001190576772121
 40
0.5001190576772121
 40
0.5001190576772121
 40
0.5001190576772121
 10
850.2240964148388
 20
2020.320534957237
 30
0.0
 10
850.2333610741411
 20
2020.344422486573
 30
0.0
 10
850.2417132523609
 20
2020.365521222467
 30
0.0
 10
850.2454196048816
 20
2020.374715431256
 30
0.0
1001
REVIT
1002
{
1070
     3
1000
790271
1002
}
  0
SPLINE
  5
10C
330
87
100
AcDbEntity
  8
M-PIPE
100
AcDbSpline
210
0.0
220
0.0
230
1.0
 70
     8
 71
     3
 72
     9
 73
     5
 74
     0
 42
0.000000001
 43
0.0000000001
 40
0.5001191516794421
 40
0.5001191516794421
 40
0.5001191516794421
 40
0.5001191516794421
 40
0.7
 40
1.0
 40
1.0
 40
1.0
 40
1.0
 10
850.2378497037749
 20
2020.35614992044
 30
0.0
 10
850.2376843445174
 20
2020.35595343772
 30
0.0
 10
850.1904361283157
 20
2020.235460711848
 30
0.0
 10
850.0280860770624
 20
2019.821870701226
 30
0.0
 10
849.8908355371082
 20
2019.485571585157
 30
0.0
1001
REVIT
1002
{
1070
     3
1000
790271
1002
}
  0
SPLINE
  5
10D
330
87
100
AcDbEntity
  8
M-PIPE
100
AcDbSpline
210
0.0
220
0.0
230
1.0
 70
     8
 71
     3
 72
     8
 73
     4
 74
     0
 42
0.000000001
 43
0.0000000001
 40
-0.5995186197255034
 40
-0.5995186197255034
 40
-0.5995186197255034
 40
-0.5995186197255034
 40
-0.499880938925644
 40
-0.499880938925644
 40
-0.499880938925644
 40
-0.499880938925644
 10
862.7615239429694
 20
2020.320174484913
 30
0.0
 10
862.7521714967759
 20
2020.34398025986
 30
0.0
 10
862.7436334956108
 20
2020.365294766819
 30
0.0
 10
862.7416389251445
 20
2020.370062888327
 30
0.0
1001
REVIT
1002
{
1070
     3
1000
790271
1002
}
  0
SPLINE
  5
10E
330
87
100
AcDbEntity
  8
M-PIPE
100
AcDbSpline
210
0.0
220
0.0
230
1.0
 70
     8
 71
     3
 72
     9
 73
     5
 74
     0
 42
0.000000001
 43
0.0000000001
 40
-0.4998808483205584
 40
-0.4998808483205584
 40
-0.4998808483205584
 40
-0.4998808483205584
 40
-0.4
 40
0.0
 40
0.0
 40
0.0
 40
0.0
 10
862.747339038367
 20
2020.356110412112
 30
0.0
 10
862.7472489222965
 20
2020.356216618012
 30
0.0
 10
862.770197148602
 20
2020.296808714212
 30
0.0
 10
862.9113319826211
 20
2019.933970406583
 30
0.0
 10
863.0943327025603
 20
2019.485571585157
 30
0.0
1001
REVIT
1002
{
1070
     3
1000
790271
1002
}
  0
LINE
  5
10F
330
87
100
AcDbEntity
  8
M-PIPE
100
AcDbLine
 10
865.1664074431684
 20
1986.749999999958
 30
0.0
 11
889.3664074431576
 21
1986.749999999958
 31
0.0
1001
REVIT
1002
{
1070
     3
1000
790271
1002
}
  0
LINE
  5
110
330
87
100
AcDbEntity
  8
M-PIPE
100
AcDbLine
 10
889.366407443158
 20
2013.250000000033
 30
0.0
 11
865.1664074431684
 21
2013.250000000033
 31
0.0
1001
REVIT
1002
{
1070
     3
1000
790271
1002
}
  0
LINE
  5
111
330
87
100
AcDbEntity
  8
M-PIPE
100
AcDbLine
 10
889.3664074431576
 20
1986.749999999965
 30
0.0
 11
890.6664074431576
 21
1988.049999999965
 31
0.0
1001
REVIT
1002
{
1070
     3
1000
790271
1002
}
  0
LINE
  5
112
330
87
100
AcDbEntity
  8
M-PIPE
100
AcDbLine
 10
890.666407443158
 20
2011.950000000026
 30
0.0
 11
889.366407443158
 21
2013.250000000026
 31
0.0
1001
REVIT
1002
{
1070
     3
1000
790271
1002
}
  0
LINE
  5
113
330
87
100
AcDbEntity
  8
M-PIPE
100
AcDbLine
 10
874.1664074431563
 20
2013.022617026274
 30
0.0
 11
874.1664074431563
 21
2008.628018068291
 31
0.0
1001
REVIT
1002
{
1070
     3
1000
790271
1002
}
  0
LINE
  5
114
330
87
100
AcDbEntity
  8
M-PIPE
100
AcDbLine
 10
874.1664074431563
 20
2008.628018068292
 30
0.0
 11
865.1664074431666
 21
2008.628018068292
 31
0.0
1001
REVIT
1002
{
1070
     3
1000
790271
1002
}
  0
LINE
  5
115
330
87
100
AcDbEntity
  8
M-PIPE
100
AcDbLine
 10
865.1664074431666
 20
2013.022617026274
 30
0.0
 11
874.1664074431563
 21
2013.022617026274
 31
0.0
1001
REVIT
1002
{
1070
     3
1000
790271
1002
}
  0
LINE
  5
116
330
87
100
AcDbEntity
  8
M-PIPE
100
AcDbLine
 10
874.1664074431563
 20
2004.394598957955
 30
0.0
 11
874.1664074431563
 21
1995.605401042035
 31
0.0
1001
REVIT
1002
{
1070
     3
1000
790271
1002
}
  0
LINE
  5
117
330
87
100
AcDbEntity
  8
M-PIPE
100
AcDbLine
 10
874.1664074431563
 20
1995.605401042036
 30
0.0
 11
865.1664074431666
 21
1995.605401042036
 31
0.0
1001
REVIT
1002
{
1070
     3
1000
790271
1002
}
  0
LINE
  5
118
330
87
100
AcDbEntity
  8
M-PIPE
100
AcDbLine
 10
865.1664074431666
 20
2004.394598957954
 30
0.0
 11
874.1664074431563
 21
2004.394598957954
 31
0.0
1001
REVIT
1002
{
1070
     3
1000
790271
1002
}
  0
LINE
  5
119
330
87
100
AcDbEntity
  8
M-PIPE
100
AcDbLine
 10
874.1664074431563
 20
1991.371981931633
 30
0.0
 11
874.1664074431563
 21
1986.977382973731
 31
0.0
1001
REVIT
1002
{
1070
     3
1000
790271
1002
}
  0
LINE
  5
11A
330
87
100
AcDbEntity
  8
M-PIPE
100
AcDbLine
 10
874.1664074431563
 20
1986.977382973731
 30
0.0
 11
865.1664074431666
 21
1986.977382973731
 31
0.0
1001
REVIT
1002
{
1070
     3
1000
790271
1002
}
  0
LINE
  5
11B
330
87
100
AcDbEntity
  8
M-PIPE
100
AcDbLine
 10
865.1664074431666
 20
1991.371981931633
 30
0.0
 11
874.1664074431563
 21
1991.371981931633
 31
0.0
1001
REVIT
1002
{
1070
     3
1000
790271
1002
}
  0
LINE
  5
11C
330
87
100
AcDbEntity
  8
M-PIPE
100
AcDbLine
 10
890.6664074431564
 20
2011.950000000025
 30
0.0
 11
890.666407443156
 21
1988.049999999964
 31
0.0
1001
REVIT
1002
{
1070
     3
1000
790271
1002
}
  0
LINE
  5
11D
330
87
100
AcDbEntity
  8
M-PIPE
100
AcDbLine
 10
889.3664074431558
 20
1986.749999999964
 30
0.0
 11
889.3664074431562
 21
2013.250000000025
 31
0.0
1001
REVIT
1002
{
1070
     3
1000
790271
1002
}
  0
LINE
  5
11E
330
87
100
AcDbEntity
  8
M-PIPE
100
AcDbLine
 10
741.9664074431617
 20
1986.749999999959
 30
0.0
 11
757.1664074431619
 21
1986.749999999959
 31
0.0
1001
REVIT
1002
{
1070
     3
1000
790271
1002
}
  0
LINE
  5
11F
330
87
100
AcDbEntity
  8
M-PIPE
100
AcDbLine
 10
757.1664074431616
 20
2013.250000000034
 30
0.0
 11
741.9664074431622
 21
2013.250000000034
 31
0.0
1001
REVIT
1002
{
1070
     3
1000
790271
1002
}
  0
LINE
  5
120
330
87
100
AcDbEntity
  8
M-PIPE
100
AcDbLine
 10
740.6664074431618
 20
1988.049999999966
 30
0.0
 11
741.9664074431617
 21
1986.749999999966
 31
0.0
1001
REVIT
1002
{
1070
     3
1000
790271
1002
}
  0
LINE
  5
121
330
87
100
AcDbEntity
  8
M-PIPE
100
AcDbLine
 10
741.9664074431622
 20
2013.250000000027
 30
0.0
 11
740.6664074431621
 21
2011.950000000027
 31
0.0
1001
REVIT
1002
{
1070
     3
1000
790271
1002
}
  0
LINE
  5
122
330
87
100
AcDbEntity
  8
M-PIPE
100
AcDbLine
 10
757.1664074431603
 20
1986.749999999958
 30
0.0
 11
757.1664074431603
 21
1987.500000000007
 31
0.0
1001
REVIT
1002
{
1070
     3
1000
790271
1002
}
  0
LINE
  5
123
330
87
100
AcDbEntity
  8
M-PIPE
100
AcDbLine
 10
757.1664074431602
 20
1987.500000000007
 30
0.0
 11
766.1664074431871
 21
1987.500000000007
 31
0.0
1001
REVIT
1002
{
1070
     3
1000
790271
1002
}
  0
LINE
  5
124
330
87
100
AcDbEntity
  8
M-PIPE
100
AcDbLine
 10
757.1664074431602
 20
1989.944165663004
 30
0.0
 11
757.1664074431603
 21
1997.555834336978
 31
0.0
1001
REVIT
1002
{
1070
     3
1000
790271
1002
}
  0
LINE
  5
125
330
87
100
AcDbEntity
  8
M-PIPE
100
AcDbLine
 10
757.1664074431602
 20
1997.555834336978
 30
0.0
 11
766.1664074431871
 21
1997.555834336978
 31
0.0
1001
REVIT
1002
{
1070
     3
1000
790271
1002
}
  0
LINE
  5
126
330
87
100
AcDbEntity
  8
M-PIPE
100
AcDbLine
 10
766.1664074431871
 20
1989.944165663003
 30
0.0
 11
757.1664074431602
 21
1989.944165663003
 31
0.0
1001
REVIT
1002
{
1070
     3
1000
790271
1002
}
  0
LINE
  5
127
330
87
100
AcDbEntity
  8
M-PIPE
100
AcDbLine
 10
757.1664074431602
 20
2002.444165663048
 30
0.0
 11
757.1664074431602
 21
2010.055834336962
 31
0.0
1001
REVIT
1002
{
1070
     3
1000
790271
1002
}
  0
LINE
  5
128
330
87
100
AcDbEntity
  8
M-PIPE
100
AcDbLine
 10
757.1664074431602
 20
2010.055834336963
 30
0.0
 11
766.1664074431871
 21
2010.055834336963
 31
0.0
1001
REVIT
1002
{
1070
     3
1000
790271
1002
}
  0
LINE
  5
129
330
87
100
AcDbEntity
  8
M-PIPE
100
AcDbLine
 10
766.1664074431871
 20
2002.444165663047
 30
0.0
 11
757.1664074431602
 21
2002.444165663047
 31
0.0
1001
REVIT
1002
{
1070
     3
1000
790271
1002
}
  0
LINE
  5
12A
330
87
100
AcDbEntity
  8
M-PIPE
100
AcDbLine
 10
757.1664074431602
 20
2012.500000000008
 30
0.0
 11
757.1664074431602
 21
2013.250000000033
 31
0.0
1001
REVIT
1002
{
1070
     3
1000
790271
1002
}
  0
LINE
  5
12B
330
87
100
AcDbEntity
  8
M-PIPE
100
AcDbLine
 10
766.1664074431871
 20
2012.500000000007
 30
0.0
 11
757.1664074431602
 21
2012.500000000007
 31
0.0
1001
REVIT
1002
{
1070
     3
1000
790271
1002
}
  0
LINE
  5
12C
330
87
100
AcDbEntity
  8
M-PIPE
100
AcDbLine
 10
740.6664074431603
 20
1988.049999999964
 30
0.0
 11
740.6664074431605
 21
1999.999999999995
 31
0.0
1001
REVIT
1002
{
1070
     3
1000
790271
1002
}
  0
LINE
  5
12D
330
87
100
AcDbEntity
  8
M-PIPE
100
AcDbLine
 10
740.6664074431605
 20
1999.999999999995
 30
0.0
 11
740.6664074431605
 21
2011.950000000026
 31
0.0
1001
REVIT
1002
{
1070
     3
1000
790271
1002
}
  0
LINE
  5
12E
330
87
100
AcDbEntity
  8
M-PIPE
100
AcDbLine
 10
741.9664074431607
 20
1999.999999999995
 30
0.0
 11
741.9664074431603
 21
1986.749999999965
 31
0.0
1001
REVIT
1002
{
1070
     3
1000
790271
1002
}
  0
LINE
  5
12F
330
87
100
AcDbEntity
  8
M-PIPE
100
AcDbLine
 10
741.9664074431606
 20
2013.250000000026
 30
0.0
 11
741.9664074431606
 21
1999.999999999995
 31
0.0
1001
REVIT
1002
{
1070
     3
1000
790271
1002
}
  0
LINE
  5
130
330
87
100
AcDbEntity
  8
P-SANR-FIXT
100
AcDbLine
 10
849.1664074431684
 20
2014.999999999996
 30
0.0
 11
845.1664074431599
 21
2014.999999999996
 31
0.0
  0
LINE
  5
131
330
87
100
AcDbEntity
  8
P-SANR-FIXT
100
AcDbLine
 10
845.1664074431599
 20
1984.999999999996
 30
0.0
 11
849.1664074431684
 21
1984.999999999996
 31
0.0
  0
LINE
  5
132
330
87
100
AcDbEntity
  8
P-SANR-FIXT
100
AcDbLine
 10
786.1664074431598
 20
2014.999999999996
 30
0.0
 11
782.1664074431891
 21
2014.999999999996
 31
0.0
  0
LINE
  5
133
330
87
100
AcDbEntity
  8
P-SANR-FIXT
100
AcDbLine
 10
782.1664074431886
 20
1984.999999999996
 30
0.0
 11
786.1664074431598
 21
1984.999999999996
 31
0.0
  0
LINE
  5
134
330
87
100
AcDbEntity
  8
P-SANR-FIXT
100
AcDbLine
 10
815.6664074431599
 20
1980.999999999996
 30
0.0
 11
837.6664074431598
 21
1980.999999999996
 31
0.0
  0
LINE
  5
135
330
87
100
AcDbEntity
  8
P-SANR-FIXT
100
AcDbLine
 10
837.6664074431598
 20
2018.999999999996
 30
0.0
 11
828.66640744316
 21
2018.999999999996
 31
0.0
  0
LINE
  5
136
330
87
100
AcDbEntity
  8
P-SANR-FIXT
100
AcDbLine
 10
793.6664074431599
 20
1980.999999999996
 30
0.0
 11
815.6664074431599
 21
1980.999999999996
 31
0.0
  0
LINE
  5
137
330
87
100
AcDbEntity
  8
P-SANR-FIXT
100
AcDbLine
 10
802.6664074431597
 20
2018.999999999996
 30
0.0
 11
793.6664074431599
 21
2018.999999999996
 31
0.0
  0
LINE
  5
138
330
87
100
AcDbEntity
  8
P-SANR-FIXT
100
AcDbLine
 10
802.6664074431597
 20
2024.999999999996
 30
0.0
 11
802.6664074431597
 21
2018.999999999996
 31
0.0
  0
LINE
  5
139
330
87
100
AcDbEntity
  8
P-SANR-FIXT
100
AcDbLine
 10
828.66640744316
 20
2018.999999999996
 30
0.0
 11
828.66640744316
 21
2024.999999999996
 31
0.0
  0
LINE
  5
13A
330
87
100
AcDbEntity
  8
P-SANR-FIXT
100
AcDbLine
 10
837.6664074431582
 20
2018.96507255145
 30
0.0
 11
845.1664074431583
 21
2018.96507255145
 31
0.0
  0
LINE
  5
13B
330
87
100
AcDbEntity
  8
P-SANR-FIXT
100
AcDbLine
 10
845.1664074431583
 20
2018.96507255145
 30
0.0
 11
845.1664074431583
 21
2018.999999999995
 31
0.0
  0
LINE
  5
13C
330
87
100
AcDbEntity
  8
P-SANR-FIXT
100
AcDbLine
 10
845.1664074431583
 20
1980.999999999995
 30
0.0
 11
845.1664074431583
 21
1981.03492744854
 31
0.0
  0
LINE
  5
13D
330
87
100
AcDbEntity
  8
P-SANR-FIXT
100
AcDbLine
 10
845.1664074431583
 20
1981.03492744854
 30
0.0
 11
837.6664074431582
 21
1981.03492744854
 31
0.0
  0
LINE
  5
13E
330
87
100
AcDbEntity
  8
P-SANR-FIXT
100
AcDbLine
 10
837.6664074431584
 20
1989.520208822779
 30
0.0
 11
845.1664074431585
 21
1989.520208822779
 31
0.0
  0
LINE
  5
13F
330
87
100
AcDbEntity
  8
P-SANR-FIXT
100
AcDbLine
 10
845.1664074431585
 20
1989.520208822779
 30
0.0
 11
845.1664074431585
 21
1991.514718625756
 31
0.0
  0
LINE
  5
140
330
87
100
AcDbEntity
  8
P-SANR-FIXT
100
AcDbLine
 10
845.1664074431585
 20
1991.514718625756
 30
0.0
 11
837.6664074431584
 21
1991.514718625756
 31
0.0
  0
LINE
  5
141
330
87
100
AcDbEntity
  8
P-SANR-FIXT
100
AcDbLine
 10
837.6664074431584
 20
2008.485281374234
 30
0.0
 11
845.1664074431585
 21
2008.485281374234
 31
0.0
  0
LINE
  5
142
330
87
100
AcDbEntity
  8
P-SANR-FIXT
100
AcDbLine
 10
845.1664074431585
 20
2008.485281374234
 30
0.0
 11
845.1664074431585
 21
2010.479791177211
 31
0.0
  0
LINE
  5
143
330
87
100
AcDbEntity
  8
P-SANR-FIXT
100
AcDbLine
 10
845.1664074431585
 20
2010.479791177211
 30
0.0
 11
837.6664074431584
 21
2010.479791177211
 31
0.0
  0
LINE
  5
144
330
87
100
AcDbEntity
  8
P-SANR-FIXT
100
AcDbLine
 10
793.6664074431583
 20
1981.03492744854
 30
0.0
 11
786.1664074431582
 21
1981.03492744854
 31
0.0
  0
LINE
  5
145
330
87
100
AcDbEntity
  8
P-SANR-FIXT
100
AcDbLine
 10
786.1664074431582
 20
2018.96507255145
 30
0.0
 11
793.6664074431583
 21
2018.96507255145
 31
0.0
  0
LINE
  5
146
330
87
100
AcDbEntity
  8
P-SANR-FIXT
100
AcDbLine
 10
793.6664074431583
 20
2010.479791177211
 30
0.0
 11
786.1664074431583
 21
2010.479791177211
 31
0.0
  0
LINE
  5
147
330
87
100
AcDbEntity
  8
P-SANR-FIXT
100
AcDbLine
 10
786.1664074431583
 20
2008.485281374234
 30
0.0
 11
793.6664074431583
 21
2008.485281374234
 31
0.0
  0
LINE
  5
148
330
87
100
AcDbEntity
  8
P-SANR-FIXT
100
AcDbLine
 10
793.6664074431583
 20
1991.514718625756
 30
0.0
 11
786.1664074431583
 21
1991.514718625756
 31
0.0
  0
LINE
  5
149
330
87
100
AcDbEntity
  8
P-SANR-FIXT
100
AcDbLine
 10
786.1664074431583
 20
1989.520208822779
 30
0.0
 11
793.6664074431583
 21
1989.520208822779
 31
0.0
  0
LINE
  5
14A
330
87
100
AcDbEntity
  8
P-SANR-FIXT
100
AcDbLine
 10
837.6664074431582
 20
1981.03492744854
 30
0.0
 11
837.6664074431584
 21
1989.520208822778
 31
0.0
  0
LINE
  5
14B
330
87
100
AcDbEntity
  8
P-SANR-FIXT
100
AcDbLine
 10
837.6664074431584
 20
1991.514718625756
 30
0.0
 11
837.6664074431584
 21
2008.485281374233
 31
0.0
  0
LINE
  5
14C
330
87
100
AcDbEntity
  8
P-SANR-FIXT
100
AcDbLine
 10
837.6664074431584
 20
2010.479791177211
 30
0.0
 11
837.6664074431582
 21
2018.96507255145
 31
0.0
  0
LINE
  5
14D
330
87
100
AcDbEntity
  8
P-SANR-FIXT
100
AcDbLine
 10
793.6664074431583
 20
2018.96507255145
 30
0.0
 11
793.6664074431583
 21
2010.479791177212
 31
0.0
  0
LINE
  5
14E
330
87
100
AcDbEntity
  8
P-SANR-FIXT
100
AcDbLine
 10
793.6664074431583
 20
2008.485281374234
 30
0.0
 11
793.6664074431583
 21
1991.514718625756
 31
0.0
  0
LINE
  5
14F
330
87
100
AcDbEntity
  8
P-SANR-FIXT
100
AcDbLine
 10
793.6664074431583
 20
1989.520208822779
 30
0.0
 11
793.6664074431583
 21
1981.03492744854
 31
0.0
  0
LINE
  5
150
330
87
100
AcDbEntity
  8
P-SANR-FIXT
100
AcDbLine
 10
802.6664074431582
 20
2024.999999999995
 30
0.0
 11
828.6664074431582
 21
2024.999999999995
 31
0.0
  0
SPLINE
  5
151
330
87
100
AcDbEntity
  8
P-SANR-FIXT
100
AcDbSpline
210
0.0
220
0.0
230
1.0
 70
     8
 71
     3
 72
    32
 73
    28
 74
     0
 42
0.000000001
 43
0.0000000001
 40
-1.0
 40
-1.0
 40
-1.0
 40
-1.0
 40
-0.9285714285714286
 40
-0.8928571428571427
 40
-0.8571428571428571
 40
-0.8214285714285713
 40
-0.7857142857142857
 40
-0.75
 40
-0.7321428571428572
 40
-0.7142857142857144
 40
-0.6964285714285714
 40
-0.6785714285714287
 40
-0.6428571428571428
 40
-0.6071428571428572
 40
-0.5714285714285714
 40
-0.5357142857142857
 40
-0.5
 40
-0.4642857142857144
 40
-0.4285714285714286
 40
-0.3928571428571428
 40
-0.3571428571428571
 40
-0.3214285714285714
 40
-0.2857142857142857
 40
-0.25
 40
-0.2142857142857143
 40
-0.1428571428571428
 40
0.0
 40
0.0
 40
0.0
 40
0.0
 10
815.6664074431583
 20
2013.856406460546
 30
0.0
 10
815.15742835322
 20
2013.867579737333
 30
0.0
 10
814.3998366718328
 20
2013.915366327856
 30
0.0
 10
813.4115287509235
 20
2014.042376849156
 30
0.0
 10
812.6833706955537
 20
2014.166798840595
 30
0.0
 10
811.9709545412181
 20
2014.330318665178
 30
0.0
 10
811.2762130818442
 20
2014.531187689665
 30
0.0
 10
810.7129542072167
 20
2014.717391636807
 30
0.0
 10
810.272466067283
 20
2014.872561078518
 30
0.0
 10
809.947126462416
 20
2014.98936639266
 30
0.0
 10
809.6276715270931
 20
2015.109744639195
 30
0.0
 10
809.2102849422628
 20
2015.279510336232
 30
0.0
 10
808.7036154869887
 20
2015.502847831889
 30
0.0
 10
808.1188447474088
 20
2015.78065696782
 30
0.0
 10
807.5551080558497
 20
2016.053760976339
 30
0.0
 10
807.015808301538
 20
2016.327590247968
 30
0.0
 10
806.5039469992466
 20
2016.609159730405
 30
0.0
 10
806.0178907019158
 20
2016.887175113719
 30
0.0
 10
805.5569737609614
 20
2017.151140493634
 30
0.0
 10
805.1236432678301
 20
2017.405675600885
 30
0.0
 10
804.7209621483229
 20
2017.656384789204
 30
0.0
 10
804.3491563580834
 20
2017.893327653817
 30
0.0
 10
804.0093997961884
 20
2018.107267316528
 30
0.0
 10
803.7032211046502
 20
2018.301697551339
 30
0.0
 10
803.3430469522624
 20
2018.542649323686
 30
0.0
 10
802.8460345273884
 20
2018.878192538216
 30
0.0
 10
802.6664074431582
 20
2018.991285680046
 30
0.0
 10
802.6664074431582
 20
2018.999999999995
 30
0.0
  0
SPLINE
  5
152
330
87
100
AcDbEntity
  8
P-SANR-FIXT
100
AcDbSpline
210
0.0
220
0.0
230
1.0
 70
     8
 71
     3
 72
    33
 73
    29
 74
     0
 42
0.000000001
 43
0.0000000001
 40
-1.0
 40
-1.0
 40
-1.0
 40
-1.0
 40
-0.8571428571428571
 40
-0.7857142857142856
 40
-0.75
 40
-0.7142857142857143
 40
-0.6785714285714285
 40
-0.6428571428571428
 40
-0.6071428571428572
 40
-0.5714285714285714
 40
-0.5535714285714287
 40
-0.5357142857142857
 40
-0.5
 40
-0.4642857142857144
 40
-0.4285714285714286
 40
-0.3928571428571428
 40
-0.3571428571428571
 40
-0.3214285714285714
 40
-0.3035714285714286
 40
-0.2857142857142857
 40
-0.2678571428571428
 40
-0.25
 40
-0.2142857142857143
 40
-0.1785714285714286
 40
-0.1428571428571428
 40
-0.1071428571428571
 40
-0.0714285714285714
 40
0.0
 40
0.0
 40
0.0
 40
0.0
 10
828.6664074431582
 20
2018.999999999995
 30
0.0
 10
828.6664074431582
 20
2018.991285680046
 30
0.0
 10
828.4867802958279
 20
2018.878192873482
 30
0.0
 10
827.9897680181877
 20
2018.542648876665
 30
0.0
 10
827.6295936344324
 20
2018.301698333626
 30
0.0
 10
827.323415652771
 20
2018.107264327075
 30
0.0
 10
826.9836564248947
 20
2017.893338829343
 30
0.0
 10
826.6118605887035
 20
2017.656343076553
 30
0.0
 10
826.2091423189852
 20
2017.40583127596
 30
0.0
 10
825.8481491137064
 20
2017.193104800978
 30
0.0
 10
825.5452332836854
 20
2017.019951447617
 30
0.0
 10
825.2340010410126
 20
2016.840381005946
 30
0.0
 10
824.8288385875296
 20
2016.609315405688
 30
0.0
 10
824.3170144356312
 20
2016.327548534559
 30
0.0
 10
823.7777047265964
 20
2016.053772154693
 30
0.0
 10
823.213970703537
 20
2015.780653967812
 30
0.0
 10
822.629199244681
 20
2015.502848653564
 30
0.0
 10
822.1225299632447
 20
2015.279510234266
 30
0.0
 10
821.7051433556093
 20
2015.109744658397
 30
0.0
 10
821.3856884248674
 20
2014.989366387523
 30
0.0
 10
821.0603488187803
 20
2014.872561079863
 30
0.0
 10
820.6198606792462
 20
2014.717391636029
 30
0.0
 10
820.0566018044227
 20
2014.531187689929
 30
0.0
 10
819.3618603451119
 20
2014.330318665107
 30
0.0
 10
818.6494441907594
 20
2014.166798840614
 30
0.0
 10
817.9212861353942
 20
2014.04237684915
 30
0.0
 10
816.9329782144831
 20
2013.915366327859
 30
0.0
 10
816.1753865330965
 20
2013.867579737333
 30
0.0
 10
815.6664074431583
 20
2013.856406460546
 30
0.0
  0
LINE
  5
153
330
87
100
AcDbEntity
  8
P-SANR-FIXT
100
AcDbLine
 10
845.1664074431583
 20
2018.96507255145
 30
0.0
 11
845.1664074431585
 21
2010.479791177211
 31
0.0
  0
LINE
  5
154
330
87
100
AcDbEntity
  8
P-SANR-FIXT
100
AcDbLine
 10
845.1664074431585
 20
2008.485281374234
 30
0.0
 11
845.1664074431585
 21
1991.514718625756
 31
0.0
  0
LINE
  5
155
330
87
100
AcDbEntity
  8
P-SANR-FIXT
100
AcDbLine
 10
845.1664074431585
 20
1989.520208822779
 30
0.0
 11
845.1664074431583
 21
1981.03492744854
 31
0.0
  0
LINE
  5
156
330
87
100
AcDbEntity
  8
P-SANR-FIXT
100
AcDbLine
 10
786.1664074431582
 20
1981.03492744854
 30
0.0
 11
786.1664074431582
 21
1980.999999999995
 31
0.0
  0
LINE
  5
157
330
87
100
AcDbEntity
  8
P-SANR-FIXT
100
AcDbLine
 10
786.1664074431582
 20
1981.03492744854
 30
0.0
 11
786.1664074431583
 21
1989.520208822779
 31
0.0
  0
LINE
  5
158
330
87
100
AcDbEntity
  8
P-SANR-FIXT
100
AcDbLine
 10
786.1664074431583
 20
1991.514718625756
 30
0.0
 11
786.1664074431583
 21
1989.520208822779
 31
0.0
  0
LINE
  5
159
330
87
100
AcDbEntity
  8
P-SANR-FIXT
100
AcDbLine
 10
786.1664074431583
 20
1991.514718625756
 30
0.0
 11
786.1664074431583
 21
2008.485281374234
 31
0.0
  0
LINE
  5
15A
330
87
100
AcDbEntity
  8
P-SANR-FIXT
100
AcDbLine
 10
786.1664074431583
 20
2010.479791177212
 30
0.0
 11
786.1664074431583
 21
2008.485281374234
 31
0.0
  0
LINE
  5
15B
330
87
100
AcDbEntity
  8
P-SANR-FIXT
100
AcDbLine
 10
786.1664074431583
 20
2010.479791177212
 30
0.0
 11
786.1664074431582
 21
2018.96507255145
 31
0.0
  0
LINE
  5
15C
330
87
100
AcDbEntity
  8
P-SANR-FIXT
100
AcDbLine
 10
786.1664074431582
 20
2018.999999999995
 30
0.0
 11
786.1664074431582
 21
2018.96507255145
 31
0.0
  0
ENDBLK
  5
15E
330
87
100
AcDbEntity
  8
0
100
AcDbBlockEnd
  0
BLOCK
  5
1B4
330
160
100
AcDbEntity
  8
0
100
AcDbBlockBegin
  2
Automatic flow rate regulator valve_Caleffi_121 DN15 - 1_2__-V1-Est - Idraulica
 70
     0
 10
0.0
 20
0.0
 30
0.0
  3
Automatic flow rate regulator valve_Caleffi_121 DN15 - 1_2__-V1-Est - Idraulica
  1

  0
LINE
  5
161
330
160
100
AcDbEntity
  8
M-PIPE
100
AcDbLine
 10
818.4948345679211
 20
1786.322493106302
 30
0.0
 11
791.9783302734259
 21
1759.805988811806
 31
0.0
1001
REVIT
1002
{
1070
     3
1000
923261
1002
}
  0
LINE
  5
162
330
160
100
AcDbEntity
  8
M-PIPE
100
AcDbLine
 10
832.3632407434216
 20
1800.190899281803
 30
0.0
 11
818.4948345679211
 21
1786.322493106302
 31
0.0
1001
REVIT
1002
{
1070
     3
1000
923261
1002
}
  0
LINE
  5
163
330
160
100
AcDbEntity
  8
M-PIPE
100
AcDbLine
 10
775.0077675249489
 20
1776.776551560283
 30
0.0
 11
801.5242718194439
 21
1803.293055854779
 31
0.0
1001
REVIT
1002
{
1070
     3
1000
923261
1002
}
  0
LINE
  5
164
330
160
100
AcDbEntity
  8
M-PIPE
100
AcDbLine
 10
801.5242718194439
 20
1803.293055854779
 30
0.0
 11
815.3926779949445
 21
1817.16146203028
 31
0.0
1001
REVIT
1002
{
1070
     3
1000
923261
1002
}
  0
LINE
  5
165
330
160
100
AcDbEntity
  8
M-PIPE
100
AcDbLine
 10
832.3632407434216
 20
1800.190899281803
 30
0.0
 11
825.3579644254745
 21
1807.19617559975
 31
0.0
1001
REVIT
1002
{
1070
     3
1000
923261
1002
}
  0
SPLINE
  5
166
330
160
100
AcDbEntity
  8
M-PIPE
100
AcDbSpline
210
0.0
220
0.0
230
1.0
 70
     8
 71
     3
 72
     9
 73
     5
 74
     0
 42
0.000000001
 43
0.0000000001
 40
0.0
 40
0.0
 40
0.0
 40
0.0
 40
0.5
 40
1.0
 40
1.0
 40
1.0
 40
1.0
 10
825.3579644254745
 20
1807.19617559975
 30
0.0
 10
825.2471643164152
 20
1807.359233704957
 30
0.0
 10
825.000240458274
 20
1807.69398295022
 30
0.0
 10
824.7062662852396
 20
1808.049595230331
 30
0.0
 10
824.5482450366695
 20
1808.23334554577
 30
0.0
1001
REVIT
1002
{
1070
     3
1000
923261
1002
}
  0
LINE
  5
167
330
160
100
AcDbEntity
  8
M-PIPE
100
AcDbLine
 10
823.9921019477247
 20
1808.79032323456
 30
0.0
 11
824.5482450366695
 21
1808.23334554577
 31
0.0
1001
REVIT
1002
{
1070
     3
1000
923261
1002
}
  0
LINE
  5
168
330
160
100
AcDbEntity
  8
M-PIPE
100
AcDbLine
 10
823.4351242589344
 20
1809.346466323504
 30
0.0
 11
823.9921019477247
 21
1808.79032323456
 31
0.0
1001
REVIT
1002
{
1070
     3
1000
923261
1002
}
  0
SPLINE
  5
169
330
160
100
AcDbEntity
  8
M-PIPE
100
AcDbSpline
210
0.0
220
0.0
230
1.0
 70
     8
 71
     3
 72
     9
 73
     5
 74
     0
 42
0.000000001
 43
0.0000000001
 40
0.0
 40
0.0
 40
0.0
 40
0.0
 40
0.5
 40
1.0
 40
1.0
 40
1.0
 40
1.0
 10
823.4351242589344
 20
1809.346466323504
 30
0.0
 10
823.2513739434963
 20
1809.504487572074
 30
0.0
 10
822.8957616633849
 20
1809.798461745109
 30
0.0
 10
822.5610124181223
 20
1810.04538560325
 30
0.0
 10
822.3979543129148
 20
1810.15618571231
 30
0.0
1001
REVIT
1002
{
1070
     3
1000
923261
1002
}
  0
LINE
  5
16A
330
160
100
AcDbEntity
  8
M-PIPE
100
AcDbLine
 10
822.3979543129148
 20
1810.15618571231
 30
0.0
 11
815.3926779949445
 21
1817.16146203028
 31
0.0
1001
REVIT
1002
{
1070
     3
1000
923261
1002
}
  0
LINE
  5
16B
330
160
100
AcDbEntity
  8
M-PIPE
100
AcDbLine
 10
775.0077675249489
 20
1776.776551560283
 30
0.0
 11
791.9783302734259
 21
1759.805988811806
 31
0.0
1001
REVIT
1002
{
1070
     3
1000
923261
1002
}
  0
LINE
  5
16C
330
160
100
AcDbEntity
  8
M-PIPE
100
AcDbLine
 10
762.1664074431638
 20
1788.46462873005
 30
0.0
 11
770.1664074431637
 21
1788.464628730049
 31
0.0
1001
REVIT
1002
{
1070
     3
1000
923261
1002
}
  0
LINE
  5
16D
330
160
100
AcDbEntity
  8
M-PIPE
100
AcDbLine
 10
770.1664074431635
 20
1812.464628730049
 30
0.0
 11
762.1664074431634
 21
1812.464628730049
 31
0.0
1001
REVIT
1002
{
1070
     3
1000
923261
1002
}
  0
LINE
  5
16E
330
160
100
AcDbEntity
  8
M-PIPE
100
AcDbLine
 10
757.166407443163
 20
1792.46462873005
 30
0.0
 11
762.1664074431637
 21
1792.46462873005
 31
0.0
1001
REVIT
1002
{
1070
     3
1000
923261
1002
}
  0
LINE
  5
16F
330
160
100
AcDbEntity
  8
M-PIPE
100
AcDbLine
 10
770.1664074431636
 20
1792.46462873005
 30
0.0
 11
783.1664074431631
 21
1792.46462873005
 31
0.0
1001
REVIT
1002
{
1070
     3
1000
923261
1002
}
  0
LINE
  5
170
330
160
100
AcDbEntity
  8
M-PIPE
100
AcDbLine
 10
783.1664074431631
 20
1808.46462873005
 30
0.0
 11
770.1664074431637
 21
1808.46462873005
 31
0.0
1001
REVIT
1002
{
1070
     3
1000
923261
1002
}
  0
LINE
  5
171
330
160
100
AcDbEntity
  8
M-PIPE
100
AcDbLine
 10
762.1664074431635
 20
1808.46462873005
 30
0.0
 11
757.166407443163
 21
1808.46462873005
 31
0.0
1001
REVIT
1002
{
1070
     3
1000
923261
1002
}
  0
LINE
  5
172
330
160
100
AcDbEntity
  8
M-PIPE
100
AcDbLine
 10
898.6664074431635
 20
1767.46462873005
 30
0.0
 11
898.6664074431629
 21
1833.46462873005
 31
0.0
1001
REVIT
1002
{
1070
     3
1000
923261
1002
}
  0
LINE
  5
173
330
160
100
AcDbEntity
  8
M-PIPE
100
AcDbLine
 10
770.166407443162
 20
1812.464628730049
 30
0.0
 11
770.1664074431622
 21
1788.464628730049
 31
0.0
1001
REVIT
1002
{
1070
     3
1000
923261
1002
}
  0
LINE
  5
174
330
160
100
AcDbEntity
  8
M-PIPE
100
AcDbLine
 10
757.1664074431615
 20
1792.464628730049
 30
0.0
 11
757.1664074431615
 21
1808.464628730049
 31
0.0
1001
REVIT
1002
{
1070
     3
1000
923261
1002
}
  0
LINE
  5
175
330
160
100
AcDbEntity
  8
M-PIPE
100
AcDbLine
 10
762.1664074431622
 20
1788.464628730049
 30
0.0
 11
762.166407443162
 21
1812.464628730049
 31
0.0
1001
REVIT
1002
{
1070
     3
1000
923261
1002
}
  0
LINE
  5
176
330
160
100
AcDbEntity
  8
M-PIPE
100
AcDbLine
 10
898.6664074431619
 20
1767.464628730049
 30
0.0
 11
891.666407443162
 21
1767.464628730049
 31
0.0
1001
REVIT
1002
{
1070
     3
1000
923261
1002
}
  0
LINE
  5
177
330
160
100
AcDbEntity
  8
M-PIPE
100
AcDbLine
 10
891.6664074431619
 20
1767.464628730049
 30
0.0
 11
799.6369701916681
 21
1767.464628730049
 31
0.0
1001
REVIT
1002
{
1070
     3
1000
923261
1002
}
  0
LINE
  5
178
330
160
100
AcDbEntity
  8
M-PIPE
100
AcDbLine
 10
784.3196903551835
 20
1767.464628730049
 30
0.0
 11
783.1664074431619
 21
1767.464628730049
 31
0.0
1001
REVIT
1002
{
1070
     3
1000
923261
1002
}
  0
LINE
  5
179
330
160
100
AcDbEntity
  8
M-PIPE
100
AcDbLine
 10
783.1664074431614
 20
1833.464628730049
 30
0.0
 11
891.6664074431615
 21
1833.46462873005
 31
0.0
1001
REVIT
1002
{
1070
     3
1000
923261
1002
}
  0
LINE
  5
17A
330
160
100
AcDbEntity
  8
M-PIPE
100
AcDbLine
 10
891.6664074431615
 20
1833.46462873005
 30
0.0
 11
898.6664074431613
 21
1833.46462873005
 31
0.0
1001
REVIT
1002
{
1070
     3
1000
923261
1002
}
  0
LINE
  5
17B
330
160
100
AcDbEntity
  8
M-PIPE
100
AcDbLine
 10
783.1664074431618
 20
1766.464628730049
 30
0.0
 11
783.1664074431618
 21
1767.464628730049
 31
0.0
1001
REVIT
1002
{
1070
     3
1000
923261
1002
}
  0
LINE
  5
17C
330
160
100
AcDbEntity
  8
M-PIPE
100
AcDbLine
 10
783.1664074431614
 20
1833.464628730049
 30
0.0
 11
783.1664074431618
 21
1784.935191478496
 31
0.0
1001
REVIT
1002
{
1070
     3
1000
923261
1002
}
  0
LINE
  5
17D
330
160
100
AcDbEntity
  8
M-PIPE
100
AcDbLine
 10
783.1664074431618
 20
1768.617911642071
 30
0.0
 11
783.1664074431619
 21
1767.464628730049
 31
0.0
1001
REVIT
1002
{
1070
     3
1000
923261
1002
}
  0
LINE
  5
17E
330
160
100
AcDbEntity
  8
M-PIPE
100
AcDbLine
 10
783.1664074431613
 20
1833.464628730049
 30
0.0
 11
783.1664074431613
 21
1834.464628730049
 31
0.0
1001
REVIT
1002
{
1070
     3
1000
923261
1002
}
  0
LINE
  5
17F
330
160
100
AcDbEntity
  8
M-PIPE
100
AcDbLine
 10
900.1664074431618
 20
1766.46462873005
 30
0.0
 11
886.1134609974286
 21
1766.46462873005
 31
0.0
1001
REVIT
1002
{
1070
     3
1000
923261
1002
}
  0
LINE
  5
180
330
160
100
AcDbEntity
  8
M-PIPE
100
AcDbLine
 10
886.1134609974294
 20
1766.46462873005
 30
0.0
 11
849.5182691002028
 21
1766.464628730049
 31
0.0
1001
REVIT
1002
{
1070
     3
1000
923261
1002
}
  0
LINE
  5
181
330
160
100
AcDbEntity
  8
M-PIPE
100
AcDbLine
 10
849.5182691002032
 20
1766.464628730049
 30
0.0
 11
798.6430530177898
 21
1766.464628730049
 31
0.0
1001
REVIT
1002
{
1070
     3
1000
923261
1002
}
  0
LINE
  5
182
330
160
100
AcDbEntity
  8
M-PIPE
100
AcDbLine
 10
785.319109895351
 20
1766.464628730049
 30
0.0
 11
783.1664074431618
 21
1766.464628730049
 31
0.0
1001
REVIT
1002
{
1070
     3
1000
923261
1002
}
  0
LINE
  5
183
330
160
100
AcDbEntity
  8
M-PIPE
100
AcDbLine
 10
783.1664074431603
 20
1834.464628730049
 30
0.0
 11
849.5182691002019
 21
1834.464628730049
 31
0.0
1001
REVIT
1002
{
1070
     3
1000
923261
1002
}
  0
LINE
  5
184
330
160
100
AcDbEntity
  8
M-PIPE
100
AcDbLine
 10
849.5182691002012
 20
1834.464628730049
 30
0.0
 11
886.113460997428
 21
1834.46462873005
 31
0.0
1001
REVIT
1002
{
1070
     3
1000
923261
1002
}
  0
LINE
  5
185
330
160
100
AcDbEntity
  8
M-PIPE
100
AcDbLine
 10
886.113460997428
 20
1834.46462873005
 30
0.0
 11
900.1664074431614
 21
1834.46462873005
 31
0.0
1001
REVIT
1002
{
1070
     3
1000
923261
1002
}
  0
LINE
  5
186
330
160
100
AcDbEntity
  8
M-PIPE
100
AcDbLine
 10
900.1664074431614
 20
1834.46462873005
 30
0.0
 11
900.1664074431618
 21
1766.46462873005
 31
0.0
1001
REVIT
1002
{
1070
     3
1000
923261
1002
}
  0
LINE
  5
187
330
160
100
AcDbEntity
  8
M-PIPE
100
AcDbLine
 10
886.1134609974294
 20
1767.464628730049
 30
0.0
 11
886.1134609974294
 21
1766.46462873005
 31
0.0
1001
REVIT
1002
{
1070
     3
1000
923261
1002
}
  0
LINE
  5
188
330
160
100
AcDbEntity
  8
M-PIPE
100
AcDbLine
 10
886.1134609974289
 20
1834.46462873005
 30
0.0
 11
886.1134609974289
 21
1833.46462873005
 31
0.0
1001
REVIT
1002
{
1070
     3
1000
923261
1002
}
  0
LINE
  5
189
330
160
100
AcDbEntity
  8
M-PIPE
100
AcDbLine
 10
849.5182691002032
 20
1767.464628730049
 30
0.0
 11
849.5182691002032
 21
1766.464628730049
 31
0.0
1001
REVIT
1002
{
1070
     3
1000
923261
1002
}
  0
LINE
  5
18A
330
160
100
AcDbEntity
  8
M-PIPE
100
AcDbLine
 10
849.5182691002028
 20
1834.464628730049
 30
0.0
 11
849.5182691002028
 21
1833.464628730049
 31
0.0
1001
REVIT
1002
{
1070
     3
1000
923261
1002
}
  0
ARC
  5
18B
330
160
100
AcDbEntity
  8
M-PIPE
100
AcDbCircle
 10
849.5182691002133
 20
1787.464628730049
 30
0.0
 40
8.0
100
AcDbArc
 50
180.0
 51
359.999999999998
1001
REVIT
1002
{
1070
     3
1000
923261
1002
}
  0
ARC
  5
18C
330
160
100
AcDbEntity
  8
M-PIPE
100
AcDbCircle
 10
849.5182691002133
 20
1787.464628730049
 30
0.0
 40
7.999999999999702
100
AcDbArc
 50
0.0000000000008142
 51
180.0000000000008
1001
REVIT
1002
{
1070
     3
1000
923261
1002
}
  0
ARC
  5
18D
330
160
100
AcDbEntity
  8
M-PIPE
100
AcDbCircle
 10
815.6664074431732
 20
1800.464628730033
 30
0.0
 40
12.0
100
AcDbArc
 50
30.48057830519268
 51
59.51942169480918
1001
REVIT
1002
{
1070
     3
1000
923261
1002
}
  0
LINE
  5
18E
330
160
100
AcDbEntity
  8
M-PIPE
100
AcDbLine
 10
766.1664074431885
 20
1784.298821192724
 30
0.0
 11
767.5141521312569
 21
1781.964458917359
 31
0.0
1001
REVIT
1002
{
1070
     3
1000
790271
1002
}
  0
LINE
  5
18F
330
160
100
AcDbEntity
  8
M-PIPE
100
AcDbLine
 10
767.5141521312711
 20
1818.964798542768
 30
0.0
 11
766.1664074431883
 21
1816.630436267378
 31
0.0
1001
REVIT
1002
{
1070
     3
1000
790271
1002
}
  0
LINE
  5
190
330
160
100
AcDbEntity
  8
M-PIPE
100
AcDbLine
 10
768.2384821837923
 20
1781.964628730063
 30
0.0
 11
780.1958446947294
 21
1781.964628730063
 31
0.0
1001
REVIT
1002
{
1070
     3
1000
790271
1002
}
  0
LINE
  5
191
330
160
100
AcDbEntity
  8
M-PIPE
100
AcDbLine
 10
781.4419793492361
 20
1818.964628730063
 30
0.0
 11
768.2384821838056
 21
1818.964628730063
 31
0.0
1001
REVIT
1002
{
1070
     3
1000
790271
1002
}
  0
LINE
  5
192
330
160
100
AcDbEntity
  8
M-PIPE
100
AcDbLine
 10
766.1664074431869
 20
1784.298821192723
 30
0.0
 11
766.1664074431871
 21
1788.453685726566
 31
0.0
1001
REVIT
1002
{
1070
     3
1000
790271
1002
}
  0
LINE
  5
193
330
160
100
AcDbEntity
  8
M-PIPE
100
AcDbLine
 10
766.1664074431871
 20
1812.475571733532
 30
0.0
 11
766.166407443187
 21
1816.630436267377
 31
0.0
1001
REVIT
1002
{
1070
     3
1000
790271
1002
}
  0
LINE
  5
194
330
160
100
AcDbEntity
  8
M-PIPE
100
AcDbLine
 10
782.1664074431871
 20
1792.46110261146
 30
0.0
 11
782.1664074431871
 21
1791.21462873005
 31
0.0
1001
REVIT
1002
{
1070
     3
1000
790271
1002
}
  0
LINE
  5
195
330
160
100
AcDbEntity
  8
M-PIPE
100
AcDbLine
 10
782.1664074431871
 20
1791.21462873005
 30
0.0
 11
782.1664074431871
 21
1783.921597049461
 31
0.0
1001
REVIT
1002
{
1070
     3
1000
790271
1002
}
  0
LINE
  5
196
330
160
100
AcDbEntity
  8
M-PIPE
100
AcDbLine
 10
782.1664074431871
 20
1818.96462873005
 30
0.0
 11
782.1664074431875
 21
1809.71462873005
 31
0.0
1001
REVIT
1002
{
1070
     3
1000
790271
1002
}
  0
LINE
  5
197
330
160
100
AcDbEntity
  8
M-PIPE
100
AcDbLine
 10
782.1664074431875
 20
1809.71462873005
 30
0.0
 11
782.1664074431875
 21
1808.468154848637
 31
0.0
1001
REVIT
1002
{
1070
     3
1000
790271
1002
}
  0
SPLINE
  5
198
330
160
100
AcDbEntity
  8
M-PIPE
100
AcDbSpline
210
0.0
220
0.0
230
1.0
 70
    24
 71
     3
 72
     9
 73
     5
 74
     0
 42
0.000000001
 43
0.0000000001
 40
0.0
 40
0.0
 40
0.0
 40
0.0
 40
0.5
 40
0.5041690251602724
 40
0.5041690251602724
 40
0.5041690251602724
 40
0.5041690251602724
 10
768.2384821837908
 20
1781.964628730062
 30
0.0
 10
767.7555619079952
 20
1781.964628730062
 30
0.0
 10
767.5120884633163
 20
1781.964628730062
 30
0.0
 10
767.5141185571487
 20
1781.964628730062
 30
0.0
 10
767.5141521312553
 20
1781.964628730062
 30
0.0
1001
REVIT
1002
{
1070
     3
1000
790271
1002
}
  0
SPLINE
  5
199
330
160
100
AcDbEntity
  8
M-PIPE
100
AcDbSpline
210
0.0
220
0.0
230
1.0
 70
     8
 71
     3
 72
     9
 73
     5
 74
     0
 42
0.000000001
 43
0.0000000001
 40
0.0
 40
0.0
 40
0.0
 40
0.0
 40
0.5
 40
1.0
 40
1.0
 40
1.0
 40
1.0
 10
781.4419793492443
 20
1785.214628730062
 30
0.0
 10
781.6791685919737
 20
1786.204322162137
 30
0.0
 10
782.0370958503603
 20
1788.194015594209
 30
0.0
 10
782.162120654602
 20
1790.204322162126
 30
0.0
 10
782.1664074431869
 20
1791.214628730045
 30
0.0
1001
REVIT
1002
{
1070
     3
1000
790271
1002
}
  0
SPLINE
  5
19A
330
160
100
AcDbEntity
  8
M-PIPE
100
AcDbSpline
210
0.0
220
0.0
230
1.0
 70
     8
 71
     3
 72
     8
 73
     4
 74
     0
 42
0.000000001
 43
0.0000000001
 40
0.0
 40
0.0
 40
0.0
 40
0.0
 40
0.207265236713196
 40
0.207265236713196
 40
0.207265236713196
 40
0.207265236713196
 10
782.1664074431869
 20
1791.214628730045
 30
0.0
 10
782.1646304386853
 20
1791.633431589954
 30
0.0
 10
782.1528482059886
 20
1792.051348932666
 30
0.0
 10
782.131060745097
 20
1792.468380758184
 30
0.0
1001
REVIT
1002
{
1070
     3
1000
790271
1002
}
  0
SPLINE
  5
19B
330
160
100
AcDbEntity
  8
M-PIPE
100
AcDbSpline
210
0.0
220
0.0
230
1.0
 70
     8
 71
     3
 72
     8
 73
     4
 74
     0
 42
0.000000001
 43
0.0000000001
 40
0.7390935442531283
 40
0.7390935442531283
 40
0.7390935442531283
 40
0.7390935442531283
 40
1.0
 40
1.0
 40
1.0
 40
1.0
 10
767.6797406901291
 20
1788.382431647945
 30
0.0
 10
767.8002409841089
 20
1787.330842343633
 30
0.0
 10
767.9864881486642
 20
1786.274908037672
 30
0.0
 10
768.2384821837948
 20
1785.214628730062
 30
0.0
1001
REVIT
1002
{
1070
     3
1000
790271
1002
}
  0
SPLINE
  5
19C
330
160
100
AcDbEntity
  8
M-PIPE
100
AcDbSpline
210
0.0
220
0.0
230
1.0
 70
     8
 71
     3
 72
     8
 73
     4
 74
     0
 42
0.000000001
 43
0.0000000001
 40
0.7927347632847837
 40
0.7927347632847837
 40
0.7927347632847837
 40
0.7927347632847837
 40
1.0
 40
1.0
 40
1.0
 40
1.0
 10
782.1310607450929
 20
1808.460876701914
 30
0.0
 10
782.1528482059858
 20
1808.877908527434
 30
0.0
 10
782.1646304386839
 20
1809.29582587015
 30
0.0
 10
782.1664074431869
 20
1809.71462873006
 30
0.0
1001
REVIT
1002
{
1070
     3
1000
790271
1002
}
  0
SPLINE
  5
19D
330
160
100
AcDbEntity
  8
M-PIPE
100
AcDbSpline
210
0.0
220
0.0
230
1.0
 70
     8
 71
     3
 72
     9
 73
     5
 74
     0
 42
0.000000001
 43
0.0000000001
 40
0.0
 40
0.0
 40
0.0
 40
0.0
 40
0.5
 40
1.0
 40
1.0
 40
1.0
 40
1.0
 10
782.1664074431869
 20
1809.71462873006
 30
0.0
 10
782.1621206545986
 20
1810.724935297983
 30
0.0
 10
782.0370958503513
 20
1812.735241865906
 30
0.0
 10
781.6791685919627
 20
1814.724935297984
 30
0.0
 10
781.4419793492332
 20
1815.714628730062
 30
0.0
1001
REVIT
1002
{
1070
     3
1000
790271
1002
}
  0
SPLINE
  5
19E
330
160
100
AcDbEntity
  8
M-PIPE
100
AcDbSpline
210
0.0
220
0.0
230
1.0
 70
     8
 71
     3
 72
     8
 73
     4
 74
     0
 42
0.000000001
 43
0.0000000001
 40
0.0
 40
0.0
 40
0.0
 40
0.0
 40
0.2668921649678416
 40
0.2668921649678416
 40
0.2668921649678416
 40
0.2668921649678416
 10
768.2384821838057
 20
1815.714628730062
 30
0.0
 10
767.9807069079788
 20
1814.66409561863
 30
0.0
 10
767.7917298335925
 20
1813.609015852794
 30
0.0
 10
767.6715509606467
 20
1812.549389432553
 30
0.0
1001
REVIT
1002
{
1070
     3
1000
790271
1002
}
  0
SPLINE
  5
19F
330
160
100
AcDbEntity
  8
M-PIPE
100
AcDbSpline
210
0.0
220
0.0
230
1.0
 70
    24
 71
     3
 72
     9
 73
     5
 74
     0
 42
0.000000001
 43
0.0000000001
 40
0.0
 40
0.0
 40
0.0
 40
0.0
 40
0.5
 40
1.0
 40
1.0
 40
1.0
 40
1.0
 10
781.4419793492348
 20
1818.964628730062
 30
0.0
 10
781.6791685919661
 20
1818.964628730062
 30
0.0
 10
782.0370958503562
 20
1818.964628730062
 30
0.0
 10
782.1621206546008
 20
1818.964628730062
 30
0.0
 10
782.1664074431867
 20
1818.964628730062
 30
0.0
1001
REVIT
1002
{
1070
     3
1000
790271
1002
}
  0
SPLINE
  5
1A0
330
160
100
AcDbEntity
  8
M-PIPE
100
AcDbSpline
210
0.0
220
0.0
230
1.0
 70
    24
 71
     3
 72
     8
 73
     4
 74
     0
 42
0.000000001
 43
0.0000000001
 40
0.5
 40
0.5
 40
0.5
 40
0.5
 40
1.0
 40
1.0
 40
1.0
 40
1.0
 10
767.5141017701098
 20
1818.964628730062
 30
0.0
 10
767.514101770111
 20
1818.964628730062
 30
0.0
 10
767.7555619080091
 20
1818.964628730062
 30
0.0
 10
768.2384821838042
 20
1818.964628730062
 30
0.0
1001
REVIT
1002
{
1070
     3
1000
790271
1002
}
  0
SPLINE
  5
1A1
330
160
100
AcDbEntity
  8
M-PIPE
100
AcDbSpline
210
0.0
220
0.0
230
1.0
 70
     8
 71
     3
 72
     9
 73
     5
 74
     0
 42
0.000000001
 43
0.0000000001
 40
0.5032907602020746
 40
0.5032907602020746
 40
0.5032907602020746
 40
0.5032907602020746
 40
0.7
 40
1.0
 40
1.0
 40
1.0
 40
1.0
 10
781.0949871980345
 20
1782.846491920644
 30
0.0
 10
781.0957347295866
 20
1783.072840326551
 30
0.0
 10
781.1434088251197
 20
1783.746033092702
 30
0.0
 10
781.3047288092907
 20
1784.632141574489
 30
0.0
 10
781.4419793492443
 20
1785.214628730062
 30
0.0
1001
REVIT
1002
{
1070
     3
1000
790271
1002
}
  0
SPLINE
  5
1A2
330
160
100
AcDbEntity
  8
M-PIPE
100
AcDbSpline
210
0.0
220
0.0
230
1.0
 70
     8
 71
     3
 72
    10
 73
     6
 74
     0
 42
0.000000001
 43
0.0000000001
 40
-1.0
 40
-1.0
 40
-1.0
 40
-1.0
 40
-0.7
 40
-0.4
 40
0.0
 40
0.0
 40
0.0
 40
0.0
 10
768.2384821837908
 20
1781.964628730062
 30
0.0
 10
768.3755276526786
 20
1781.964628730062
 30
0.0
 10
768.5703754406461
 20
1782.174442350546
 30
0.0
 10
768.6191187686483
 20
1783.226366530687
 30
0.0
 10
768.4214829037328
 20
1784.437979189298
 30
0.0
 10
768.2384821837948
 20
1785.214628730062
 30
0.0
1001
REVIT
1002
{
1070
     3
1000
790271
1002
}
  0
SPLINE
  5
1A3
330
160
100
AcDbEntity
  8
M-PIPE
100
AcDbSpline
210
0.0
220
0.0
230
1.0
 70
     8
 71
     3
 72
    10
 73
     6
 74
     0
 42
0.000000001
 43
0.0000000001
 40
0.0
 40
0.0
 40
0.0
 40
0.0
 40
0.4
 40
0.7
 40
1.0
 40
1.0
 40
1.0
 40
1.0
 10
781.4419793492332
 20
1815.714628730062
 30
0.0
 10
781.2592520573834
 20
1816.489675661918
 30
0.0
 10
781.0614609235009
 20
1817.702018222871
 30
0.0
 10
781.109862310436
 20
1818.754089453847
 30
0.0
 10
781.3047288092807
 20
1818.964628730062
 30
0.0
 10
781.4419793492348
 20
1818.964628730062
 30
0.0
1001
REVIT
1002
{
1070
     3
1000
790271
1002
}
  0
SPLINE
  5
1A4
330
160
100
AcDbEntity
  8
M-PIPE
100
AcDbSpline
210
0.0
220
0.0
230
1.0
 70
     8
 71
     3
 72
    10
 73
     6
 74
     0
 42
0.000000001
 43
0.0000000001
 40
-1.0
 40
-1.0
 40
-1.0
 40
-1.0
 40
-0.7
 40
-0.4
 40
0.0
 40
0.0
 40
0.0
 40
0.0
 10
768.2384821838057
 20
1815.714628730062
 30
0.0
 10
768.3755276526932
 20
1816.295913928954
 30
0.0
 10
768.5703754406597
 20
1817.366085252318
 30
0.0
 10
768.6191187686597
 20
1818.633061926578
 30
0.0
 10
768.421482903743
 20
1818.964628730062
 30
0.0
 10
768.2384821838042
 20
1818.964628730062
 30
0.0
1001
REVIT
1002
{
1070
     3
1000
790271
1002
}
  0
LINE
  5
1A5
330
160
100
AcDbEntity
  8
M-PIPE
100
AcDbLine
 10
766.1664074431885
 20
1813.714628730089
 30
0.0
 11
741.9664074431612
 21
1813.714628730088
 31
0.0
1001
REVIT
1002
{
1070
     3
1000
790271
1002
}
  0
LINE
  5
1A6
330
160
100
AcDbEntity
  8
M-PIPE
100
AcDbLine
 10
741.966407443162
 20
1787.214628730013
 30
0.0
 11
766.1664074431886
 21
1787.214628730013
 31
0.0
1001
REVIT
1002
{
1070
     3
1000
790271
1002
}
  0
LINE
  5
1A7
330
160
100
AcDbEntity
  8
M-PIPE
100
AcDbLine
 10
741.9664074431612
 20
1813.714628730081
 30
0.0
 11
741.9180794757473
 21
1813.666300762667
 31
0.0
1001
REVIT
1002
{
1070
     3
1000
790271
1002
}
  0
LINE
  5
1A8
330
160
100
AcDbEntity
  8
M-PIPE
100
AcDbLine
 10
741.9026050715745
 20
1813.650826358495
 30
0.0
 11
740.6664074431614
 21
1812.414628730081
 31
0.0
1001
REVIT
1002
{
1070
     3
1000
790271
1002
}
  0
LINE
  5
1A9
330
160
100
AcDbEntity
  8
M-PIPE
100
AcDbLine
 10
740.6664074431618
 20
1788.51462873002
 30
0.0
 11
741.966407443162
 21
1787.21462873002
 31
0.0
1001
REVIT
1002
{
1070
     3
1000
790271
1002
}
  0
LINE
  5
1AA
330
160
100
AcDbEntity
  8
M-PIPE
100
AcDbLine
 10
757.1664074431601
 20
1787.442011703794
 30
0.0
 11
757.1664074431599
 21
1791.83661066166
 31
0.0
1001
REVIT
1002
{
1070
     3
1000
790271
1002
}
  0
LINE
  5
1AB
330
160
100
AcDbEntity
  8
M-PIPE
100
AcDbLine
 10
757.1664074431599
 20
1791.836610661661
 30
0.0
 11
762.1664074431622
 21
1791.836610661661
 31
0.0
1001
REVIT
1002
{
1070
     3
1000
790271
1002
}
  0
LINE
  5
1AC
330
160
100
AcDbEntity
  8
M-PIPE
100
AcDbLine
 10
766.166407443187
 20
1787.442011703794
 30
0.0
 11
757.1664074431601
 21
1787.442011703794
 31
0.0
1001
REVIT
1002
{
1070
     3
1000
790271
1002
}
  0
LINE
  5
1AD
330
160
100
AcDbEntity
  8
M-PIPE
100
AcDbLine
 10
757.1664074431599
 20
1809.092646798374
 30
0.0
 11
757.1664074431596
 21
1813.487245756323
 31
0.0
1001
REVIT
1002
{
1070
     3
1000
790271
1002
}
  0
LINE
  5
1AE
330
160
100
AcDbEntity
  8
M-PIPE
100
AcDbLine
 10
757.1664074431598
 20
1813.487245756323
 30
0.0
 11
766.1664074431866
 21
1813.487245756323
 31
0.0
1001
REVIT
1002
{
1070
     3
1000
790271
1002
}
  0
LINE
  5
1AF
330
160
100
AcDbEntity
  8
M-PIPE
100
AcDbLine
 10
762.1664074431623
 20
1809.092646798375
 30
0.0
 11
757.1664074431599
 21
1809.092646798374
 31
0.0
1001
REVIT
1002
{
1070
     3
1000
790271
1002
}
  0
LINE
  5
1B0
330
160
100
AcDbEntity
  8
M-PIPE
100
AcDbLine
 10
740.6664074431604
 20
1788.514628730019
 30
0.0
 11
740.6664074431597
 21
1812.414628730081
 31
0.0
1001
REVIT
1002
{
1070
     3
1000
790271
1002
}
  0
LINE
  5
1B1
330
160
100
AcDbEntity
  8
M-PIPE
100
AcDbLine
 10
741.9664074431599
 20
1813.71462873008
 30
0.0
 11
741.9664074431604
 21
1787.214628730019
 31
0.0
1001
REVIT
1002
{
1070
     3
1000
790271
1002
}
  0
LINE
  5
1B2
330
160
100
AcDbEntity
  8
P-SANR-FIXT
100
AcDbLine
 10
783.1664074431631
 20
1815.464628730051
 30
0.0
 11
782.1664074431887
 21
1815.464628730051
 31
0.0
  0
LINE
  5
1B3
330
160
100
AcDbEntity
  8
P-SANR-FIXT
100
AcDbLine
 10
782.1664074431887
 20
1785.464628730051
 30
0.0
 11
783.1664074431633
 21
1785.464628730051
 31
0.0
  0
ENDBLK
  5
1B5
330
160
100
AcDbEntity
  8
0
100
AcDbBlockEnd
  0
BLOCK
  5
251
330
1B7
100
AcDbEntity
  8
0
100
AcDbBlockBegin
  2
Automatic flow rate regulator valve_Caleffi_121 DN15 - 1_2__-V2-Est - Idraulica
 70
     0
 10
0.0
 20
0.0
 30
0.0
  3
Automatic flow rate regulator valve_Caleffi_121 DN15 - 1_2__-V2-Est - Idraulica
  1

  0
LINE
  5
1B8
330
1B7
100
AcDbEntity
  8
M-PIPE
100
AcDbLine
 10
1085.31435394312
 20
2105.008503219288
 30
0.0
 11
1085.31435394312
 21
2104.092558850104
 31
0.0
1001
REVIT
1002
{
1070
     3
1000
923261
1002
}
  0
LINE
  5
1B9
330
1B7
100
AcDbEntity
  8
M-PIPE
100
AcDbLine
 10
1108.91435394312
 20
2104.092558850121
 30
0.0
 11
1108.91435394312
 21
2105.008503219288
 31
0.0
1001
REVIT
1002
{
1070
     3
1000
923261
1002
}
  0
LINE
  5
1BA
330
1B7
100
AcDbEntity
  8
M-PIPE
100
AcDbLine
 10
1137.772993861341
 20
2121.092558850087
 30
0.0
 11
1137.772993861341
 21
2117.092558850087
 31
0.0
1001
REVIT
1002
{
1070
     3
1000
923261
1002
}
  0
ELLIPSE
  5
1BB
330
1B7
100
AcDbEntity
  8
M-PIPE
100
AcDbEllipse
 10
1116.782382596464
 20
2113.277765983343
 30
0.0
 11
0.0000000000004551
 21
3.814792866744028
 31
0.0
210
0.0
220
0.0
230
1.0
 40
0.7071067811865332
 41
0.0000000000000844
 42
1.570796326797722
1001
REVIT
1002
{
1070
     3
1000
923261
1002
}
  0
LINE
  5
1BC
330
1B7
100
AcDbEntity
  8
M-PIPE
100
AcDbLine
 10
1114.084916691568
 20
2113.277765983332
 30
0.0
 11
1114.084916691584
 21
2105.008503219286
 31
0.0
1001
REVIT
1002
{
1070
     3
1000
923261
1002
}
  0
ELLIPSE
  5
1BD
330
1B7
100
AcDbEntity
  8
M-PIPE
100
AcDbEllipse
 10
1099.811819847987
 20
2113.277765983343
 30
0.0
 11
0.0
 21
3.814792866744028
 31
0.0
210
0.0
220
0.0
230
1.0
 40
0.7071067811865332
 41
0.0000000000000016
 42
1.570796326797514
1001
REVIT
1002
{
1070
     3
1000
923261
1002
}
  0
LINE
  5
1BE
330
1B7
100
AcDbEntity
  8
M-PIPE
100
AcDbLine
 10
1099.811819847987
 20
2117.092558850087
 30
0.0
 11
1120.802431112864
 21
2117.092558850087
 31
0.0
1001
REVIT
1002
{
1070
     3
1000
923261
1002
}
  0
LINE
  5
1BF
330
1B7
100
AcDbEntity
  8
M-PIPE
100
AcDbLine
 10
1120.802431112864
 20
2117.092558850087
 30
0.0
 11
1120.802431112864
 21
2121.092558850087
 31
0.0
1001
REVIT
1002
{
1070
     3
1000
923261
1002
}
  0
LINE
  5
1C0
330
1B7
100
AcDbEntity
  8
M-PIPE
100
AcDbLine
 10
1120.802431112864
 20
2121.092558850087
 30
0.0
 11
1094.285926818369
 21
2121.092558850087
 31
0.0
1001
REVIT
1002
{
1070
     3
1000
923261
1002
}
  0
ELLIPSE
  5
1C1
330
1B7
100
AcDbEntity
  8
M-PIPE
100
AcDbEllipse
 10
1094.285926818369
 20
2101.092558850087
 30
0.0
 11
0.0000000000004542
 21
19.99999999999954
 31
0.0
210
0.0
220
0.0
230
0.9999999999999998
 40
0.7071067811865579
 41
0.000000000000016
 42
1.373725988846901
1001
REVIT
1002
{
1070
     3
1000
923261
1002
}
  0
LINE
  5
1C2
330
1B7
100
AcDbEntity
  8
M-PIPE
100
AcDbLine
 10
1080.417520642869
 20
2105.008503219286
 30
0.0
 11
1097.114353943107
 21
2105.008503219286
 31
0.0
1001
REVIT
1002
{
1070
     3
1000
923261
1002
}
  0
LINE
  5
1C3
330
1B7
100
AcDbEntity
  8
M-PIPE
100
AcDbLine
 10
1097.114353943107
 20
2105.008503219286
 30
0.0
 11
1097.114353943091
 21
2113.277765983333
 31
0.0
1001
REVIT
1002
{
1070
     3
1000
923261
1002
}
  0
LINE
  5
1C4
330
1B7
100
AcDbEntity
  8
M-PIPE
100
AcDbLine
 10
1120.802431112864
 20
2121.092558850087
 30
0.0
 11
1137.772993861341
 21
2121.092558850087
 31
0.0
1001
REVIT
1002
{
1070
     3
1000
923261
1002
}
  0
LINE
  5
1C5
330
1B7
100
AcDbEntity
  8
M-PIPE
100
AcDbLine
 10
1120.802431112864
 20
2117.092558850087
 30
0.0
 11
1137.772993861341
 21
2117.092558850087
 31
0.0
1001
REVIT
1002
{
1070
     3
1000
923261
1002
}
  0
LINE
  5
1C6
330
1B7
100
AcDbEntity
  8
M-PIPE
100
AcDbLine
 10
1097.114353943107
 20
2105.008503219286
 30
0.0
 11
1114.084916691584
 21
2105.008503219286
 31
0.0
1001
REVIT
1002
{
1070
     3
1000
923261
1002
}
  0
LINE
  5
1C7
330
1B7
100
AcDbEntity
  8
M-PIPE
100
AcDbLine
 10
1109.614353943117
 20
2024.982558850012
 30
0.0
 11
1109.614353943117
 21
2041.882558850073
 31
0.0
1001
REVIT
1002
{
1070
     3
1000
923261
1002
}
  0
LINE
  5
1C8
330
1B7
100
AcDbEntity
  8
M-PIPE
100
AcDbLine
 10
1084.614353943116
 20
2041.882558850073
 30
0.0
 11
1084.614353943116
 21
2024.982558850012
 31
0.0
1001
REVIT
1002
{
1070
     3
1000
923261
1002
}
  0
LINE
  5
1C9
330
1B7
100
AcDbEntity
  8
M-PIPE
100
AcDbLine
 10
1064.1143539431
 20
2041.882558850073
 30
0.0
 11
1130.1143539431
 21
2041.882558850073
 31
0.0
1001
REVIT
1002
{
1070
     3
1000
923261
1002
}
  0
LINE
  5
1CA
330
1B7
100
AcDbEntity
  8
M-PIPE
100
AcDbLine
 10
1118.114353943102
 20
2033.882558850073
 30
0.0
 11
1118.114353943102
 21
2041.882558850073
 31
0.0
1001
REVIT
1002
{
1070
     3
1000
923261
1002
}
  0
LINE
  5
1CB
330
1B7
100
AcDbEntity
  8
M-PIPE
100
AcDbLine
 10
1063.1143539431
 20
2061.980230221086
 30
0.0
 11
1064.1143539431
 21
2061.980230221086
 31
0.0
1001
REVIT
1002
{
1070
     3
1000
923261
1002
}
  0
LINE
  5
1CC
330
1B7
100
AcDbEntity
  8
M-PIPE
100
AcDbLine
 10
1130.114353943101
 20
2061.980230221086
 30
0.0
 11
1131.114353943101
 21
2061.980230221085
 31
0.0
1001
REVIT
1002
{
1070
     3
1000
923261
1002
}
  0
LINE
  5
1CD
330
1B7
100
AcDbEntity
  8
M-PIPE
100
AcDbLine
 10
1114.114353943102
 20
2102.092558850073
 30
0.0
 11
1114.114353943102
 21
2105.008503219288
 31
0.0
1001
REVIT
1002
{
1070
     3
1000
923261
1002
}
  0
LINE
  5
1CE
330
1B7
100
AcDbEntity
  8
M-PIPE
100
AcDbLine
 10
1118.114353943102
 20
2112.09255885001
 30
0.0
 11
1118.114353943102
 21
2117.092558850073
 31
0.0
1001
REVIT
1002
{
1070
     3
1000
923261
1002
}
  0
LINE
  5
1CF
330
1B7
100
AcDbEntity
  8
M-PIPE
100
AcDbLine
 10
1109.114353943117
 20
2102.092558850073
 30
0.0
 11
1109.114353943117
 21
2104.092558850073
 31
0.0
1001
REVIT
1002
{
1070
     3
1000
923261
1002
}
  0
LINE
  5
1D0
330
1B7
100
AcDbEntity
  8
M-PIPE
100
AcDbLine
 10
1085.114353943117
 20
2104.092558850073
 30
0.0
 11
1085.114353943117
 21
2102.092558850073
 31
0.0
1001
REVIT
1002
{
1070
     3
1000
923261
1002
}
  0
ARC
  5
1D1
330
1B7
100
AcDbEntity
  8
M-PIPE
100
AcDbCircle
 10
1097.114353943098
 20
2083.092558850072
 30
0.0
 40
8.000000000000481
100
AcDbArc
 50
359.9999999999988
 51
179.9999999999959
1001
REVIT
1002
{
1070
     3
1000
923261
1002
}
  0
ARC
  5
1D2
330
1B7
100
AcDbEntity
  8
M-PIPE
100
AcDbCircle
 10
1097.114353943098
 20
2083.092558850072
 30
0.0
 40
7.999999999999517
100
AcDbArc
 50
180.0000000000008
 51
0.0000000000007633
1001
REVIT
1002
{
1070
     3
1000
923261
1002
}
  0
ARC
  5
1D3
330
1B7
100
AcDbEntity
  8
M-PIPE
100
AcDbCircle
 10
1097.114353943098
 20
2083.092558850072
 30
0.0
 40
11.99999999999977
100
AcDbArc
 50
180.0
 51
0.0
1001
REVIT
1002
{
1070
     3
1000
923261
1002
}
  0
ARC
  5
1D4
330
1B7
100
AcDbEntity
  8
M-PIPE
100
AcDbCircle
 10
1097.114353943098
 20
2083.092558850072
 30
0.0
 40
11.99999999999972
100
AcDbArc
 50
0.0000000000005407
 51
180.0000000000005
1001
REVIT
1002
{
1070
     3
1000
923261
1002
}
  0
LINE
  5
1D5
330
1B7
100
AcDbEntity
  8
M-PIPE
100
AcDbLine
 10
1098.203800727461
 20
2041.882558850072
 30
0.0
 11
1097.114353943115
 21
2041.882558850072
 31
0.0
1001
REVIT
1002
{
1070
     3
1000
923261
1002
}
  0
LINE
  5
1D6
330
1B7
100
AcDbEntity
  8
M-PIPE
100
AcDbLine
 10
1097.114353943115
 20
2041.882558850072
 30
0.0
 11
1096.024907158769
 21
2041.882558850072
 31
0.0
1001
REVIT
1002
{
1070
     3
1000
923261
1002
}
  0
LINE
  5
1D7
330
1B7
100
AcDbEntity
  8
M-PIPE
100
AcDbLine
 10
1130.114353943098
 20
2061.882558850072
 30
0.0
 11
1130.114353943098
 21
2041.882558850072
 31
0.0
1001
REVIT
1002
{
1070
     3
1000
923261
1002
}
  0
LINE
  5
1D8
330
1B7
100
AcDbEntity
  8
M-PIPE
100
AcDbLine
 10
1130.114353943098
 20
2062.09255885007
 30
0.0
 11
1130.114353943098
 21
2061.882558850072
 31
0.0
1001
REVIT
1002
{
1070
     3
1000
923261
1002
}
  0
LINE
  5
1D9
330
1B7
100
AcDbEntity
  8
M-PIPE
100
AcDbLine
 10
1130.114353943099
 20
2102.092558850071
 30
0.0
 11
1130.114353943098
 21
2072.204887479057
 31
0.0
1001
REVIT
1002
{
1070
     3
1000
923261
1002
}
  0
LINE
  5
1DA
330
1B7
100
AcDbEntity
  8
M-PIPE
100
AcDbLine
 10
1064.114353943098
 20
2072.204887479058
 30
0.0
 11
1064.114353943099
 21
2102.092558850073
 31
0.0
1001
REVIT
1002
{
1070
     3
1000
923261
1002
}
  0
LINE
  5
1DB
330
1B7
100
AcDbEntity
  8
M-PIPE
100
AcDbLine
 10
1064.114353943098
 20
2041.882558850073
 30
0.0
 11
1064.114353943098
 21
2061.882558850072
 31
0.0
1001
REVIT
1002
{
1070
     3
1000
923261
1002
}
  0
LINE
  5
1DC
330
1B7
100
AcDbEntity
  8
M-PIPE
100
AcDbLine
 10
1064.114353943098
 20
2061.882558850072
 30
0.0
 11
1064.114353943098
 21
2062.092558850071
 31
0.0
1001
REVIT
1002
{
1070
     3
1000
923261
1002
}
  0
LINE
  5
1DD
330
1B7
100
AcDbEntity
  8
M-PIPE
100
AcDbLine
 10
1131.114353943099
 20
2072.204887479057
 30
0.0
 11
1130.114353943098
 21
2072.204887479057
 31
0.0
1001
REVIT
1002
{
1070
     3
1000
923261
1002
}
  0
LINE
  5
1DE
330
1B7
100
AcDbEntity
  8
M-PIPE
100
AcDbLine
 10
1064.114353943099
 20
2102.092558850073
 30
0.0
 11
1130.114353943099
 21
2102.092558850071
 31
0.0
1001
REVIT
1002
{
1070
     3
1000
923261
1002
}
  0
LINE
  5
1DF
330
1B7
100
AcDbEntity
  8
M-PIPE
100
AcDbLine
 10
1064.114353943098
 20
2072.204887479058
 30
0.0
 11
1063.114353943098
 21
2072.204887479058
 31
0.0
1001
REVIT
1002
{
1070
     3
1000
923261
1002
}
  0
LINE
  5
1E0
330
1B7
100
AcDbEntity
  8
M-PIPE
100
AcDbLine
 10
1110.1143539431
 20
2033.882558850072
 30
0.0
 11
1109.61325144815
 21
2033.882558850072
 31
0.0
1001
REVIT
1002
{
1070
     3
1000
923261
1002
}
  0
LINE
  5
1E1
330
1B7
100
AcDbEntity
  8
M-PIPE
100
AcDbLine
 10
1118.1143539431
 20
2033.882558850072
 30
0.0
 11
1110.1143539431
 21
2033.882558850072
 31
0.0
1001
REVIT
1002
{
1070
     3
1000
923261
1002
}
  0
LINE
  5
1E2
330
1B7
100
AcDbEntity
  8
M-PIPE
100
AcDbLine
 10
1131.114353943098
 20
2062.09255885007
 30
0.0
 11
1131.114353943099
 21
2072.204887479057
 31
0.0
1001
REVIT
1002
{
1070
     3
1000
923261
1002
}
  0
LINE
  5
1E3
330
1B7
100
AcDbEntity
  8
M-PIPE
100
AcDbLine
 10
1131.114353943098
 20
2062.09255885007
 30
0.0
 11
1131.114353943098
 21
2062.068477585899
 31
0.0
1001
REVIT
1002
{
1070
     3
1000
923261
1002
}
  0
LINE
  5
1E4
330
1B7
100
AcDbEntity
  8
M-PIPE
100
AcDbLine
 10
1131.1143539431
 20
2090.092558850071
 30
0.0
 11
1131.114353943099
 21
2083.904510909428
 31
0.0
1001
REVIT
1002
{
1070
     3
1000
923261
1002
}
  0
LINE
  5
1E5
330
1B7
100
AcDbEntity
  8
M-PIPE
100
AcDbLine
 10
1131.114353943099
 20
2083.904510909428
 30
0.0
 11
1131.114353943099
 21
2072.192868349391
 31
0.0
1001
REVIT
1002
{
1070
     3
1000
923261
1002
}
  0
LINE
  5
1E6
330
1B7
100
AcDbEntity
  8
M-PIPE
100
AcDbLine
 10
1063.114353943099
 20
2072.192868349392
 30
0.0
 11
1063.114353943099
 21
2083.904510909428
 31
0.0
1001
REVIT
1002
{
1070
     3
1000
923261
1002
}
  0
LINE
  5
1E7
330
1B7
100
AcDbEntity
  8
M-PIPE
100
AcDbLine
 10
1063.114353943099
 20
2083.904510909428
 30
0.0
 11
1063.1143539431
 21
2090.092558850071
 31
0.0
1001
REVIT
1002
{
1070
     3
1000
923261
1002
}
  0
LINE
  5
1E8
330
1B7
100
AcDbEntity
  8
M-PIPE
100
AcDbLine
 10
1063.114353943098
 20
2062.068477585901
 30
0.0
 11
1063.114353943098
 21
2062.092558850071
 31
0.0
1001
REVIT
1002
{
1070
     3
1000
923261
1002
}
  0
LINE
  5
1E9
330
1B7
100
AcDbEntity
  8
M-PIPE
100
AcDbLine
 10
1063.114353943098
 20
2072.204887479058
 30
0.0
 11
1063.114353943098
 21
2062.092558850071
 31
0.0
1001
REVIT
1002
{
1070
     3
1000
923261
1002
}
  0
LINE
  5
1EA
330
1B7
100
AcDbEntity
  8
M-PIPE
100
AcDbLine
 10
1130.114353943098
 20
2062.09255885007
 30
0.0
 11
1131.114353943098
 21
2062.09255885007
 31
0.0
1001
REVIT
1002
{
1070
     3
1000
923261
1002
}
  0
LINE
  5
1EB
330
1B7
100
AcDbEntity
  8
M-PIPE
100
AcDbLine
 10
1063.114353943098
 20
2062.092558850071
 30
0.0
 11
1064.114353943098
 21
2062.092558850071
 31
0.0
1001
REVIT
1002
{
1070
     3
1000
923261
1002
}
  0
LINE
  5
1EC
330
1B7
100
AcDbEntity
  8
M-PIPE
100
AcDbLine
 10
1130.1143539431
 20
2090.092558850071
 30
0.0
 11
1131.1143539431
 21
2090.092558850071
 31
0.0
1001
REVIT
1002
{
1070
     3
1000
923261
1002
}
  0
LINE
  5
1ED
330
1B7
100
AcDbEntity
  8
M-PIPE
100
AcDbLine
 10
1063.1143539431
 20
2090.092558850071
 30
0.0
 11
1064.1143539431
 21
2090.092558850071
 31
0.0
1001
REVIT
1002
{
1070
     3
1000
923261
1002
}
  0
LINE
  5
1EE
330
1B7
100
AcDbEntity
  8
M-PIPE
100
AcDbLine
 10
1130.114353943099
 20
2083.904510909428
 30
0.0
 11
1131.114353943099
 21
2083.904510909428
 31
0.0
1001
REVIT
1002
{
1070
     3
1000
923261
1002
}
  0
LINE
  5
1EF
330
1B7
100
AcDbEntity
  8
M-PIPE
100
AcDbLine
 10
1063.114353943099
 20
2083.904510909429
 30
0.0
 11
1064.114353943099
 21
2083.904510909429
 31
0.0
1001
REVIT
1002
{
1070
     3
1000
923261
1002
}
  0
LINE
  5
1F0
330
1B7
100
AcDbEntity
  8
M-PIPE
100
AcDbLine
 10
1118.1143539431
 20
2112.092558850009
 30
0.0
 11
1114.085875228723
 21
2112.092558850009
 31
0.0
1001
REVIT
1002
{
1070
     3
1000
923261
1002
}
  0
LINE
  5
1F1
330
1B7
100
AcDbEntity
  8
M-PIPE
100
AcDbLine
 10
1097.114353943115
 20
2104.092558850072
 30
0.0
 11
1109.114353943115
 21
2104.092558850072
 31
0.0
1001
REVIT
1002
{
1070
     3
1000
923261
1002
}
  0
LINE
  5
1F2
330
1B7
100
AcDbEntity
  8
M-PIPE
100
AcDbLine
 10
1085.114353943115
 20
2104.092558850072
 30
0.0
 11
1097.114353943115
 21
2104.092558850072
 31
0.0
1001
REVIT
1002
{
1070
     3
1000
923261
1002
}
  0
ARC
  5
1F3
330
1B7
100
AcDbEntity
  8
M-PIPE
100
AcDbCircle
 10
1097.114353943097
 20
1999.982558850011
 30
0.0
 40
16.16580753732687
100
AcDbArc
 50
269.9999999999993
 51
90.0000000000004
1001
REVIT
1002
{
1070
     3
1000
790271
1002
}
  0
ARC
  5
1F4
330
1B7
100
AcDbEntity
  8
M-PIPE
100
AcDbCircle
 10
1097.114353943097
 20
1999.982558850011
 30
0.0
 40
16.16580753732671
100
AcDbArc
 50
90.0000000000004
 51
269.9999999999984
1001
REVIT
1002
{
1070
     3
1000
790271
1002
}
  0
ARC
  5
1F5
330
1B7
100
AcDbEntity
  8
M-PIPE
100
AcDbCircle
 10
1097.114353943097
 20
1999.982558850011
 30
0.0
 40
13.25000000003719
100
AcDbArc
 50
185.3149808768667
 51
185.6267114876501
1001
REVIT
1002
{
1070
     3
1000
790271
1002
}
  0
ARC
  5
1F6
330
1B7
100
AcDbEntity
  8
M-PIPE
100
AcDbCircle
 10
1097.114353943097
 20
1999.982558850011
 30
0.0
 40
13.25000000003736
100
AcDbArc
 50
174.3732885123485
 51
174.6850191230539
1001
REVIT
1002
{
1070
     3
1000
790271
1002
}
  0
LINE
  5
1F7
330
1B7
100
AcDbEntity
  8
M-PIPE
100
AcDbLine
 10
1084.091736916825
 20
2002.426724512979
 30
0.0
 11
1084.173016924972
 21
2002.567505616731
 31
0.0
1001
REVIT
1002
{
1070
     3
1000
790271
1002
}
  0
LINE
  5
1F8
330
1B7
100
AcDbEntity
  8
M-PIPE
100
AcDbLine
 10
1088.468250453431
 20
2010.007068318394
 30
0.0
 11
1088.486335874772
 21
2010.038393187034
 31
0.0
1001
REVIT
1002
{
1070
     3
1000
790271
1002
}
  0
ARC
  5
1F9
330
1B7
100
AcDbEntity
  8
M-PIPE
100
AcDbCircle
 10
1097.114353943097
 20
1999.982558850011
 30
0.0
 40
13.25000000003761
100
AcDbArc
 50
129.4100718615365
 51
130.6299617538904
1001
REVIT
1002
{
1070
     3
1000
790271
1002
}
  0
ARC
  5
1FA
330
1B7
100
AcDbEntity
  8
M-PIPE
100
AcDbCircle
 10
1097.114353943097
 20
1999.982558850011
 30
0.0
 40
13.25000000003758
100
AcDbArc
 50
123.7831555744747
 51
125.3149808768783
1001
REVIT
1002
{
1070
     3
1000
790271
1002
}
  0
ARC
  5
1FB
330
1B7
100
AcDbEntity
  8
M-PIPE
100
AcDbCircle
 10
1097.114353943097
 20
1999.982558850011
 30
0.0
 40
13.25000000003757
100
AcDbArc
 50
118.1543656277416
 51
119.9999999998666
1001
REVIT
1002
{
1070
     3
1000
790271
1002
}
  0
ARC
  5
1FC
330
1B7
100
AcDbEntity
  8
M-PIPE
100
AcDbCircle
 10
1097.114353943097
 20
1999.982558850011
 30
0.0
 40
13.25000000003756
100
AcDbArc
 50
112.5243146422511
 51
114.6850191228542
1001
REVIT
1002
{
1070
     3
1000
790271
1002
}
  0
LINE
  5
1FD
330
1B7
100
AcDbEntity
  8
M-PIPE
100
AcDbLine
 10
1092.719754985206
 20
2012.482558850023
 30
0.0
 11
1092.766526410741
 21
2012.482558850023
 31
0.0
1001
REVIT
1002
{
1070
     3
1000
790271
1002
}
  0
LINE
  5
1FE
330
1B7
100
AcDbEntity
  8
M-PIPE
100
AcDbLine
 10
1101.462181475453
 20
2012.482558850023
 30
0.0
 11
1101.508952900988
 21
2012.482558850023
 31
0.0
1001
REVIT
1002
{
1070
     3
1000
790271
1002
}
  0
ARC
  5
1FF
330
1B7
100
AcDbEntity
  8
M-PIPE
100
AcDbCircle
 10
1097.114353943097
 20
1999.982558850011
 30
0.0
 40
13.2500000000377
100
AcDbArc
 50
65.31498087704924
 51
67.47568535774695
1001
REVIT
1002
{
1070
     3
1000
790271
1002
}
  0
ARC
  5
200
330
1B7
100
AcDbEntity
  8
M-PIPE
100
AcDbCircle
 10
1097.114353943097
 20
1999.982558850011
 30
0.0
 40
13.25000000003773
100
AcDbArc
 50
59.99999999994538
 51
61.84563437225586
1001
REVIT
1002
{
1070
     3
1000
790271
1002
}
  0
ARC
  5
201
330
1B7
100
AcDbEntity
  8
M-PIPE
100
AcDbCircle
 10
1097.114353943097
 20
1999.982558850011
 30
0.0
 40
13.25000000003772
100
AcDbArc
 50
54.68501912284164
 51
56.21684442551878
1001
REVIT
1002
{
1070
     3
1000
790271
1002
}
  0
ARC
  5
202
330
1B7
100
AcDbEntity
  8
M-PIPE
100
AcDbCircle
 10
1097.114353943097
 20
1999.982558850011
 30
0.0
 40
13.25000000003784
100
AcDbArc
 50
49.37003824573842
 51
50.58992813845351
1001
REVIT
1002
{
1070
     3
1000
790271
1002
}
  0
LINE
  5
203
330
1B7
100
AcDbEntity
  8
M-PIPE
100
AcDbLine
 10
1105.742372011487
 20
2010.038393186979
 30
0.0
 11
1105.760457432833
 21
2010.00706831833
 31
0.0
1001
REVIT
1002
{
1070
     3
1000
790271
1002
}
  0
LINE
  5
204
330
1B7
100
AcDbEntity
  8
M-PIPE
100
AcDbLine
 10
1110.055690961255
 20
2002.567505616731
 30
0.0
 11
1110.136970969354
 21
2002.426724513063
 31
0.0
1001
REVIT
1002
{
1070
     3
1000
790271
1002
}
  0
ARC
  5
205
330
1B7
100
AcDbEntity
  8
M-PIPE
100
AcDbCircle
 10
1097.114353943097
 20
1999.982558850011
 30
0.0
 40
13.25000000003769
100
AcDbArc
 50
5.314980877129694
 51
5.626711487650464
1001
REVIT
1002
{
1070
     3
1000
790271
1002
}
  0
ARC
  5
206
330
1B7
100
AcDbEntity
  8
M-PIPE
100
AcDbCircle
 10
1097.114353943097
 20
1999.982558850011
 30
0.0
 40
13.25000000003776
100
AcDbArc
 50
354.3732885123511
 51
354.6850191229479
1001
REVIT
1002
{
1070
     3
1000
790271
1002
}
  0
LINE
  5
207
330
1B7
100
AcDbEntity
  8
M-PIPE
100
AcDbLine
 10
1110.13697096936
 20
1997.538393186994
 30
0.0
 11
1110.055690961241
 21
1997.397612083291
 31
0.0
1001
REVIT
1002
{
1070
     3
1000
790271
1002
}
  0
LINE
  5
208
330
1B7
100
AcDbEntity
  8
M-PIPE
100
AcDbLine
 10
1105.760457432804
 20
1989.958049381665
 30
0.0
 11
1105.742372011458
 21
1989.926724513019
 31
0.0
1001
REVIT
1002
{
1070
     3
1000
790271
1002
}
  0
ARC
  5
209
330
1B7
100
AcDbEntity
  8
M-PIPE
100
AcDbCircle
 10
1097.114353943097
 20
1999.982558850011
 30
0.0
 40
13.25000000003736
100
AcDbArc
 50
309.4100718615426
 51
310.6299617541036
1001
REVIT
1002
{
1070
     3
1000
790271
1002
}
  0
ARC
  5
20A
330
1B7
100
AcDbEntity
  8
M-PIPE
100
AcDbCircle
 10
1097.114353943097
 20
1999.982558850011
 30
0.0
 40
13.25000000003739
100
AcDbArc
 50
303.7831555744809
 51
305.3149808771179
1001
REVIT
1002
{
1070
     3
1000
790271
1002
}
  0
ARC
  5
20B
330
1B7
100
AcDbEntity
  8
M-PIPE
100
AcDbCircle
 10
1097.114353943097
 20
1999.982558850011
 30
0.0
 40
13.25000000003739
100
AcDbArc
 50
298.154365627744
 51
300.0000000001315
1001
REVIT
1002
{
1070
     3
1000
790271
1002
}
  0
ARC
  5
20C
330
1B7
100
AcDbEntity
  8
M-PIPE
100
AcDbCircle
 10
1097.114353943097
 20
1999.982558850011
 30
0.0
 40
13.25000000003748
100
AcDbArc
 50
292.524314642253
 51
294.6850191231447
1001
REVIT
1002
{
1070
     3
1000
790271
1002
}
  0
LINE
  5
20D
330
1B7
100
AcDbEntity
  8
M-PIPE
100
AcDbLine
 10
1101.508952901056
 20
1987.482558850023
 30
0.0
 11
1101.46218147552
 21
1987.482558850023
 31
0.0
1001
REVIT
1002
{
1070
     3
1000
790271
1002
}
  0
LINE
  5
20E
330
1B7
100
AcDbEntity
  8
M-PIPE
100
AcDbLine
 10
1092.766526410673
 20
1987.482558850023
 30
0.0
 11
1092.719754985138
 21
1987.482558850023
 31
0.0
1001
REVIT
1002
{
1070
     3
1000
790271
1002
}
  0
ARC
  5
20F
330
1B7
100
AcDbEntity
  8
M-PIPE
100
AcDbCircle
 10
1097.114353943097
 20
1999.982558850011
 30
0.0
 40
13.25000000003723
100
AcDbArc
 50
245.3149808769476
 51
247.4756853577489
1001
REVIT
1002
{
1070
     3
1000
790271
1002
}
  0
ARC
  5
210
330
1B7
100
AcDbEntity
  8
M-PIPE
100
AcDbCircle
 10
1097.114353943097
 20
1999.982558850011
 30
0.0
 40
13.2500000000373
100
AcDbArc
 50
240.0000000000529
 51
241.845634372259
1001
REVIT
1002
{
1070
     3
1000
790271
1002
}
  0
ARC
  5
211
330
1B7
100
AcDbEntity
  8
M-PIPE
100
AcDbCircle
 10
1097.114353943097
 20
1999.982558850011
 30
0.0
 40
13.2500000000374
100
AcDbArc
 50
234.6850191231581
 51
236.2168444255256
1001
REVIT
1002
{
1070
     3
1000
790271
1002
}
  0
ARC
  5
212
330
1B7
100
AcDbEntity
  8
M-PIPE
100
AcDbCircle
 10
1097.114353943097
 20
1999.982558850011
 30
0.0
 40
13.25000000003719
100
AcDbArc
 50
229.3700382462636
 51
230.589928138467
1001
REVIT
1002
{
1070
     3
1000
790271
1002
}
  0
LINE
  5
213
330
1B7
100
AcDbEntity
  8
M-PIPE
100
AcDbLine
 10
1088.4863358748
 20
1989.926724512964
 30
0.0
 11
1088.46825045346
 21
1989.958049381602
 31
0.0
1001
REVIT
1002
{
1070
     3
1000
790271
1002
}
  0
LINE
  5
214
330
1B7
100
AcDbEntity
  8
M-PIPE
100
AcDbLine
 10
1084.173016924986
 20
1997.397612083291
 30
0.0
 11
1084.091736916818
 21
1997.538393187078
 31
0.0
1001
REVIT
1002
{
1070
     3
1000
790271
1002
}
  0
ARC
  5
215
330
1B7
100
AcDbEntity
  8
M-PIPE
100
AcDbCircle
 10
1097.114353943097
 20
1999.982558850011
 30
0.0
 40
18.50000000000006
100
AcDbArc
 50
59.99999999999928
 51
60.1672019558629
1001
REVIT
1002
{
1070
     3
1000
790271
1002
}
  0
ARC
  5
216
330
1B7
100
AcDbEntity
  8
M-PIPE
100
AcDbCircle
 10
1097.114353943097
 20
1999.982558850011
 30
0.0
 40
18.50000000000008
100
AcDbArc
 50
0.0
 51
0.1714167254468986
1001
REVIT
1002
{
1070
     3
1000
790271
1002
}
  0
ARC
  5
217
330
1B7
100
AcDbEntity
  8
M-PIPE
100
AcDbCircle
 10
1097.114353943097
 20
1999.982558850011
 30
0.0
 40
18.49999999999992
100
AcDbArc
 50
299.9999999999996
 51
300.1758494787172
1001
REVIT
1002
{
1070
     3
1000
790271
1002
}
  0
ARC
  5
218
330
1B7
100
AcDbEntity
  8
M-PIPE
100
AcDbCircle
 10
1097.114353943097
 20
1999.982558850011
 30
0.0
 40
18.49999999999985
100
AcDbArc
 50
240.0000000000003
 51
240.1672019557744
1001
REVIT
1002
{
1070
     3
1000
790271
1002
}
  0
ARC
  5
219
330
1B7
100
AcDbEntity
  8
M-PIPE
100
AcDbCircle
 10
1097.114353943097
 20
1999.982558850011
 30
0.0
 40
18.49999999999998
100
AcDbArc
 50
180.0
 51
180.1714167253402
1001
REVIT
1002
{
1070
     3
1000
790271
1002
}
  0
ARC
  5
21A
330
1B7
100
AcDbEntity
  8
M-PIPE
100
AcDbCircle
 10
1097.114353943097
 20
1999.982558850011
 30
0.0
 40
18.50000000000014
100
AcDbArc
 50
120.0
 51
120.1758494788087
1001
REVIT
1002
{
1070
     3
1000
790271
1002
}
  0
SPLINE
  5
21B
330
1B7
100
AcDbEntity
  8
M-PIPE
100
AcDbSpline
210
0.0
220
0.0
230
1.0
 70
    24
 71
     3
 72
     9
 73
     5
 74
     0
 42
0.000000001
 43
0.0000000001
 40
0.0
 40
0.0
 40
0.0
 40
0.0
 40
0.5
 40
1.0
 40
1.0
 40
1.0
 40
1.0
 10
1112.364353943085
 20
1987.425190495153
 30
0.0
 10
1110.396268608773
 20
1986.2889158976
 30
0.0
 10
1106.428183274461
 20
1983.997940761668
 30
0.0
 10
1102.396268608773
 20
1981.670113744083
 30
0.0
 10
1100.364353943085
 20
1980.496987264877
 30
0.0
1001
REVIT
1002
{
1070
     3
1000
790271
1002
}
  0
SPLINE
  5
21C
330
1B7
100
AcDbEntity
  8
M-PIPE
100
AcDbSpline
210
0.0
220
0.0
230
1.0
 70
    24
 71
     3
 72
     9
 73
     5
 74
     0
 42
0.000000001
 43
0.0000000001
 40
0.0
 40
0.0
 40
0.0
 40
0.0
 40
0.5
 40
1.0
 40
1.0
 40
1.0
 40
1.0
 10
1115.614353943085
 20
2006.910762080303
 30
0.0
 10
1115.614353943085
 20
2004.638212885197
 30
0.0
 10
1115.614353943085
 20
2000.056262613332
 30
0.0
 10
1115.614353943085
 20
1995.400608578162
 30
0.0
 10
1115.614353943085
 20
1993.054355619752
 30
0.0
1001
REVIT
1002
{
1070
     3
1000
790271
1002
}
  0
SPLINE
  5
21D
330
1B7
100
AcDbEntity
  8
M-PIPE
100
AcDbSpline
210
0.0
220
0.0
230
1.0
 70
    24
 71
     3
 72
     9
 73
     5
 74
     0
 42
0.000000001
 43
0.0000000001
 40
0.0
 40
0.0
 40
0.0
 40
0.0
 40
0.5
 40
1.0
 40
1.0
 40
1.0
 40
1.0
 10
1100.364353943085
 20
2019.468130435178
 30
0.0
 10
1102.332439277397
 20
2018.331855837624
 30
0.0
 10
1106.300524611709
 20
2016.040880701692
 30
0.0
 10
1110.332439277397
 20
2013.713053684107
 30
0.0
 10
1112.364353943085
 20
2012.539927204902
 30
0.0
1001
REVIT
1002
{
1070
     3
1000
790271
1002
}
  0
SPLINE
  5
21E
330
1B7
100
AcDbEntity
  8
M-PIPE
100
AcDbSpline
210
0.0
220
0.0
230
1.0
 70
    24
 71
     3
 72
     9
 73
     5
 74
     0
 42
0.000000001
 43
0.0000000001
 40
0.0
 40
0.0
 40
0.0
 40
0.0
 40
0.5
 40
1.0
 40
1.0
 40
1.0
 40
1.0
 10
1081.864353943085
 20
2012.539927204902
 30
0.0
 10
1083.832439277397
 20
2013.676201802455
 30
0.0
 10
1087.800524611709
 20
2015.967176938388
 30
0.0
 10
1091.832439277397
 20
2018.295003955972
 30
0.0
 10
1093.864353943085
 20
2019.468130435178
 30
0.0
1001
REVIT
1002
{
1070
     3
1000
790271
1002
}
  0
SPLINE
  5
21F
330
1B7
100
AcDbEntity
  8
M-PIPE
100
AcDbSpline
210
0.0
220
0.0
230
1.0
 70
    24
 71
     3
 72
     9
 73
     5
 74
     0
 42
0.000000001
 43
0.0000000001
 40
0.0
 40
0.0
 40
0.0
 40
0.0
 40
0.5
 40
1.0
 40
1.0
 40
1.0
 40
1.0
 10
1078.614353943085
 20
1993.054355619752
 30
0.0
 10
1078.614353943085
 20
1995.326904814859
 30
0.0
 10
1078.614353943085
 20
1999.908855086724
 30
0.0
 10
1078.614353943085
 20
2004.564509121893
 30
0.0
 10
1078.614353943085
 20
2006.910762080304
 30
0.0
1001
REVIT
1002
{
1070
     3
1000
790271
1002
}
  0
SPLINE
  5
220
330
1B7
100
AcDbEntity
  8
M-PIPE
100
AcDbSpline
210
0.0
220
0.0
230
1.0
 70
    24
 71
     3
 72
     9
 73
     5
 74
     0
 42
0.000000001
 43
0.0000000001
 40
0.0
 40
0.0
 40
0.0
 40
0.0
 40
0.5
 40
1.0
 40
1.0
 40
1.0
 40
1.0
 10
1093.864353943085
 20
1980.496987264877
 30
0.0
 10
1091.896268608773
 20
1981.633261862431
 30
0.0
 10
1087.928183274461
 20
1983.924236998363
 30
0.0
 10
1083.896268608773
 20
1986.252064015948
 30
0.0
 10
1081.864353943085
 20
1987.425190495153
 30
0.0
1001
REVIT
1002
{
1070
     3
1000
790271
1002
}
  0
SPLINE
  5
221
330
1B7
100
AcDbEntity
  8
M-PIPE
100
AcDbSpline
210
0.0
220
0.0
230
1.0
 70
     8
 71
     3
 72
     9
 73
     5
 74
     0
 42
0.000000001
 43
0.0000000001
 40
-1.0
 40
-1.0
 40
-1.0
 40
-1.0
 40
-0.5
 40
0.0
 40
0.0
 40
0.0
 40
0.0
 10
1097.114353943097
 20
1979.626152389476
 30
0.0
 10
1097.687970313432
 20
1979.626152389478
 30
0.0
 10
1098.82854430385
 20
1979.778881932138
 30
0.0
 10
1099.878645636198
 20
1980.216563443149
 30
0.0
 10
1100.364353943085
 20
1980.496987264877
 30
0.0
1001
REVIT
1002
{
1070
     3
1000
790271
1002
}
  0
SPLINE
  5
222
330
1B7
100
AcDbEntity
  8
M-PIPE
100
AcDbSpline
210
0.0
220
0.0
230
1.0
 70
     8
 71
     3
 72
     9
 73
     5
 74
     0
 42
0.000000001
 43
0.0000000001
 40
-1.0
 40
-1.0
 40
-1.0
 40
-1.0
 40
-0.5
 40
0.0
 40
0.0
 40
0.0
 40
0.0
 10
1093.864353943085
 20
1980.496987264877
 30
0.0
 10
1094.350062249975
 20
1980.216563443146
 30
0.0
 10
1095.400163582332
 20
1979.778881932134
 30
0.0
 10
1096.540737572758
 20
1979.626152389475
 30
0.0
 10
1097.114353943097
 20
1979.626152389476
 30
0.0
1001
REVIT
1002
{
1070
     3
1000
790271
1002
}
  0
SPLINE
  5
223
330
1B7
100
AcDbEntity
  8
M-PIPE
100
AcDbSpline
210
0.0
220
0.0
230
1.0
 70
     8
 71
     3
 72
    10
 73
     6
 74
     0
 42
0.000000001
 43
0.0000000001
 40
-1.0
 40
-1.0
 40
-1.0
 40
-1.0
 40
-0.7
 40
-0.4
 40
0.0
 40
0.0
 40
0.0
 40
0.0
 10
1112.364353943085
 20
1987.425190495153
 30
0.0
 10
1112.945639141976
 20
1987.760795661209
 30
0.0
 10
1114.015810465341
 20
1988.620931263363
 30
0.0
 10
1115.2827871396
 20
1990.567078004448
 30
0.0
 10
1115.614353943085
 20
1992.1575579769
 30
0.0
 10
1115.614353943085
 20
1993.054355619752
 30
0.0
1001
REVIT
1002
{
1070
     3
1000
790271
1002
}
  0
SPLINE
  5
224
330
1B7
100
AcDbEntity
  8
M-PIPE
100
AcDbSpline
210
0.0
220
0.0
230
1.0
 70
     8
 71
     3
 72
    10
 73
     6
 74
     0
 42
0.000000001
 43
0.0000000001
 40
-1.0
 40
-1.0
 40
-1.0
 40
-1.0
 40
-0.7
 40
-0.4
 40
0.0
 40
0.0
 40
0.0
 40
0.0
 10
1115.614353943085
 20
2006.910762080303
 30
0.0
 10
1115.614353943085
 20
2007.581972412415
 30
0.0
 10
1115.404540322602
 20
2008.938835765927
 30
0.0
 10
1114.35261614246
 20
2011.009143122381
 30
0.0
 10
1113.141003483849
 20
2012.091528383476
 30
0.0
 10
1112.364353943085
 20
2012.539927204902
 30
0.0
1001
REVIT
1002
{
1070
     3
1000
790271
1002
}
  0
SPLINE
  5
225
330
1B7
100
AcDbEntity
  8
M-PIPE
100
AcDbSpline
210
0.0
220
0.0
230
1.0
 70
     8
 71
     3
 72
     9
 73
     5
 74
     0
 42
0.000000001
 43
0.0000000001
 40
-1.0
 40
-1.0
 40
-1.0
 40
-1.0
 40
-0.5
 40
0.0
 40
0.0
 40
0.0
 40
0.0
 10
1097.114353943097
 20
2020.338965310579
 30
0.0
 10
1096.540737572758
 20
2020.33896531058
 30
0.0
 10
1095.400163582332
 20
2020.186235767921
 30
0.0
 10
1094.350062249976
 20
2019.748554256908
 30
0.0
 10
1093.864353943085
 20
2019.468130435178
 30
0.0
1001
REVIT
1002
{
1070
     3
1000
790271
1002
}
  0
SPLINE
  5
226
330
1B7
100
AcDbEntity
  8
M-PIPE
100
AcDbSpline
210
0.0
220
0.0
230
1.0
 70
     8
 71
     3
 72
     9
 73
     5
 74
     0
 42
0.000000001
 43
0.0000000001
 40
-1.0
 40
-1.0
 40
-1.0
 40
-1.0
 40
-0.5
 40
0.0
 40
0.0
 40
0.0
 40
0.0
 10
1100.364353943085
 20
2019.468130435178
 30
0.0
 10
1099.878645636198
 20
2019.748554256906
 30
0.0
 10
1098.82854430385
 20
2020.186235767917
 30
0.0
 10
1097.687970313432
 20
2020.338965310578
 30
0.0
 10
1097.114353943097
 20
2020.338965310579
 30
0.0
1001
REVIT
1002
{
1070
     3
1000
790271
1002
}
  0
SPLINE
  5
227
330
1B7
100
AcDbEntity
  8
M-PIPE
100
AcDbSpline
210
0.0
220
0.0
230
1.0
 70
     8
 71
     3
 72
    10
 73
     6
 74
     0
 42
0.000000001
 43
0.0000000001
 40
-1.0
 40
-1.0
 40
-1.0
 40
-1.0
 40
-0.7
 40
-0.4
 40
0.0
 40
0.0
 40
0.0
 40
0.0
 10
1081.864353943085
 20
2012.539927204902
 30
0.0
 10
1081.283068744193
 20
2012.204322038846
 30
0.0
 10
1080.212897420829
 20
2011.344186436692
 30
0.0
 10
1078.945920746569
 20
2009.398039695607
 30
0.0
 10
1078.614353943085
 20
2007.807559723156
 30
0.0
 10
1078.614353943085
 20
2006.910762080304
 30
0.0
1001
REVIT
1002
{
1070
     3
1000
790271
1002
}
  0
SPLINE
  5
228
330
1B7
100
AcDbEntity
  8
M-PIPE
100
AcDbSpline
210
0.0
220
0.0
230
1.0
 70
     8
 71
     3
 72
    10
 73
     6
 74
     0
 42
0.000000001
 43
0.0000000001
 40
-1.0
 40
-1.0
 40
-1.0
 40
-1.0
 40
-0.7
 40
-0.4
 40
0.0
 40
0.0
 40
0.0
 40
0.0
 10
1078.614353943085
 20
1993.054355619752
 30
0.0
 10
1078.614353943085
 20
1992.38314528764
 30
0.0
 10
1078.824167563568
 20
1991.026281934128
 30
0.0
 10
1079.87609174371
 20
1988.955974577674
 30
0.0
 10
1081.087704402321
 20
1987.873589316579
 30
0.0
 10
1081.864353943085
 20
1987.425190495153
 30
0.0
1001
REVIT
1002
{
1070
     3
1000
790271
1002
}
  0
SPLINE
  5
229
330
1B7
100
AcDbEntity
  8
M-PIPE
100
AcDbSpline
210
0.0
220
0.0
230
1.0
 70
     8
 71
     3
 72
     8
 73
     4
 74
     0
 42
0.000000001
 43
0.0000000001
 40
-1.0
 40
-1.0
 40
-1.0
 40
-1.0
 40
-0.75
 40
-0.75
 40
-0.75
 40
-0.75
 10
1114.743519067683
 20
2010.160762080287
 30
0.0
 10
1114.600114975099
 20
2010.409145254658
 30
0.0
 10
1114.440593596424
 20
2010.647262001752
 30
0.0
 10
1114.266715471128
 20
2010.873344672571
 30
0.0
1001
REVIT
1002
{
1070
     3
1000
790271
1002
}
  0
SPLINE
  5
22A
330
1B7
100
AcDbEntity
  8
M-PIPE
100
AcDbSpline
210
0.0
220
0.0
230
1.0
 70
     8
 71
     3
 72
     8
 73
     4
 74
     0
 42
0.000000001
 43
0.0000000001
 40
-0.5
 40
-0.5
 40
-0.5
 40
-0.5
 40
0.0
 40
0.0
 40
0.0
 40
0.0
 10
1113.703771394846
 20
2011.513722807201
 30
0.0
 10
1113.30210923671
 20
2011.914216545735
 30
0.0
 10
1112.850062249969
 20
2012.259503383166
 30
0.0
 10
1112.364353943078
 20
2012.539927204897
 30
0.0
1001
REVIT
1002
{
1070
     3
1000
790271
1002
}
  0
SPLINE
  5
22B
330
1B7
100
AcDbEntity
  8
M-PIPE
100
AcDbSpline
210
0.0
220
0.0
230
1.0
 70
     8
 71
     3
 72
     8
 73
     4
 74
     0
 42
0.000000001
 43
0.0000000001
 40
0.0
 40
0.0
 40
0.0
 40
0.0
 40
0.25
 40
0.25
 40
0.25
 40
0.25
 10
1114.743519067683
 20
2010.160762080287
 30
0.0
 10
1114.886923160267
 20
2009.912378905919
 30
0.0
 10
1115.013377622978
 20
2009.655170965993
 30
0.0
 10
1115.122231896613
 20
2009.391546756917
 30
0.0
1001
REVIT
1002
{
1070
     3
1000
790271
1002
}
  0
SPLINE
  5
22C
330
1B7
100
AcDbEntity
  8
M-PIPE
100
AcDbSpline
210
0.0
220
0.0
230
1.0
 70
     8
 71
     3
 72
     8
 73
     4
 74
     0
 42
0.000000001
 43
0.0000000001
 40
0.5
 40
0.5
 40
0.5
 40
0.5
 40
1.0
 40
1.0
 40
1.0
 40
1.0
 10
1115.395343591085
 20
2008.583833818638
 30
0.0
 10
1115.541350263643
 20
2008.035737316689
 30
0.0
 10
1115.614353943078
 20
2007.471609723756
 30
0.0
 10
1115.614353943078
 20
2006.910762080298
 30
0.0
1001
REVIT
1002
{
1070
     3
1000
790271
1002
}
  0
SPLINE
  5
22D
330
1B7
100
AcDbEntity
  8
M-PIPE
100
AcDbSpline
210
0.0
220
0.0
230
1.0
 70
     8
 71
     3
 72
     8
 73
     4
 74
     0
 42
0.000000001
 43
0.0000000001
 40
0.2
 40
0.2
 40
0.2
 40
0.2
 40
0.2490973518980305
 40
0.2490973518980305
 40
0.2490973518980305
 40
0.2490973518980305
 10
1099.131761520827
 20
1979.948013589946
 30
0.0
 10
1099.025997507816
 20
1979.913479937694
 30
0.0
 10
1098.919391933711
 20
1979.882679222035
 30
0.0
 10
1098.81197749751
 20
1979.854879882038
 30
0.0
1001
REVIT
1002
{
1070
     3
1000
790271
1002
}
  0
SPLINE
  5
22E
330
1B7
100
AcDbEntity
  8
M-PIPE
100
AcDbSpline
210
0.0
220
0.0
230
1.0
 70
     8
 71
     3
 72
     8
 73
     4
 74
     0
 42
0.000000001
 43
0.0000000001
 40
0.3744561115634583
 40
0.3744561115634583
 40
0.3744561115634583
 40
0.3744561115634583
 40
0.4
 40
0.4
 40
0.4
 40
0.4
 10
1097.973160528473
 20
1979.68320123075
 30
0.0
 10
1097.915418959455
 20
1979.675471532052
 30
0.0
 10
1097.857633503182
 20
1979.668869425846
 30
0.0
 10
1097.799576279872
 20
1979.662370961456
 30
0.0
1001
REVIT
1002
{
1070
     3
1000
790271
1002
}
  0
SPLINE
  5
22F
330
1B7
100
AcDbEntity
  8
M-PIPE
100
AcDbSpline
210
0.0
220
0.0
230
1.0
 70
     8
 71
     3
 72
     8
 73
     4
 74
     0
 42
0.000000001
 43
0.0000000001
 40
0.6000000000000001
 40
0.6000000000000001
 40
0.6000000000000001
 40
0.6000000000000001
 40
0.6257918194453748
 40
0.6257918194453748
 40
0.6257918194453748
 40
0.6257918194453748
 10
1096.430836541474
 20
1979.662508200176
 30
0.0
 10
1096.372235414564
 20
1979.668685313954
 30
0.0
 10
1096.313466376156
 20
1979.67496988511
 30
0.0
 10
1096.254763158088
 20
1979.681887320859
 30
0.0
1001
REVIT
1002
{
1070
     3
1000
790271
1002
}
  0
SPLINE
  5
230
330
1B7
100
AcDbEntity
  8
M-PIPE
100
AcDbSpline
210
0.0
220
0.0
230
1.0
 70
     8
 71
     3
 72
     8
 73
     4
 74
     0
 42
0.000000001
 43
0.0000000001
 40
0.7511569378559447
 40
0.7511569378559447
 40
0.7511569378559447
 40
0.7511569378559447
 40
0.8
 40
0.8
 40
0.8
 40
0.8
 10
1095.416103011529
 20
1979.851923683591
 30
0.0
 10
1095.309023184529
 20
1979.880927055216
 30
0.0
 10
1095.204847551286
 20
1979.916651136777
 30
0.0
 10
1095.102507894237
 20
1979.956664254724
 30
0.0
1001
REVIT
1002
{
1070
     3
1000
790271
1002
}
  0
SPLINE
  5
231
330
1B7
100
AcDbEntity
  8
M-PIPE
100
AcDbSpline
210
0.0
220
0.0
230
1.0
 70
     8
 71
     3
 72
     8
 73
     4
 74
     0
 42
0.000000001
 43
0.0000000001
 40
-1.0
 40
-1.0
 40
-1.0
 40
-1.0
 40
-0.75
 40
-0.75
 40
-0.75
 40
-0.75
 10
1079.485188818486
 20
1989.804355619735
 30
0.0
 10
1079.62859291107
 20
1989.555972445368
 30
0.0
 10
1079.788114289745
 20
1989.317855698275
 30
0.0
 10
1079.96199241504
 20
1989.091773027459
 30
0.0
1001
REVIT
1002
{
1070
     3
1000
790271
1002
}
  0
SPLINE
  5
232
330
1B7
100
AcDbEntity
  8
M-PIPE
100
AcDbSpline
210
0.0
220
0.0
230
1.0
 70
     8
 71
     3
 72
     8
 73
     4
 74
     0
 42
0.000000001
 43
0.0000000001
 40
-0.5
 40
-0.5
 40
-0.5
 40
-0.5
 40
0.0
 40
0.0
 40
0.0
 40
0.0
 10
1080.524936491319
 20
1988.451394892835
 30
0.0
 10
1080.926598649454
 20
1988.050901154304
 30
0.0
 10
1081.378645636192
 20
1987.705614316876
 30
0.0
 10
1081.864353943079
 20
1987.425190495148
 30
0.0
1001
REVIT
1002
{
1070
     3
1000
790271
1002
}
  0
SPLINE
  5
233
330
1B7
100
AcDbEntity
  8
M-PIPE
100
AcDbSpline
210
0.0
220
0.0
230
1.0
 70
     8
 71
     3
 72
     8
 73
     4
 74
     0
 42
0.000000001
 43
0.0000000001
 40
0.0
 40
0.0
 40
0.0
 40
0.0
 40
0.25
 40
0.25
 40
0.25
 40
0.25
 10
1079.485188818486
 20
1989.804355619735
 30
0.0
 10
1079.341784725901
 20
1990.052738794106
 30
0.0
 10
1079.215330263188
 20
1990.309946734032
 30
0.0
 10
1079.106475989551
 20
1990.57357094311
 30
0.0
1001
REVIT
1002
{
1070
     3
1000
790271
1002
}
  0
SPLINE
  5
234
330
1B7
100
AcDbEntity
  8
M-PIPE
100
AcDbSpline
210
0.0
220
0.0
230
1.0
 70
     8
 71
     3
 72
     8
 73
     4
 74
     0
 42
0.000000001
 43
0.0000000001
 40
0.5
 40
0.5
 40
0.5
 40
0.5
 40
1.0
 40
1.0
 40
1.0
 40
1.0
 10
1078.833364295075
 20
1991.381283881394
 30
0.0
 10
1078.687357622516
 20
1991.929380383347
 30
0.0
 10
1078.614353943079
 20
1992.493507976284
 30
0.0
 10
1078.614353943079
 20
1993.054355619747
 30
0.0
1001
REVIT
1002
{
1070
     3
1000
790271
1002
}
  0
ARC
  5
235
330
1B7
100
AcDbEntity
  8
M-PIPE
100
AcDbCircle
 10
1097.114353943097
 20
1999.982558850011
 30
0.0
 40
11.95000000003074
100
AcDbArc
 50
180.0
 51
0.0
1001
REVIT
1002
{
1070
     3
1000
790271
1002
}
  0
ARC
  5
236
330
1B7
100
AcDbEntity
  8
M-PIPE
100
AcDbCircle
 10
1097.114353943097
 20
1999.982558850011
 30
0.0
 40
11.95000000003051
100
AcDbArc
 50
0.0
 51
179.9999999999989
1001
REVIT
1002
{
1070
     3
1000
790271
1002
}
  0
ARC
  5
237
330
1B7
100
AcDbEntity
  8
M-PIPE
100
AcDbCircle
 10
1097.114353943097
 20
1999.982558850011
 30
0.0
 40
13.25000000003069
100
AcDbArc
 50
180.0
 51
0.0
1001
REVIT
1002
{
1070
     3
1000
790271
1002
}
  0
ARC
  5
238
330
1B7
100
AcDbEntity
  8
M-PIPE
100
AcDbCircle
 10
1097.114353943097
 20
1999.982558850011
 30
0.0
 40
13.25000000003069
100
AcDbArc
 50
0.0
 51
180.0
1001
REVIT
1002
{
1070
     3
1000
790271
1002
}
  0
LINE
  5
239
330
1B7
100
AcDbEntity
  8
P-SANR-FIXT
100
AcDbLine
 10
1084.114353943099
 20
2024.982558850012
 30
0.0
 11
1084.114353943099
 21
2013.838965310587
 31
0.0
  0
LINE
  5
23A
330
1B7
100
AcDbEntity
  8
P-SANR-FIXT
100
AcDbLine
 10
1110.114353943099
 20
2013.838965310572
 30
0.0
 11
1110.114353943099
 21
2024.982558850012
 31
0.0
  0
ARC
  5
23B
330
1B7
100
AcDbEntity
  8
P-SANR-FIXT
100
AcDbCircle
 10
1097.114353943097
 20
1999.982558850011
 30
0.0
 40
19.00000000000002
100
AcDbArc
 50
226.5048265567572
 51
253.2626760083065
  0
ARC
  5
23C
330
1B7
100
AcDbEntity
  8
P-SANR-FIXT
100
AcDbCircle
 10
1097.114353943097
 20
1999.982558850011
 30
0.0
 40
18.99999999999987
100
AcDbArc
 50
166.3567177911491
 51
193.2626760083064
  0
ARC
  5
23D
330
1B7
100
AcDbEntity
  8
P-SANR-FIXT
100
AcDbCircle
 10
1097.114353943097
 20
1999.982558850011
 30
0.0
 40
18.99999999999993
100
AcDbArc
 50
106.419693496045
 51
133.2626760083067
  0
ARC
  5
23E
330
1B7
100
AcDbEntity
  8
P-SANR-FIXT
100
AcDbCircle
 10
1097.114353943097
 20
1999.982558850011
 30
0.0
 40
19.00000000000015
100
AcDbArc
 50
46.5048265569007
 51
73.26267600830565
  0
ARC
  5
23F
330
1B7
100
AcDbEntity
  8
P-SANR-FIXT
100
AcDbCircle
 10
1097.114353943097
 20
1999.982558850011
 30
0.0
 40
19.00000000000009
100
AcDbArc
 50
346.356717791256
 51
13.26267600830557
  0
ARC
  5
240
330
1B7
100
AcDbEntity
  8
P-SANR-FIXT
100
AcDbCircle
 10
1097.114353943097
 20
1999.982558850011
 30
0.0
 40
18.99999999999995
100
AcDbArc
 50
286.4196934959673
 51
313.2626760083052
  0
LINE
  5
241
330
1B7
100
AcDbEntity
  8
P-SANR-FIXT
100
AcDbLine
 10
1084.114353943097
 20
2024.982558850011
 30
0.0
 11
1097.114353943097
 21
2024.982558850011
 31
0.0
  0
SPLINE
  5
242
330
1B7
100
AcDbEntity
  8
P-SANR-FIXT
100
AcDbSpline
210
0.0
220
0.0
230
1.0
 70
     8
 71
     3
 72
     8
 73
     4
 74
     0
 42
0.000000001
 43
0.0000000001
 40
-0.7300228434853836
 40
-0.7300228434853836
 40
-0.7300228434853836
 40
-0.7300228434853836
 40
-0.7142857142857143
 40
-0.7142857142857143
 40
-0.7142857142857143
 40
-0.7142857142857143
 10
1091.638431294245
 20
2018.174734299244
 30
0.0
 10
1091.54104664494
 20
2018.145923631877
 30
0.0
 10
1091.444402554647
 20
2018.116564491195
 30
0.0
 10
1091.348539699042
 20
2018.086574595227
 30
0.0
  0
SPLINE
  5
243
330
1B7
100
AcDbEntity
  8
P-SANR-FIXT
100
AcDbSpline
210
0.0
220
0.0
230
1.0
 70
     8
 71
     3
 72
     8
 73
     4
 74
     0
 42
0.000000001
 43
0.0000000001
 40
-0.6666666666666668
 40
-0.6666666666666668
 40
-0.6666666666666668
 40
-0.6666666666666668
 40
-0.6522430097866261
 40
-0.6522430097866261
 40
-0.6522430097866261
 40
-0.6522430097866261
 10
1090.500025685536
 20
2017.795676390847
 30
0.0
 10
1090.416568195802
 20
2017.764360911558
 30
0.0
 10
1090.333785673043
 20
2017.732504861555
 30
0.0
 10
1090.251680358526
 20
2017.700213133146
 30
0.0
  0
SPLINE
  5
244
330
1B7
100
AcDbEntity
  8
P-SANR-FIXT
100
AcDbSpline
210
0.0
220
0.0
230
1.0
 70
     8
 71
     3
 72
     8
 73
     4
 74
     0
 42
0.000000001
 43
0.0000000001
 40
-0.5714285714285714
 40
-0.5714285714285714
 40
-0.5714285714285714
 40
-0.5714285714285714
 40
-0.5697798894820947
 40
-0.5697798894820947
 40
-0.5697798894820947
 40
-0.5697798894820947
 10
1088.935583215926
 20
2017.132127631539
 30
0.0
 10
1088.927079167802
 20
2017.128153851685
 30
0.0
 10
1088.918584705411
 20
2017.124177960567
 30
0.0
 10
1088.910099935309
 20
2017.120199521827
 30
0.0
  0
SPLINE
  5
245
330
1B7
100
AcDbEntity
  8
P-SANR-FIXT
100
AcDbSpline
210
0.0
220
0.0
230
1.0
 70
     8
 71
     3
 72
     8
 73
     4
 74
     0
 42
0.000000001
 43
0.0000000001
 40
-0.4798839177381468
 40
-0.4798839177381468
 40
-0.4798839177381468
 40
-0.4798839177381468
 40
-0.4761904761904763
 40
-0.4761904761904763
 40
-0.4761904761904763
 40
-0.4761904761904763
 10
1087.613273876691
 20
2016.433344634365
 30
0.0
 10
1087.59673505068
 20
2016.423689981978
 30
0.0
 10
1087.580244677652
 20
2016.414039857924
 30
0.0
 10
1087.563802475076
 20
2016.404396562494
 30
0.0
  0
SPLINE
  5
246
330
1B7
100
AcDbEntity
  8
P-SANR-FIXT
100
AcDbSpline
210
0.0
220
0.0
230
1.0
 70
     8
 71
     3
 72
     8
 73
     4
 74
     0
 42
0.000000001
 43
0.0000000001
 40
-0.3809523809523809
 40
-0.3809523809523809
 40
-0.3809523809523809
 40
-0.3809523809523809
 40
-0.3791864531487562
 40
-0.3791864531487562
 40
-0.3791864531487562
 40
-0.3791864531487562
 10
1086.392590582303
 20
2015.670440072289
 30
0.0
 10
1086.386020154649
 20
2015.665887427275
 30
0.0
 10
1086.379462560003
 20
2015.66133483991
 30
0.0
 10
1086.372917771102
 20
2015.656782602087
 30
0.0
  0
SPLINE
  5
247
330
1B7
100
AcDbEntity
  8
P-SANR-FIXT
100
AcDbSpline
210
0.0
220
0.0
230
1.0
 70
     8
 71
     3
 72
    10
 73
     6
 74
     0
 42
0.000000001
 43
0.0000000001
 40
-0.2857142857142857
 40
-0.2857142857142857
 40
-0.2857142857142857
 40
-0.2857142857142857
 40
-0.2678571428571428
 40
-0.25
 40
-0.2380952380952379
 40
-0.2380952380952379
 40
-0.2380952380952379
 40
-0.2380952380952379
 10
1085.439550184821
 20
2014.972520731408
 30
0.0
 10
1085.386913801926
 20
2014.932990134985
 30
0.0
 10
1085.284359239183
 20
2014.855117026267
 30
0.0
 10
1085.155361391374
 20
2014.751682344825
 30
0.0
 10
1085.078761309029
 20
2014.688444079864
 30
0.0
 10
1085.048781718738
 20
2014.663442662263
 30
0.0
  0
SPLINE
  5
248
330
1B7
100
AcDbEntity
  8
P-SANR-FIXT
100
AcDbSpline
210
0.0
220
0.0
230
1.0
 70
     8
 71
     3
 72
     8
 73
     4
 74
     0
 42
0.000000001
 43
0.0000000001
 40
-0.0476190476190472
 40
-0.0476190476190472
 40
-0.0476190476190472
 40
-0.0476190476190472
 40
0.0
 40
0.0
 40
0.0
 40
0.0
 10
1084.153790945098
 20
2013.889013769783
 30
0.0
 10
1084.127655215326
 20
2013.863056101936
 30
0.0
 10
1084.114353943097
 20
2013.846414161753
 30
0.0
 10
1084.114353943097
 20
2013.838965310561
 30
0.0
  0
LINE
  5
249
330
1B7
100
AcDbEntity
  8
P-SANR-FIXT
100
AcDbLine
 10
1097.114353943098
 20
2024.982558850011
 30
0.0
 11
1110.114353943098
 21
2024.982558850011
 31
0.0
  0
SPLINE
  5
24A
330
1B7
100
AcDbEntity
  8
P-SANR-FIXT
100
AcDbSpline
210
0.0
220
0.0
230
1.0
 70
     8
 71
     3
 72
     8
 73
     4
 74
     0
 42
0.000000001
 43
0.0000000001
 40
-1.0
 40
-1.0
 40
-1.0
 40
-1.0
 40
-0.9523809523809523
 40
-0.9523809523809523
 40
-0.9523809523809523
 40
-0.9523809523809523
 10
1110.114353943098
 20
2013.838965310561
 30
0.0
 10
1110.114353943098
 20
2013.846414161753
 30
0.0
 10
1110.101052670869
 20
2013.863056101935
 30
0.0
 10
1110.074916941097
 20
2013.889013769782
 30
0.0
  0
SPLINE
  5
24B
330
1B7
100
AcDbEntity
  8
P-SANR-FIXT
100
AcDbSpline
210
0.0
220
0.0
230
1.0
 70
     8
 71
     3
 72
    10
 73
     6
 74
     0
 42
0.000000001
 43
0.0000000001
 40
-0.7619047619047619
 40
-0.7619047619047619
 40
-0.7619047619047619
 40
-0.7619047619047619
 40
-0.75
 40
-0.7321428571428572
 40
-0.7142857142857144
 40
-0.7142857142857144
 40
-0.7142857142857144
 40
-0.7142857142857144
 10
1109.179901087693
 20
2014.663462019962
 30
0.0
 10
1109.149930693336
 20
2014.688456339827
 30
0.0
 10
1109.073357780759
 20
2014.751673634059
 30
0.0
 10
1108.944344884736
 20
2014.855119928532
 30
0.0
 10
1108.841794084938
 20
2014.932990137964
 30
0.0
 10
1108.789157701374
 20
2014.972520731408
 30
0.0
  0
SPLINE
  5
24C
330
1B7
100
AcDbEntity
  8
P-SANR-FIXT
100
AcDbSpline
210
0.0
220
0.0
230
1.0
 70
     8
 71
     3
 72
     8
 73
     4
 74
     0
 42
0.000000001
 43
0.0000000001
 40
-0.620813546851164
 40
-0.620813546851164
 40
-0.620813546851164
 40
-0.620813546851164
 40
-0.6190476190476191
 40
-0.6190476190476191
 40
-0.6190476190476191
 40
-0.6190476190476191
 10
1107.855790310663
 20
2015.656783480105
 30
0.0
 10
1107.849245522077
 20
2015.661335718324
 30
0.0
 10
1107.842687926827
 20
2015.665888302388
 30
0.0
 10
1107.83611749752
 20
2015.670440939956
 30
0.0
  0
SPLINE
  5
24D
330
1B7
100
AcDbEntity
  8
P-SANR-FIXT
100
AcDbSpline
210
0.0
220
0.0
230
1.0
 70
     8
 71
     3
 72
     8
 73
     4
 74
     0
 42
0.000000001
 43
0.0000000001
 40
-0.5238095238095239
 40
-0.5238095238095239
 40
-0.5238095238095239
 40
-0.5238095238095239
 40
-0.520116082261769
 40
-0.520116082261769
 40
-0.520116082261769
 40
-0.520116082261769
 10
1106.664898565866
 20
2016.404365885879
 30
0.0
 10
1106.648455671903
 20
2016.414006082997
 30
0.0
 10
1106.631964664009
 20
2016.423653365377
 30
0.0
 10
1106.615425308823
 20
2016.433305651472
 30
0.0
  0
SPLINE
  5
24E
330
1B7
100
AcDbEntity
  8
P-SANR-FIXT
100
AcDbSpline
210
0.0
220
0.0
230
1.0
 70
     8
 71
     3
 72
     8
 73
     4
 74
     0
 42
0.000000001
 43
0.0000000001
 40
-0.4302201105178487
 40
-0.4302201105178487
 40
-0.4302201105178487
 40
-0.4302201105178487
 40
-0.4285714285714286
 40
-0.4285714285714286
 40
-0.4285714285714286
 40
-0.4285714285714286
 10
1105.318596836638
 20
2017.120149714198
 30
0.0
 10
1105.310115993914
 20
2017.124145753175
 30
0.0
 10
1105.301625260103
 20
2017.128138363446
 30
0.0
 10
1105.293124670269
 20
2017.132127631539
 30
0.0
  0
SPLINE
  5
24F
330
1B7
100
AcDbEntity
  8
P-SANR-FIXT
100
AcDbSpline
210
0.0
220
0.0
230
1.0
 70
     8
 71
     3
 72
     8
 73
     4
 74
     0
 42
0.000000001
 43
0.0000000001
 40
-0.3477569902133137
 40
-0.3477569902133137
 40
-0.3477569902133137
 40
-0.3477569902133137
 40
-0.3333333333333333
 40
-0.3333333333333333
 40
-0.3333333333333333
 40
-0.3333333333333333
 10
1103.977030050245
 20
2017.700224437874
 30
0.0
 10
1103.894925259456
 20
2017.732518513333
 30
0.0
 10
1103.812147379717
 20
2017.76438049309
 30
0.0
 10
1103.728690995894
 20
2017.795695624701
 30
0.0
  0
SPLINE
  5
250
330
1B7
100
AcDbEntity
  8
P-SANR-FIXT
100
AcDbSpline
210
0.0
220
0.0
230
1.0
 70
     8
 71
     3
 72
     8
 73
     4
 74
     0
 42
0.000000001
 43
0.0000000001
 40
-0.2857142857142857
 40
-0.2857142857142857
 40
-0.2857142857142857
 40
-0.2857142857142857
 40
-0.2724188516360562
 40
-0.2724188516360562
 40
-0.2724188516360562
 40
-0.2724188516360562
 10
1102.880168187153
 20
2018.086574595227
 30
0.0
 10
1102.799179081924
 20
2018.111912052137
 30
0.0
 10
1102.717670034897
 20
2018.136869961924
 30
0.0
 10
1102.635623438837
 20
2018.161418756867
 30
0.0
  0
ENDBLK
  5
252
330
1B7
100
AcDbEntity
  8
0
100
AcDbBlockEnd
  0
ENDSEC
  0
SECTION
  2
ENTITIES
  0
INSERT
  5
15F
330
71
100
AcDbEntity
  8
P-SANR-FIXT
100
AcDbBlockReference
  2
Automatic flow rate regulator valve_Caleffi_121 DN15 - 1_2__-859151-Est - Idraulica
 10
0.0
 20
0.0
 30
0.0
1001
REVIT
1002
{
1070
     1
1000
863131
1002
}
1002
{
1070
     5
1000
859151
1002
}
1002
{
1070
     2
1000
-2001160
1002
}
  0
INSERT
  5
1B6
330
71
100
AcDbEntity
  8
P-SANR-FIXT
100
AcDbBlockReference
  2
Automatic flow rate regulator valve_Caleffi_121 DN15 - 1_2__-V1-Est - Idraulica
 10
0.0
 20
0.0
 30
0.0
1001
REVIT
1002
{
1070
     1
1000
863152
1002
}
1002
{
1070
     5
1000
859151
1002
}
1002
{
1070
     2
1000
-2001160
1002
}
  0
INSERT
  5
253
330
71
100
AcDbEntity
  8
P-SANR-FIXT
100
AcDbBlockReference
  2
Automatic flow rate regulator valve_Caleffi_121 DN15 - 1_2__-V2-Est - Idraulica
 10
0.0
 20
0.0
 30
0.0
1001
REVIT
1002
{
1070
     1
1000
863172
1002
}
1002
{
1070
     5
1000
859151
1002
}
1002
{
1070
     2
1000
-2001160
1002
}
  0
ENDSEC
  0
SECTION
  2
OBJECTS
  0
DICTIONARY
  5
C
330
0
100
AcDbDictionary
281
     1
  3
ACAD_CIP_PREVIOUS_PRODUCT_INFO
350
7A
  3
ACAD_COLOR
350
63
  3
ACAD_DETAILVIEWSTYLE
350
6B
  3
ACAD_GROUP
350
D
  3
ACAD_IMAGE_VARS
350
7B
  3
ACAD_LAYOUT
350
62
  3
ACAD_MATERIAL
350
10
  3
ACAD_MLEADERSTYLE
350
66
  3
ACAD_MLINESTYLE
350
5F
  3
ACAD_PLOTSETTINGS
350
61
  3
ACAD_PLOTSTYLENAME
350
E
  3
ACAD_SCALELIST
350
42
  3
ACAD_SECTIONVIEWSTYLE
350
68
  3
ACAD_TABLESTYLE
350
64
  3
ACAD_VISUALSTYLE
350
29
  3
ACDB_RECOMPOSE_DATA
350
25E
  3
AcDbVariableDictionary
350
7C
  3
REVIT_DICTIONARY
350
255
  0
DICTIONARY
  5
25A
330
71
100
AcDbDictionary
280
     1
281
     1
  3
ACAD_SORTENTS
360
25B
  0
XRECORD
  5
7A
102
{ACAD_REACTORS
330
C
102
}
330
C
100
AcDbXrecord
280
     1
300
RVT
300
2013
300
RVT2013
  0
DICTIONARY
  5
63
102
{ACAD_REACTORS
330
C
102
}
330
C
100
AcDbDictionary
281
     1
  0
DICTIONARY
  5
6B
102
{ACAD_REACTORS
330
C
102
}
330
C
100
AcDbDictionary
281
     1
  3
Imperial24
350
6C
  0
DICTIONARY
  5
D
102
{ACAD_REACTORS
330
C
102
}
330
C
100
AcDbDictionary
281
     1
  0
RASTERVARIABLES
  5
7B
102
{ACAD_REACTORS
330
C
102
}
330
C
100
AcDbRasterVariables
 90
        0
 70
     0
 71
     1
 72
     1
  0
DICTIONARY
  5
62
102
{ACAD_REACTORS
330
C
102
}
330
C
100
AcDbDictionary
281
     1
  3
Layout1
350
70
  3
Layout2
350
78
  3
Model
350
74
  0
DICTIONARY
  5
10
102
{ACAD_REACTORS
330
C
102
}
330
C
100
AcDbDictionary
281
     1
  3
ByBlock
350
19
  3
ByLayer
350
11
  3
Global
350
21
  0
DICTIONARY
  5
66
102
{ACAD_REACTORS
330
C
102
}
330
C
100
AcDbDictionary
281
     1
  3
Standard
350
67
  0
DICTIONARY
  5
5F
102
{ACAD_REACTORS
330
C
102
}
330
C
100
AcDbDictionary
281
     1
  3
Standard
350
60
  0
DICTIONARY
  5
61
102
{ACAD_REACTORS
330
C
102
}
330
C
100
AcDbDictionary
281
     1
  0
ACDBDICTIONARYWDFLT
  5
E
102
{ACAD_REACTORS
330
C
102
}
330
C
100
AcDbDictionary
281
     1
  3
Normal
350
F
100
AcDbDictionaryWithDefault
340
F
  0
DICTIONARY
  5
42
102
{ACAD_REACTORS
330
C
102
}
330
C
100
AcDbDictionary
281
     1
  3
A0
350
43
  3
A1
350
44
  3
A2
350
45
  3
A3
350
46
  3
A4
350
47
  3
A5
350
48
  3
A6
350
49
  3
A7
350
4A
  3
A8
350
4B
  3
A9
350
4C
  3
B0
350
4D
  3
B1
350
4E
  3
B2
350
4F
  3
B3
350
50
  3
B4
350
51
  3
B5
350
52
  3
B6
350
53
  0
DICTIONARY
  5
68
102
{ACAD_REACTORS
330
C
102
}
330
C
100
AcDbDictionary
281
     1
  3
Imperial24
350
6A
  0
DICTIONARY
  5
64
102
{ACAD_REACTORS
330
C
102
}
330
C
100
AcDbDictionary
281
     1
  3
Standard
350
65
  0
DICTIONARY
  5
29
102
{ACAD_REACTORS
330
C
102
}
330
C
100
AcDbDictionary
281
     1
  3
2dWireframe
350
2F
  3
Basic
350
2E
  3
Brighten
350
35
  3
ColorChange
350
39
  3
Conceptual
350
32
  3
Dim
350
34
  3
EdgeColorOff
350
41
  3
Facepattern
350
38
  3
Flat
350
2A
  3
FlatWithEdges
350
2B
  3
Gouraud
350
2C
  3
GouraudWithEdges
350
2D
  3
Hidden
350
31
  3
JitterOff
350
3F
  3
Linepattern
350
37
  3
OverhangOff
350
40
  3
Realistic
350
33
  3
Shaded
350
3E
  3
Shaded with edges
350
3D
  3
Shades of Gray
350
3A
  3
Sketchy
350
3B
  3
Thicken
350
36
  3
Wireframe
350
30
  3
X-Ray
350
3C
  0
XRECORD
  5
25E
102
{ACAD_REACTORS
330
C
102
}
330
C
100
AcDbXrecord
280
     1
 90
        1
330
65
  0
DICTIONARY
  5
7C
102
{ACAD_REACTORS
330
C
102
}
330
C
100
AcDbDictionary
281
     1
  3
CANNOSCALE
350
81
  3
CMLEADERSTYLE
350
7E
  3
CTABLESTYLE
350
7D
  3
CVIEWDETAILSTYLE
350
7F
  3
CVIEWSECTIONSTYLE
350
80
  0
DICTIONARY
  5
255
102
{ACAD_REACTORS
330
C
102
}
330
C
100
AcDbDictionary
281
     1
  3
DRAWING_TOOL
350
259
  3
REVIT_CATEGORY_MAPPING
350
257
  3
REVIT_SUB_CATEGORY_MAPPING
350
258
  3
REVIT_TYPE_MAPPING
350
256
  0
SORTENTSTABLE
  5
25B
102
{ACAD_REACTORS
330
25A
102
}
330
25A
100
AcDbSortentsTable
330
71
  0
ACDBDETAILVIEWSTYLE
  5
6C
102
{ACAD_REACTORS
330
6B
102
}
330
6B
100
AcDbModelDocViewStyle
 70
     0
  3
Imperial24
290
     1
100
AcDbDetailViewStyle
 70
     0
 71
     0
 90
        3
 71
     1
340
55
 62
   256
 40
0.24
340
0
 62
   256
 40
0.24
300

 40
0.36
280
     3
 71
     2
340
5D
 90
       25
 62
   256
 71
     3
340
55
 62
   256
 40
0.24
 90
        1
 40
0.75
 90
        1
300
%<\AcVar ViewType \f "%tc1">% %<\AcVar ViewDetailId>%\PSCALA %<\AcVar ViewScale \f "%sn">%
 71
     4
340
5D
 90
       25
 62
   256
340
5D
 90
       25
 62
   256
280
     0
  0
LAYOUT
  5
70
102
{ACAD_REACTORS
330
62
102
}
330
62
100
AcDbPlotSettings
  1

  2

  4

  6

 40
0.0
 41
0.0
 42
0.0
 43
0.0
 44
0.0
 45
0.0
 46
0.0
 47
0.0
 48
0.0
 49
0.0
140
0.0
141
0.0
142
1.0
143
1.0
 70
   688
 72
     0
 73
     0
 74
     5
  7

 75
    16
147
1.0
 76
     0
 77
     2
 78
   300
148
0.0
149
0.0
100
AcDbLayout
  1
Layout1
 70
     1
 71
     1
 10
0.0
 20
0.0
 11
12.0
 21
9.0
 12
0.0
 22
0.0
 32
0.0
 14
0.0
 24
0.0
 34
0.0
 15
0.0
 25
0.0
 35
0.0
146
0.0
 13
0.0
 23
0.0
 33
0.0
 16
1.0
 26
0.0
 36
0.0
 17
0.0
 27
1.0
 37
0.0
 76
     0
330
6D
  0
LAYOUT
  5
78
102
{ACAD_REACTORS
330
62
102
}
330
62
100
AcDbPlotSettings
  1

  2

  4

  6

 40
0.0
 41
0.0
 42
0.0
 43
0.0
 44
0.0
 45
0.0
 46
0.0
 47
0.0
 48
0.0
 49
0.0
140
0.0
141
0.0
142
1.0
143
1.0
 70
   688
 72
     0
 73
     0
 74
     5
  7

 75
    16
147
1.0
 76
     0
 77
     2
 78
   300
148
0.0
149
0.0
100
AcDbLayout
  1
Layout2
 70
     1
 71
     2
 10
0.0
 20
0.0
 11
12.0
 21
9.0
 12
0.0
 22
0.0
 32
0.0
 14
0.0
 24
0.0
 34
0.0
 15
0.0
 25
0.0
 35
0.0
146
0.0
 13
0.0
 23
0.0
 33
0.0
 16
1.0
 26
0.0
 36
0.0
 17
0.0
 27
1.0
 37
0.0
 76
     0
330
75
  0
LAYOUT
  5
74
102
{ACAD_REACTORS
330
62
102
}
330
62
100
AcDbPlotSettings
  1

  2

  4

  6

 40
0.0
 41
0.0
 42
0.0
 43
0.0
 44
0.0
 45
0.0
 46
0.0
 47
0.0
 48
0.0
 49
0.0
140
0.0
141
0.0
142
1.0
143
1.0
 70
  1712
 72
     0
 73
     0
 74
     0
  7

 75
     0
147
1.0
 76
     0
 77
     2
 78
   300
148
0.0
149
0.0
100
AcDbLayout
  1
Model
 70
     1
 71
     0
 10
0.0
 20
0.0
 11
12.0
 21
9.0
 12
0.0
 22
0.0
 32
0.0
 14
0.0
 24
0.0
 34
0.0
 15
0.0
 25
0.0
 35
0.0
146
0.0
 13
0.0
 23
0.0
 33
0.0
 16
1.0
 26
0.0
 36
0.0
 17
0.0
 27
1.0
 37
0.0
 76
     0
330
71
  0
MATERIAL
  5
19
102
{ACAD_XDICTIONARY
360
1A
102
}
102
{ACAD_REACTORS
330
10
102
}
330
10
100
AcDbMaterial
  1
ByBlock
 72
     0
 43
0.0208333333333333
 43
0.0
 43
0.0
 43
0.0
 43
0.0
 43
0.0208333333333333
 43
0.0
 43
0.0
 43
0.0
 43
0.0
 43
1.0
 43
0.0
 43
0.0
 43
0.0
 43
0.0
 43
1.0
 77
     0
 47
0.0208333333333333
 47
0.0
 47
0.0
 47
0.0
 47
0.0
 47
0.0208333333333333
 47
0.0
 47
0.0
 47
0.0
 47
0.0
 47
1.0
 47
0.0
 47
0.0
 47
0.0
 47
0.0
 47
1.0
171
     0
 49
0.0208333333333333
 49
0.0
 49
0.0
 49
0.0
 49
0.0
 49
0.0208333333333333
 49
0.0
 49
0.0
 49
0.0
 49
0.0
 49
1.0
 49
0.0
 49
0.0
 49
0.0
 49
0.0
 49
1.0
175
     0
142
0.0208333333333333
142
0.0
142
0.0
142
0.0
142
0.0
142
0.0208333333333333
142
0.0
142
0.0
142
0.0
142
0.0
142
1.0
142
0.0
142
0.0
142
0.0
142
0.0
142
1.0
179
     0
144
0.0208333333333333
144
0.0
144
0.0
144
0.0
144
0.0
144
0.0208333333333333
144
0.0
144
0.0
144
0.0
144
0.0
144
1.0
144
0.0
144
0.0
144
0.0
144
0.0
144
1.0
147
0.0208333333333333
147
0.0
147
0.0
147
0.0
147
0.0
147
0.0208333333333333
147
0.0
147
0.0
147
0.0
147
0.0
147
1.0
147
0.0
147
0.0
147
0.0
147
0.0
147
1.0
  0
MATERIAL
  5
11
102
{ACAD_XDICTIONARY
360
12
102
}
102
{ACAD_REACTORS
330
10
102
}
330
10
100
AcDbMaterial
  1
ByLayer
 72
     0
 43
0.0208333333333333
 43
0.0
 43
0.0
 43
0.0
 43
0.0
 43
0.0208333333333333
 43
0.0
 43
0.0
 43
0.0
 43
0.0
 43
1.0
 43
0.0
 43
0.0
 43
0.0
 43
0.0
 43
1.0
 77
     0
 47
0.0208333333333333
 47
0.0
 47
0.0
 47
0.0
 47
0.0
 47
0.0208333333333333
 47
0.0
 47
0.0
 47
0.0
 47
0.0
 47
1.0
 47
0.0
 47
0.0
 47
0.0
 47
0.0
 47
1.0
171
     0
 49
0.0208333333333333
 49
0.0
 49
0.0
 49
0.0
 49
0.0
 49
0.0208333333333333
 49
0.0
 49
0.0
 49
0.0
 49
0.0
 49
1.0
 49
0.0
 49
0.0
 49
0.0
 49
0.0
 49
1.0
175
     0
142
0.0208333333333333
142
0.0
142
0.0
142
0.0
142
0.0
142
0.0208333333333333
142
0.0
142
0.0
142
0.0
142
0.0
142
1.0
142
0.0
142
0.0
142
0.0
142
0.0
142
1.0
179
     0
144
0.0208333333333333
144
0.0
144
0.0
144
0.0
144
0.0
144
0.0208333333333333
144
0.0
144
0.0
144
0.0
144
0.0
144
1.0
144
0.0
144
0.0
144
0.0
144
0.0
144
1.0
147
0.0208333333333333
147
0.0
147
0.0
147
0.0
147
0.0
147
0.0208333333333333
147
0.0
147
0.0
147
0.0
147
0.0
147
1.0
147
0.0
147
0.0
147
0.0
147
0.0
147
1.0
  0
MATERIAL
  5
21
102
{ACAD_XDICTIONARY
360
22
102
}
102
{ACAD_REACTORS
330
10
102
}
330
10
100
AcDbMaterial
  1
Global
 72
     0
 43
0.0208333333333333
 43
0.0
 43
0.0
 43
0.0
 43
0.0
 43
0.0208333333333333
 43
0.0
 43
0.0
 43
0.0
 43
0.0
 43
1.0
 43
0.0
 43
0.0
 43
0.0
 43
0.0
 43
1.0
 77
     0
 47
0.0208333333333333
 47
0.0
 47
0.0
 47
0.0
 47
0.0
 47
0.0208333333333333
 47
0.0
 47
0.0
 47
0.0
 47
0.0
 47
1.0
 47
0.0
 47
0.0
 47
0.0
 47
0.0
 47
1.0
171
     0
 49
0.0208333333333333
 49
0.0
 49
0.0
 49
0.0
 49
0.0
 49
0.0208333333333333
 49
0.0
 49
0.0
 49
0.0
 49
0.0
 49
1.0
 49
0.0
 49
0.0
 49
0.0
 49
0.0
 49
1.0
175
     0
142
0.0208333333333333
142
0.0
142
0.0
142
0.0
142
0.0
142
0.0208333333333333
142
0.0
142
0.0
142
0.0
142
0.0
142
1.0
142
0.0
142
0.0
142
0.0
142
0.0
142
1.0
179
     0
144
0.0208333333333333
144
0.0
144
0.0
144
0.0
144
0.0
144
0.0208333333333333
144
0.0
144
0.0
144
0.0
144
0.0
144
1.0
144
0.0
144
0.0
144
0.0
144
0.0
144
1.0
147
0.0208333333333333
147
0.0
147
0.0
147
0.0
147
0.0
147
0.0208333333333333
147
0.0
147
0.0
147
0.0
147
0.0
147
1.0
147
0.0
147
0.0
147
0.0
147
0.0
147
1.0
  0
MLEADERSTYLE
  5
67
102
{ACAD_REACTORS
330
66
102
}
330
66
100
AcDbMLeaderStyle
179
     2
170
     2
171
     1
172
     0
 90
        2
 40
0.0
 41
0.0
173
     1
 91
-1056964608
340
5B
 92
       -2
290
     1
 42
0.09
291
     1
 43
0.36
  3
Standard
 44
0.18
300

342
55
174
     1
178
     6
175
     1
176
     0
 93
-1056964608
 45
0.18
292
     0
297
     0
 46
0.18
 94
-1056964608
 47
1.0
 49
1.0
140
1.0
293
     1
141
0.0
294
     1
177
     0
142
1.0
295
     1
296
     0
143
0.125
271
     0
272
     9
273
     9
298
     1
  0
MLINESTYLE
  5
60
102
{ACAD_REACTORS
330
5F
102
}
330
5F
100
AcDbMlineStyle
  2
STANDARD
 70
     0
  3

 62
   256
 51
90.0
 52
90.0
 71
     2
 49
0.5
 62
   256
  6
BYLAYER
 49
-0.5
 62
   256
  6
BYLAYER
  0
ACDBPLACEHOLDER
  5
F
102
{ACAD_REACTORS
330
E
102
}
330
E
  0
SCALE
  5
43
102
{ACAD_REACTORS
330
42
102
}
330
42
100
AcDbScale
 70
     0
300
1:1
140
1.0
141
1.0
290
     1
  0
SCALE
  5
44
102
{ACAD_REACTORS
330
42
102
}
330
42
100
AcDbScale
 70
     0
300
1/128" = 1'-0"
140
0.0078125
141
12.0
290
     0
  0
SCALE
  5
45
102
{ACAD_REACTORS
330
42
102
}
330
42
100
AcDbScale
 70
     0
300
1/64" = 1'-0"
140
0.015625
141
12.0
290
     0
  0
SCALE
  5
46
102
{ACAD_REACTORS
330
42
102
}
330
42
100
AcDbScale
 70
     0
300
1/32" = 1'-0"
140
0.03125
141
12.0
290
     0
  0
SCALE
  5
47
102
{ACAD_REACTORS
330
42
102
}
330
42
100
AcDbScale
 70
     0
300
1/16" = 1'-0"
140
0.0625
141
12.0
290
     0
  0
SCALE
  5
48
102
{ACAD_REACTORS
330
42
102
}
330
42
100
AcDbScale
 70
     0
300
3/32" = 1'-0"
140
0.09375
141
12.0
290
     0
  0
SCALE
  5
49
102
{ACAD_REACTORS
330
42
102
}
330
42
100
AcDbScale
 70
     0
300
1/8" = 1'-0"
140
0.125
141
12.0
290
     0
  0
SCALE
  5
4A
102
{ACAD_REACTORS
330
42
102
}
330
42
100
AcDbScale
 70
     0
300
3/16" = 1'-0"
140
0.1875
141
12.0
290
     0
  0
SCALE
  5
4B
102
{ACAD_REACTORS
330
42
102
}
330
42
100
AcDbScale
 70
     0
300
1/4" = 1'-0"
140
0.25
141
12.0
290
     0
  0
SCALE
  5
4C
102
{ACAD_REACTORS
330
42
102
}
330
42
100
AcDbScale
 70
     0
300
3/8" = 1'-0"
140
0.375
141
12.0
290
     0
  0
SCALE
  5
4D
102
{ACAD_REACTORS
330
42
102
}
330
42
100
AcDbScale
 70
     0
300
1/2" = 1'-0"
140
0.5
141
12.0
290
     0
  0
SCALE
  5
4E
102
{ACAD_REACTORS
330
42
102
}
330
42
100
AcDbScale
 70
     0
300
3/4" = 1'-0"
140
0.75
141
12.0
290
     0
  0
SCALE
  5
4F
102
{ACAD_REACTORS
330
42
102
}
330
42
100
AcDbScale
 70
     0
300
1" = 1'-0"
140
1.0
141
12.0
290
     0
  0
SCALE
  5
50
102
{ACAD_REACTORS
330
42
102
}
330
42
100
AcDbScale
 70
     0
300
1-1/2" = 1'-0"
140
1.5
141
12.0
290
     0
  0
SCALE
  5
51
102
{ACAD_REACTORS
330
42
102
}
330
42
100
AcDbScale
 70
     0
300
3" = 1'-0"
140
3.0
141
12.0
290
     0
  0
SCALE
  5
52
102
{ACAD_REACTORS
330
42
102
}
330
42
100
AcDbScale
 70
     0
300
6" = 1'-0"
140
6.0
141
12.0
290
     0
  0
SCALE
  5
53
102
{ACAD_REACTORS
330
42
102
}
330
42
100
AcDbScale
 70
     0
300
1'-0" = 1'-0"
140
12.0
141
12.0
290
     0
  0
ACDBSECTIONVIEWSTYLE
  5
6A
102
{ACAD_REACTORS
330
68
102
}
330
68
100
AcDbModelDocViewStyle
 70
     0
  3
Imperial24
290
     1
100
AcDbSectionViewStyle
 70
     0
 71
     0
 90
       78
 71
     1
340
55
 62
   256
 40
0.24
340
0
340
0
 62
   256
 40
0.24
300
I, O, Q, S, X, Z
 40
0.48
 90
        3
 40
0.18
 90
        1
 71
     2
340
69
 90
       25
 62
   256
340
5D
 90
       50
 62
   256
 40
0.24
 40
0.0
 40
0.24
 71
     3
340
55
 62
   256
 40
0.24
 90
        1
 40
0.75
 90
        1
300
%<\AcVar ViewType \f "%tc1">% %<\AcVar ViewSectionStartId>%-%<\AcVar ViewSectionEndId>%\PSCALA %<\AcVar ViewScale \f "%sn">%
 71
     4
 62
   256
 62
   257
300
ANSI31
 40
1.0
 90
        0
290
     0
290
     0
 90
        6
 40
0.0
 40
1.570796326794896
 40
0.2617993877991494
 40
1.308996938995747
 40
-0.2617993877991494
 40
1.832595714594046
  0
TABLESTYLE
  5
65
102
{ACAD_XDICTIONARY
360
25C
102
}
102
{ACAD_REACTORS
330
64
102
}
330
64
100
AcDbTableStyle
280
     0
  3
Standard
 70
     0
 71
     0
 40
0.06
 41
0.06
280
     0
281
     0
  7
Standard
140
0.18
170
     2
 62
     0
 63
     7
283
     0
 90
      512
 91
        0
  1

274
    -2
284
     1
 64
     0
275
    -2
285
     1
 65
     0
276
    -2
286
     1
 66
     0
277
    -2
287
     1
 67
     0
278
    -2
288
     1
 68
     0
279
    -2
289
     1
 69
     0
  7
Standard
140
0.25
170
     5
 62
     0
 63
     7
283
     0
 90
      512
 91
        0
  1

274
    -2
284
     1
 64
     0
275
    -2
285
     1
 65
     0
276
    -2
286
     1
 66
     0
277
    -2
287
     1
 67
     0
278
    -2
288
     1
 68
     0
279
    -2
289
     1
 69
     0
  7
Standard
140
0.18
170
     5
 62
     0
 63
     7
283
     0
 90
      512
 91
        0
  1

274
    -2
284
     1
 64
     0
275
    -2
285
     1
 65
     0
276
    -2
286
     1
 66
     0
277
    -2
287
     1
 67
     0
278
    -2
288
     1
 68
     0
279
    -2
289
     1
 69
     0
  0
VISUALSTYLE
  5
2F
102
{ACAD_REACTORS
330
29
102
}
330
29
100
AcDbVisualStyle
  2
2dWireframe
 70
     4
177
     3
291
     0
 70
    58
 90
        0
176
     1
 90
        2
176
     1
 90
        0
176
     1
 90
        0
176
     1
 40
0.6
176
     1
 40
30.0
176
     1
 62
     7
420
 16777215
176
     1
 90
        1
176
     1
 90
        4
176
     1
 62
     7
176
     1
 62
   257
176
     1
 90
        1
176
     1
 90
        1
176
     1
 40
1.0
176
     1
 90
        0
176
     1
 62
   257
176
     1
 40
1.0
176
     1
 90
        1
176
     1
 90
        6
176
     1
 90
        2
176
     1
 62
     7
176
     1
 90
        5
176
     1
 90
        0
176
     1
 90
        0
176
     1
290
     0
176
     1
 90
        1
176
     1
 40
0.0
176
     1
 90
        0
176
     1
290
     1
176
     1
290
     1
176
     1
290
     0
176
     1
290
     0
176
     1
290
     0
176
     1
290
     0
176
     1
290
     0
176
     1
290
     0
176
     1
290
     0
176
     1
 90
       50
176
     1
 40
0.0
176
     1
 40
1.0
176
     1
 90
        0
176
     1
 62
    18
420
        0
176
     1
 90
       50
176
     1
 90
        3
176
     1
 62
     5
420
      255
176
     1
290
     0
176
     1
 90
       50
176
     1
 90
       50
176
     1
 90
       50
176
     1
290
     0
176
     1
 90
       50
176
     1
 62
   256
176
     0
 40
1.0
176
     0
 90
        2
176
     1
  1
strokes_ogs.tif
176
     1
290
     0
176
     1
 40
1.0
176
     1
 40
1.0
176
     1
  0
VISUALSTYLE
  5
2E
102
{ACAD_REACTORS
330
29
102
}
330
29
100
AcDbVisualStyle
  2
Basic
 70
     7
177
     3
291
     1
 70
    58
 90
        1
176
     1
 90
        0
176
     1
 90
        1
176
     1
 90
        0
176
     1
 40
0.6
176
     1
 40
30.0
176
     1
 62
     7
420
 16777215
176
     1
 90
        0
176
     1
 90
        4
176
     1
 62
     7
176
     1
 62
   257
176
     1
 90
        1
176
     1
 90
        1
176
     1
 40
1.0
176
     1
 90
        8
176
     1
 62
     7
176
     1
 40
1.0
176
     1
 90
        1
176
     1
 90
        6
176
     1
 90
        2
176
     1
 62
     7
176
     1
 90
        5
176
     1
 90
        0
176
     1
 90
        0
176
     1
290
     0
176
     1
 90
        1
176
     1
 40
0.0
176
     1
 90
        0
176
     1
290
     0
176
     1
290
     1
176
     1
290
     1
176
     1
290
     0
176
     1
290
     0
176
     1
290
     0
176
     1
290
     0
176
     1
290
     0
176
     1
290
     0
176
     1
 90
       50
176
     1
 40
0.0
176
     1
 40
1.0
176
     1
 90
        0
176
     1
 62
    18
420
        0
176
     1
 90
       50
176
     1
 90
        3
176
     1
 62
     5
420
      255
176
     1
290
     0
176
     1
 90
       50
176
     1
 90
       50
176
     1
 90
       50
176
     1
290
     0
176
     1
 90
       50
176
     1
 62
   256
176
     0
 40
1.0
176
     0
 90
        2
176
     1
  1
strokes_ogs.tif
176
     1
290
     0
176
     1
 40
1.0
176
     1
 40
1.0
176
     1
  0
VISUALSTYLE
  5
35
102
{ACAD_REACTORS
330
29
102
}
330
29
100
AcDbVisualStyle
  2
Brighten
 70
    12
177
     3
291
     1
 70
    58
 90
        2
176
     1
 90
        2
176
     1
 90
        0
176
     1
 90
        0
176
     1
 40
0.6
176
     1
 40
30.0
176
     1
 62
     7
420
 16777215
176
     1
 90
        1
176
     1
 90
        4
176
     1
 62
     7
176
     1
 62
   257
176
     1
 90
        1
176
     1
 90
        1
176
     1
 40
1.0
176
     1
 90
        8
176
     1
 62
     7
176
     1
 40
1.0
176
     1
 90
        1
176
     1
 90
        6
176
     1
 90
        2
176
     1
 62
     7
176
     1
 90
        5
176
     1
 90
        0
176
     1
 90
        0
176
     1
290
     0
176
     1
 90
        1
176
     1
 40
50.0
176
     1
 90
        0
176
     1
290
     0
176
     1
290
     1
176
     1
290
     1
176
     1
290
     0
176
     1
290
     0
176
     1
290
     0
176
     1
290
     0
176
     1
290
     0
176
     1
290
     0
176
     1
 90
       50
176
     1
 40
0.0
176
     1
 40
1.0
176
     1
 90
        0
176
     1
 62
    18
420
        0
176
     1
 90
       50
176
     1
 90
        3
176
     1
 62
     5
420
      255
176
     1
290
     0
176
     1
 90
       50
176
     1
 90
       50
176
     1
 90
       50
176
     1
290
     0
176
     1
 90
       50
176
     1
 62
   256
176
     0
 40
1.0
176
     0
 90
        2
176
     1
  1
strokes_ogs.tif
176
     1
290
     0
176
     1
 40
1.0
176
     1
 40
1.0
176
     1
  0
VISUALSTYLE
  5
39
102
{ACAD_REACTORS
330
29
102
}
330
29
100
AcDbVisualStyle
  2
ColorChange
 70
    16
177
     3
291
     1
 70
    58
 90
        2
176
     1
 90
        2
176
     1
 90
        3
176
     1
 90
        0
176
     1
 40
0.6
176
     1
 40
30.0
176
     1
 62
     8
420
  8421504
176
     1
 90
        1
176
     1
 90
        4
176
     1
 62
     7
176
     1
 62
   257
176
     1
 90
        1
176
     1
 90
        1
176
     1
 40
1.0
176
     1
 90
        8
176
     1
 62
     8
420
  8421504
176
     1
 40
1.0
176
     1
 90
        1
176
     1
 90
        6
176
     1
 90
        2
176
     1
 62
     7
176
     1
 90
        5
176
     1
 90
        0
176
     1
 90
        0
176
     1
290
     0
176
     1
 90
        1
176
     1
 40
0.0
176
     1
 90
        0
176
     1
290
     0
176
     1
290
     1
176
     1
290
     1
176
     1
290
     0
176
     1
290
     0
176
     1
290
     0
176
     1
290
     0
176
     1
290
     0
176
     1
290
     0
176
     1
 90
       50
176
     1
 40
0.0
176
     1
 40
1.0
176
     1
 90
        0
176
     1
 62
    18
420
        0
176
     1
 90
       50
176
     1
 90
        3
176
     1
 62
     5
420
      255
176
     1
290
     0
176
     1
 90
       50
176
     1
 90
       50
176
     1
 90
       50
176
     1
290
     0
176
     1
 90
       50
176
     1
 62
   256
176
     0
 40
1.0
176
     0
 90
        2
176
     1
  1
strokes_ogs.tif
176
     1
290
     0
176
     1
 40
1.0
176
     1
 40
1.0
176
     1
  0
VISUALSTYLE
  5
32
102
{ACAD_REACTORS
330
29
102
}
330
29
100
AcDbVisualStyle
  2
Conceptual
 70
     9
177
     3
291
     0
 70
    58
 90
        3
176
     1
 90
        2
176
     1
 90
        0
176
     1
 90
        0
176
     1
 40
0.6
176
     1
 40
30.0
176
     1
 62
     7
420
 16777215
176
     1
 90
        2
176
     1
 90
        2
176
     1
 62
     7
176
     1
 62
   257
176
     1
 90
        1
176
     1
 90
        1
176
     1
 40
179.0
176
     1
 90
        8
176
     1
 62
     7
176
     1
 40
1.0
176
     1
 90
        1
176
     1
 90
        6
176
     1
 90
        2
176
     1
 62
     7
176
     1
 90
        3
176
     1
 90
        0
176
     1
 90
        0
176
     1
290
     0
176
     1
 90
        1
176
     1
 40
0.0
176
     1
 90
        0
176
     1
290
     0
176
     1
290
     1
176
     1
290
     1
176
     1
290
     0
176
     1
290
     0
176
     1
290
     0
176
     1
290
     0
176
     1
290
     0
176
     1
290
     0
176
     1
 90
       50
176
     1
 40
0.0
176
     1
 40
1.0
176
     1
 90
        0
176
     1
 62
    18
420
        0
176
     1
 90
       50
176
     1
 90
        3
176
     1
 62
     5
420
      255
176
     1
290
     0
176
     1
 90
       50
176
     1
 90
       50
176
     1
 90
       50
176
     1
290
     0
176
     1
 90
       50
176
     1
 62
   256
176
     0
 40
1.0
176
     0
 90
        2
176
     1
  1
strokes_ogs.tif
176
     1
290
     0
176
     1
 40
1.0
176
     1
 40
1.0
176
     1
  0
VISUALSTYLE
  5
34
102
{ACAD_REACTORS
330
29
102
}
330
29
100
AcDbVisualStyle
  2
Dim
 70
    11
177
     3
291
     1
 70
    58
 90
        2
176
     1
 90
        2
176
     1
 90
        0
176
     1
 90
        0
176
     1
 40
0.6
176
     1
 40
30.0
176
     1
 62
     7
420
 16777215
176
     1
 90
        1
176
     1
 90
        4
176
     1
 62
     7
176
     1
 62
   257
176
     1
 90
        1
176
     1
 90
        1
176
     1
 40
1.0
176
     1
 90
        8
176
     1
 62
     7
176
     1
 40
1.0
176
     1
 90
        1
176
     1
 90
        6
176
     1
 90
        2
176
     1
 62
     7
176
     1
 90
        5
176
     1
 90
        0
176
     1
 90
        0
176
     1
290
     0
176
     1
 90
        1
176
     1
 40
-50.0
176
     1
 90
        0
176
     1
290
     0
176
     1
290
     1
176
     1
290
     1
176
     1
290
     0
176
     1
290
     0
176
     1
290
     0
176
     1
290
     0
176
     1
290
     0
176
     1
290
     0
176
     1
 90
       50
176
     1
 40
0.0
176
     1
 40
1.0
176
     1
 90
        0
176
     1
 62
    18
420
        0
176
     1
 90
       50
176
     1
 90
        3
176
     1
 62
     5
420
      255
176
     1
290
     0
176
     1
 90
       50
176
     1
 90
       50
176
     1
 90
       50
176
     1
290
     0
176
     1
 90
       50
176
     1
 62
   256
176
     0
 40
1.0
176
     0
 90
        2
176
     1
  1
strokes_ogs.tif
176
     1
290
     0
176
     1
 40
1.0
176
     1
 40
1.0
176
     1
  0
VISUALSTYLE
  5
41
102
{ACAD_REACTORS
330
29
102
}
330
29
100
AcDbVisualStyle
  2
EdgeColorOff
 70
    22
177
     3
291
     1
 70
    58
 90
        2
176
     0
 90
        2
176
     0
 90
        0
176
     0
 90
        0
176
     0
 40
0.6
176
     0
 40
30.0
176
     0
 62
     7
420
 16777215
176
     0
 90
        1
176
     0
 90
        4
176
     0
 62
     7
176
     0
 62
   257
176
     0
 90
        1
176
     0
 90
        1
176
     0
 40
1.0
176
     0
 90
        8
176
     2
 62
     7
176
     0
 40
1.0
176
     0
 90
        1
176
     0
 90
        6
176
     0
 90
        2
176
     0
 62
     7
176
     0
 90
        5
176
     0
 90
        0
176
     0
 90
        0
176
     0
290
     0
176
     0
 90
        1
176
     0
 40
0.0
176
     0
 90
        0
176
     0
290
     0
176
     0
290
     1
176
     0
290
     1
176
     0
290
     0
176
     0
290
     0
176
     0
290
     0
176
     0
290
     0
176
     0
290
     0
176
     0
290
     0
176
     0
 90
       50
176
     0
 40
0.0
176
     0
 40
1.0
176
     0
 90
        0
176
     0
 62
    18
420
        0
176
     0
 90
       50
176
     0
 90
        3
176
     0
 62
     5
420
      255
176
     0
290
     0
176
     0
 90
       50
176
     0
 90
       50
176
     0
 90
       50
176
     0
290
     0
176
     0
 90
       50
176
     0
 62
   256
176
     0
 40
1.0
176
     0
 90
        2
176
     0
  1
strokes_ogs.tif
176
     0
290
     0
176
     0
 40
1.0
176
     0
 40
1.0
176
     0
  0
VISUALSTYLE
  5
38
102
{ACAD_REACTORS
330
29
102
}
330
29
100
AcDbVisualStyle
  2
Facepattern
 70
    15
177
     3
291
     1
 70
    58
 90
        2
176
     1
 90
        2
176
     1
 90
        0
176
     1
 90
        0
176
     1
 40
0.6
176
     1
 40
30.0
176
     1
 62
     7
420
 16777215
176
     1
 90
        1
176
     1
 90
        4
176
     1
 62
     7
176
     1
 62
   257
176
     1
 90
        1
176
     1
 90
        1
176
     1
 40
1.0
176
     1
 90
        8
176
     1
 62
     7
176
     1
 40
1.0
176
     1
 90
        1
176
     1
 90
        6
176
     1
 90
        2
176
     1
 62
     7
176
     1
 90
        5
176
     1
 90
        0
176
     1
 90
        0
176
     1
290
     0
176
     1
 90
        1
176
     1
 40
0.0
176
     1
 90
        0
176
     1
290
     0
176
     1
290
     1
176
     1
290
     1
176
     1
290
     0
176
     1
290
     0
176
     1
290
     0
176
     1
290
     0
176
     1
290
     0
176
     1
290
     0
176
     1
 90
       50
176
     1
 40
0.0
176
     1
 40
1.0
176
     1
 90
        0
176
     1
 62
    18
420
        0
176
     1
 90
       50
176
     1
 90
        3
176
     1
 62
     5
420
      255
176
     1
290
     0
176
     1
 90
       50
176
     1
 90
       50
176
     1
 90
       50
176
     1
290
     0
176
     1
 90
       50
176
     1
 62
   256
176
     0
 40
1.0
176
     0
 90
        2
176
     1
  1
strokes_ogs.tif
176
     1
290
     0
176
     1
 40
1.0
176
     1
 40
1.0
176
     1
  0
VISUALSTYLE
  5
2A
102
{ACAD_REACTORS
330
29
102
}
330
29
100
AcDbVisualStyle
  2
Flat
 70
     0
177
     3
291
     1
 70
    58
 90
        2
176
     1
 90
        1
176
     1
 90
        1
176
     1
 90
        2
176
     1
 40
0.6
176
     1
 40
30.0
176
     1
 62
     7
420
 16777215
176
     1
 90
        0
176
     1
 90
        0
176
     1
 62
     7
176
     1
 62
   257
176
     1
 90
        1
176
     1
 90
        1
176
     1
 40
1.0
176
     1
 90
        8
176
     1
 62
     7
176
     1
 40
1.0
176
     1
 90
        1
176
     1
 90
        6
176
     1
 90
        2
176
     1
 62
     7
176
     1
 90
        5
176
     1
 90
        0
176
     1
 90
        0
176
     1
290
     0
176
     1
 90
       13
176
     1
 40
0.0
176
     1
 90
        0
176
     1
290
     0
176
     1
290
     1
176
     1
290
     1
176
     1
290
     0
176
     1
290
     0
176
     1
290
     0
176
     1
290
     0
176
     1
290
     0
176
     1
290
     0
176
     1
 90
       50
176
     1
 40
0.0
176
     1
 40
1.0
176
     1
 90
        0
176
     1
 62
    18
420
        0
176
     1
 90
       50
176
     1
 90
        3
176
     1
 62
     5
420
      255
176
     1
290
     0
176
     1
 90
       50
176
     1
 90
       50
176
     1
 90
       50
176
     1
290
     0
176
     1
 90
       50
176
     1
 62
   256
176
     0
 40
1.0
176
     0
 90
        2
176
     1
  1
strokes_ogs.tif
176
     1
290
     0
176
     1
 40
1.0
176
     1
 40
1.0
176
     1
  0
VISUALSTYLE
  5
2B
102
{ACAD_REACTORS
330
29
102
}
330
29
100
AcDbVisualStyle
  2
FlatWithEdges
 70
     1
177
     3
291
     1
 70
    58
 90
        2
176
     1
 90
        1
176
     1
 90
        1
176
     1
 90
        2
176
     1
 40
0.6
176
     1
 40
30.0
176
     1
 62
     7
420
 16777215
176
     1
 90
        1
176
     1
 90
        0
176
     1
 62
     7
176
     1
 62
   257
176
     1
 90
        1
176
     1
 90
        1
176
     1
 40
1.0
176
     1
 90
        0
176
     1
 62
   257
176
     1
 40
1.0
176
     1
 90
        1
176
     1
 90
        6
176
     1
 90
        2
176
     1
 62
     7
176
     1
 90
        5
176
     1
 90
        0
176
     1
 90
        0
176
     1
290
     0
176
     1
 90
       13
176
     1
 40
0.0
176
     1
 90
        0
176
     1
290
     0
176
     1
290
     1
176
     1
290
     1
176
     1
290
     0
176
     1
290
     0
176
     1
290
     0
176
     1
290
     0
176
     1
290
     0
176
     1
290
     0
176
     1
 90
       50
176
     1
 40
0.0
176
     1
 40
1.0
176
     1
 90
        0
176
     1
 62
    18
420
        0
176
     1
 90
       50
176
     1
 90
        3
176
     1
 62
     5
420
      255
176
     1
290
     0
176
     1
 90
       50
176
     1
 90
       50
176
     1
 90
       50
176
     1
290
     0
176
     1
 90
       50
176
     1
 62
   256
176
     0
 40
1.0
176
     0
 90
        2
176
     1
  1
strokes_ogs.tif
176
     1
290
     0
176
     1
 40
1.0
176
     1
 40
1.0
176
     1
  0
VISUALSTYLE
  5
2C
102
{ACAD_REACTORS
330
29
102
}
330
29
100
AcDbVisualStyle
  2
Gouraud
 70
     2
177
     3
291
     1
 70
    58
 90
        2
176
     1
 90
        2
176
     1
 90
        1
176
     1
 90
        2
176
     1
 40
0.6
176
     1
 40
30.0
176
     1
 62
     7
420
 16777215
176
     1
 90
        0
176
     1
 90
        0
176
     1
 62
     7
176
     1
 62
   257
176
     1
 90
        1
176
     1
 90
        1
176
     1
 40
1.0
176
     1
 90
        0
176
     1
 62
     7
176
     1
 40
1.0
176
     1
 90
        1
176
     1
 90
        6
176
     1
 90
        2
176
     1
 62
     7
176
     1
 90
        5
176
     1
 90
        0
176
     1
 90
        0
176
     1
290
     0
176
     1
 90
       13
176
     1
 40
0.0
176
     1
 90
        0
176
     1
290
     0
176
     1
290
     1
176
     1
290
     1
176
     1
290
     0
176
     1
290
     0
176
     1
290
     0
176
     1
290
     0
176
     1
290
     0
176
     1
290
     0
176
     1
 90
       50
176
     1
 40
0.0
176
     1
 40
1.0
176
     1
 90
        0
176
     1
 62
    18
420
        0
176
     1
 90
       50
176
     1
 90
        3
176
     1
 62
     5
420
      255
176
     1
290
     0
176
     1
 90
       50
176
     1
 90
       50
176
     1
 90
       50
176
     1
290
     0
176
     1
 90
       50
176
     1
 62
   256
176
     0
 40
1.0
176
     0
 90
        2
176
     1
  1
strokes_ogs.tif
176
     1
290
     0
176
     1
 40
1.0
176
     1
 40
1.0
176
     1
  0
VISUALSTYLE
  5
2D
102
{ACAD_REACTORS
330
29
102
}
330
29
100
AcDbVisualStyle
  2
GouraudWithEdges
 70
     3
177
     3
291
     1
 70
    58
 90
        2
176
     1
 90
        2
176
     1
 90
        1
176
     1
 90
        2
176
     1
 40
0.6
176
     1
 40
30.0
176
     1
 62
     7
420
 16777215
176
     1
 90
        1
176
     1
 90
        0
176
     1
 62
     7
176
     1
 62
   257
176
     1
 90
        1
176
     1
 90
        1
176
     1
 40
1.0
176
     1
 90
        0
176
     1
 62
   257
176
     1
 40
1.0
176
     1
 90
        1
176
     1
 90
        6
176
     1
 90
        2
176
     1
 62
     7
176
     1
 90
        5
176
     1
 90
        0
176
     1
 90
        0
176
     1
290
     0
176
     1
 90
       13
176
     1
 40
0.0
176
     1
 90
        0
176
     1
290
     0
176
     1
290
     1
176
     1
290
     1
176
     1
290
     0
176
     1
290
     0
176
     1
290
     0
176
     1
290
     0
176
     1
290
     0
176
     1
290
     0
176
     1
 90
       50
176
     1
 40
0.0
176
     1
 40
1.0
176
     1
 90
        0
176
     1
 62
    18
420
        0
176
     1
 90
       50
176
     1
 90
        3
176
     1
 62
     5
420
      255
176
     1
290
     0
176
     1
 90
       50
176
     1
 90
       50
176
     1
 90
       50
176
     1
290
     0
176
     1
 90
       50
176
     1
 62
   256
176
     0
 40
1.0
176
     0
 90
        2
176
     1
  1
strokes_ogs.tif
176
     1
290
     0
176
     1
 40
1.0
176
     1
 40
1.0
176
     1
  0
VISUALSTYLE
  5
31
102
{ACAD_REACTORS
330
29
102
}
330
29
100
AcDbVisualStyle
  2
Hidden
 70
     6
177
     3
291
     0
 70
    58
 90
        1
176
     1
 90
        2
176
     1
 90
        2
176
     1
 90
        0
176
     1
 40
0.6
176
     1
 40
30.0
176
     1
 62
     7
420
 16777215
176
     1
 90
        2
176
     1
 90
        2
176
     1
 62
     7
176
     1
 62
   257
176
     1
 90
        2
176
     1
 90
        1
176
     1
 40
40.0
176
     1
 90
        0
176
     1
 62
   257
176
     1
 40
1.0
176
     1
 90
        1
176
     1
 90
        6
176
     1
 90
        2
176
     1
 62
     7
176
     1
 90
        3
176
     1
 90
        0
176
     1
 90
        0
176
     1
290
     0
176
     1
 90
        1
176
     1
 40
0.0
176
     1
 90
        0
176
     1
290
     0
176
     1
290
     1
176
     1
290
     1
176
     1
290
     0
176
     1
290
     0
176
     1
290
     0
176
     1
290
     0
176
     1
290
     0
176
     1
290
     0
176
     1
 90
       50
176
     1
 40
0.0
176
     1
 40
1.0
176
     1
 90
        0
176
     1
 62
    18
420
        0
176
     1
 90
       50
176
     1
 90
        3
176
     1
 62
     5
420
      255
176
     1
290
     0
176
     1
 90
       50
176
     1
 90
       50
176
     1
 90
       50
176
     1
290
     0
176
     1
 90
       50
176
     1
 62
   256
176
     0
 40
1.0
176
     0
 90
        2
176
     1
  1
strokes_ogs.tif
176
     1
290
     0
176
     1
 40
1.0
176
     1
 40
1.0
176
     1
  0
VISUALSTYLE
  5
3F
102
{ACAD_REACTORS
330
29
102
}
330
29
100
AcDbVisualStyle
  2
JitterOff
 70
    20
177
     3
291
     1
 70
    58
 90
        2
176
     0
 90
        2
176
     0
 90
        0
176
     0
 90
        0
176
     0
 40
0.6
176
     0
 40
30.0
176
     0
 62
     7
420
 16777215
176
     0
 90
        1
176
     0
 90
        4
176
     0
 62
     7
176
     0
 62
   257
176
     0
 90
        1
176
     0
 90
        1
176
     0
 40
1.0
176
     0
 90
       10
176
     2
 62
     7
176
     0
 40
1.0
176
     0
 90
        1
176
     0
 90
        6
176
     0
 90
        2
176
     0
 62
     7
176
     0
 90
        5
176
     0
 90
        0
176
     0
 90
        0
176
     0
290
     0
176
     0
 90
        1
176
     0
 40
0.0
176
     0
 90
        0
176
     0
290
     0
176
     0
290
     1
176
     0
290
     1
176
     0
290
     0
176
     0
290
     0
176
     0
290
     0
176
     0
290
     0
176
     0
290
     0
176
     0
290
     0
176
     0
 90
       50
176
     0
 40
0.0
176
     0
 40
1.0
176
     0
 90
        0
176
     0
 62
    18
420
        0
176
     0
 90
       50
176
     0
 90
        3
176
     0
 62
     5
420
      255
176
     0
290
     0
176
     0
 90
       50
176
     0
 90
       50
176
     0
 90
       50
176
     0
290
     0
176
     0
 90
       50
176
     0
 62
   256
176
     0
 40
1.0
176
     0
 90
        2
176
     0
  1
strokes_ogs.tif
176
     0
290
     0
176
     0
 40
1.0
176
     0
 40
1.0
176
     0
  0
VISUALSTYLE
  5
37
102
{ACAD_REACTORS
330
29
102
}
330
29
100
AcDbVisualStyle
  2
Linepattern
 70
    14
177
     3
291
     1
 70
    58
 90
        2
176
     1
 90
        2
176
     1
 90
        0
176
     1
 90
        0
176
     1
 40
0.6
176
     1
 40
30.0
176
     1
 62
     7
420
 16777215
176
     1
 90
        1
176
     1
 90
        4
176
     1
 62
     7
176
     1
 62
   257
176
     1
 90
        7
176
     1
 90
        7
176
     1
 40
1.0
176
     1
 90
        8
176
     1
 62
     7
176
     1
 40
1.0
176
     1
 90
        1
176
     1
 90
        6
176
     1
 90
        2
176
     1
 62
     7
176
     1
 90
        5
176
     1
 90
        0
176
     1
 90
        0
176
     1
290
     0
176
     1
 90
        1
176
     1
 40
0.0
176
     1
 90
        0
176
     1
290
     0
176
     1
290
     1
176
     1
290
     1
176
     1
290
     0
176
     1
290
     0
176
     1
290
     0
176
     1
290
     0
176
     1
290
     0
176
     1
290
     0
176
     1
 90
       50
176
     1
 40
0.0
176
     1
 40
1.0
176
     1
 90
        0
176
     1
 62
    18
420
        0
176
     1
 90
       50
176
     1
 90
        3
176
     1
 62
     5
420
      255
176
     1
290
     0
176
     1
 90
       50
176
     1
 90
       50
176
     1
 90
       50
176
     1
290
     0
176
     1
 90
       50
176
     1
 62
   256
176
     0
 40
1.0
176
     0
 90
        2
176
     1
  1
strokes_ogs.tif
176
     1
290
     0
176
     1
 40
1.0
176
     1
 40
1.0
176
     1
  0
VISUALSTYLE
  5
40
102
{ACAD_REACTORS
330
29
102
}
330
29
100
AcDbVisualStyle
  2
OverhangOff
 70
    21
177
     3
291
     1
 70
    58
 90
        2
176
     0
 90
        2
176
     0
 90
        0
176
     0
 90
        0
176
     0
 40
0.6
176
     0
 40
30.0
176
     0
 62
     7
420
 16777215
176
     0
 90
        1
176
     0
 90
        4
176
     0
 62
     7
176
     0
 62
   257
176
     0
 90
        1
176
     0
 90
        1
176
     0
 40
1.0
176
     0
 90
        9
176
     2
 62
     7
176
     0
 40
1.0
176
     0
 90
        1
176
     0
 90
        6
176
     0
 90
        2
176
     0
 62
     7
176
     0
 90
        5
176
     0
 90
        0
176
     0
 90
        0
176
     0
290
     0
176
     0
 90
        1
176
     0
 40
0.0
176
     0
 90
        0
176
     0
290
     0
176
     0
290
     1
176
     0
290
     1
176
     0
290
     0
176
     0
290
     0
176
     0
290
     0
176
     0
290
     0
176
     0
290
     0
176
     0
290
     0
176
     0
 90
       50
176
     0
 40
0.0
176
     0
 40
1.0
176
     0
 90
        0
176
     0
 62
    18
420
        0
176
     0
 90
       50
176
     0
 90
        3
176
     0
 62
     5
420
      255
176
     0
290
     0
176
     0
 90
       50
176
     0
 90
       50
176
     0
 90
       50
176
     0
290
     0
176
     0
 90
       50
176
     0
 62
   256
176
     0
 40
1.0
176
     0
 90
        2
176
     0
  1
strokes_ogs.tif
176
     0
290
     0
176
     0
 40
1.0
176
     0
 40
1.0
176
     0
  0
VISUALSTYLE
  5
33
102
{ACAD_REACTORS
330
29
102
}
330
29
100
AcDbVisualStyle
  2
Realistic
 70
     8
177
     3
291
     0
 70
    58
 90
        2
176
     1
 90
        3
176
     1
 90
        0
176
     1
 90
        2
176
     1
 40
0.6
176
     1
 40
30.0
176
     1
 62
     7
420
 16777215
176
     1
 90
        0
176
     1
 90
        0
176
     1
 62
     7
176
     1
 62
   257
176
     1
 90
        1
176
     1
 90
        1
176
     1
 40
1.0
176
     1
 90
        8
176
     1
 62
   257
176
     1
 40
1.0
176
     1
 90
        1
176
     1
 90
        6
176
     1
 90
        2
176
     1
 62
     7
176
     1
 90
        3
176
     1
 90
        0
176
     1
 90
        0
176
     1
290
     0
176
     1
 90
       13
176
     1
 40
0.0
176
     1
 90
        0
176
     1
290
     0
176
     1
290
     1
176
     1
290
     1
176
     1
290
     0
176
     1
290
     0
176
     1
290
     0
176
     1
290
     0
176
     1
290
     0
176
     1
290
     0
176
     1
 90
       50
176
     1
 40
0.0
176
     1
 40
1.0
176
     1
 90
        0
176
     1
 62
    18
420
        0
176
     1
 90
       50
176
     1
 90
        3
176
     1
 62
     5
420
      255
176
     1
290
     0
176
     1
 90
       50
176
     1
 90
       50
176
     1
 90
       50
176
     1
290
     0
176
     1
 90
       50
176
     1
 62
   256
176
     0
 40
1.0
176
     0
 90
        2
176
     1
  1
strokes_ogs.tif
176
     1
290
     0
176
     1
 40
1.0
176
     1
 40
1.0
176
     1
  0
VISUALSTYLE
  5
3E
102
{ACAD_REACTORS
330
29
102
}
330
29
100
AcDbVisualStyle
  2
Shaded
 70
    27
177
     3
291
     0
 70
    58
 90
        2
176
     1
 90
        2
176
     1
 90
        1
176
     1
 90
        2
176
     1
 40
0.6
176
     1
 40
30.0
176
     1
 62
     7
420
 16777215
176
     1
 90
        0
176
     1
 90
        4
176
     1
 62
     7
176
     1
 62
   257
176
     1
 90
        1
176
     1
 90
        1
176
     1
 40
1.0
176
     1
 90
        8
176
     1
 62
   257
176
     1
 40
1.0
176
     1
 90
        1
176
     1
 90
        6
176
     1
 90
        2
176
     1
 62
     8
420
  7895160
176
     1
 90
        3
176
     1
 90
        0
176
     1
 90
        0
176
     1
290
     0
176
     1
 90
        5
176
     1
 40
0.0
176
     1
 90
        0
176
     1
290
     0
176
     1
290
     1
176
     1
290
     1
176
     1
290
     0
176
     1
290
     0
176
     1
290
     0
176
     1
290
     0
176
     1
290
     0
176
     1
290
     0
176
     1
 90
       50
176
     1
 40
0.0
176
     1
 40
1.0
176
     1
 90
        0
176
     1
 62
    18
420
        0
176
     1
 90
       50
176
     1
 90
        3
176
     1
 62
     5
420
      255
176
     1
290
     0
176
     1
 90
       50
176
     1
 90
       50
176
     1
 90
       50
176
     1
290
     0
176
     1
 90
       50
176
     1
 62
   256
176
     0
 40
1.0
176
     0
 90
        2
176
     1
  1
strokes_ogs.tif
176
     1
290
     0
176
     1
 40
1.0
176
     1
 40
1.0
176
     1
  0
VISUALSTYLE
  5
3D
102
{ACAD_REACTORS
330
29
102
}
330
29
100
AcDbVisualStyle
  2
Shaded with edges
 70
    26
177
     3
291
     0
 70
    58
 90
        2
176
     1
 90
        2
176
     1
 90
        1
176
     1
 90
        2
176
     1
 40
0.6
176
     1
 40
30.0
176
     1
 62
     7
420
 16777215
176
     1
 90
        1
176
     1
 90
       10
176
     1
 62
     7
176
     1
 62
   257
176
     1
 90
        2
176
     1
 90
        1
176
     1
 40
1.0
176
     1
 90
        8
176
     1
 62
   257
176
     1
 40
1.0
176
     1
 90
        1
176
     1
 90
        6
176
     1
 90
        2
176
     1
 62
     7
176
     1
 90
        3
176
     1
 90
        0
176
     1
 90
        0
176
     1
290
     0
176
     1
 90
        5
176
     1
 40
0.0
176
     1
 90
        0
176
     1
290
     0
176
     1
290
     1
176
     1
290
     1
176
     1
290
     0
176
     1
290
     0
176
     1
290
     0
176
     1
290
     0
176
     1
290
     0
176
     1
290
     0
176
     1
 90
       50
176
     1
 40
0.0
176
     1
 40
1.0
176
     1
 90
        0
176
     1
 62
    18
420
        0
176
     1
 90
       50
176
     1
 90
        3
176
     1
 62
     5
420
      255
176
     1
290
     0
176
     1
 90
       50
176
     1
 90
       50
176
     1
 90
       50
176
     1
290
     0
176
     1
 90
       50
176
     1
 62
   256
176
     0
 40
1.0
176
     0
 90
        2
176
     1
  1
strokes_ogs.tif
176
     1
290
     0
176
     1
 40
1.0
176
     1
 40
1.0
176
     1
  0
VISUALSTYLE
  5
3A
102
{ACAD_REACTORS
330
29
102
}
330
29
100
AcDbVisualStyle
  2
Shades of Gray
 70
    23
177
     3
291
     0
 70
    58
 90
        2
176
     1
 90
        2
176
     1
 90
        3
176
     1
 90
        0
176
     1
 40
0.6
176
     1
 40
30.0
176
     1
 62
     7
420
 16777215
176
     1
 90
        2
176
     1
 90
        2
176
     1
 62
     7
176
     1
 62
     7
176
     1
 90
        1
176
     1
 90
        1
176
     1
 40
40.0
176
     1
 90
        8
176
     1
 62
     7
176
     1
 40
1.0
176
     1
 90
        1
176
     1
 90
        6
176
     1
 90
        2
176
     1
 62
     7
176
     1
 90
        3
176
     1
 90
        0
176
     1
 90
        0
176
     1
290
     0
176
     1
 90
        1
176
     1
 40
0.0
176
     1
 90
        0
176
     1
290
     0
176
     1
290
     1
176
     1
290
     1
176
     1
290
     0
176
     1
290
     0
176
     1
290
     0
176
     1
290
     0
176
     1
290
     0
176
     1
290
     0
176
     1
 90
       50
176
     1
 40
0.0
176
     1
 40
1.0
176
     1
 90
        0
176
     1
 62
    18
420
        0
176
     1
 90
       50
176
     1
 90
        3
176
     1
 62
     5
420
      255
176
     1
290
     0
176
     1
 90
       50
176
     1
 90
       50
176
     1
 90
       50
176
     1
290
     0
176
     1
 90
       50
176
     1
 62
   256
176
     0
 40
1.0
176
     0
 90
        2
176
     1
  1
strokes_ogs.tif
176
     1
290
     0
176
     1
 40
1.0
176
     1
 40
1.0
176
     1
  0
VISUALSTYLE
  5
3B
102
{ACAD_REACTORS
330
29
102
}
330
29
100
AcDbVisualStyle
  2
Sketchy
 70
    24
177
     3
291
     0
 70
    58
 90
        1
176
     1
 90
        2
176
     1
 90
        2
176
     1
 90
        0
176
     1
 40
0.6
176
     1
 40
30.0
176
     1
 62
     7
420
 16777215
176
     1
 90
        2
176
     1
 90
        2
176
     1
 62
     7
176
     1
 62
     7
176
     1
 90
        1
176
     1
 90
        1
176
     1
 40
40.0
176
     1
 90
       11
176
     1
 62
     7
176
     1
 40
1.0
176
     1
 90
        1
176
     1
 90
        6
176
     1
 90
        2
176
     1
 62
     7
176
     1
 90
        6
176
     1
 90
        0
176
     1
 90
        0
176
     1
290
     0
176
     1
 90
        1
176
     1
 40
0.0
176
     1
 90
        0
176
     1
290
     0
176
     1
290
     1
176
     1
290
     1
176
     1
290
     0
176
     1
290
     0
176
     1
290
     0
176
     1
290
     0
176
     1
290
     0
176
     1
290
     0
176
     1
 90
       50
176
     1
 40
0.0
176
     1
 40
1.0
176
     1
 90
        0
176
     1
 62
    18
420
        0
176
     1
 90
       50
176
     1
 90
        3
176
     1
 62
     5
420
      255
176
     1
290
     0
176
     1
 90
       50
176
     1
 90
       50
176
     1
 90
       50
176
     1
290
     0
176
     1
 90
       50
176
     1
 62
   256
176
     0
 40
1.0
176
     0
 90
        2
176
     1
  1
strokes_ogs.tif
176
     1
290
     0
176
     1
 40
1.0
176
     1
 40
1.0
176
     1
  0
VISUALSTYLE
  5
36
102
{ACAD_REACTORS
330
29
102
}
330
29
100
AcDbVisualStyle
  2
Thicken
 70
    13
177
     3
291
     1
 70
    58
 90
        2
176
     1
 90
        2
176
     1
 90
        0
176
     1
 90
        0
176
     1
 40
0.6
176
     1
 40
30.0
176
     1
 62
     7
420
 16777215
176
     1
 90
        1
176
     1
 90
        4
176
     1
 62
     7
176
     1
 62
   257
176
     1
 90
        1
176
     1
 90
        1
176
     1
 40
1.0
176
     1
 90
       12
176
     1
 62
     7
176
     1
 40
1.0
176
     1
 90
        1
176
     1
 90
        6
176
     1
 90
        2
176
     1
 62
     7
176
     1
 90
        5
176
     1
 90
        0
176
     1
 90
        0
176
     1
290
     0
176
     1
 90
        1
176
     1
 40
0.0
176
     1
 90
        0
176
     1
290
     0
176
     1
290
     1
176
     1
290
     1
176
     1
290
     0
176
     1
290
     0
176
     1
290
     0
176
     1
290
     0
176
     1
290
     0
176
     1
290
     0
176
     1
 90
       50
176
     1
 40
0.0
176
     1
 40
1.0
176
     1
 90
        0
176
     1
 62
    18
420
        0
176
     1
 90
       50
176
     1
 90
        3
176
     1
 62
     5
420
      255
176
     1
290
     0
176
     1
 90
       50
176
     1
 90
       50
176
     1
 90
       50
176
     1
290
     0
176
     1
 90
       50
176
     1
 62
   256
176
     0
 40
1.0
176
     0
 90
        2
176
     1
  1
strokes_ogs.tif
176
     1
290
     0
176
     1
 40
1.0
176
     1
 40
1.0
176
     1
  0
VISUALSTYLE
  5
30
102
{ACAD_REACTORS
330
29
102
}
330
29
100
AcDbVisualStyle
  2
Wireframe
 70
     5
177
     3
291
     0
 70
    58
 90
        0
176
     1
 90
        2
176
     1
 90
        0
176
     1
 90
        0
176
     1
 40
0.6
176
     1
 40
30.0
176
     1
 62
     7
420
 16777215
176
     1
 90
        1
176
     1
 90
        4
176
     1
 62
     7
176
     1
 62
   257
176
     1
 90
        1
176
     1
 90
        1
176
     1
 40
1.0
176
     1
 90
        0
176
     1
 62
   257
176
     1
 40
1.0
176
     1
 90
        1
176
     1
 90
        6
176
     1
 90
        2
176
     1
 62
     7
176
     1
 90
        3
176
     1
 90
        0
176
     1
 90
        0
176
     1
290
     0
176
     1
 90
        1
176
     1
 40
0.0
176
     1
 90
        0
176
     1
290
     0
176
     1
290
     1
176
     1
290
     1
176
     1
290
     0
176
     1
290
     0
176
     1
290
     0
176
     1
290
     0
176
     1
290
     0
176
     1
290
     0
176
     1
 90
       50
176
     1
 40
0.0
176
     1
 40
1.0
176
     1
 90
        0
176
     1
 62
    18
420
        0
176
     1
 90
       50
176
     1
 90
        3
176
     1
 62
     5
420
      255
176
     1
290
     0
176
     1
 90
       50
176
     1
 90
       50
176
     1
 90
       50
176
     1
290
     0
176
     1
 90
       50
176
     1
 62
   256
176
     0
 40
1.0
176
     0
 90
        2
176
     1
  1
strokes_ogs.tif
176
     1
290
     0
176
     1
 40
1.0
176
     1
 40
1.0
176
     1
  0
VISUALSTYLE
  5
3C
102
{ACAD_REACTORS
330
29
102
}
330
29
100
AcDbVisualStyle
  2
X-Ray
 70
    25
177
     3
291
     0
 70
    58
 90
        2
176
     1
 90
        2
176
     1
 90
        1
176
     1
 90
        1
176
     1
 40
0.5
176
     1
 40
30.0
176
     1
 62
     7
420
 16777215
176
     1
 90
        1
176
     1
 90
        0
176
     1
 62
     7
176
     1
 62
   257
176
     1
 90
        1
176
     1
 90
        1
176
     1
 40
1.0
176
     1
 90
        8
176
     1
 62
     7
176
     1
 40
1.0
176
     1
 90
        1
176
     1
 90
        6
176
     1
 90
        2
176
     1
 62
     7
176
     1
 90
        3
176
     1
 90
        0
176
     1
 90
        0
176
     1
290
     0
176
     1
 90
       13
176
     1
 40
0.0
176
     1
 90
        0
176
     1
290
     0
176
     1
290
     1
176
     1
290
     1
176
     1
290
     0
176
     1
290
     0
176
     1
290
     0
176
     1
290
     0
176
     1
290
     0
176
     1
290
     0
176
     1
 90
       50
176
     1
 40
0.0
176
     1
 40
1.0
176
     1
 90
        0
176
     1
 62
    18
420
        0
176
     1
 90
       50
176
     1
 90
        3
176
     1
 62
     5
420
      255
176
     1
290
     0
176
     1
 90
       50
176
     1
 90
       50
176
     1
 90
       50
176
     1
290
     0
176
     1
 90
       50
176
     1
 62
   256
176
     0
 40
1.0
176
     0
 90
        2
176
     1
  1
strokes_ogs.tif
176
     1
290
     0
176
     1
 40
1.0
176
     1
 40
1.0
176
     1
  0
DICTIONARYVAR
  5
81
102
{ACAD_REACTORS
330
7C
102
}
330
7C
100
DictionaryVariables
280
     0
  1
1:1
  0
DICTIONARYVAR
  5
7E
102
{ACAD_REACTORS
330
7C
102
}
330
7C
100
DictionaryVariables
280
     0
  1
STANDARD
  0
DICTIONARYVAR
  5
7D
102
{ACAD_REACTORS
330
7C
102
}
330
7C
100
DictionaryVariables
280
     0
  1
STANDARD
  0
DICTIONARYVAR
  5
7F
102
{ACAD_REACTORS
330
7C
102
}
330
7C
100
DictionaryVariables
280
     0
  1
Imperial24
  0
DICTIONARYVAR
  5
80
102
{ACAD_REACTORS
330
7C
102
}
330
7C
100
DictionaryVariables
280
     0
  1
Imperial24
  0
XRECORD
  5
259
102
{ACAD_REACTORS
330
255
102
}
330
255
100
AcDbXrecord
280
     1
  1
BUILDING_ID
  1
Progetto per messa in tavola DXF, DWG
  1
FLOOR_ID
  1
694395
  0
XRECORD
  5
257
102
{ACAD_REACTORS
330
255
102
}
330
255
100
AcDbXrecord
280
     1
  1
-2001160
  1
Apparecchi idraulici
  0
XRECORD
  5
258
102
{ACAD_REACTORS
330
255
102
}
330
255
100
AcDbXrecord
280
     1
  1
790271
  1
Body
  1
923261
  1
Servomotor
  0
XRECORD
  5
256
102
{ACAD_REACTORS
330
255
102
}
330
255
100
AcDbXrecord
280
     1
  1
859151
  1
Automatic flow rate regulator valve_Caleffi_121 DN15 : 1/2''
  0
DICTIONARY
  5
1A
330
19
100
AcDbDictionary
280
     1
281
     1
  3
BUMPTILE
360
1C
  3
DIFFUSETILE
360
1B
  3
OPACITYTILE
360
1F
  3
REFLECTIONTILE
360
1E
  3
REFRACTIONTILE
360
20
  3
SPECULARTILE
360
1D
  0
DICTIONARY
  5
12
330
11
100
AcDbDictionary
280
     1
281
     1
  3
BUMPTILE
360
14
  3
DIFFUSETILE
360
13
  3
OPACITYTILE
360
17
  3
REFLECTIONTILE
360
16
  3
REFRACTIONTILE
360
18
  3
SPECULARTILE
360
15
  0
DICTIONARY
  5
22
330
21
100
AcDbDictionary
280
     1
281
     1
  3
BUMPTILE
360
24
  3
DIFFUSETILE
360
23
  3
OPACITYTILE
360
27
  3
REFLECTIONTILE
360
26
  3
REFRACTIONTILE
360
28
  3
SPECULARTILE
360
25
  0
DICTIONARY
  5
25C
330
65
100
AcDbDictionary
280
     1
281
     1
  3
ACAD_ROUNDTRIP_2008_TABLESTYLE_CELLSTYLEMAP
360
25D
  0
XRECORD
  5
1C
102
{ACAD_REACTORS
330
1A
102
}
330
1A
100
AcDbXrecord
280
     1
270
     1
271
     1
  0
XRECORD
  5
1B
102
{ACAD_REACTORS
330
1A
102
}
330
1A
100
AcDbXrecord
280
     1
270
     1
271
     1
  0
XRECORD
  5
1F
102
{ACAD_REACTORS
330
1A
102
}
330
1A
100
AcDbXrecord
280
     1
270
     1
271
     1
  0
XRECORD
  5
1E
102
{ACAD_REACTORS
330
1A
102
}
330
1A
100
AcDbXrecord
280
     1
270
     1
271
     1
  0
XRECORD
  5
20
102
{ACAD_REACTORS
330
1A
102
}
330
1A
100
AcDbXrecord
280
     1
270
     1
271
     1
  0
XRECORD
  5
1D
102
{ACAD_REACTORS
330
1A
102
}
330
1A
100
AcDbXrecord
280
     1
270
     1
271
     1
  0
XRECORD
  5
14
102
{ACAD_REACTORS
330
12
102
}
330
12
100
AcDbXrecord
280
     1
270
     1
271
     1
  0
XRECORD
  5
13
102
{ACAD_REACTORS
330
12
102
}
330
12
100
AcDbXrecord
280
     1
270
     1
271
     1
  0
XRECORD
  5
17
102
{ACAD_REACTORS
330
12
102
}
330
12
100
AcDbXrecord
280
     1
270
     1
271
     1
  0
XRECORD
  5
16
102
{ACAD_REACTORS
330
12
102
}
330
12
100
AcDbXrecord
280
     1
270
     1
271
     1
  0
XRECORD
  5
18
102
{ACAD_REACTORS
330
12
102
}
330
12
100
AcDbXrecord
280
     1
270
     1
271
     1
  0
XRECORD
  5
15
102
{ACAD_REACTORS
330
12
102
}
330
12
100
AcDbXrecord
280
     1
270
     1
271
     1
  0
XRECORD
  5
24
102
{ACAD_REACTORS
330
22
102
}
330
22
100
AcDbXrecord
280
     1
270
     1
271
     1
  0
XRECORD
  5
23
102
{ACAD_REACTORS
330
22
102
}
330
22
100
AcDbXrecord
280
     1
270
     1
271
     1
  0
XRECORD
  5
27
102
{ACAD_REACTORS
330
22
102
}
330
22
100
AcDbXrecord
280
     1
270
     1
271
     1
  0
XRECORD
  5
26
102
{ACAD_REACTORS
330
22
102
}
330
22
100
AcDbXrecord
280
     1
270
     1
271
     1
  0
XRECORD
  5
28
102
{ACAD_REACTORS
330
22
102
}
330
22
100
AcDbXrecord
280
     1
270
     1
271
     1
  0
XRECORD
  5
25
102
{ACAD_REACTORS
330
22
102
}
330
22
100
AcDbXrecord
280
     1
270
     1
271
     1
  0
CELLSTYLEMAP
  5
25D
102
{ACAD_REACTORS
330
25C
102
}
330
25C
100
AcDbCellStyleMap
 90
        3
300
CELLSTYLE
  1
TABLEFORMAT_BEGIN
 90
        5
170
     1
 91
        0
 92
    32768
 62
   257
 93
        1
300
CONTENTFORMAT
  1
CONTENTFORMAT_BEGIN
 90
        0
 91
        0
 92
      512
 93
        0
300

 40
0.0
140
1.0
 94
        5
 62
     0
340
55
144
0.25
309
CONTENTFORMAT_END
171
     0
 94
        0
309
TABLEFORMAT_END
  1
CELLSTYLE_BEGIN
 90
        1
 91
        1
300
_TITLE
309
CELLSTYLE_END
300
CELLSTYLE
  1
TABLEFORMAT_BEGIN
 90
        5
170
     1
 91
        0
 92
        0
 62
   257
 93
        1
300
CONTENTFORMAT
  1
CONTENTFORMAT_BEGIN
 90
        0
 91
        0
 92
      512
 93
        0
300

 40
0.0
140
1.0
 94
        5
 62
     0
340
55
144
0.18
309
CONTENTFORMAT_END
171
     0
 94
        0
309
TABLEFORMAT_END
  1
CELLSTYLE_BEGIN
 90
        2
 91
        1
300
_HEADER
309
CELLSTYLE_END
300
CELLSTYLE
  1
TABLEFORMAT_BEGIN
 90
        5
170
     1
 91
        0
 92
        0
 62
   257
 93
        1
300
CONTENTFORMAT
  1
CONTENTFORMAT_BEGIN
 90
        0
 91
        0
 92
      512
 93
        0
300

 40
0.0
140
1.0
 94
        2
 62
     0
340
55
144
0.18
309
CONTENTFORMAT_END
171
     0
 94
        0
309
TABLEFORMAT_END
  1
CELLSTYLE_BEGIN
 90
        3
 91
        2
300
_DATA
309
CELLSTYLE_END
  0
ENDSEC
  0
EOF
