  0
SECTION
  2
HEADER
  9
$ACADVER
  1
AC1027
  9
$ACADMAINTVER
 70
    20
  9
$DWGCODEPAGE
  3
ANSI_1252
  9
$REQUIREDVERSIONS
160
                 0
  9
$INSBASE
 10
0.0
 20
0.0
 30
0.0
  9
$EXTMIN
 10
706.055771170361
 20
1856.482558850002
 30
-0.00000001
  9
$EXTMAX
 10
1131.274450670915
 20
2113.500000000035
 30
0.00000001
  9
$LIMMIN
 10
0.0
 20
0.0
  9
$LIMMAX
 10
12.0
 20
9.0
  9
$ORTHOMODE
 70
     0
  9
$REGENMODE
 70
     1
  9
$FILLMODE
 70
     1
  9
$QTEXTMODE
 70
     0
  9
$MIRRTEXT
 70
     0
  9
$LTSCALE
 40
1.0
  9
$ATTMODE
 70
     1
  9
$TEXTSIZE
 40
0.2
  9
$TRACEWID
 40
0.05
  9
$TEXTSTYLE
  7
Standard
  9
$CLAYER
  8
0
  9
$CELTYPE
  6
ByLayer
  9
$CECOLOR
 62
   256
  9
$CELTSCALE
 40
1.0
  9
$DISPSILH
 70
     0
  9
$DIMSCALE
 40
1.0
  9
$DIMASZ
 40
0.18
  9
$DIMEXO
 40
0.0625
  9
$DIMDLI
 40
0.38
  9
$DIMRND
 40
0.0
  9
$DIMDLE
 40
0.0
  9
$DIMEXE
 40
0.18
  9
$DIMTP
 40
0.0
  9
$DIMTM
 40
0.0
  9
$DIMTXT
 40
0.18
  9
$DIMCEN
 40
0.09
  9
$DIMTSZ
 40
0.0
  9
$DIMTOL
 70
     0
  9
$DIMLIM
 70
     0
  9
$DIMTIH
 70
     1
  9
$DIMTOH
 70
     1
  9
$DIMSE1
 70
     0
  9
$DIMSE2
 70
     0
  9
$DIMTAD
 70
     0
  9
$DIMZIN
 70
     0
  9
$DIMBLK
  1

  9
$DIMASO
 70
     1
  9
$DIMSHO
 70
     1
  9
$DIMPOST
  1

  9
$DIMAPOST
  1

  9
$DIMALT
 70
     0
  9
$DIMALTD
 70
     2
  9
$DIMALTF
 40
25.4
  9
$DIMLFAC
 40
1.0
  9
$DIMTOFL
 70
     0
  9
$DIMTVP
 40
0.0
  9
$DIMTIX
 70
     0
  9
$DIMSOXD
 70
     0
  9
$DIMSAH
 70
     0
  9
$DIMBLK1
  1

  9
$DIMBLK2
  1

  9
$DIMSTYLE
  2
Standard
  9
$DIMCLRD
 70
     0
  9
$DIMCLRE
 70
     0
  9
$DIMCLRT
 70
     0
  9
$DIMTFAC
 40
1.0
  9
$DIMGAP
 40
0.09
  9
$DIMJUST
 70
     0
  9
$DIMSD1
 70
     0
  9
$DIMSD2
 70
     0
  9
$DIMTOLJ
 70
     1
  9
$DIMTZIN
 70
     0
  9
$DIMALTZ
 70
     0
  9
$DIMALTTZ
 70
     0
  9
$DIMUPT
 70
     0
  9
$DIMDEC
 70
     4
  9
$DIMTDEC
 70
     4
  9
$DIMALTU
 70
     2
  9
$DIMALTTD
 70
     2
  9
$DIMTXSTY
  7
Standard
  9
$DIMAUNIT
 70
     0
  9
$DIMADEC
 70
     0
  9
$DIMALTRND
 40
0.0
  9
$DIMAZIN
 70
     0
  9
$DIMDSEP
 70
    46
  9
$DIMATFIT
 70
     3
  9
$DIMFRAC
 70
     0
  9
$DIMLDRBLK
  1

  9
$DIMLUNIT
 70
     2
  9
$DIMLWD
 70
    -2
  9
$DIMLWE
 70
    -2
  9
$DIMTMOVE
 70
     0
  9
$DIMFXL
 40
1.0
  9
$DIMFXLON
 70
     0
  9
$DIMJOGANG
 40
0.7853981633974483
  9
$DIMTFILL
 70
     0
  9
$DIMTFILLCLR
 70
     0
  9
$DIMARCSYM
 70
     0
  9
$DIMLTYPE
  6

  9
$DIMLTEX1
  6

  9
$DIMLTEX2
  6

  9
$DIMTXTDIRECTION
 70
     0
  9
$LUNITS
 70
     2
  9
$LUPREC
 70
     4
  9
$SKETCHINC
 40
0.1
  9
$FILLETRAD
 40
0.0
  9
$AUNITS
 70
     0
  9
$AUPREC
 70
     0
  9
$MENU
  1
.
  9
$ELEVATION
 40
0.0
  9
$PELEVATION
 40
0.0
  9
$THICKNESS
 40
0.0
  9
$LIMCHECK
 70
     0
  9
$CHAMFERA
 40
0.0
  9
$CHAMFERB
 40
0.0
  9
$CHAMFERC
 40
0.0
  9
$CHAMFERD
 40
0.0
  9
$SKPOLY
 70
     0
  9
$TDCREATE
 40
2457549.574516065
  9
$TDUCREATE
 40
2457549.491182732
  9
$TDUPDATE
 40
2457549.574516065
  9
$TDUUPDATE
 40
2457549.491182732
  9
$TDINDWG
 40
0.0000167593
  9
$TDUSRTIMER
 40
0.0000167593
  9
$USRTIMER
 70
     1
  9
$ANGBASE
 50
0.0
  9
$ANGDIR
 70
     0
  9
$PDMODE
 70
     0
  9
$PDSIZE
 40
0.0
  9
$PLINEWID
 40
0.0
  9
$SPLFRAME
 70
     0
  9
$SPLINETYPE
 70
     6
  9
$SPLINESEGS
 70
     8
  9
$HANDSEED
  5
2BB
  9
$SURFTAB1
 70
     6
  9
$SURFTAB2
 70
     6
  9
$SURFTYPE
 70
     6
  9
$SURFU
 70
     6
  9
$SURFV
 70
     6
  9
$UCSBASE
  2

  9
$UCSNAME
  2

  9
$UCSORG
 10
0.0
 20
0.0
 30
0.0
  9
$UCSXDIR
 10
1.0
 20
0.0
 30
0.0
  9
$UCSYDIR
 10
0.0
 20
1.0
 30
0.0
  9
$UCSORTHOREF
  2

  9
$UCSORTHOVIEW
 70
     0
  9
$UCSORGTOP
 10
0.0
 20
0.0
 30
0.0
  9
$UCSORGBOTTOM
 10
0.0
 20
0.0
 30
0.0
  9
$UCSORGLEFT
 10
0.0
 20
0.0
 30
0.0
  9
$UCSORGRIGHT
 10
0.0
 20
0.0
 30
0.0
  9
$UCSORGFRONT
 10
0.0
 20
0.0
 30
0.0
  9
$UCSORGBACK
 10
0.0
 20
0.0
 30
0.0
  9
$PUCSBASE
  2

  9
$PUCSNAME
  2

  9
$PUCSORG
 10
0.0
 20
0.0
 30
0.0
  9
$PUCSXDIR
 10
1.0
 20
0.0
 30
0.0
  9
$PUCSYDIR
 10
0.0
 20
1.0
 30
0.0
  9
$PUCSORTHOREF
  2

  9
$PUCSORTHOVIEW
 70
     0
  9
$PUCSORGTOP
 10
0.0
 20
0.0
 30
0.0
  9
$PUCSORGBOTTOM
 10
0.0
 20
0.0
 30
0.0
  9
$PUCSORGLEFT
 10
0.0
 20
0.0
 30
0.0
  9
$PUCSORGRIGHT
 10
0.0
 20
0.0
 30
0.0
  9
$PUCSORGFRONT
 10
0.0
 20
0.0
 30
0.0
  9
$PUCSORGBACK
 10
0.0
 20
0.0
 30
0.0
  9
$USERI1
 70
     0
  9
$USERI2
 70
     0
  9
$USERI3
 70
     0
  9
$USERI4
 70
     0
  9
$USERI5
 70
     0
  9
$USERR1
 40
0.0
  9
$USERR2
 40
0.0
  9
$USERR3
 40
0.0
  9
$USERR4
 40
0.0
  9
$USERR5
 40
0.0
  9
$WORLDVIEW
 70
     1
  9
$SHADEDGE
 70
     3
  9
$SHADEDIF
 70
    70
  9
$TILEMODE
 70
     1
  9
$MAXACTVP
 70
    64
  9
$PINSBASE
 10
0.0
 20
0.0
 30
0.0
  9
$PLIMCHECK
 70
     0
  9
$PEXTMIN
 10
1.000000000000000E+20
 20
1.000000000000000E+20
 30
1.000000000000000E+20
  9
$PEXTMAX
 10
-1.000000000000000E+20
 20
-1.000000000000000E+20
 30
-1.000000000000000E+20
  9
$PLIMMIN
 10
0.0
 20
0.0
  9
$PLIMMAX
 10
12.0
 20
9.0
  9
$UNITMODE
 70
     0
  9
$VISRETAIN
 70
     1
  9
$PLINEGEN
 70
     0
  9
$PSLTSCALE
 70
     1
  9
$TREEDEPTH
 70
  3020
  9
$CMLSTYLE
  2
Standard
  9
$CMLJUST
 70
     0
  9
$CMLSCALE
 40
1.0
  9
$PROXYGRAPHICS
 70
     1
  9
$MEASUREMENT
 70
     1
  9
$CELWEIGHT
370
    -1
  9
$ENDCAPS
280
     0
  9
$JOINSTYLE
280
     0
  9
$LWDISPLAY
290
     0
  9
$INSUNITS
 70
     4
  9
$HYPERLINKBASE
  1

  9
$STYLESHEET
  1

  9
$XEDIT
290
     1
  9
$CEPSNTYPE
380
     0
  9
$PSTYLEMODE
290
     1
  9
$FINGERPRINTGUID
  2
{0788E529-166F-4D93-B89B-8798534B5E3C}
  9
$VERSIONGUID
  2
{110B4BDD-6BDC-47DE-AA5E-F1ACB1AB7D75}
  9
$EXTNAMES
290
     1
  9
$PSVPSCALE
 40
0.0
  9
$OLESTARTUP
290
     0
  9
$SORTENTS
280
   127
  9
$INDEXCTL
280
     0
  9
$HIDETEXT
280
     1
  9
$XCLIPFRAME
280
     2
  9
$HALOGAP
280
     0
  9
$OBSCOLOR
 70
   257
  9
$OBSLTYPE
280
     0
  9
$INTERSECTIONDISPLAY
280
     0
  9
$INTERSECTIONCOLOR
 70
   257
  9
$DIMASSOC
280
     2
  9
$PROJECTNAME
  1

  9
$CAMERADISPLAY
290
     0
  9
$LENSLENGTH
 40
50.0
  9
$CAMERAHEIGHT
 40
0.0
  9
$STEPSPERSEC
 40
2.0
  9
$STEPSIZE
 40
6.0
  9
$3DDWFPREC
 40
2.0
  9
$PSOLWIDTH
 40
0.25
  9
$PSOLHEIGHT
 40
4.0
  9
$LOFTANG1
 40
1.570796326794896
  9
$LOFTANG2
 40
1.570796326794896
  9
$LOFTMAG1
 40
0.0
  9
$LOFTMAG2
 40
0.0
  9
$LOFTPARAM
 70
     7
  9
$LOFTNORMALS
280
     1
  9
$LATITUDE
 40
37.795
  9
$LONGITUDE
 40
-122.394
  9
$NORTHDIRECTION
 40
0.0
  9
$TIMEZONE
 70
 -8000
  9
$LIGHTGLYPHDISPLAY
280
     1
  9
$TILEMODELIGHTSYNCH
280
     1
  9
$CMATERIAL
347
11
  9
$SOLIDHIST
280
     0
  9
$SHOWHIST
280
     1
  9
$DWFFRAME
280
     2
  9
$DGNFRAME
280
     0
  9
$REALWORLDSCALE
290
     1
  9
$INTERFERECOLOR
 62
     1
  9
$INTERFEREOBJVS
345
33
  9
$INTERFEREVPVS
346
30
  9
$CSHADOW
280
     0
  9
$SHADOWPLANELOCATION
 40
0.0
  0
ENDSEC
  0
SECTION
  2
CLASSES
  0
CLASS
  1
ACDBDICTIONARYWDFLT
  2
AcDbDictionaryWithDefault
  3
ObjectDBX Classes
 90
        0
 91
        1
280
     0
281
     0
  0
CLASS
  1
MATERIAL
  2
AcDbMaterial
  3
ObjectDBX Classes
 90
     1153
 91
        3
280
     0
281
     0
  0
CLASS
  1
VISUALSTYLE
  2
AcDbVisualStyle
  3
ObjectDBX Classes
 90
     4095
 91
       24
280
     0
281
     0
  0
CLASS
  1
SCALE
  2
AcDbScale
  3
ObjectDBX Classes
 90
     1153
 91
       17
280
     0
281
     0
  0
CLASS
  1
TABLESTYLE
  2
AcDbTableStyle
  3
ObjectDBX Classes
 90
     4095
 91
        1
280
     0
281
     0
  0
CLASS
  1
MLEADERSTYLE
  2
AcDbMLeaderStyle
  3
ACDB_MLEADERSTYLE_CLASS
 90
     4095
 91
        1
280
     0
281
     0
  0
CLASS
  1
ACDBSECTIONVIEWSTYLE
  2
AcDbSectionViewStyle
  3
ObjectDBX Classes
 90
     1025
 91
        1
280
     0
281
     0
  0
CLASS
  1
ACDBDETAILVIEWSTYLE
  2
AcDbDetailViewStyle
  3
ObjectDBX Classes
 90
     1025
 91
        1
280
     0
281
     0
  0
CLASS
  1
RASTERVARIABLES
  2
AcDbRasterVariables
  3
ISM
 90
        0
 91
        1
280
     0
281
     0
  0
CLASS
  1
DICTIONARYVAR
  2
AcDbDictionaryVar
  3
ObjectDBX Classes
 90
        0
 91
        5
280
     0
281
     0
  0
CLASS
  1
CELLSTYLEMAP
  2
AcDbCellStyleMap
  3
ObjectDBX Classes
 90
     1152
 91
        2
280
     0
281
     0
  0
CLASS
  1
SORTENTSTABLE
  2
AcDbSortentsTable
  3
ObjectDBX Classes
 90
        0
 91
        1
280
     0
281
     0
  0
ENDSEC
  0
SECTION
  2
TABLES
  0
TABLE
  2
VPORT
  5
8
330
0
100
AcDbSymbolTable
 70
     1
  0
VPORT
  5
57
330
8
100
AcDbSymbolTableRecord
100
AcDbViewportTableRecord
  2
*Active
 70
     0
 10
0.0
 20
0.0
 11
1.0
 21
1.0
 12
918.6651109206382
 22
1984.991279425019
 13
0.0
 23
0.0
 14
1.0
 24
1.0
 15
0.0
 25
0.0
 16
0.0
 26
0.0
 36
1.0
 17
0.0
 27
0.0
 37
0.0
 40
257.0174411500332
 41
1.654435113811338
 42
50.0
 43
0.0
 44
0.0
 50
0.0
 51
0.0
 71
     0
 72
  1000
 73
     1
 74
     1
 75
     0
 76
     0
 77
     0
 78
     0
281
     0
 65
     1
110
0.0
120
0.0
130
0.0
111
1.0
121
0.0
131
0.0
112
0.0
122
1.0
132
0.0
 79
     0
146
0.0
 60
     3
 61
     5
292
     1
282
     1
141
0.0
142
0.0
 63
   250
421
  3355443
  0
ENDTAB
  0
TABLE
  2
LTYPE
  5
5
330
0
100
AcDbSymbolTable
 70
     3
  0
LTYPE
  5
5B
330
5
100
AcDbSymbolTableRecord
100
AcDbLinetypeTableRecord
  2
ByBlock
 70
     0
  3

 72
    65
 73
     0
 40
0.0
  0
LTYPE
  5
5C
330
5
100
AcDbSymbolTableRecord
100
AcDbLinetypeTableRecord
  2
ByLayer
 70
     0
  3

 72
    65
 73
     0
 40
0.0
  0
LTYPE
  5
5D
330
5
100
AcDbSymbolTableRecord
100
AcDbLinetypeTableRecord
  2
Continuous
 70
     0
  3
Solid line
 72
    65
 73
     0
 40
0.0
  0
LTYPE
  5
69
330
5
100
AcDbSymbolTableRecord
100
AcDbLinetypeTableRecord
  2
PHANTOM2
 70
     0
  3
___ _ _ ___ _ _ ___ _ _ ___ _ _
 72
    65
 73
     6
 40
1.25
 49
0.625
 74
     0
 49
-0.125
 74
     0
 49
0.125
 74
     0
 49
-0.125
 74
     0
 49
0.125
 74
     0
 49
-0.125
 74
     0
  0
LTYPE
  5
86
330
5
100
AcDbSymbolTableRecord
100
AcDbLinetypeTableRecord
  2
Nascosto 1_5 mm
 70
     0
  3

 72
    65
 73
     2
 40
2.2
 49
1.5
 74
     0
 49
-0.7000000000000001
 74
     0
  0
ENDTAB
  0
TABLE
  2
LAYER
  5
2
330
0
100
AcDbSymbolTable
 70
     3
  0
LAYER
  5
54
330
2
100
AcDbSymbolTableRecord
100
AcDbLayerTableRecord
  2
0
 70
     0
 62
     7
  6
Continuous
370
    -3
390
F
347
21
348
0
  0
LAYER
  5
85
330
2
100
AcDbSymbolTableRecord
100
AcDbLayerTableRecord
  2
P-SANR-FIXT
 70
     0
 62
     6
  6
Continuous
370
    18
390
F
347
21
348
0
  0
ENDTAB
  0
TABLE
  2
STYLE
  5
3
330
0
100
AcDbSymbolTable
 70
     2
  0
STYLE
  5
55
330
3
100
AcDbSymbolTableRecord
100
AcDbTextStyleTableRecord
  2
Standard
 70
     0
 40
0.0
 41
1.0
 50
0.0
 71
     0
 42
0.2
  3
txt
  4

  0
STYLE
  5
5A
330
3
100
AcDbSymbolTableRecord
100
AcDbTextStyleTableRecord
  2
Annotative
 70
     0
 40
0.0
 41
1.0
 50
0.0
 71
     0
 42
0.2
  3
txt
  4

1001
AcadAnnotative
1000
AnnotativeData
1002
{
1070
     1
1070
     1
1002
}
  0
ENDTAB
  0
TABLE
  2
VIEW
  5
6
330
0
100
AcDbSymbolTable
 70
     0
  0
ENDTAB
  0
TABLE
  2
UCS
  5
7
330
0
100
AcDbSymbolTable
 70
     0
  0
ENDTAB
  0
TABLE
  2
APPID
  5
9
330
0
100
AcDbSymbolTable
 70
     3
  0
APPID
  5
56
330
9
100
AcDbSymbolTableRecord
100
AcDbRegAppTableRecord
  2
ACAD
 70
     0
  0
APPID
  5
5E
330
9
100
AcDbSymbolTableRecord
100
AcDbRegAppTableRecord
  2
AcadAnnotative
 70
     0
  0
APPID
  5
79
330
9
100
AcDbSymbolTableRecord
100
AcDbRegAppTableRecord
  2
REVIT
 70
     0
  0
ENDTAB
  0
TABLE
  2
DIMSTYLE
  5
A
330
0
100
AcDbSymbolTable
 70
     2
100
AcDbDimStyleTable
 71
     0
  0
DIMSTYLE
105
58
330
A
100
AcDbSymbolTableRecord
100
AcDbDimStyleTableRecord
  2
Standard
 70
     0
340
55
  0
DIMSTYLE
105
59
330
A
100
AcDbSymbolTableRecord
100
AcDbDimStyleTableRecord
  2
Annotative
 70
     0
340
55
1001
AcadAnnotative
1000
AnnotativeData
1002
{
1070
     1
1070
     1
1002
}
  0
ENDTAB
  0
TABLE
  2
BLOCK_RECORD
  5
1
330
0
100
AcDbSymbolTable
 70
     3
  0
BLOCK_RECORD
  5
71
102
{ACAD_XDICTIONARY
360
2B6
102
}
330
1
100
AcDbSymbolTableRecord
100
AcDbBlockTableRecord
  2
*Model_Space
340
74
 70
     0
280
     1
281
     0
  0
BLOCK_RECORD
  5
6D
330
1
100
AcDbSymbolTableRecord
100
AcDbBlockTableRecord
  2
*Paper_Space
340
70
 70
     0
280
     1
281
     0
  0
BLOCK_RECORD
  5
75
330
1
100
AcDbSymbolTableRecord
100
AcDbBlockTableRecord
  2
*Paper_Space0
340
78
 70
     0
280
     1
281
     0
  0
BLOCK_RECORD
  5
87
330
1
100
AcDbSymbolTableRecord
100
AcDbBlockTableRecord
  2
Automatic flow rate regulator valve_Caleffi_121 DN15 - 1_2__-859151-Est - Idraulica
340
0
102
{BLKREFS
331
19F
102
}
 70
     0
280
     1
281
     0
  0
BLOCK_RECORD
  5
1A0
330
1
100
AcDbSymbolTableRecord
100
AcDbBlockTableRecord
  2
Automatic flow rate regulator valve_Caleffi_121 DN15 - 1_2__-V1-Est - Idraulica
340
0
102
{BLKREFS
331
2B0
102
}
 70
     0
280
     1
281
     0
  0
ENDTAB
  0
ENDSEC
  0
SECTION
  2
BLOCKS
  0
BLOCK
  5
72
330
71
100
AcDbEntity
  8
0
100
AcDbBlockBegin
  2
*Model_Space
 70
     0
 10
0.0
 20
0.0
 30
0.0
  3
*Model_Space
  1

  0
ENDBLK
  5
73
330
71
100
AcDbEntity
  8
0
100
AcDbBlockEnd
  0
BLOCK
  5
6E
330
6D
100
AcDbEntity
 67
     1
  8
0
100
AcDbBlockBegin
  2
*Paper_Space
 70
     0
 10
0.0
 20
0.0
 30
0.0
  3
*Paper_Space
  1

  0
ENDBLK
  5
6F
330
6D
100
AcDbEntity
 67
     1
  8
0
100
AcDbBlockEnd
  0
BLOCK
  5
76
330
75
100
AcDbEntity
 67
     1
  8
0
100
AcDbBlockBegin
  2
*Paper_Space0
 70
     0
 10
0.0
 20
0.0
 30
0.0
  3
*Paper_Space0
  1

  0
ENDBLK
  5
77
330
75
100
AcDbEntity
 67
     1
  8
0
100
AcDbBlockEnd
  0
BLOCK
  5
19D
330
87
100
AcDbEntity
  8
0
100
AcDbBlockBegin
  2
Automatic flow rate regulator valve_Caleffi_121 DN15 - 1_2__-859151-Est - Idraulica
 70
     0
 10
0.0
 20
0.0
 30
0.0
  3
Automatic flow rate regulator valve_Caleffi_121 DN15 - 1_2__-859151-Est - Idraulica
  1

  0
LINE
  5
88
330
87
100
AcDbEntity
  8
P-SANR-FIXT
100
AcDbLine
 10
794.4664074432449
 20
1953.999999999996
 30
0.0
 11
794.4664074432449
 21
1940.11653657134
 31
0.0
  0
LINE
  5
89
330
87
100
AcDbEntity
  8
P-SANR-FIXT
100
AcDbLine
 10
836.8664074430741
 20
1940.11653657134
 30
0.0
 11
836.8664074430741
 21
1953.999999999996
 31
0.0
  0
LINE
  5
8A
330
87
100
AcDbEntity
  8
P-SANR-FIXT
100
AcDbLine
 10
791.7664074431643
 20
1920.11653657139
 30
0.0
 11
791.7664074431643
 21
1917.499995788341
 31
0.0
  0
LINE
  5
8B
330
87
100
AcDbEntity
  8
P-SANR-FIXT
100
AcDbLine
 10
839.5664074431548
 20
1917.499995788341
 30
0.0
 11
839.5664074431548
 21
1920.116536571355
 31
0.0
  0
LINE
  5
8C
330
87
100
AcDbEntity
  8
P-SANR-FIXT
100
AcDbLine
 10
793.4164074431587
 20
1917.499995788341
 30
0.0
 11
793.4164074431587
 21
1899.963295302884
 31
0.0
  0
LINE
  5
8D
330
87
100
AcDbEntity
  8
P-SANR-FIXT
100
AcDbLine
 10
793.4164074431587
 20
1880.547161962629
 30
0.0
 11
793.4164074431587
 21
1878.999999999924
 31
0.0
  0
LINE
  5
8E
330
87
100
AcDbEntity
  8
P-SANR-FIXT
100
AcDbLine
 10
837.9164074431605
 20
1878.999999999923
 30
0.0
 11
837.9164074431605
 21
1880.547161962628
 31
0.0
  0
LINE
  5
8F
330
87
100
AcDbEntity
  8
P-SANR-FIXT
100
AcDbLine
 10
837.9164074431605
 20
1892.452838037345
 30
0.0
 11
837.9164074431605
 21
1917.499995788341
 31
0.0
  0
LINE
  5
90
330
87
100
AcDbEntity
  8
P-SANR-FIXT
100
AcDbLine
 10
839.5664074431536
 20
1920.116536571418
 30
0.0
 11
838.2771569523768
 21
1920.116536571418
 31
0.0
  0
LINE
  5
91
330
87
100
AcDbEntity
  8
P-SANR-FIXT
100
AcDbLine
 10
817.2330521504909
 20
1920.116536571418
 30
0.0
 11
814.0997627358338
 21
1920.116536571418
 31
0.0
  0
LINE
  5
92
330
87
100
AcDbEntity
  8
P-SANR-FIXT
100
AcDbLine
 10
793.0556579340042
 20
1920.116536571418
 30
0.0
 11
791.766407443163
 21
1920.116536571418
 31
0.0
  0
LINE
  5
93
330
87
100
AcDbEntity
  8
P-SANR-FIXT
100
AcDbLine
 10
791.766407443163
 20
1917.49999578834
 30
0.0
 11
839.5664074431536
 21
1917.49999578834
 31
0.0
  0
LINE
  5
94
330
87
100
AcDbEntity
  8
P-SANR-FIXT
100
AcDbLine
 10
837.4222571221974
 20
1878.999999999923
 30
0.0
 11
837.5934666273579
 21
1878.999999999923
 31
0.0
  0
LINE
  5
95
330
87
100
AcDbEntity
  8
P-SANR-FIXT
100
AcDbLine
 10
837.6073732913399
 20
1878.999999999923
 30
0.0
 11
837.8371967212027
 21
1878.999999999923
 31
0.0
  0
LINE
  5
96
330
87
100
AcDbEntity
  8
P-SANR-FIXT
100
AcDbLine
 10
837.8447160107835
 20
1878.999999999923
 30
0.0
 11
837.916407443159
 21
1878.999999999923
 31
0.0
  0
LINE
  5
97
330
87
100
AcDbEntity
  8
P-SANR-FIXT
100
AcDbLine
 10
793.4164074431576
 20
1878.999999999923
 30
0.0
 11
793.4880988755329
 21
1878.999999999923
 31
0.0
  0
LINE
  5
98
330
87
100
AcDbEntity
  8
P-SANR-FIXT
100
AcDbLine
 10
793.4951260863207
 20
1878.999999999923
 30
0.0
 11
793.7242316721058
 21
1878.999999999923
 31
0.0
  0
LINE
  5
99
330
87
100
AcDbEntity
  8
P-SANR-FIXT
100
AcDbLine
 10
793.7373700283259
 20
1878.999999999923
 30
0.0
 11
793.9072008061335
 21
1878.999999999923
 31
0.0
  0
LINE
  5
9A
330
87
100
AcDbEntity
  8
P-SANR-FIXT
100
AcDbLine
 10
749.4064074431608
 20
1979.050000000038
 30
0.0
 11
759.9102356071536
 21
1979.050000000038
 31
0.0
  0
LINE
  5
9B
330
87
100
AcDbEntity
  8
P-SANR-FIXT
100
AcDbLine
 10
759.9102356071536
 20
2020.949999999951
 30
0.0
 11
749.4064074431608
 21
2020.949999999951
 31
0.0
  0
LINE
  5
9C
330
87
100
AcDbEntity
  8
P-SANR-FIXT
100
AcDbLine
 10
725.5064074431226
 20
2020.949999999951
 30
0.0
 11
725.4577657991025
 21
2020.90135835593
 31
0.0
  0
LINE
  5
9D
330
87
100
AcDbEntity
  8
P-SANR-FIXT
100
AcDbLine
 10
725.4418255848317
 20
2020.885418141659
 30
0.0
 11
724.906407443123
 21
2020.349999999951
 31
0.0
  0
LINE
  5
9E
330
87
100
AcDbEntity
  8
P-SANR-FIXT
100
AcDbLine
 10
724.906407443123
 20
1979.650000000041
 30
0.0
 11
725.4418255848317
 21
1979.114581858332
 31
0.0
  0
LINE
  5
9F
330
87
100
AcDbEntity
  8
P-SANR-FIXT
100
AcDbLine
 10
725.4577657991027
 20
1979.098641644061
 30
0.0
 11
725.5064074431226
 21
1979.050000000041
 31
0.0
  0
LINE
  5
A0
330
87
100
AcDbEntity
  8
P-SANR-FIXT
100
AcDbLine
 10
749.4064074431608
 20
2020.949999999951
 30
0.0
 11
725.5064074431226
 21
2020.949999999951
 31
0.0
  0
LINE
  5
A1
330
87
100
AcDbEntity
  8
P-SANR-FIXT
100
AcDbLine
 10
725.5064074431226
 20
1979.050000000041
 30
0.0
 11
749.4064074431608
 21
1979.050000000041
 31
0.0
  0
LINE
  5
A2
330
87
100
AcDbEntity
  8
P-SANR-FIXT
100
AcDbLine
 10
749.4064074431594
 20
1992.341507981503
 30
0.0
 11
759.9102356071524
 21
1992.341507981503
 31
0.0
  0
LINE
  5
A3
330
87
100
AcDbEntity
  8
P-SANR-FIXT
100
AcDbLine
 10
749.4064074431594
 20
1986.941750635422
 30
0.0
 11
759.9102356071524
 21
1986.941750635422
 31
0.0
  0
LINE
  5
A4
330
87
100
AcDbEntity
  8
P-SANR-FIXT
100
AcDbLine
 10
749.4064074431594
 20
1979.283258616932
 30
0.0
 11
759.9102356071524
 21
1979.283258616932
 31
0.0
  0
LINE
  5
A5
330
87
100
AcDbEntity
  8
P-SANR-FIXT
100
AcDbLine
 10
749.4064074431594
 20
2020.716741383055
 30
0.0
 11
759.9102356071524
 21
2020.716741383055
 31
0.0
  0
LINE
  5
A6
330
87
100
AcDbEntity
  8
P-SANR-FIXT
100
AcDbLine
 10
749.4064074431594
 20
2013.058249364565
 30
0.0
 11
759.9102356071524
 21
2013.058249364565
 31
0.0
  0
LINE
  5
A7
330
87
100
AcDbEntity
  8
P-SANR-FIXT
100
AcDbLine
 10
759.9102356071524
 20
2007.658492018483
 30
0.0
 11
749.4064074431594
 21
2007.658492018483
 31
0.0
  0
LINE
  5
A8
330
87
100
AcDbEntity
  8
P-SANR-FIXT
100
AcDbLine
 10
724.9064074431218
 20
1979.65000000004
 30
0.0
 11
724.9064074431218
 21
2020.34999999995
 31
0.0
  0
LINE
  5
A9
330
87
100
AcDbEntity
  8
P-SANR-FIXT
100
AcDbLine
 10
725.5064074431214
 20
1979.050000000041
 30
0.0
 11
725.5064074431214
 21
2020.949999999949
 31
0.0
  0
LINE
  5
AA
330
87
100
AcDbEntity
  8
P-SANR-FIXT
100
AcDbLine
 10
749.4064074431594
 20
1979.283258616938
 30
0.0
 11
749.4064074431594
 21
1986.941750635394
 31
0.0
  0
LINE
  5
AB
330
87
100
AcDbEntity
  8
P-SANR-FIXT
100
AcDbLine
 10
749.4064074431594
 20
1992.341507981511
 30
0.0
 11
749.4064074431594
 21
2007.658492018475
 31
0.0
  0
LINE
  5
AC
330
87
100
AcDbEntity
  8
P-SANR-FIXT
100
AcDbLine
 10
749.4064074431594
 20
2013.058249364553
 30
0.0
 11
749.4064074431594
 21
2020.71674138305
 31
0.0
  0
LINE
  5
AD
330
87
100
AcDbEntity
  8
P-SANR-FIXT
100
AcDbLine
 10
763.641710778843
 20
1969.983339501636
 30
0.0
 11
778.1685658563319
 21
1969.983339501636
 31
0.0
  0
LINE
  5
AE
330
87
100
AcDbEntity
  8
P-SANR-FIXT
100
AcDbLine
 10
778.168565856334
 20
2030.016660498352
 30
0.0
 11
763.6417107788409
 21
2030.016660498352
 31
0.0
  0
LINE
  5
AF
330
87
100
AcDbEntity
  8
P-SANR-FIXT
100
AcDbLine
 10
778.1685658563319
 20
1969.983339501636
 30
0.0
 11
778.2953512796722
 21
1970.202938296521
 31
0.0
  0
LINE
  5
B0
330
87
100
AcDbEntity
  8
P-SANR-FIXT
100
AcDbLine
 10
778.3180867192806
 20
1970.242317233054
 30
0.0
 11
779.9102356072149
 21
1973.000000000171
 31
0.0
  0
LINE
  5
B1
330
87
100
AcDbEntity
  8
P-SANR-FIXT
100
AcDbLine
 10
779.9102356072149
 20
2026.99999999982
 30
0.0
 11
778.3180867192825
 21
2029.757682766934
 31
0.0
  0
LINE
  5
B2
330
87
100
AcDbEntity
  8
P-SANR-FIXT
100
AcDbLine
 10
778.2953512796742
 20
2029.797061703467
 30
0.0
 11
778.168565856334
 21
2030.016660498352
 31
0.0
  0
LINE
  5
B3
330
87
100
AcDbEntity
  8
P-SANR-FIXT
100
AcDbLine
 10
759.9102356071536
 20
1976.446444086184
 30
0.0
 11
763.4921899158946
 21
1970.242317233054
 31
0.0
  0
LINE
  5
B4
330
87
100
AcDbEntity
  8
P-SANR-FIXT
100
AcDbLine
 10
763.5149506508211
 20
1970.202894483744
 30
0.0
 11
763.641710778843
 21
1969.983339501636
 31
0.0
  0
LINE
  5
B5
330
87
100
AcDbEntity
  8
P-SANR-FIXT
100
AcDbLine
 10
763.6417107788409
 20
2030.016660498352
 30
0.0
 11
763.5149506508192
 21
2029.797105516244
 31
0.0
  0
LINE
  5
B6
330
87
100
AcDbEntity
  8
P-SANR-FIXT
100
AcDbLine
 10
763.4921899158926
 20
2029.757682766934
 30
0.0
 11
759.9102356071536
 21
2023.553555913808
 31
0.0
  0
LINE
  5
B7
330
87
100
AcDbEntity
  8
P-SANR-FIXT
100
AcDbLine
 10
759.9102356071524
 20
1976.446444086183
 30
0.0
 11
759.9102356071524
 21
2023.553555913807
 31
0.0
  0
LINE
  5
B8
330
87
100
AcDbEntity
  8
P-SANR-FIXT
100
AcDbLine
 10
779.9102356072136
 20
2026.999999999819
 30
0.0
 11
779.9102356072136
 21
2023.382685902023
 31
0.0
  0
LINE
  5
B9
330
87
100
AcDbEntity
  8
P-SANR-FIXT
100
AcDbLine
 10
779.9102356072136
 20
2023.382685902023
 30
0.0
 11
779.9102356072134
 21
1999.999999999995
 31
0.0
  0
LINE
  5
BA
330
87
100
AcDbEntity
  8
P-SANR-FIXT
100
AcDbLine
 10
779.9102356072134
 20
1999.999999999995
 30
0.0
 11
779.9102356072136
 21
1976.617314097967
 31
0.0
  0
LINE
  5
BB
330
87
100
AcDbEntity
  8
P-SANR-FIXT
100
AcDbLine
 10
779.9102356072136
 20
1976.617314097967
 30
0.0
 11
779.9102356072136
 21
1973.00000000017
 31
0.0
  0
SPLINE
  5
BC
330
87
100
AcDbEntity
  8
P-SANR-FIXT
100
AcDbSpline
210
0.0
220
0.0
230
1.0
 70
     8
 71
     3
 72
    10
 73
     6
 74
     0
 42
0.000000001
 43
0.0000000001
 40
0.0
 40
0.0
 40
0.0
 40
0.0
 40
0.4
 40
0.7
 40
1.0
 40
1.0
 40
1.0
 40
1.0
 10
778.6093471211876
 20
2011.258330249172
 30
0.0
 10
778.3777113686461
 20
2012.291061831291
 30
0.0
 10
778.1261538769874
 20
2014.126808572163
 30
0.0
 10
778.188570997558
 20
2016.375903325836
 30
0.0
 10
778.4358846728756
 20
2017.367042372152
 30
0.0
 10
778.6093471211894
 20
2017.753520777555
 30
0.0
  0
SPLINE
  5
BD
330
87
100
AcDbEntity
  8
P-SANR-FIXT
100
AcDbSpline
210
0.0
220
0.0
230
1.0
 70
     8
 71
     3
 72
    10
 73
     6
 74
     0
 42
0.000000001
 43
0.0000000001
 40
0.0
 40
0.0
 40
0.0
 40
0.0
 40
0.4
 40
0.7
 40
1.0
 40
1.0
 40
1.0
 40
1.0
 10
763.2009295139829
 20
2017.753520777555
 30
0.0
 10
763.4322127784014
 20
2017.238216237018
 30
0.0
 10
763.6839477556851
 20
2015.990615824551
 30
0.0
 10
763.6220116821903
 20
2013.598519061441
 30
0.0
 10
763.3746563283908
 20
2012.032878935761
 30
0.0
 10
763.2009295139847
 20
2011.258330249172
 30
0.0
  0
SPLINE
  5
BE
330
87
100
AcDbEntity
  8
P-SANR-FIXT
100
AcDbSpline
210
0.0
220
0.0
230
1.0
 70
     8
 71
     3
 72
     9
 73
     5
 74
     0
 42
0.000000001
 43
0.0000000001
 40
0.0
 40
0.0
 40
0.0
 40
0.0
 40
0.5
 40
1.0
 40
1.0
 40
1.0
 40
1.0
 10
763.2009295139847
 20
2011.258330249172
 30
0.0
 10
762.3336970699847
 20
2007.464868298802
 30
0.0
 10
761.466464625985
 20
1999.918629598705
 30
0.0
 10
762.3336970699853
 20
1992.453761299897
 30
0.0
 10
763.2009295139855
 20
1988.741669750814
 30
0.0
  0
SPLINE
  5
BF
330
87
100
AcDbEntity
  8
P-SANR-FIXT
100
AcDbSpline
210
0.0
220
0.0
230
1.0
 70
     8
 71
     3
 72
     9
 73
     5
 74
     0
 42
0.000000001
 43
0.0000000001
 40
0.0
 40
0.0
 40
0.0
 40
0.0
 40
0.5
 40
1.0
 40
1.0
 40
1.0
 40
1.0
 10
778.6093471211867
 20
1988.741669750814
 30
0.0
 10
779.0335765002875
 20
1990.594741332075
 30
0.0
 10
779.6746206270592
 20
1994.324201288199
 30
0.0
 10
779.9008354909719
 20
1998.100294831529
 30
0.0
 10
779.9102356072134
 20
1999.999999999995
 30
0.0
  0
SPLINE
  5
C0
330
87
100
AcDbEntity
  8
P-SANR-FIXT
100
AcDbSpline
210
0.0
220
0.0
230
1.0
 70
     8
 71
     3
 72
     9
 73
     5
 74
     0
 42
0.000000001
 43
0.0000000001
 40
0.0
 40
0.0
 40
0.0
 40
0.0
 40
0.5
 40
1.0
 40
1.0
 40
1.0
 40
1.0
 10
779.9102356072134
 20
1999.999999999995
 30
0.0
 10
779.9008354909719
 20
2001.899705168461
 30
0.0
 10
779.6746206270594
 20
2005.675798711789
 30
0.0
 10
779.033576500288
 20
2009.405258667912
 30
0.0
 10
778.6093471211876
 20
2011.258330249172
 30
0.0
  0
SPLINE
  5
C1
330
87
100
AcDbEntity
  8
P-SANR-FIXT
100
AcDbSpline
210
0.0
220
0.0
230
1.0
 70
     8
 71
     3
 72
    10
 73
     6
 74
     0
 42
0.000000001
 43
0.0000000001
 40
0.0
 40
0.0
 40
0.0
 40
0.0
 40
0.4
 40
0.7
 40
1.0
 40
1.0
 40
1.0
 40
1.0
 10
763.2009295139855
 20
1988.741669750814
 30
0.0
 10
763.432565266527
 20
1987.708938168695
 30
0.0
 10
763.6841227581858
 20
1985.873191427824
 30
0.0
 10
763.6217056376153
 20
1983.624096674151
 30
0.0
 10
763.3743919622979
 20
1982.632957627834
 30
0.0
 10
763.200929513984
 20
1982.246479222431
 30
0.0
  0
SPLINE
  5
C2
330
87
100
AcDbEntity
  8
P-SANR-FIXT
100
AcDbSpline
210
0.0
220
0.0
230
1.0
 70
     8
 71
     3
 72
    10
 73
     6
 74
     0
 42
0.000000001
 43
0.0000000001
 40
0.0
 40
0.0
 40
0.0
 40
0.0
 40
0.4
 40
0.7
 40
1.0
 40
1.0
 40
1.0
 40
1.0
 10
778.6093471211882
 20
1982.246479222431
 30
0.0
 10
778.3780638567699
 20
1982.761783762969
 30
0.0
 10
778.126328879486
 20
1984.009384175435
 30
0.0
 10
778.188264952981
 20
1986.401480938545
 30
0.0
 10
778.4356203067805
 20
1987.967121064225
 30
0.0
 10
778.6093471211867
 20
1988.741669750814
 30
0.0
  0
SPLINE
  5
C3
330
87
100
AcDbEntity
  8
P-SANR-FIXT
100
AcDbSpline
210
0.0
220
0.0
230
1.0
 70
     8
 71
     3
 72
     9
 73
     5
 74
     0
 42
0.000000001
 43
0.0000000001
 40
0.0
 40
0.0
 40
0.0
 40
0.0
 40
0.5
 40
1.0
 40
1.0
 40
1.0
 40
1.0
 10
763.200929513984
 20
1982.246479222431
 30
0.0
 10
762.3336970699824
 20
1980.349748247246
 30
0.0
 10
761.4664646259793
 20
1976.576628897198
 30
0.0
 10
762.333697069977
 20
1972.844194747793
 30
0.0
 10
763.2009295139761
 20
1970.988148973252
 30
0.0
  0
SPLINE
  5
C4
330
87
100
AcDbEntity
  8
P-SANR-FIXT
100
AcDbSpline
210
0.0
220
0.0
230
1.0
 70
     8
 71
     3
 72
     9
 73
     5
 74
     0
 42
0.000000001
 43
0.0000000001
 40
0.0
 40
0.0
 40
0.0
 40
0.0
 40
0.5
 40
1.0
 40
1.0
 40
1.0
 40
1.0
 10
778.6093471211964
 20
1970.988148973252
 30
0.0
 10
779.0335765002968
 20
1971.914684763881
 30
0.0
 10
779.6746206270666
 20
1973.77941474194
 30
0.0
 10
779.9008354909748
 20
1975.667461513601
 30
0.0
 10
779.9102356072136
 20
1976.617314097832
 30
0.0
  0
SPLINE
  5
C5
330
87
100
AcDbEntity
  8
P-SANR-FIXT
100
AcDbSpline
210
0.0
220
0.0
230
1.0
 70
     8
 71
     3
 72
     9
 73
     5
 74
     0
 42
0.000000001
 43
0.0000000001
 40
0.0
 40
0.0
 40
0.0
 40
0.0
 40
0.5
 40
1.0
 40
1.0
 40
1.0
 40
1.0
 10
779.9102356072136
 20
1976.617314097832
 30
0.0
 10
779.9008354909747
 20
1977.567166682067
 30
0.0
 10
779.6746206270649
 20
1979.455213453735
 30
0.0
 10
779.033576500291
 20
1981.319943431799
 30
0.0
 10
778.6093471211882
 20
1982.246479222431
 30
0.0
  0
SPLINE
  5
C6
330
87
100
AcDbEntity
  8
P-SANR-FIXT
100
AcDbSpline
210
0.0
220
0.0
230
1.0
 70
     8
 71
     3
 72
     9
 73
     5
 74
     0
 42
0.000000001
 43
0.0000000001
 40
0.0
 40
0.0
 40
0.0
 40
0.0
 40
0.5
 40
1.0
 40
1.0
 40
1.0
 40
1.0
 10
763.2009295139761
 20
1970.988148973252
 30
0.0
 10
763.3463023331124
 20
1970.665291803983
 30
0.0
 10
763.5651386963932
 20
1970.160318813299
 30
0.0
 10
763.6401565096897
 20
1969.983339501633
 30
0.0
 10
763.641710778842
 20
1969.983339501636
 30
0.0
  0
SPLINE
  5
C7
330
87
100
AcDbEntity
  8
P-SANR-FIXT
100
AcDbSpline
210
0.0
220
0.0
230
1.0
 70
     8
 71
     3
 72
     9
 73
     5
 74
     0
 42
0.000000001
 43
0.0000000001
 40
0.0
 40
0.0
 40
0.0
 40
0.0
 40
0.5
 40
1.0
 40
1.0
 40
1.0
 40
1.0
 10
778.1685658563308
 20
1969.983339501636
 30
0.0
 10
778.1701201254828
 20
1969.983339501633
 30
0.0
 10
778.2451379387794
 20
1970.160318813299
 30
0.0
 10
778.4639743020601
 20
1970.665291803983
 30
0.0
 10
778.6093471211964
 20
1970.988148973252
 30
0.0
  0
SPLINE
  5
C8
330
87
100
AcDbEntity
  8
P-SANR-FIXT
100
AcDbSpline
210
0.0
220
0.0
230
1.0
 70
     8
 71
     3
 72
     9
 73
     5
 74
     0
 42
0.000000001
 43
0.0000000001
 40
0.0
 40
0.0
 40
0.0
 40
0.0
 40
0.5
 40
1.0
 40
1.0
 40
1.0
 40
1.0
 10
763.64171077884
 20
2030.016660498351
 30
0.0
 10
763.6401565096877
 20
2030.016660498353
 30
0.0
 10
763.565138696391
 20
2029.839681186687
 30
0.0
 10
763.3463023331104
 20
2029.334708196003
 30
0.0
 10
763.2009295139741
 20
2029.011851026734
 30
0.0
  0
SPLINE
  5
C9
330
87
100
AcDbEntity
  8
P-SANR-FIXT
100
AcDbSpline
210
0.0
220
0.0
230
1.0
 70
     8
 71
     3
 72
     9
 73
     5
 74
     0
 42
0.000000001
 43
0.0000000001
 40
0.0
 40
0.0
 40
0.0
 40
0.0
 40
0.5
 40
1.0
 40
1.0
 40
1.0
 40
1.0
 10
778.6093471211985
 20
2029.011851026734
 30
0.0
 10
778.4639743020622
 20
2029.334708196003
 30
0.0
 10
778.2451379387814
 20
2029.839681186687
 30
0.0
 10
778.1701201254849
 20
2030.016660498353
 30
0.0
 10
778.1685658563326
 20
2030.016660498351
 30
0.0
  0
SPLINE
  5
CA
330
87
100
AcDbEntity
  8
P-SANR-FIXT
100
AcDbSpline
210
0.0
220
0.0
230
1.0
 70
     8
 71
     3
 72
     9
 73
     5
 74
     0
 42
0.000000001
 43
0.0000000001
 40
0.0
 40
0.0
 40
0.0
 40
0.0
 40
0.5
 40
1.0
 40
1.0
 40
1.0
 40
1.0
 10
763.2009295139741
 20
2029.011851026734
 30
0.0
 10
762.3336970699751
 20
2027.115120051549
 30
0.0
 10
761.4664646259776
 20
2023.342000701501
 30
0.0
 10
762.3336970699811
 20
2019.609566552096
 30
0.0
 10
763.2009295139829
 20
2017.753520777555
 30
0.0
  0
SPLINE
  5
CB
330
87
100
AcDbEntity
  8
P-SANR-FIXT
100
AcDbSpline
210
0.0
220
0.0
230
1.0
 70
     8
 71
     3
 72
     9
 73
     5
 74
     0
 42
0.000000001
 43
0.0000000001
 40
0.0
 40
0.0
 40
0.0
 40
0.0
 40
0.5
 40
1.0
 40
1.0
 40
1.0
 40
1.0
 10
778.6093471211894
 20
2017.753520777555
 30
0.0
 10
779.0335765002928
 20
2018.680056568187
 30
0.0
 10
779.6746206270669
 20
2020.544786546252
 30
0.0
 10
779.9008354909755
 20
2022.43283331792
 30
0.0
 10
779.9102356072136
 20
2023.382685902155
 30
0.0
  0
SPLINE
  5
CC
330
87
100
AcDbEntity
  8
P-SANR-FIXT
100
AcDbSpline
210
0.0
220
0.0
230
1.0
 70
     8
 71
     3
 72
     9
 73
     5
 74
     0
 42
0.000000001
 43
0.0000000001
 40
0.0
 40
0.0
 40
0.0
 40
0.0
 40
0.5
 40
1.0
 40
1.0
 40
1.0
 40
1.0
 10
779.9102356072136
 20
2023.382685902155
 30
0.0
 10
779.9008354909756
 20
2024.332538486386
 30
0.0
 10
779.6746206270686
 20
2026.220585258048
 30
0.0
 10
779.0335765002989
 20
2028.085315236106
 30
0.0
 10
778.6093471211985
 20
2029.011851026734
 30
0.0
  0
LINE
  5
CD
330
87
100
AcDbEntity
  8
P-SANR-FIXT
100
AcDbLine
 10
854.4080771940425
 20
1969.983339501636
 30
0.0
 11
868.9349322715314
 21
1969.983339501636
 31
0.0
  0
LINE
  5
CE
330
87
100
AcDbEntity
  8
P-SANR-FIXT
100
AcDbLine
 10
868.9349322715335
 20
2030.016660498352
 30
0.0
 11
854.4080771940405
 21
2030.016660498352
 31
0.0
  0
LINE
  5
CF
330
87
100
AcDbEntity
  8
P-SANR-FIXT
100
AcDbLine
 10
852.6664074431597
 20
1973.000000000171
 30
0.0
 11
854.2585563310939
 21
1970.242317233054
 31
0.0
  0
LINE
  5
D0
330
87
100
AcDbEntity
  8
P-SANR-FIXT
100
AcDbLine
 10
854.2812917707022
 20
1970.202938296521
 30
0.0
 11
854.4080771940425
 21
1969.983339501636
 31
0.0
  0
LINE
  5
D1
330
87
100
AcDbEntity
  8
P-SANR-FIXT
100
AcDbLine
 10
854.4080771940405
 20
2030.016660498352
 30
0.0
 11
854.2812917707003
 21
2029.797061703467
 31
0.0
  0
LINE
  5
D2
330
87
100
AcDbEntity
  8
P-SANR-FIXT
100
AcDbLine
 10
854.258556331092
 20
2029.757682766934
 30
0.0
 11
852.6664074431597
 21
2026.99999999982
 31
0.0
  0
LINE
  5
D3
330
87
100
AcDbEntity
  8
P-SANR-FIXT
100
AcDbLine
 10
872.6664074432209
 20
2023.553555913808
 30
0.0
 11
869.0844531344819
 21
2029.757682766934
 31
0.0
  0
LINE
  5
D4
330
87
100
AcDbEntity
  8
P-SANR-FIXT
100
AcDbLine
 10
869.0616923995554
 20
2029.797105516244
 30
0.0
 11
868.9349322715335
 21
2030.016660498352
 31
0.0
  0
LINE
  5
D5
330
87
100
AcDbEntity
  8
P-SANR-FIXT
100
AcDbLine
 10
868.9349322715314
 20
1969.983339501636
 30
0.0
 11
869.0616923995534
 21
1970.202894483745
 31
0.0
  0
LINE
  5
D6
330
87
100
AcDbEntity
  8
P-SANR-FIXT
100
AcDbLine
 10
869.0844531344799
 20
1970.242317233054
 30
0.0
 11
872.6664074432209
 21
1976.446444086184
 31
0.0
  0
LINE
  5
D7
330
87
100
AcDbEntity
  8
P-SANR-FIXT
100
AcDbLine
 10
872.6664074432195
 20
2023.553555913807
 30
0.0
 11
872.6664074432195
 21
1976.446444086183
 31
0.0
  0
LINE
  5
D8
330
87
100
AcDbEntity
  8
P-SANR-FIXT
100
AcDbLine
 10
852.6664074431584
 20
1973.00000000017
 30
0.0
 11
852.6664074431584
 21
1976.617314097967
 31
0.0
  0
LINE
  5
D9
330
87
100
AcDbEntity
  8
P-SANR-FIXT
100
AcDbLine
 10
852.6664074431584
 20
1976.617314097967
 30
0.0
 11
852.6664074431582
 21
1999.999999999994
 31
0.0
  0
LINE
  5
DA
330
87
100
AcDbEntity
  8
P-SANR-FIXT
100
AcDbLine
 10
852.6664074431582
 20
1999.999999999995
 30
0.0
 11
852.6664074431584
 21
2023.382685902023
 31
0.0
  0
LINE
  5
DB
330
87
100
AcDbEntity
  8
P-SANR-FIXT
100
AcDbLine
 10
852.6664074431584
 20
2023.382685902023
 30
0.0
 11
852.6664074431584
 21
2026.999999999819
 31
0.0
  0
SPLINE
  5
DC
330
87
100
AcDbEntity
  8
P-SANR-FIXT
100
AcDbSpline
210
0.0
220
0.0
230
1.0
 70
     8
 71
     3
 72
    10
 73
     6
 74
     0
 42
0.000000001
 43
0.0000000001
 40
0.0
 40
0.0
 40
0.0
 40
0.0
 40
0.4
 40
0.7
 40
1.0
 40
1.0
 40
1.0
 40
1.0
 10
853.9672959291822
 20
2017.753520777555
 30
0.0
 10
854.1989316817241
 20
2017.237154986496
 30
0.0
 10
854.4504891733836
 20
2015.988988741989
 30
0.0
 10
854.3880720528145
 20
2013.595998366774
 30
0.0
 10
854.1407583774976
 20
2012.031287059979
 30
0.0
 10
853.967295929184
 20
2011.258330249172
 30
0.0
  0
SPLINE
  5
DD
330
87
100
AcDbEntity
  8
P-SANR-FIXT
100
AcDbSpline
210
0.0
220
0.0
230
1.0
 70
     8
 71
     3
 72
    10
 73
     6
 74
     0
 42
0.000000001
 43
0.0000000001
 40
0.0
 40
0.0
 40
0.0
 40
0.0
 40
0.4
 40
0.7
 40
1.0
 40
1.0
 40
1.0
 40
1.0
 10
869.375713536387
 20
2011.258330249172
 30
0.0
 10
869.1444302719688
 20
2012.288939330248
 30
0.0
 10
868.8926952946859
 20
2014.124926781449
 30
0.0
 10
868.9546313681821
 20
2016.373904996697
 30
0.0
 10
869.2019867219825
 20
2017.366246434261
 30
0.0
 10
869.3757135363886
 20
2017.753520777555
 30
0.0
  0
SPLINE
  5
DE
330
87
100
AcDbEntity
  8
P-SANR-FIXT
100
AcDbSpline
210
0.0
220
0.0
230
1.0
 70
     8
 71
     3
 72
     9
 73
     5
 74
     0
 42
0.000000001
 43
0.0000000001
 40
0.0
 40
0.0
 40
0.0
 40
0.0
 40
0.5
 40
1.0
 40
1.0
 40
1.0
 40
1.0
 10
853.967295929184
 20
2011.258330249172
 30
0.0
 10
853.5430665500838
 20
2009.405258667912
 30
0.0
 10
852.9020224233125
 20
2005.675798711789
 30
0.0
 10
852.6758075593997
 20
2001.899705168461
 30
0.0
 10
852.6664074431582
 20
1999.999999999995
 30
0.0
  0
SPLINE
  5
DF
330
87
100
AcDbEntity
  8
P-SANR-FIXT
100
AcDbSpline
210
0.0
220
0.0
230
1.0
 70
     8
 71
     3
 72
     9
 73
     5
 74
     0
 42
0.000000001
 43
0.0000000001
 40
0.0
 40
0.0
 40
0.0
 40
0.0
 40
0.5
 40
1.0
 40
1.0
 40
1.0
 40
1.0
 10
852.6664074431582
 20
1999.999999999995
 30
0.0
 10
852.6758075593997
 20
1998.100294831529
 30
0.0
 10
852.9020224233125
 20
1994.324201288199
 30
0.0
 10
853.5430665500843
 20
1990.594741332075
 30
0.0
 10
853.9672959291848
 20
1988.741669750814
 30
0.0
  0
SPLINE
  5
E0
330
87
100
AcDbEntity
  8
P-SANR-FIXT
100
AcDbSpline
210
0.0
220
0.0
230
1.0
 70
     8
 71
     3
 72
     9
 73
     5
 74
     0
 42
0.000000001
 43
0.0000000001
 40
0.0
 40
0.0
 40
0.0
 40
0.0
 40
0.5
 40
1.0
 40
1.0
 40
1.0
 40
1.0
 10
869.3757135363862
 20
1988.741669750814
 30
0.0
 10
870.2429459803864
 20
1992.453761299897
 30
0.0
 10
871.1101784243869
 20
1999.918629598705
 30
0.0
 10
870.242945980387
 20
2007.464868298802
 30
0.0
 10
869.375713536387
 20
2011.258330249172
 30
0.0
  0
SPLINE
  5
E1
330
87
100
AcDbEntity
  8
P-SANR-FIXT
100
AcDbSpline
210
0.0
220
0.0
230
1.0
 70
     8
 71
     3
 72
    10
 73
     6
 74
     0
 42
0.000000001
 43
0.0000000001
 40
0.0
 40
0.0
 40
0.0
 40
0.0
 40
0.4
 40
0.7
 40
1.0
 40
1.0
 40
1.0
 40
1.0
 10
853.9672959291848
 20
1988.741669750814
 30
0.0
 10
854.1989316817264
 20
1987.708938168695
 30
0.0
 10
854.4504891733852
 20
1985.873191427824
 30
0.0
 10
854.3880720528147
 20
1983.624096674151
 30
0.0
 10
854.1407583774974
 20
1982.632957627835
 30
0.0
 10
853.9672959291834
 20
1982.246479222431
 30
0.0
  0
SPLINE
  5
E2
330
87
100
AcDbEntity
  8
P-SANR-FIXT
100
AcDbSpline
210
0.0
220
0.0
230
1.0
 70
     8
 71
     3
 72
    10
 73
     6
 74
     0
 42
0.000000001
 43
0.0000000001
 40
0.0
 40
0.0
 40
0.0
 40
0.0
 40
0.4
 40
0.7
 40
1.0
 40
1.0
 40
1.0
 40
1.0
 10
869.3757135363876
 20
1982.246479222431
 30
0.0
 10
869.1444302719691
 20
1982.761783762969
 30
0.0
 10
868.8926952946856
 20
1984.009384175435
 30
0.0
 10
868.9546313681805
 20
1986.401480938545
 30
0.0
 10
869.20198672198
 20
1987.967121064225
 30
0.0
 10
869.3757135363862
 20
1988.741669750814
 30
0.0
  0
SPLINE
  5
E3
330
87
100
AcDbEntity
  8
P-SANR-FIXT
100
AcDbSpline
210
0.0
220
0.0
230
1.0
 70
     8
 71
     3
 72
     9
 73
     5
 74
     0
 42
0.000000001
 43
0.0000000001
 40
0.0
 40
0.0
 40
0.0
 40
0.0
 40
0.5
 40
1.0
 40
1.0
 40
1.0
 40
1.0
 10
853.9672959291836
 20
1982.246479222431
 30
0.0
 10
853.5430665500806
 20
1981.3199434318
 30
0.0
 10
852.902022423307
 20
1979.455213453735
 30
0.0
 10
852.6758075593971
 20
1977.567166682067
 30
0.0
 10
852.6664074431584
 20
1976.617314097832
 30
0.0
  0
SPLINE
  5
E4
330
87
100
AcDbEntity
  8
P-SANR-FIXT
100
AcDbSpline
210
0.0
220
0.0
230
1.0
 70
     8
 71
     3
 72
     9
 73
     5
 74
     0
 42
0.000000001
 43
0.0000000001
 40
0.0
 40
0.0
 40
0.0
 40
0.0
 40
0.5
 40
1.0
 40
1.0
 40
1.0
 40
1.0
 10
852.6664074431584
 20
1976.617314097832
 30
0.0
 10
852.6758075593971
 20
1975.667461513601
 30
0.0
 10
852.9020224233054
 20
1973.77941474194
 30
0.0
 10
853.5430665500753
 20
1971.914684763881
 30
0.0
 10
853.9672959291754
 20
1970.988148973252
 30
0.0
  0
SPLINE
  5
E5
330
87
100
AcDbEntity
  8
P-SANR-FIXT
100
AcDbSpline
210
0.0
220
0.0
230
1.0
 70
     8
 71
     3
 72
     9
 73
     5
 74
     0
 42
0.000000001
 43
0.0000000001
 40
0.0
 40
0.0
 40
0.0
 40
0.0
 40
0.5
 40
1.0
 40
1.0
 40
1.0
 40
1.0
 10
869.3757135363959
 20
1970.988148973252
 30
0.0
 10
870.2429459803949
 20
1972.844194747793
 30
0.0
 10
871.1101784243926
 20
1976.576628897198
 30
0.0
 10
870.2429459803894
 20
1980.349748247246
 30
0.0
 10
869.3757135363876
 20
1982.246479222431
 30
0.0
  0
SPLINE
  5
E6
330
87
100
AcDbEntity
  8
P-SANR-FIXT
100
AcDbSpline
210
0.0
220
0.0
230
1.0
 70
     8
 71
     3
 72
     9
 73
     5
 74
     0
 42
0.000000001
 43
0.0000000001
 40
0.0
 40
0.0
 40
0.0
 40
0.0
 40
0.5
 40
1.0
 40
1.0
 40
1.0
 40
1.0
 10
853.9672959291754
 20
1970.988148973252
 30
0.0
 10
854.1126687483117
 20
1970.665291803983
 30
0.0
 10
854.3315051115925
 20
1970.160318813299
 30
0.0
 10
854.4065229248889
 20
1969.983339501633
 30
0.0
 10
854.4080771940413
 20
1969.983339501636
 30
0.0
  0
SPLINE
  5
E7
330
87
100
AcDbEntity
  8
P-SANR-FIXT
100
AcDbSpline
210
0.0
220
0.0
230
1.0
 70
     8
 71
     3
 72
     9
 73
     5
 74
     0
 42
0.000000001
 43
0.0000000001
 40
0.0
 40
0.0
 40
0.0
 40
0.0
 40
0.5
 40
1.0
 40
1.0
 40
1.0
 40
1.0
 10
868.9349322715301
 20
1969.983339501636
 30
0.0
 10
868.9364865406824
 20
1969.983339501633
 30
0.0
 10
869.0115043539789
 20
1970.160318813299
 30
0.0
 10
869.2303407172596
 20
1970.665291803983
 30
0.0
 10
869.3757135363959
 20
1970.988148973252
 30
0.0
  0
SPLINE
  5
E8
330
87
100
AcDbEntity
  8
P-SANR-FIXT
100
AcDbSpline
210
0.0
220
0.0
230
1.0
 70
     8
 71
     3
 72
     9
 73
     5
 74
     0
 42
0.000000001
 43
0.0000000001
 40
0.0
 40
0.0
 40
0.0
 40
0.0
 40
0.5
 40
1.0
 40
1.0
 40
1.0
 40
1.0
 10
854.4080771940393
 20
2030.016660498351
 30
0.0
 10
854.406522924887
 20
2030.016660498353
 30
0.0
 10
854.3315051115905
 20
2029.839681186687
 30
0.0
 10
854.1126687483098
 20
2029.334708196003
 30
0.0
 10
853.9672959291733
 20
2029.011851026734
 30
0.0
  0
SPLINE
  5
E9
330
87
100
AcDbEntity
  8
P-SANR-FIXT
100
AcDbSpline
210
0.0
220
0.0
230
1.0
 70
     8
 71
     3
 72
     9
 73
     5
 74
     0
 42
0.000000001
 43
0.0000000001
 40
0.0
 40
0.0
 40
0.0
 40
0.0
 40
0.5
 40
1.0
 40
1.0
 40
1.0
 40
1.0
 10
869.3757135363979
 20
2029.011851026734
 30
0.0
 10
869.2303407172614
 20
2029.334708196003
 30
0.0
 10
869.0115043539808
 20
2029.839681186687
 30
0.0
 10
868.9364865406844
 20
2030.016660498353
 30
0.0
 10
868.9349322715321
 20
2030.016660498351
 30
0.0
  0
SPLINE
  5
EA
330
87
100
AcDbEntity
  8
P-SANR-FIXT
100
AcDbSpline
210
0.0
220
0.0
230
1.0
 70
     8
 71
     3
 72
     9
 73
     5
 74
     0
 42
0.000000001
 43
0.0000000001
 40
0.0
 40
0.0
 40
0.0
 40
0.0
 40
0.5
 40
1.0
 40
1.0
 40
1.0
 40
1.0
 10
869.3757135363886
 20
2017.753520777555
 30
0.0
 10
870.242945980391
 20
2019.65025175274
 30
0.0
 10
871.1101784243945
 20
2023.423371102788
 30
0.0
 10
870.2429459803969
 20
2027.155805252193
 30
0.0
 10
869.3757135363979
 20
2029.011851026734
 30
0.0
  0
SPLINE
  5
EB
330
87
100
AcDbEntity
  8
P-SANR-FIXT
100
AcDbSpline
210
0.0
220
0.0
230
1.0
 70
     8
 71
     3
 72
     9
 73
     5
 74
     0
 42
0.000000001
 43
0.0000000001
 40
0.0
 40
0.0
 40
0.0
 40
0.0
 40
0.5
 40
1.0
 40
1.0
 40
1.0
 40
1.0
 10
853.9672959291733
 20
2029.011851026734
 30
0.0
 10
853.5430665500729
 20
2028.085315236106
 30
0.0
 10
852.9020224233033
 20
2026.220585258048
 30
0.0
 10
852.6758075593962
 20
2024.332538486386
 30
0.0
 10
852.6664074431584
 20
2023.382685902155
 30
0.0
  0
SPLINE
  5
EC
330
87
100
AcDbEntity
  8
P-SANR-FIXT
100
AcDbSpline
210
0.0
220
0.0
230
1.0
 70
     8
 71
     3
 72
     9
 73
     5
 74
     0
 42
0.000000001
 43
0.0000000001
 40
0.0
 40
0.0
 40
0.0
 40
0.0
 40
0.5
 40
1.0
 40
1.0
 40
1.0
 40
1.0
 10
852.6664074431584
 20
2023.382685902155
 30
0.0
 10
852.6758075593964
 20
2022.43283331792
 30
0.0
 10
852.902022423305
 20
2020.544786546252
 30
0.0
 10
853.543066550079
 20
2018.680056568187
 30
0.0
 10
853.9672959291822
 20
2017.753520777555
 30
0.0
  0
LINE
  5
ED
330
87
100
AcDbEntity
  8
P-SANR-FIXT
100
AcDbLine
 10
788.6664074431966
 20
1874.249999999964
 30
0.0
 11
788.6664074431966
 21
1858.232050807532
 31
0.0
  0
LINE
  5
EE
330
87
100
AcDbEntity
  8
P-SANR-FIXT
100
AcDbLine
 10
842.6664074431185
 20
1858.232050807532
 30
0.0
 11
842.6664074431185
 21
1874.249999999964
 31
0.0
  0
LINE
  5
EF
330
87
100
AcDbEntity
  8
P-SANR-FIXT
100
AcDbLine
 10
793.4164074431584
 20
1878.999999999923
 30
0.0
 11
788.666407443199
 21
1874.249999999964
 31
0.0
  0
LINE
  5
F0
330
87
100
AcDbEntity
  8
P-SANR-FIXT
100
AcDbLine
 10
842.6664074431196
 20
1874.249999999965
 30
0.0
 11
842.6184992486543
 21
1874.29790819443
 31
0.0
  0
LINE
  5
F1
330
87
100
AcDbEntity
  8
P-SANR-FIXT
100
AcDbLine
 10
842.6037483885538
 20
1874.31265905453
 30
0.0
 11
837.916407443161
 21
1878.999999999923
 31
0.0
  0
LINE
  5
F2
330
87
100
AcDbEntity
  8
P-SANR-FIXT
100
AcDbLine
 10
839.666407443161
 20
1856.499999999987
 30
0.0
 11
842.6037483885538
 21
1858.195874585511
 31
0.0
  0
LINE
  5
F3
330
87
100
AcDbEntity
  8
P-SANR-FIXT
100
AcDbLine
 10
842.6094435654798
 20
1858.199162697442
 30
0.0
 11
842.6664074431169
 21
1858.23205080753
 31
0.0
  0
LINE
  5
F4
330
87
100
AcDbEntity
  8
P-SANR-FIXT
100
AcDbLine
 10
788.666407443197
 20
1858.232050807533
 30
0.0
 11
788.7233713208354
 21
1858.199162697444
 31
0.0
  0
LINE
  5
F5
330
87
100
AcDbEntity
  8
P-SANR-FIXT
100
AcDbLine
 10
788.7290664977613
 20
1858.195874585513
 30
0.0
 11
791.666407443158
 21
1856.499999999987
 31
0.0
  0
LINE
  5
F6
330
87
100
AcDbEntity
  8
P-SANR-FIXT
100
AcDbLine
 10
839.6664074431598
 20
1856.499999999986
 30
0.0
 11
791.6664074431569
 21
1856.499999999986
 31
0.0
  0
LINE
  5
F7
330
87
100
AcDbEntity
  8
P-SANR-FIXT
100
AcDbLine
 10
788.6664074431954
 20
1858.232050807531
 30
0.0
 11
788.9167528349976
 21
1858.232050807531
 31
0.0
  0
LINE
  5
F8
330
87
100
AcDbEntity
  8
P-SANR-FIXT
100
AcDbLine
 10
788.9167528349976
 20
1874.249999999963
 30
0.0
 11
788.6664074431954
 21
1874.249999999963
 31
0.0
  0
LINE
  5
F9
330
87
100
AcDbEntity
  8
P-SANR-FIXT
100
AcDbLine
 10
788.9167528349976
 20
1858.232050807531
 30
0.0
 11
788.9167528349976
 21
1874.249999999964
 31
0.0
  0
SPLINE
  5
FA
330
87
100
AcDbEntity
  8
P-SANR-FIXT
100
AcDbSpline
210
0.0
220
0.0
230
1.0
 70
     8
 71
     3
 72
     9
 73
     5
 74
     0
 42
0.000000001
 43
0.0000000001
 40
0.0
 40
0.0
 40
0.0
 40
0.0
 40
0.5
 40
1.0
 40
1.0
 40
1.0
 40
1.0
 10
788.9167528349976
 20
1858.232050807531
 30
0.0
 10
790.6390510974928
 20
1857.462285913661
 30
0.0
 10
794.0610225311757
 20
1856.69252101979
 30
0.0
 10
797.4377437822441
 20
1857.462285913656
 30
0.0
 10
799.1147918621241
 20
1858.232050807522
 30
0.0
  0
SPLINE
  5
FB
330
87
100
AcDbEntity
  8
P-SANR-FIXT
100
AcDbSpline
210
0.0
220
0.0
230
1.0
 70
     8
 71
     3
 72
     9
 73
     5
 74
     0
 42
0.000000001
 43
0.0000000001
 40
0.3898883184037633
 40
0.3898883184037633
 40
0.3898883184037633
 40
0.3898883184037633
 40
0.6666666666666666
 40
1.0
 40
1.0
 40
1.0
 40
1.0
 10
795.1630038269538
 20
1876.137841531656
 30
0.0
 10
794.2157756117845
 20
1876.301063621039
 30
0.0
 10
792.1114060187607
 20
1876.216622776246
 30
0.0
 10
790.0439966128134
 20
1875.135839546593
 30
0.0
 10
788.9167528349976
 20
1874.249999999964
 30
0.0
  0
LINE
  5
FC
330
87
100
AcDbEntity
  8
P-SANR-FIXT
100
AcDbLine
 10
799.1147918621241
 20
1858.232050807522
 30
0.0
 11
799.1147918621241
 21
1870.551015068839
 31
0.0
  0
LINE
  5
FD
330
87
100
AcDbEntity
  8
P-SANR-FIXT
100
AcDbLine
 10
799.1147918621238
 20
1858.232050807531
 30
0.0
 11
805.4683684160284
 21
1858.232050807531
 31
0.0
  0
LINE
  5
FE
330
87
100
AcDbEntity
  8
P-SANR-FIXT
100
AcDbLine
 10
805.468368416029
 20
1858.23205080752
 30
0.0
 11
805.468368416029
 21
1865.903657729363
 31
0.0
  0
SPLINE
  5
FF
330
87
100
AcDbEntity
  8
P-SANR-FIXT
100
AcDbSpline
210
0.0
220
0.0
230
1.0
 70
     8
 71
     3
 72
     9
 73
     5
 74
     0
 42
0.000000001
 43
0.0000000001
 40
0.0
 40
0.0
 40
0.0
 40
0.0
 40
0.5
 40
1.0
 40
1.0
 40
1.0
 40
1.0
 10
805.468368416029
 20
1858.23205080752
 30
0.0
 10
808.9129649410192
 20
1857.462285913652
 30
0.0
 10
815.7569078083854
 20
1856.692521019783
 30
0.0
 10
822.5103503105218
 20
1857.462285913651
 30
0.0
 10
825.8644464702827
 20
1858.23205080752
 30
0.0
  0
LINE
  5
100
330
87
100
AcDbEntity
  8
P-SANR-FIXT
100
AcDbLine
 10
825.8644464702825
 20
1858.23205080752
 30
0.0
 11
825.8644464702825
 21
1865.903657729361
 31
0.0
  0
LINE
  5
101
330
87
100
AcDbEntity
  8
P-SANR-FIXT
100
AcDbLine
 10
825.8644464702824
 20
1858.232050807531
 30
0.0
 11
832.2180230241873
 21
1858.232050807531
 31
0.0
  0
LINE
  5
102
330
87
100
AcDbEntity
  8
P-SANR-FIXT
100
AcDbLine
 10
832.2180230241876
 20
1858.232050807521
 30
0.0
 11
832.2180230241876
 21
1870.551015068833
 31
0.0
  0
SPLINE
  5
103
330
87
100
AcDbEntity
  8
P-SANR-FIXT
100
AcDbSpline
210
0.0
220
0.0
230
1.0
 70
     8
 71
     3
 72
     9
 73
     5
 74
     0
 42
0.000000001
 43
0.0000000001
 40
0.0
 40
0.0
 40
0.0
 40
0.0
 40
0.5
 40
1.0
 40
1.0
 40
1.0
 40
1.0
 10
832.2180230241876
 20
1858.232050807521
 30
0.0
 10
833.940321286683
 20
1857.462285913654
 30
0.0
 10
837.3622927203662
 20
1856.692521019789
 30
0.0
 10
840.7390139714344
 20
1857.462285913659
 30
0.0
 10
842.4160620513147
 20
1858.232050807529
 30
0.0
  0
SPLINE
  5
104
330
87
100
AcDbEntity
  8
P-SANR-FIXT
100
AcDbSpline
210
0.0
220
0.0
230
1.0
 70
     8
 71
     3
 72
     9
 73
     5
 74
     0
 42
0.000000001
 43
0.0000000001
 40
0.0
 40
0.0
 40
0.0
 40
0.0
 40
0.3333333333333333
 40
0.6126926276363558
 40
0.6126926276363558
 40
0.6126926276363558
 40
0.6126926276363558
 10
842.4160620513147
 20
1874.249999999967
 30
0.0
 10
841.301383645621
 20
1875.130148736662
 30
0.0
 10
839.2406259312632
 20
1876.208809489747
 30
0.0
 10
837.128443834033
 20
1876.303445104181
 30
0.0
 10
836.170150329724
 20
1876.13840423784
 30
0.0
  0
LINE
  5
105
330
87
100
AcDbEntity
  8
P-SANR-FIXT
100
AcDbLine
 10
842.4160620513148
 20
1858.232050807529
 30
0.0
 11
842.4160620513148
 21
1874.249999999967
 31
0.0
  0
LINE
  5
106
330
87
100
AcDbEntity
  8
P-SANR-FIXT
100
AcDbLine
 10
842.4160620513147
 20
1858.232050807531
 30
0.0
 11
842.6664074431172
 21
1858.232050807531
 31
0.0
  0
LINE
  5
107
330
87
100
AcDbEntity
  8
P-SANR-FIXT
100
AcDbLine
 10
842.6664074431172
 20
1874.249999999963
 30
0.0
 11
842.4160620513148
 21
1874.249999999963
 31
0.0
  0
LINE
  5
108
330
87
100
AcDbEntity
  8
P-SANR-FIXT
100
AcDbLine
 10
785.649746944812
 20
1936.385061399674
 30
0.0
 11
785.649746944812
 21
1921.858206322207
 31
0.0
  0
LINE
  5
109
330
87
100
AcDbEntity
  8
P-SANR-FIXT
100
AcDbLine
 10
845.6830679415032
 20
1921.858206322205
 30
0.0
 11
845.6830679415032
 21
1936.385061399677
 31
0.0
  0
LINE
  5
10A
330
87
100
AcDbEntity
  8
P-SANR-FIXT
100
AcDbLine
 10
792.1128515293189
 20
1940.11653657134
 30
0.0
 11
785.9087246762357
 21
1936.534582262626
 31
0.0
  0
LINE
  5
10B
330
87
100
AcDbEntity
  8
P-SANR-FIXT
100
AcDbLine
 10
785.8693019269296
 20
1936.511821527702
 30
0.0
 11
785.649746944812
 21
1936.385061399674
 31
0.0
  0
LINE
  5
10C
330
87
100
AcDbEntity
  8
P-SANR-FIXT
100
AcDbLine
 10
845.6830679415032
 20
1936.385061399677
 30
0.0
 11
845.4635129593857
 21
1936.511821527704
 31
0.0
  0
LINE
  5
10D
330
87
100
AcDbEntity
  8
P-SANR-FIXT
100
AcDbLine
 10
845.424090210079
 20
1936.534582262629
 30
0.0
 11
839.2199633570003
 21
1940.11653657134
 31
0.0
  0
LINE
  5
10E
330
87
100
AcDbEntity
  8
P-SANR-FIXT
100
AcDbLine
 10
842.6664074430254
 20
1920.116536571355
 30
0.0
 11
845.424090210079
 21
1921.708685459253
 31
0.0
  0
LINE
  5
10F
330
87
100
AcDbEntity
  8
P-SANR-FIXT
100
AcDbLine
 10
845.4634691466093
 20
1921.73142089886
 30
0.0
 11
845.6830679415032
 21
1921.858206322205
 31
0.0
  0
LINE
  5
110
330
87
100
AcDbEntity
  8
P-SANR-FIXT
100
AcDbLine
 10
785.649746944812
 20
1921.858206322207
 30
0.0
 11
785.869345739706
 21
1921.731420898862
 31
0.0
  0
LINE
  5
111
330
87
100
AcDbEntity
  8
P-SANR-FIXT
100
AcDbLine
 10
785.9087246762357
 20
1921.708685459256
 30
0.0
 11
788.6664074432936
 21
1920.116536571355
 31
0.0
  0
LINE
  5
112
330
87
100
AcDbEntity
  8
P-SANR-FIXT
100
AcDbLine
 10
792.1128515293176
 20
1940.116536571339
 30
0.0
 11
839.219963356999
 21
1940.116536571339
 31
0.0
  0
LINE
  5
113
330
87
100
AcDbEntity
  8
P-SANR-FIXT
100
AcDbLine
 10
791.5146585379074
 20
1920.116536571354
 30
0.0
 11
791.7436755421979
 21
1920.116536571354
 31
0.0
  0
LINE
  5
114
330
87
100
AcDbEntity
  8
P-SANR-FIXT
100
AcDbLine
 10
839.5891393441184
 20
1920.116536571354
 30
0.0
 11
839.8181563483793
 21
1920.116536571354
 31
0.0
  0
LINE
  5
115
330
87
100
AcDbEntity
  8
P-SANR-FIXT
100
AcDbLine
 10
842.6664074430242
 20
1920.116536571354
 30
0.0
 11
839.0490933452221
 21
1920.116536571354
 31
0.0
  0
LINE
  5
116
330
87
100
AcDbEntity
  8
P-SANR-FIXT
100
AcDbLine
 10
839.0490933452221
 20
1920.116536571354
 30
0.0
 11
815.6664074431583
 21
1920.116536571354
 31
0.0
  0
LINE
  5
117
330
87
100
AcDbEntity
  8
P-SANR-FIXT
100
AcDbLine
 10
815.6664074431583
 20
1920.116536571354
 30
0.0
 11
792.2837215410945
 21
1920.116536571354
 31
0.0
  0
LINE
  5
118
330
87
100
AcDbEntity
  8
P-SANR-FIXT
100
AcDbLine
 10
792.2837215410945
 20
1920.116536571354
 30
0.0
 11
788.6664074432923
 21
1920.116536571354
 31
0.0
  0
SPLINE
  5
119
330
87
100
AcDbEntity
  8
P-SANR-FIXT
100
AcDbSpline
210
0.0
220
0.0
230
1.0
 70
     8
 71
     3
 72
     9
 73
     5
 74
     0
 42
0.000000001
 43
0.0000000001
 40
0.0
 40
0.0
 40
0.0
 40
0.0
 40
0.5
 40
1.0
 40
1.0
 40
1.0
 40
1.0
 10
785.6497469448108
 20
1921.858206322206
 30
0.0
 10
785.6497469448127
 20
1921.856652053052
 30
0.0
 10
785.8267262564821
 20
1921.781634239753
 30
0.0
 10
786.3316992471623
 20
1921.562797876473
 30
0.0
 10
786.6545564164274
 20
1921.417425057337
 30
0.0
  0
SPLINE
  5
11A
330
87
100
AcDbEntity
  8
P-SANR-FIXT
100
AcDbSpline
210
0.0
220
0.0
230
1.0
 70
     8
 71
     3
 72
     9
 73
     5
 74
     0
 42
0.000000001
 43
0.0000000001
 40
0.0
 40
0.0
 40
0.0
 40
0.0
 40
0.5
 40
1.0
 40
1.0
 40
1.0
 40
1.0
 10
786.6545564164274
 20
1936.825842664543
 30
0.0
 10
786.3316992471623
 20
1936.680469845407
 30
0.0
 10
785.8267262564821
 20
1936.461633482127
 30
0.0
 10
785.6497469448127
 20
1936.386615668828
 30
0.0
 10
785.6497469448108
 20
1936.385061399673
 30
0.0
  0
SPLINE
  5
11B
330
87
100
AcDbEntity
  8
P-SANR-FIXT
100
AcDbSpline
210
0.0
220
0.0
230
1.0
 70
     8
 71
     3
 72
     9
 73
     5
 74
     0
 42
0.000000001
 43
0.0000000001
 40
0.0
 40
0.0
 40
0.0
 40
0.0
 40
0.5
 40
1.0
 40
1.0
 40
1.0
 40
1.0
 10
786.6545564164274
 20
1921.417425057337
 30
0.0
 10
787.5810922070582
 20
1920.993195678228
 30
0.0
 10
789.4458221851216
 20
1920.352151551454
 30
0.0
 10
791.333868956789
 20
1920.125936687572
 30
0.0
 10
792.2837215410236
 20
1920.116536571354
 30
0.0
  0
SPLINE
  5
11C
330
87
100
AcDbEntity
  8
P-SANR-FIXT
100
AcDbSpline
210
0.0
220
0.0
230
1.0
 70
     8
 71
     3
 72
     9
 73
     5
 74
     0
 42
0.000000001
 43
0.0000000001
 40
0.0
 40
0.0
 40
0.0
 40
0.0
 40
0.5
 40
1.0
 40
1.0
 40
1.0
 40
1.0
 10
792.2837215410236
 20
1920.116536571354
 30
0.0
 10
793.2335741252549
 20
1920.125936687572
 30
0.0
 10
795.1216208969156
 20
1920.352151551452
 30
0.0
 10
796.9863508749723
 20
1920.993195678222
 30
0.0
 10
797.9128866656
 20
1921.417425057328
 30
0.0
  0
SPLINE
  5
11D
330
87
100
AcDbEntity
  8
P-SANR-FIXT
100
AcDbSpline
210
0.0
220
0.0
230
1.0
 70
     8
 71
     3
 72
     9
 73
     5
 74
     0
 42
0.000000001
 43
0.0000000001
 40
0.0
 40
0.0
 40
0.0
 40
0.0
 40
0.5
 40
1.0
 40
1.0
 40
1.0
 40
1.0
 10
797.9128866656
 20
1936.825842664551
 30
0.0
 10
796.0568408910599
 20
1937.69307510855
 30
0.0
 10
792.3244067416575
 20
1938.560307552548
 30
0.0
 10
788.5512873916115
 20
1937.693075108544
 30
0.0
 10
786.6545564164274
 20
1936.825842664543
 30
0.0
  0
SPLINE
  5
11E
330
87
100
AcDbEntity
  8
P-SANR-FIXT
100
AcDbSpline
210
0.0
220
0.0
230
1.0
 70
     8
 71
     3
 72
    10
 73
     6
 74
     0
 42
0.000000001
 43
0.0000000001
 40
0.0
 40
0.0
 40
0.0
 40
0.0
 40
0.4
 40
0.7
 40
1.0
 40
1.0
 40
1.0
 40
1.0
 10
797.9128866655998
 20
1921.417425057328
 30
0.0
 10
798.4292524566596
 20
1921.64906080987
 30
0.0
 10
799.677418701166
 20
1921.900618301529
 30
0.0
 10
802.0704090763816
 20
1921.838201180958
 30
0.0
 10
803.6351203831763
 20
1921.590887505641
 30
0.0
 10
804.4080771939832
 20
1921.417425057327
 30
0.0
  0
SPLINE
  5
11F
330
87
100
AcDbEntity
  8
P-SANR-FIXT
100
AcDbSpline
210
0.0
220
0.0
230
1.0
 70
     8
 71
     3
 72
    10
 73
     6
 74
     0
 42
0.000000001
 43
0.0000000001
 40
0.0
 40
0.0
 40
0.0
 40
0.0
 40
0.4
 40
0.7
 40
1.0
 40
1.0
 40
1.0
 40
1.0
 10
804.4080771939832
 20
1936.825842664553
 30
0.0
 10
803.3774681129074
 20
1936.594559400135
 30
0.0
 10
801.5414806617064
 20
1936.342824422851
 30
0.0
 10
799.2925024464588
 20
1936.404760496346
 30
0.0
 10
798.3001610088948
 20
1936.652115850145
 30
0.0
 10
797.9128866655998
 20
1936.825842664551
 30
0.0
  0
SPLINE
  5
120
330
87
100
AcDbEntity
  8
P-SANR-FIXT
100
AcDbSpline
210
0.0
220
0.0
230
1.0
 70
     8
 71
     3
 72
     9
 73
     5
 74
     0
 42
0.000000001
 43
0.0000000001
 40
0.0
 40
0.0
 40
0.0
 40
0.0
 40
0.5
 40
1.0
 40
1.0
 40
1.0
 40
1.0
 10
804.4080771939832
 20
1921.417425057327
 30
0.0
 10
806.2611487752416
 20
1920.993195678217
 30
0.0
 10
809.9906087313627
 20
1920.352151551444
 30
0.0
 10
813.7667022746915
 20
1920.125936687568
 30
0.0
 10
815.666407443158
 20
1920.116536571354
 30
0.0
  0
SPLINE
  5
121
330
87
100
AcDbEntity
  8
P-SANR-FIXT
100
AcDbSpline
210
0.0
220
0.0
230
1.0
 70
     8
 71
     3
 72
     9
 73
     5
 74
     0
 42
0.000000001
 43
0.0000000001
 40
0.0
 40
0.0
 40
0.0
 40
0.0
 40
0.5
 40
1.0
 40
1.0
 40
1.0
 40
1.0
 10
815.666407443158
 20
1920.116536571354
 30
0.0
 10
817.5661126116237
 20
1920.125936687568
 30
0.0
 10
821.3422061549513
 20
1920.352151551444
 30
0.0
 10
825.0716661110709
 20
1920.993195678216
 30
0.0
 10
826.9247376923287
 20
1921.417425057326
 30
0.0
  0
SPLINE
  5
122
330
87
100
AcDbEntity
  8
P-SANR-FIXT
100
AcDbSpline
210
0.0
220
0.0
230
1.0
 70
     8
 71
     3
 72
     9
 73
     5
 74
     0
 42
0.000000001
 43
0.0000000001
 40
0.0
 40
0.0
 40
0.0
 40
0.0
 40
0.5
 40
1.0
 40
1.0
 40
1.0
 40
1.0
 10
826.9247376923287
 20
1936.825842664554
 30
0.0
 10
823.2126461432484
 20
1937.693075108555
 30
0.0
 10
815.7477778444439
 20
1938.560307552555
 30
0.0
 10
808.2015391443515
 20
1937.693075108554
 30
0.0
 10
804.4080771939832
 20
1936.825842664553
 30
0.0
  0
SPLINE
  5
123
330
87
100
AcDbEntity
  8
P-SANR-FIXT
100
AcDbSpline
210
0.0
220
0.0
230
1.0
 70
     8
 71
     3
 72
    10
 73
     6
 74
     0
 42
0.000000001
 43
0.0000000001
 40
0.0
 40
0.0
 40
0.0
 40
0.0
 40
0.4
 40
0.7
 40
1.0
 40
1.0
 40
1.0
 40
1.0
 10
826.9247376923287
 20
1921.417425057326
 30
0.0
 10
827.9574692744477
 20
1921.649060809867
 30
0.0
 10
829.7932160153191
 20
1921.900618301527
 30
0.0
 10
832.0423107689927
 20
1921.838201180958
 30
0.0
 10
833.0334498153087
 20
1921.590887505641
 30
0.0
 10
833.4199282207121
 20
1921.417425057327
 30
0.0
  0
SPLINE
  5
124
330
87
100
AcDbEntity
  8
P-SANR-FIXT
100
AcDbSpline
210
0.0
220
0.0
230
1.0
 70
     8
 71
     3
 72
    10
 73
     6
 74
     0
 42
0.000000001
 43
0.0000000001
 40
0.0
 40
0.0
 40
0.0
 40
0.0
 40
0.4
 40
0.7
 40
1.0
 40
1.0
 40
1.0
 40
1.0
 10
833.4199282207121
 20
1936.825842664553
 30
0.0
 10
832.904623680174
 20
1936.594559400135
 30
0.0
 10
831.6570232677078
 20
1936.342824422852
 30
0.0
 10
829.2649265045973
 20
1936.404760496348
 30
0.0
 10
827.6992863789178
 20
1936.652115850148
 30
0.0
 10
826.9247376923287
 20
1936.825842664554
 30
0.0
  0
SPLINE
  5
125
330
87
100
AcDbEntity
  8
P-SANR-FIXT
100
AcDbSpline
210
0.0
220
0.0
230
1.0
 70
     8
 71
     3
 72
     9
 73
     5
 74
     0
 42
0.000000001
 43
0.0000000001
 40
0.0
 40
0.0
 40
0.0
 40
0.0
 40
0.5
 40
1.0
 40
1.0
 40
1.0
 40
1.0
 10
833.4199282207121
 20
1921.417425057327
 30
0.0
 10
834.3464640113399
 20
1920.99319567822
 30
0.0
 10
836.2111939893972
 20
1920.35215155145
 30
0.0
 10
838.0992407610584
 20
1920.125936687571
 30
0.0
 10
839.0490933452898
 20
1920.116536571354
 30
0.0
  0
SPLINE
  5
126
330
87
100
AcDbEntity
  8
P-SANR-FIXT
100
AcDbSpline
210
0.0
220
0.0
230
1.0
 70
     8
 71
     3
 72
     9
 73
     5
 74
     0
 42
0.000000001
 43
0.0000000001
 40
0.0
 40
0.0
 40
0.0
 40
0.0
 40
0.5
 40
1.0
 40
1.0
 40
1.0
 40
1.0
 10
839.0490933452898
 20
1920.116536571354
 30
0.0
 10
839.9989459295243
 20
1920.125936687571
 30
0.0
 10
841.8869927011915
 20
1920.352151551451
 30
0.0
 10
843.7517226792545
 20
1920.993195678225
 30
0.0
 10
844.6782584698851
 20
1921.417425057335
 30
0.0
  0
SPLINE
  5
127
330
87
100
AcDbEntity
  8
P-SANR-FIXT
100
AcDbSpline
210
0.0
220
0.0
230
1.0
 70
     8
 71
     3
 72
     9
 73
     5
 74
     0
 42
0.000000001
 43
0.0000000001
 40
0.0
 40
0.0
 40
0.0
 40
0.0
 40
0.5
 40
1.0
 40
1.0
 40
1.0
 40
1.0
 10
844.6782584698851
 20
1936.825842664545
 30
0.0
 10
842.8222126953452
 20
1937.693075108547
 30
0.0
 10
839.0897785459427
 20
1938.56030755255
 30
0.0
 10
835.3166591958965
 20
1937.693075108552
 30
0.0
 10
833.4199282207121
 20
1936.825842664553
 30
0.0
  0
SPLINE
  5
128
330
87
100
AcDbEntity
  8
P-SANR-FIXT
100
AcDbSpline
210
0.0
220
0.0
230
1.0
 70
     8
 71
     3
 72
     9
 73
     5
 74
     0
 42
0.000000001
 43
0.0000000001
 40
0.0
 40
0.0
 40
0.0
 40
0.0
 40
0.5
 40
1.0
 40
1.0
 40
1.0
 40
1.0
 10
844.6782584698851
 20
1921.417425057335
 30
0.0
 10
845.0011156391502
 20
1921.56279787647
 30
0.0
 10
845.5060886298307
 20
1921.781634239751
 30
0.0
 10
845.6830679415
 20
1921.856652053049
 30
0.0
 10
845.6830679415018
 20
1921.858206322204
 30
0.0
  0
SPLINE
  5
129
330
87
100
AcDbEntity
  8
P-SANR-FIXT
100
AcDbSpline
210
0.0
220
0.0
230
1.0
 70
     8
 71
     3
 72
     9
 73
     5
 74
     0
 42
0.000000001
 43
0.0000000001
 40
0.0
 40
0.0
 40
0.0
 40
0.0
 40
0.5
 40
1.0
 40
1.0
 40
1.0
 40
1.0
 10
845.6830679415018
 20
1936.385061399676
 30
0.0
 10
845.6830679415
 20
1936.386615668831
 30
0.0
 10
845.5060886298307
 20
1936.461633482129
 30
0.0
 10
845.0011156391502
 20
1936.68046984541
 30
0.0
 10
844.6782584698851
 20
1936.825842664545
 30
0.0
  0
LINE
  5
12A
330
87
100
AcDbEntity
  8
P-SANR-FIXT
100
AcDbLine
 10
907.6664074431961
 20
2020.349999999951
 30
0.0
 11
907.0664074431965
 21
2020.949999999951
 31
0.0
  0
LINE
  5
12B
330
87
100
AcDbEntity
  8
P-SANR-FIXT
100
AcDbLine
 10
907.0664074431965
 20
1979.050000000041
 30
0.0
 11
907.6664074431961
 21
1979.650000000041
 31
0.0
  0
LINE
  5
12C
330
87
100
AcDbEntity
  8
P-SANR-FIXT
100
AcDbLine
 10
907.0664074431965
 20
2020.949999999951
 30
0.0
 11
883.1664074431584
 21
2020.949999999951
 31
0.0
  0
LINE
  5
12D
330
87
100
AcDbEntity
  8
P-SANR-FIXT
100
AcDbLine
 10
883.1664074431584
 20
1979.050000000041
 30
0.0
 11
907.0664074431965
 21
1979.050000000041
 31
0.0
  0
LINE
  5
12E
330
87
100
AcDbEntity
  8
P-SANR-FIXT
100
AcDbLine
 10
872.6664074432209
 20
1979.050000000038
 30
0.0
 11
883.1664074431584
 21
1979.050000000038
 31
0.0
  0
LINE
  5
12F
330
87
100
AcDbEntity
  8
P-SANR-FIXT
100
AcDbLine
 10
883.1664074431584
 20
2020.949999999951
 30
0.0
 11
872.6664074432209
 21
2020.949999999951
 31
0.0
  0
LINE
  5
130
330
87
100
AcDbEntity
  8
P-SANR-FIXT
100
AcDbLine
 10
907.6664074431947
 20
2020.34999999995
 30
0.0
 11
907.6664074431947
 21
1979.65000000004
 31
0.0
  0
LINE
  5
131
330
87
100
AcDbEntity
  8
P-SANR-FIXT
100
AcDbLine
 10
907.0664074431952
 20
2020.949999999949
 30
0.0
 11
907.0664074431952
 21
1979.050000000041
 31
0.0
  0
LINE
  5
132
330
87
100
AcDbEntity
  8
P-SANR-FIXT
100
AcDbLine
 10
883.166407443157
 20
2020.71674138305
 30
0.0
 11
883.166407443157
 21
2013.058249364589
 31
0.0
  0
LINE
  5
133
330
87
100
AcDbEntity
  8
P-SANR-FIXT
100
AcDbLine
 10
883.166407443157
 20
2007.658492018424
 30
0.0
 11
883.166407443157
 21
1992.341507981566
 31
0.0
  0
LINE
  5
134
330
87
100
AcDbEntity
  8
P-SANR-FIXT
100
AcDbLine
 10
883.166407443157
 20
1986.941750635395
 30
0.0
 11
883.166407443157
 21
1979.283258616941
 31
0.0
  0
LINE
  5
135
330
87
100
AcDbEntity
  8
P-SANR-FIXT
100
AcDbLine
 10
883.166407443157
 20
2007.658492018484
 30
0.0
 11
872.6664074432195
 21
2007.658492018484
 31
0.0
  0
LINE
  5
136
330
87
100
AcDbEntity
  8
P-SANR-FIXT
100
AcDbLine
 10
872.6664074432195
 20
1992.341507981503
 30
0.0
 11
883.166407443157
 21
1992.341507981503
 31
0.0
  0
LINE
  5
137
330
87
100
AcDbEntity
  8
P-SANR-FIXT
100
AcDbLine
 10
872.6664074432195
 20
1986.941750635422
 30
0.0
 11
883.166407443157
 21
1986.941750635422
 31
0.0
  0
LINE
  5
138
330
87
100
AcDbEntity
  8
P-SANR-FIXT
100
AcDbLine
 10
872.6664074432195
 20
1979.283258616932
 30
0.0
 11
883.166407443157
 21
1979.283258616932
 31
0.0
  0
LINE
  5
139
330
87
100
AcDbEntity
  8
P-SANR-FIXT
100
AcDbLine
 10
872.6664074432195
 20
2020.716741383055
 30
0.0
 11
883.166407443157
 21
2020.716741383055
 31
0.0
  0
LINE
  5
13A
330
87
100
AcDbEntity
  8
P-SANR-FIXT
100
AcDbLine
 10
872.6664074432195
 20
2013.058249364565
 30
0.0
 11
883.166407443157
 21
2013.058249364565
 31
0.0
  0
LINE
  5
13B
330
87
100
AcDbEntity
  8
P-SANR-FIXT
100
AcDbLine
 10
785.0463616589863
 20
2021.999999999996
 30
0.0
 11
782.0602356072149
 21
2021.999999999996
 31
0.0
  0
LINE
  5
13C
330
87
100
AcDbEntity
  8
P-SANR-FIXT
100
AcDbLine
 10
782.0602356072149
 20
1977.999999999996
 30
0.0
 11
785.0463616589863
 21
1977.999999999996
 31
0.0
  0
LINE
  5
13D
330
87
100
AcDbEntity
  8
P-SANR-FIXT
100
AcDbLine
 10
782.0602356072149
 20
2021.999999999996
 30
0.0
 11
779.9280764860859
 21
2024.132159121125
 31
0.0
  0
LINE
  5
13E
330
87
100
AcDbEntity
  8
P-SANR-FIXT
100
AcDbLine
 10
779.9280764860429
 20
1975.867840878823
 30
0.0
 11
782.0602356072149
 21
1977.999999999996
 31
0.0
  0
LINE
  5
13F
330
87
100
AcDbEntity
  8
P-SANR-FIXT
100
AcDbLine
 10
788.1664074431453
 20
2029.999999999997
 30
0.0
 11
785.0463616589863
 21
2029.999999999997
 31
0.0
  0
LINE
  5
140
330
87
100
AcDbEntity
  8
P-SANR-FIXT
100
AcDbLine
 10
785.0463616589863
 20
1969.999999999996
 30
0.0
 11
788.1664074431453
 21
1969.999999999996
 31
0.0
  0
LINE
  5
141
330
87
100
AcDbEntity
  8
P-SANR-FIXT
100
AcDbLine
 10
785.0463616589848
 20
1969.999999999995
 30
0.0
 11
785.0463616589848
 21
2029.999999999995
 31
0.0
  0
LINE
  5
142
330
87
100
AcDbEntity
  8
P-SANR-FIXT
100
AcDbLine
 10
782.0602356072137
 20
2021.999999999995
 30
0.0
 11
782.0602356072137
 21
1977.999999999995
 31
0.0
  0
LINE
  5
143
330
87
100
AcDbEntity
  8
P-SANR-FIXT
100
AcDbLine
 10
779.9102356072136
 20
2024.145722408773
 30
0.0
 11
779.9102356072136
 21
2022.616802171486
 31
0.0
  0
LINE
  5
144
330
87
100
AcDbEntity
  8
P-SANR-FIXT
100
AcDbLine
 10
779.9102356072134
 20
2001.566667855297
 30
0.0
 11
779.9102356072134
 21
1998.433332144672
 31
0.0
  0
LINE
  5
145
330
87
100
AcDbEntity
  8
P-SANR-FIXT
100
AcDbLine
 10
779.9102356072136
 20
1977.383197828532
 30
0.0
 11
779.9102356072136
 21
1975.854277591196
 31
0.0
  0
LINE
  5
146
330
87
100
AcDbEntity
  8
P-SANR-FIXT
100
AcDbLine
 10
788.1664074431441
 20
2029.999999999995
 30
0.0
 11
788.1664074431441
 21
1969.999999999995
 31
0.0
  0
LWPOLYLINE
  5
147
330
87
100
AcDbEntity
  8
P-SANR-FIXT
100
AcDbPolyline
 90
        3
 70
   128
 43
0.0
 10
726.9712575187635
 20
2086.922815130518
 10
753.5494198568564
 20
2088.394504421143
 10
773.7721607890756
 20
2091.282011224604
  0
LWPOLYLINE
  5
148
330
87
100
AcDbEntity
  8
P-SANR-FIXT
100
AcDbPolyline
 90
        3
 70
   128
 43
0.0
 10
727.8083352036932
 20
2098.893583733635
 10
753.0662364687681
 20
2100.488633236747
 10
773.7721607890756
 20
2103.282011224605
  0
LINE
  5
149
330
87
100
AcDbEntity
  8
P-SANR-FIXT
100
AcDbLine
 10
727.3897963612272
 20
2092.908199432075
 30
0.0
 11
727.808335203692
 21
2098.893583733635
 31
0.0
  0
LINE
  5
14A
330
87
100
AcDbEntity
  8
P-SANR-FIXT
100
AcDbLine
 10
726.9712575187625
 20
2086.922815130517
 30
0.0
 11
727.3897963612272
 21
2092.908199432075
 31
0.0
  0
LINE
  5
14B
330
87
100
AcDbEntity
  8
P-SANR-FIXT
100
AcDbLine
 10
783.7721607890759
 20
2107.853468692164
 30
0.0
 11
780.0818896337989
 21
2107.853468692164
 31
0.0
  0
LINE
  5
14C
330
87
100
AcDbEntity
  8
P-SANR-FIXT
100
AcDbLine
 10
780.0818896337989
 20
2086.710553757045
 30
0.0
 11
783.7721607890752
 21
2086.710553757045
 31
0.0
  0
LINE
  5
14D
330
87
100
AcDbEntity
  8
P-SANR-FIXT
100
AcDbLine
 10
780.0818896337989
 20
2107.853468692164
 30
0.0
 11
776.4453621113886
 21
2107.853468692164
 31
0.0
  0
LINE
  5
14E
330
87
100
AcDbEntity
  8
P-SANR-FIXT
100
AcDbLine
 10
776.4453621113883
 20
2086.710553757045
 30
0.0
 11
780.0818896337989
 21
2086.710553757045
 31
0.0
  0
LWPOLYLINE
  5
14F
330
87
100
AcDbEntity
  8
P-SANR-FIXT
100
AcDbPolyline
 90
       41
 70
   128
 43
0.0
 10
776.4453621113883
 20
2086.710553757045
 10
776.3384625703622
 20
2086.712692032977
 10
776.2317340457977
 20
2086.719103439986
 10
776.1253472805667
 20
2086.729777721189
 10
776.0194724707986
 20
2086.744697800015
 10
775.9142789936041
 20
2086.763839807518
 10
775.8099351361062
 20
2086.787173120571
 10
775.7066078262182
 20
2086.814660410849
 10
775.6044623655941
 20
2086.846257704554
 10
775.5036621651806
 20
2086.881914452753
 10
775.4043684837962
 20
2086.921573612258
 10
775.3067401701489
 20
2086.965171736873
 10
775.2109334087143
 20
2087.0126390789
 10
775.1171014698735
 20
2087.063899700715
 10
775.0253944647121
 20
2087.11887159626
 10
774.9359591048748
 20
2087.177466822229
 10
774.8489384678593
 20
2087.23959163876
 10
774.7644717681213
 20
2087.305146659399
 10
774.6826941343615
 20
2087.374027010096
 10
774.6037363933493
 20
2087.446122496985
 10
774.5277248606266
 20
2087.521317782667
 10
774.4547811384311
 20
2087.599492570724
 10
774.3850219211578
 20
2087.680521798173
 10
774.3185588086731
 20
2087.764275835535
 10
774.2554981277788
 20
2087.850620694216
 10
774.1959407621123
 20
2087.939418240862
 10
774.1399819907536
 20
2088.030526418342
 10
774.0877113357996
 20
2088.123799473005
 10
774.0392124191479
 20
2088.219088187862
 10
773.9945628287192
 20
2088.316240121297
 10
773.9538339943337
 20
2088.415099850941
 10
773.9170910734376
 20
2088.515509222314
 10
773.8843928468666
 20
2088.617307601843
 10
773.855791624808
 20
2088.720332133835
 10
773.8313331631155
 20
2088.824418001018
 10
773.8110565901105
 20
2088.929398688208
 10
773.7949943439844
 20
2089.035106248698
 10
773.7831721209046
 20
2089.141371572943
 10
773.7756088339057
 20
2089.248024659093
 10
773.7723165826341
 20
2089.354894884962
 10
773.7721607890756
 20
2089.383755079358
  0
LWPOLYLINE
  5
150
330
87
100
AcDbEntity
  8
P-SANR-FIXT
100
AcDbPolyline
 90
       41
 70
   128
 43
0.0
 10
773.7721607890756
 20
2105.180267369851
 10
773.7742990650072
 20
2105.287166910877
 10
773.7807104720168
 20
2105.393895435442
 10
773.7913847532203
 20
2105.500282200673
 10
773.8063048320455
 20
2105.606157010441
 10
773.8254468395487
 20
2105.711350487636
 10
773.8487801526015
 20
2105.815694345134
 10
773.8762674428803
 20
2105.919021655021
 10
773.9078647365843
 20
2106.021167115645
 10
773.9435214847843
 20
2106.121967316059
 10
773.9831806442893
 20
2106.221260997443
 10
774.0267787689041
 20
2106.318889311091
 10
774.0742461109302
 20
2106.414696072525
 10
774.1255067327458
 20
2106.508528011366
 10
774.1804786282912
 20
2106.600235016528
 10
774.2390738542601
 20
2106.689670376365
 10
774.3011986707906
 20
2106.77669101338
 10
774.3667536914292
 20
2106.861157713118
 10
774.4356340421268
 20
2106.942935346878
 10
774.507729529016
 20
2107.021893087891
 10
774.5829248146975
 20
2107.097904620613
 10
774.6610996027547
 20
2107.170848342808
 10
774.7421288302038
 20
2107.240607560082
 10
774.8258828675655
 20
2107.307070672566
 10
774.9122277262468
 20
2107.370131353461
 10
775.0010252728932
 20
2107.429688719128
 10
775.0921334503722
 20
2107.485647490486
 10
775.1854065050357
 20
2107.537918145441
 10
775.2806952198931
 20
2107.586417062092
 10
775.3778471533279
 20
2107.631066652521
 10
775.4767068829711
 20
2107.671795486906
 10
775.5771162543444
 20
2107.708538407802
 10
775.6789146338732
 20
2107.741236634373
 10
775.7819391658658
 20
2107.769837856432
 10
775.8860250330485
 20
2107.794296318124
 10
775.9910057202378
 20
2107.814572891129
 10
776.0967132807287
 20
2107.830635137255
 10
776.2029786049743
 20
2107.842457360336
 10
776.3096316911243
 20
2107.850020647334
 10
776.4165019169926
 20
2107.853312898606
 10
776.4453621113886
 20
2107.853468692164
  0
LWPOLYLINE
  5
151
330
87
100
AcDbEntity
  8
P-SANR-FIXT
100
AcDbPolyline
 90
        5
 70
   128
 43
0.0
 10
773.7721607890756
 20
2089.383755079358
 10
773.7721607890756
 20
2089.390072841838
 10
773.7721607890756
 20
2089.409016022207
 10
773.7721607890756
 20
2089.440554315418
 10
773.7721607890756
 20
2089.484637266928
  0
LWPOLYLINE
  5
152
330
87
100
AcDbEntity
  8
P-SANR-FIXT
100
AcDbPolyline
 90
        6
 70
   128
 43
0.0
 10
773.7721607890756
 20
2105.081912061975
 10
773.7721607890756
 20
2105.101225544627
 10
773.7721607890756
 20
2105.139543197874
 10
773.7721607890756
 20
2105.165290476149
 10
773.7721607890756
 20
2105.178426189298
 10
773.7721607890756
 20
2105.180267369851
  0
LWPOLYLINE
  5
153
330
87
100
AcDbEntity
  8
P-SANR-FIXT
100
AcDbPolyline
 90
       80
 70
   128
 43
0.0
 10
773.7721607890756
 20
2105.180267369851
 10
773.7721607890756
 20
2105.173949607371
 10
773.7721607890756
 20
2105.155006427002
 10
773.7721607890756
 20
2105.123468133792
 10
773.7721607890756
 20
2105.079385182281
 10
773.7721607890756
 20
2105.02282809579
 10
773.7721607890756
 20
2104.953887353591
 10
773.7721607890756
 20
2104.872673246166
 10
773.7721607890756
 20
2104.77931569876
 10
773.7721607890756
 20
2104.673964063536
 10
773.7721607890756
 20
2104.556786880635
 10
773.7721607890756
 20
2104.427971608554
 10
773.7721607890756
 20
2104.287724324248
 10
773.7721607890756
 20
2104.136269393457
 10
773.7721607890756
 20
2103.973849111758
 10
773.7721607890756
 20
2103.800723316956
 10
773.7721607890756
 20
2103.61716897339
 10
773.7721607890756
 20
2103.423479728855
 10
773.7721607890756
 20
2103.219965444823
 10
773.7721607890756
 20
2103.006951700735
 10
773.7721607890756
 20
2102.78477927314
 10
773.7721607890756
 20
2102.553803590529
 10
773.7721607890756
 20
2102.314394164721
 10
773.7721607890756
 20
2102.066933999728
 10
773.7721607890756
 20
2101.811818979023
 10
773.7721607890756
 20
2101.549457232218
 10
773.7721607890756
 20
2101.280268482142
 10
773.7721607890756
 20
2101.004683373369
 10
773.7721607890756
 20
2100.723142783285
 10
773.7721607890756
 20
2100.436097116778
 10
773.7721607890756
 20
2100.144005585677
 10
773.7721607890756
 20
2099.847335474127
 10
773.7721607890756
 20
2099.546561391016
 10
773.7721607890756
 20
2099.242164510718
 10
773.7721607890756
 20
2098.934631803305
 10
773.7721607890756
 20
2098.624455255507
 10
773.7721607890756
 20
2098.312131083631
 10
773.7721607890756
 20
2097.998158939729
 10
773.7721607890756
 20
2097.683041112253
 10
773.7721607890756
 20
2097.367281722505
 10
773.7721607890756
 20
2097.05138591815
 10
773.7721607890756
 20
2096.735859065089
 10
773.7721607890756
 20
2096.421205938975
 10
773.7721607890756
 20
2096.107929917691
 10
773.7721607890756
 20
2095.796532176041
 10
773.7721607890756
 20
2095.487510883982
 10
773.7721607890756
 20
2095.181360409663
 10
773.7721607890756
 20
2094.878570528531
 10
773.7721607890756
 20
2094.579625639807
 10
773.7721607890756
 20
2094.285003991542
 10
773.7721607890756
 20
2093.995176915521
 10
773.7721607890756
 20
2093.710608073241
 10
773.7721607890756
 20
2093.431752714144
 10
773.7721607890756
 20
2093.15905694732
 10
773.7721607890756
 20
2092.892957027822
 10
773.7721607890756
 20
2092.633878658758
 10
773.7721607890756
 20
2092.38223631025
 10
773.7721607890756
 20
2092.138432556376
 10
773.7721607890756
 20
2091.902857431132
 10
773.7721607890756
 20
2091.675887804467
 10
773.7721607890756
 20
2091.457886779364
 10
773.7721607890756
 20
2091.249203110961
 10
773.7721607890756
 20
2091.050170648609
 10
773.7721607890756
 20
2090.86110780179
 10
773.7721607890756
 20
2090.682317030727
 10
773.7721607890756
 20
2090.514084362515
 10
773.7721607890756
 20
2090.356678933535
 10
773.7721607890756
 20
2090.210352558896
 10
773.7721607890756
 20
2090.075339329581
 10
773.7721607890756
 20
2089.951855237958
 10
773.7721607890756
 20
2089.84009783223
 10
773.7721607890756
 20
2089.740245900405
 10
773.7721607890756
 20
2089.652459184276
 10
773.7721607890756
 20
2089.57687812386
 10
773.7721607890756
 20
2089.513623632731
 10
773.7721607890756
 20
2089.462796904582
 10
773.7721607890756
 20
2089.424479251334
 10
773.7721607890756
 20
2089.39873197306
 10
773.7721607890756
 20
2089.385596259912
 10
773.7721607890756
 20
2089.383755079358
  0
LINE
  5
154
330
87
100
AcDbEntity
  8
P-SANR-FIXT
100
AcDbLine
 10
783.7721607890745
 20
2106.507419951638
 30
0.0
 11
783.7721607890745
 21
2107.853468692162
 31
0.0
  0
LINE
  5
155
330
87
100
AcDbEntity
  8
P-SANR-FIXT
100
AcDbLine
 10
802.170963502278
 20
2056.500000000036
 30
0.0
 11
802.170963502278
 21
2030.250000000036
 31
0.0
  0
LINE
  5
156
330
87
100
AcDbEntity
  8
P-SANR-FIXT
100
AcDbLine
 10
829.1618513840409
 20
2030.250000000036
 30
0.0
 11
829.1618513840409
 21
2056.500000000036
 31
0.0
  0
LINE
  5
157
330
87
100
AcDbEntity
  8
P-SANR-FIXT
100
AcDbLine
 10
805.6770455567555
 20
2113.500000000035
 30
0.0
 11
805.6770455567555
 21
2111.500000000035
 31
0.0
  0
LINE
  5
158
330
87
100
AcDbEntity
  8
P-SANR-FIXT
100
AcDbLine
 10
825.6557693295633
 20
2111.500000000035
 30
0.0
 11
825.6557693295633
 21
2113.500000000035
 31
0.0
  0
LINE
  5
159
330
87
100
AcDbEntity
  8
P-SANR-FIXT
100
AcDbLine
 10
802.1709635022768
 20
2030.250000000034
 30
0.0
 11
829.1618513840399
 21
2030.250000000034
 31
0.0
  0
LINE
  5
15A
330
87
100
AcDbEntity
  8
P-SANR-FIXT
100
AcDbLine
 10
805.6770455567543
 20
2113.500000000034
 30
0.0
 11
825.6557693295619
 21
2113.500000000034
 31
0.0
  0
ARC
  5
15B
330
87
100
AcDbEntity
  8
P-SANR-FIXT
100
AcDbCircle
 10
795.7721607890731
 20
2068.500000000035
 30
0.0
 40
12.0
100
AcDbArc
 50
180.0
 51
269.9999999999986
  0
LINE
  5
15C
330
87
100
AcDbEntity
  8
P-SANR-FIXT
100
AcDbLine
 10
795.7721607890729
 20
2056.500000000035
 30
0.0
 11
852.6645435890127
 21
2056.500000000035
 31
0.0
  0
ARC
  5
15D
330
87
100
AcDbEntity
  8
P-SANR-FIXT
100
AcDbCircle
 10
852.6645435890129
 20
2094.501863854176
 30
0.0
 40
38.00186385414159
100
AcDbArc
 50
269.9999999999989
 51
359.9999999999988
  0
LINE
  5
15E
330
87
100
AcDbEntity
  8
P-SANR-FIXT
100
AcDbLine
 10
890.6664074431544
 20
2094.501863854176
 30
0.0
 11
890.6664074431544
 21
2098.841609353243
 31
0.0
  0
ARC
  5
15F
330
87
100
AcDbEntity
  8
P-SANR-FIXT
100
AcDbCircle
 10
898.6879137657993
 20
1826.911670114674
 30
0.0
 40
272.0482244345224
100
AcDbArc
 50
91.68964557857796
 51
107.7685133675303
  0
ARC
  5
160
330
87
100
AcDbEntity
  8
P-SANR-FIXT
100
AcDbCircle
 10
786.7013439132913
 20
2176.368679590513
 30
0.0
 40
94.91388982133321
100
AcDbArc
 50
268.2314866324242
 51
287.7685133675289
  0
LINE
  5
161
330
87
100
AcDbEntity
  8
P-SANR-FIXT
100
AcDbLine
 10
783.7721607890731
 20
2081.500000000035
 30
0.0
 11
783.7721607890731
 21
2068.500000000035
 31
0.0
  0
LINE
  5
162
330
87
100
AcDbEntity
  8
P-SANR-FIXT
100
AcDbLine
 10
885.6664074431579
 20
2111.500000000035
 30
0.0
 11
815.666407443158
 21
2111.500000000035
 31
0.0
  0
LINE
  5
163
330
87
100
AcDbEntity
  8
P-SANR-FIXT
100
AcDbLine
 10
815.666407443158
 20
2111.500000000035
 30
0.0
 11
788.7721607890743
 21
2111.500000000035
 31
0.0
  0
ARC
  5
164
330
87
100
AcDbEntity
  8
P-SANR-FIXT
100
AcDbCircle
 10
788.7721607890743
 20
2106.500000000035
 30
0.0
 40
5.0
100
AcDbArc
 50
90.0
 51
180.0
  0
LINE
  5
165
330
87
100
AcDbEntity
  8
P-SANR-FIXT
100
AcDbLine
 10
783.7721607890744
 20
2106.500000000035
 30
0.0
 11
783.7721607890744
 21
2081.500000000035
 31
0.0
  0
ARC
  5
166
330
87
100
AcDbEntity
  8
P-SANR-FIXT
100
AcDbCircle
 10
786.7013439132985
 20
2176.368679590458
 30
0.0
 40
94.91388982127771
100
AcDbArc
 50
268.2314866324188
 51
287.7685133675699
  0
ARC
  5
167
330
87
100
AcDbEntity
  8
P-SANR-FIXT
100
AcDbCircle
 10
898.687913765476
 20
1826.911670116527
 30
0.0
 40
272.0482244326592
100
AcDbArc
 50
91.68964557852143
 51
107.768513367573
  0
LINE
  5
168
330
87
100
AcDbEntity
  8
P-SANR-FIXT
100
AcDbLine
 10
890.666407443158
 20
2098.841609353243
 30
0.0
 11
890.666407443158
 21
2106.500000000034
 31
0.0
  0
ARC
  5
169
330
87
100
AcDbEntity
  8
P-SANR-FIXT
100
AcDbCircle
 10
885.6664074431579
 20
2106.500000000034
 30
0.0
 40
5.0
100
AcDbArc
 50
0.0
 51
90.0
  0
LWPOLYLINE
  5
16A
330
87
100
AcDbEntity
  8
P-SANR-FIXT
100
AcDbPolyline
 90
        8
 70
   128
 43
0.0
 10
761.9597672029742
 20
1894.179999999996
 10
741.3547404137366
 20
1895.231078302601
 10
727.9629279232466
 20
1897.854637828593
 10
719.3070464756825
 20
1901.475913359914
 10
713.6808695079533
 20
1905.764154047134
 10
709.8792718519095
 20
1910.766824990637
 10
707.4727340250863
 20
1916.52174580496
 10
706.0557711703621
 20
1923.666368975627
  0
LWPOLYLINE
  5
16B
330
87
100
AcDbEntity
  8
P-SANR-FIXT
100
AcDbPolyline
 90
       10
 70
   128
 43
0.0
 10
761.9597672029742
 20
1898.179999999996
 10
741.5321531471496
 20
1899.236689056982
 10
728.5368645126369
 20
1901.875808311046
 10
720.3946284936761
 20
1905.489723367474
 10
717.7859719299024
 20
1907.37550365654
 10
715.7220361098149
 20
1909.383463388196
 10
714.0643530362492
 20
1911.561982507642
 10
711.6519144863501
 20
1916.611568427272
 10
710.4188219623406
 20
1921.519148377668
 10
710.0259557769275
 20
1924.153846349248
  0
LINE
  5
16C
330
87
100
AcDbEntity
  8
P-SANR-FIXT
100
AcDbLine
 10
761.9597672029742
 20
1893.679999999996
 30
0.0
 11
763.9597672029741
 21
1893.679999999996
 31
0.0
  0
LINE
  5
16D
330
87
100
AcDbEntity
  8
P-SANR-FIXT
100
AcDbLine
 10
763.9597672029741
 20
1898.679999999996
 30
0.0
 11
761.9597672029742
 21
1898.679999999996
 31
0.0
  0
LINE
  5
16E
330
87
100
AcDbEntity
  8
P-SANR-FIXT
100
AcDbLine
 10
763.9597672029741
 20
1893.679999999996
 30
0.0
 11
772.1897672029743
 21
1892.228828948765
 31
0.0
  0
LINE
  5
16F
330
87
100
AcDbEntity
  8
P-SANR-FIXT
100
AcDbLine
 10
772.1897672029743
 20
1900.131171051226
 30
0.0
 11
763.9597672029741
 21
1898.679999999996
 31
0.0
  0
LINE
  5
170
330
87
100
AcDbEntity
  8
P-SANR-FIXT
100
AcDbLine
 10
772.1897672029743
 20
1892.228828948765
 30
0.0
 11
793.4004518191893
 21
1892.228828948765
 31
0.0
  0
LINE
  5
171
330
87
100
AcDbEntity
  8
P-SANR-FIXT
100
AcDbLine
 10
793.4197672029742
 20
1900.131171051226
 30
0.0
 11
772.1897672029743
 21
1900.131171051226
 31
0.0
  0
LINE
  5
172
330
87
100
AcDbEntity
  8
P-SANR-FIXT
100
AcDbLine
 10
708.0408634736436
 20
1923.910107662437
 30
0.0
 11
710.0259557769261
 21
1924.153846349247
 31
0.0
  0
LINE
  5
173
330
87
100
AcDbEntity
  8
P-SANR-FIXT
100
AcDbLine
 10
706.055771170361
 20
1923.666368975626
 30
0.0
 11
708.0408634736436
 21
1923.910107662437
 31
0.0
  0
LINE
  5
174
330
87
100
AcDbEntity
  8
P-SANR-FIXT
100
AcDbLine
 10
761.959767202973
 20
1893.679999999995
 30
0.0
 11
761.959767202973
 21
1898.679999999995
 31
0.0
  0
LINE
  5
175
330
87
100
AcDbEntity
  8
P-SANR-FIXT
100
AcDbLine
 10
763.9597672029728
 20
1893.679999999995
 30
0.0
 11
763.9597672029728
 21
1898.679999999995
 31
0.0
  0
LINE
  5
176
330
87
100
AcDbEntity
  8
P-SANR-FIXT
100
AcDbLine
 10
772.189767202973
 20
1892.228828948764
 30
0.0
 11
772.189767202973
 21
1900.131171051225
 31
0.0
  0
LINE
  5
177
330
87
100
AcDbEntity
  8
P-SANR-FIXT
100
AcDbLine
 10
793.419767202973
 20
1892.436516723914
 30
0.0
 11
793.419767202973
 21
1900.129369680317
 31
0.0
  0
ARC
  5
178
330
87
100
AcDbEntity
  8
P-SANR-FIXT
100
AcDbCircle
 10
815.6664074431581
 20
1886.499999999986
 30
0.0
 40
22.50000000000011
100
AcDbArc
 50
90.0
 51
269.9999999999993
  0
ARC
  5
179
330
87
100
AcDbEntity
  8
P-SANR-FIXT
100
AcDbCircle
 10
815.6664074431581
 20
1886.499999999986
 30
0.0
 40
22.50000000000028
100
AcDbArc
 50
269.9999999999995
 51
89.99999999999898
  0
ARC
  5
17A
330
87
100
AcDbEntity
  8
P-SANR-FIXT
100
AcDbCircle
 10
815.6664074431581
 20
1886.499999999986
 30
0.0
 40
23.00000000000011
100
AcDbArc
 50
269.9999999999991
 51
0.0
  0
ARC
  5
17B
330
87
100
AcDbEntity
  8
P-SANR-FIXT
100
AcDbCircle
 10
815.6664074431581
 20
1886.499999999986
 30
0.0
 40
22.99999999999989
100
AcDbArc
 50
180.0
 51
269.9999999999985
  0
ARC
  5
17C
330
87
100
AcDbEntity
  8
P-SANR-FIXT
100
AcDbCircle
 10
815.6664074431581
 20
1886.499999999986
 30
0.0
 40
22.99999999999989
100
AcDbArc
 50
90.00000000000058
 51
180.0
  0
ARC
  5
17D
330
87
100
AcDbEntity
  8
P-SANR-FIXT
100
AcDbCircle
 10
815.6664074431581
 20
1886.499999999986
 30
0.0
 40
23.00000000000025
100
AcDbArc
 50
0.0000000000004198
 51
90.00000000000042
  0
LINE
  5
17E
330
87
100
AcDbEntity
  8
P-SANR-FIXT
100
AcDbLine
 10
788.1664074431595
 20
1969.999999999996
 30
0.0
 11
792.1664074431594
 21
1969.999999999996
 31
0.0
  0
LINE
  5
17F
330
87
100
AcDbEntity
  8
P-SANR-FIXT
100
AcDbLine
 10
803.1664074431596
 20
2029.999999999997
 30
0.0
 11
788.1664074431596
 21
2029.999999999997
 31
0.0
  0
LINE
  5
180
330
87
100
AcDbEntity
  8
P-SANR-FIXT
100
AcDbLine
 10
847.096270967234
 20
1970.912844257248
 30
0.0
 11
847.6364532272926
 21
1977.087155742744
 31
0.0
  0
LINE
  5
181
330
87
100
AcDbEntity
  8
P-SANR-FIXT
100
AcDbLine
 10
847.6364532272928
 20
2022.912844257248
 30
0.0
 11
847.096270967234
 21
2029.087155742743
 31
0.0
  0
LINE
  5
182
330
87
100
AcDbEntity
  8
P-SANR-FIXT
100
AcDbLine
 10
847.7072434193583
 20
1977.896291340576
 30
0.0
 11
850.6201161025796
 21
1977.896291340576
 31
0.0
  0
LINE
  5
183
330
87
100
AcDbEntity
  8
P-SANR-FIXT
100
AcDbLine
 10
850.6201161025796
 20
2022.103708659416
 30
0.0
 11
847.7072434193585
 21
2022.103708659416
 31
0.0
  0
LINE
  5
184
330
87
100
AcDbEntity
  8
P-SANR-FIXT
100
AcDbLine
 10
839.1664074431597
 20
1969.999999999996
 30
0.0
 11
846.1000762691423
 21
1969.999999999996
 31
0.0
  0
LINE
  5
185
330
87
100
AcDbEntity
  8
P-SANR-FIXT
100
AcDbLine
 10
846.1000762691423
 20
2029.999999999995
 30
0.0
 11
828.1664074431596
 21
2029.999999999996
 31
0.0
  0
LINE
  5
186
330
87
100
AcDbEntity
  8
P-SANR-FIXT
100
AcDbLine
 10
850.6201161025796
 20
1977.896291340576
 30
0.0
 11
852.6664074431597
 21
1975.849999999996
 31
0.0
  0
LINE
  5
187
330
87
100
AcDbEntity
  8
P-SANR-FIXT
100
AcDbLine
 10
852.6664074431597
 20
2024.149999999996
 30
0.0
 11
850.6201161025796
 21
2022.103708659416
 31
0.0
  0
LWPOLYLINE
  5
188
330
87
100
AcDbEntity
  8
P-SANR-FIXT
100
AcDbPolyline
 90
       39
 70
   128
 43
0.0
 10
846.1000762691423
 20
2029.999999999995
 10
846.1400656033291
 20
2029.999200106656
 10
846.1799909631114
 20
2029.996801706298
 10
846.2197884764314
 20
2029.992808635849
 10
846.2593944757566
 20
2029.987227283371
 10
846.2987455999375
 20
2029.980066577837
 10
846.3377788955694
 20
2029.971337974847
 10
846.3764319177064
 20
2029.961055438306
 10
846.4146428297587
 20
2029.949235418078
 10
846.4523505024176
 20
2029.935896823674
 10
846.489494611451
 20
2029.921060993999
 10
846.5260157342083
 20
2029.904751663216
 10
846.5618554446837
 20
2029.886994922775
 10
846.596956406986
 20
2029.867819179673
 10
846.6312624670633
 20
2029.847255111009
 10
846.6647187425374
 20
2029.825335614905
 10
846.6972717105047
 20
2029.80209575788
 10
846.7288692931607
 20
2029.777572718747
 10
846.759460941114
 20
2029.751805729136
 10
846.788997714253
 20
2029.724836010737
 10
846.8174323600418
 20
2029.696706709343
 10
846.8447193891131
 20
2029.667462825837
 10
846.8708151480413
 20
2029.637151144195
 10
846.8956778891788
 20
2029.605820156639
 10
846.9192678374433
 20
2029.573519986068
 10
846.9415472539502
 20
2029.540302305864
 10
846.9624804963856
 20
2029.506220257228
 10
846.9820340760273
 20
2029.47132836417
 10
847.000176711319
 20
2029.435682446273
 10
847.0168793779141
 20
2029.399339529402
 10
847.0321153551095
 20
2029.362357754473
 10
847.0458602685919
 20
2029.324796284434
 10
847.0580921294315
 20
2029.286715209627
 10
847.0687913692605
 20
2029.248175451648
 10
847.0779408715777
 20
2029.209238665887
 10
847.0855259991308
 20
2029.169967142896
 10
847.091534617334
 20
2029.130423708734
 10
847.09595711368
 20
2029.09067162446
 10
847.096270967234
 20
2029.087155742743
  0
LWPOLYLINE
  5
189
330
87
100
AcDbEntity
  8
P-SANR-FIXT
100
AcDbPolyline
 90
       39
 70
   128
 43
0.0
 10
847.096270967234
 20
1970.912844257248
 10
847.0919888176075
 20
1970.873076809849
 10
847.0861198195004
 20
1970.833512412479
 10
847.0786733620572
 20
1970.794214359733
 10
847.0696613580219
 20
1970.755245520114
 10
847.0590982246779
 20
1970.71666823545
 10
847.0470008607858
 20
1970.678544221169
 10
847.0333886195465
 20
1970.640934467561
 10
847.0182832776428
 20
1970.603899142208
 10
847.0017090003992
 20
1970.56749749373
 10
846.9836923031234
 20
1970.531787757
 10
846.9642620086883
 20
1970.496827059979
 10
846.9434492014194
 20
1970.462671332324
 10
846.921287177369
 20
1970.429375215913
 10
846.8978113910477
 20
1970.39699197743
 10
846.8730593987059
 20
1970.365573423148
 10
846.8470707982509
 20
1970.335169816053
 10
846.8198871658998
 20
1970.305829795428
 10
846.7915519896651
 20
1970.27760029905
 10
846.7621105997848
 20
1970.250526488088
 10
846.7316100962019
 20
1970.224651674867
 10
846.7000992732156
 20
1970.200017253567
 10
846.6676285414209
 20
1970.176662634008
 10
846.634249847062
 20
1970.154625178599
 10
846.6000165889292
 20
1970.133940142566
 10
846.5649835329333
 20
1970.114640617556
 10
846.5292067244901
 20
1970.096757478691
 10
846.4927433988613
 20
1970.080319335179
 10
846.4556518895893
 20
1970.065352484542
 10
846.4179915351767
 20
1970.051880870549
 10
846.379822584157
 20
1970.039926044909
 10
846.341206098709
 20
1970.029507132792
 10
846.3022038569722
 20
1970.020640802235
 10
846.2628782542132
 20
1970.013341237476
 10
846.223292203007
 20
1970.007620116261
 10
846.1835090325916
 20
1970.003486591163
 10
846.1435923875527
 20
1970.000947274941
 10
846.103606126007
 20
1970.00000622996
 10
846.1000762691423
 20
1969.999999999996
  0
LINE
  5
18A
330
87
100
AcDbEntity
  8
P-SANR-FIXT
100
AcDbLine
 10
803.1664074431596
 20
2030.250000000036
 30
0.0
 11
803.1664074431596
 21
2029.999999999997
 31
0.0
  0
LINE
  5
18B
330
87
100
AcDbEntity
  8
P-SANR-FIXT
100
AcDbLine
 10
828.1664074431596
 20
2029.999999999996
 30
0.0
 11
828.1664074431596
 21
2030.250000000036
 31
0.0
  0
LINE
  5
18C
330
87
100
AcDbEntity
  8
P-SANR-FIXT
100
AcDbLine
 10
792.1664074431594
 20
1969.999999999996
 30
0.0
 11
792.1664074431594
 21
1954.999999999996
 31
0.0
  0
LINE
  5
18D
330
87
100
AcDbEntity
  8
P-SANR-FIXT
100
AcDbLine
 10
839.1664074431597
 20
1954.999999999996
 30
0.0
 11
839.1664074431597
 21
1969.999999999996
 31
0.0
  0
LINE
  5
18E
330
87
100
AcDbEntity
  8
P-SANR-FIXT
100
AcDbLine
 10
792.1664074431594
 20
1954.999999999996
 30
0.0
 11
793.1664074431597
 21
1953.999999999996
 31
0.0
  0
LINE
  5
18F
330
87
100
AcDbEntity
  8
P-SANR-FIXT
100
AcDbLine
 10
838.1664074431594
 20
1953.999999999996
 30
0.0
 11
839.1664074431597
 21
1954.999999999996
 31
0.0
  0
LINE
  5
190
330
87
100
AcDbEntity
  8
P-SANR-FIXT
100
AcDbLine
 10
788.1664074431585
 20
2029.999999999995
 30
0.0
 11
788.1664074431583
 21
1969.999999999994
 31
0.0
  0
SPLINE
  5
191
330
87
100
AcDbEntity
  8
P-SANR-FIXT
100
AcDbSpline
210
0.0
220
0.0
230
1.0
 70
     8
 71
     3
 72
    22
 73
    18
 74
     0
 42
0.000000001
 43
0.0000000001
 40
0.0
 40
0.0
 40
0.0
 40
0.0
 40
0.1666666666666666
 40
0.25
 40
0.2916666666666666
 40
0.3333333333333333
 40
0.5
 40
0.5833333333333333
 40
0.625
 40
0.6666666666666666
 40
0.7083333333333333
 40
0.75
 40
0.7916666666666666
 40
0.8333333333333332
 40
0.875
 40
0.9166666666666666
 40
1.0
 40
1.0
 40
1.0
 40
1.0
 10
792.1664074431583
 20
1969.999999999994
 30
0.0
 10
792.1902504351809
 20
1969.999999999994
 30
0.0
 10
792.5591160306766
 20
1970.313701440978
 30
0.0
 10
793.6375590804119
 20
1971.139714330823
 30
0.0
 10
794.4187435415893
 20
1971.725825107339
 30
0.0
 10
795.7040423488836
 20
1972.696750011625
 30
0.0
 10
797.6302923684055
 20
1974.080306706882
 30
0.0
 10
799.8986259014415
 20
1975.594253232292
 30
0.0
 10
801.3053129653439
 20
1976.474478603693
 30
0.0
 10
802.4057743544579
 20
1977.12297835288
 30
0.0
 10
803.5534953302802
 20
1977.767880412754
 30
0.0
 10
804.7513023289756
 20
1978.408175015679
 30
0.0
 10
805.9967023253296
 20
1979.017840953744
 30
0.0
 10
807.2882452093757
 20
1979.570502095817
 30
0.0
 10
808.625628671534
 20
1980.056915746731
 30
0.0
 10
810.4715630174624
 20
1980.632454561412
 30
0.0
 10
811.92615470315
 20
1980.97068146892
 30
0.0
 10
812.9271073519035
 20
1981.151823297992
 30
0.0
  0
SPLINE
  5
192
330
87
100
AcDbEntity
  8
P-SANR-FIXT
100
AcDbSpline
210
0.0
220
0.0
230
1.0
 70
     8
 71
     3
 72
    12
 73
     8
 74
     0
 42
0.000000001
 43
0.0000000001
 40
0.0
 40
0.0
 40
0.0
 40
0.0
 40
0.1666666666666666
 40
0.3333333333333333
 40
0.6666666666666666
 40
0.8333333333333332
 40
1.0
 40
1.0
 40
1.0
 40
1.0
 10
812.9271073519035
 20
2027.409008829027
 30
0.0
 10
811.9922861664804
 20
2027.505620305417
 30
0.0
 10
810.2254014983248
 20
2027.770890237167
 30
0.0
 10
807.0393726033756
 20
2028.540555693655
 30
0.0
 10
804.6597610327818
 20
2029.395344089854
 30
0.0
 10
803.3829683900329
 20
2029.907828389561
 30
0.0
 10
803.1708118743067
 20
2029.999999999995
 30
0.0
 10
803.1664074431583
 20
2029.999999999995
 30
0.0
  0
LINE
  5
193
330
87
100
AcDbEntity
  8
P-SANR-FIXT
100
AcDbLine
 10
852.6664074431584
 20
2024.145722408793
 30
0.0
 11
852.6664074431584
 21
2022.616802171427
 31
0.0
  0
LINE
  5
194
330
87
100
AcDbEntity
  8
P-SANR-FIXT
100
AcDbLine
 10
852.6664074431582
 20
2001.566667855304
 30
0.0
 11
852.6664074431582
 21
1998.43333214468
 31
0.0
  0
LINE
  5
195
330
87
100
AcDbEntity
  8
P-SANR-FIXT
100
AcDbLine
 10
852.6664074431582
 20
1977.383197828473
 30
0.0
 11
852.6664074431582
 21
1975.854277591217
 31
0.0
  0
LINE
  5
196
330
87
100
AcDbEntity
  8
P-SANR-FIXT
100
AcDbLine
 10
847.7072434193571
 20
2022.103708659415
 30
0.0
 11
847.7072434193569
 21
1977.896291340575
 31
0.0
  0
SPLINE
  5
197
330
87
100
AcDbEntity
  8
P-SANR-FIXT
100
AcDbSpline
210
0.0
220
0.0
230
1.0
 70
     8
 71
     3
 72
    14
 73
    10
 74
     0
 42
0.000000001
 43
0.0000000001
 40
0.0
 40
0.0
 40
0.0
 40
0.0
 40
0.125
 40
0.25
 40
0.5
 40
0.625
 40
0.75
 40
0.875
 40
1.0
 40
1.0
 40
1.0
 40
1.0
 10
828.1664074431583
 20
2029.999999999995
 30
0.0
 10
828.1621193002205
 20
2029.999999999995
 30
0.0
 10
827.9529655043964
 20
2029.909186907151
 30
0.0
 10
826.695645514486
 20
2029.404217848722
 30
0.0
 10
824.3449675402933
 20
2028.557674014404
 30
0.0
 10
821.2090031385029
 20
2027.792974143091
 30
0.0
 10
818.5597879524342
 20
2027.378504864958
 30
0.0
 10
815.7216668116372
 20
2027.222201956806
 30
0.0
 10
813.8620199249016
 20
2027.316607815714
 30
0.0
 10
812.9271073519035
 20
2027.409008829026
 30
0.0
  0
SPLINE
  5
198
330
87
100
AcDbEntity
  8
P-SANR-FIXT
100
AcDbSpline
210
0.0
220
0.0
230
1.0
 70
     8
 71
     3
 72
    27
 73
    23
 74
     0
 42
0.000000001
 43
0.0000000001
 40
0.0
 40
0.0
 40
0.0
 40
0.0
 40
0.0714285714285714
 40
0.1071428571428571
 40
0.1428571428571428
 40
0.1785714285714286
 40
0.2142857142857143
 40
0.25
 40
0.2678571428571428
 40
0.2857142857142857
 40
0.3035714285714286
 40
0.3214285714285714
 40
0.3571428571428571
 40
0.3928571428571428
 40
0.4285714285714286
 40
0.4642857142857144
 40
0.5
 40
0.5714285714285714
 40
0.7142857142857143
 40
0.7857142857142856
 40
0.8571428571428571
 40
1.0
 40
1.0
 40
1.0
 40
1.0
 10
812.9271073519035
 20
1981.151823297992
 30
0.0
 10
813.9469802288283
 20
1981.277773116269
 30
0.0
 10
815.4517158379332
 20
1981.364868692795
 30
0.0
 10
817.4096156128953
 20
1981.270983800315
 30
0.0
 10
818.850367174754
 20
1981.102509886264
 30
0.0
 10
820.2773098036793
 20
1980.813795406089
 30
0.0
 10
821.6879656035313
 20
1980.412915850661
 30
0.0
 10
822.8328920733257
 20
1980.018281847765
 30
0.0
 10
823.7231012277604
 20
1979.68016018246
 30
0.0
 10
824.3748576913171
 20
1979.42154142056
 30
0.0
 10
825.0122649964795
 20
1979.15235366613
 30
0.0
 10
825.8477029135486
 20
1978.770853763876
 30
0.0
 10
826.8624881574151
 20
1978.264574293709
 30
0.0
 10
828.0334179211962
 20
1977.628525000361
 30
0.0
 10
829.1557789021856
 20
1976.989335730082
 30
0.0
 10
830.2327489431023
 20
1976.347743547293
 30
0.0
 10
831.609340240934
 20
1975.479921684885
 30
0.0
 10
833.8308704687394
 20
1973.990402659626
 30
0.0
 10
835.9729083940377
 20
1972.44260843257
 30
0.0
 10
837.5764739374156
 20
1971.228089307797
 30
0.0
 10
838.7865339545234
 20
1970.305017549378
 30
0.0
 10
839.1436204714446
 20
1969.999999999995
 30
0.0
 10
839.1664074431584
 20
1969.999999999995
 30
0.0
  0
LINE
  5
199
330
87
100
AcDbEntity
  8
P-SANR-FIXT
100
AcDbLine
 10
850.6201161025781
 20
1977.896291340575
 30
0.0
 11
850.6201161025783
 21
2022.103708659415
 31
0.0
  0
LINE
  5
19A
330
87
100
AcDbEntity
  8
P-SANR-FIXT
100
AcDbLine
 10
847.6364532272913
 20
1977.087155742743
 30
0.0
 11
847.6364532272915
 21
2022.912844257247
 31
0.0
  0
LINE
  5
19B
330
87
100
AcDbEntity
  8
P-SANR-FIXT
100
AcDbLine
 10
792.1664074431583
 20
1954.999999999995
 30
0.0
 11
839.1664074431584
 21
1954.999999999995
 31
0.0
  0
LINE
  5
19C
330
87
100
AcDbEntity
  8
P-SANR-FIXT
100
AcDbLine
 10
838.1664074431579
 20
1953.999999999995
 30
0.0
 11
793.1664074431584
 21
1953.999999999995
 31
0.0
  0
ENDBLK
  5
19E
330
87
100
AcDbEntity
  8
0
100
AcDbBlockEnd
  0
BLOCK
  5
2AE
330
1A0
100
AcDbEntity
  8
0
100
AcDbBlockBegin
  2
Automatic flow rate regulator valve_Caleffi_121 DN15 - 1_2__-V1-Est - Idraulica
 70
     0
 10
0.0
 20
0.0
 30
0.0
  3
Automatic flow rate regulator valve_Caleffi_121 DN15 - 1_2__-V1-Est - Idraulica
  1

  0
LINE
  5
1A1
330
1A0
100
AcDbEntity
  8
P-SANR-FIXT
100
AcDbLine
 10
1075.914353943185
 20
1953.982558850011
 30
0.0
 11
1075.914353943185
 21
1940.099095421356
 31
0.0
  0
LINE
  5
1A2
330
1A0
100
AcDbEntity
  8
P-SANR-FIXT
100
AcDbLine
 10
1118.314353943014
 20
1940.099095421356
 30
0.0
 11
1118.314353943014
 21
1953.982558850011
 31
0.0
  0
LINE
  5
1A3
330
1A0
100
AcDbEntity
  8
P-SANR-FIXT
100
AcDbLine
 10
1073.214353943105
 20
1920.099095421371
 30
0.0
 11
1073.214353943105
 21
1917.482554638356
 31
0.0
  0
LINE
  5
1A4
330
1A0
100
AcDbEntity
  8
P-SANR-FIXT
100
AcDbLine
 10
1121.014353943095
 20
1917.482554638356
 30
0.0
 11
1121.014353943095
 21
1920.099095421371
 31
0.0
  0
LINE
  5
1A5
330
1A0
100
AcDbEntity
  8
P-SANR-FIXT
100
AcDbLine
 10
1074.864353943099
 20
1917.482554638356
 30
0.0
 11
1074.864353943099
 21
1878.98255884994
 31
0.0
  0
LINE
  5
1A6
330
1A0
100
AcDbEntity
  8
P-SANR-FIXT
100
AcDbLine
 10
1119.3643539431
 20
1894.482558850002
 30
0.0
 11
1119.3643539431
 21
1917.482554638356
 31
0.0
  0
LINE
  5
1A7
330
1A0
100
AcDbEntity
  8
P-SANR-FIXT
100
AcDbLine
 10
1119.840526787909
 20
1878.482558850002
 30
0.0
 11
1124.104450670915
 21
1878.482558850002
 31
0.0
  0
LINE
  5
1A8
330
1A0
100
AcDbEntity
  8
P-SANR-FIXT
100
AcDbLine
 10
1124.104450670915
 20
1894.482558850002
 30
0.0
 11
1119.3643539431
 21
1894.482558850002
 31
0.0
  0
LINE
  5
1A9
330
1A0
100
AcDbEntity
  8
P-SANR-FIXT
100
AcDbLine
 10
1084.964628780818
 20
1920.099095421434
 30
0.0
 11
1082.246703227118
 21
1920.099095421434
 31
0.0
  0
LINE
  5
1AA
330
1A0
100
AcDbEntity
  8
P-SANR-FIXT
100
AcDbLine
 10
1111.982004658847
 20
1920.099095421434
 30
0.0
 11
1109.264079105657
 21
1920.099095421434
 31
0.0
  0
LINE
  5
1AB
330
1A0
100
AcDbEntity
  8
P-SANR-FIXT
100
AcDbLine
 10
1073.214353943103
 20
1917.482554638355
 30
0.0
 11
1095.113864456024
 21
1917.482554638355
 31
0.0
  0
LINE
  5
1AC
330
1A0
100
AcDbEntity
  8
P-SANR-FIXT
100
AcDbLine
 10
1099.114843430173
 20
1917.482554638355
 30
0.0
 11
1121.014353943094
 21
1917.482554638355
 31
0.0
  0
SPLINE
  5
1AD
330
1A0
100
AcDbEntity
  8
P-SANR-FIXT
100
AcDbSpline
210
0.0
220
0.0
230
1.0
 70
     8
 71
     3
 72
    10
 73
     6
 74
     0
 42
0.000000001
 43
0.0000000001
 40
0.0
 40
0.0
 40
0.0
 40
0.0
 40
0.5
 40
0.75
 40
1.0
 40
1.0
 40
1.0
 40
1.0
 10
1119.18950966171
 20
1878.982558849938
 30
0.0
 10
1119.057803563941
 20
1879.374172434505
 30
0.0
 10
1118.767730863701
 20
1880.254266291656
 30
0.0
 10
1118.355774013429
 20
1881.929443929104
 30
0.0
 10
1118.180589224157
 20
1882.885278484565
 30
0.0
 10
1118.104450670976
 20
1883.396840028454
 30
0.0
  0
SPLINE
  5
1AE
330
1A0
100
AcDbEntity
  8
P-SANR-FIXT
100
AcDbSpline
210
0.0
220
0.0
230
1.0
 70
     8
 71
     3
 72
    11
 73
     7
 74
     0
 42
0.000000001
 43
0.0000000001
 40
0.0
 40
0.0
 40
0.0
 40
0.0
 40
0.2
 40
0.4
 40
0.7
 40
1.0
 40
1.0
 40
1.0
 40
1.0
 10
1118.104450670976
 20
1889.568277671549
 30
0.0
 10
1118.191974627783
 20
1890.154284856205
 30
0.0
 10
1118.396121972109
 20
1891.236085381817
 30
0.0
 10
1118.813752783377
 20
1892.849971817552
 30
0.0
 10
1119.237157465488
 20
1894.139104328876
 30
0.0
 10
1119.364353943099
 20
1894.478113739631
 30
0.0
 10
1119.364353943099
 20
1894.482558850002
 30
0.0
  0
LINE
  5
1AF
330
1A0
100
AcDbEntity
  8
P-SANR-FIXT
100
AcDbLine
 10
1074.864353943097
 20
1878.982558849939
 30
0.0
 11
1074.944098285429
 21
1878.982558849939
 31
0.0
  0
LINE
  5
1B0
330
1A0
100
AcDbEntity
  8
P-SANR-FIXT
100
AcDbLine
 10
1075.000138910064
 20
1878.982558849939
 30
0.0
 11
1075.171665404408
 21
1878.982558849939
 31
0.0
  0
LINE
  5
1B1
330
1A0
100
AcDbEntity
  8
P-SANR-FIXT
100
AcDbLine
 10
1075.303295753982
 20
1878.982558849939
 30
0.0
 11
1075.55453919279
 21
1878.982558849939
 31
0.0
  0
LINE
  5
1B2
330
1A0
100
AcDbEntity
  8
P-SANR-FIXT
100
AcDbLine
 10
1075.757083605836
 20
1878.982558849939
 30
0.0
 11
1076.190518455811
 21
1878.982558849939
 31
0.0
  0
LINE
  5
1B3
330
1A0
100
AcDbEntity
  8
P-SANR-FIXT
100
AcDbLine
 10
1076.357622457861
 20
1878.982558849939
 30
0.0
 11
1076.933508231403
 21
1878.982558849939
 31
0.0
  0
LINE
  5
1B4
330
1A0
100
AcDbEntity
  8
P-SANR-FIXT
100
AcDbLine
 10
1077.831719459649
 20
1878.982558849939
 30
0.0
 11
1078.878093552825
 21
1878.982558849939
 31
0.0
  0
LINE
  5
1B5
330
1A0
100
AcDbEntity
  8
P-SANR-FIXT
100
AcDbLine
 10
1079.113725818255
 20
1878.982558849939
 30
0.0
 11
1080.06438403798
 21
1878.982558849939
 31
0.0
  0
LINE
  5
1B6
330
1A0
100
AcDbEntity
  8
P-SANR-FIXT
100
AcDbLine
 10
1080.195321208497
 20
1878.982558849939
 30
0.0
 11
1082.664134867751
 21
1878.982558849939
 31
0.0
  0
LINE
  5
1B7
330
1A0
100
AcDbEntity
  8
P-SANR-FIXT
100
AcDbLine
 10
1082.808183894407
 20
1878.982558849939
 30
0.0
 11
1084.03613207959
 21
1878.982558849939
 31
0.0
  0
LINE
  5
1B8
330
1A0
100
AcDbEntity
  8
P-SANR-FIXT
100
AcDbLine
 10
1084.345715796414
 20
1878.982558849939
 30
0.0
 11
1085.759893030092
 21
1878.982558849939
 31
0.0
  0
LINE
  5
1B9
330
1A0
100
AcDbEntity
  8
P-SANR-FIXT
100
AcDbLine
 10
1085.981900126896
 20
1878.982558849939
 30
0.0
 11
1087.013065323893
 21
1878.982558849939
 31
0.0
  0
LINE
  5
1BA
330
1A0
100
AcDbEntity
  8
P-SANR-FIXT
100
AcDbLine
 10
1087.703995387001
 20
1878.982558849939
 30
0.0
 11
1089.49855435784
 21
1878.982558849939
 31
0.0
  0
LINE
  5
1BB
330
1A0
100
AcDbEntity
  8
P-SANR-FIXT
100
AcDbLine
 10
1090.238725818255
 20
1878.982558849939
 30
0.0
 11
1091.351539734218
 21
1878.982558849939
 31
0.0
  0
LINE
  5
1BC
330
1A0
100
AcDbEntity
  8
P-SANR-FIXT
100
AcDbLine
 10
1091.920194597304
 20
1878.982558849939
 30
0.0
 11
1093.248443297965
 21
1878.982558849939
 31
0.0
  0
LINE
  5
1BD
330
1A0
100
AcDbEntity
  8
P-SANR-FIXT
100
AcDbLine
 10
1093.633687095953
 20
1878.982558849939
 30
0.0
 11
1097.114353943098
 21
1878.982558849939
 31
0.0
  0
LINE
  5
1BE
330
1A0
100
AcDbEntity
  8
P-SANR-FIXT
100
AcDbLine
 10
1097.114353943098
 20
1878.982558849939
 30
0.0
 11
1098.89904693609
 21
1878.982558849939
 31
0.0
  0
LINE
  5
1BF
330
1A0
100
AcDbEntity
  8
P-SANR-FIXT
100
AcDbLine
 10
1099.022886941884
 20
1878.982558849939
 30
0.0
 11
1100.672239057439
 21
1878.982558849939
 31
0.0
  0
LINE
  5
1C0
330
1A0
100
AcDbEntity
  8
P-SANR-FIXT
100
AcDbLine
 10
1100.923882115531
 20
1878.982558849939
 30
0.0
 11
1102.422503549119
 21
1878.982558849939
 31
0.0
  0
LINE
  5
1C1
330
1A0
100
AcDbEntity
  8
P-SANR-FIXT
100
AcDbLine
 10
1102.802928431969
 20
1878.982558849939
 30
0.0
 11
1104.13856140273
 21
1878.982558849939
 31
0.0
  0
LINE
  5
1C2
330
1A0
100
AcDbEntity
  8
P-SANR-FIXT
100
AcDbLine
 10
1104.645518140946
 20
1878.982558849939
 30
0.0
 11
1105.80935404339
 21
1878.982558849939
 31
0.0
  0
LINE
  5
1C3
330
1A0
100
AcDbEntity
  8
P-SANR-FIXT
100
AcDbLine
 10
1106.437158648136
 20
1878.982558849939
 30
0.0
 11
1108.164754385311
 21
1878.982558849939
 31
0.0
  0
LINE
  5
1C4
330
1A0
100
AcDbEntity
  8
P-SANR-FIXT
100
AcDbLine
 10
1108.972437254431
 20
1878.982558849939
 30
0.0
 11
1109.816144780053
 21
1878.982558849939
 31
0.0
  0
LINE
  5
1C5
330
1A0
100
AcDbEntity
  8
P-SANR-FIXT
100
AcDbLine
 10
1110.444344367184
 20
1878.982558849939
 30
0.0
 11
1111.375341363968
 21
1878.982558849939
 31
0.0
  0
LINE
  5
1C6
330
1A0
100
AcDbEntity
  8
P-SANR-FIXT
100
AcDbLine
 10
1111.830350706269
 20
1878.982558849939
 30
0.0
 11
1112.825174208852
 21
1878.982558849939
 31
0.0
  0
LINE
  5
1C7
330
1A0
100
AcDbEntity
  8
P-SANR-FIXT
100
AcDbLine
 10
1113.018263799568
 20
1878.982558849939
 30
0.0
 11
1114.150398291898
 21
1878.982558849939
 31
0.0
  0
LINE
  5
1C8
330
1A0
100
AcDbEntity
  8
P-SANR-FIXT
100
AcDbLine
 10
1114.309545517772
 20
1878.982558849939
 30
0.0
 11
1115.338201030819
 21
1878.982558849939
 31
0.0
  0
LINE
  5
1C9
330
1A0
100
AcDbEntity
  8
P-SANR-FIXT
100
AcDbLine
 10
1115.386757628196
 20
1878.982558849939
 30
0.0
 11
1116.346219195418
 21
1878.982558849939
 31
0.0
  0
LINE
  5
1CA
330
1A0
100
AcDbEntity
  8
P-SANR-FIXT
100
AcDbLine
 10
1116.385766088879
 20
1878.982558849939
 30
0.0
 11
1117.181747282443
 21
1878.982558849939
 31
0.0
  0
LINE
  5
1CB
330
1A0
100
AcDbEntity
  8
P-SANR-FIXT
100
AcDbLine
 10
1117.28945726726
 20
1878.982558849939
 30
0.0
 11
1117.887957601149
 21
1878.982558849939
 31
0.0
  0
LINE
  5
1CC
330
1A0
100
AcDbEntity
  8
P-SANR-FIXT
100
AcDbLine
 10
1118.037039395843
 20
1878.982558849939
 30
0.0
 11
1118.539947519372
 21
1878.982558849939
 31
0.0
  0
LINE
  5
1CD
330
1A0
100
AcDbEntity
  8
P-SANR-FIXT
100
AcDbLine
 10
1118.742017131903
 20
1878.982558849939
 30
0.0
 11
1118.967898069883
 21
1878.982558849939
 31
0.0
  0
LINE
  5
1CE
330
1A0
100
AcDbEntity
  8
P-SANR-FIXT
100
AcDbLine
 10
1119.106741514305
 20
1878.982558849939
 30
0.0
 11
1119.18950966171
 21
1878.982558849939
 31
0.0
  0
LINE
  5
1CF
330
1A0
100
AcDbEntity
  8
P-SANR-FIXT
100
AcDbLine
 10
1118.104450670976
 20
1889.568277671549
 30
0.0
 11
1118.104450670976
 21
1883.396840028454
 31
0.0
  0
ARC
  5
1D0
330
1A0
100
AcDbEntity
  8
P-SANR-FIXT
100
AcDbCircle
 10
1097.114353943098
 20
1999.982558850011
 30
0.0
 40
20.34999999995466
100
AcDbArc
 50
90.0
 51
269.9999999999997
  0
ARC
  5
1D1
330
1A0
100
AcDbEntity
  8
P-SANR-FIXT
100
AcDbCircle
 10
1097.114353943098
 20
1999.982558850011
 30
0.0
 40
20.34999999995489
100
AcDbArc
 50
269.9999999999997
 51
89.99999999999936
  0
ARC
  5
1D2
330
1A0
100
AcDbEntity
  8
P-SANR-FIXT
100
AcDbCircle
 10
1097.114353943098
 20
1999.982558850011
 30
0.0
 40
20.94999999995457
100
AcDbArc
 50
90.0
 51
269.9999999999997
  0
ARC
  5
1D3
330
1A0
100
AcDbEntity
  8
P-SANR-FIXT
100
AcDbCircle
 10
1097.114353943098
 20
1999.982558850011
 30
0.0
 40
20.94999999995457
100
AcDbArc
 50
269.9999999999997
 51
89.99999999999937
  0
ARC
  5
1D4
330
1A0
100
AcDbEntity
  8
P-SANR-FIXT
100
AcDbCircle
 10
1097.114353943098
 20
1999.982558850011
 30
0.0
 40
23.55355591381131
100
AcDbArc
 50
90.00000000000028
 51
269.9999999999988
  0
ARC
  5
1D5
330
1A0
100
AcDbEntity
  8
P-SANR-FIXT
100
AcDbCircle
 10
1097.114353943098
 20
1999.982558850011
 30
0.0
 40
23.55355591381147
100
AcDbArc
 50
269.9999999999994
 51
89.99999999999975
  0
ARC
  5
1D6
330
1A0
100
AcDbEntity
  8
P-SANR-FIXT
100
AcDbCircle
 10
1097.114353943098
 20
1999.982558850011
 30
0.0
 40
26.99999999982452
100
AcDbArc
 50
239.8669772737338
 51
240.0000000000004
  0
ARC
  5
1D7
330
1A0
100
AcDbEntity
  8
P-SANR-FIXT
100
AcDbCircle
 10
1097.114353943098
 20
1999.982558850011
 30
0.0
 40
26.99999999982447
100
AcDbArc
 50
179.8703304651342
 51
180.0000000000011
  0
ARC
  5
1D8
330
1A0
100
AcDbEntity
  8
P-SANR-FIXT
100
AcDbCircle
 10
1097.114353943098
 20
1999.982558850011
 30
0.0
 40
26.99999999982427
100
AcDbArc
 50
119.8735187609591
 51
120.0000000000013
  0
ARC
  5
1D9
330
1A0
100
AcDbEntity
  8
P-SANR-FIXT
100
AcDbCircle
 10
1097.114353943098
 20
1999.982558850011
 30
0.0
 40
26.99999999982424
100
AcDbArc
 50
59.86697727362085
 51
59.99999999999971
  0
ARC
  5
1DA
330
1A0
100
AcDbEntity
  8
P-SANR-FIXT
100
AcDbCircle
 10
1097.114353943098
 20
1999.982558850011
 30
0.0
 40
26.99999999982424
100
AcDbArc
 50
359.8703304651257
 51
0.0
  0
ARC
  5
1DB
330
1A0
100
AcDbEntity
  8
P-SANR-FIXT
100
AcDbCircle
 10
1097.114353943098
 20
1999.982558850011
 30
0.0
 40
26.99999999982432
100
AcDbArc
 50
299.8735187610656
 51
299.9999999999994
  0
SPLINE
  5
1DC
330
1A0
100
AcDbEntity
  8
P-SANR-FIXT
100
AcDbSpline
210
0.0
220
0.0
230
1.0
 70
     8
 71
     3
 72
    10
 73
     6
 74
     0
 42
0.000000001
 43
0.0000000001
 40
0.0
 40
0.0
 40
0.0
 40
0.0
 40
0.4
 40
0.7
 40
1.0
 40
1.0
 40
1.0
 40
1.0
 10
1120.364353943088
 20
2017.736079627571
 30
0.0
 10
1121.25688758867
 20
2017.220775087033
 30
0.0
 10
1122.656600853051
 20
2015.973174674567
 30
0.0
 10
1123.872419498892
 20
2013.581077911457
 30
0.0
 10
1124.114353943088
 20
2012.015437785777
 30
0.0
 10
1124.114353943088
 20
2011.240889099188
 30
0.0
  0
SPLINE
  5
1DD
330
1A0
100
AcDbEntity
  8
P-SANR-FIXT
100
AcDbSpline
210
0.0
220
0.0
230
1.0
 70
    24
 71
     3
 72
     9
 73
     5
 74
     0
 42
0.000000001
 43
0.0000000001
 40
0.0
 40
0.0
 40
0.0
 40
0.0
 40
0.5
 40
1.0
 40
1.0
 40
1.0
 40
1.0
 10
1124.114353943088
 20
2011.240889099188
 30
0.0
 10
1124.114353943088
 20
2007.447427148818
 30
0.0
 10
1124.114353943088
 20
1999.901188448721
 30
0.0
 10
1124.114353943088
 20
1992.436320149912
 30
0.0
 10
1124.114353943088
 20
1988.72422860083
 30
0.0
  0
SPLINE
  5
1DE
330
1A0
100
AcDbEntity
  8
P-SANR-FIXT
100
AcDbSpline
210
0.0
220
0.0
230
1.0
 70
     8
 71
     3
 72
    10
 73
     6
 74
     0
 42
0.000000001
 43
0.0000000001
 40
0.0
 40
0.0
 40
0.0
 40
0.0
 40
0.4
 40
0.7
 40
1.0
 40
1.0
 40
1.0
 40
1.0
 10
1124.114353943088
 20
1988.72422860083
 30
0.0
 10
1124.114353943088
 20
1987.691497018711
 30
0.0
 10
1123.732964583576
 20
1985.855750277839
 30
0.0
 10
1122.268292770444
 20
1983.606655524166
 30
0.0
 10
1121.033754177275
 20
1982.61551647785
 30
0.0
 10
1120.364353943088
 20
1982.229038072446
 30
0.0
  0
SPLINE
  5
1DF
330
1A0
100
AcDbEntity
  8
P-SANR-FIXT
100
AcDbSpline
210
0.0
220
0.0
230
1.0
 70
    24
 71
     3
 72
     9
 73
     5
 74
     0
 42
0.000000001
 43
0.0000000001
 40
0.0
 40
0.0
 40
0.0
 40
0.0
 40
0.5
 40
1.0
 40
1.0
 40
1.0
 40
1.0
 10
1120.364353943088
 20
1982.229038072446
 30
0.0
 10
1117.079119525778
 20
1980.332307097262
 30
0.0
 10
1110.543885108473
 20
1976.559187747213
 30
0.0
 10
1104.0791195258
 20
1972.826753597809
 30
0.0
 10
1100.864353943121
 20
1970.970707823268
 30
0.0
  0
SPLINE
  5
1E0
330
1A0
100
AcDbEntity
  8
P-SANR-FIXT
100
AcDbSpline
210
0.0
220
0.0
230
1.0
 70
     8
 71
     3
 72
     9
 73
     5
 74
     0
 42
0.000000001
 43
0.0000000001
 40
0.0
 40
0.0
 40
0.0
 40
0.0
 40
0.5
 40
1.0
 40
1.0
 40
1.0
 40
1.0
 10
1100.864353943121
 20
1970.970707823268
 30
0.0
 10
1100.305148922359
 20
1970.647850653999
 30
0.0
 10
1099.095049282365
 20
1970.142877663315
 30
0.0
 10
1097.777636543564
 20
1969.965898351649
 30
0.0
 10
1097.114353943098
 20
1969.965898351651
 30
0.0
  0
SPLINE
  5
1E1
330
1A0
100
AcDbEntity
  8
P-SANR-FIXT
100
AcDbSpline
210
0.0
220
0.0
230
1.0
 70
     8
 71
     3
 72
     9
 73
     5
 74
     0
 42
0.000000001
 43
0.0000000001
 40
0.0
 40
0.0
 40
0.0
 40
0.0
 40
0.5
 40
1.0
 40
1.0
 40
1.0
 40
1.0
 10
1097.114353943098
 20
1969.965898351651
 30
0.0
 10
1096.45107134264
 20
1969.965898351653
 30
0.0
 10
1095.133658603855
 20
1970.142877663323
 30
0.0
 10
1093.923558963876
 20
1970.647850654003
 30
0.0
 10
1093.364353943121
 20
1970.970707823268
 30
0.0
  0
SPLINE
  5
1E2
330
1A0
100
AcDbEntity
  8
P-SANR-FIXT
100
AcDbSpline
210
0.0
220
0.0
230
1.0
 70
    24
 71
     3
 72
     9
 73
     5
 74
     0
 42
0.000000001
 43
0.0000000001
 40
0.0
 40
0.0
 40
0.0
 40
0.0
 40
0.5
 40
1.0
 40
1.0
 40
1.0
 40
1.0
 10
1093.364353943121
 20
1970.970707823268
 30
0.0
 10
1090.07911952581
 20
1972.867438798453
 30
0.0
 10
1083.543885108506
 20
1976.640558148501
 30
0.0
 10
1077.079119525833
 20
1980.372992297905
 30
0.0
 10
1073.864353943154
 20
1982.229038072446
 30
0.0
  0
SPLINE
  5
1E3
330
1A0
100
AcDbEntity
  8
P-SANR-FIXT
100
AcDbSpline
210
0.0
220
0.0
230
1.0
 70
     8
 71
     3
 72
    10
 73
     6
 74
     0
 42
0.000000001
 43
0.0000000001
 40
0.0
 40
0.0
 40
0.0
 40
0.0
 40
0.4
 40
0.7
 40
1.0
 40
1.0
 40
1.0
 40
1.0
 10
1073.864353943154
 20
1982.229038072446
 30
0.0
 10
1072.969982157748
 20
1982.745403863506
 30
0.0
 10
1071.570873524994
 20
1983.993570108012
 30
0.0
 10
1070.355436239361
 20
1986.386560483228
 30
0.0
 10
1070.114353943153
 20
1987.951271790023
 30
0.0
 10
1070.114353943153
 20
1988.72422860083
 30
0.0
  0
SPLINE
  5
1E4
330
1A0
100
AcDbEntity
  8
P-SANR-FIXT
100
AcDbSpline
210
0.0
220
0.0
230
1.0
 70
    24
 71
     3
 72
     9
 73
     5
 74
     0
 42
0.000000001
 43
0.0000000001
 40
0.0
 40
0.0
 40
0.0
 40
0.0
 40
0.5
 40
1.0
 40
1.0
 40
1.0
 40
1.0
 10
1070.114353943153
 20
1988.72422860083
 30
0.0
 10
1070.114353943153
 20
1992.5176905512
 30
0.0
 10
1070.114353943153
 20
2000.063929251297
 30
0.0
 10
1070.114353943153
 20
2007.528797550105
 30
0.0
 10
1070.114353943153
 20
2011.240889099187
 30
0.0
  0
SPLINE
  5
1E5
330
1A0
100
AcDbEntity
  8
P-SANR-FIXT
100
AcDbSpline
210
0.0
220
0.0
230
1.0
 70
     8
 71
     3
 72
    10
 73
     6
 74
     0
 42
0.000000001
 43
0.0000000001
 40
0.0
 40
0.0
 40
0.0
 40
0.0
 40
0.4
 40
0.7
 40
1.0
 40
1.0
 40
1.0
 40
1.0
 10
1070.114353943153
 20
2011.240889099187
 30
0.0
 10
1070.114353943153
 20
2012.273620681307
 30
0.0
 10
1070.495743302665
 20
2014.109367422178
 30
0.0
 10
1071.960415115797
 20
2016.358462175852
 30
0.0
 10
1073.194953708966
 20
2017.349601222167
 30
0.0
 10
1073.864353943153
 20
2017.736079627571
 30
0.0
  0
SPLINE
  5
1E6
330
1A0
100
AcDbEntity
  8
P-SANR-FIXT
100
AcDbSpline
210
0.0
220
0.0
230
1.0
 70
    24
 71
     3
 72
     9
 73
     5
 74
     0
 42
0.000000001
 43
0.0000000001
 40
0.0
 40
0.0
 40
0.0
 40
0.0
 40
0.5
 40
1.0
 40
1.0
 40
1.0
 40
1.0
 10
1073.864353943153
 20
2017.736079627571
 30
0.0
 10
1077.149588360464
 20
2019.632810602756
 30
0.0
 10
1083.684822777769
 20
2023.405929952804
 30
0.0
 10
1090.149588360442
 20
2027.138364102209
 30
0.0
 10
1093.364353943121
 20
2028.99440987675
 30
0.0
  0
SPLINE
  5
1E7
330
1A0
100
AcDbEntity
  8
P-SANR-FIXT
100
AcDbSpline
210
0.0
220
0.0
230
1.0
 70
     8
 71
     3
 72
     9
 73
     5
 74
     0
 42
0.000000001
 43
0.0000000001
 40
0.0
 40
0.0
 40
0.0
 40
0.0
 40
0.5
 40
1.0
 40
1.0
 40
1.0
 40
1.0
 10
1093.364353943121
 20
2028.99440987675
 30
0.0
 10
1093.923558963876
 20
2029.317267046015
 30
0.0
 10
1095.133658603855
 20
2029.822240036695
 30
0.0
 10
1096.45107134264
 20
2029.999219348365
 30
0.0
 10
1097.114353943098
 20
2029.999219348367
 30
0.0
  0
SPLINE
  5
1E8
330
1A0
100
AcDbEntity
  8
P-SANR-FIXT
100
AcDbSpline
210
0.0
220
0.0
230
1.0
 70
     8
 71
     3
 72
     9
 73
     5
 74
     0
 42
0.000000001
 43
0.0000000001
 40
0.0
 40
0.0
 40
0.0
 40
0.0
 40
0.5
 40
1.0
 40
1.0
 40
1.0
 40
1.0
 10
1097.114353943098
 20
2029.999219348367
 30
0.0
 10
1097.777636543564
 20
2029.999219348368
 30
0.0
 10
1099.095049282365
 20
2029.822240036703
 30
0.0
 10
1100.305148922359
 20
2029.317267046019
 30
0.0
 10
1100.864353943121
 20
2028.99440987675
 30
0.0
  0
SPLINE
  5
1E9
330
1A0
100
AcDbEntity
  8
P-SANR-FIXT
100
AcDbSpline
210
0.0
220
0.0
230
1.0
 70
    24
 71
     3
 72
     9
 73
     5
 74
     0
 42
0.000000001
 43
0.0000000001
 40
0.0
 40
0.0
 40
0.0
 40
0.0
 40
0.5
 40
1.0
 40
1.0
 40
1.0
 40
1.0
 10
1100.864353943121
 20
2028.99440987675
 30
0.0
 10
1104.149588360431
 20
2027.097678901565
 30
0.0
 10
1110.684822777736
 20
2023.324559551516
 30
0.0
 10
1117.149588360409
 20
2019.592125402112
 30
0.0
 10
1120.364353943088
 20
2017.736079627571
 30
0.0
  0
LINE
  5
1EA
330
1A0
100
AcDbEntity
  8
P-SANR-FIXT
100
AcDbLine
 10
1074.864353943098
 20
1878.982558849939
 30
0.0
 11
1072.101114176892
 21
1876.219319083733
 31
0.0
  0
LINE
  5
1EB
330
1A0
100
AcDbEntity
  8
P-SANR-FIXT
100
AcDbLine
 10
1122.127593709264
 20
1876.219319083776
 30
0.0
 11
1119.759438137718
 21
1878.587474655322
 31
0.0
  0
LINE
  5
1EC
330
1A0
100
AcDbEntity
  8
P-SANR-FIXT
100
AcDbLine
 10
1072.114163542353
 20
1857.060019047113
 30
0.0
 11
1073.114353943098
 21
1856.482558850003
 31
0.0
  0
LINE
  5
1ED
330
1A0
100
AcDbEntity
  8
P-SANR-FIXT
100
AcDbLine
 10
1121.114353943101
 20
1856.482558850003
 30
0.0
 11
1122.114544343803
 21
1857.060019047088
 31
0.0
  0
LINE
  5
1EE
330
1A0
100
AcDbEntity
  8
P-SANR-FIXT
100
AcDbLine
 10
1074.949021910556
 20
1878.982558849938
 30
0.0
 11
1075.000154861311
 21
1878.982558849938
 31
0.0
  0
LINE
  5
1EF
330
1A0
100
AcDbEntity
  8
P-SANR-FIXT
100
AcDbLine
 10
1075.171613566325
 20
1878.982558849938
 30
0.0
 11
1075.303344863416
 21
1878.982558849938
 31
0.0
  0
LINE
  5
1F0
330
1A0
100
AcDbEntity
  8
P-SANR-FIXT
100
AcDbLine
 10
1075.554444703713
 20
1878.982558849938
 30
0.0
 11
1075.757176035105
 21
1878.982558849938
 31
0.0
  0
LINE
  5
1F1
330
1A0
100
AcDbEntity
  8
P-SANR-FIXT
100
AcDbLine
 10
1076.653977869665
 20
1878.982558849938
 30
0.0
 11
1077.271727129271
 21
1878.982558849938
 31
0.0
  0
LINE
  5
1F2
330
1A0
100
AcDbEntity
  8
P-SANR-FIXT
100
AcDbLine
 10
1077.845288708893
 20
1878.982558849938
 30
0.0
 11
1078.128477410876
 21
1878.982558849938
 31
0.0
  0
LINE
  5
1F3
330
1A0
100
AcDbEntity
  8
P-SANR-FIXT
100
AcDbLine
 10
1079.103277251763
 20
1878.982558849938
 30
0.0
 11
1080.0698650837
 21
1878.982558849938
 31
0.0
  0
LINE
  5
1F4
330
1A0
100
AcDbEntity
  8
P-SANR-FIXT
100
AcDbLine
 10
1080.189860307249
 20
1878.982558849938
 30
0.0
 11
1082.658889789139
 21
1878.982558849938
 31
0.0
  0
LINE
  5
1F5
330
1A0
100
AcDbEntity
  8
P-SANR-FIXT
100
AcDbLine
 10
1082.812329627572
 20
1878.982558849938
 30
0.0
 11
1084.027813366359
 21
1878.982558849938
 31
0.0
  0
LINE
  5
1F6
330
1A0
100
AcDbEntity
  8
P-SANR-FIXT
100
AcDbLine
 10
1084.352278234287
 20
1878.982558849938
 30
0.0
 11
1085.479185116161
 21
1878.982558849938
 31
0.0
  0
LINE
  5
1F7
330
1A0
100
AcDbEntity
  8
P-SANR-FIXT
100
AcDbLine
 10
1085.759646706043
 20
1878.982558849938
 30
0.0
 11
1087.003686603556
 21
1878.982558849938
 31
0.0
  0
LINE
  5
1F8
330
1A0
100
AcDbEntity
  8
P-SANR-FIXT
100
AcDbLine
 10
1087.711097619367
 20
1878.982558849938
 30
0.0
 11
1088.591541549457
 21
1878.982558849938
 31
0.0
  0
LINE
  5
1F9
330
1A0
100
AcDbEntity
  8
P-SANR-FIXT
100
AcDbLine
 10
1090.232571657095
 20
1878.982558849938
 30
0.0
 11
1091.355630189567
 21
1878.982558849938
 31
0.0
  0
LINE
  5
1FA
330
1A0
100
AcDbEntity
  8
P-SANR-FIXT
100
AcDbLine
 10
1091.916258191063
 20
1878.982558849938
 30
0.0
 11
1093.250681990009
 21
1878.982558849938
 31
0.0
  0
LINE
  5
1FB
330
1A0
100
AcDbEntity
  8
P-SANR-FIXT
100
AcDbLine
 10
1093.631807429659
 20
1878.982558849938
 30
0.0
 11
1095.175138666963
 21
1878.982558849938
 31
0.0
  0
LINE
  5
1FC
330
1A0
100
AcDbEntity
  8
P-SANR-FIXT
100
AcDbLine
 10
1095.368218696909
 20
1878.982558849938
 30
0.0
 11
1097.114353943098
 21
1878.982558849938
 31
0.0
  0
LINE
  5
1FD
330
1A0
100
AcDbEntity
  8
P-SANR-FIXT
100
AcDbLine
 10
1097.114353943098
 20
1878.982558849938
 30
0.0
 11
1098.928868891546
 21
1878.982558849938
 31
0.0
  0
LINE
  5
1FE
330
1A0
100
AcDbEntity
  8
P-SANR-FIXT
100
AcDbLine
 10
1099.053569219234
 20
1878.982558849938
 30
0.0
 11
1100.726891733089
 21
1878.982558849938
 31
0.0
  0
LINE
  5
1FF
330
1A0
100
AcDbEntity
  8
P-SANR-FIXT
100
AcDbLine
 10
1100.978025896188
 20
1878.982558849938
 30
0.0
 11
1102.496507058827
 21
1878.982558849938
 31
0.0
  0
LINE
  5
200
330
1A0
100
AcDbEntity
  8
P-SANR-FIXT
100
AcDbLine
 10
1102.87307769663
 20
1878.982558849938
 30
0.0
 11
1105.904572466413
 21
1878.982558849938
 31
0.0
  0
LINE
  5
201
330
1A0
100
AcDbEntity
  8
P-SANR-FIXT
100
AcDbLine
 10
1107.521123526257
 20
1878.982558849938
 30
0.0
 11
1108.239353943099
 21
1878.982558849938
 31
0.0
  0
LINE
  5
202
330
1A0
100
AcDbEntity
  8
P-SANR-FIXT
100
AcDbLine
 10
1109.062936316863
 20
1878.982558849938
 30
0.0
 11
1109.87642965191
 21
1878.982558849938
 31
0.0
  0
LINE
  5
203
330
1A0
100
AcDbEntity
  8
P-SANR-FIXT
100
AcDbLine
 10
1110.520301647029
 20
1878.982558849938
 30
0.0
 11
1111.416378258625
 21
1878.982558849938
 31
0.0
  0
LINE
  5
204
330
1A0
100
AcDbEntity
  8
P-SANR-FIXT
100
AcDbLine
 10
1111.887687468755
 20
1878.982558849938
 30
0.0
 11
1113.05088062122
 21
1878.982558849938
 31
0.0
  0
LINE
  5
205
330
1A0
100
AcDbEntity
  8
P-SANR-FIXT
100
AcDbLine
 10
1113.159593060133
 20
1878.982558849938
 30
0.0
 11
1114.158842802497
 21
1878.982558849938
 31
0.0
  0
LINE
  5
206
330
1A0
100
AcDbEntity
  8
P-SANR-FIXT
100
AcDbLine
 10
1114.330450967204
 20
1878.982558849938
 30
0.0
 11
1115.340486928529
 21
1878.982558849938
 31
0.0
  0
LINE
  5
207
330
1A0
100
AcDbEntity
  8
P-SANR-FIXT
100
AcDbLine
 10
1115.394533861691
 20
1878.982558849938
 30
0.0
 11
1116.349075622596
 21
1878.982558849938
 31
0.0
  0
LINE
  5
208
330
1A0
100
AcDbEntity
  8
P-SANR-FIXT
100
AcDbLine
 10
1116.383419177303
 20
1878.982558849938
 30
0.0
 11
1117.187502232021
 21
1878.982558849938
 31
0.0
  0
LINE
  5
209
330
1A0
100
AcDbEntity
  8
P-SANR-FIXT
100
AcDbLine
 10
1117.279702204665
 20
1878.982558849938
 30
0.0
 11
1117.897458458733
 21
1878.982558849938
 31
0.0
  0
LINE
  5
20A
330
1A0
100
AcDbEntity
  8
P-SANR-FIXT
100
AcDbLine
 10
1118.538157476615
 20
1878.982558849938
 30
0.0
 11
1118.681794119703
 21
1878.982558849938
 31
0.0
  0
LINE
  5
20B
330
1A0
100
AcDbEntity
  8
P-SANR-FIXT
100
AcDbLine
 10
1118.967157111323
 20
1878.982558849938
 30
0.0
 11
1119.106571998978
 21
1878.982558849938
 31
0.0
  0
LINE
  5
20C
330
1A0
100
AcDbEntity
  8
P-SANR-FIXT
100
AcDbLine
 10
1097.114353943098
 20
1856.482558850002
 30
0.0
 11
1073.114353943097
 21
1856.482558850002
 31
0.0
  0
LINE
  5
20D
330
1A0
100
AcDbEntity
  8
P-SANR-FIXT
100
AcDbLine
 10
1121.1143539431
 20
1856.482558850002
 30
0.0
 11
1097.114353943099
 21
1856.482558850002
 31
0.0
  0
LINE
  5
20E
330
1A0
100
AcDbEntity
  8
P-SANR-FIXT
100
AcDbLine
 10
1075.782593076809
 20
1874.23255884996
 30
0.0
 11
1075.782593076809
 21
1858.214609657558
 31
0.0
  0
SPLINE
  5
20F
330
1A0
100
AcDbEntity
  8
P-SANR-FIXT
100
AcDbSpline
210
0.0
220
0.0
230
1.0
 70
     8
 71
     3
 72
     9
 73
     5
 74
     0
 42
0.000000001
 43
0.0000000001
 40
0.0
 40
0.0
 40
0.0
 40
0.0
 40
0.5
 40
1.0
 40
1.0
 40
1.0
 40
1.0
 10
1075.782593076809
 20
1858.214609657558
 30
0.0
 10
1078.765701173238
 20
1857.444844763689
 30
0.0
 10
1084.692729558426
 20
1856.675079869819
 30
0.0
 10
1090.541382328274
 20
1857.444844763684
 30
0.0
 10
1093.446114809363
 20
1858.21460965755
 30
0.0
  0
SPLINE
  5
210
330
1A0
100
AcDbEntity
  8
P-SANR-FIXT
100
AcDbSpline
210
0.0
220
0.0
230
1.0
 70
     8
 71
     3
 72
    10
 73
     6
 74
     0
 42
0.000000001
 43
0.0000000001
 40
0.0
 40
0.0
 40
0.0
 40
0.0
 40
0.3333333333333333
 40
0.6666666666666666
 40
1.0
 40
1.0
 40
1.0
 40
1.0
 10
1093.446114809363
 20
1874.232558849973
 30
0.0
 10
1091.5154351766
 20
1875.112707586665
 30
0.0
 10
1087.631663877738
 20
1876.286390990517
 30
0.0
 10
1081.647826355271
 20
1876.299366037162
 30
0.0
 10
1077.735036572502
 20
1875.118398396588
 30
0.0
 10
1075.782593076809
 20
1874.23255884996
 30
0.0
  0
LINE
  5
211
330
1A0
100
AcDbEntity
  8
P-SANR-FIXT
100
AcDbLine
 10
1093.446114809363
 20
1858.21460965755
 30
0.0
 11
1093.446114809363
 21
1874.232558849973
 31
0.0
  0
LINE
  5
212
330
1A0
100
AcDbEntity
  8
P-SANR-FIXT
100
AcDbLine
 10
1093.446114809363
 20
1858.214609657547
 30
0.0
 11
1097.114353943098
 21
1858.214609657547
 31
0.0
  0
LINE
  5
213
330
1A0
100
AcDbEntity
  8
P-SANR-FIXT
100
AcDbLine
 10
1097.114353943098
 20
1858.214609657547
 30
0.0
 11
1100.78259307679
 21
1858.214609657547
 31
0.0
  0
LINE
  5
214
330
1A0
100
AcDbEntity
  8
P-SANR-FIXT
100
AcDbLine
 10
1100.78259307679
 20
1874.232558849979
 30
0.0
 11
1097.114353943098
 21
1874.232558849979
 31
0.0
  0
LINE
  5
215
330
1A0
100
AcDbEntity
  8
P-SANR-FIXT
100
AcDbLine
 10
1097.114353943098
 20
1874.232558849979
 30
0.0
 11
1093.446114809363
 21
1874.232558849979
 31
0.0
  0
LINE
  5
216
330
1A0
100
AcDbEntity
  8
P-SANR-FIXT
100
AcDbLine
 10
1100.78259307679
 20
1858.214609657547
 30
0.0
 11
1100.78259307679
 21
1874.232558849979
 31
0.0
  0
SPLINE
  5
217
330
1A0
100
AcDbEntity
  8
P-SANR-FIXT
100
AcDbSpline
210
0.0
220
0.0
230
1.0
 70
     8
 71
     3
 72
     9
 73
     5
 74
     0
 42
0.000000001
 43
0.0000000001
 40
0.0
 40
0.0
 40
0.0
 40
0.0
 40
0.5
 40
1.0
 40
1.0
 40
1.0
 40
1.0
 10
1100.78259307679
 20
1858.214609657547
 30
0.0
 10
1103.76570117322
 20
1857.444844763677
 30
0.0
 10
1109.692729558408
 20
1856.675079869807
 30
0.0
 10
1115.541382328255
 20
1857.444844763671
 30
0.0
 10
1118.446114809344
 20
1858.214609657538
 30
0.0
  0
SPLINE
  5
218
330
1A0
100
AcDbEntity
  8
P-SANR-FIXT
100
AcDbSpline
210
0.0
220
0.0
230
1.0
 70
     8
 71
     3
 72
    10
 73
     6
 74
     0
 42
0.000000001
 43
0.0000000001
 40
0.0
 40
0.0
 40
0.0
 40
0.0
 40
0.3333333333333333
 40
0.6666666666666666
 40
1.0
 40
1.0
 40
1.0
 40
1.0
 10
1118.446114809344
 20
1874.232558849994
 30
0.0
 10
1116.515435176582
 20
1875.112707586686
 30
0.0
 10
1112.631663877719
 20
1876.286390990539
 30
0.0
 10
1106.647826355252
 20
1876.299366037183
 30
0.0
 10
1102.735036572483
 20
1875.118398396608
 30
0.0
 10
1100.78259307679
 20
1874.232558849979
 30
0.0
  0
LINE
  5
219
330
1A0
100
AcDbEntity
  8
P-SANR-FIXT
100
AcDbLine
 10
1118.446114809344
 20
1858.214609657538
 30
0.0
 11
1118.446114809344
 21
1874.232558849994
 31
0.0
  0
LINE
  5
21A
330
1A0
100
AcDbEntity
  8
P-SANR-FIXT
100
AcDbLine
 10
1118.446114809344
 20
1858.214609657547
 30
0.0
 11
1122.114353943058
 21
1858.214609657547
 31
0.0
  0
LINE
  5
21B
330
1A0
100
AcDbEntity
  8
P-SANR-FIXT
100
AcDbLine
 10
1122.114353943058
 20
1874.232558849979
 30
0.0
 11
1118.446114809344
 21
1874.232558849979
 31
0.0
  0
LINE
  5
21C
330
1A0
100
AcDbEntity
  8
P-SANR-FIXT
100
AcDbLine
 10
1122.114353943058
 20
1858.214609657536
 30
0.0
 11
1122.114353943058
 21
1874.232558849998
 31
0.0
  0
SPLINE
  5
21D
330
1A0
100
AcDbEntity
  8
P-SANR-FIXT
100
AcDbSpline
210
0.0
220
0.0
230
1.0
 70
    24
 71
     3
 72
     8
 73
     4
 74
     0
 42
0.000000001
 43
0.0000000001
 40
0.0
 40
0.0
 40
0.0
 40
0.0
 40
0.5
 40
0.5
 40
0.5
 40
0.5
 10
1122.114353943058
 20
1858.214609657536
 30
0.0
 10
1122.114353943058
 20
1857.444844763668
 30
0.0
 10
1122.114353943058
 20
1857.059962316733
 30
0.0
 10
1122.114353943058
 20
1857.059962316733
 30
0.0
  0
SPLINE
  5
21E
330
1A0
100
AcDbEntity
  8
P-SANR-FIXT
100
AcDbSpline
210
0.0
220
0.0
230
1.0
 70
    24
 71
     3
 72
     9
 73
     5
 74
     0
 42
0.000000001
 43
0.0000000001
 40
0.4542070254869979
 40
0.4542070254869979
 40
0.4542070254869979
 40
0.4542070254869979
 40
0.6666666666666666
 40
1.0
 40
1.0
 40
1.0
 40
1.0
 10
1122.114353943058
 20
1876.201497641126
 30
0.0
 10
1122.114353943058
 20
1876.254745779746
 30
0.0
 10
1122.114353943058
 20
1876.085244158653
 30
0.0
 10
1122.114353943058
 20
1875.118398396626
 30
0.0
 10
1122.114353943058
 20
1874.232558849998
 30
0.0
  0
SPLINE
  5
21F
330
1A0
100
AcDbEntity
  8
P-SANR-FIXT
100
AcDbSpline
210
0.0
220
0.0
230
1.0
 70
    24
 71
     3
 72
     9
 73
     5
 74
     0
 42
0.000000001
 43
0.0000000001
 40
0.4964952820436455
 40
0.4964952820436455
 40
0.4964952820436455
 40
0.4964952820436455
 40
0.5
 40
1.0
 40
1.0
 40
1.0
 40
1.0
 10
1072.114353943095
 20
1857.060019047113
 30
0.0
 10
1072.114353943095
 20
1857.059981226876
 30
0.0
 10
1072.114353943095
 20
1857.057264507911
 30
0.0
 10
1072.114353943009
 20
1857.444844763819
 30
0.0
 10
1072.114353943095
 20
1858.214609657559
 30
0.0
  0
SPLINE
  5
220
330
1A0
100
AcDbEntity
  8
P-SANR-FIXT
100
AcDbSpline
210
0.0
220
0.0
230
1.0
 70
    24
 71
     3
 72
     9
 73
     5
 74
     0
 42
0.000000001
 43
0.0000000001
 40
0.0
 40
0.0
 40
0.0
 40
0.0
 40
0.3333333333333333
 40
0.5555555555555556
 40
0.5555555555555556
 40
0.5555555555555556
 40
0.5555555555555556
 10
1072.114353943095
 20
1874.232558849958
 30
0.0
 10
1072.114353943095
 20
1875.11270758665
 30
0.0
 10
1072.114353943095
 20
1876.090777089862
 30
0.0
 10
1072.114353943095
 20
1876.259795639773
 30
0.0
 10
1072.114353943095
 20
1876.19613384803
 30
0.0
  0
LINE
  5
221
330
1A0
100
AcDbEntity
  8
P-SANR-FIXT
100
AcDbLine
 10
1075.782593076809
 20
1874.232558849979
 30
0.0
 11
1072.114353943095
 21
1874.232558849979
 31
0.0
  0
LINE
  5
222
330
1A0
100
AcDbEntity
  8
P-SANR-FIXT
100
AcDbLine
 10
1072.114353943095
 20
1858.214609657559
 30
0.0
 11
1072.114353943095
 21
1874.232558849958
 31
0.0
  0
LINE
  5
223
330
1A0
100
AcDbEntity
  8
P-SANR-FIXT
100
AcDbLine
 10
1072.114353943095
 20
1858.214609657547
 30
0.0
 11
1075.782593076809
 21
1858.214609657547
 31
0.0
  0
LINE
  5
224
330
1A0
100
AcDbEntity
  8
P-SANR-FIXT
100
AcDbLine
 10
1124.114353943035
 20
1921.399983907343
 30
0.0
 11
1124.114353943035
 21
1936.80840151457
 31
0.0
  0
LINE
  5
225
330
1A0
100
AcDbEntity
  8
P-SANR-FIXT
100
AcDbLine
 10
1070.114353943121
 20
1936.808401514547
 30
0.0
 11
1070.114353943121
 21
1921.399983907366
 31
0.0
  0
LINE
  5
226
330
1A0
100
AcDbEntity
  8
P-SANR-FIXT
100
AcDbLine
 10
1073.560798029259
 20
1940.099095421356
 30
0.0
 11
1070.114211221195
 21
1938.109207599934
 31
0.0
  0
LINE
  5
227
330
1A0
100
AcDbEntity
  8
P-SANR-FIXT
100
AcDbLine
 10
1124.114496664962
 20
1938.109207599959
 30
0.0
 11
1120.66790985694
 21
1940.099095421356
 31
0.0
  0
LINE
  5
228
330
1A0
100
AcDbEntity
  8
P-SANR-FIXT
100
AcDbLine
 10
1073.560798029258
 20
1940.099095421355
 30
0.0
 11
1097.114353943098
 21
1940.099095421355
 31
0.0
  0
LINE
  5
229
330
1A0
100
AcDbEntity
  8
P-SANR-FIXT
100
AcDbLine
 10
1097.114353943099
 20
1940.099095421355
 30
0.0
 11
1120.667909856939
 21
1940.099095421355
 31
0.0
  0
LINE
  5
22A
330
1A0
100
AcDbEntity
  8
P-SANR-FIXT
100
AcDbLine
 10
1095.113648671333
 20
1920.09909542137
 30
0.0
 11
1083.614353943165
 21
1920.09909542137
 31
0.0
  0
LINE
  5
22B
330
1A0
100
AcDbEntity
  8
P-SANR-FIXT
100
AcDbLine
 10
1083.614353943165
 20
1920.09909542137
 30
0.0
 11
1070.114353943232
 21
1920.09909542137
 31
0.0
  0
LINE
  5
22C
330
1A0
100
AcDbEntity
  8
P-SANR-FIXT
100
AcDbLine
 10
1070.114353943232
 20
1920.09909542137
 30
0.0
 11
1070.163157562449
 21
1920.09909542137
 31
0.0
  0
LINE
  5
22D
330
1A0
100
AcDbEntity
  8
P-SANR-FIXT
100
AcDbLine
 10
1124.065550323795
 20
1920.09909542137
 30
0.0
 11
1124.114353942964
 21
1920.09909542137
 31
0.0
  0
LINE
  5
22E
330
1A0
100
AcDbEntity
  8
P-SANR-FIXT
100
AcDbLine
 10
1124.114353942964
 20
1920.09909542137
 30
0.0
 11
1110.614353943032
 21
1920.09909542137
 31
0.0
  0
LINE
  5
22F
330
1A0
100
AcDbEntity
  8
P-SANR-FIXT
100
AcDbLine
 10
1110.614353943032
 20
1920.09909542137
 30
0.0
 11
1099.115059214864
 21
1920.09909542137
 31
0.0
  0
SPLINE
  5
230
330
1A0
100
AcDbEntity
  8
P-SANR-FIXT
100
AcDbSpline
210
0.0
220
0.0
230
1.0
 70
     8
 71
     3
 72
     8
 73
     4
 74
     0
 42
0.000000001
 43
0.0000000001
 40
0.0
 40
0.0
 40
0.0
 40
0.0
 40
0.4875347646928274
 40
0.4875347646928274
 40
0.4875347646928274
 40
0.4875347646928274
 10
1093.364353943077
 20
1921.399983907356
 30
0.0
 10
1093.9096177195
 20
1921.541732513697
 30
0.0
 10
1094.498468924163
 20
1921.649296867782
 30
0.0
 10
1095.113278141981
 20
1921.722676969611
 30
0.0
  0
SPLINE
  5
231
330
1A0
100
AcDbEntity
  8
P-SANR-FIXT
100
AcDbSpline
210
0.0
220
0.0
230
1.0
 70
     8
 71
     3
 72
     8
 73
     4
 74
     0
 42
0.000000001
 43
0.0000000001
 40
0.5124652353135904
 40
0.5124652353135904
 40
0.5124652353135904
 40
0.5124652353135904
 40
1.0
 40
1.0
 40
1.0
 40
1.0
 10
1099.115429744217
 20
1921.722676969604
 30
0.0
 10
1099.730238962019
 20
1921.649296867775
 30
0.0
 10
1100.319090166666
 20
1921.541732513691
 30
0.0
 10
1100.864353943077
 20
1921.399983907353
 30
0.0
  0
SPLINE
  5
232
330
1A0
100
AcDbEntity
  8
P-SANR-FIXT
100
AcDbSpline
210
0.0
220
0.0
230
1.0
 70
     8
 71
     3
 72
     9
 73
     5
 74
     0
 42
0.000000001
 43
0.0000000001
 40
0.0
 40
0.0
 40
0.0
 40
0.0
 40
0.5
 40
1.0
 40
1.0
 40
1.0
 40
1.0
 10
1100.864353943077
 20
1936.808401514558
 30
0.0
 10
1100.305148922322
 20
1936.663028695423
 30
0.0
 10
1099.095049282341
 20
1936.444192332143
 30
0.0
 10
1097.777636543556
 20
1936.369174518844
 30
0.0
 10
1097.114353943098
 20
1936.367620249689
 30
0.0
  0
SPLINE
  5
233
330
1A0
100
AcDbEntity
  8
P-SANR-FIXT
100
AcDbSpline
210
0.0
220
0.0
230
1.0
 70
     8
 71
     3
 72
     9
 73
     5
 74
     0
 42
0.000000001
 43
0.0000000001
 40
0.0
 40
0.0
 40
0.0
 40
0.0
 40
0.5
 40
1.0
 40
1.0
 40
1.0
 40
1.0
 10
1097.114353943098
 20
1936.367620249689
 30
0.0
 10
1096.451071342633
 20
1936.369174518841
 30
0.0
 10
1095.133658603832
 20
1936.444192332138
 30
0.0
 10
1093.923558963838
 20
1936.663028695418
 30
0.0
 10
1093.364353943077
 20
1936.808401514555
 30
0.0
  0
SPLINE
  5
234
330
1A0
100
AcDbEntity
  8
P-SANR-FIXT
100
AcDbSpline
210
0.0
220
0.0
230
1.0
 70
     8
 71
     3
 72
     9
 73
     5
 74
     0
 42
0.000000001
 43
0.0000000001
 40
0.0
 40
0.0
 40
0.0
 40
0.0
 40
0.5
 40
1.0
 40
1.0
 40
1.0
 40
1.0
 10
1100.864353943077
 20
1921.399983907353
 30
0.0
 10
1102.46916100748
 20
1920.975754528243
 30
0.0
 10
1105.698968071883
 20
1920.334710401469
 30
0.0
 10
1108.969161007477
 20
1920.108495537588
 30
0.0
 10
1110.614353943072
 20
1920.09909542137
 30
0.0
  0
SPLINE
  5
235
330
1A0
100
AcDbEntity
  8
P-SANR-FIXT
100
AcDbSpline
210
0.0
220
0.0
230
1.0
 70
     8
 71
     3
 72
     9
 73
     5
 74
     0
 42
0.000000001
 43
0.0000000001
 40
0.0
 40
0.0
 40
0.0
 40
0.0
 40
0.5
 40
1.0
 40
1.0
 40
1.0
 40
1.0
 10
1110.614353943072
 20
1920.09909542137
 30
0.0
 10
1112.259546878661
 20
1920.108495537587
 30
0.0
 10
1115.529739814244
 20
1920.334710401468
 30
0.0
 10
1118.759546878635
 20
1920.975754528237
 30
0.0
 10
1120.364353943033
 20
1921.399983907344
 30
0.0
  0
SPLINE
  5
236
330
1A0
100
AcDbEntity
  8
P-SANR-FIXT
100
AcDbSpline
210
0.0
220
0.0
230
1.0
 70
     8
 71
     3
 72
     9
 73
     5
 74
     0
 42
0.000000001
 43
0.0000000001
 40
0.0
 40
0.0
 40
0.0
 40
0.0
 40
0.5
 40
1.0
 40
1.0
 40
1.0
 40
1.0
 10
1120.364353943033
 20
1936.808401514567
 30
0.0
 10
1117.149588360356
 20
1937.675633958566
 30
0.0
 10
1110.684822777686
 20
1938.542866402564
 30
0.0
 10
1104.149588360385
 20
1937.67563395856
 30
0.0
 10
1100.864353943077
 20
1936.808401514558
 30
0.0
  0
SPLINE
  5
237
330
1A0
100
AcDbEntity
  8
P-SANR-FIXT
100
AcDbSpline
210
0.0
220
0.0
230
1.0
 70
     8
 71
     3
 72
    10
 73
     6
 74
     0
 42
0.000000001
 43
0.0000000001
 40
0.0
 40
0.0
 40
0.0
 40
0.0
 40
0.4
 40
0.7
 40
1.0
 40
1.0
 40
1.0
 40
1.0
 10
1120.364353943033
 20
1921.399983907344
 30
0.0
 10
1121.258725728439
 20
1921.631619659886
 30
0.0
 10
1122.657834361192
 20
1921.883177151544
 30
0.0
 10
1123.873271646826
 20
1921.820760030974
 30
0.0
 10
1124.114353943033
 20
1921.573446355656
 30
0.0
 10
1124.114353943033
 20
1921.399983907343
 30
0.0
  0
SPLINE
  5
238
330
1A0
100
AcDbEntity
  8
P-SANR-FIXT
100
AcDbSpline
210
0.0
220
0.0
230
1.0
 70
     8
 71
     3
 72
    10
 73
     6
 74
     0
 42
0.000000001
 43
0.0000000001
 40
0.0
 40
0.0
 40
0.0
 40
0.0
 40
0.4
 40
0.7
 40
1.0
 40
1.0
 40
1.0
 40
1.0
 10
1124.114353943033
 20
1936.808401514569
 30
0.0
 10
1124.114353943033
 20
1936.57711825015
 30
0.0
 10
1123.733756924256
 20
1936.325383272867
 30
0.0
 10
1122.270049682012
 20
1936.387319346362
 30
0.0
 10
1121.035132782088
 20
1936.634674700161
 30
0.0
 10
1120.364353943033
 20
1936.808401514567
 30
0.0
  0
SPLINE
  5
239
330
1A0
100
AcDbEntity
  8
P-SANR-FIXT
100
AcDbSpline
210
0.0
220
0.0
230
1.0
 70
    24
 71
     3
 72
     9
 73
     5
 74
     0
 42
0.000000001
 43
0.0000000001
 40
0.0
 40
0.0
 40
0.0
 40
0.0
 40
0.5
 40
1.0
 40
1.0
 40
1.0
 40
1.0
 10
1124.114353943033
 20
1921.399983907343
 30
0.0
 10
1124.114353943033
 20
1920.975754528232
 30
0.0
 10
1124.114353943033
 20
1920.33471040146
 30
0.0
 10
1124.114353943033
 20
1920.108495537584
 30
0.0
 10
1124.114353943033
 20
1920.09909542137
 30
0.0
  0
SPLINE
  5
23A
330
1A0
100
AcDbEntity
  8
P-SANR-FIXT
100
AcDbSpline
210
0.0
220
0.0
230
1.0
 70
    24
 71
     3
 72
     8
 73
     4
 74
     0
 42
0.000000001
 43
0.0000000001
 40
0.1204276077953858
 40
0.1204276077953858
 40
0.1204276077953858
 40
0.1204276077953858
 40
0.1852138038977534
 40
0.1852138038977534
 40
0.1852138038977534
 40
0.1852138038977534
 10
1124.114353943033
 20
1920.123936190775
 30
0.0
 10
1124.114353943033
 20
1920.131627220812
 30
0.0
 10
1124.114353943033
 20
1920.139446497266
 30
0.0
 10
1124.114353943033
 20
1920.148219897457
 30
0.0
  0
SPLINE
  5
23B
330
1A0
100
AcDbEntity
  8
P-SANR-FIXT
100
AcDbSpline
210
0.0
220
0.0
230
1.0
 70
    24
 71
     3
 72
     8
 73
     4
 74
     0
 42
0.000000001
 43
0.0000000001
 40
0.5
 40
0.5
 40
0.5
 40
0.5
 40
1.0
 40
1.0
 40
1.0
 40
1.0
 10
1124.114353943033
 20
1938.109250180571
 30
0.0
 10
1124.114353943033
 20
1938.109250180571
 30
0.0
 10
1124.114353943033
 20
1937.675633958569
 30
0.0
 10
1124.114353943033
 20
1936.808401514569
 30
0.0
  0
SPLINE
  5
23C
330
1A0
100
AcDbEntity
  8
P-SANR-FIXT
100
AcDbSpline
210
0.0
220
0.0
230
1.0
 70
    24
 71
     3
 72
     8
 73
     4
 74
     0
 42
0.000000001
 43
0.0000000001
 40
0.8147861961302977
 40
0.8147861961302977
 40
0.8147861961302977
 40
0.8147861961302977
 40
0.8795723922608374
 40
0.8795723922608374
 40
0.8795723922608374
 40
0.8795723922608374
 10
1070.11435394312
 20
1920.152232708756
 30
0.0
 10
1070.11435394312
 20
1920.141059393466
 30
0.0
 10
1070.11435394312
 20
1920.133891432612
 30
0.0
 10
1070.11435394312
 20
1920.128352820723
 30
0.0
  0
SPLINE
  5
23D
330
1A0
100
AcDbEntity
  8
P-SANR-FIXT
100
AcDbSpline
210
0.0
220
0.0
230
1.0
 70
    24
 71
     3
 72
     9
 73
     5
 74
     0
 42
0.000000001
 43
0.0000000001
 40
0.0
 40
0.0
 40
0.0
 40
0.0
 40
0.5
 40
1.0
 40
1.0
 40
1.0
 40
1.0
 10
1070.11435394312
 20
1920.09909542137
 30
0.0
 10
1070.11435394312
 20
1920.108495537596
 30
0.0
 10
1070.11435394312
 20
1920.334710401489
 30
0.0
 10
1070.11435394312
 20
1920.97575452826
 30
0.0
 10
1070.11435394312
 20
1921.399983907366
 30
0.0
  0
SPLINE
  5
23E
330
1A0
100
AcDbEntity
  8
P-SANR-FIXT
100
AcDbSpline
210
0.0
220
0.0
230
1.0
 70
    24
 71
     3
 72
     9
 73
     5
 74
     0
 42
0.000000001
 43
0.0000000001
 40
0.0
 40
0.0
 40
0.0
 40
0.0
 40
0.5
 40
0.5028606357777078
 40
0.5028606357777078
 40
0.5028606357777078
 40
0.5028606357777078
 10
1070.11435394312
 20
1936.808401514546
 30
0.0
 10
1070.11435394312
 20
1937.675633958545
 30
0.0
 10
1070.11435394312
 20
1938.111731016703
 30
0.0
 10
1070.11435394312
 20
1938.109235987008
 30
0.0
 10
1070.11435394312
 20
1938.109207599934
 30
0.0
  0
SPLINE
  5
23F
330
1A0
100
AcDbEntity
  8
P-SANR-FIXT
100
AcDbSpline
210
0.0
220
0.0
230
1.0
 70
     8
 71
     3
 72
    10
 73
     6
 74
     0
 42
0.000000001
 43
0.0000000001
 40
0.0
 40
0.0
 40
0.0
 40
0.0
 40
0.4
 40
0.7
 40
1.0
 40
1.0
 40
1.0
 40
1.0
 10
1070.11435394312
 20
1921.399983907366
 30
0.0
 10
1070.11435394312
 20
1921.631619659907
 30
0.0
 10
1070.495743302632
 20
1921.883177151566
 30
0.0
 10
1071.960415115764
 20
1921.820760030995
 30
0.0
 10
1073.194953708933
 20
1921.573446355678
 30
0.0
 10
1073.86435394312
 20
1921.399983907364
 30
0.0
  0
SPLINE
  5
240
330
1A0
100
AcDbEntity
  8
P-SANR-FIXT
100
AcDbSpline
210
0.0
220
0.0
230
1.0
 70
     8
 71
     3
 72
    10
 73
     6
 74
     0
 42
0.000000001
 43
0.0000000001
 40
0.0
 40
0.0
 40
0.0
 40
0.0
 40
0.4
 40
0.7
 40
1.0
 40
1.0
 40
1.0
 40
1.0
 10
1073.86435394312
 20
1936.808401514547
 30
0.0
 10
1072.971820297537
 20
1936.577118250129
 30
0.0
 10
1071.572107033156
 20
1936.325383272845
 30
0.0
 10
1070.356288387316
 20
1936.38731934634
 30
0.0
 10
1070.11435394312
 20
1936.63467470014
 30
0.0
 10
1070.11435394312
 20
1936.808401514546
 30
0.0
  0
SPLINE
  5
241
330
1A0
100
AcDbEntity
  8
P-SANR-FIXT
100
AcDbSpline
210
0.0
220
0.0
230
1.0
 70
     8
 71
     3
 72
     9
 73
     5
 74
     0
 42
0.000000001
 43
0.0000000001
 40
0.0
 40
0.0
 40
0.0
 40
0.0
 40
0.5
 40
1.0
 40
1.0
 40
1.0
 40
1.0
 10
1093.364353943077
 20
1936.808401514555
 30
0.0
 10
1090.079119525768
 20
1937.675633958553
 30
0.0
 10
1083.543885108466
 20
1938.542866402551
 30
0.0
 10
1077.079119525797
 20
1937.675633958548
 30
0.0
 10
1073.86435394312
 20
1936.808401514547
 30
0.0
  0
SPLINE
  5
242
330
1A0
100
AcDbEntity
  8
P-SANR-FIXT
100
AcDbSpline
210
0.0
220
0.0
230
1.0
 70
     8
 71
     3
 72
     9
 73
     5
 74
     0
 42
0.000000001
 43
0.0000000001
 40
0.0
 40
0.0
 40
0.0
 40
0.0
 40
0.5
 40
1.0
 40
1.0
 40
1.0
 40
1.0
 10
1073.86435394312
 20
1921.399983907364
 30
0.0
 10
1075.469161007523
 20
1920.975754528257
 30
0.0
 10
1078.698968071925
 20
1920.334710401483
 30
0.0
 10
1081.969161007519
 20
1920.108495537594
 30
0.0
 10
1083.614353943114
 20
1920.09909542137
 30
0.0
  0
SPLINE
  5
243
330
1A0
100
AcDbEntity
  8
P-SANR-FIXT
100
AcDbSpline
210
0.0
220
0.0
230
1.0
 70
     8
 71
     3
 72
     9
 73
     5
 74
     0
 42
0.000000001
 43
0.0000000001
 40
0.0
 40
0.0
 40
0.0
 40
0.0
 40
0.5
 40
1.0
 40
1.0
 40
1.0
 40
1.0
 10
1083.614353943114
 20
1920.09909542137
 30
0.0
 10
1085.259546878703
 20
1920.108495537594
 30
0.0
 10
1088.529739814286
 20
1920.334710401482
 30
0.0
 10
1091.759546878678
 20
1920.975754528251
 30
0.0
 10
1093.364353943077
 20
1921.399983907356
 30
0.0
  0
ARC
  5
244
330
1A0
100
AcDbEntity
  8
P-SANR-FIXT
100
AcDbCircle
 10
1097.114353943098
 20
1999.982558850011
 30
0.0
 40
30.00000000000026
100
AcDbArc
 50
91.89040254803133
 51
148.5000000000002
  0
ARC
  5
245
330
1A0
100
AcDbEntity
  8
P-SANR-FIXT
100
AcDbCircle
 10
1097.114353943098
 20
1999.982558850011
 30
0.0
 40
30.00000000000054
100
AcDbArc
 50
151.5023783515641
 51
208.4933462974244
  0
ARC
  5
246
330
1A0
100
AcDbEntity
  8
P-SANR-FIXT
100
AcDbCircle
 10
1097.114353943098
 20
1999.982558850011
 30
0.0
 40
30.00000000000047
100
AcDbArc
 50
211.4999999999996
 51
268.1095974519688
  0
ARC
  5
247
330
1A0
100
AcDbEntity
  8
P-SANR-FIXT
100
AcDbCircle
 10
1097.114353943098
 20
1999.982558850011
 30
0.0
 40
30.00000000000018
100
AcDbArc
 50
271.8904025480522
 51
328.4999999999995
  0
ARC
  5
248
330
1A0
100
AcDbEntity
  8
P-SANR-FIXT
100
AcDbCircle
 10
1097.114353943098
 20
1999.982558850011
 30
0.0
 40
30.00000000000016
100
AcDbArc
 50
331.5023783515554
 51
28.49762164843634
  0
ARC
  5
249
330
1A0
100
AcDbEntity
  8
P-SANR-FIXT
100
AcDbCircle
 10
1097.114353943098
 20
1999.982558850011
 30
0.0
 40
30.00000000000028
100
AcDbArc
 50
31.49999999999951
 51
88.10959745194695
  0
LWPOLYLINE
  5
24A
330
1A0
100
AcDbEntity
  8
P-SANR-FIXT
100
AcDbPolyline
 90
       14
 70
   128
 43
0.0
 10
1091.114376257427
 20
2092.62870276181
 10
1091.316169033759
 20
2091.120776442465
 10
1091.912293116178
 20
2089.665025253515
 10
1092.863418642466
 20
2088.410663913289
 10
1094.066278982703
 20
2087.483429969083
 10
1095.51547978569
 20
2086.868099577829
 10
1097.076255537368
 20
2086.645270835685
 10
1098.582880329511
 20
2086.833077847674
 10
1100.043812688381
 20
2087.415754746217
 10
1101.310607694584
 20
2088.356540987669
 10
1102.090359843626
 20
2089.298303285292
 10
1102.5385938699
 20
2090.094389005987
 10
1102.979395343079
 20
2091.397654179648
 10
1103.114331628773
 20
2092.62870276181
  0
LWPOLYLINE
  5
24B
330
1A0
100
AcDbEntity
  8
P-SANR-FIXT
100
AcDbPolyline
 90
        4
 70
   128
 43
0.0
 10
1091.1143539431
 20
2092.890758282092
 10
1091.1143539431
 20
2093.356453478361
 10
1091.1143539431
 20
2095.796490864549
 10
1091.1143539431
 20
2096.522805328277
  0
LWPOLYLINE
  5
24C
330
1A0
100
AcDbEntity
  8
P-SANR-FIXT
100
AcDbPolyline
 90
        4
 70
   128
 43
0.0
 10
1103.1143539431
 20
2096.446783118505
 10
1103.1143539431
 20
2095.796490864549
 10
1103.1143539431
 20
2093.356453478361
 10
1103.1143539431
 20
2092.890758282093
  0
LWPOLYLINE
  5
24D
330
1A0
100
AcDbEntity
  8
P-SANR-FIXT
100
AcDbPolyline
 90
        4
 70
   128
 43
0.0
 10
1103.1143539431
 20
2092.890758282093
 10
1103.1143539431
 20
2093.356453478361
 10
1103.1143539431
 20
2095.796490864549
 10
1103.1143539431
 20
2097.26457007462
  0
LWPOLYLINE
  5
24E
330
1A0
100
AcDbEntity
  8
P-SANR-FIXT
100
AcDbPolyline
 90
        4
 70
   128
 43
0.0
 10
1091.1143539431
 20
2097.26457007462
 10
1091.1143539431
 20
2095.796490864549
 10
1091.1143539431
 20
2093.356453478361
 10
1091.1143539431
 20
2092.890758282092
  0
ARC
  5
24F
330
1A0
100
AcDbEntity
  8
P-SANR-FIXT
100
AcDbCircle
 10
1097.114353943098
 20
2097.264570074619
 30
0.0
 40
5.999999999999974
100
AcDbArc
 50
127.5000000000023
 51
142.5000000000002
  0
ARC
  5
250
330
1A0
100
AcDbEntity
  8
P-SANR-FIXT
100
AcDbCircle
 10
1097.114353943098
 20
2097.264570074619
 30
0.0
 40
5.999999999999901
100
AcDbArc
 50
97.500000000003
 51
120.0000000000002
  0
ARC
  5
251
330
1A0
100
AcDbEntity
  8
P-SANR-FIXT
100
AcDbCircle
 10
1097.114353943098
 20
2097.264570074619
 30
0.0
 40
5.999999999999772
100
AcDbArc
 50
75.00000000000082
 51
90.0
  0
ARC
  5
252
330
1A0
100
AcDbEntity
  8
P-SANR-FIXT
100
AcDbCircle
 10
1097.114353943098
 20
2097.264570074619
 30
0.0
 40
5.999999999999798
100
AcDbArc
 50
52.50000000000141
 51
67.53859048222389
  0
ARC
  5
253
330
1A0
100
AcDbEntity
  8
P-SANR-FIXT
100
AcDbCircle
 10
1097.114353943098
 20
2097.264570074619
 30
0.0
 40
5.999999999999727
100
AcDbArc
 50
37.50000000000092
 51
45.00000000000154
  0
ELLIPSE
  5
254
330
1A0
100
AcDbEntity
  8
P-SANR-FIXT
100
AcDbEllipse
 10
1097.114353943098
 20
2092.890758282091
 30
0.0
 11
6.0
 21
0.0
 31
0.0
210
0.0
220
0.0
230
1.0
 40
0.9975640502598253
 41
0.0
 42
3.141592653589793
  0
ELLIPSE
  5
255
330
1A0
100
AcDbEntity
  8
P-SANR-FIXT
100
AcDbEllipse
 10
1097.114353943098
 20
2092.890758282091
 30
0.0
 11
6.0
 21
0.0
 31
0.0
210
0.0
220
0.0
230
1.0
 40
0.9975640502598253
 41
3.141592653589793
 42
6.283185307179586
  0
LWPOLYLINE
  5
256
330
1A0
100
AcDbEntity
  8
P-SANR-FIXT
100
AcDbPolyline
 90
       77
 70
   128
 43
0.0
 10
1097.1143539431
 20
2107.83602754218
 10
1096.69160839759
 20
2107.827571503768
 10
1096.269539154771
 20
2107.802216916389
 10
1095.848821435397
 20
2107.760004341975
 10
1095.430128298069
 20
2107.70100131164
 10
1095.014129562491
 20
2107.625302217645
 10
1094.601490737898
 20
2107.533028162394
 10
1094.192871958384
 20
2107.424326764689
 10
1093.78892692683
 20
2107.29937192358
 10
1093.390301869115
 20
2107.158363540155
 10
1092.997634500296
 20
2107.00152719775
 10
1092.6115530044
 20
2106.829113801054
 10
1092.232675029458
 20
2106.641399174723
 10
1091.86160669941
 20
2106.438683622115
 10
1091.498941644424
 20
2106.221291444871
 10
1091.145260051226
 20
2105.9895704241
 10
1090.801127734917
 20
2105.743891264004
 10
1090.46709523379
 20
2105.48464699883
 10
1090.143696928593
 20
2105.212252364101
 10
1089.831450187624
 20
2104.927143133123
 10
1089.53085453906
 20
2104.629775419847
 10
1089.242390871817
 20
2104.320624949179
 10
1088.966520666225
 20
2104.000186295922
 10
1088.703685255764
 20
2103.668972093567
 10
1088.454305121022
 20
2103.327512214181
 10
1088.218779217018
 20
2102.976352920729
 10
1087.997484334953
 20
2102.616055993173
 10
1087.790774499433
 20
2102.247197829737
 10
1087.598980402099
 20
2101.870368524797
 10
1087.422408872592
 20
2101.486170924854
 10
1087.261342387694
 20
2101.095219664111
 10
1087.116038619421
 20
2100.698140181186
 10
1086.986730022805
 20
2100.295567718547
 10
1086.873623464017
 20
2099.888146306255
 10
1086.776899889422
 20
2099.47652773166
 10
1086.696714036109
 20
2099.061370496673
 10
1086.633194184335
 20
2098.643338764307
 10
1086.586441952313
 20
2098.223101296159
 10
1086.556532133641
 20
2097.801330382533
 10
1086.54351257765
 20
2097.378700766916
 10
1086.547404112851
 20
2096.955888566539
 10
1086.568200513618
 20
2096.533570190726
 10
1086.605868510146
 20
2096.112421258789
 10
1086.660347841676
 20
2095.693115519179
 10
1086.731551352899
 20
2095.276323771631
 10
1086.819365133387
 20
2094.862712794032
 10
1086.923648699823
 20
2094.452944275713
 10
1087.044235220748
 20
2094.04767375889
 10
1087.18093178345
 20
2093.647549589938
 10
1087.333519702591
 20
2093.253211882172
 10
1087.501754870051
 20
2092.865291491802
 10
1087.685368145448
 20
2092.484409008703
 10
1087.884065786712
 20
2092.111173763596
 10
1088.097529920004
 20
2091.746182853254
 10
1088.325419048245
 20
2091.390020185273
 10
1088.567368597446
 20
2091.043255543944
 10
1088.82299149994
 20
2090.706443678721
 10
1089.091878813614
 20
2090.38012341674
 10
1089.373600376124
 20
2090.064816800808
 10
1089.667705493069
 20
2089.761028254248
 10
1089.973723659001
 20
2089.46924377393
 10
1090.291165310134
 20
2089.189930152779
 10
1090.619522607543
 20
2088.923534233006
 10
1090.9582702496
 20
2088.670482191253
 10
1091.306866312338
 20
2088.431178856805
 10
1091.66475311642
 20
2088.20600706395
 10
1092.031358119306
 20
2087.995327039521
 10
1092.406094831196
 20
2087.799475826617
 10
1092.788363753289
 20
2087.618766745395
 10
1093.177553336858
 20
2087.45348889184
 10
1093.57304096159
 20
2087.303906675257
 10
1093.974193931653
 20
2087.170259395285
 10
1094.380370487869
 20
2087.052760859062
 10
1094.790920834395
 20
2086.951599039181
 10
1095.205188178256
 20
2086.866935772974
 10
1095.622509780073
 20
2086.798906503605
 10
1095.837641137191
 20
2086.772618428738
  0
LWPOLYLINE
  5
257
330
1A0
100
AcDbEntity
  8
P-SANR-FIXT
100
AcDbPolyline
 90
       77
 70
   128
 43
0.0
 10
1098.488945088787
 20
2086.784504557196
 10
1098.79857958813
 20
2086.828138837601
 10
1099.214578323708
 20
2086.903837931595
 10
1099.627217148301
 20
2086.996111986846
 10
1100.035835927815
 20
2087.104813384551
 10
1100.439780959369
 20
2087.229768225661
 10
1100.838406017084
 20
2087.370776609085
 10
1101.231073385903
 20
2087.527612951491
 10
1101.6171548818
 20
2087.700026348187
 10
1101.996032856741
 20
2087.887740974518
 10
1102.36710118679
 20
2088.090456527126
 10
1102.729766241775
 20
2088.307848704369
 10
1103.083447834973
 20
2088.53956972514
 10
1103.427580151283
 20
2088.785248885236
 10
1103.761612652409
 20
2089.04449315041
 10
1104.085010957607
 20
2089.316887785139
 10
1104.397257698575
 20
2089.601997016117
 10
1104.697853347139
 20
2089.899364729393
 10
1104.986317014382
 20
2090.208515200061
 10
1105.262187219975
 20
2090.528953853318
 10
1105.525022630436
 20
2090.860168055673
 10
1105.774402765177
 20
2091.20162793506
 10
1106.009928669182
 20
2091.552787228511
 10
1106.231223551246
 20
2091.913084156067
 10
1106.437933386766
 20
2092.281942319503
 10
1106.6297274841
 20
2092.658771624444
 10
1106.806299013607
 20
2093.042969224386
 10
1106.967365498505
 20
2093.433920485129
 10
1107.112669266779
 20
2093.830999968054
 10
1107.241977863395
 20
2094.233572430693
 10
1107.355084422183
 20
2094.640993842985
 10
1107.451807996777
 20
2095.05261241758
 10
1107.531993850091
 20
2095.467769652568
 10
1107.595513701865
 20
2095.885801384934
 10
1107.642265933887
 20
2096.306038853081
 10
1107.672175752558
 20
2096.727809766707
 10
1107.685195308549
 20
2097.150439382323
 10
1107.681303773348
 20
2097.573251582701
 10
1107.660507372581
 20
2097.995569958515
 10
1107.622839376054
 20
2098.416718890451
 10
1107.568360044523
 20
2098.836024630062
 10
1107.4971565333
 20
2099.252816377609
 10
1107.409342752812
 20
2099.666427355208
 10
1107.305059186376
 20
2100.076195873528
 10
1107.184472665451
 20
2100.48146639035
 10
1107.047776102749
 20
2100.881590559303
 10
1106.895188183607
 20
2101.275928267069
 10
1106.726953016149
 20
2101.663848657437
 10
1106.543339740751
 20
2102.044731140537
 10
1106.344642099487
 20
2102.417966385644
 10
1106.131177966195
 20
2102.782957295986
 10
1105.903288837954
 20
2103.139119963968
 10
1105.661339288753
 20
2103.485884605296
 10
1105.405716386259
 20
2103.822696470519
 10
1105.136829072586
 20
2104.149016732501
 10
1104.855107510075
 20
2104.464323348433
 10
1104.56100239313
 20
2104.768111894993
 10
1104.254984227199
 20
2105.05989637531
 10
1103.937542576066
 20
2105.339209996461
 10
1103.609185278656
 20
2105.605605916235
 10
1103.2704376366
 20
2105.858657957988
 10
1102.921841573862
 20
2106.097961292435
 10
1102.563954769779
 20
2106.32313308529
 10
1102.197349766893
 20
2106.533813109718
 10
1101.822613055004
 20
2106.729664322624
 10
1101.44034413291
 20
2106.910373403845
 10
1101.051154549342
 20
2107.075651257401
 10
1100.655666924609
 20
2107.225233473983
 10
1100.254513954546
 20
2107.358880753955
 10
1099.84833739833
 20
2107.476379290178
 10
1099.437787051804
 20
2107.577541110059
 10
1099.023519707944
 20
2107.662204376266
 10
1098.606198106127
 20
2107.730233645635
 10
1098.186489871891
 20
2107.781520085845
 10
1097.76506644888
 20
2107.815981649534
 10
1097.342602024671
 20
2107.833563205552
 10
1097.1143539431
 20
2107.83602754218
  0
LINE
  5
258
330
1A0
100
AcDbEntity
  8
P-SANR-FIXT
100
AcDbLine
 10
1083.618910002218
 20
2056.482558850051
 30
0.0
 11
1083.618910002218
 21
2030.232558850051
 31
0.0
  0
LINE
  5
259
330
1A0
100
AcDbEntity
  8
P-SANR-FIXT
100
AcDbLine
 10
1110.609797883981
 20
2030.232558850051
 30
0.0
 11
1110.609797883981
 21
2056.482558850051
 31
0.0
  0
LINE
  5
25A
330
1A0
100
AcDbEntity
  8
P-SANR-FIXT
100
AcDbLine
 10
1087.124992056696
 20
2113.482558850051
 30
0.0
 11
1087.124992056696
 21
2111.482558850051
 31
0.0
  0
LINE
  5
25B
330
1A0
100
AcDbEntity
  8
P-SANR-FIXT
100
AcDbLine
 10
1107.103715829504
 20
2111.482558850051
 30
0.0
 11
1107.103715829504
 21
2113.482558850051
 31
0.0
  0
LINE
  5
25C
330
1A0
100
AcDbEntity
  8
P-SANR-FIXT
100
AcDbLine
 10
1083.618910002217
 20
2030.23255885005
 30
0.0
 11
1097.114353943098
 21
2030.23255885005
 31
0.0
  0
LINE
  5
25D
330
1A0
100
AcDbEntity
  8
P-SANR-FIXT
100
AcDbLine
 10
1097.114353943098
 20
2030.23255885005
 30
0.0
 11
1110.60979788398
 21
2030.23255885005
 31
0.0
  0
LINE
  5
25E
330
1A0
100
AcDbEntity
  8
P-SANR-FIXT
100
AcDbLine
 10
1087.124992056694
 20
2113.48255885005
 30
0.0
 11
1097.114353943098
 21
2113.48255885005
 31
0.0
  0
LINE
  5
25F
330
1A0
100
AcDbEntity
  8
P-SANR-FIXT
100
AcDbLine
 10
1097.114353943098
 20
2113.48255885005
 30
0.0
 11
1107.103715829502
 21
2113.48255885005
 31
0.0
  0
LINE
  5
260
330
1A0
100
AcDbEntity
  8
P-SANR-FIXT
100
AcDbLine
 10
1063.114353943099
 20
2056.482558850051
 30
0.0
 11
1131.1143539431
 21
2056.482558850051
 31
0.0
  0
LINE
  5
261
330
1A0
100
AcDbEntity
  8
P-SANR-FIXT
100
AcDbLine
 10
1131.114353943098
 20
2068.48255885005
 30
0.0
 11
1131.114353943098
 21
2056.48255885005
 31
0.0
  0
LINE
  5
262
330
1A0
100
AcDbEntity
  8
P-SANR-FIXT
100
AcDbLine
 10
1131.114353943098
 20
2081.48255885005
 30
0.0
 11
1131.114353943098
 21
2068.48255885005
 31
0.0
  0
LINE
  5
263
330
1A0
100
AcDbEntity
  8
P-SANR-FIXT
100
AcDbLine
 10
1063.114353943098
 20
2068.48255885005
 30
0.0
 11
1063.114353943098
 21
2081.48255885005
 31
0.0
  0
LINE
  5
264
330
1A0
100
AcDbEntity
  8
P-SANR-FIXT
100
AcDbLine
 10
1063.114353943098
 20
2056.48255885005
 30
0.0
 11
1063.114353943098
 21
2068.48255885005
 31
0.0
  0
LINE
  5
265
330
1A0
100
AcDbEntity
  8
P-SANR-FIXT
100
AcDbLine
 10
1063.114353943098
 20
2081.48255885005
 30
0.0
 11
1131.114353943098
 21
2081.48255885005
 31
0.0
  0
LINE
  5
266
330
1A0
100
AcDbEntity
  8
P-SANR-FIXT
100
AcDbLine
 10
1131.1143539431
 20
2111.482558850051
 30
0.0
 11
1063.1143539431
 21
2111.482558850051
 31
0.0
  0
LINE
  5
267
330
1A0
100
AcDbEntity
  8
P-SANR-FIXT
100
AcDbLine
 10
1131.114353943098
 20
2111.48255885005
 30
0.0
 11
1131.114353943098
 21
2106.48255885005
 31
0.0
  0
LINE
  5
268
330
1A0
100
AcDbEntity
  8
P-SANR-FIXT
100
AcDbLine
 10
1131.114353943098
 20
2106.48255885005
 30
0.0
 11
1131.114353943098
 21
2081.48255885005
 31
0.0
  0
LINE
  5
269
330
1A0
100
AcDbEntity
  8
P-SANR-FIXT
100
AcDbLine
 10
1063.114353943098
 20
2081.48255885005
 30
0.0
 11
1063.114353943098
 21
2106.48255885005
 31
0.0
  0
LINE
  5
26A
330
1A0
100
AcDbEntity
  8
P-SANR-FIXT
100
AcDbLine
 10
1063.114353943098
 20
2106.48255885005
 30
0.0
 11
1063.114353943098
 21
2111.48255885005
 31
0.0
  0
LINE
  5
26B
330
1A0
100
AcDbEntity
  8
P-SANR-FIXT
100
AcDbLine
 10
1063.114353943098
 20
2081.48255885005
 30
0.0
 11
1131.114353943098
 21
2081.48255885005
 31
0.0
  0
LWPOLYLINE
  5
26C
330
1A0
100
AcDbEntity
  8
P-SANR-FIXT
100
AcDbPolyline
 90
        6
 70
   128
 43
0.0
 10
1099.1143539431
 20
1896.162558850011
 10
1099.1143539431
 20
1897.392951708966
 10
1099.1143539431
 20
1900.962941733374
 10
1099.1143539431
 20
1906.690746094549
 10
1099.1143539431
 20
1914.394581963804
 10
1099.1143539431
 20
1923.892666512453
  0
LWPOLYLINE
  5
26D
330
1A0
100
AcDbEntity
  8
P-SANR-FIXT
100
AcDbPolyline
 90
        6
 70
   128
 43
0.0
 10
1095.1143539431
 20
1923.892666512453
 10
1095.1143539431
 20
1914.394581963804
 10
1095.1143539431
 20
1906.690746094549
 10
1095.1143539431
 20
1900.962941733374
 10
1095.1143539431
 20
1897.392951708966
 10
1095.1143539431
 20
1896.162558850011
  0
LWPOLYLINE
  5
26E
330
1A0
100
AcDbEntity
  8
P-SANR-FIXT
100
AcDbPolyline
 90
        6
 70
   128
 43
0.0
 10
1095.1143539431
 20
1897.13675492196
 10
1095.1143539431
 20
1897.392951708966
 10
1095.1143539431
 20
1900.962941733374
 10
1095.1143539431
 20
1906.690746094549
 10
1095.1143539431
 20
1914.394581963804
 10
1095.1143539431
 20
1923.892666512453
  0
LWPOLYLINE
  5
26F
330
1A0
100
AcDbEntity
  8
P-SANR-FIXT
100
AcDbPolyline
 90
        6
 70
   128
 43
0.0
 10
1099.1143539431
 20
1923.892666512453
 10
1099.1143539431
 20
1914.394581963804
 10
1099.1143539431
 20
1906.690746094549
 10
1099.1143539431
 20
1900.962941733374
 10
1099.1143539431
 20
1897.392951708966
 10
1099.1143539431
 20
1897.127898543839
  0
ELLIPSE
  5
270
330
1A0
100
AcDbEntity
  8
P-SANR-FIXT
100
AcDbEllipse
 10
1097.114353943098
 20
1923.892666512452
 30
0.0
 11
2.000000000000076
 21
0.0
 31
0.0
210
0.0
220
0.0
230
1.0
 40
0.1218693434050917
 41
0.1340378133641006
 42
1.562472655919864
  0
ELLIPSE
  5
271
330
1A0
100
AcDbEntity
  8
P-SANR-FIXT
100
AcDbEllipse
 10
1097.114353943098
 20
1923.892666512452
 30
0.0
 11
2.000000000000002
 21
0.0
 31
0.0
210
0.0
220
0.0
230
1.0
 40
0.1218693434051214
 41
1.832595714594015
 42
3.007554840225709
  0
ELLIPSE
  5
272
330
1A0
100
AcDbEntity
  8
P-SANR-FIXT
100
AcDbEllipse
 10
1097.114353943098
 20
1923.892666512452
 30
0.0
 11
2.0
 21
0.0
 31
0.0
210
0.0
220
0.0
230
1.0
 40
0.1218693434052511
 41
3.141592653589793
 42
6.283185307179586
  0
SPLINE
  5
273
330
1A0
100
AcDbEntity
  8
P-SANR-FIXT
100
AcDbSpline
210
0.0
220
0.0
230
1.0
 70
     8
 71
     3
 72
     8
 73
     4
 74
     0
 42
0.000000001
 43
0.0000000001
 40
0.2788988960096692
 40
0.2788988960096692
 40
0.2788988960096692
 40
0.2788988960096692
 40
0.2857142857142857
 40
0.2857142857142857
 40
0.2857142857142857
 40
0.2857142857142857
 10
1095.305173428706
 20
1895.314761759137
 30
0.0
 10
1095.308192458664
 20
1895.308293875881
 30
0.0
 10
1095.311244681627
 20
1895.301840868905
 30
0.0
 10
1095.31433126853
 20
1895.295405207496
 30
0.0
  0
SPLINE
  5
274
330
1A0
100
AcDbEntity
  8
P-SANR-FIXT
100
AcDbSpline
210
0.0
220
0.0
230
1.0
 70
     8
 71
     3
 72
     8
 73
     4
 74
     0
 42
0.000000001
 43
0.0000000001
 40
0.7142857142857144
 40
0.7142857142857144
 40
0.7142857142857144
 40
0.7142857142857144
 40
0.7220424205362923
 40
0.7220424205362923
 40
0.7220424205362923
 40
0.7220424205362923
 10
1096.247762592406
 20
1894.362631400066
 30
0.0
 10
1096.255086037916
 20
1894.359122107733
 30
0.0
 10
1096.262420029819
 20
1894.355609467676
 30
0.0
 10
1096.269765686873
 20
1894.352101291926
 30
0.0
  0
ARC
  5
275
330
1A0
100
AcDbEntity
  8
P-SANR-FIXT
100
AcDbCircle
 10
1097.114353943098
 20
1896.16255885001
 30
0.0
 40
2.500000000000146
100
AcDbArc
 50
143.7679987368568
 51
269.9999999999997
  0
ARC
  5
276
330
1A0
100
AcDbEntity
  8
P-SANR-FIXT
100
AcDbCircle
 10
1097.114353943098
 20
1896.16255885001
 30
0.0
 40
2.499999999999772
100
AcDbArc
 50
269.9999999999997
 51
36.23200126313452
  0
ARC
  5
277
330
1A0
100
AcDbEntity
  8
P-SANR-FIXT
100
AcDbCircle
 10
1097.114353943098
 20
1896.16255885001
 30
0.0
 40
3.951171051230795
100
AcDbArc
 50
120.5360424695458
 51
269.9999999999997
  0
ARC
  5
278
330
1A0
100
AcDbEntity
  8
P-SANR-FIXT
100
AcDbCircle
 10
1097.114353943098
 20
1896.16255885001
 30
0.0
 40
3.95117105123063
100
AcDbArc
 50
269.9999999999997
 51
59.46395753045039
  0
LINE
  5
279
330
1A0
100
AcDbEntity
  8
P-SANR-FIXT
100
AcDbLine
 10
1124.104450670915
 20
1863.482558850002
 30
0.0
 11
1130.774450670915
 21
1863.482558850002
 31
0.0
  0
LINE
  5
27A
330
1A0
100
AcDbEntity
  8
P-SANR-FIXT
100
AcDbLine
 10
1130.774450670915
 20
1909.482558850002
 30
0.0
 11
1124.104450670915
 21
1909.482558850002
 31
0.0
  0
LINE
  5
27B
330
1A0
100
AcDbEntity
  8
P-SANR-FIXT
100
AcDbLine
 10
1130.774450670915
 20
1863.482558850002
 30
0.0
 11
1131.274450670915
 21
1863.982558850002
 31
0.0
  0
LINE
  5
27C
330
1A0
100
AcDbEntity
  8
P-SANR-FIXT
100
AcDbLine
 10
1131.274450670915
 20
1908.982558850002
 30
0.0
 11
1130.774450670915
 21
1909.482558850002
 31
0.0
  0
LINE
  5
27D
330
1A0
100
AcDbEntity
  8
P-SANR-FIXT
100
AcDbLine
 10
1131.274450670913
 20
1908.982558850002
 30
0.0
 11
1131.274450670914
 21
1863.982558850001
 31
0.0
  0
LINE
  5
27E
330
1A0
100
AcDbEntity
  8
P-SANR-FIXT
100
AcDbLine
 10
1124.104450670914
 20
1886.482558850002
 30
0.0
 11
1124.104450670913
 21
1909.482558850001
 31
0.0
  0
LINE
  5
27F
330
1A0
100
AcDbEntity
  8
P-SANR-FIXT
100
AcDbLine
 10
1124.104450670913
 20
1863.482558850002
 30
0.0
 11
1124.104450670914
 21
1886.482558850002
 31
0.0
  0
LINE
  5
280
330
1A0
100
AcDbEntity
  8
P-SANR-FIXT
100
AcDbLine
 10
1130.774450670913
 20
1863.482558850002
 30
0.0
 11
1130.774450670914
 21
1886.482558850002
 31
0.0
  0
LINE
  5
281
330
1A0
100
AcDbEntity
  8
P-SANR-FIXT
100
AcDbLine
 10
1130.774450670914
 20
1886.482558850002
 30
0.0
 11
1130.774450670913
 21
1909.482558850001
 31
0.0
  0
LINE
  5
282
330
1A0
100
AcDbEntity
  8
P-SANR-FIXT
100
AcDbLine
 10
1084.614353943099
 20
2030.232558850051
 30
0.0
 11
1084.614353943099
 21
2027.254345693531
 31
0.0
  0
LINE
  5
283
330
1A0
100
AcDbEntity
  8
P-SANR-FIXT
100
AcDbLine
 10
1109.6143539431
 20
2027.254344456646
 30
0.0
 11
1109.6143539431
 21
2030.232558850051
 31
0.0
  0
LINE
  5
284
330
1A0
100
AcDbEntity
  8
P-SANR-FIXT
100
AcDbLine
 10
1073.6143539431
 20
1981.300379819147
 30
0.0
 11
1073.6143539431
 21
1954.982558850011
 31
0.0
  0
LINE
  5
285
330
1A0
100
AcDbEntity
  8
P-SANR-FIXT
100
AcDbLine
 10
1120.6143539431
 20
1954.982558850011
 30
0.0
 11
1120.6143539431
 21
1981.300379819147
 31
0.0
  0
LINE
  5
286
330
1A0
100
AcDbEntity
  8
P-SANR-FIXT
100
AcDbLine
 10
1073.6143539431
 20
1954.982558850011
 30
0.0
 11
1074.6143539431
 21
1953.982558850012
 31
0.0
  0
LINE
  5
287
330
1A0
100
AcDbEntity
  8
P-SANR-FIXT
100
AcDbLine
 10
1119.6143539431
 20
1953.982558850012
 30
0.0
 11
1120.6143539431
 21
1954.982558850011
 31
0.0
  0
SPLINE
  5
288
330
1A0
100
AcDbEntity
  8
P-SANR-FIXT
100
AcDbSpline
210
0.0
220
0.0
230
1.0
 70
     8
 71
     3
 72
     8
 73
     4
 74
     0
 42
0.000000001
 43
0.0000000001
 40
0.0833333333333333
 40
0.0833333333333333
 40
0.0833333333333333
 40
0.0833333333333333
 40
0.1666666666666666
 40
0.1666666666666666
 40
0.1666666666666666
 40
0.1666666666666666
 10
1095.684264141239
 20
2029.948628017393
 30
0.0
 10
1095.21388584221
 20
2029.92621863608
 30
0.0
 10
1094.750545649683
 20
2029.892908192111
 30
0.0
 10
1094.290594863032
 20
2029.849369604722
 30
0.0
  0
SPLINE
  5
289
330
1A0
100
AcDbEntity
  8
P-SANR-FIXT
100
AcDbSpline
210
0.0
220
0.0
230
1.0
 70
     8
 71
     3
 72
     8
 73
     4
 74
     0
 42
0.000000001
 43
0.0000000001
 40
0.25
 40
0.25
 40
0.25
 40
0.25
 40
0.3333333333333333
 40
0.3333333333333333
 40
0.3333333333333333
 40
0.3333333333333333
 10
1092.933635003531
 20
2029.689512755158
 30
0.0
 10
1092.489315234549
 20
2029.62701375438
 30
0.0
 10
1092.051434197977
 20
2029.555543942036
 30
0.0
 10
1091.632700468705
 20
2029.477498673422
 30
0.0
  0
SPLINE
  5
28A
330
1A0
100
AcDbEntity
  8
P-SANR-FIXT
100
AcDbSpline
210
0.0
220
0.0
230
1.0
 70
     8
 71
     3
 72
     8
 73
     4
 74
     0
 42
0.000000001
 43
0.0000000001
 40
0.4166666666666666
 40
0.4166666666666666
 40
0.4166666666666666
 40
0.4166666666666666
 40
0.5
 40
0.5
 40
0.5
 40
0.5
 10
1090.409468726065
 20
2029.223361225421
 30
0.0
 10
1090.016152421478
 20
2029.133001529063
 30
0.0
 10
1089.644646115976
 20
2029.03907824961
 30
0.0
 10
1089.289723311564
 20
2028.942475999774
 30
0.0
  0
SPLINE
  5
28B
330
1A0
100
AcDbEntity
  8
P-SANR-FIXT
100
AcDbSpline
210
0.0
220
0.0
230
1.0
 70
     8
 71
     3
 72
     8
 73
     4
 74
     0
 42
0.000000001
 43
0.0000000001
 40
0.5833333333333333
 40
0.5833333333333333
 40
0.5833333333333333
 40
0.5833333333333333
 40
0.6666666666666666
 40
0.6666666666666666
 40
0.6666666666666666
 40
0.6666666666666666
 10
1088.242105237242
 20
2028.640150672757
 30
0.0
 10
1087.915122937018
 20
2028.539075094867
 30
0.0
 10
1087.614184740617
 20
2028.439783652249
 30
0.0
 10
1087.317376514231
 20
2028.337791757858
 30
0.0
  0
SPLINE
  5
28C
330
1A0
100
AcDbEntity
  8
P-SANR-FIXT
100
AcDbSpline
210
0.0
220
0.0
230
1.0
 70
     8
 71
     3
 72
     9
 73
     5
 74
     0
 42
0.000000001
 43
0.0000000001
 40
0.75
 40
0.75
 40
0.75
 40
0.75
 40
0.8333333333333332
 40
1.0
 40
1.0
 40
1.0
 40
1.0
 10
1086.512229623382
 20
2028.046696668045
 30
0.0
 10
1086.265194478746
 20
2027.953338126086
 30
0.0
 10
1085.590425222822
 20
2027.687131604245
 30
0.0
 10
1085.135316990227
 20
2027.488179155433
 30
0.0
 10
1084.918197375964
 20
2027.391567679043
 30
0.0
  0
SPLINE
  5
28D
330
1A0
100
AcDbEntity
  8
P-SANR-FIXT
100
AcDbSpline
210
0.0
220
0.0
230
1.0
 70
     8
 71
     3
 72
     9
 73
     5
 74
     0
 42
0.000000001
 43
0.0000000001
 40
0.0416666666666667
 40
0.0416666666666667
 40
0.0416666666666667
 40
0.0416666666666667
 40
0.0833333333333333
 40
0.125
 40
0.125
 40
0.125
 40
0.125
 10
1074.023805547347
 20
1980.829764965615
 30
0.0
 10
1074.117022612585
 20
1980.717375175366
 30
0.0
 10
1074.324105059638
 20
1980.471128966177
 30
0.0
 10
1074.574773286326
 20
1980.183358521752
 30
0.0
 10
1074.711021992993
 20
1980.030348006763
 30
0.0
  0
SPLINE
  5
28E
330
1A0
100
AcDbEntity
  8
P-SANR-FIXT
100
AcDbSpline
210
0.0
220
0.0
230
1.0
 70
     8
 71
     3
 72
     8
 73
     4
 74
     0
 42
0.000000001
 43
0.0000000001
 40
0.2083333333333333
 40
0.2083333333333333
 40
0.2083333333333333
 40
0.2083333333333333
 40
0.25
 40
0.25
 40
0.25
 40
0.25
 10
1075.681896852802
 20
1978.990899004428
 30
0.0
 10
1075.871630119412
 20
1978.797188559227
 30
0.0
 10
1076.075812924174
 20
1978.593995454577
 30
0.0
 10
1076.29194714503
 20
1978.385629088218
 30
0.0
  0
SPLINE
  5
28F
330
1A0
100
AcDbEntity
  8
P-SANR-FIXT
100
AcDbSpline
210
0.0
220
0.0
230
1.0
 70
     8
 71
     3
 72
     8
 73
     4
 74
     0
 42
0.000000001
 43
0.0000000001
 40
0.2916666666666666
 40
0.2916666666666666
 40
0.2916666666666666
 40
0.2916666666666666
 40
0.3333333333333333
 40
0.3333333333333333
 40
0.3333333333333333
 40
0.3333333333333333
 10
1076.97238994855
 20
1977.749671353278
 30
0.0
 10
1077.208615452674
 20
1977.535621411507
 30
0.0
 10
1077.452975177798
 20
1977.321056160231
 30
0.0
 10
1077.707797180177
 20
1977.10493758801
 30
0.0
  0
SPLINE
  5
290
330
1A0
100
AcDbEntity
  8
P-SANR-FIXT
100
AcDbSpline
210
0.0
220
0.0
230
1.0
 70
     8
 71
     3
 72
     8
 73
     4
 74
     0
 42
0.000000001
 43
0.0000000001
 40
0.4166666666666666
 40
0.4166666666666666
 40
0.4166666666666666
 40
0.4166666666666666
 40
0.4583333333333334
 40
0.4583333333333334
 40
0.4583333333333334
 40
0.4583333333333334
 10
1079.362923096624
 20
1975.798127847755
 30
0.0
 10
1079.659962885452
 20
1975.580104833111
 30
0.0
 10
1079.967608355374
 20
1975.362632477798
 30
0.0
 10
1080.285574939871
 20
1975.147116046093
 30
0.0
  0
SPLINE
  5
291
330
1A0
100
AcDbEntity
  8
P-SANR-FIXT
100
AcDbSpline
210
0.0
220
0.0
230
1.0
 70
     8
 71
     3
 72
     8
 73
     4
 74
     0
 42
0.000000001
 43
0.0000000001
 40
0.5
 40
0.5
 40
0.5
 40
0.5
 40
0.5416666666666666
 40
0.5416666666666666
 40
0.5416666666666666
 40
0.5416666666666666
 10
1081.270153470569
 20
1974.507839786077
 30
0.0
 10
1081.608358023052
 20
1974.297507860767
 30
0.0
 10
1081.956619512528
 20
1974.09058830732
 30
0.0
 10
1082.314642648614
 20
1973.887914905509
 30
0.0
  0
SPLINE
  5
292
330
1A0
100
AcDbEntity
  8
P-SANR-FIXT
100
AcDbSpline
210
0.0
220
0.0
230
1.0
 70
     8
 71
     3
 72
     8
 73
     4
 74
     0
 42
0.000000001
 43
0.0000000001
 40
0.5833333333333333
 40
0.5833333333333333
 40
0.5833333333333333
 40
0.5833333333333333
 40
0.5861606016712371
 40
0.5861606016712371
 40
0.5861606016712371
 40
0.5861606016712371
 10
1083.41686120481
 20
1973.292364200315
 30
0.0
 10
1083.442449864329
 20
1973.279232255349
 30
0.0
 10
1083.468083344896
 20
1973.26612543596
 30
0.0
 10
1083.493761494121
 20
1973.253043912026
 30
0.0
  0
SPLINE
  5
293
330
1A0
100
AcDbEntity
  8
P-SANR-FIXT
100
AcDbSpline
210
0.0
220
0.0
230
1.0
 70
     8
 71
     3
 72
     8
 73
     4
 74
     0
 42
0.000000001
 43
0.0000000001
 40
0.625
 40
0.625
 40
0.625
 40
0.625
 40
0.6666666666666666
 40
0.6666666666666666
 40
0.6666666666666666
 40
0.6666666666666666
 10
1084.576613337167
 20
1972.728257976228
 30
0.0
 10
1084.972606960837
 20
1972.546042141868
 30
0.0
 10
1085.378158885934
 20
1972.370335463517
 30
0.0
 10
1085.792442491438
 20
1972.201012437314
 30
0.0
  0
SPLINE
  5
294
330
1A0
100
AcDbEntity
  8
P-SANR-FIXT
100
AcDbSpline
210
0.0
220
0.0
230
1.0
 70
     8
 71
     3
 72
     8
 73
     4
 74
     0
 42
0.000000001
 43
0.0000000001
 40
0.7083333333333333
 40
0.7083333333333333
 40
0.7083333333333333
 40
0.7083333333333333
 40
0.75
 40
0.75
 40
0.75
 40
0.75
 10
1087.064310355576
 20
1971.71603051898
 30
0.0
 10
1087.49803080387
 20
1971.561848166982
 30
0.0
 10
1087.943630396431
 20
1971.419355600395
 30
0.0
 10
1088.392767572243
 20
1971.278309492542
 30
0.0
  0
SPLINE
  5
295
330
1A0
100
AcDbEntity
  8
P-SANR-FIXT
100
AcDbSpline
210
0.0
220
0.0
230
1.0
 70
     8
 71
     3
 72
     8
 73
     4
 74
     0
 42
0.000000001
 43
0.0000000001
 40
0.7916666666666665
 40
0.7916666666666665
 40
0.7916666666666665
 40
0.7916666666666665
 40
0.8333333333333332
 40
0.8333333333333332
 40
0.8333333333333332
 40
0.8333333333333332
 10
1089.766096606914
 20
1970.896503186637
 30
0.0
 10
1090.230372205881
 20
1970.779223082519
 30
0.0
 10
1090.697130129143
 20
1970.662563186555
 30
0.0
 10
1091.176443927284
 20
1970.576076152413
 30
0.0
  0
SPLINE
  5
296
330
1A0
100
AcDbEntity
  8
P-SANR-FIXT
100
AcDbSpline
210
0.0
220
0.0
230
1.0
 70
     8
 71
     3
 72
     8
 73
     4
 74
     0
 42
0.000000001
 43
0.0000000001
 40
0.8694006773125877
 40
0.8694006773125877
 40
0.8694006773125877
 40
0.8694006773125877
 40
0.8749999999999996
 40
0.8749999999999996
 40
0.8749999999999996
 40
0.8749999999999996
 10
1092.423034776705
 20
1970.351492976732
 30
0.0
 10
1092.488127822687
 20
1970.341180767915
 30
0.0
 10
1092.55346436097
 20
1970.331499042363
 30
0.0
 10
1092.619023838822
 20
1970.322394497325
 30
0.0
  0
SPLINE
  5
297
330
1A0
100
AcDbEntity
  8
P-SANR-FIXT
100
AcDbSpline
210
0.0
220
0.0
230
1.0
 70
     8
 71
     3
 72
     8
 73
     4
 74
     0
 42
0.000000001
 43
0.0000000001
 40
0.9166666666666662
 40
0.9166666666666662
 40
0.9166666666666662
 40
0.9166666666666662
 40
0.9583333333333328
 40
0.9583333333333328
 40
0.9583333333333328
 40
0.9583333333333328
 10
1094.090088085356
 20
1970.135172444308
 30
0.0
 10
1094.585295158283
 20
1970.085006957658
 30
0.0
 10
1095.089291813123
 20
1970.059659572539
 30
0.0
 10
1095.595521604528
 20
1970.040450552356
 30
0.0
  0
SPLINE
  5
298
330
1A0
100
AcDbEntity
  8
P-SANR-FIXT
100
AcDbSpline
210
0.0
220
0.0
230
1.0
 70
     8
 71
     3
 72
     8
 73
     4
 74
     0
 42
0.000000001
 43
0.0000000001
 40
0.0416666666666667
 40
0.0416666666666667
 40
0.0416666666666667
 40
0.0416666666666667
 40
0.0833333333333333
 40
0.0833333333333333
 40
0.0833333333333333
 40
0.0833333333333333
 10
1098.639457482577
 20
1970.021242067953
 30
0.0
 10
1099.14359748192
 20
1970.046854392521
 30
0.0
 10
1099.643414247496
 20
1970.08500814838
 30
0.0
 10
1100.138621623527
 20
1970.135173873251
 30
0.0
  0
SPLINE
  5
299
330
1A0
100
AcDbEntity
  8
P-SANR-FIXT
100
AcDbSpline
210
0.0
220
0.0
230
1.0
 70
     8
 71
     3
 72
     8
 73
     4
 74
     0
 42
0.000000001
 43
0.0000000001
 40
0.125
 40
0.125
 40
0.125
 40
0.125
 40
0.1305993226874069
 40
0.1305993226874069
 40
0.1305993226874069
 40
0.1305993226874069
 10
1101.61012943127
 20
1970.321177492238
 30
0.0
 10
1101.675399944024
 20
1970.331076225818
 30
0.0
 10
1101.740582048124
 20
1970.341182321883
 30
0.0
 10
1101.805675049124
 20
1970.351494495517
 30
0.0
  0
SPLINE
  5
29A
330
1A0
100
AcDbEntity
  8
P-SANR-FIXT
100
AcDbSpline
210
0.0
220
0.0
230
1.0
 70
     8
 71
     3
 72
     8
 73
     4
 74
     0
 42
0.000000001
 43
0.0000000001
 40
0.1666666666666666
 40
0.1666666666666666
 40
0.1666666666666666
 40
0.1666666666666666
 40
0.2083333333333333
 40
0.2083333333333333
 40
0.2083333333333333
 40
0.2083333333333333
 10
1103.052263958913
 20
1970.576076152413
 30
0.0
 10
1103.527889150584
 20
1970.672171904517
 30
0.0
 10
1103.99833264357
 20
1970.779220701576
 30
0.0
 10
1104.462607636526
 20
1970.896500329596
 30
0.0
  0
SPLINE
  5
29B
330
1A0
100
AcDbEntity
  8
P-SANR-FIXT
100
AcDbSpline
210
0.0
220
0.0
230
1.0
 70
     8
 71
     3
 72
     8
 73
     4
 74
     0
 42
0.000000001
 43
0.0000000001
 40
0.25
 40
0.25
 40
0.25
 40
0.25
 40
0.2916666666666666
 40
0.2916666666666666
 40
0.2916666666666666
 40
0.2916666666666666
 10
1105.835940313954
 20
1971.278309492542
 30
0.0
 10
1106.286891514415
 20
1971.415328569097
 30
0.0
 10
1106.73068740005
 20
1971.56185625928
 30
0.0
 10
1107.16439753062
 20
1971.71603051898
 30
0.0
  0
SPLINE
  5
29C
330
1A0
100
AcDbEntity
  8
P-SANR-FIXT
100
AcDbSpline
210
0.0
220
0.0
230
1.0
 70
     8
 71
     3
 72
     8
 73
     4
 74
     0
 42
0.000000001
 43
0.0000000001
 40
0.3333333333333333
 40
0.3333333333333333
 40
0.3333333333333333
 40
0.3333333333333333
 40
0.375
 40
0.375
 40
0.375
 40
0.375
 10
1108.436265394759
 20
1972.201012437315
 30
0.0
 10
1108.850798842277
 20
1972.369999282513
 30
0.0
 10
1109.256241252169
 20
1972.54615210533
 30
0.0
 10
1109.652346647196
 20
1972.728455566402
 30
0.0
  0
SPLINE
  5
29D
330
1A0
100
AcDbEntity
  8
P-SANR-FIXT
100
AcDbSpline
210
0.0
220
0.0
230
1.0
 70
     8
 71
     3
 72
     8
 73
     4
 74
     0
 42
0.000000001
 43
0.0000000001
 40
0.413839398328769
 40
0.413839398328769
 40
0.413839398328769
 40
0.413839398328769
 40
0.4166666666666667
 40
0.4166666666666667
 40
0.4166666666666667
 40
0.4166666666666667
 10
1110.735493433791
 20
1973.253466364391
 30
0.0
 10
1110.761175317537
 20
1973.266554662891
 30
0.0
 10
1110.786813154399
 20
1973.279666922191
 30
0.0
 10
1110.812406867599
 20
1973.292802825108
 30
0.0
  0
SPLINE
  5
29E
330
1A0
100
AcDbEntity
  8
P-SANR-FIXT
100
AcDbSpline
210
0.0
220
0.0
230
1.0
 70
     8
 71
     3
 72
     8
 73
     4
 74
     0
 42
0.000000001
 43
0.0000000001
 40
0.4583333333333334
 40
0.4583333333333334
 40
0.4583333333333334
 40
0.4583333333333334
 40
0.5
 40
0.5
 40
0.5
 40
0.5
 10
1111.914968213998
 20
1973.887961615804
 30
0.0
 10
1112.27274150806
 20
1974.090806234787
 30
0.0
 10
1112.620685331255
 20
1974.297770623882
 30
0.0
 10
1112.958554415627
 20
1974.507839786077
 30
0.0
  0
SPLINE
  5
29F
330
1A0
100
AcDbEntity
  8
P-SANR-FIXT
100
AcDbSpline
210
0.0
220
0.0
230
1.0
 70
     8
 71
     3
 72
     8
 73
     4
 74
     0
 42
0.000000001
 43
0.0000000001
 40
0.5416666666666666
 40
0.5416666666666666
 40
0.5416666666666666
 40
0.5416666666666666
 40
0.5833333333333333
 40
0.5833333333333333
 40
0.5833333333333333
 40
0.5833333333333333
 10
1113.942050070768
 20
1975.146437903372
 30
0.0
 10
1114.25988341843
 20
1975.361793429846
 30
0.0
 10
1114.567757625135
 20
1975.579331506291
 30
0.0
 10
1114.865784789573
 20
1975.798127847755
 30
0.0
  0
SPLINE
  5
2A0
330
1A0
100
AcDbEntity
  8
P-SANR-FIXT
100
AcDbSpline
210
0.0
220
0.0
230
1.0
 70
     8
 71
     3
 72
     8
 73
     4
 74
     0
 42
0.000000001
 43
0.0000000001
 40
0.6666666666666666
 40
0.6666666666666666
 40
0.6666666666666666
 40
0.6666666666666666
 40
0.7083333333333333
 40
0.7083333333333333
 40
0.7083333333333333
 40
0.7083333333333333
 10
1116.52091070602
 20
1977.10493758801
 30
0.0
 10
1116.775012561026
 20
1977.320504556187
 30
0.0
 10
1117.019863187977
 20
1977.535442902315
 30
0.0
 10
1117.256317937646
 20
1977.749671353278
 30
0.0
  0
SPLINE
  5
2A1
330
1A0
100
AcDbEntity
  8
P-SANR-FIXT
100
AcDbSpline
210
0.0
220
0.0
230
1.0
 70
     8
 71
     3
 72
     8
 73
     4
 74
     0
 42
0.000000001
 43
0.0000000001
 40
0.75
 40
0.75
 40
0.75
 40
0.75
 40
0.7916666666666666
 40
0.7916666666666666
 40
0.7916666666666666
 40
0.7916666666666666
 10
1117.936760741166
 20
1978.385629088218
 30
0.0
 10
1118.152843160943
 20
1978.59395584505
 30
0.0
 10
1118.35668299161
 20
1978.796840732034
 30
0.0
 10
1118.546811033394
 20
1978.990899004428
 30
0.0
  0
SPLINE
  5
2A2
330
1A0
100
AcDbEntity
  8
P-SANR-FIXT
100
AcDbSpline
210
0.0
220
0.0
230
1.0
 70
     8
 71
     3
 72
     9
 73
     5
 74
     0
 42
0.000000001
 43
0.0000000001
 40
0.875
 40
0.875
 40
0.875
 40
0.875
 40
0.9166666666666666
 40
0.9583333333333282
 40
0.9583333333333282
 40
0.9583333333333282
 40
0.9583333333333282
 10
1119.517685893204
 20
1980.030348006763
 30
0.0
 10
1119.653935619782
 20
1980.183359300417
 30
0.0
 10
1119.911294528626
 20
1980.478401688147
 30
0.0
 10
1120.098300849566
 20
1980.702828952761
 30
0.0
 10
1120.187335470384
 20
1980.810673195723
 30
0.0
  0
SPLINE
  5
2A3
330
1A0
100
AcDbEntity
  8
P-SANR-FIXT
100
AcDbSpline
210
0.0
220
0.0
230
1.0
 70
     8
 71
     3
 72
     9
 73
     5
 74
     0
 42
0.000000001
 43
0.0000000001
 40
0.0
 40
0.0
 40
0.0
 40
0.0
 40
0.1666666666666666
 40
0.25
 40
0.25
 40
0.25
 40
0.25
 10
1109.310510510232
 20
2027.391567679043
 30
0.0
 10
1109.09339089597
 20
2027.488179155433
 30
0.0
 10
1108.638282663374
 20
2027.687131604245
 30
0.0
 10
1107.963513407451
 20
2027.953338126086
 30
0.0
 10
1107.716478262815
 20
2028.046696668045
 30
0.0
  0
SPLINE
  5
2A4
330
1A0
100
AcDbEntity
  8
P-SANR-FIXT
100
AcDbSpline
210
0.0
220
0.0
230
1.0
 70
     8
 71
     3
 72
     8
 73
     4
 74
     0
 42
0.000000001
 43
0.0000000001
 40
0.3333333333333333
 40
0.3333333333333333
 40
0.3333333333333333
 40
0.3333333333333333
 40
0.4166666666666666
 40
0.4166666666666666
 40
0.4166666666666666
 40
0.4166666666666666
 10
1106.911331371965
 20
2028.337791757858
 30
0.0
 10
1106.622366829715
 20
2028.437546729074
 30
0.0
 10
1106.310033112445
 20
2028.536777922642
 30
0.0
 10
1105.978611016303
 20
2028.634982035251
 30
0.0
  0
SPLINE
  5
2A5
330
1A0
100
AcDbEntity
  8
P-SANR-FIXT
100
AcDbSpline
210
0.0
220
0.0
230
1.0
 70
     8
 71
     3
 72
     8
 73
     4
 74
     0
 42
0.000000001
 43
0.0000000001
 40
0.5
 40
0.5
 40
0.5
 40
0.5
 40
0.5833333333333333
 40
0.5833333333333333
 40
0.5833333333333333
 40
0.5833333333333333
 10
1104.952671407815
 20
2028.939792860239
 30
0.0
 10
1104.590905186812
 20
2029.037736679842
 30
0.0
 10
1104.209557237654
 20
2029.129989539184
 30
0.0
 10
1103.814741819535
 20
2029.218843240602
 30
0.0
  0
SPLINE
  5
2A6
330
1A0
100
AcDbEntity
  8
P-SANR-FIXT
100
AcDbSpline
210
0.0
220
0.0
230
1.0
 70
     8
 71
     3
 72
     8
 73
     4
 74
     0
 42
0.000000001
 43
0.0000000001
 40
0.6666666666666666
 40
0.6666666666666666
 40
0.6666666666666666
 40
0.6666666666666666
 40
0.75
 40
0.75
 40
0.75
 40
0.75
 10
1102.596007417491
 20
2029.477498673422
 30
0.0
 10
1102.174374866517
 20
2029.555821881573
 30
0.0
 10
1101.74426057009
 20
2029.634826129477
 30
0.0
 10
1101.30237476033
 20
2029.701231317805
 30
0.0
  0
SPLINE
  5
2A7
330
1A0
100
AcDbEntity
  8
P-SANR-FIXT
100
AcDbSpline
210
0.0
220
0.0
230
1.0
 70
     8
 71
     3
 72
     8
 73
     4
 74
     0
 42
0.000000001
 43
0.0000000001
 40
0.8333333333333332
 40
0.8333333333333332
 40
0.8333333333333332
 40
0.8333333333333332
 40
0.9166666666666667
 40
0.9166666666666667
 40
0.9166666666666667
 40
0.9166666666666667
 10
1099.938113023164
 20
2029.849369604722
 30
0.0
 10
1099.47913025574
 20
2029.892921324758
 30
0.0
 10
1099.008379635238
 20
2029.915013945424
 30
0.0
 10
1098.534780131835
 20
2029.931820981409
 30
0.0
  0
SPLINE
  5
2A8
330
1A0
100
AcDbEntity
  8
P-SANR-FIXT
100
AcDbSpline
210
0.0
220
0.0
230
1.0
 70
     8
 71
     3
 72
     8
 73
     4
 74
     0
 42
0.000000001
 43
0.0000000001
 40
0.1221073002242662
 40
0.1221073002242662
 40
0.1221073002242662
 40
0.1221073002242662
 40
0.125
 40
0.125
 40
0.125
 40
0.125
 10
1084.614317524568
 20
2027.254322899421
 30
0.0
 10
1084.614329498279
 20
2027.254327862546
 30
0.0
 10
1084.614398959219
 20
2027.25435939799
 30
0.0
 10
1084.614525051906
 20
2027.254417563543
 30
0.0
  0
SPLINE
  5
2A9
330
1A0
100
AcDbEntity
  8
P-SANR-FIXT
100
AcDbSpline
210
0.0
220
0.0
230
1.0
 70
     8
 71
     3
 72
     8
 73
     4
 74
     0
 42
0.000000001
 43
0.0000000001
 40
0.875
 40
0.875
 40
0.875
 40
0.875
 40
0.8778042744478559
 40
0.8778042744478559
 40
0.8778042744478559
 40
0.8778042744478559
 10
1109.614193322756
 20
2027.25441275624
 30
0.0
 10
1109.614312680061
 20
2027.254357814447
 30
0.0
 10
1109.61427357148
 20
2027.2543744794
 30
0.0
 10
1109.614083053084
 20
2027.254459563348
 30
0.0
  0
LINE
  5
2AA
330
1A0
100
AcDbEntity
  8
P-SANR-FIXT
100
AcDbLine
 10
1073.614353943098
 20
1954.982558850011
 30
0.0
 11
1097.114353943098
 21
1954.982558850011
 31
0.0
  0
LINE
  5
2AB
330
1A0
100
AcDbEntity
  8
P-SANR-FIXT
100
AcDbLine
 10
1097.114353943098
 20
1954.982558850011
 30
0.0
 11
1120.614353943098
 21
1954.982558850011
 31
0.0
  0
LINE
  5
2AC
330
1A0
100
AcDbEntity
  8
P-SANR-FIXT
100
AcDbLine
 10
1097.114353943098
 20
1953.98255885001
 30
0.0
 11
1074.614353943099
 21
1953.98255885001
 31
0.0
  0
LINE
  5
2AD
330
1A0
100
AcDbEntity
  8
P-SANR-FIXT
100
AcDbLine
 10
1119.614353943098
 20
1953.98255885001
 30
0.0
 11
1097.114353943099
 21
1953.98255885001
 31
0.0
  0
ENDBLK
  5
2AF
330
1A0
100
AcDbEntity
  8
0
100
AcDbBlockEnd
  0
ENDSEC
  0
SECTION
  2
ENTITIES
  0
INSERT
  5
19F
330
71
100
AcDbEntity
  8
P-SANR-FIXT
100
AcDbBlockReference
  2
Automatic flow rate regulator valve_Caleffi_121 DN15 - 1_2__-859151-Est - Idraulica
 10
0.0
 20
0.0
 30
0.0
1001
REVIT
1002
{
1070
     1
1000
863131
1002
}
1002
{
1070
     5
1000
859151
1002
}
1002
{
1070
     2
1000
-2001160
1002
}
  0
INSERT
  5
2B0
330
71
100
AcDbEntity
  8
P-SANR-FIXT
100
AcDbBlockReference
  2
Automatic flow rate regulator valve_Caleffi_121 DN15 - 1_2__-V1-Est - Idraulica
 10
0.0
 20
0.0
 30
0.0
1001
REVIT
1002
{
1070
     1
1000
863172
1002
}
1002
{
1070
     5
1000
859151
1002
}
1002
{
1070
     2
1000
-2001160
1002
}
  0
ENDSEC
  0
SECTION
  2
OBJECTS
  0
DICTIONARY
  5
C
330
0
100
AcDbDictionary
281
     1
  3
ACAD_CIP_PREVIOUS_PRODUCT_INFO
350
7A
  3
ACAD_COLOR
350
63
  3
ACAD_DETAILVIEWSTYLE
350
6B
  3
ACAD_GROUP
350
D
  3
ACAD_IMAGE_VARS
350
7B
  3
ACAD_LAYOUT
350
62
  3
ACAD_MATERIAL
350
10
  3
ACAD_MLEADERSTYLE
350
66
  3
ACAD_MLINESTYLE
350
5F
  3
ACAD_PLOTSETTINGS
350
61
  3
ACAD_PLOTSTYLENAME
350
E
  3
ACAD_SCALELIST
350
42
  3
ACAD_SECTIONVIEWSTYLE
350
68
  3
ACAD_TABLESTYLE
350
64
  3
ACAD_VISUALSTYLE
350
29
  3
ACDB_RECOMPOSE_DATA
350
2BA
  3
AcDbVariableDictionary
350
7C
  3
REVIT_DICTIONARY
350
2B2
  0
DICTIONARY
  5
2B6
330
71
100
AcDbDictionary
280
     1
281
     1
  3
ACAD_SORTENTS
360
2B7
  0
XRECORD
  5
7A
102
{ACAD_REACTORS
330
C
102
}
330
C
100
AcDbXrecord
280
     1
300
RVT
300
2013
300
RVT2013
  0
DICTIONARY
  5
63
102
{ACAD_REACTORS
330
C
102
}
330
C
100
AcDbDictionary
281
     1
  0
DICTIONARY
  5
6B
102
{ACAD_REACTORS
330
C
102
}
330
C
100
AcDbDictionary
281
     1
  3
Imperial24
350
6C
  0
DICTIONARY
  5
D
102
{ACAD_REACTORS
330
C
102
}
330
C
100
AcDbDictionary
281
     1
  0
RASTERVARIABLES
  5
7B
102
{ACAD_REACTORS
330
C
102
}
330
C
100
AcDbRasterVariables
 90
        0
 70
     0
 71
     1
 72
     1
  0
DICTIONARY
  5
62
102
{ACAD_REACTORS
330
C
102
}
330
C
100
AcDbDictionary
281
     1
  3
Layout1
350
70
  3
Layout2
350
78
  3
Model
350
74
  0
DICTIONARY
  5
10
102
{ACAD_REACTORS
330
C
102
}
330
C
100
AcDbDictionary
281
     1
  3
ByBlock
350
19
  3
ByLayer
350
11
  3
Global
350
21
  0
DICTIONARY
  5
66
102
{ACAD_REACTORS
330
C
102
}
330
C
100
AcDbDictionary
281
     1
  3
Standard
350
67
  0
DICTIONARY
  5
5F
102
{ACAD_REACTORS
330
C
102
}
330
C
100
AcDbDictionary
281
     1
  3
Standard
350
60
  0
DICTIONARY
  5
61
102
{ACAD_REACTORS
330
C
102
}
330
C
100
AcDbDictionary
281
     1
  0
ACDBDICTIONARYWDFLT
  5
E
102
{ACAD_REACTORS
330
C
102
}
330
C
100
AcDbDictionary
281
     1
  3
Normal
350
F
100
AcDbDictionaryWithDefault
340
F
  0
DICTIONARY
  5
42
102
{ACAD_REACTORS
330
C
102
}
330
C
100
AcDbDictionary
281
     1
  3
A0
350
43
  3
A1
350
44
  3
A2
350
45
  3
A3
350
46
  3
A4
350
47
  3
A5
350
48
  3
A6
350
49
  3
A7
350
4A
  3
A8
350
4B
  3
A9
350
4C
  3
B0
350
4D
  3
B1
350
4E
  3
B2
350
4F
  3
B3
350
50
  3
B4
350
51
  3
B5
350
52
  3
B6
350
53
  0
DICTIONARY
  5
68
102
{ACAD_REACTORS
330
C
102
}
330
C
100
AcDbDictionary
281
     1
  3
Imperial24
350
6A
  0
DICTIONARY
  5
64
102
{ACAD_REACTORS
330
C
102
}
330
C
100
AcDbDictionary
281
     1
  3
Standard
350
65
  0
DICTIONARY
  5
29
102
{ACAD_REACTORS
330
C
102
}
330
C
100
AcDbDictionary
281
     1
  3
2dWireframe
350
2F
  3
Basic
350
2E
  3
Brighten
350
35
  3
ColorChange
350
39
  3
Conceptual
350
32
  3
Dim
350
34
  3
EdgeColorOff
350
41
  3
Facepattern
350
38
  3
Flat
350
2A
  3
FlatWithEdges
350
2B
  3
Gouraud
350
2C
  3
GouraudWithEdges
350
2D
  3
Hidden
350
31
  3
JitterOff
350
3F
  3
Linepattern
350
37
  3
OverhangOff
350
40
  3
Realistic
350
33
  3
Shaded
350
3E
  3
Shaded with edges
350
3D
  3
Shades of Gray
350
3A
  3
Sketchy
350
3B
  3
Thicken
350
36
  3
Wireframe
350
30
  3
X-Ray
350
3C
  0
XRECORD
  5
2BA
102
{ACAD_REACTORS
330
C
102
}
330
C
100
AcDbXrecord
280
     1
 90
        1
330
65
  0
DICTIONARY
  5
7C
102
{ACAD_REACTORS
330
C
102
}
330
C
100
AcDbDictionary
281
     1
  3
CANNOSCALE
350
81
  3
CMLEADERSTYLE
350
7E
  3
CTABLESTYLE
350
7D
  3
CVIEWDETAILSTYLE
350
7F
  3
CVIEWSECTIONSTYLE
350
80
  0
DICTIONARY
  5
2B2
102
{ACAD_REACTORS
330
C
102
}
330
C
100
AcDbDictionary
281
     1
  3
DRAWING_TOOL
350
2B5
  3
REVIT_CATEGORY_MAPPING
350
2B4
  3
REVIT_TYPE_MAPPING
350
2B3
  0
SORTENTSTABLE
  5
2B7
102
{ACAD_REACTORS
330
2B6
102
}
330
2B6
100
AcDbSortentsTable
330
71
  0
ACDBDETAILVIEWSTYLE
  5
6C
102
{ACAD_REACTORS
330
6B
102
}
330
6B
100
AcDbModelDocViewStyle
 70
     0
  3
Imperial24
290
     1
100
AcDbDetailViewStyle
 70
     0
 71
     0
 90
        3
 71
     1
340
55
 62
   256
 40
0.24
340
0
 62
   256
 40
0.24
300

 40
0.36
280
     3
 71
     2
340
5D
 90
       25
 62
   256
 71
     3
340
55
 62
   256
 40
0.24
 90
        1
 40
0.75
 90
        1
300
%<\AcVar ViewType \f "%tc1">% %<\AcVar ViewDetailId>%\PSCALA %<\AcVar ViewScale \f "%sn">%
 71
     4
340
5D
 90
       25
 62
   256
340
5D
 90
       25
 62
   256
280
     0
  0
LAYOUT
  5
70
102
{ACAD_REACTORS
330
62
102
}
330
62
100
AcDbPlotSettings
  1

  2

  4

  6

 40
0.0
 41
0.0
 42
0.0
 43
0.0
 44
0.0
 45
0.0
 46
0.0
 47
0.0
 48
0.0
 49
0.0
140
0.0
141
0.0
142
1.0
143
1.0
 70
   688
 72
     0
 73
     0
 74
     5
  7

 75
    16
147
1.0
 76
     0
 77
     2
 78
   300
148
0.0
149
0.0
100
AcDbLayout
  1
Layout1
 70
     1
 71
     1
 10
0.0
 20
0.0
 11
12.0
 21
9.0
 12
0.0
 22
0.0
 32
0.0
 14
0.0
 24
0.0
 34
0.0
 15
0.0
 25
0.0
 35
0.0
146
0.0
 13
0.0
 23
0.0
 33
0.0
 16
1.0
 26
0.0
 36
0.0
 17
0.0
 27
1.0
 37
0.0
 76
     0
330
6D
  0
LAYOUT
  5
78
102
{ACAD_REACTORS
330
62
102
}
330
62
100
AcDbPlotSettings
  1

  2

  4

  6

 40
0.0
 41
0.0
 42
0.0
 43
0.0
 44
0.0
 45
0.0
 46
0.0
 47
0.0
 48
0.0
 49
0.0
140
0.0
141
0.0
142
1.0
143
1.0
 70
   688
 72
     0
 73
     0
 74
     5
  7

 75
    16
147
1.0
 76
     0
 77
     2
 78
   300
148
0.0
149
0.0
100
AcDbLayout
  1
Layout2
 70
     1
 71
     2
 10
0.0
 20
0.0
 11
12.0
 21
9.0
 12
0.0
 22
0.0
 32
0.0
 14
0.0
 24
0.0
 34
0.0
 15
0.0
 25
0.0
 35
0.0
146
0.0
 13
0.0
 23
0.0
 33
0.0
 16
1.0
 26
0.0
 36
0.0
 17
0.0
 27
1.0
 37
0.0
 76
     0
330
75
  0
LAYOUT
  5
74
102
{ACAD_REACTORS
330
62
102
}
330
62
100
AcDbPlotSettings
  1

  2

  4

  6

 40
0.0
 41
0.0
 42
0.0
 43
0.0
 44
0.0
 45
0.0
 46
0.0
 47
0.0
 48
0.0
 49
0.0
140
0.0
141
0.0
142
1.0
143
1.0
 70
  1712
 72
     0
 73
     0
 74
     0
  7

 75
     0
147
1.0
 76
     0
 77
     2
 78
   300
148
0.0
149
0.0
100
AcDbLayout
  1
Model
 70
     1
 71
     0
 10
0.0
 20
0.0
 11
12.0
 21
9.0
 12
0.0
 22
0.0
 32
0.0
 14
0.0
 24
0.0
 34
0.0
 15
0.0
 25
0.0
 35
0.0
146
0.0
 13
0.0
 23
0.0
 33
0.0
 16
1.0
 26
0.0
 36
0.0
 17
0.0
 27
1.0
 37
0.0
 76
     0
330
71
  0
MATERIAL
  5
19
102
{ACAD_XDICTIONARY
360
1A
102
}
102
{ACAD_REACTORS
330
10
102
}
330
10
100
AcDbMaterial
  1
ByBlock
 72
     0
 43
0.0208333333333333
 43
0.0
 43
0.0
 43
0.0
 43
0.0
 43
0.0208333333333333
 43
0.0
 43
0.0
 43
0.0
 43
0.0
 43
1.0
 43
0.0
 43
0.0
 43
0.0
 43
0.0
 43
1.0
 77
     0
 47
0.0208333333333333
 47
0.0
 47
0.0
 47
0.0
 47
0.0
 47
0.0208333333333333
 47
0.0
 47
0.0
 47
0.0
 47
0.0
 47
1.0
 47
0.0
 47
0.0
 47
0.0
 47
0.0
 47
1.0
171
     0
 49
0.0208333333333333
 49
0.0
 49
0.0
 49
0.0
 49
0.0
 49
0.0208333333333333
 49
0.0
 49
0.0
 49
0.0
 49
0.0
 49
1.0
 49
0.0
 49
0.0
 49
0.0
 49
0.0
 49
1.0
175
     0
142
0.0208333333333333
142
0.0
142
0.0
142
0.0
142
0.0
142
0.0208333333333333
142
0.0
142
0.0
142
0.0
142
0.0
142
1.0
142
0.0
142
0.0
142
0.0
142
0.0
142
1.0
179
     0
144
0.0208333333333333
144
0.0
144
0.0
144
0.0
144
0.0
144
0.0208333333333333
144
0.0
144
0.0
144
0.0
144
0.0
144
1.0
144
0.0
144
0.0
144
0.0
144
0.0
144
1.0
147
0.0208333333333333
147
0.0
147
0.0
147
0.0
147
0.0
147
0.0208333333333333
147
0.0
147
0.0
147
0.0
147
0.0
147
1.0
147
0.0
147
0.0
147
0.0
147
0.0
147
1.0
  0
MATERIAL
  5
11
102
{ACAD_XDICTIONARY
360
12
102
}
102
{ACAD_REACTORS
330
10
102
}
330
10
100
AcDbMaterial
  1
ByLayer
 72
     0
 43
0.0208333333333333
 43
0.0
 43
0.0
 43
0.0
 43
0.0
 43
0.0208333333333333
 43
0.0
 43
0.0
 43
0.0
 43
0.0
 43
1.0
 43
0.0
 43
0.0
 43
0.0
 43
0.0
 43
1.0
 77
     0
 47
0.0208333333333333
 47
0.0
 47
0.0
 47
0.0
 47
0.0
 47
0.0208333333333333
 47
0.0
 47
0.0
 47
0.0
 47
0.0
 47
1.0
 47
0.0
 47
0.0
 47
0.0
 47
0.0
 47
1.0
171
     0
 49
0.0208333333333333
 49
0.0
 49
0.0
 49
0.0
 49
0.0
 49
0.0208333333333333
 49
0.0
 49
0.0
 49
0.0
 49
0.0
 49
1.0
 49
0.0
 49
0.0
 49
0.0
 49
0.0
 49
1.0
175
     0
142
0.0208333333333333
142
0.0
142
0.0
142
0.0
142
0.0
142
0.0208333333333333
142
0.0
142
0.0
142
0.0
142
0.0
142
1.0
142
0.0
142
0.0
142
0.0
142
0.0
142
1.0
179
     0
144
0.0208333333333333
144
0.0
144
0.0
144
0.0
144
0.0
144
0.0208333333333333
144
0.0
144
0.0
144
0.0
144
0.0
144
1.0
144
0.0
144
0.0
144
0.0
144
0.0
144
1.0
147
0.0208333333333333
147
0.0
147
0.0
147
0.0
147
0.0
147
0.0208333333333333
147
0.0
147
0.0
147
0.0
147
0.0
147
1.0
147
0.0
147
0.0
147
0.0
147
0.0
147
1.0
  0
MATERIAL
  5
21
102
{ACAD_XDICTIONARY
360
22
102
}
102
{ACAD_REACTORS
330
10
102
}
330
10
100
AcDbMaterial
  1
Global
 72
     0
 43
0.0208333333333333
 43
0.0
 43
0.0
 43
0.0
 43
0.0
 43
0.0208333333333333
 43
0.0
 43
0.0
 43
0.0
 43
0.0
 43
1.0
 43
0.0
 43
0.0
 43
0.0
 43
0.0
 43
1.0
 77
     0
 47
0.0208333333333333
 47
0.0
 47
0.0
 47
0.0
 47
0.0
 47
0.0208333333333333
 47
0.0
 47
0.0
 47
0.0
 47
0.0
 47
1.0
 47
0.0
 47
0.0
 47
0.0
 47
0.0
 47
1.0
171
     0
 49
0.0208333333333333
 49
0.0
 49
0.0
 49
0.0
 49
0.0
 49
0.0208333333333333
 49
0.0
 49
0.0
 49
0.0
 49
0.0
 49
1.0
 49
0.0
 49
0.0
 49
0.0
 49
0.0
 49
1.0
175
     0
142
0.0208333333333333
142
0.0
142
0.0
142
0.0
142
0.0
142
0.0208333333333333
142
0.0
142
0.0
142
0.0
142
0.0
142
1.0
142
0.0
142
0.0
142
0.0
142
0.0
142
1.0
179
     0
144
0.0208333333333333
144
0.0
144
0.0
144
0.0
144
0.0
144
0.0208333333333333
144
0.0
144
0.0
144
0.0
144
0.0
144
1.0
144
0.0
144
0.0
144
0.0
144
0.0
144
1.0
147
0.0208333333333333
147
0.0
147
0.0
147
0.0
147
0.0
147
0.0208333333333333
147
0.0
147
0.0
147
0.0
147
0.0
147
1.0
147
0.0
147
0.0
147
0.0
147
0.0
147
1.0
  0
MLEADERSTYLE
  5
67
102
{ACAD_REACTORS
330
66
102
}
330
66
100
AcDbMLeaderStyle
179
     2
170
     2
171
     1
172
     0
 90
        2
 40
0.0
 41
0.0
173
     1
 91
-1056964608
340
5B
 92
       -2
290
     1
 42
0.09
291
     1
 43
0.36
  3
Standard
 44
0.18
300

342
55
174
     1
178
     6
175
     1
176
     0
 93
-1056964608
 45
0.18
292
     0
297
     0
 46
0.18
 94
-1056964608
 47
1.0
 49
1.0
140
1.0
293
     1
141
0.0
294
     1
177
     0
142
1.0
295
     1
296
     0
143
0.125
271
     0
272
     9
273
     9
298
     1
  0
MLINESTYLE
  5
60
102
{ACAD_REACTORS
330
5F
102
}
330
5F
100
AcDbMlineStyle
  2
STANDARD
 70
     0
  3

 62
   256
 51
90.0
 52
90.0
 71
     2
 49
0.5
 62
   256
  6
BYLAYER
 49
-0.5
 62
   256
  6
BYLAYER
  0
ACDBPLACEHOLDER
  5
F
102
{ACAD_REACTORS
330
E
102
}
330
E
  0
SCALE
  5
43
102
{ACAD_REACTORS
330
42
102
}
330
42
100
AcDbScale
 70
     0
300
1:1
140
1.0
141
1.0
290
     1
  0
SCALE
  5
44
102
{ACAD_REACTORS
330
42
102
}
330
42
100
AcDbScale
 70
     0
300
1/128" = 1'-0"
140
0.0078125
141
12.0
290
     0
  0
SCALE
  5
45
102
{ACAD_REACTORS
330
42
102
}
330
42
100
AcDbScale
 70
     0
300
1/64" = 1'-0"
140
0.015625
141
12.0
290
     0
  0
SCALE
  5
46
102
{ACAD_REACTORS
330
42
102
}
330
42
100
AcDbScale
 70
     0
300
1/32" = 1'-0"
140
0.03125
141
12.0
290
     0
  0
SCALE
  5
47
102
{ACAD_REACTORS
330
42
102
}
330
42
100
AcDbScale
 70
     0
300
1/16" = 1'-0"
140
0.0625
141
12.0
290
     0
  0
SCALE
  5
48
102
{ACAD_REACTORS
330
42
102
}
330
42
100
AcDbScale
 70
     0
300
3/32" = 1'-0"
140
0.09375
141
12.0
290
     0
  0
SCALE
  5
49
102
{ACAD_REACTORS
330
42
102
}
330
42
100
AcDbScale
 70
     0
300
1/8" = 1'-0"
140
0.125
141
12.0
290
     0
  0
SCALE
  5
4A
102
{ACAD_REACTORS
330
42
102
}
330
42
100
AcDbScale
 70
     0
300
3/16" = 1'-0"
140
0.1875
141
12.0
290
     0
  0
SCALE
  5
4B
102
{ACAD_REACTORS
330
42
102
}
330
42
100
AcDbScale
 70
     0
300
1/4" = 1'-0"
140
0.25
141
12.0
290
     0
  0
SCALE
  5
4C
102
{ACAD_REACTORS
330
42
102
}
330
42
100
AcDbScale
 70
     0
300
3/8" = 1'-0"
140
0.375
141
12.0
290
     0
  0
SCALE
  5
4D
102
{ACAD_REACTORS
330
42
102
}
330
42
100
AcDbScale
 70
     0
300
1/2" = 1'-0"
140
0.5
141
12.0
290
     0
  0
SCALE
  5
4E
102
{ACAD_REACTORS
330
42
102
}
330
42
100
AcDbScale
 70
     0
300
3/4" = 1'-0"
140
0.75
141
12.0
290
     0
  0
SCALE
  5
4F
102
{ACAD_REACTORS
330
42
102
}
330
42
100
AcDbScale
 70
     0
300
1" = 1'-0"
140
1.0
141
12.0
290
     0
  0
SCALE
  5
50
102
{ACAD_REACTORS
330
42
102
}
330
42
100
AcDbScale
 70
     0
300
1-1/2" = 1'-0"
140
1.5
141
12.0
290
     0
  0
SCALE
  5
51
102
{ACAD_REACTORS
330
42
102
}
330
42
100
AcDbScale
 70
     0
300
3" = 1'-0"
140
3.0
141
12.0
290
     0
  0
SCALE
  5
52
102
{ACAD_REACTORS
330
42
102
}
330
42
100
AcDbScale
 70
     0
300
6" = 1'-0"
140
6.0
141
12.0
290
     0
  0
SCALE
  5
53
102
{ACAD_REACTORS
330
42
102
}
330
42
100
AcDbScale
 70
     0
300
1'-0" = 1'-0"
140
12.0
141
12.0
290
     0
  0
ACDBSECTIONVIEWSTYLE
  5
6A
102
{ACAD_REACTORS
330
68
102
}
330
68
100
AcDbModelDocViewStyle
 70
     0
  3
Imperial24
290
     1
100
AcDbSectionViewStyle
 70
     0
 71
     0
 90
       78
 71
     1
340
55
 62
   256
 40
0.24
340
0
340
0
 62
   256
 40
0.24
300
I, O, Q, S, X, Z
 40
0.48
 90
        3
 40
0.18
 90
        1
 71
     2
340
69
 90
       25
 62
   256
340
5D
 90
       50
 62
   256
 40
0.24
 40
0.0
 40
0.24
 71
     3
340
55
 62
   256
 40
0.24
 90
        1
 40
0.75
 90
        1
300
%<\AcVar ViewType \f "%tc1">% %<\AcVar ViewSectionStartId>%-%<\AcVar ViewSectionEndId>%\PSCALA %<\AcVar ViewScale \f "%sn">%
 71
     4
 62
   256
 62
   257
300
ANSI31
 40
1.0
 90
        0
290
     0
290
     0
 90
        6
 40
0.0
 40
1.570796326794896
 40
0.2617993877991494
 40
1.308996938995747
 40
-0.2617993877991494
 40
1.832595714594046
  0
TABLESTYLE
  5
65
102
{ACAD_XDICTIONARY
360
2B8
102
}
102
{ACAD_REACTORS
330
64
102
}
330
64
100
AcDbTableStyle
280
     0
  3
Standard
 70
     0
 71
     0
 40
0.06
 41
0.06
280
     0
281
     0
  7
Standard
140
0.18
170
     2
 62
     0
 63
     7
283
     0
 90
      512
 91
        0
  1

274
    -2
284
     1
 64
     0
275
    -2
285
     1
 65
     0
276
    -2
286
     1
 66
     0
277
    -2
287
     1
 67
     0
278
    -2
288
     1
 68
     0
279
    -2
289
     1
 69
     0
  7
Standard
140
0.25
170
     5
 62
     0
 63
     7
283
     0
 90
      512
 91
        0
  1

274
    -2
284
     1
 64
     0
275
    -2
285
     1
 65
     0
276
    -2
286
     1
 66
     0
277
    -2
287
     1
 67
     0
278
    -2
288
     1
 68
     0
279
    -2
289
     1
 69
     0
  7
Standard
140
0.18
170
     5
 62
     0
 63
     7
283
     0
 90
      512
 91
        0
  1

274
    -2
284
     1
 64
     0
275
    -2
285
     1
 65
     0
276
    -2
286
     1
 66
     0
277
    -2
287
     1
 67
     0
278
    -2
288
     1
 68
     0
279
    -2
289
     1
 69
     0
  0
VISUALSTYLE
  5
2F
102
{ACAD_REACTORS
330
29
102
}
330
29
100
AcDbVisualStyle
  2
2dWireframe
 70
     4
177
     3
291
     0
 70
    58
 90
        0
176
     1
 90
        2
176
     1
 90
        0
176
     1
 90
        0
176
     1
 40
0.6
176
     1
 40
30.0
176
     1
 62
     7
420
 16777215
176
     1
 90
        1
176
     1
 90
        4
176
     1
 62
     7
176
     1
 62
   257
176
     1
 90
        1
176
     1
 90
        1
176
     1
 40
1.0
176
     1
 90
        0
176
     1
 62
   257
176
     1
 40
1.0
176
     1
 90
        1
176
     1
 90
        6
176
     1
 90
        2
176
     1
 62
     7
176
     1
 90
        5
176
     1
 90
        0
176
     1
 90
        0
176
     1
290
     0
176
     1
 90
        1
176
     1
 40
0.0
176
     1
 90
        0
176
     1
290
     1
176
     1
290
     1
176
     1
290
     0
176
     1
290
     0
176
     1
290
     0
176
     1
290
     0
176
     1
290
     0
176
     1
290
     0
176
     1
290
     0
176
     1
 90
       50
176
     1
 40
0.0
176
     1
 40
1.0
176
     1
 90
        0
176
     1
 62
    18
420
        0
176
     1
 90
       50
176
     1
 90
        3
176
     1
 62
     5
420
      255
176
     1
290
     0
176
     1
 90
       50
176
     1
 90
       50
176
     1
 90
       50
176
     1
290
     0
176
     1
 90
       50
176
     1
 62
   256
176
     0
 40
1.0
176
     0
 90
        2
176
     1
  1
strokes_ogs.tif
176
     1
290
     0
176
     1
 40
1.0
176
     1
 40
1.0
176
     1
  0
VISUALSTYLE
  5
2E
102
{ACAD_REACTORS
330
29
102
}
330
29
100
AcDbVisualStyle
  2
Basic
 70
     7
177
     3
291
     1
 70
    58
 90
        1
176
     1
 90
        0
176
     1
 90
        1
176
     1
 90
        0
176
     1
 40
0.6
176
     1
 40
30.0
176
     1
 62
     7
420
 16777215
176
     1
 90
        0
176
     1
 90
        4
176
     1
 62
     7
176
     1
 62
   257
176
     1
 90
        1
176
     1
 90
        1
176
     1
 40
1.0
176
     1
 90
        8
176
     1
 62
     7
176
     1
 40
1.0
176
     1
 90
        1
176
     1
 90
        6
176
     1
 90
        2
176
     1
 62
     7
176
     1
 90
        5
176
     1
 90
        0
176
     1
 90
        0
176
     1
290
     0
176
     1
 90
        1
176
     1
 40
0.0
176
     1
 90
        0
176
     1
290
     0
176
     1
290
     1
176
     1
290
     1
176
     1
290
     0
176
     1
290
     0
176
     1
290
     0
176
     1
290
     0
176
     1
290
     0
176
     1
290
     0
176
     1
 90
       50
176
     1
 40
0.0
176
     1
 40
1.0
176
     1
 90
        0
176
     1
 62
    18
420
        0
176
     1
 90
       50
176
     1
 90
        3
176
     1
 62
     5
420
      255
176
     1
290
     0
176
     1
 90
       50
176
     1
 90
       50
176
     1
 90
       50
176
     1
290
     0
176
     1
 90
       50
176
     1
 62
   256
176
     0
 40
1.0
176
     0
 90
        2
176
     1
  1
strokes_ogs.tif
176
     1
290
     0
176
     1
 40
1.0
176
     1
 40
1.0
176
     1
  0
VISUALSTYLE
  5
35
102
{ACAD_REACTORS
330
29
102
}
330
29
100
AcDbVisualStyle
  2
Brighten
 70
    12
177
     3
291
     1
 70
    58
 90
        2
176
     1
 90
        2
176
     1
 90
        0
176
     1
 90
        0
176
     1
 40
0.6
176
     1
 40
30.0
176
     1
 62
     7
420
 16777215
176
     1
 90
        1
176
     1
 90
        4
176
     1
 62
     7
176
     1
 62
   257
176
     1
 90
        1
176
     1
 90
        1
176
     1
 40
1.0
176
     1
 90
        8
176
     1
 62
     7
176
     1
 40
1.0
176
     1
 90
        1
176
     1
 90
        6
176
     1
 90
        2
176
     1
 62
     7
176
     1
 90
        5
176
     1
 90
        0
176
     1
 90
        0
176
     1
290
     0
176
     1
 90
        1
176
     1
 40
50.0
176
     1
 90
        0
176
     1
290
     0
176
     1
290
     1
176
     1
290
     1
176
     1
290
     0
176
     1
290
     0
176
     1
290
     0
176
     1
290
     0
176
     1
290
     0
176
     1
290
     0
176
     1
 90
       50
176
     1
 40
0.0
176
     1
 40
1.0
176
     1
 90
        0
176
     1
 62
    18
420
        0
176
     1
 90
       50
176
     1
 90
        3
176
     1
 62
     5
420
      255
176
     1
290
     0
176
     1
 90
       50
176
     1
 90
       50
176
     1
 90
       50
176
     1
290
     0
176
     1
 90
       50
176
     1
 62
   256
176
     0
 40
1.0
176
     0
 90
        2
176
     1
  1
strokes_ogs.tif
176
     1
290
     0
176
     1
 40
1.0
176
     1
 40
1.0
176
     1
  0
VISUALSTYLE
  5
39
102
{ACAD_REACTORS
330
29
102
}
330
29
100
AcDbVisualStyle
  2
ColorChange
 70
    16
177
     3
291
     1
 70
    58
 90
        2
176
     1
 90
        2
176
     1
 90
        3
176
     1
 90
        0
176
     1
 40
0.6
176
     1
 40
30.0
176
     1
 62
     8
420
  8421504
176
     1
 90
        1
176
     1
 90
        4
176
     1
 62
     7
176
     1
 62
   257
176
     1
 90
        1
176
     1
 90
        1
176
     1
 40
1.0
176
     1
 90
        8
176
     1
 62
     8
420
  8421504
176
     1
 40
1.0
176
     1
 90
        1
176
     1
 90
        6
176
     1
 90
        2
176
     1
 62
     7
176
     1
 90
        5
176
     1
 90
        0
176
     1
 90
        0
176
     1
290
     0
176
     1
 90
        1
176
     1
 40
0.0
176
     1
 90
        0
176
     1
290
     0
176
     1
290
     1
176
     1
290
     1
176
     1
290
     0
176
     1
290
     0
176
     1
290
     0
176
     1
290
     0
176
     1
290
     0
176
     1
290
     0
176
     1
 90
       50
176
     1
 40
0.0
176
     1
 40
1.0
176
     1
 90
        0
176
     1
 62
    18
420
        0
176
     1
 90
       50
176
     1
 90
        3
176
     1
 62
     5
420
      255
176
     1
290
     0
176
     1
 90
       50
176
     1
 90
       50
176
     1
 90
       50
176
     1
290
     0
176
     1
 90
       50
176
     1
 62
   256
176
     0
 40
1.0
176
     0
 90
        2
176
     1
  1
strokes_ogs.tif
176
     1
290
     0
176
     1
 40
1.0
176
     1
 40
1.0
176
     1
  0
VISUALSTYLE
  5
32
102
{ACAD_REACTORS
330
29
102
}
330
29
100
AcDbVisualStyle
  2
Conceptual
 70
     9
177
     3
291
     0
 70
    58
 90
        3
176
     1
 90
        2
176
     1
 90
        0
176
     1
 90
        0
176
     1
 40
0.6
176
     1
 40
30.0
176
     1
 62
     7
420
 16777215
176
     1
 90
        2
176
     1
 90
        2
176
     1
 62
     7
176
     1
 62
   257
176
     1
 90
        1
176
     1
 90
        1
176
     1
 40
179.0
176
     1
 90
        8
176
     1
 62
     7
176
     1
 40
1.0
176
     1
 90
        1
176
     1
 90
        6
176
     1
 90
        2
176
     1
 62
     7
176
     1
 90
        3
176
     1
 90
        0
176
     1
 90
        0
176
     1
290
     0
176
     1
 90
        1
176
     1
 40
0.0
176
     1
 90
        0
176
     1
290
     0
176
     1
290
     1
176
     1
290
     1
176
     1
290
     0
176
     1
290
     0
176
     1
290
     0
176
     1
290
     0
176
     1
290
     0
176
     1
290
     0
176
     1
 90
       50
176
     1
 40
0.0
176
     1
 40
1.0
176
     1
 90
        0
176
     1
 62
    18
420
        0
176
     1
 90
       50
176
     1
 90
        3
176
     1
 62
     5
420
      255
176
     1
290
     0
176
     1
 90
       50
176
     1
 90
       50
176
     1
 90
       50
176
     1
290
     0
176
     1
 90
       50
176
     1
 62
   256
176
     0
 40
1.0
176
     0
 90
        2
176
     1
  1
strokes_ogs.tif
176
     1
290
     0
176
     1
 40
1.0
176
     1
 40
1.0
176
     1
  0
VISUALSTYLE
  5
34
102
{ACAD_REACTORS
330
29
102
}
330
29
100
AcDbVisualStyle
  2
Dim
 70
    11
177
     3
291
     1
 70
    58
 90
        2
176
     1
 90
        2
176
     1
 90
        0
176
     1
 90
        0
176
     1
 40
0.6
176
     1
 40
30.0
176
     1
 62
     7
420
 16777215
176
     1
 90
        1
176
     1
 90
        4
176
     1
 62
     7
176
     1
 62
   257
176
     1
 90
        1
176
     1
 90
        1
176
     1
 40
1.0
176
     1
 90
        8
176
     1
 62
     7
176
     1
 40
1.0
176
     1
 90
        1
176
     1
 90
        6
176
     1
 90
        2
176
     1
 62
     7
176
     1
 90
        5
176
     1
 90
        0
176
     1
 90
        0
176
     1
290
     0
176
     1
 90
        1
176
     1
 40
-50.0
176
     1
 90
        0
176
     1
290
     0
176
     1
290
     1
176
     1
290
     1
176
     1
290
     0
176
     1
290
     0
176
     1
290
     0
176
     1
290
     0
176
     1
290
     0
176
     1
290
     0
176
     1
 90
       50
176
     1
 40
0.0
176
     1
 40
1.0
176
     1
 90
        0
176
     1
 62
    18
420
        0
176
     1
 90
       50
176
     1
 90
        3
176
     1
 62
     5
420
      255
176
     1
290
     0
176
     1
 90
       50
176
     1
 90
       50
176
     1
 90
       50
176
     1
290
     0
176
     1
 90
       50
176
     1
 62
   256
176
     0
 40
1.0
176
     0
 90
        2
176
     1
  1
strokes_ogs.tif
176
     1
290
     0
176
     1
 40
1.0
176
     1
 40
1.0
176
     1
  0
VISUALSTYLE
  5
41
102
{ACAD_REACTORS
330
29
102
}
330
29
100
AcDbVisualStyle
  2
EdgeColorOff
 70
    22
177
     3
291
     1
 70
    58
 90
        2
176
     0
 90
        2
176
     0
 90
        0
176
     0
 90
        0
176
     0
 40
0.6
176
     0
 40
30.0
176
     0
 62
     7
420
 16777215
176
     0
 90
        1
176
     0
 90
        4
176
     0
 62
     7
176
     0
 62
   257
176
     0
 90
        1
176
     0
 90
        1
176
     0
 40
1.0
176
     0
 90
        8
176
     2
 62
     7
176
     0
 40
1.0
176
     0
 90
        1
176
     0
 90
        6
176
     0
 90
        2
176
     0
 62
     7
176
     0
 90
        5
176
     0
 90
        0
176
     0
 90
        0
176
     0
290
     0
176
     0
 90
        1
176
     0
 40
0.0
176
     0
 90
        0
176
     0
290
     0
176
     0
290
     1
176
     0
290
     1
176
     0
290
     0
176
     0
290
     0
176
     0
290
     0
176
     0
290
     0
176
     0
290
     0
176
     0
290
     0
176
     0
 90
       50
176
     0
 40
0.0
176
     0
 40
1.0
176
     0
 90
        0
176
     0
 62
    18
420
        0
176
     0
 90
       50
176
     0
 90
        3
176
     0
 62
     5
420
      255
176
     0
290
     0
176
     0
 90
       50
176
     0
 90
       50
176
     0
 90
       50
176
     0
290
     0
176
     0
 90
       50
176
     0
 62
   256
176
     0
 40
1.0
176
     0
 90
        2
176
     0
  1
strokes_ogs.tif
176
     0
290
     0
176
     0
 40
1.0
176
     0
 40
1.0
176
     0
  0
VISUALSTYLE
  5
38
102
{ACAD_REACTORS
330
29
102
}
330
29
100
AcDbVisualStyle
  2
Facepattern
 70
    15
177
     3
291
     1
 70
    58
 90
        2
176
     1
 90
        2
176
     1
 90
        0
176
     1
 90
        0
176
     1
 40
0.6
176
     1
 40
30.0
176
     1
 62
     7
420
 16777215
176
     1
 90
        1
176
     1
 90
        4
176
     1
 62
     7
176
     1
 62
   257
176
     1
 90
        1
176
     1
 90
        1
176
     1
 40
1.0
176
     1
 90
        8
176
     1
 62
     7
176
     1
 40
1.0
176
     1
 90
        1
176
     1
 90
        6
176
     1
 90
        2
176
     1
 62
     7
176
     1
 90
        5
176
     1
 90
        0
176
     1
 90
        0
176
     1
290
     0
176
     1
 90
        1
176
     1
 40
0.0
176
     1
 90
        0
176
     1
290
     0
176
     1
290
     1
176
     1
290
     1
176
     1
290
     0
176
     1
290
     0
176
     1
290
     0
176
     1
290
     0
176
     1
290
     0
176
     1
290
     0
176
     1
 90
       50
176
     1
 40
0.0
176
     1
 40
1.0
176
     1
 90
        0
176
     1
 62
    18
420
        0
176
     1
 90
       50
176
     1
 90
        3
176
     1
 62
     5
420
      255
176
     1
290
     0
176
     1
 90
       50
176
     1
 90
       50
176
     1
 90
       50
176
     1
290
     0
176
     1
 90
       50
176
     1
 62
   256
176
     0
 40
1.0
176
     0
 90
        2
176
     1
  1
strokes_ogs.tif
176
     1
290
     0
176
     1
 40
1.0
176
     1
 40
1.0
176
     1
  0
VISUALSTYLE
  5
2A
102
{ACAD_REACTORS
330
29
102
}
330
29
100
AcDbVisualStyle
  2
Flat
 70
     0
177
     3
291
     1
 70
    58
 90
        2
176
     1
 90
        1
176
     1
 90
        1
176
     1
 90
        2
176
     1
 40
0.6
176
     1
 40
30.0
176
     1
 62
     7
420
 16777215
176
     1
 90
        0
176
     1
 90
        0
176
     1
 62
     7
176
     1
 62
   257
176
     1
 90
        1
176
     1
 90
        1
176
     1
 40
1.0
176
     1
 90
        8
176
     1
 62
     7
176
     1
 40
1.0
176
     1
 90
        1
176
     1
 90
        6
176
     1
 90
        2
176
     1
 62
     7
176
     1
 90
        5
176
     1
 90
        0
176
     1
 90
        0
176
     1
290
     0
176
     1
 90
       13
176
     1
 40
0.0
176
     1
 90
        0
176
     1
290
     0
176
     1
290
     1
176
     1
290
     1
176
     1
290
     0
176
     1
290
     0
176
     1
290
     0
176
     1
290
     0
176
     1
290
     0
176
     1
290
     0
176
     1
 90
       50
176
     1
 40
0.0
176
     1
 40
1.0
176
     1
 90
        0
176
     1
 62
    18
420
        0
176
     1
 90
       50
176
     1
 90
        3
176
     1
 62
     5
420
      255
176
     1
290
     0
176
     1
 90
       50
176
     1
 90
       50
176
     1
 90
       50
176
     1
290
     0
176
     1
 90
       50
176
     1
 62
   256
176
     0
 40
1.0
176
     0
 90
        2
176
     1
  1
strokes_ogs.tif
176
     1
290
     0
176
     1
 40
1.0
176
     1
 40
1.0
176
     1
  0
VISUALSTYLE
  5
2B
102
{ACAD_REACTORS
330
29
102
}
330
29
100
AcDbVisualStyle
  2
FlatWithEdges
 70
     1
177
     3
291
     1
 70
    58
 90
        2
176
     1
 90
        1
176
     1
 90
        1
176
     1
 90
        2
176
     1
 40
0.6
176
     1
 40
30.0
176
     1
 62
     7
420
 16777215
176
     1
 90
        1
176
     1
 90
        0
176
     1
 62
     7
176
     1
 62
   257
176
     1
 90
        1
176
     1
 90
        1
176
     1
 40
1.0
176
     1
 90
        0
176
     1
 62
   257
176
     1
 40
1.0
176
     1
 90
        1
176
     1
 90
        6
176
     1
 90
        2
176
     1
 62
     7
176
     1
 90
        5
176
     1
 90
        0
176
     1
 90
        0
176
     1
290
     0
176
     1
 90
       13
176
     1
 40
0.0
176
     1
 90
        0
176
     1
290
     0
176
     1
290
     1
176
     1
290
     1
176
     1
290
     0
176
     1
290
     0
176
     1
290
     0
176
     1
290
     0
176
     1
290
     0
176
     1
290
     0
176
     1
 90
       50
176
     1
 40
0.0
176
     1
 40
1.0
176
     1
 90
        0
176
     1
 62
    18
420
        0
176
     1
 90
       50
176
     1
 90
        3
176
     1
 62
     5
420
      255
176
     1
290
     0
176
     1
 90
       50
176
     1
 90
       50
176
     1
 90
       50
176
     1
290
     0
176
     1
 90
       50
176
     1
 62
   256
176
     0
 40
1.0
176
     0
 90
        2
176
     1
  1
strokes_ogs.tif
176
     1
290
     0
176
     1
 40
1.0
176
     1
 40
1.0
176
     1
  0
VISUALSTYLE
  5
2C
102
{ACAD_REACTORS
330
29
102
}
330
29
100
AcDbVisualStyle
  2
Gouraud
 70
     2
177
     3
291
     1
 70
    58
 90
        2
176
     1
 90
        2
176
     1
 90
        1
176
     1
 90
        2
176
     1
 40
0.6
176
     1
 40
30.0
176
     1
 62
     7
420
 16777215
176
     1
 90
        0
176
     1
 90
        0
176
     1
 62
     7
176
     1
 62
   257
176
     1
 90
        1
176
     1
 90
        1
176
     1
 40
1.0
176
     1
 90
        0
176
     1
 62
     7
176
     1
 40
1.0
176
     1
 90
        1
176
     1
 90
        6
176
     1
 90
        2
176
     1
 62
     7
176
     1
 90
        5
176
     1
 90
        0
176
     1
 90
        0
176
     1
290
     0
176
     1
 90
       13
176
     1
 40
0.0
176
     1
 90
        0
176
     1
290
     0
176
     1
290
     1
176
     1
290
     1
176
     1
290
     0
176
     1
290
     0
176
     1
290
     0
176
     1
290
     0
176
     1
290
     0
176
     1
290
     0
176
     1
 90
       50
176
     1
 40
0.0
176
     1
 40
1.0
176
     1
 90
        0
176
     1
 62
    18
420
        0
176
     1
 90
       50
176
     1
 90
        3
176
     1
 62
     5
420
      255
176
     1
290
     0
176
     1
 90
       50
176
     1
 90
       50
176
     1
 90
       50
176
     1
290
     0
176
     1
 90
       50
176
     1
 62
   256
176
     0
 40
1.0
176
     0
 90
        2
176
     1
  1
strokes_ogs.tif
176
     1
290
     0
176
     1
 40
1.0
176
     1
 40
1.0
176
     1
  0
VISUALSTYLE
  5
2D
102
{ACAD_REACTORS
330
29
102
}
330
29
100
AcDbVisualStyle
  2
GouraudWithEdges
 70
     3
177
     3
291
     1
 70
    58
 90
        2
176
     1
 90
        2
176
     1
 90
        1
176
     1
 90
        2
176
     1
 40
0.6
176
     1
 40
30.0
176
     1
 62
     7
420
 16777215
176
     1
 90
        1
176
     1
 90
        0
176
     1
 62
     7
176
     1
 62
   257
176
     1
 90
        1
176
     1
 90
        1
176
     1
 40
1.0
176
     1
 90
        0
176
     1
 62
   257
176
     1
 40
1.0
176
     1
 90
        1
176
     1
 90
        6
176
     1
 90
        2
176
     1
 62
     7
176
     1
 90
        5
176
     1
 90
        0
176
     1
 90
        0
176
     1
290
     0
176
     1
 90
       13
176
     1
 40
0.0
176
     1
 90
        0
176
     1
290
     0
176
     1
290
     1
176
     1
290
     1
176
     1
290
     0
176
     1
290
     0
176
     1
290
     0
176
     1
290
     0
176
     1
290
     0
176
     1
290
     0
176
     1
 90
       50
176
     1
 40
0.0
176
     1
 40
1.0
176
     1
 90
        0
176
     1
 62
    18
420
        0
176
     1
 90
       50
176
     1
 90
        3
176
     1
 62
     5
420
      255
176
     1
290
     0
176
     1
 90
       50
176
     1
 90
       50
176
     1
 90
       50
176
     1
290
     0
176
     1
 90
       50
176
     1
 62
   256
176
     0
 40
1.0
176
     0
 90
        2
176
     1
  1
strokes_ogs.tif
176
     1
290
     0
176
     1
 40
1.0
176
     1
 40
1.0
176
     1
  0
VISUALSTYLE
  5
31
102
{ACAD_REACTORS
330
29
102
}
330
29
100
AcDbVisualStyle
  2
Hidden
 70
     6
177
     3
291
     0
 70
    58
 90
        1
176
     1
 90
        2
176
     1
 90
        2
176
     1
 90
        0
176
     1
 40
0.6
176
     1
 40
30.0
176
     1
 62
     7
420
 16777215
176
     1
 90
        2
176
     1
 90
        2
176
     1
 62
     7
176
     1
 62
   257
176
     1
 90
        2
176
     1
 90
        1
176
     1
 40
40.0
176
     1
 90
        0
176
     1
 62
   257
176
     1
 40
1.0
176
     1
 90
        1
176
     1
 90
        6
176
     1
 90
        2
176
     1
 62
     7
176
     1
 90
        3
176
     1
 90
        0
176
     1
 90
        0
176
     1
290
     0
176
     1
 90
        1
176
     1
 40
0.0
176
     1
 90
        0
176
     1
290
     0
176
     1
290
     1
176
     1
290
     1
176
     1
290
     0
176
     1
290
     0
176
     1
290
     0
176
     1
290
     0
176
     1
290
     0
176
     1
290
     0
176
     1
 90
       50
176
     1
 40
0.0
176
     1
 40
1.0
176
     1
 90
        0
176
     1
 62
    18
420
        0
176
     1
 90
       50
176
     1
 90
        3
176
     1
 62
     5
420
      255
176
     1
290
     0
176
     1
 90
       50
176
     1
 90
       50
176
     1
 90
       50
176
     1
290
     0
176
     1
 90
       50
176
     1
 62
   256
176
     0
 40
1.0
176
     0
 90
        2
176
     1
  1
strokes_ogs.tif
176
     1
290
     0
176
     1
 40
1.0
176
     1
 40
1.0
176
     1
  0
VISUALSTYLE
  5
3F
102
{ACAD_REACTORS
330
29
102
}
330
29
100
AcDbVisualStyle
  2
JitterOff
 70
    20
177
     3
291
     1
 70
    58
 90
        2
176
     0
 90
        2
176
     0
 90
        0
176
     0
 90
        0
176
     0
 40
0.6
176
     0
 40
30.0
176
     0
 62
     7
420
 16777215
176
     0
 90
        1
176
     0
 90
        4
176
     0
 62
     7
176
     0
 62
   257
176
     0
 90
        1
176
     0
 90
        1
176
     0
 40
1.0
176
     0
 90
       10
176
     2
 62
     7
176
     0
 40
1.0
176
     0
 90
        1
176
     0
 90
        6
176
     0
 90
        2
176
     0
 62
     7
176
     0
 90
        5
176
     0
 90
        0
176
     0
 90
        0
176
     0
290
     0
176
     0
 90
        1
176
     0
 40
0.0
176
     0
 90
        0
176
     0
290
     0
176
     0
290
     1
176
     0
290
     1
176
     0
290
     0
176
     0
290
     0
176
     0
290
     0
176
     0
290
     0
176
     0
290
     0
176
     0
290
     0
176
     0
 90
       50
176
     0
 40
0.0
176
     0
 40
1.0
176
     0
 90
        0
176
     0
 62
    18
420
        0
176
     0
 90
       50
176
     0
 90
        3
176
     0
 62
     5
420
      255
176
     0
290
     0
176
     0
 90
       50
176
     0
 90
       50
176
     0
 90
       50
176
     0
290
     0
176
     0
 90
       50
176
     0
 62
   256
176
     0
 40
1.0
176
     0
 90
        2
176
     0
  1
strokes_ogs.tif
176
     0
290
     0
176
     0
 40
1.0
176
     0
 40
1.0
176
     0
  0
VISUALSTYLE
  5
37
102
{ACAD_REACTORS
330
29
102
}
330
29
100
AcDbVisualStyle
  2
Linepattern
 70
    14
177
     3
291
     1
 70
    58
 90
        2
176
     1
 90
        2
176
     1
 90
        0
176
     1
 90
        0
176
     1
 40
0.6
176
     1
 40
30.0
176
     1
 62
     7
420
 16777215
176
     1
 90
        1
176
     1
 90
        4
176
     1
 62
     7
176
     1
 62
   257
176
     1
 90
        7
176
     1
 90
        7
176
     1
 40
1.0
176
     1
 90
        8
176
     1
 62
     7
176
     1
 40
1.0
176
     1
 90
        1
176
     1
 90
        6
176
     1
 90
        2
176
     1
 62
     7
176
     1
 90
        5
176
     1
 90
        0
176
     1
 90
        0
176
     1
290
     0
176
     1
 90
        1
176
     1
 40
0.0
176
     1
 90
        0
176
     1
290
     0
176
     1
290
     1
176
     1
290
     1
176
     1
290
     0
176
     1
290
     0
176
     1
290
     0
176
     1
290
     0
176
     1
290
     0
176
     1
290
     0
176
     1
 90
       50
176
     1
 40
0.0
176
     1
 40
1.0
176
     1
 90
        0
176
     1
 62
    18
420
        0
176
     1
 90
       50
176
     1
 90
        3
176
     1
 62
     5
420
      255
176
     1
290
     0
176
     1
 90
       50
176
     1
 90
       50
176
     1
 90
       50
176
     1
290
     0
176
     1
 90
       50
176
     1
 62
   256
176
     0
 40
1.0
176
     0
 90
        2
176
     1
  1
strokes_ogs.tif
176
     1
290
     0
176
     1
 40
1.0
176
     1
 40
1.0
176
     1
  0
VISUALSTYLE
  5
40
102
{ACAD_REACTORS
330
29
102
}
330
29
100
AcDbVisualStyle
  2
OverhangOff
 70
    21
177
     3
291
     1
 70
    58
 90
        2
176
     0
 90
        2
176
     0
 90
        0
176
     0
 90
        0
176
     0
 40
0.6
176
     0
 40
30.0
176
     0
 62
     7
420
 16777215
176
     0
 90
        1
176
     0
 90
        4
176
     0
 62
     7
176
     0
 62
   257
176
     0
 90
        1
176
     0
 90
        1
176
     0
 40
1.0
176
     0
 90
        9
176
     2
 62
     7
176
     0
 40
1.0
176
     0
 90
        1
176
     0
 90
        6
176
     0
 90
        2
176
     0
 62
     7
176
     0
 90
        5
176
     0
 90
        0
176
     0
 90
        0
176
     0
290
     0
176
     0
 90
        1
176
     0
 40
0.0
176
     0
 90
        0
176
     0
290
     0
176
     0
290
     1
176
     0
290
     1
176
     0
290
     0
176
     0
290
     0
176
     0
290
     0
176
     0
290
     0
176
     0
290
     0
176
     0
290
     0
176
     0
 90
       50
176
     0
 40
0.0
176
     0
 40
1.0
176
     0
 90
        0
176
     0
 62
    18
420
        0
176
     0
 90
       50
176
     0
 90
        3
176
     0
 62
     5
420
      255
176
     0
290
     0
176
     0
 90
       50
176
     0
 90
       50
176
     0
 90
       50
176
     0
290
     0
176
     0
 90
       50
176
     0
 62
   256
176
     0
 40
1.0
176
     0
 90
        2
176
     0
  1
strokes_ogs.tif
176
     0
290
     0
176
     0
 40
1.0
176
     0
 40
1.0
176
     0
  0
VISUALSTYLE
  5
33
102
{ACAD_REACTORS
330
29
102
}
330
29
100
AcDbVisualStyle
  2
Realistic
 70
     8
177
     3
291
     0
 70
    58
 90
        2
176
     1
 90
        3
176
     1
 90
        0
176
     1
 90
        2
176
     1
 40
0.6
176
     1
 40
30.0
176
     1
 62
     7
420
 16777215
176
     1
 90
        0
176
     1
 90
        0
176
     1
 62
     7
176
     1
 62
   257
176
     1
 90
        1
176
     1
 90
        1
176
     1
 40
1.0
176
     1
 90
        8
176
     1
 62
   257
176
     1
 40
1.0
176
     1
 90
        1
176
     1
 90
        6
176
     1
 90
        2
176
     1
 62
     7
176
     1
 90
        3
176
     1
 90
        0
176
     1
 90
        0
176
     1
290
     0
176
     1
 90
       13
176
     1
 40
0.0
176
     1
 90
        0
176
     1
290
     0
176
     1
290
     1
176
     1
290
     1
176
     1
290
     0
176
     1
290
     0
176
     1
290
     0
176
     1
290
     0
176
     1
290
     0
176
     1
290
     0
176
     1
 90
       50
176
     1
 40
0.0
176
     1
 40
1.0
176
     1
 90
        0
176
     1
 62
    18
420
        0
176
     1
 90
       50
176
     1
 90
        3
176
     1
 62
     5
420
      255
176
     1
290
     0
176
     1
 90
       50
176
     1
 90
       50
176
     1
 90
       50
176
     1
290
     0
176
     1
 90
       50
176
     1
 62
   256
176
     0
 40
1.0
176
     0
 90
        2
176
     1
  1
strokes_ogs.tif
176
     1
290
     0
176
     1
 40
1.0
176
     1
 40
1.0
176
     1
  0
VISUALSTYLE
  5
3E
102
{ACAD_REACTORS
330
29
102
}
330
29
100
AcDbVisualStyle
  2
Shaded
 70
    27
177
     3
291
     0
 70
    58
 90
        2
176
     1
 90
        2
176
     1
 90
        1
176
     1
 90
        2
176
     1
 40
0.6
176
     1
 40
30.0
176
     1
 62
     7
420
 16777215
176
     1
 90
        0
176
     1
 90
        4
176
     1
 62
     7
176
     1
 62
   257
176
     1
 90
        1
176
     1
 90
        1
176
     1
 40
1.0
176
     1
 90
        8
176
     1
 62
   257
176
     1
 40
1.0
176
     1
 90
        1
176
     1
 90
        6
176
     1
 90
        2
176
     1
 62
     8
420
  7895160
176
     1
 90
        3
176
     1
 90
        0
176
     1
 90
        0
176
     1
290
     0
176
     1
 90
        5
176
     1
 40
0.0
176
     1
 90
        0
176
     1
290
     0
176
     1
290
     1
176
     1
290
     1
176
     1
290
     0
176
     1
290
     0
176
     1
290
     0
176
     1
290
     0
176
     1
290
     0
176
     1
290
     0
176
     1
 90
       50
176
     1
 40
0.0
176
     1
 40
1.0
176
     1
 90
        0
176
     1
 62
    18
420
        0
176
     1
 90
       50
176
     1
 90
        3
176
     1
 62
     5
420
      255
176
     1
290
     0
176
     1
 90
       50
176
     1
 90
       50
176
     1
 90
       50
176
     1
290
     0
176
     1
 90
       50
176
     1
 62
   256
176
     0
 40
1.0
176
     0
 90
        2
176
     1
  1
strokes_ogs.tif
176
     1
290
     0
176
     1
 40
1.0
176
     1
 40
1.0
176
     1
  0
VISUALSTYLE
  5
3D
102
{ACAD_REACTORS
330
29
102
}
330
29
100
AcDbVisualStyle
  2
Shaded with edges
 70
    26
177
     3
291
     0
 70
    58
 90
        2
176
     1
 90
        2
176
     1
 90
        1
176
     1
 90
        2
176
     1
 40
0.6
176
     1
 40
30.0
176
     1
 62
     7
420
 16777215
176
     1
 90
        1
176
     1
 90
       10
176
     1
 62
     7
176
     1
 62
   257
176
     1
 90
        2
176
     1
 90
        1
176
     1
 40
1.0
176
     1
 90
        8
176
     1
 62
   257
176
     1
 40
1.0
176
     1
 90
        1
176
     1
 90
        6
176
     1
 90
        2
176
     1
 62
     7
176
     1
 90
        3
176
     1
 90
        0
176
     1
 90
        0
176
     1
290
     0
176
     1
 90
        5
176
     1
 40
0.0
176
     1
 90
        0
176
     1
290
     0
176
     1
290
     1
176
     1
290
     1
176
     1
290
     0
176
     1
290
     0
176
     1
290
     0
176
     1
290
     0
176
     1
290
     0
176
     1
290
     0
176
     1
 90
       50
176
     1
 40
0.0
176
     1
 40
1.0
176
     1
 90
        0
176
     1
 62
    18
420
        0
176
     1
 90
       50
176
     1
 90
        3
176
     1
 62
     5
420
      255
176
     1
290
     0
176
     1
 90
       50
176
     1
 90
       50
176
     1
 90
       50
176
     1
290
     0
176
     1
 90
       50
176
     1
 62
   256
176
     0
 40
1.0
176
     0
 90
        2
176
     1
  1
strokes_ogs.tif
176
     1
290
     0
176
     1
 40
1.0
176
     1
 40
1.0
176
     1
  0
VISUALSTYLE
  5
3A
102
{ACAD_REACTORS
330
29
102
}
330
29
100
AcDbVisualStyle
  2
Shades of Gray
 70
    23
177
     3
291
     0
 70
    58
 90
        2
176
     1
 90
        2
176
     1
 90
        3
176
     1
 90
        0
176
     1
 40
0.6
176
     1
 40
30.0
176
     1
 62
     7
420
 16777215
176
     1
 90
        2
176
     1
 90
        2
176
     1
 62
     7
176
     1
 62
     7
176
     1
 90
        1
176
     1
 90
        1
176
     1
 40
40.0
176
     1
 90
        8
176
     1
 62
     7
176
     1
 40
1.0
176
     1
 90
        1
176
     1
 90
        6
176
     1
 90
        2
176
     1
 62
     7
176
     1
 90
        3
176
     1
 90
        0
176
     1
 90
        0
176
     1
290
     0
176
     1
 90
        1
176
     1
 40
0.0
176
     1
 90
        0
176
     1
290
     0
176
     1
290
     1
176
     1
290
     1
176
     1
290
     0
176
     1
290
     0
176
     1
290
     0
176
     1
290
     0
176
     1
290
     0
176
     1
290
     0
176
     1
 90
       50
176
     1
 40
0.0
176
     1
 40
1.0
176
     1
 90
        0
176
     1
 62
    18
420
        0
176
     1
 90
       50
176
     1
 90
        3
176
     1
 62
     5
420
      255
176
     1
290
     0
176
     1
 90
       50
176
     1
 90
       50
176
     1
 90
       50
176
     1
290
     0
176
     1
 90
       50
176
     1
 62
   256
176
     0
 40
1.0
176
     0
 90
        2
176
     1
  1
strokes_ogs.tif
176
     1
290
     0
176
     1
 40
1.0
176
     1
 40
1.0
176
     1
  0
VISUALSTYLE
  5
3B
102
{ACAD_REACTORS
330
29
102
}
330
29
100
AcDbVisualStyle
  2
Sketchy
 70
    24
177
     3
291
     0
 70
    58
 90
        1
176
     1
 90
        2
176
     1
 90
        2
176
     1
 90
        0
176
     1
 40
0.6
176
     1
 40
30.0
176
     1
 62
     7
420
 16777215
176
     1
 90
        2
176
     1
 90
        2
176
     1
 62
     7
176
     1
 62
     7
176
     1
 90
        1
176
     1
 90
        1
176
     1
 40
40.0
176
     1
 90
       11
176
     1
 62
     7
176
     1
 40
1.0
176
     1
 90
        1
176
     1
 90
        6
176
     1
 90
        2
176
     1
 62
     7
176
     1
 90
        6
176
     1
 90
        0
176
     1
 90
        0
176
     1
290
     0
176
     1
 90
        1
176
     1
 40
0.0
176
     1
 90
        0
176
     1
290
     0
176
     1
290
     1
176
     1
290
     1
176
     1
290
     0
176
     1
290
     0
176
     1
290
     0
176
     1
290
     0
176
     1
290
     0
176
     1
290
     0
176
     1
 90
       50
176
     1
 40
0.0
176
     1
 40
1.0
176
     1
 90
        0
176
     1
 62
    18
420
        0
176
     1
 90
       50
176
     1
 90
        3
176
     1
 62
     5
420
      255
176
     1
290
     0
176
     1
 90
       50
176
     1
 90
       50
176
     1
 90
       50
176
     1
290
     0
176
     1
 90
       50
176
     1
 62
   256
176
     0
 40
1.0
176
     0
 90
        2
176
     1
  1
strokes_ogs.tif
176
     1
290
     0
176
     1
 40
1.0
176
     1
 40
1.0
176
     1
  0
VISUALSTYLE
  5
36
102
{ACAD_REACTORS
330
29
102
}
330
29
100
AcDbVisualStyle
  2
Thicken
 70
    13
177
     3
291
     1
 70
    58
 90
        2
176
     1
 90
        2
176
     1
 90
        0
176
     1
 90
        0
176
     1
 40
0.6
176
     1
 40
30.0
176
     1
 62
     7
420
 16777215
176
     1
 90
        1
176
     1
 90
        4
176
     1
 62
     7
176
     1
 62
   257
176
     1
 90
        1
176
     1
 90
        1
176
     1
 40
1.0
176
     1
 90
       12
176
     1
 62
     7
176
     1
 40
1.0
176
     1
 90
        1
176
     1
 90
        6
176
     1
 90
        2
176
     1
 62
     7
176
     1
 90
        5
176
     1
 90
        0
176
     1
 90
        0
176
     1
290
     0
176
     1
 90
        1
176
     1
 40
0.0
176
     1
 90
        0
176
     1
290
     0
176
     1
290
     1
176
     1
290
     1
176
     1
290
     0
176
     1
290
     0
176
     1
290
     0
176
     1
290
     0
176
     1
290
     0
176
     1
290
     0
176
     1
 90
       50
176
     1
 40
0.0
176
     1
 40
1.0
176
     1
 90
        0
176
     1
 62
    18
420
        0
176
     1
 90
       50
176
     1
 90
        3
176
     1
 62
     5
420
      255
176
     1
290
     0
176
     1
 90
       50
176
     1
 90
       50
176
     1
 90
       50
176
     1
290
     0
176
     1
 90
       50
176
     1
 62
   256
176
     0
 40
1.0
176
     0
 90
        2
176
     1
  1
strokes_ogs.tif
176
     1
290
     0
176
     1
 40
1.0
176
     1
 40
1.0
176
     1
  0
VISUALSTYLE
  5
30
102
{ACAD_REACTORS
330
29
102
}
330
29
100
AcDbVisualStyle
  2
Wireframe
 70
     5
177
     3
291
     0
 70
    58
 90
        0
176
     1
 90
        2
176
     1
 90
        0
176
     1
 90
        0
176
     1
 40
0.6
176
     1
 40
30.0
176
     1
 62
     7
420
 16777215
176
     1
 90
        1
176
     1
 90
        4
176
     1
 62
     7
176
     1
 62
   257
176
     1
 90
        1
176
     1
 90
        1
176
     1
 40
1.0
176
     1
 90
        0
176
     1
 62
   257
176
     1
 40
1.0
176
     1
 90
        1
176
     1
 90
        6
176
     1
 90
        2
176
     1
 62
     7
176
     1
 90
        3
176
     1
 90
        0
176
     1
 90
        0
176
     1
290
     0
176
     1
 90
        1
176
     1
 40
0.0
176
     1
 90
        0
176
     1
290
     0
176
     1
290
     1
176
     1
290
     1
176
     1
290
     0
176
     1
290
     0
176
     1
290
     0
176
     1
290
     0
176
     1
290
     0
176
     1
290
     0
176
     1
 90
       50
176
     1
 40
0.0
176
     1
 40
1.0
176
     1
 90
        0
176
     1
 62
    18
420
        0
176
     1
 90
       50
176
     1
 90
        3
176
     1
 62
     5
420
      255
176
     1
290
     0
176
     1
 90
       50
176
     1
 90
       50
176
     1
 90
       50
176
     1
290
     0
176
     1
 90
       50
176
     1
 62
   256
176
     0
 40
1.0
176
     0
 90
        2
176
     1
  1
strokes_ogs.tif
176
     1
290
     0
176
     1
 40
1.0
176
     1
 40
1.0
176
     1
  0
VISUALSTYLE
  5
3C
102
{ACAD_REACTORS
330
29
102
}
330
29
100
AcDbVisualStyle
  2
X-Ray
 70
    25
177
     3
291
     0
 70
    58
 90
        2
176
     1
 90
        2
176
     1
 90
        1
176
     1
 90
        1
176
     1
 40
0.5
176
     1
 40
30.0
176
     1
 62
     7
420
 16777215
176
     1
 90
        1
176
     1
 90
        0
176
     1
 62
     7
176
     1
 62
   257
176
     1
 90
        1
176
     1
 90
        1
176
     1
 40
1.0
176
     1
 90
        8
176
     1
 62
     7
176
     1
 40
1.0
176
     1
 90
        1
176
     1
 90
        6
176
     1
 90
        2
176
     1
 62
     7
176
     1
 90
        3
176
     1
 90
        0
176
     1
 90
        0
176
     1
290
     0
176
     1
 90
       13
176
     1
 40
0.0
176
     1
 90
        0
176
     1
290
     0
176
     1
290
     1
176
     1
290
     1
176
     1
290
     0
176
     1
290
     0
176
     1
290
     0
176
     1
290
     0
176
     1
290
     0
176
     1
290
     0
176
     1
 90
       50
176
     1
 40
0.0
176
     1
 40
1.0
176
     1
 90
        0
176
     1
 62
    18
420
        0
176
     1
 90
       50
176
     1
 90
        3
176
     1
 62
     5
420
      255
176
     1
290
     0
176
     1
 90
       50
176
     1
 90
       50
176
     1
 90
       50
176
     1
290
     0
176
     1
 90
       50
176
     1
 62
   256
176
     0
 40
1.0
176
     0
 90
        2
176
     1
  1
strokes_ogs.tif
176
     1
290
     0
176
     1
 40
1.0
176
     1
 40
1.0
176
     1
  0
DICTIONARYVAR
  5
81
102
{ACAD_REACTORS
330
7C
102
}
330
7C
100
DictionaryVariables
280
     0
  1
1:1
  0
DICTIONARYVAR
  5
7E
102
{ACAD_REACTORS
330
7C
102
}
330
7C
100
DictionaryVariables
280
     0
  1
STANDARD
  0
DICTIONARYVAR
  5
7D
102
{ACAD_REACTORS
330
7C
102
}
330
7C
100
DictionaryVariables
280
     0
  1
STANDARD
  0
DICTIONARYVAR
  5
7F
102
{ACAD_REACTORS
330
7C
102
}
330
7C
100
DictionaryVariables
280
     0
  1
Imperial24
  0
DICTIONARYVAR
  5
80
102
{ACAD_REACTORS
330
7C
102
}
330
7C
100
DictionaryVariables
280
     0
  1
Imperial24
  0
XRECORD
  5
2B5
102
{ACAD_REACTORS
330
2B2
102
}
330
2B2
100
AcDbXrecord
280
     1
  1
BUILDING_ID
  1
Progetto per messa in tavola DXF, DWG
  1
FLOOR_ID
  1
694395
  0
XRECORD
  5
2B4
102
{ACAD_REACTORS
330
2B2
102
}
330
2B2
100
AcDbXrecord
280
     1
  1
-2001160
  1
Apparecchi idraulici
  0
XRECORD
  5
2B3
102
{ACAD_REACTORS
330
2B2
102
}
330
2B2
100
AcDbXrecord
280
     1
  1
859151
  1
Automatic flow rate regulator valve_Caleffi_121 DN15 : 1/2''
  0
DICTIONARY
  5
1A
330
19
100
AcDbDictionary
280
     1
281
     1
  3
BUMPTILE
360
1C
  3
DIFFUSETILE
360
1B
  3
OPACITYTILE
360
1F
  3
REFLECTIONTILE
360
1E
  3
REFRACTIONTILE
360
20
  3
SPECULARTILE
360
1D
  0
DICTIONARY
  5
12
330
11
100
AcDbDictionary
280
     1
281
     1
  3
BUMPTILE
360
14
  3
DIFFUSETILE
360
13
  3
OPACITYTILE
360
17
  3
REFLECTIONTILE
360
16
  3
REFRACTIONTILE
360
18
  3
SPECULARTILE
360
15
  0
DICTIONARY
  5
22
330
21
100
AcDbDictionary
280
     1
281
     1
  3
BUMPTILE
360
24
  3
DIFFUSETILE
360
23
  3
OPACITYTILE
360
27
  3
REFLECTIONTILE
360
26
  3
REFRACTIONTILE
360
28
  3
SPECULARTILE
360
25
  0
DICTIONARY
  5
2B8
330
65
100
AcDbDictionary
280
     1
281
     1
  3
ACAD_ROUNDTRIP_2008_TABLESTYLE_CELLSTYLEMAP
360
2B9
  0
XRECORD
  5
1C
102
{ACAD_REACTORS
330
1A
102
}
330
1A
100
AcDbXrecord
280
     1
270
     1
271
     1
  0
XRECORD
  5
1B
102
{ACAD_REACTORS
330
1A
102
}
330
1A
100
AcDbXrecord
280
     1
270
     1
271
     1
  0
XRECORD
  5
1F
102
{ACAD_REACTORS
330
1A
102
}
330
1A
100
AcDbXrecord
280
     1
270
     1
271
     1
  0
XRECORD
  5
1E
102
{ACAD_REACTORS
330
1A
102
}
330
1A
100
AcDbXrecord
280
     1
270
     1
271
     1
  0
XRECORD
  5
20
102
{ACAD_REACTORS
330
1A
102
}
330
1A
100
AcDbXrecord
280
     1
270
     1
271
     1
  0
XRECORD
  5
1D
102
{ACAD_REACTORS
330
1A
102
}
330
1A
100
AcDbXrecord
280
     1
270
     1
271
     1
  0
XRECORD
  5
14
102
{ACAD_REACTORS
330
12
102
}
330
12
100
AcDbXrecord
280
     1
270
     1
271
     1
  0
XRECORD
  5
13
102
{ACAD_REACTORS
330
12
102
}
330
12
100
AcDbXrecord
280
     1
270
     1
271
     1
  0
XRECORD
  5
17
102
{ACAD_REACTORS
330
12
102
}
330
12
100
AcDbXrecord
280
     1
270
     1
271
     1
  0
XRECORD
  5
16
102
{ACAD_REACTORS
330
12
102
}
330
12
100
AcDbXrecord
280
     1
270
     1
271
     1
  0
XRECORD
  5
18
102
{ACAD_REACTORS
330
12
102
}
330
12
100
AcDbXrecord
280
     1
270
     1
271
     1
  0
XRECORD
  5
15
102
{ACAD_REACTORS
330
12
102
}
330
12
100
AcDbXrecord
280
     1
270
     1
271
     1
  0
XRECORD
  5
24
102
{ACAD_REACTORS
330
22
102
}
330
22
100
AcDbXrecord
280
     1
270
     1
271
     1
  0
XRECORD
  5
23
102
{ACAD_REACTORS
330
22
102
}
330
22
100
AcDbXrecord
280
     1
270
     1
271
     1
  0
XRECORD
  5
27
102
{ACAD_REACTORS
330
22
102
}
330
22
100
AcDbXrecord
280
     1
270
     1
271
     1
  0
XRECORD
  5
26
102
{ACAD_REACTORS
330
22
102
}
330
22
100
AcDbXrecord
280
     1
270
     1
271
     1
  0
XRECORD
  5
28
102
{ACAD_REACTORS
330
22
102
}
330
22
100
AcDbXrecord
280
     1
270
     1
271
     1
  0
XRECORD
  5
25
102
{ACAD_REACTORS
330
22
102
}
330
22
100
AcDbXrecord
280
     1
270
     1
271
     1
  0
CELLSTYLEMAP
  5
2B9
102
{ACAD_REACTORS
330
2B8
102
}
330
2B8
100
AcDbCellStyleMap
 90
        3
300
CELLSTYLE
  1
TABLEFORMAT_BEGIN
 90
        5
170
     1
 91
        0
 92
    32768
 62
   257
 93
        1
300
CONTENTFORMAT
  1
CONTENTFORMAT_BEGIN
 90
        0
 91
        0
 92
      512
 93
        0
300

 40
0.0
140
1.0
 94
        5
 62
     0
340
55
144
0.25
309
CONTENTFORMAT_END
171
     0
 94
        0
309
TABLEFORMAT_END
  1
CELLSTYLE_BEGIN
 90
        1
 91
        1
300
_TITLE
309
CELLSTYLE_END
300
CELLSTYLE
  1
TABLEFORMAT_BEGIN
 90
        5
170
     1
 91
        0
 92
        0
 62
   257
 93
        1
300
CONTENTFORMAT
  1
CONTENTFORMAT_BEGIN
 90
        0
 91
        0
 92
      512
 93
        0
300

 40
0.0
140
1.0
 94
        5
 62
     0
340
55
144
0.18
309
CONTENTFORMAT_END
171
     0
 94
        0
309
TABLEFORMAT_END
  1
CELLSTYLE_BEGIN
 90
        2
 91
        1
300
_HEADER
309
CELLSTYLE_END
300
CELLSTYLE
  1
TABLEFORMAT_BEGIN
 90
        5
170
     1
 91
        0
 92
        0
 62
   257
 93
        1
300
CONTENTFORMAT
  1
CONTENTFORMAT_BEGIN
 90
        0
 91
        0
 92
      512
 93
        0
300

 40
0.0
140
1.0
 94
        2
 62
     0
340
55
144
0.18
309
CONTENTFORMAT_END
171
     0
 94
        0
309
TABLEFORMAT_END
  1
CELLSTYLE_BEGIN
 90
        3
 91
        2
300
_DATA
309
CELLSTYLE_END
  0
ENDSEC
  0
EOF
