  0
SECTION
  2
HEADER
  9
$ACADVER
  1
AC1027
  9
$ACADMAINTVER
 70
    20
  9
$DWGCODEPAGE
  3
ANSI_1252
  9
$REQUIREDVERSIONS
160
                 0
  9
$INSBASE
 10
0.0
 20
0.0
 30
0.0
  9
$EXTMIN
 10
719.2600203110782
 20
1873.482558849941
 30
-0.00000001
  9
$EXTMAX
 10
1131.1143539431
 20
2106.500000000035
 30
0.00000001
  9
$LIMMIN
 10
0.0
 20
0.0
  9
$LIMMAX
 10
12.0
 20
9.0
  9
$ORTHOMODE
 70
     0
  9
$REGENMODE
 70
     1
  9
$FILLMODE
 70
     1
  9
$QTEXTMODE
 70
     0
  9
$MIRRTEXT
 70
     0
  9
$LTSCALE
 40
1.0
  9
$ATTMODE
 70
     1
  9
$TEXTSIZE
 40
0.2
  9
$TRACEWID
 40
0.05
  9
$TEXTSTYLE
  7
Standard
  9
$CLAYER
  8
0
  9
$CELTYPE
  6
ByLayer
  9
$CECOLOR
 62
   256
  9
$CELTSCALE
 40
1.0
  9
$DISPSILH
 70
     0
  9
$DIMSCALE
 40
1.0
  9
$DIMASZ
 40
0.18
  9
$DIMEXO
 40
0.0625
  9
$DIMDLI
 40
0.38
  9
$DIMRND
 40
0.0
  9
$DIMDLE
 40
0.0
  9
$DIMEXE
 40
0.18
  9
$DIMTP
 40
0.0
  9
$DIMTM
 40
0.0
  9
$DIMTXT
 40
0.18
  9
$DIMCEN
 40
0.09
  9
$DIMTSZ
 40
0.0
  9
$DIMTOL
 70
     0
  9
$DIMLIM
 70
     0
  9
$DIMTIH
 70
     1
  9
$DIMTOH
 70
     1
  9
$DIMSE1
 70
     0
  9
$DIMSE2
 70
     0
  9
$DIMTAD
 70
     0
  9
$DIMZIN
 70
     0
  9
$DIMBLK
  1

  9
$DIMASO
 70
     1
  9
$DIMSHO
 70
     1
  9
$DIMPOST
  1

  9
$DIMAPOST
  1

  9
$DIMALT
 70
     0
  9
$DIMALTD
 70
     2
  9
$DIMALTF
 40
25.4
  9
$DIMLFAC
 40
1.0
  9
$DIMTOFL
 70
     0
  9
$DIMTVP
 40
0.0
  9
$DIMTIX
 70
     0
  9
$DIMSOXD
 70
     0
  9
$DIMSAH
 70
     0
  9
$DIMBLK1
  1

  9
$DIMBLK2
  1

  9
$DIMSTYLE
  2
Standard
  9
$DIMCLRD
 70
     0
  9
$DIMCLRE
 70
     0
  9
$DIMCLRT
 70
     0
  9
$DIMTFAC
 40
1.0
  9
$DIMGAP
 40
0.09
  9
$DIMJUST
 70
     0
  9
$DIMSD1
 70
     0
  9
$DIMSD2
 70
     0
  9
$DIMTOLJ
 70
     1
  9
$DIMTZIN
 70
     0
  9
$DIMALTZ
 70
     0
  9
$DIMALTTZ
 70
     0
  9
$DIMUPT
 70
     0
  9
$DIMDEC
 70
     4
  9
$DIMTDEC
 70
     4
  9
$DIMALTU
 70
     2
  9
$DIMALTTD
 70
     2
  9
$DIMTXSTY
  7
Standard
  9
$DIMAUNIT
 70
     0
  9
$DIMADEC
 70
     0
  9
$DIMALTRND
 40
0.0
  9
$DIMAZIN
 70
     0
  9
$DIMDSEP
 70
    46
  9
$DIMATFIT
 70
     3
  9
$DIMFRAC
 70
     0
  9
$DIMLDRBLK
  1

  9
$DIMLUNIT
 70
     2
  9
$DIMLWD
 70
    -2
  9
$DIMLWE
 70
    -2
  9
$DIMTMOVE
 70
     0
  9
$DIMFXL
 40
1.0
  9
$DIMFXLON
 70
     0
  9
$DIMJOGANG
 40
0.7853981633974483
  9
$DIMTFILL
 70
     0
  9
$DIMTFILLCLR
 70
     0
  9
$DIMARCSYM
 70
     0
  9
$DIMLTYPE
  6

  9
$DIMLTEX1
  6

  9
$DIMLTEX2
  6

  9
$DIMTXTDIRECTION
 70
     0
  9
$LUNITS
 70
     2
  9
$LUPREC
 70
     4
  9
$SKETCHINC
 40
0.1
  9
$FILLETRAD
 40
0.0
  9
$AUNITS
 70
     0
  9
$AUPREC
 70
     0
  9
$MENU
  1
.
  9
$ELEVATION
 40
0.0
  9
$PELEVATION
 40
0.0
  9
$THICKNESS
 40
0.0
  9
$LIMCHECK
 70
     0
  9
$CHAMFERA
 40
0.0
  9
$CHAMFERB
 40
0.0
  9
$CHAMFERC
 40
0.0
  9
$CHAMFERD
 40
0.0
  9
$SKPOLY
 70
     0
  9
$TDCREATE
 40
2457549.572351100
  9
$TDUCREATE
 40
2457549.489017766
  9
$TDUPDATE
 40
2457549.572351100
  9
$TDUUPDATE
 40
2457549.489017766
  9
$TDINDWG
 40
0.0000139468
  9
$TDUSRTIMER
 40
0.0000139468
  9
$USRTIMER
 70
     1
  9
$ANGBASE
 50
0.0
  9
$ANGDIR
 70
     0
  9
$PDMODE
 70
     0
  9
$PDSIZE
 40
0.0
  9
$PLINEWID
 40
0.0
  9
$SPLFRAME
 70
     0
  9
$SPLINETYPE
 70
     6
  9
$SPLINESEGS
 70
     8
  9
$HANDSEED
  5
252
  9
$SURFTAB1
 70
     6
  9
$SURFTAB2
 70
     6
  9
$SURFTYPE
 70
     6
  9
$SURFU
 70
     6
  9
$SURFV
 70
     6
  9
$UCSBASE
  2

  9
$UCSNAME
  2

  9
$UCSORG
 10
0.0
 20
0.0
 30
0.0
  9
$UCSXDIR
 10
1.0
 20
0.0
 30
0.0
  9
$UCSYDIR
 10
0.0
 20
1.0
 30
0.0
  9
$UCSORTHOREF
  2

  9
$UCSORTHOVIEW
 70
     0
  9
$UCSORGTOP
 10
0.0
 20
0.0
 30
0.0
  9
$UCSORGBOTTOM
 10
0.0
 20
0.0
 30
0.0
  9
$UCSORGLEFT
 10
0.0
 20
0.0
 30
0.0
  9
$UCSORGRIGHT
 10
0.0
 20
0.0
 30
0.0
  9
$UCSORGFRONT
 10
0.0
 20
0.0
 30
0.0
  9
$UCSORGBACK
 10
0.0
 20
0.0
 30
0.0
  9
$PUCSBASE
  2

  9
$PUCSNAME
  2

  9
$PUCSORG
 10
0.0
 20
0.0
 30
0.0
  9
$PUCSXDIR
 10
1.0
 20
0.0
 30
0.0
  9
$PUCSYDIR
 10
0.0
 20
1.0
 30
0.0
  9
$PUCSORTHOREF
  2

  9
$PUCSORTHOVIEW
 70
     0
  9
$PUCSORGTOP
 10
0.0
 20
0.0
 30
0.0
  9
$PUCSORGBOTTOM
 10
0.0
 20
0.0
 30
0.0
  9
$PUCSORGLEFT
 10
0.0
 20
0.0
 30
0.0
  9
$PUCSORGRIGHT
 10
0.0
 20
0.0
 30
0.0
  9
$PUCSORGFRONT
 10
0.0
 20
0.0
 30
0.0
  9
$PUCSORGBACK
 10
0.0
 20
0.0
 30
0.0
  9
$USERI1
 70
     0
  9
$USERI2
 70
     0
  9
$USERI3
 70
     0
  9
$USERI4
 70
     0
  9
$USERI5
 70
     0
  9
$USERR1
 40
0.0
  9
$USERR2
 40
0.0
  9
$USERR3
 40
0.0
  9
$USERR4
 40
0.0
  9
$USERR5
 40
0.0
  9
$WORLDVIEW
 70
     1
  9
$SHADEDGE
 70
     3
  9
$SHADEDIF
 70
    70
  9
$TILEMODE
 70
     1
  9
$MAXACTVP
 70
    64
  9
$PINSBASE
 10
0.0
 20
0.0
 30
0.0
  9
$PLIMCHECK
 70
     0
  9
$PEXTMIN
 10
1.000000000000000E+20
 20
1.000000000000000E+20
 30
1.000000000000000E+20
  9
$PEXTMAX
 10
-1.000000000000000E+20
 20
-1.000000000000000E+20
 30
-1.000000000000000E+20
  9
$PLIMMIN
 10
0.0
 20
0.0
  9
$PLIMMAX
 10
12.0
 20
9.0
  9
$UNITMODE
 70
     0
  9
$VISRETAIN
 70
     1
  9
$PLINEGEN
 70
     0
  9
$PSLTSCALE
 70
     1
  9
$TREEDEPTH
 70
  3020
  9
$CMLSTYLE
  2
Standard
  9
$CMLJUST
 70
     0
  9
$CMLSCALE
 40
1.0
  9
$PROXYGRAPHICS
 70
     1
  9
$MEASUREMENT
 70
     1
  9
$CELWEIGHT
370
    -1
  9
$ENDCAPS
280
     0
  9
$JOINSTYLE
280
     0
  9
$LWDISPLAY
290
     0
  9
$INSUNITS
 70
     4
  9
$HYPERLINKBASE
  1

  9
$STYLESHEET
  1

  9
$XEDIT
290
     1
  9
$CEPSNTYPE
380
     0
  9
$PSTYLEMODE
290
     1
  9
$FINGERPRINTGUID
  2
{4E24F888-F633-4912-BDB6-D4A90364536B}
  9
$VERSIONGUID
  2
{6DB25797-8A54-4634-87D0-F9C84C986F81}
  9
$EXTNAMES
290
     1
  9
$PSVPSCALE
 40
0.0
  9
$OLESTARTUP
290
     0
  9
$SORTENTS
280
   127
  9
$INDEXCTL
280
     0
  9
$HIDETEXT
280
     1
  9
$XCLIPFRAME
280
     2
  9
$HALOGAP
280
     0
  9
$OBSCOLOR
 70
   257
  9
$OBSLTYPE
280
     0
  9
$INTERSECTIONDISPLAY
280
     0
  9
$INTERSECTIONCOLOR
 70
   257
  9
$DIMASSOC
280
     2
  9
$PROJECTNAME
  1

  9
$CAMERADISPLAY
290
     0
  9
$LENSLENGTH
 40
50.0
  9
$CAMERAHEIGHT
 40
0.0
  9
$STEPSPERSEC
 40
2.0
  9
$STEPSIZE
 40
6.0
  9
$3DDWFPREC
 40
2.0
  9
$PSOLWIDTH
 40
0.25
  9
$PSOLHEIGHT
 40
4.0
  9
$LOFTANG1
 40
1.570796326794896
  9
$LOFTANG2
 40
1.570796326794896
  9
$LOFTMAG1
 40
0.0
  9
$LOFTMAG2
 40
0.0
  9
$LOFTPARAM
 70
     7
  9
$LOFTNORMALS
280
     1
  9
$LATITUDE
 40
37.795
  9
$LONGITUDE
 40
-122.394
  9
$NORTHDIRECTION
 40
0.0
  9
$TIMEZONE
 70
 -8000
  9
$LIGHTGLYPHDISPLAY
280
     1
  9
$TILEMODELIGHTSYNCH
280
     1
  9
$CMATERIAL
347
11
  9
$SOLIDHIST
280
     0
  9
$SHOWHIST
280
     1
  9
$DWFFRAME
280
     2
  9
$DGNFRAME
280
     0
  9
$REALWORLDSCALE
290
     1
  9
$INTERFERECOLOR
 62
     1
  9
$INTERFEREOBJVS
345
33
  9
$INTERFEREVPVS
346
30
  9
$CSHADOW
280
     0
  9
$SHADOWPLANELOCATION
 40
0.0
  0
ENDSEC
  0
SECTION
  2
CLASSES
  0
CLASS
  1
ACDBDICTIONARYWDFLT
  2
AcDbDictionaryWithDefault
  3
ObjectDBX Classes
 90
        0
 91
        1
280
     0
281
     0
  0
CLASS
  1
MATERIAL
  2
AcDbMaterial
  3
ObjectDBX Classes
 90
     1153
 91
        3
280
     0
281
     0
  0
CLASS
  1
VISUALSTYLE
  2
AcDbVisualStyle
  3
ObjectDBX Classes
 90
     4095
 91
       24
280
     0
281
     0
  0
CLASS
  1
SCALE
  2
AcDbScale
  3
ObjectDBX Classes
 90
     1153
 91
       17
280
     0
281
     0
  0
CLASS
  1
TABLESTYLE
  2
AcDbTableStyle
  3
ObjectDBX Classes
 90
     4095
 91
        1
280
     0
281
     0
  0
CLASS
  1
MLEADERSTYLE
  2
AcDbMLeaderStyle
  3
ACDB_MLEADERSTYLE_CLASS
 90
     4095
 91
        1
280
     0
281
     0
  0
CLASS
  1
ACDBSECTIONVIEWSTYLE
  2
AcDbSectionViewStyle
  3
ObjectDBX Classes
 90
     1025
 91
        1
280
     0
281
     0
  0
CLASS
  1
ACDBDETAILVIEWSTYLE
  2
AcDbDetailViewStyle
  3
ObjectDBX Classes
 90
     1025
 91
        1
280
     0
281
     0
  0
CLASS
  1
RASTERVARIABLES
  2
AcDbRasterVariables
  3
ISM
 90
        0
 91
        1
280
     0
281
     0
  0
CLASS
  1
DICTIONARYVAR
  2
AcDbDictionaryVar
  3
ObjectDBX Classes
 90
        0
 91
        5
280
     0
281
     0
  0
CLASS
  1
CELLSTYLEMAP
  2
AcDbCellStyleMap
  3
ObjectDBX Classes
 90
     1152
 91
        2
280
     0
281
     0
  0
CLASS
  1
SORTENTSTABLE
  2
AcDbSortentsTable
  3
ObjectDBX Classes
 90
        0
 91
        1
280
     0
281
     0
  0
ENDSEC
  0
SECTION
  2
TABLES
  0
TABLE
  2
VPORT
  5
8
330
0
100
AcDbSymbolTable
 70
     1
  0
VPORT
  5
57
330
8
100
AcDbSymbolTableRecord
100
AcDbViewportTableRecord
  2
*Active
 70
     0
 10
0.0
 20
0.0
 11
1.0
 21
1.0
 12
925.1871871270891
 22
1989.991279424988
 13
0.0
 23
0.0
 14
1.0
 24
1.0
 15
0.0
 25
0.0
 16
0.0
 26
0.0
 36
1.0
 17
0.0
 27
0.0
 37
0.0
 40
233.0174411500943
 41
1.767482861365439
 42
50.0
 43
0.0
 44
0.0
 50
0.0
 51
0.0
 71
     0
 72
  1000
 73
     1
 74
     1
 75
     0
 76
     0
 77
     0
 78
     0
281
     0
 65
     1
110
0.0
120
0.0
130
0.0
111
1.0
121
0.0
131
0.0
112
0.0
122
1.0
132
0.0
 79
     0
146
0.0
 60
     3
 61
     5
292
     1
282
     1
141
0.0
142
0.0
 63
   250
421
  3355443
  0
ENDTAB
  0
TABLE
  2
LTYPE
  5
5
330
0
100
AcDbSymbolTable
 70
     3
  0
LTYPE
  5
5B
330
5
100
AcDbSymbolTableRecord
100
AcDbLinetypeTableRecord
  2
ByBlock
 70
     0
  3

 72
    65
 73
     0
 40
0.0
  0
LTYPE
  5
5C
330
5
100
AcDbSymbolTableRecord
100
AcDbLinetypeTableRecord
  2
ByLayer
 70
     0
  3

 72
    65
 73
     0
 40
0.0
  0
LTYPE
  5
5D
330
5
100
AcDbSymbolTableRecord
100
AcDbLinetypeTableRecord
  2
Continuous
 70
     0
  3
Solid line
 72
    65
 73
     0
 40
0.0
  0
LTYPE
  5
69
330
5
100
AcDbSymbolTableRecord
100
AcDbLinetypeTableRecord
  2
PHANTOM2
 70
     0
  3
___ _ _ ___ _ _ ___ _ _ ___ _ _
 72
    65
 73
     6
 40
1.25
 49
0.625
 74
     0
 49
-0.125
 74
     0
 49
0.125
 74
     0
 49
-0.125
 74
     0
 49
0.125
 74
     0
 49
-0.125
 74
     0
  0
LTYPE
  5
86
330
5
100
AcDbSymbolTableRecord
100
AcDbLinetypeTableRecord
  2
Nascosto 1_5 mm
 70
     0
  3

 72
    65
 73
     2
 40
2.2
 49
1.5
 74
     0
 49
-0.7000000000000001
 74
     0
  0
ENDTAB
  0
TABLE
  2
LAYER
  5
2
330
0
100
AcDbSymbolTable
 70
     3
  0
LAYER
  5
54
330
2
100
AcDbSymbolTableRecord
100
AcDbLayerTableRecord
  2
0
 70
     0
 62
     7
  6
Continuous
370
    -3
390
F
347
21
348
0
  0
LAYER
  5
85
330
2
100
AcDbSymbolTableRecord
100
AcDbLayerTableRecord
  2
P-SANR-FIXT
 70
     0
 62
     6
  6
Continuous
370
    18
390
F
347
21
348
0
  0
ENDTAB
  0
TABLE
  2
STYLE
  5
3
330
0
100
AcDbSymbolTable
 70
     2
  0
STYLE
  5
55
330
3
100
AcDbSymbolTableRecord
100
AcDbTextStyleTableRecord
  2
Standard
 70
     0
 40
0.0
 41
1.0
 50
0.0
 71
     0
 42
0.2
  3
txt
  4

  0
STYLE
  5
5A
330
3
100
AcDbSymbolTableRecord
100
AcDbTextStyleTableRecord
  2
Annotative
 70
     0
 40
0.0
 41
1.0
 50
0.0
 71
     0
 42
0.2
  3
txt
  4

1001
AcadAnnotative
1000
AnnotativeData
1002
{
1070
     1
1070
     1
1002
}
  0
ENDTAB
  0
TABLE
  2
VIEW
  5
6
330
0
100
AcDbSymbolTable
 70
     0
  0
ENDTAB
  0
TABLE
  2
UCS
  5
7
330
0
100
AcDbSymbolTable
 70
     0
  0
ENDTAB
  0
TABLE
  2
APPID
  5
9
330
0
100
AcDbSymbolTable
 70
     3
  0
APPID
  5
56
330
9
100
AcDbSymbolTableRecord
100
AcDbRegAppTableRecord
  2
ACAD
 70
     0
  0
APPID
  5
5E
330
9
100
AcDbSymbolTableRecord
100
AcDbRegAppTableRecord
  2
AcadAnnotative
 70
     0
  0
APPID
  5
79
330
9
100
AcDbSymbolTableRecord
100
AcDbRegAppTableRecord
  2
REVIT
 70
     0
  0
ENDTAB
  0
TABLE
  2
DIMSTYLE
  5
A
330
0
100
AcDbSymbolTable
 70
     2
100
AcDbDimStyleTable
 71
     0
  0
DIMSTYLE
105
58
330
A
100
AcDbSymbolTableRecord
100
AcDbDimStyleTableRecord
  2
Standard
 70
     0
340
55
  0
DIMSTYLE
105
59
330
A
100
AcDbSymbolTableRecord
100
AcDbDimStyleTableRecord
  2
Annotative
 70
     0
340
55
1001
AcadAnnotative
1000
AnnotativeData
1002
{
1070
     1
1070
     1
1002
}
  0
ENDTAB
  0
TABLE
  2
BLOCK_RECORD
  5
1
330
0
100
AcDbSymbolTable
 70
     3
  0
BLOCK_RECORD
  5
71
102
{ACAD_XDICTIONARY
360
24D
102
}
330
1
100
AcDbSymbolTableRecord
100
AcDbBlockTableRecord
  2
*Model_Space
340
74
 70
     0
280
     1
281
     0
  0
BLOCK_RECORD
  5
6D
330
1
100
AcDbSymbolTableRecord
100
AcDbBlockTableRecord
  2
*Paper_Space
340
70
 70
     0
280
     1
281
     0
  0
BLOCK_RECORD
  5
75
330
1
100
AcDbSymbolTableRecord
100
AcDbBlockTableRecord
  2
*Paper_Space0
340
78
 70
     0
280
     1
281
     0
  0
BLOCK_RECORD
  5
87
330
1
100
AcDbSymbolTableRecord
100
AcDbBlockTableRecord
  2
Automatic flow rate regulator valve_Caleffi_121 DN15 - 1_2__-859151-Est - Idraulica
340
0
102
{BLKREFS
331
15A
102
}
 70
     0
280
     1
281
     0
  0
BLOCK_RECORD
  5
15B
330
1
100
AcDbSymbolTableRecord
100
AcDbBlockTableRecord
  2
Automatic flow rate regulator valve_Caleffi_121 DN15 - 1_2__-V1-Est - Idraulica
340
0
102
{BLKREFS
331
247
102
}
 70
     0
280
     1
281
     0
  0
ENDTAB
  0
ENDSEC
  0
SECTION
  2
BLOCKS
  0
BLOCK
  5
72
330
71
100
AcDbEntity
  8
0
100
AcDbBlockBegin
  2
*Model_Space
 70
     0
 10
0.0
 20
0.0
 30
0.0
  3
*Model_Space
  1

  0
ENDBLK
  5
73
330
71
100
AcDbEntity
  8
0
100
AcDbBlockEnd
  0
BLOCK
  5
6E
330
6D
100
AcDbEntity
 67
     1
  8
0
100
AcDbBlockBegin
  2
*Paper_Space
 70
     0
 10
0.0
 20
0.0
 30
0.0
  3
*Paper_Space
  1

  0
ENDBLK
  5
6F
330
6D
100
AcDbEntity
 67
     1
  8
0
100
AcDbBlockEnd
  0
BLOCK
  5
76
330
75
100
AcDbEntity
 67
     1
  8
0
100
AcDbBlockBegin
  2
*Paper_Space0
 70
     0
 10
0.0
 20
0.0
 30
0.0
  3
*Paper_Space0
  1

  0
ENDBLK
  5
77
330
75
100
AcDbEntity
 67
     1
  8
0
100
AcDbBlockEnd
  0
BLOCK
  5
158
330
87
100
AcDbEntity
  8
0
100
AcDbBlockBegin
  2
Automatic flow rate regulator valve_Caleffi_121 DN15 - 1_2__-859151-Est - Idraulica
 70
     0
 10
0.0
 20
0.0
 30
0.0
  3
Automatic flow rate regulator valve_Caleffi_121 DN15 - 1_2__-859151-Est - Idraulica
  1

  0
LINE
  5
88
330
87
100
AcDbEntity
  8
P-SANR-FIXT
100
AcDbLine
 10
796.1664074431575
 20
1927.183111520095
 30
0.0
 11
796.1664074431575
 21
1916.984091872694
 31
0.0
  0
LINE
  5
89
330
87
100
AcDbEntity
  8
P-SANR-FIXT
100
AcDbLine
 10
835.1664074431617
 20
1915.6570457181
 30
0.0
 11
835.1664074431617
 21
1927.183111520095
 31
0.0
  0
LINE
  5
8A
330
87
100
AcDbEntity
  8
P-SANR-FIXT
100
AcDbLine
 10
792.1664074431561
 20
1887.499999999863
 30
0.0
 11
792.1664074431561
 21
1874.943388887398
 31
0.0
  0
LINE
  5
8B
330
87
100
AcDbEntity
  8
P-SANR-FIXT
100
AcDbLine
 10
839.1664074431602
 20
1874.943388887398
 30
0.0
 11
839.1664074431602
 21
1887.499999999863
 31
0.0
  0
LINE
  5
8C
330
87
100
AcDbEntity
  8
P-SANR-FIXT
100
AcDbLine
 10
796.1052926828499
 20
1891.438885239555
 30
0.0
 11
792.1664074431568
 21
1887.499999999862
 31
0.0
  0
LINE
  5
8D
330
87
100
AcDbEntity
  8
P-SANR-FIXT
100
AcDbLine
 10
839.1664074431609
 20
1887.499999999863
 30
0.0
 11
835.2275222034691
 21
1891.438885239555
 31
0.0
  0
LINE
  5
8E
330
87
100
AcDbEntity
  8
P-SANR-FIXT
100
AcDbLine
 10
836.6663845549778
 20
1873.499999999925
 30
0.0
 11
839.1664074431606
 21
1874.943388887398
 31
0.0
  0
LINE
  5
8F
330
87
100
AcDbEntity
  8
P-SANR-FIXT
100
AcDbLine
 10
792.1664074431563
 20
1874.943388887399
 30
0.0
 11
794.6664303313412
 21
1873.499999999925
 31
0.0
  0
LINE
  5
90
330
87
100
AcDbEntity
  8
P-SANR-FIXT
100
AcDbLine
 10
836.6663845549764
 20
1873.499999999925
 30
0.0
 11
794.66643033134
 21
1873.499999999925
 31
0.0
  0
LINE
  5
91
330
87
100
AcDbEntity
  8
P-SANR-FIXT
100
AcDbLine
 10
792.1664074431548
 20
1874.943388887398
 30
0.0
 11
792.3034447715397
 21
1874.943388887398
 31
0.0
  0
LINE
  5
92
330
87
100
AcDbEntity
  8
P-SANR-FIXT
100
AcDbLine
 10
792.3034447715397
 20
1887.499999999862
 30
0.0
 11
792.1664074431548
 21
1887.499999999862
 31
0.0
  0
LINE
  5
93
330
87
100
AcDbEntity
  8
P-SANR-FIXT
100
AcDbLine
 10
792.3034447715397
 20
1874.943388887399
 30
0.0
 11
792.3034447715397
 21
1887.49999999986
 31
0.0
  0
SPLINE
  5
94
330
87
100
AcDbEntity
  8
P-SANR-FIXT
100
AcDbSpline
210
0.0
220
0.0
230
1.0
 70
     8
 71
     3
 72
     9
 73
     5
 74
     0
 42
0.000000001
 43
0.0000000001
 40
0.0
 40
0.0
 40
0.0
 40
0.0
 40
0.5
 40
1.0
 40
1.0
 40
1.0
 40
1.0
 10
792.3034447715397
 20
1874.943388887399
 30
0.0
 10
793.9094841630024
 20
1874.173638478902
 30
0.0
 10
797.096662384545
 20
1873.403888070406
 30
0.0
 10
800.2340394833225
 20
1874.173638478902
 30
0.0
 10
801.7902777520202
 20
1874.943388887398
 30
0.0
  0
SPLINE
  5
95
330
87
100
AcDbEntity
  8
P-SANR-FIXT
100
AcDbSpline
210
0.0
220
0.0
230
1.0
 70
     8
 71
     3
 72
     9
 73
     5
 74
     0
 42
0.000000001
 43
0.0000000001
 40
0.4586982485451237
 40
0.4586982485451237
 40
0.4586982485451237
 40
0.4586982485451237
 40
0.6666666666666666
 40
1.0
 40
1.0
 40
1.0
 40
1.0
 10
797.4629109973522
 20
1889.467773704241
 30
0.0
 10
796.7951646048638
 20
1889.515503765067
 30
0.0
 10
795.0496344405871
 20
1889.343196909993
 30
0.0
 10
793.347732633143
 20
1888.385126068692
 30
0.0
 10
792.3034447715397
 20
1887.49999999986
 30
0.0
  0
LINE
  5
96
330
87
100
AcDbEntity
  8
P-SANR-FIXT
100
AcDbLine
 10
801.79027775202
 20
1874.943388887398
 30
0.0
 11
801.79027775202
 21
1885.184256158522
 31
0.0
  0
LINE
  5
97
330
87
100
AcDbEntity
  8
P-SANR-FIXT
100
AcDbLine
 10
801.7902777520198
 20
1874.943388887398
 30
0.0
 11
806.1795744626754
 21
1874.943388887398
 31
0.0
  0
LINE
  5
98
330
87
100
AcDbEntity
  8
P-SANR-FIXT
100
AcDbLine
 10
806.1795744626758
 20
1874.943388887398
 30
0.0
 11
806.1795744626758
 21
1882.558248821016
 31
0.0
  0
SPLINE
  5
99
330
87
100
AcDbEntity
  8
P-SANR-FIXT
100
AcDbSpline
210
0.0
220
0.0
230
1.0
 70
     8
 71
     3
 72
     9
 73
     5
 74
     0
 42
0.000000001
 43
0.0000000001
 40
0.0
 40
0.0
 40
0.0
 40
0.0
 40
0.5
 40
1.0
 40
1.0
 40
1.0
 40
1.0
 10
806.1795744626758
 20
1874.943388887398
 30
0.0
 10
809.3916532456011
 20
1874.173638478902
 30
0.0
 10
815.7660096886864
 20
1873.403888070405
 30
0.0
 10
822.0407638862418
 20
1874.173638478901
 30
0.0
 10
825.1532404236369
 20
1874.943388887398
 30
0.0
  0
LINE
  5
9A
330
87
100
AcDbEntity
  8
P-SANR-FIXT
100
AcDbLine
 10
825.1532404236369
 20
1874.943388887398
 30
0.0
 11
825.1532404236369
 21
1882.558248821015
 31
0.0
  0
LINE
  5
9B
330
87
100
AcDbEntity
  8
P-SANR-FIXT
100
AcDbLine
 10
825.1532404236368
 20
1874.943388887398
 30
0.0
 11
829.5425371342926
 21
1874.943388887398
 31
0.0
  0
LINE
  5
9C
330
87
100
AcDbEntity
  8
P-SANR-FIXT
100
AcDbLine
 10
829.5425371342931
 20
1874.943388887398
 30
0.0
 11
829.5425371342931
 21
1885.18425615852
 31
0.0
  0
SPLINE
  5
9D
330
87
100
AcDbEntity
  8
P-SANR-FIXT
100
AcDbSpline
210
0.0
220
0.0
230
1.0
 70
     8
 71
     3
 72
     9
 73
     5
 74
     0
 42
0.000000001
 43
0.0000000001
 40
0.0
 40
0.0
 40
0.0
 40
0.0
 40
0.5
 40
1.0
 40
1.0
 40
1.0
 40
1.0
 10
829.5425371342931
 20
1874.943388887398
 30
0.0
 10
831.1485765257558
 20
1874.173638478901
 30
0.0
 10
834.3357547472985
 20
1873.403888070404
 30
0.0
 10
837.4731318460762
 20
1874.1736384789
 30
0.0
 10
839.0293701147738
 20
1874.943388887397
 30
0.0
  0
SPLINE
  5
9E
330
87
100
AcDbEntity
  8
P-SANR-FIXT
100
AcDbSpline
210
0.0
220
0.0
230
1.0
 70
     8
 71
     3
 72
     9
 73
     5
 74
     0
 42
0.000000001
 43
0.0000000001
 40
0.0
 40
0.0
 40
0.0
 40
0.0
 40
0.3333333333333333
 40
0.5446554658908119
 40
0.5446554658908119
 40
0.5446554658908119
 40
0.5446554658908119
 10
839.0293701147738
 20
1887.499999999863
 30
0.0
 10
838.0010336765195
 20
1888.377286571846
 30
0.0
 10
836.3059635465086
 20
1889.333095218004
 30
0.0
 10
834.5525268242266
 20
1889.515977754247
 30
0.0
 10
833.8732062165004
 20
1889.468422695252
 30
0.0
  0
LINE
  5
9F
330
87
100
AcDbEntity
  8
P-SANR-FIXT
100
AcDbLine
 10
839.0293701147738
 20
1874.943388887397
 30
0.0
 11
839.0293701147738
 21
1887.499999999863
 31
0.0
  0
LINE
  5
A0
330
87
100
AcDbEntity
  8
P-SANR-FIXT
100
AcDbLine
 10
839.0293701147738
 20
1874.943388887398
 30
0.0
 11
839.166407443159
 21
1874.943388887398
 31
0.0
  0
LINE
  5
A1
330
87
100
AcDbEntity
  8
P-SANR-FIXT
100
AcDbLine
 10
839.166407443159
 20
1887.499999999862
 30
0.0
 11
839.0293701147738
 21
1887.499999999862
 31
0.0
  0
LINE
  5
A2
330
87
100
AcDbEntity
  8
P-SANR-FIXT
100
AcDbLine
 10
841.7505361706981
 20
1928.963734071155
 30
0.0
 11
841.7505361706982
 21
1941.16236992458
 31
0.0
  0
LINE
  5
A3
330
87
100
AcDbEntity
  8
P-SANR-FIXT
100
AcDbLine
 10
789.582278715621
 20
1941.16236992458
 30
0.0
 11
789.582278715621
 21
1928.963734071155
 31
0.0
  0
LINE
  5
A4
330
87
100
AcDbEntity
  8
P-SANR-FIXT
100
AcDbLine
 10
796.5464074431598
 20
1945.183111520096
 30
0.0
 11
789.80673086526
 21
1941.291957433594
 31
0.0
  0
LINE
  5
A5
330
87
100
AcDbEntity
  8
P-SANR-FIXT
100
AcDbLine
 10
789.7876742979507
 20
1941.280955119328
 30
0.0
 11
789.582278715621
 21
1941.16236992458
 31
0.0
  0
LINE
  5
A6
330
87
100
AcDbEntity
  8
P-SANR-FIXT
100
AcDbLine
 10
841.7505361706982
 20
1941.16236992458
 30
0.0
 11
841.5451405883683
 21
1941.280955119328
 31
0.0
  0
LINE
  5
A7
330
87
100
AcDbEntity
  8
P-SANR-FIXT
100
AcDbLine
 10
841.5260840210589
 20
1941.291957433594
 30
0.0
 11
834.7864074431592
 21
1945.183111520096
 31
0.0
  0
LINE
  5
A8
330
87
100
AcDbEntity
  8
P-SANR-FIXT
100
AcDbLine
 10
838.6664074431598
 20
1927.183111520095
 30
0.0
 11
841.5260840210589
 21
1928.834146562141
 31
0.0
  0
LINE
  5
A9
330
87
100
AcDbEntity
  8
P-SANR-FIXT
100
AcDbLine
 10
841.5450399969847
 20
1928.845090799944
 30
0.0
 11
841.7505361706981
 21
1928.963734071155
 31
0.0
  0
LINE
  5
AA
330
87
100
AcDbEntity
  8
P-SANR-FIXT
100
AcDbLine
 10
789.582278715621
 20
1928.963734071155
 30
0.0
 11
789.7877748893336
 21
1928.845090799945
 31
0.0
  0
LINE
  5
AB
330
87
100
AcDbEntity
  8
P-SANR-FIXT
100
AcDbLine
 10
789.80673086526
 20
1928.834146562141
 30
0.0
 11
792.6664074431595
 21
1927.183111520095
 31
0.0
  0
LINE
  5
AC
330
87
100
AcDbEntity
  8
P-SANR-FIXT
100
AcDbLine
 10
796.5464074431585
 20
1945.183111520094
 30
0.0
 11
834.786407443158
 21
1945.183111520094
 31
0.0
  0
LINE
  5
AD
330
87
100
AcDbEntity
  8
P-SANR-FIXT
100
AcDbLine
 10
838.6664074431585
 20
1927.183111520095
 30
0.0
 11
792.6664074431581
 21
1927.183111520095
 31
0.0
  0
SPLINE
  5
AE
330
87
100
AcDbEntity
  8
P-SANR-FIXT
100
AcDbSpline
210
0.0
220
0.0
230
1.0
 70
     8
 71
     3
 72
    10
 73
     6
 74
     0
 42
0.000000001
 43
0.0000000001
 40
0.0
 40
0.0
 40
0.0
 40
0.0
 40
0.4
 40
0.7
 40
1.0
 40
1.0
 40
1.0
 40
1.0
 10
800.24517795479
 20
1928.581392585833
 30
0.0
 10
800.6926862852946
 20
1928.782312308423
 30
0.0
 10
801.7744240347145
 20
1929.000524764788
 30
0.0
 10
803.8483847229162
 20
1928.946377920713
 30
0.0
 10
805.2044600561327
 20
1928.731853034615
 30
0.0
 10
805.8743430793887
 20
1928.581392585836
 30
0.0
  0
SPLINE
  5
AF
330
87
100
AcDbEntity
  8
P-SANR-FIXT
100
AcDbSpline
210
0.0
220
0.0
230
1.0
 70
     8
 71
     3
 72
    10
 73
     6
 74
     0
 42
0.000000001
 43
0.0000000001
 40
0.0
 40
0.0
 40
0.0
 40
0.0
 40
0.4
 40
0.7
 40
1.0
 40
1.0
 40
1.0
 40
1.0
 10
805.8743430793889
 20
1941.544711409897
 30
0.0
 10
804.9811657150472
 20
1941.344097478192
 30
0.0
 10
803.3899747564374
 20
1941.125731255969
 30
0.0
 10
801.4408279497251
 20
1941.179460414896
 30
0.0
 10
800.5808092026688
 20
1941.394021617957
 30
0.0
 10
800.2451779547902
 20
1941.5447114099
 30
0.0
  0
SPLINE
  5
B0
330
87
100
AcDbEntity
  8
P-SANR-FIXT
100
AcDbSpline
210
0.0
220
0.0
230
1.0
 70
     8
 71
     3
 72
     9
 73
     5
 74
     0
 42
0.000000001
 43
0.0000000001
 40
0.0
 40
0.0
 40
0.0
 40
0.0
 40
0.5
 40
1.0
 40
1.0
 40
1.0
 40
1.0
 10
805.8743430793887
 20
1928.581392585836
 30
0.0
 10
809.1854979397753
 20
1927.826436160456
 30
0.0
 10
815.7606742547518
 20
1927.071479735078
 30
0.0
 10
822.2415837581344
 20
1927.826436160456
 30
0.0
 10
825.4584718069272
 20
1928.581392585836
 30
0.0
  0
SPLINE
  5
B1
330
87
100
AcDbEntity
  8
P-SANR-FIXT
100
AcDbSpline
210
0.0
220
0.0
230
1.0
 70
     8
 71
     3
 72
     9
 73
     5
 74
     0
 42
0.000000001
 43
0.0000000001
 40
0.0
 40
0.0
 40
0.0
 40
0.0
 40
0.5
 40
1.0
 40
1.0
 40
1.0
 40
1.0
 10
825.4584718069274
 20
1941.544711409897
 30
0.0
 10
822.2415837581346
 20
1942.299667835277
 30
0.0
 10
815.7606742547519
 20
1943.054624260655
 30
0.0
 10
809.1854979397755
 20
1942.299667835277
 30
0.0
 10
805.8743430793889
 20
1941.544711409897
 30
0.0
  0
SPLINE
  5
B2
330
87
100
AcDbEntity
  8
P-SANR-FIXT
100
AcDbSpline
210
0.0
220
0.0
230
1.0
 70
     8
 71
     3
 72
    10
 73
     6
 74
     0
 42
0.000000001
 43
0.0000000001
 40
0.0
 40
0.0
 40
0.0
 40
0.0
 40
0.4
 40
0.7
 40
1.0
 40
1.0
 40
1.0
 40
1.0
 10
825.4584718069272
 20
1928.581392585836
 30
0.0
 10
826.3534884679369
 20
1928.782312308426
 30
0.0
 10
827.9444739048566
 20
1929.000524764789
 30
0.0
 10
829.8937196169882
 20
1928.946377920712
 30
0.0
 10
830.7526954198982
 20
1928.731853034612
 30
0.0
 10
831.0876369315263
 20
1928.581392585833
 30
0.0
  0
SPLINE
  5
B3
330
87
100
AcDbEntity
  8
P-SANR-FIXT
100
AcDbSpline
210
0.0
220
0.0
230
1.0
 70
     8
 71
     3
 72
    10
 73
     6
 74
     0
 42
0.000000001
 43
0.0000000001
 40
0.0
 40
0.0
 40
0.0
 40
0.0
 40
0.4
 40
0.7
 40
1.0
 40
1.0
 40
1.0
 40
1.0
 10
831.0876369315263
 20
1941.5447114099
 30
0.0
 10
830.6410482493554
 20
1941.344097478194
 30
0.0
 10
829.5598032417331
 20
1941.12573125597
 30
0.0
 10
827.4866161791276
 20
1941.179460414895
 30
0.0
 10
826.1297343026846
 20
1941.394021617955
 30
0.0
 10
825.4584718069274
 20
1941.544711409897
 30
0.0
  0
SPLINE
  5
B4
330
87
100
AcDbEntity
  8
P-SANR-FIXT
100
AcDbSpline
210
0.0
220
0.0
230
1.0
 70
     8
 71
     3
 72
     9
 73
     5
 74
     0
 42
0.000000001
 43
0.0000000001
 40
0.0
 40
0.0
 40
0.0
 40
0.0
 40
0.5
 40
1.0
 40
1.0
 40
1.0
 40
1.0
 10
831.0876369315263
 20
1928.581392585833
 30
0.0
 10
832.7432143617196
 20
1927.82643616045
 30
0.0
 10
836.0308025192077
 20
1927.071479735065
 30
0.0
 10
839.271257270899
 20
1927.826436160439
 30
0.0
 10
840.8797012952955
 20
1928.581392585816
 30
0.0
  0
SPLINE
  5
B5
330
87
100
AcDbEntity
  8
P-SANR-FIXT
100
AcDbSpline
210
0.0
220
0.0
230
1.0
 70
     8
 71
     3
 72
     9
 73
     5
 74
     0
 42
0.000000001
 43
0.0000000001
 40
0.0
 40
0.0
 40
0.0
 40
0.0
 40
0.5
 40
1.0
 40
1.0
 40
1.0
 40
1.0
 10
840.8797012952957
 20
1941.544711409917
 30
0.0
 10
839.271257270899
 20
1942.299667835294
 30
0.0
 10
836.0308025192077
 20
1943.054624260668
 30
0.0
 10
832.7432143617196
 20
1942.299667835283
 30
0.0
 10
831.0876369315263
 20
1941.5447114099
 30
0.0
  0
SPLINE
  5
B6
330
87
100
AcDbEntity
  8
P-SANR-FIXT
100
AcDbSpline
210
0.0
220
0.0
230
1.0
 70
     8
 71
     3
 72
     9
 73
     5
 74
     0
 42
0.000000001
 43
0.0000000001
 40
0.0
 40
0.0
 40
0.0
 40
0.0
 40
0.5
 40
1.0
 40
1.0
 40
1.0
 40
1.0
 10
840.8797012952955
 20
1928.581392585816
 30
0.0
 10
841.1595047228654
 20
1928.707489020337
 30
0.0
 10
841.5971475953323
 20
1928.897309035747
 30
0.0
 10
841.7505361707004
 20
1928.962383343895
 30
0.0
 10
841.7505361706968
 20
1928.963734071155
 30
0.0
  0
SPLINE
  5
B7
330
87
100
AcDbEntity
  8
P-SANR-FIXT
100
AcDbSpline
210
0.0
220
0.0
230
1.0
 70
     8
 71
     3
 72
     9
 73
     5
 74
     0
 42
0.000000001
 43
0.0000000001
 40
0.0
 40
0.0
 40
0.0
 40
0.0
 40
0.5
 40
1.0
 40
1.0
 40
1.0
 40
1.0
 10
841.7505361706968
 20
1941.162369924579
 30
0.0
 10
841.7505361707007
 20
1941.163720651838
 30
0.0
 10
841.5971475953323
 20
1941.228794959986
 30
0.0
 10
841.1595047228656
 20
1941.418614975397
 30
0.0
 10
840.8797012952957
 20
1941.544711409917
 30
0.0
  0
SPLINE
  5
B8
330
87
100
AcDbEntity
  8
P-SANR-FIXT
100
AcDbSpline
210
0.0
220
0.0
230
1.0
 70
     8
 71
     3
 72
     9
 73
     5
 74
     0
 42
0.000000001
 43
0.0000000001
 40
0.0
 40
0.0
 40
0.0
 40
0.0
 40
0.5
 40
1.0
 40
1.0
 40
1.0
 40
1.0
 10
789.5822787156196
 20
1928.963734071155
 30
0.0
 10
789.5822787156159
 20
1928.962383343895
 30
0.0
 10
789.7356672909842
 20
1928.897309035747
 30
0.0
 10
790.1733101634508
 20
1928.707489020337
 30
0.0
 10
790.4531135910208
 20
1928.581392585816
 30
0.0
  0
SPLINE
  5
B9
330
87
100
AcDbEntity
  8
P-SANR-FIXT
100
AcDbSpline
210
0.0
220
0.0
230
1.0
 70
     8
 71
     3
 72
     9
 73
     5
 74
     0
 42
0.000000001
 43
0.0000000001
 40
0.0
 40
0.0
 40
0.0
 40
0.0
 40
0.5
 40
1.0
 40
1.0
 40
1.0
 40
1.0
 10
790.4531135910208
 20
1941.544711409917
 30
0.0
 10
790.1733101634508
 20
1941.418614975397
 30
0.0
 10
789.7356672909842
 20
1941.228794959986
 30
0.0
 10
789.5822787156159
 20
1941.163720651838
 30
0.0
 10
789.5822787156197
 20
1941.162369924579
 30
0.0
  0
SPLINE
  5
BA
330
87
100
AcDbEntity
  8
P-SANR-FIXT
100
AcDbSpline
210
0.0
220
0.0
230
1.0
 70
     8
 71
     3
 72
     9
 73
     5
 74
     0
 42
0.000000001
 43
0.0000000001
 40
0.0
 40
0.0
 40
0.0
 40
0.0
 40
0.5
 40
1.0
 40
1.0
 40
1.0
 40
1.0
 10
800.2451779547902
 20
1941.5447114099
 30
0.0
 10
798.589600524597
 20
1942.299667835283
 30
0.0
 10
795.3020123671088
 20
1943.054624260668
 30
0.0
 10
792.0615576154174
 20
1942.299667835294
 30
0.0
 10
790.4531135910208
 20
1941.544711409917
 30
0.0
  0
SPLINE
  5
BB
330
87
100
AcDbEntity
  8
P-SANR-FIXT
100
AcDbSpline
210
0.0
220
0.0
230
1.0
 70
     8
 71
     3
 72
     9
 73
     5
 74
     0
 42
0.000000001
 43
0.0000000001
 40
0.0
 40
0.0
 40
0.0
 40
0.0
 40
0.5
 40
1.0
 40
1.0
 40
1.0
 40
1.0
 10
790.4531135910208
 20
1928.581392585816
 30
0.0
 10
792.0615576154174
 20
1927.826436160439
 30
0.0
 10
795.3020123671088
 20
1927.071479735065
 30
0.0
 10
798.5896005245968
 20
1927.82643616045
 30
0.0
 10
800.24517795479
 20
1928.581392585833
 30
0.0
  0
LINE
  5
BC
330
87
100
AcDbEntity
  8
P-SANR-FIXT
100
AcDbLine
 10
798.8164074431587
 20
1959.999999999996
 30
0.0
 11
798.8164074431587
 21
1945.183111520096
 31
0.0
  0
LINE
  5
BD
330
87
100
AcDbEntity
  8
P-SANR-FIXT
100
AcDbLine
 10
832.5164074431604
 20
1945.183111520096
 30
0.0
 11
832.5164074431604
 21
1959.999999999996
 31
0.0
  0
LINE
  5
BE
330
87
100
AcDbEntity
  8
P-SANR-FIXT
100
AcDbLine
 10
772.4846343012558
 20
1973.915871272463
 30
0.0
 11
784.6758827620467
 21
1973.915871272463
 31
0.0
  0
LINE
  5
BF
330
87
100
AcDbEntity
  8
P-SANR-FIXT
100
AcDbLine
 10
784.6758827620393
 20
2026.084128727541
 30
0.0
 11
772.4846343012631
 21
2026.084128727541
 31
0.0
  0
LINE
  5
C0
330
87
100
AcDbEntity
  8
P-SANR-FIXT
100
AcDbLine
 10
786.4664074431597
 20
2022.999999999948
 30
0.0
 11
784.8062084619725
 21
2025.859646351316
 31
0.0
  0
LINE
  5
C1
330
87
100
AcDbEntity
  8
P-SANR-FIXT
100
AcDbLine
 10
784.7993042850161
 20
2025.871538603189
 30
0.0
 11
784.6758827620393
 21
2026.084128727541
 31
0.0
  0
LINE
  5
C2
330
87
100
AcDbEntity
  8
P-SANR-FIXT
100
AcDbLine
 10
784.6758827620467
 20
1973.915871272463
 30
0.0
 11
784.7993042850235
 21
1974.128461396816
 31
0.0
  0
LINE
  5
C3
330
87
100
AcDbEntity
  8
P-SANR-FIXT
100
AcDbLine
 10
784.80620846198
 20
1974.140353648689
 30
0.0
 11
786.4664074431597
 21
1977.000000000044
 31
0.0
  0
LINE
  5
C4
330
87
100
AcDbEntity
  8
P-SANR-FIXT
100
AcDbLine
 10
768.4664074431614
 20
1980.875644347021
 30
0.0
 11
772.3550467922416
 21
1974.140323422103
 31
0.0
  0
LINE
  5
C5
330
87
100
AcDbEntity
  8
P-SANR-FIXT
100
AcDbLine
 10
772.3660574108099
 20
1974.12125247132
 30
0.0
 11
772.4846343012558
 21
1973.915871272463
 31
0.0
  0
LINE
  5
C6
330
87
100
AcDbEntity
  8
P-SANR-FIXT
100
AcDbLine
 10
772.4846343012631
 20
2026.084128727541
 30
0.0
 11
772.3660574108174
 21
2025.878747528686
 31
0.0
  0
LINE
  5
C7
330
87
100
AcDbEntity
  8
P-SANR-FIXT
100
AcDbLine
 10
772.3550467922487
 20
2025.859676577902
 30
0.0
 11
768.4664074431614
 21
2019.124355652971
 31
0.0
  0
LINE
  5
C8
330
87
100
AcDbEntity
  8
P-SANR-FIXT
100
AcDbLine
 10
768.4664074431602
 20
1980.87564434702
 30
0.0
 11
768.4664074431602
 21
2019.12435565297
 31
0.0
  0
LINE
  5
C9
330
87
100
AcDbEntity
  8
P-SANR-FIXT
100
AcDbLine
 10
786.4664074431583
 20
2022.999999999947
 30
0.0
 11
786.4664074431583
 21
1977.000000000043
 31
0.0
  0
SPLINE
  5
CA
330
87
100
AcDbEntity
  8
P-SANR-FIXT
100
AcDbSpline
210
0.0
220
0.0
230
1.0
 70
     8
 71
     3
 72
    10
 73
     6
 74
     0
 42
0.000000001
 43
0.0000000001
 40
0.0
 40
0.0
 40
0.0
 40
0.0
 40
0.4
 40
0.7
 40
1.0
 40
1.0
 40
1.0
 40
1.0
 10
785.0603504672591
 20
2009.792064363771
 30
0.0
 10
784.8583332895596
 20
2010.686948085251
 30
0.0
 10
784.6388806822752
 20
2012.277968652328
 30
0.0
 10
784.6933482493787
 20
2014.227445287199
 30
0.0
 10
784.9090686492496
 20
2015.08633887256
 30
0.0
 10
785.0603504672616
 20
2015.421229488369
 30
0.0
  0
SPLINE
  5
CB
330
87
100
AcDbEntity
  8
P-SANR-FIXT
100
AcDbSpline
210
0.0
220
0.0
230
1.0
 70
     8
 71
     3
 72
    10
 73
     6
 74
     0
 42
0.000000001
 43
0.0000000001
 40
0.0
 40
0.0
 40
0.0
 40
0.0
 40
0.4
 40
0.7
 40
1.0
 40
1.0
 40
1.0
 40
1.0
 10
772.1022928159388
 20
2015.421229488369
 30
0.0
 10
772.3029067476447
 20
2014.974640806199
 30
0.0
 10
772.5212729698689
 20
2013.893395798576
 30
0.0
 10
772.4675438109434
 20
2011.820208735971
 30
0.0
 10
772.2529826078834
 20
2010.463326859528
 30
0.0
 10
772.1022928159409
 20
2009.792064363771
 30
0.0
  0
SPLINE
  5
CC
330
87
100
AcDbEntity
  8
P-SANR-FIXT
100
AcDbSpline
210
0.0
220
0.0
230
1.0
 70
     8
 71
     3
 72
     9
 73
     5
 74
     0
 42
0.000000001
 43
0.0000000001
 40
0.0
 40
0.0
 40
0.0
 40
0.0
 40
0.5
 40
1.0
 40
1.0
 40
1.0
 40
1.0
 10
772.1022928159409
 20
2009.792064363771
 30
0.0
 10
771.3473363905615
 20
2006.480909503384
 30
0.0
 10
770.5923799651817
 20
1999.905733188407
 30
0.0
 10
771.3473363905595
 20
1993.424823685025
 30
0.0
 10
772.102292815938
 20
1990.207935636232
 30
0.0
  0
SPLINE
  5
CD
330
87
100
AcDbEntity
  8
P-SANR-FIXT
100
AcDbSpline
210
0.0
220
0.0
230
1.0
 70
     8
 71
     3
 72
     9
 73
     5
 74
     0
 42
0.000000001
 43
0.0000000001
 40
0.0
 40
0.0
 40
0.0
 40
0.0
 40
0.5
 40
1.0
 40
1.0
 40
1.0
 40
1.0
 10
785.0603504672622
 20
1990.207935636232
 30
0.0
 10
785.8195056663088
 20
1993.425066465081
 30
0.0
 10
786.5786608653552
 20
1999.90621874852
 30
0.0
 10
785.8195056663069
 20
2006.481152283441
 30
0.0
 10
785.0603504672591
 20
2009.792064363771
 30
0.0
  0
SPLINE
  5
CE
330
87
100
AcDbEntity
  8
P-SANR-FIXT
100
AcDbSpline
210
0.0
220
0.0
230
1.0
 70
     8
 71
     3
 72
    10
 73
     6
 74
     0
 42
0.000000001
 43
0.0000000001
 40
0.0
 40
0.0
 40
0.0
 40
0.0
 40
0.4
 40
0.7
 40
1.0
 40
1.0
 40
1.0
 40
1.0
 10
772.102292815938
 20
1990.207935636232
 30
0.0
 10
772.3032125385279
 20
1989.312918975222
 30
0.0
 10
772.521424994891
 20
1987.721933538303
 30
0.0
 10
772.4672781508136
 20
1985.772687826171
 30
0.0
 10
772.2527532647139
 20
1984.913712023261
 30
0.0
 10
772.1022928159342
 20
1984.578770511633
 30
0.0
  0
SPLINE
  5
CF
330
87
100
AcDbEntity
  8
P-SANR-FIXT
100
AcDbSpline
210
0.0
220
0.0
230
1.0
 70
     8
 71
     3
 72
    10
 73
     6
 74
     0
 42
0.000000001
 43
0.0000000001
 40
0.0
 40
0.0
 40
0.0
 40
0.0
 40
0.4
 40
0.7
 40
1.0
 40
1.0
 40
1.0
 40
1.0
 10
785.0603504672662
 20
1984.578770511633
 30
0.0
 10
784.858641376583
 20
1985.025291332713
 30
0.0
 10
784.6390342018282
 20
1986.106481679818
 30
0.0
 10
784.6930803211738
 20
1988.17993833788
 30
0.0
 10
784.9088375839875
 20
1989.536772845121
 30
0.0
 10
785.0603504672622
 20
1990.207935636232
 30
0.0
  0
SPLINE
  5
D0
330
87
100
AcDbEntity
  8
P-SANR-FIXT
100
AcDbSpline
210
0.0
220
0.0
230
1.0
 70
     8
 71
     3
 72
     9
 73
     5
 74
     0
 42
0.000000001
 43
0.0000000001
 40
0.0
 40
0.0
 40
0.0
 40
0.0
 40
0.5
 40
1.0
 40
1.0
 40
1.0
 40
1.0
 10
772.1022928159342
 20
1984.578770511633
 30
0.0
 10
771.3473363905515
 20
1982.92319308144
 30
0.0
 10
770.592379965166
 20
1979.635604923952
 30
0.0
 10
771.3473363905399
 20
1976.39515017226
 30
0.0
 10
772.1022928159166
 20
1974.786706147864
 30
0.0
  0
SPLINE
  5
D1
330
87
100
AcDbEntity
  8
P-SANR-FIXT
100
AcDbSpline
210
0.0
220
0.0
230
1.0
 70
     8
 71
     3
 72
     9
 73
     5
 74
     0
 42
0.000000001
 43
0.0000000001
 40
0.0
 40
0.0
 40
0.0
 40
0.0
 40
0.5
 40
1.0
 40
1.0
 40
1.0
 40
1.0
 10
785.0603504672838
 20
1974.786706147864
 30
0.0
 10
785.8195056663289
 20
1976.395271562289
 30
0.0
 10
786.5786608653711
 20
1979.635847704009
 30
0.0
 10
785.8195056663172
 20
1982.923314471468
 30
0.0
 10
785.0603504672662
 20
1984.578770511633
 30
0.0
  0
SPLINE
  5
D2
330
87
100
AcDbEntity
  8
P-SANR-FIXT
100
AcDbSpline
210
0.0
220
0.0
230
1.0
 70
     8
 71
     3
 72
     9
 73
     5
 74
     0
 42
0.000000001
 43
0.0000000001
 40
0.0
 40
0.0
 40
0.0
 40
0.0
 40
0.5
 40
1.0
 40
1.0
 40
1.0
 40
1.0
 10
772.1022928159166
 20
1974.786706147864
 30
0.0
 10
772.2283892504369
 20
1974.506902720294
 30
0.0
 10
772.4182092658468
 20
1974.069259847827
 30
0.0
 10
772.4832835739955
 20
1973.915871272459
 30
0.0
 10
772.4846343012545
 20
1973.915871272463
 30
0.0
  0
SPLINE
  5
D3
330
87
100
AcDbEntity
  8
P-SANR-FIXT
100
AcDbSpline
210
0.0
220
0.0
230
1.0
 70
     8
 71
     3
 72
     9
 73
     5
 74
     0
 42
0.000000001
 43
0.0000000001
 40
0.0
 40
0.0
 40
0.0
 40
0.0
 40
0.5
 40
1.0
 40
1.0
 40
1.0
 40
1.0
 10
784.6758827620456
 20
1973.915871272463
 30
0.0
 10
784.6772498416941
 20
1973.915871272459
 30
0.0
 10
784.7426948722157
 20
1974.069300964174
 30
0.0
 10
784.9335616451862
 20
1974.506941393946
 30
0.0
 10
785.0603504672838
 20
1974.786706147864
 30
0.0
  0
SPLINE
  5
D4
330
87
100
AcDbEntity
  8
P-SANR-FIXT
100
AcDbSpline
210
0.0
220
0.0
230
1.0
 70
     8
 71
     3
 72
     9
 73
     5
 74
     0
 42
0.000000001
 43
0.0000000001
 40
0.0
 40
0.0
 40
0.0
 40
0.0
 40
0.5
 40
1.0
 40
1.0
 40
1.0
 40
1.0
 10
772.4846343012619
 20
2026.08412872754
 30
0.0
 10
772.4832835740029
 20
2026.084128727544
 30
0.0
 10
772.4182092658542
 20
2025.930740152176
 30
0.0
 10
772.2283892504442
 20
2025.493097279709
 30
0.0
 10
772.1022928159241
 20
2025.213293852139
 30
0.0
  0
SPLINE
  5
D5
330
87
100
AcDbEntity
  8
P-SANR-FIXT
100
AcDbSpline
210
0.0
220
0.0
230
1.0
 70
     8
 71
     3
 72
     9
 73
     5
 74
     0
 42
0.000000001
 43
0.0000000001
 40
0.0
 40
0.0
 40
0.0
 40
0.0
 40
0.5
 40
1.0
 40
1.0
 40
1.0
 40
1.0
 10
785.0603504672765
 20
2025.213293852139
 30
0.0
 10
784.9335616451788
 20
2025.493058606056
 30
0.0
 10
784.7426948722082
 20
2025.930699035829
 30
0.0
 10
784.6772498416866
 20
2026.084128727544
 30
0.0
 10
784.6758827620381
 20
2026.08412872754
 30
0.0
  0
SPLINE
  5
D6
330
87
100
AcDbEntity
  8
P-SANR-FIXT
100
AcDbSpline
210
0.0
220
0.0
230
1.0
 70
     8
 71
     3
 72
     9
 73
     5
 74
     0
 42
0.000000001
 43
0.0000000001
 40
0.0
 40
0.0
 40
0.0
 40
0.0
 40
0.5
 40
1.0
 40
1.0
 40
1.0
 40
1.0
 10
772.1022928159239
 20
2025.213293852139
 30
0.0
 10
771.3473363905472
 20
2023.557716421946
 30
0.0
 10
770.5923799651728
 20
2020.270128264457
 30
0.0
 10
771.3473363905571
 20
2017.029673512766
 30
0.0
 10
772.1022928159388
 20
2015.421229488369
 30
0.0
  0
SPLINE
  5
D7
330
87
100
AcDbEntity
  8
P-SANR-FIXT
100
AcDbSpline
210
0.0
220
0.0
230
1.0
 70
     8
 71
     3
 72
     9
 73
     5
 74
     0
 42
0.000000001
 43
0.0000000001
 40
0.0
 40
0.0
 40
0.0
 40
0.0
 40
0.5
 40
1.0
 40
1.0
 40
1.0
 40
1.0
 10
785.0603504672616
 20
2015.421229488369
 30
0.0
 10
785.8195056663118
 20
2017.029794902794
 30
0.0
 10
786.5786608653644
 20
2020.270371044514
 30
0.0
 10
785.8195056663216
 20
2023.557837811974
 30
0.0
 10
785.0603504672765
 20
2025.213293852139
 30
0.0
  0
LINE
  5
D8
330
87
100
AcDbEntity
  8
P-SANR-FIXT
100
AcDbLine
 10
846.4569321242722
 20
1973.915871272463
 30
0.0
 11
858.6481805850635
 21
1973.915871272463
 31
0.0
  0
LINE
  5
D9
330
87
100
AcDbEntity
  8
P-SANR-FIXT
100
AcDbLine
 10
858.648180585056
 20
2026.084128727541
 30
0.0
 11
846.4569321242798
 21
2026.084128727541
 31
0.0
  0
LINE
  5
DA
330
87
100
AcDbEntity
  8
P-SANR-FIXT
100
AcDbLine
 10
844.6664074431597
 20
1977.000000000044
 30
0.0
 11
846.326606424339
 21
1974.140353648689
 31
0.0
  0
LINE
  5
DB
330
87
100
AcDbEntity
  8
P-SANR-FIXT
100
AcDbLine
 10
846.3335106012955
 20
1974.128461396816
 30
0.0
 11
846.4569321242722
 21
1973.915871272463
 31
0.0
  0
LINE
  5
DC
330
87
100
AcDbEntity
  8
P-SANR-FIXT
100
AcDbLine
 10
846.4569321242798
 20
2026.084128727541
 30
0.0
 11
846.3335106013031
 21
2025.871538603189
 31
0.0
  0
LINE
  5
DD
330
87
100
AcDbEntity
  8
P-SANR-FIXT
100
AcDbLine
 10
846.3266064243466
 20
2025.859646351316
 30
0.0
 11
844.6664074431597
 21
2022.999999999948
 31
0.0
  0
LINE
  5
DE
330
87
100
AcDbEntity
  8
P-SANR-FIXT
100
AcDbLine
 10
862.6664074431579
 20
2019.124355652971
 30
0.0
 11
858.7777680940703
 21
2025.859676577902
 31
0.0
  0
LINE
  5
DF
330
87
100
AcDbEntity
  8
P-SANR-FIXT
100
AcDbLine
 10
858.7667574755018
 20
2025.878747528686
 30
0.0
 11
858.648180585056
 21
2026.084128727541
 31
0.0
  0
LINE
  5
E0
330
87
100
AcDbEntity
  8
P-SANR-FIXT
100
AcDbLine
 10
858.6481805850635
 20
1973.915871272463
 30
0.0
 11
858.7667574755093
 21
1974.121252471319
 31
0.0
  0
LINE
  5
E1
330
87
100
AcDbEntity
  8
P-SANR-FIXT
100
AcDbLine
 10
858.7777680940778
 20
1974.140323422103
 30
0.0
 11
862.6664074431579
 21
1980.875644347021
 31
0.0
  0
LINE
  5
E2
330
87
100
AcDbEntity
  8
P-SANR-FIXT
100
AcDbLine
 10
862.6664074431564
 20
2019.12435565297
 30
0.0
 11
862.6664074431564
 21
1980.87564434702
 31
0.0
  0
LINE
  5
E3
330
87
100
AcDbEntity
  8
P-SANR-FIXT
100
AcDbLine
 10
844.6664074431584
 20
1977.000000000043
 30
0.0
 11
844.6664074431584
 21
2022.999999999947
 31
0.0
  0
SPLINE
  5
E4
330
87
100
AcDbEntity
  8
P-SANR-FIXT
100
AcDbSpline
210
0.0
220
0.0
230
1.0
 70
     8
 71
     3
 72
    10
 73
     6
 74
     0
 42
0.000000001
 43
0.0000000001
 40
0.0
 40
0.0
 40
0.0
 40
0.0
 40
0.4
 40
0.7
 40
1.0
 40
1.0
 40
1.0
 40
1.0
 10
846.072464419055
 20
2015.421229488369
 30
0.0
 10
846.2744815967548
 20
2014.97378762763
 30
0.0
 10
846.4939342040404
 20
2013.892099716649
 30
0.0
 10
846.4394666369386
 20
2011.81786950481
 30
0.0
 10
846.2237462370687
 20
2010.46184559539
 30
0.0
 10
846.072464419057
 20
2009.792064363771
 30
0.0
  0
SPLINE
  5
E5
330
87
100
AcDbEntity
  8
P-SANR-FIXT
100
AcDbSpline
210
0.0
220
0.0
230
1.0
 70
     8
 71
     3
 72
    10
 73
     6
 74
     0
 42
0.000000001
 43
0.0000000001
 40
0.0
 40
0.0
 40
0.0
 40
0.0
 40
0.4
 40
0.7
 40
1.0
 40
1.0
 40
1.0
 40
1.0
 10
859.0305220703752
 20
2009.792064363771
 30
0.0
 10
858.8299081386699
 20
2010.685241728112
 30
0.0
 10
858.6115419164467
 20
2012.276432686722
 30
0.0
 10
858.6652710753737
 20
2014.225579493435
 30
0.0
 10
858.8798322784349
 20
2015.085598240491
 30
0.0
 10
859.0305220703779
 20
2015.421229488369
 30
0.0
  0
SPLINE
  5
E6
330
87
100
AcDbEntity
  8
P-SANR-FIXT
100
AcDbSpline
210
0.0
220
0.0
230
1.0
 70
     8
 71
     3
 72
     9
 73
     5
 74
     0
 42
0.000000001
 43
0.0000000001
 40
0.0
 40
0.0
 40
0.0
 40
0.0
 40
0.5
 40
1.0
 40
1.0
 40
1.0
 40
1.0
 10
846.0724644190573
 20
2009.792064363771
 30
0.0
 10
845.3133092200094
 20
2006.481152283441
 30
0.0
 10
844.5541540209612
 20
1999.90621874852
 30
0.0
 10
845.3133092200074
 20
1993.425066465081
 30
0.0
 10
846.0724644190541
 20
1990.207935636232
 30
0.0
  0
SPLINE
  5
E7
330
87
100
AcDbEntity
  8
P-SANR-FIXT
100
AcDbSpline
210
0.0
220
0.0
230
1.0
 70
     8
 71
     3
 72
     9
 73
     5
 74
     0
 42
0.000000001
 43
0.0000000001
 40
0.0
 40
0.0
 40
0.0
 40
0.0
 40
0.5
 40
1.0
 40
1.0
 40
1.0
 40
1.0
 10
859.0305220703781
 20
1990.207935636232
 30
0.0
 10
859.7854784957565
 20
1993.424823685025
 30
0.0
 10
860.5404349211346
 20
1999.905733188407
 30
0.0
 10
859.7854784957547
 20
2006.480909503384
 30
0.0
 10
859.0305220703752
 20
2009.792064363771
 30
0.0
  0
SPLINE
  5
E8
330
87
100
AcDbEntity
  8
P-SANR-FIXT
100
AcDbSpline
210
0.0
220
0.0
230
1.0
 70
     8
 71
     3
 72
    10
 73
     6
 74
     0
 42
0.000000001
 43
0.0000000001
 40
0.0
 40
0.0
 40
0.0
 40
0.0
 40
0.4
 40
0.7
 40
1.0
 40
1.0
 40
1.0
 40
1.0
 10
846.0724644190541
 20
1990.207935636232
 30
0.0
 10
846.2744815967536
 20
1989.313051914751
 30
0.0
 10
846.4939342040375
 20
1987.722031347675
 30
0.0
 10
846.4394666369337
 20
1985.772554712803
 30
0.0
 10
846.2237462370627
 20
1984.913661127443
 30
0.0
 10
846.0724644190504
 20
1984.578770511633
 30
0.0
  0
SPLINE
  5
E9
330
87
100
AcDbEntity
  8
P-SANR-FIXT
100
AcDbSpline
210
0.0
220
0.0
230
1.0
 70
     8
 71
     3
 72
    10
 73
     6
 74
     0
 42
0.000000001
 43
0.0000000001
 40
0.0
 40
0.0
 40
0.0
 40
0.0
 40
0.4
 40
0.7
 40
1.0
 40
1.0
 40
1.0
 40
1.0
 10
859.0305220703823
 20
1984.578770511633
 30
0.0
 10
858.8299081386759
 20
1985.025359193804
 30
0.0
 10
858.6115419164512
 20
1986.106604201426
 30
0.0
 10
858.6652710753762
 20
1988.179791264032
 30
0.0
 10
858.8798322784359
 20
1989.536673140475
 30
0.0
 10
859.0305220703781
 20
1990.207935636232
 30
0.0
  0
SPLINE
  5
EA
330
87
100
AcDbEntity
  8
P-SANR-FIXT
100
AcDbSpline
210
0.0
220
0.0
230
1.0
 70
     8
 71
     3
 72
     9
 73
     5
 74
     0
 42
0.000000001
 43
0.0000000001
 40
0.0
 40
0.0
 40
0.0
 40
0.0
 40
0.5
 40
1.0
 40
1.0
 40
1.0
 40
1.0
 10
846.0724644190504
 20
1984.578770511633
 30
0.0
 10
845.3133092199994
 20
1982.923314471468
 30
0.0
 10
844.5541540209454
 20
1979.635847704009
 30
0.0
 10
845.3133092199875
 20
1976.395271562289
 30
0.0
 10
846.0724644190326
 20
1974.786706147864
 30
0.0
  0
SPLINE
  5
EB
330
87
100
AcDbEntity
  8
P-SANR-FIXT
100
AcDbSpline
210
0.0
220
0.0
230
1.0
 70
     8
 71
     3
 72
     9
 73
     5
 74
     0
 42
0.000000001
 43
0.0000000001
 40
0.0
 40
0.0
 40
0.0
 40
0.0
 40
0.5
 40
1.0
 40
1.0
 40
1.0
 40
1.0
 10
859.0305220703999
 20
1974.786706147864
 30
0.0
 10
859.7854784957768
 20
1976.39515017226
 30
0.0
 10
860.5404349211505
 20
1979.635604923952
 30
0.0
 10
859.785478495765
 20
1982.92319308144
 30
0.0
 10
859.0305220703823
 20
1984.578770511633
 30
0.0
  0
SPLINE
  5
EC
330
87
100
AcDbEntity
  8
P-SANR-FIXT
100
AcDbSpline
210
0.0
220
0.0
230
1.0
 70
     8
 71
     3
 72
     9
 73
     5
 74
     0
 42
0.000000001
 43
0.0000000001
 40
0.0
 40
0.0
 40
0.0
 40
0.0
 40
0.5
 40
1.0
 40
1.0
 40
1.0
 40
1.0
 10
846.0724644190326
 20
1974.786706147864
 30
0.0
 10
846.1992532411303
 20
1974.506941393946
 30
0.0
 10
846.3901200141009
 20
1974.069300964174
 30
0.0
 10
846.4555650446223
 20
1973.915871272459
 30
0.0
 10
846.4569321242709
 20
1973.915871272463
 30
0.0
  0
SPLINE
  5
ED
330
87
100
AcDbEntity
  8
P-SANR-FIXT
100
AcDbSpline
210
0.0
220
0.0
230
1.0
 70
     8
 71
     3
 72
     9
 73
     5
 74
     0
 42
0.000000001
 43
0.0000000001
 40
0.0
 40
0.0
 40
0.0
 40
0.0
 40
0.5
 40
1.0
 40
1.0
 40
1.0
 40
1.0
 10
858.6481805850622
 20
1973.915871272463
 30
0.0
 10
858.6495313123212
 20
1973.915871272459
 30
0.0
 10
858.7146056204698
 20
1974.069259847827
 30
0.0
 10
858.9044256358798
 20
1974.506902720294
 30
0.0
 10
859.0305220703999
 20
1974.786706147864
 30
0.0
  0
SPLINE
  5
EE
330
87
100
AcDbEntity
  8
P-SANR-FIXT
100
AcDbSpline
210
0.0
220
0.0
230
1.0
 70
     8
 71
     3
 72
     9
 73
     5
 74
     0
 42
0.000000001
 43
0.0000000001
 40
0.0
 40
0.0
 40
0.0
 40
0.0
 40
0.5
 40
1.0
 40
1.0
 40
1.0
 40
1.0
 10
846.4569321242786
 20
2026.08412872754
 30
0.0
 10
846.45556504463
 20
2026.084128727544
 30
0.0
 10
846.3901200141084
 20
2025.930699035829
 30
0.0
 10
846.1992532411377
 20
2025.493058606056
 30
0.0
 10
846.0724644190403
 20
2025.213293852139
 30
0.0
  0
SPLINE
  5
EF
330
87
100
AcDbEntity
  8
P-SANR-FIXT
100
AcDbSpline
210
0.0
220
0.0
230
1.0
 70
     8
 71
     3
 72
     9
 73
     5
 74
     0
 42
0.000000001
 43
0.0000000001
 40
0.0
 40
0.0
 40
0.0
 40
0.0
 40
0.5
 40
1.0
 40
1.0
 40
1.0
 40
1.0
 10
859.0305220703925
 20
2025.213293852139
 30
0.0
 10
858.9044256358722
 20
2025.493097279709
 30
0.0
 10
858.7146056204623
 20
2025.930740152176
 30
0.0
 10
858.6495313123137
 20
2026.084128727544
 30
0.0
 10
858.6481805850546
 20
2026.08412872754
 30
0.0
  0
SPLINE
  5
F0
330
87
100
AcDbEntity
  8
P-SANR-FIXT
100
AcDbSpline
210
0.0
220
0.0
230
1.0
 70
     8
 71
     3
 72
     9
 73
     5
 74
     0
 42
0.000000001
 43
0.0000000001
 40
0.0
 40
0.0
 40
0.0
 40
0.0
 40
0.5
 40
1.0
 40
1.0
 40
1.0
 40
1.0
 10
859.0305220703779
 20
2015.421229488369
 30
0.0
 10
859.7854784957597
 20
2017.076806918563
 30
0.0
 10
860.540434921144
 20
2020.364395076051
 30
0.0
 10
859.7854784957695
 20
2023.604849827743
 30
0.0
 10
859.0305220703925
 20
2025.213293852139
 30
0.0
  0
SPLINE
  5
F1
330
87
100
AcDbEntity
  8
P-SANR-FIXT
100
AcDbSpline
210
0.0
220
0.0
230
1.0
 70
     8
 71
     3
 72
     9
 73
     5
 74
     0
 42
0.000000001
 43
0.0000000001
 40
0.0
 40
0.0
 40
0.0
 40
0.0
 40
0.5
 40
1.0
 40
1.0
 40
1.0
 40
1.0
 10
846.0724644190403
 20
2025.213293852139
 30
0.0
 10
845.3133092199948
 20
2023.604728437714
 30
0.0
 10
844.554154020952
 20
2020.364152295994
 30
0.0
 10
845.3133092200047
 20
2017.076685528535
 30
0.0
 10
846.072464419055
 20
2015.421229488369
 30
0.0
  0
LINE
  5
F2
330
87
100
AcDbEntity
  8
P-SANR-FIXT
100
AcDbLine
 10
768.4664074430203
 20
2016.699999999984
 30
0.0
 11
737.6664074431467
 21
2016.699999999984
 31
0.0
  0
LINE
  5
F3
330
87
100
AcDbEntity
  8
P-SANR-FIXT
100
AcDbLine
 10
737.6664074431467
 20
1983.300000000008
 30
0.0
 11
768.4664074430203
 21
1983.300000000008
 31
0.0
  0
LINE
  5
F4
330
87
100
AcDbEntity
  8
P-SANR-FIXT
100
AcDbLine
 10
737.6664074431467
 20
2016.699999999984
 30
0.0
 11
736.1664074431466
 21
2015.199999999984
 31
0.0
  0
LINE
  5
F5
330
87
100
AcDbEntity
  8
P-SANR-FIXT
100
AcDbLine
 10
736.1664074431466
 20
1984.800000000008
 30
0.0
 11
737.6664074431467
 21
1983.300000000008
 31
0.0
  0
LINE
  5
F6
330
87
100
AcDbEntity
  8
P-SANR-FIXT
100
AcDbLine
 10
736.1664074431455
 20
1984.800000000007
 30
0.0
 11
736.1664074431455
 21
2015.199999999983
 31
0.0
  0
LINE
  5
F7
330
87
100
AcDbEntity
  8
P-SANR-FIXT
100
AcDbLine
 10
737.6664074431454
 20
2016.699999999983
 30
0.0
 11
737.6664074431454
 21
1983.300000000007
 31
0.0
  0
LINE
  5
F8
330
87
100
AcDbEntity
  8
P-SANR-FIXT
100
AcDbLine
 10
895.1664074431576
 20
2015.199999999984
 30
0.0
 11
893.6664074431577
 21
2016.699999999984
 31
0.0
  0
LINE
  5
F9
330
87
100
AcDbEntity
  8
P-SANR-FIXT
100
AcDbLine
 10
893.6664074431577
 20
1983.300000000008
 30
0.0
 11
895.1664074431576
 21
1984.800000000008
 31
0.0
  0
LINE
  5
FA
330
87
100
AcDbEntity
  8
P-SANR-FIXT
100
AcDbLine
 10
893.6664074431577
 20
2016.699999999984
 30
0.0
 11
862.6664074431579
 21
2016.699999999984
 31
0.0
  0
LINE
  5
FB
330
87
100
AcDbEntity
  8
P-SANR-FIXT
100
AcDbLine
 10
862.6664074431579
 20
1983.300000000008
 30
0.0
 11
893.6664074431577
 21
1983.300000000008
 31
0.0
  0
LINE
  5
FC
330
87
100
AcDbEntity
  8
P-SANR-FIXT
100
AcDbLine
 10
895.1664074431564
 20
2015.199999999982
 30
0.0
 11
895.1664074431564
 21
1984.800000000008
 31
0.0
  0
LINE
  5
FD
330
87
100
AcDbEntity
  8
P-SANR-FIXT
100
AcDbLine
 10
893.6664074431565
 20
2016.699999999983
 30
0.0
 11
893.6664074431565
 21
1983.300000000008
 31
0.0
  0
LINE
  5
FE
330
87
100
AcDbEntity
  8
P-SANR-FIXT
100
AcDbLine
 10
794.6664074431595
 20
2023.499999999996
 30
0.0
 11
791.9107951854006
 21
2023.499999999996
 31
0.0
  0
LINE
  5
FF
330
87
100
AcDbEntity
  8
P-SANR-FIXT
100
AcDbLine
 10
791.9107951854006
 20
1976.499999999996
 30
0.0
 11
794.6664074431595
 21
1976.499999999996
 31
0.0
  0
LINE
  5
100
330
87
100
AcDbEntity
  8
P-SANR-FIXT
100
AcDbLine
 10
791.9107951854004
 20
2018.999999999998
 30
0.0
 11
788.6664074430182
 21
2018.999999999998
 31
0.0
  0
LINE
  5
101
330
87
100
AcDbEntity
  8
P-SANR-FIXT
100
AcDbLine
 10
788.6664074430182
 20
1980.999999999994
 30
0.0
 11
791.9107951854004
 21
1980.999999999994
 31
0.0
  0
LINE
  5
102
330
87
100
AcDbEntity
  8
P-SANR-FIXT
100
AcDbLine
 10
788.6664074430182
 20
2018.999999999998
 30
0.0
 11
786.4664074431597
 21
2021.199999999857
 31
0.0
  0
LINE
  5
103
330
87
100
AcDbEntity
  8
P-SANR-FIXT
100
AcDbLine
 10
786.4664074431597
 20
1978.800000000134
 30
0.0
 11
788.6664074430182
 21
1980.999999999994
 31
0.0
  0
LINE
  5
104
330
87
100
AcDbEntity
  8
P-SANR-FIXT
100
AcDbLine
 10
794.6664074431581
 20
2023.499999999995
 30
0.0
 11
794.6664074431581
 21
1976.499999999995
 31
0.0
  0
LINE
  5
105
330
87
100
AcDbEntity
  8
P-SANR-FIXT
100
AcDbLine
 10
791.9107951853992
 20
2023.499999999995
 30
0.0
 11
791.9107951853992
 21
1976.499999999995
 31
0.0
  0
LINE
  5
106
330
87
100
AcDbEntity
  8
P-SANR-FIXT
100
AcDbLine
 10
788.6664074430168
 20
2018.999999999997
 30
0.0
 11
788.6664074430168
 21
1980.999999999992
 31
0.0
  0
LWPOLYLINE
  5
107
330
87
100
AcDbEntity
  8
P-SANR-FIXT
100
AcDbPolyline
 90
        3
 70
   128
 43
0.0
 10
726.9712575187635
 20
2079.922815130518
 10
753.5494198568563
 20
2081.394504421143
 10
773.7721607890756
 20
2084.282011224605
  0
LWPOLYLINE
  5
108
330
87
100
AcDbEntity
  8
P-SANR-FIXT
100
AcDbPolyline
 90
        3
 70
   128
 43
0.0
 10
727.8083352036932
 20
2091.893583733636
 10
753.0662364687677
 20
2093.488633236747
 10
773.7721607890756
 20
2096.282011224605
  0
LINE
  5
109
330
87
100
AcDbEntity
  8
P-SANR-FIXT
100
AcDbLine
 10
727.3897963612271
 20
2085.908199432076
 30
0.0
 11
727.808335203692
 21
2091.893583733634
 31
0.0
  0
LINE
  5
10A
330
87
100
AcDbEntity
  8
P-SANR-FIXT
100
AcDbLine
 10
726.9712575187623
 20
2079.922815130517
 30
0.0
 11
727.3897963612271
 21
2085.908199432076
 31
0.0
  0
LINE
  5
10B
330
87
100
AcDbEntity
  8
P-SANR-FIXT
100
AcDbLine
 10
783.7721607890756
 20
2100.853468692164
 30
0.0
 11
780.0818896337988
 21
2100.853468692164
 31
0.0
  0
LINE
  5
10C
330
87
100
AcDbEntity
  8
P-SANR-FIXT
100
AcDbLine
 10
780.0818896337988
 20
2079.710553757045
 30
0.0
 11
783.7721607890751
 21
2079.710553757045
 31
0.0
  0
LINE
  5
10D
330
87
100
AcDbEntity
  8
P-SANR-FIXT
100
AcDbLine
 10
780.0818896337989
 20
2100.853468692164
 30
0.0
 11
776.4453621113883
 21
2100.853468692164
 31
0.0
  0
LINE
  5
10E
330
87
100
AcDbEntity
  8
P-SANR-FIXT
100
AcDbLine
 10
776.4453621113883
 20
2079.710553757045
 30
0.0
 11
780.0818896337988
 21
2079.710553757045
 31
0.0
  0
LWPOLYLINE
  5
10F
330
87
100
AcDbEntity
  8
P-SANR-FIXT
100
AcDbPolyline
 90
       41
 70
   128
 43
0.0
 10
776.4453621113883
 20
2079.710553757045
 10
776.3384625703622
 20
2079.712692032977
 10
776.2317340457977
 20
2079.719103439986
 10
776.1253472805665
 20
2079.72977772119
 10
776.0194724707986
 20
2079.744697800015
 10
775.914278993604
 20
2079.763839807518
 10
775.8099351361062
 20
2079.787173120571
 10
775.7066078262181
 20
2079.81466041085
 10
775.6044623655939
 20
2079.846257704554
 10
775.5036621651806
 20
2079.881914452754
 10
775.4043684837959
 20
2079.921573612259
 10
775.3067401701488
 20
2079.965171736873
 10
775.2109334087143
 20
2080.012639078899
 10
775.1171014698735
 20
2080.063899700715
 10
775.0253944647121
 20
2080.11887159626
 10
774.9359591048747
 20
2080.177466822229
 10
774.8489384678593
 20
2080.23959163876
 10
774.7644717681212
 20
2080.305146659399
 10
774.6826941343614
 20
2080.374027010096
 10
774.6037363933492
 20
2080.446122496986
 10
774.5277248606266
 20
2080.521317782667
 10
774.4547811384311
 20
2080.599492570724
 10
774.3850219211577
 20
2080.680521798173
 10
774.3185588086729
 20
2080.764275835535
 10
774.2554981277786
 20
2080.850620694216
 10
774.1959407621119
 20
2080.939418240863
 10
774.1399819907533
 20
2081.030526418341
 10
774.0877113357996
 20
2081.123799473005
 10
774.0392124191479
 20
2081.219088187863
 10
773.9945628287192
 20
2081.316240121297
 10
773.9538339943337
 20
2081.415099850941
 10
773.9170910734376
 20
2081.515509222314
 10
773.8843928468666
 20
2081.617307601843
 10
773.8557916248079
 20
2081.720332133835
 10
773.8313331631155
 20
2081.824418001018
 10
773.8110565901105
 20
2081.929398688207
 10
773.7949943439843
 20
2082.035106248698
 10
773.7831721209044
 20
2082.141371572944
 10
773.7756088339056
 20
2082.248024659094
 10
773.7723165826338
 20
2082.354894884962
 10
773.7721607890756
 20
2082.383755079358
  0
LWPOLYLINE
  5
110
330
87
100
AcDbEntity
  8
P-SANR-FIXT
100
AcDbPolyline
 90
       41
 70
   128
 43
0.0
 10
773.7721607890756
 20
2098.180267369851
 10
773.7742990650072
 20
2098.287166910878
 10
773.7807104720165
 20
2098.393895435442
 10
773.7913847532203
 20
2098.500282200673
 10
773.8063048320455
 20
2098.606157010441
 10
773.8254468395487
 20
2098.711350487636
 10
773.8487801526015
 20
2098.815694345134
 10
773.8762674428801
 20
2098.919021655021
 10
773.9078647365843
 20
2099.021167115646
 10
773.9435214847843
 20
2099.121967316059
 10
773.9831806442891
 20
2099.221260997444
 10
774.0267787689041
 20
2099.318889311091
 10
774.07424611093
 20
2099.414696072525
 10
774.1255067327458
 20
2099.508528011366
 10
774.1804786282912
 20
2099.600235016528
 10
774.2390738542601
 20
2099.689670376365
 10
774.3011986707906
 20
2099.776691013381
 10
774.366753691429
 20
2099.861157713119
 10
774.4356340421268
 20
2099.942935346878
 10
774.5077295290159
 20
2100.021893087891
 10
774.5829248146974
 20
2100.097904620613
 10
774.6610996027547
 20
2100.170848342808
 10
774.7421288302038
 20
2100.240607560082
 10
774.8258828675654
 20
2100.307070672567
 10
774.9122277262467
 20
2100.370131353461
 10
775.0010252728931
 20
2100.429688719128
 10
775.0921334503722
 20
2100.485647490486
 10
775.1854065050357
 20
2100.53791814544
 10
775.2806952198931
 20
2100.586417062092
 10
775.3778471533278
 20
2100.631066652521
 10
775.4767068829711
 20
2100.671795486906
 10
775.5771162543443
 20
2100.708538407802
 10
775.678914633873
 20
2100.741236634373
 10
775.7819391658657
 20
2100.769837856432
 10
775.8860250330485
 20
2100.794296318125
 10
775.9910057202378
 20
2100.814572891129
 10
776.0967132807286
 20
2100.830635137255
 10
776.2029786049741
 20
2100.842457360335
 10
776.3096316911243
 20
2100.850020647334
 10
776.4165019169923
 20
2100.853312898606
 10
776.4453621113883
 20
2100.853468692164
  0
LWPOLYLINE
  5
111
330
87
100
AcDbEntity
  8
P-SANR-FIXT
100
AcDbPolyline
 90
        5
 70
   128
 43
0.0
 10
773.7721607890756
 20
2082.383755079358
 10
773.7721607890756
 20
2082.390072841838
 10
773.7721607890756
 20
2082.409016022207
 10
773.7721607890756
 20
2082.440554315418
 10
773.7721607890756
 20
2082.484637266928
  0
LWPOLYLINE
  5
112
330
87
100
AcDbEntity
  8
P-SANR-FIXT
100
AcDbPolyline
 90
        6
 70
   128
 43
0.0
 10
773.7721607890756
 20
2098.081912061975
 10
773.7721607890756
 20
2098.101225544627
 10
773.7721607890756
 20
2098.139543197874
 10
773.7721607890756
 20
2098.165290476149
 10
773.7721607890756
 20
2098.178426189297
 10
773.7721607890756
 20
2098.180267369851
  0
LWPOLYLINE
  5
113
330
87
100
AcDbEntity
  8
P-SANR-FIXT
100
AcDbPolyline
 90
       80
 70
   128
 43
0.0
 10
773.7721607890756
 20
2098.180267369851
 10
773.7721607890756
 20
2098.173949607371
 10
773.7721607890756
 20
2098.155006427002
 10
773.7721607890756
 20
2098.123468133792
 10
773.7721607890756
 20
2098.079385182281
 10
773.7721607890756
 20
2098.02282809579
 10
773.7721607890756
 20
2097.953887353591
 10
773.7721607890756
 20
2097.872673246166
 10
773.7721607890756
 20
2097.77931569876
 10
773.7721607890756
 20
2097.673964063536
 10
773.7721607890756
 20
2097.556786880635
 10
773.7721607890756
 20
2097.427971608554
 10
773.7721607890756
 20
2097.287724324249
 10
773.7721607890756
 20
2097.136269393457
 10
773.7721607890756
 20
2096.973849111758
 10
773.7721607890756
 20
2096.800723316956
 10
773.7721607890756
 20
2096.617168973391
 10
773.7721607890756
 20
2096.423479728855
 10
773.7721607890756
 20
2096.219965444824
 10
773.7721607890756
 20
2096.006951700735
 10
773.7721607890756
 20
2095.78477927314
 10
773.7721607890756
 20
2095.553803590529
 10
773.7721607890756
 20
2095.314394164722
 10
773.7721607890756
 20
2095.066933999728
 10
773.7721607890756
 20
2094.811818979024
 10
773.7721607890756
 20
2094.549457232218
 10
773.7721607890756
 20
2094.280268482142
 10
773.7721607890756
 20
2094.004683373368
 10
773.7721607890756
 20
2093.723142783286
 10
773.7721607890756
 20
2093.436097116778
 10
773.7721607890756
 20
2093.144005585678
 10
773.7721607890756
 20
2092.847335474127
 10
773.7721607890756
 20
2092.546561391016
 10
773.7721607890756
 20
2092.242164510717
 10
773.7721607890756
 20
2091.934631803305
 10
773.7721607890756
 20
2091.624455255506
 10
773.7721607890756
 20
2091.312131083631
 10
773.7721607890756
 20
2090.998158939729
 10
773.7721607890756
 20
2090.683041112253
 10
773.7721607890756
 20
2090.367281722505
 10
773.7721607890756
 20
2090.05138591815
 10
773.7721607890756
 20
2089.735859065088
 10
773.7721607890756
 20
2089.421205938975
 10
773.7721607890756
 20
2089.107929917691
 10
773.7721607890756
 20
2088.79653217604
 10
773.7721607890756
 20
2088.487510883982
 10
773.7721607890756
 20
2088.181360409662
 10
773.7721607890756
 20
2087.878570528531
 10
773.7721607890756
 20
2087.579625639808
 10
773.7721607890756
 20
2087.285003991542
 10
773.7721607890756
 20
2086.995176915521
 10
773.7721607890756
 20
2086.710608073241
 10
773.7721607890756
 20
2086.431752714144
 10
773.7721607890756
 20
2086.15905694732
 10
773.7721607890756
 20
2085.892957027823
 10
773.7721607890756
 20
2085.633878658757
 10
773.7721607890756
 20
2085.38223631025
 10
773.7721607890756
 20
2085.138432556376
 10
773.7721607890756
 20
2084.902857431132
 10
773.7721607890756
 20
2084.675887804467
 10
773.7721607890756
 20
2084.457886779365
 10
773.7721607890756
 20
2084.249203110961
 10
773.7721607890756
 20
2084.050170648608
 10
773.7721607890756
 20
2083.861107801789
 10
773.7721607890756
 20
2083.682317030727
 10
773.7721607890756
 20
2083.514084362516
 10
773.7721607890756
 20
2083.356678933535
 10
773.7721607890756
 20
2083.210352558896
 10
773.7721607890756
 20
2083.075339329582
 10
773.7721607890756
 20
2082.951855237958
 10
773.7721607890756
 20
2082.840097832229
 10
773.7721607890756
 20
2082.740245900406
 10
773.7721607890756
 20
2082.652459184276
 10
773.7721607890756
 20
2082.57687812386
 10
773.7721607890756
 20
2082.513623632731
 10
773.7721607890756
 20
2082.462796904582
 10
773.7721607890756
 20
2082.424479251335
 10
773.7721607890756
 20
2082.39873197306
 10
773.7721607890756
 20
2082.385596259912
 10
773.7721607890756
 20
2082.383755079358
  0
LINE
  5
114
330
87
100
AcDbEntity
  8
P-SANR-FIXT
100
AcDbLine
 10
783.7721607890745
 20
2099.507419951638
 30
0.0
 11
783.7721607890745
 21
2100.853468692163
 31
0.0
  0
LINE
  5
115
330
87
100
AcDbEntity
  8
P-SANR-FIXT
100
AcDbLine
 10
802.1709635022778
 20
2049.500000000036
 30
0.0
 11
802.170963502278
 21
2023.469398154777
 31
0.0
  0
LINE
  5
116
330
87
100
AcDbEntity
  8
P-SANR-FIXT
100
AcDbLine
 10
829.1618513840409
 20
2023.468669244172
 30
0.0
 11
829.1618513840409
 21
2049.500000000036
 31
0.0
  0
LINE
  5
117
330
87
100
AcDbEntity
  8
P-SANR-FIXT
100
AcDbLine
 10
805.6770455567553
 20
2106.500000000035
 30
0.0
 11
805.6770455567553
 21
2104.500000000035
 31
0.0
  0
LINE
  5
118
330
87
100
AcDbEntity
  8
P-SANR-FIXT
100
AcDbLine
 10
825.6557693295631
 20
2104.500000000035
 30
0.0
 11
825.6557693295631
 21
2106.500000000035
 31
0.0
  0
LINE
  5
119
330
87
100
AcDbEntity
  8
P-SANR-FIXT
100
AcDbLine
 10
802.6128487127319
 20
2023.250000000034
 30
0.0
 11
828.7202580277412
 21
2023.250000000035
 31
0.0
  0
LINE
  5
11A
330
87
100
AcDbEntity
  8
P-SANR-FIXT
100
AcDbLine
 10
805.6770455567541
 20
2106.500000000034
 30
0.0
 11
825.6557693295619
 21
2106.500000000034
 31
0.0
  0
ARC
  5
11B
330
87
100
AcDbEntity
  8
P-SANR-FIXT
100
AcDbCircle
 10
795.7721607890729
 20
2061.500000000035
 30
0.0
 40
11.99999999999988
100
AcDbArc
 50
180.0
 51
269.9999999999991
  0
LINE
  5
11C
330
87
100
AcDbEntity
  8
P-SANR-FIXT
100
AcDbLine
 10
795.7721607890728
 20
2049.500000000035
 30
0.0
 11
852.6645435890127
 21
2049.500000000035
 31
0.0
  0
ARC
  5
11D
330
87
100
AcDbEntity
  8
P-SANR-FIXT
100
AcDbCircle
 10
852.6645435890127
 20
2087.501863854176
 30
0.0
 40
38.00186385414168
100
AcDbArc
 50
269.9999999999989
 51
359.9999999999988
  0
LINE
  5
11E
330
87
100
AcDbEntity
  8
P-SANR-FIXT
100
AcDbLine
 10
890.6664074431544
 20
2087.501863854176
 30
0.0
 11
890.6664074431544
 21
2091.841609353244
 31
0.0
  0
ARC
  5
11F
330
87
100
AcDbEntity
  8
P-SANR-FIXT
100
AcDbCircle
 10
898.6879137657993
 20
1819.911670114674
 30
0.0
 40
272.0482244345225
100
AcDbArc
 50
91.68964557857796
 51
107.7685133675304
  0
ARC
  5
120
330
87
100
AcDbEntity
  8
P-SANR-FIXT
100
AcDbCircle
 10
786.7013439132911
 20
2169.368679590514
 30
0.0
 40
94.91388982133306
100
AcDbArc
 50
268.2314866324242
 51
287.768513367529
  0
LINE
  5
121
330
87
100
AcDbEntity
  8
P-SANR-FIXT
100
AcDbLine
 10
783.772160789073
 20
2074.500000000035
 30
0.0
 11
783.772160789073
 21
2061.500000000035
 31
0.0
  0
LINE
  5
122
330
87
100
AcDbEntity
  8
P-SANR-FIXT
100
AcDbLine
 10
885.6664074431577
 20
2104.500000000034
 30
0.0
 11
815.666407443158
 21
2104.500000000035
 31
0.0
  0
LINE
  5
123
330
87
100
AcDbEntity
  8
P-SANR-FIXT
100
AcDbLine
 10
815.666407443158
 20
2104.500000000035
 30
0.0
 11
788.7721607890743
 21
2104.500000000035
 31
0.0
  0
ARC
  5
124
330
87
100
AcDbEntity
  8
P-SANR-FIXT
100
AcDbCircle
 10
788.7721607890743
 20
2099.500000000035
 30
0.0
 40
4.999999999999886
100
AcDbArc
 50
90.0
 51
180.0
  0
LINE
  5
125
330
87
100
AcDbEntity
  8
P-SANR-FIXT
100
AcDbLine
 10
783.7721607890744
 20
2099.500000000035
 30
0.0
 11
783.7721607890742
 21
2074.500000000035
 31
0.0
  0
ARC
  5
126
330
87
100
AcDbEntity
  8
P-SANR-FIXT
100
AcDbCircle
 10
786.7013439132984
 20
2169.368679590458
 30
0.0
 40
94.91388982127784
100
AcDbArc
 50
268.2314866324188
 51
287.7685133675699
  0
ARC
  5
127
330
87
100
AcDbEntity
  8
P-SANR-FIXT
100
AcDbCircle
 10
898.687913765476
 20
1819.911670116527
 30
0.0
 40
272.048224432659
100
AcDbArc
 50
91.68964557852143
 51
107.768513367573
  0
LINE
  5
128
330
87
100
AcDbEntity
  8
P-SANR-FIXT
100
AcDbLine
 10
890.6664074431578
 20
2091.841609353243
 30
0.0
 11
890.666407443158
 21
2099.500000000035
 31
0.0
  0
ARC
  5
129
330
87
100
AcDbEntity
  8
P-SANR-FIXT
100
AcDbCircle
 10
885.6664074431577
 20
2099.500000000035
 30
0.0
 40
4.999999999999497
100
AcDbArc
 50
359.9999999999964
 51
89.99999999999674
  0
LWPOLYLINE
  5
12A
330
87
100
AcDbEntity
  8
P-SANR-FIXT
100
AcDbPolyline
 90
        7
 70
   128
 43
0.0
 10
764.8406062650194
 20
1911.179999999924
 10
749.8723229621755
 20
1912.134935104541
 10
738.6358516458724
 20
1914.673720087664
 10
730.4040295780114
 20
1918.36794412411
 10
724.5001107928064
 20
1922.926176835343
 10
720.8073065183313
 20
1927.556897964828
 10
719.2600203110795
 20
1930.402641597586
  0
LWPOLYLINE
  5
12B
330
87
100
AcDbEntity
  8
P-SANR-FIXT
100
AcDbPolyline
 90
        7
 70
   128
 43
0.0
 10
764.8406062650194
 20
1915.179999999924
 10
750.106155171909
 20
1916.14203766558
 10
739.2647322319021
 20
1918.684643179035
 10
731.5651813174735
 20
1922.355626418231
 10
726.3500375218081
 20
1926.793118974794
 10
723.8472382841749
 20
1930.254450227122
 10
722.8852514592261
 20
1932.093114644549
  0
LINE
  5
12C
330
87
100
AcDbEntity
  8
P-SANR-FIXT
100
AcDbLine
 10
764.8406062650194
 20
1910.679999999923
 30
0.0
 11
766.8406062650193
 21
1910.679999999923
 31
0.0
  0
LINE
  5
12D
330
87
100
AcDbEntity
  8
P-SANR-FIXT
100
AcDbLine
 10
766.8406062650193
 20
1915.679999999924
 30
0.0
 11
764.8406062650194
 21
1915.679999999924
 31
0.0
  0
LINE
  5
12E
330
87
100
AcDbEntity
  8
P-SANR-FIXT
100
AcDbLine
 10
766.8406062650193
 20
1910.679999999923
 30
0.0
 11
775.0706062650195
 21
1909.228828948693
 31
0.0
  0
LINE
  5
12F
330
87
100
AcDbEntity
  8
P-SANR-FIXT
100
AcDbLine
 10
775.0706062650195
 20
1917.131171051154
 30
0.0
 11
766.8406062650193
 21
1915.679999999924
 31
0.0
  0
LINE
  5
130
330
87
100
AcDbEntity
  8
P-SANR-FIXT
100
AcDbLine
 10
775.0706062650195
 20
1909.228828948693
 30
0.0
 11
793.4004518191868
 21
1909.228828948693
 31
0.0
  0
LINE
  5
131
330
87
100
AcDbEntity
  8
P-SANR-FIXT
100
AcDbLine
 10
796.1765025496094
 20
1917.131171051154
 30
0.0
 11
775.0706062650195
 21
1917.131171051154
 31
0.0
  0
LINE
  5
132
330
87
100
AcDbEntity
  8
P-SANR-FIXT
100
AcDbLine
 10
721.0726358851516
 20
1931.247878121066
 30
0.0
 11
721.978838283633
 21
1931.670447239317
 31
0.0
  0
LINE
  5
133
330
87
100
AcDbEntity
  8
P-SANR-FIXT
100
AcDbLine
 10
721.9789436721883
 20
1931.670496382807
 30
0.0
 11
722.8852514592248
 21
1932.093114644548
 31
0.0
  0
LINE
  5
134
330
87
100
AcDbEntity
  8
P-SANR-FIXT
100
AcDbLine
 10
719.2600203110782
 20
1930.402641597585
 30
0.0
 11
721.0726358851516
 21
1931.247878121066
 31
0.0
  0
LINE
  5
135
330
87
100
AcDbEntity
  8
P-SANR-FIXT
100
AcDbLine
 10
764.8406062650182
 20
1910.679999999923
 30
0.0
 11
764.8406062650182
 21
1915.679999999923
 31
0.0
  0
LINE
  5
136
330
87
100
AcDbEntity
  8
P-SANR-FIXT
100
AcDbLine
 10
766.8406062650183
 20
1910.679999999923
 30
0.0
 11
766.8406062650183
 21
1915.679999999923
 31
0.0
  0
LINE
  5
137
330
87
100
AcDbEntity
  8
P-SANR-FIXT
100
AcDbLine
 10
775.0706062650182
 20
1909.228828948692
 30
0.0
 11
775.0706062650182
 21
1917.131171051153
 31
0.0
  0
LINE
  5
138
330
87
100
AcDbEntity
  8
P-SANR-FIXT
100
AcDbLine
 10
796.1765025496081
 20
1915.684958819054
 30
0.0
 11
796.1765025496081
 21
1917.125759555472
 31
0.0
  0
ARC
  5
139
330
87
100
AcDbEntity
  8
P-SANR-FIXT
100
AcDbCircle
 10
815.6664074431581
 20
1903.499999999925
 30
0.0
 40
22.49999999999989
100
AcDbArc
 50
90.0
 51
269.9999999999993
  0
ARC
  5
13A
330
87
100
AcDbEntity
  8
P-SANR-FIXT
100
AcDbCircle
 10
815.6664074431581
 20
1903.499999999925
 30
0.0
 40
22.49999999999991
100
AcDbArc
 50
269.9999999999995
 51
89.99999999999898
  0
ARC
  5
13B
330
87
100
AcDbEntity
  8
P-SANR-FIXT
100
AcDbCircle
 10
815.6664074431583
 20
1903.499999999925
 30
0.0
 40
23.00000000000006
100
AcDbArc
 50
269.9999999999989
 51
359.9999999999995
  0
ARC
  5
13C
330
87
100
AcDbEntity
  8
P-SANR-FIXT
100
AcDbCircle
 10
815.6664074431583
 20
1903.499999999925
 30
0.0
 40
23.00000000000006
100
AcDbArc
 50
179.9999999999999
 51
269.9999999999984
  0
ARC
  5
13D
330
87
100
AcDbEntity
  8
P-SANR-FIXT
100
AcDbCircle
 10
815.6664074431583
 20
1903.499999999925
 30
0.0
 40
22.99999999999994
100
AcDbArc
 50
90.00000000000069
 51
180.0000000000001
  0
ARC
  5
13E
330
87
100
AcDbEntity
  8
P-SANR-FIXT
100
AcDbCircle
 10
815.6664074431583
 20
1903.499999999925
 30
0.0
 40
23.0
100
AcDbArc
 50
0.0000000000005664
 51
90.00000000000058
  0
LINE
  5
13F
330
87
100
AcDbEntity
  8
P-SANR-FIXT
100
AcDbLine
 10
794.6664074431595
 20
1976.499999999996
 30
0.0
 11
796.4164074431595
 21
1976.499999999996
 31
0.0
  0
LINE
  5
140
330
87
100
AcDbEntity
  8
P-SANR-FIXT
100
AcDbLine
 10
802.2359477535333
 20
2023.499999999996
 30
0.0
 11
794.6664074431595
 21
2023.499999999996
 31
0.0
  0
LINE
  5
141
330
87
100
AcDbEntity
  8
P-SANR-FIXT
100
AcDbLine
 10
840.2764376030436
 20
1980.999999999996
 30
0.0
 11
842.4664074431596
 21
1980.999999999996
 31
0.0
  0
LINE
  5
142
330
87
100
AcDbEntity
  8
P-SANR-FIXT
100
AcDbLine
 10
842.4664074431596
 20
2018.999999999996
 30
0.0
 11
840.2764376030436
 21
2018.999999999996
 31
0.0
  0
LINE
  5
143
330
87
100
AcDbEntity
  8
P-SANR-FIXT
100
AcDbLine
 10
838.0500762691422
 20
2023.499999999996
 30
0.0
 11
829.1076287974108
 21
2023.499999999996
 31
0.0
  0
LINE
  5
144
330
87
100
AcDbEntity
  8
P-SANR-FIXT
100
AcDbLine
 10
834.9164074431596
 20
1976.499999999996
 30
0.0
 11
838.0500762691422
 21
1976.499999999996
 31
0.0
  0
LINE
  5
145
330
87
100
AcDbEntity
  8
P-SANR-FIXT
100
AcDbLine
 10
842.4664074431596
 20
1980.999999999995
 30
0.0
 11
844.6664074431597
 21
1978.799999999996
 31
0.0
  0
LINE
  5
146
330
87
100
AcDbEntity
  8
P-SANR-FIXT
100
AcDbLine
 10
844.6664074431597
 20
2021.199999999996
 30
0.0
 11
842.4664074431596
 21
2018.999999999996
 31
0.0
  0
LINE
  5
147
330
87
100
AcDbEntity
  8
P-SANR-FIXT
100
AcDbLine
 10
838.0500762691422
 20
1976.499999999996
 30
0.0
 11
839.4272911823128
 21
1976.499999999996
 31
0.0
  0
LINE
  5
148
330
87
100
AcDbEntity
  8
P-SANR-FIXT
100
AcDbLine
 10
839.4272911823128
 20
2023.499999999996
 30
0.0
 11
838.0500762691422
 21
2023.499999999996
 31
0.0
  0
LINE
  5
149
330
87
100
AcDbEntity
  8
P-SANR-FIXT
100
AcDbLine
 10
839.4272911823128
 20
1980.999999999996
 30
0.0
 11
840.2764376030436
 21
1980.999999999996
 31
0.0
  0
LINE
  5
14A
330
87
100
AcDbEntity
  8
P-SANR-FIXT
100
AcDbLine
 10
840.2764376030436
 20
2018.999999999996
 30
0.0
 11
839.4272911823128
 21
2018.999999999996
 31
0.0
  0
LINE
  5
14B
330
87
100
AcDbEntity
  8
P-SANR-FIXT
100
AcDbLine
 10
796.4164074431595
 20
1976.499999999996
 30
0.0
 11
796.4164074431595
 21
1960.999999999996
 31
0.0
  0
LINE
  5
14C
330
87
100
AcDbEntity
  8
P-SANR-FIXT
100
AcDbLine
 10
834.9164074431596
 20
1960.999999999996
 30
0.0
 11
834.9164074431596
 21
1976.499999999996
 31
0.0
  0
LINE
  5
14D
330
87
100
AcDbEntity
  8
P-SANR-FIXT
100
AcDbLine
 10
796.4164074431595
 20
1960.999999999996
 30
0.0
 11
797.4164074431596
 21
1959.999999999996
 31
0.0
  0
LINE
  5
14E
330
87
100
AcDbEntity
  8
P-SANR-FIXT
100
AcDbLine
 10
833.9164074431595
 20
1959.999999999996
 30
0.0
 11
834.9164074431596
 21
1960.999999999996
 31
0.0
  0
LINE
  5
14F
330
87
100
AcDbEntity
  8
P-SANR-FIXT
100
AcDbLine
 10
794.6664074431581
 20
2023.499999999995
 30
0.0
 11
794.6664074431581
 21
1976.499999999995
 31
0.0
  0
SPLINE
  5
150
330
87
100
AcDbEntity
  8
P-SANR-FIXT
100
AcDbSpline
210
0.0
220
0.0
230
1.0
 70
     8
 71
     3
 72
    16
 73
    12
 74
     0
 42
0.000000001
 43
0.0000000001
 40
0.0
 40
0.0
 40
0.0
 40
0.0
 40
0.1666666666666666
 40
0.25
 40
0.3333333333333333
 40
0.4166666666666666
 40
0.5
 40
0.6666666666666666
 40
0.75
 40
0.8333333333333332
 40
1.0
 40
1.0
 40
1.0
 40
1.0
 10
796.4164074431583
 20
1976.499999999995
 30
0.0
 10
796.4309474181174
 20
1976.499999999995
 30
0.0
 10
796.6771318869063
 20
1976.71841315087
 30
0.0
 10
797.5121734884397
 20
1977.387898878135
 30
0.0
 10
798.345098652727
 20
1978.054699279787
 30
0.0
 10
799.3636650065243
 20
1978.851689074469
 30
0.0
 10
800.9475210813739
 20
1980.054301176499
 30
0.0
 10
802.8156102068699
 20
1981.400395851878
 30
0.0
 10
804.9255141953317
 20
1982.786307962886
 30
0.0
 10
807.205661193168
 20
1984.139531536596
 30
0.0
 10
809.1043933357369
 20
1985.025564190612
 30
0.0
 10
810.4544225763925
 20
1985.548277395012
 30
0.0
  0
SPLINE
  5
151
330
87
100
AcDbEntity
  8
P-SANR-FIXT
100
AcDbSpline
210
0.0
220
0.0
230
1.0
 70
     8
 71
     3
 72
    11
 73
     7
 74
     0
 42
0.000000001
 43
0.0000000001
 40
0.0
 40
0.0
 40
0.0
 40
0.0
 40
0.25
 40
0.5
 40
0.75
 40
1.0
 40
1.0
 40
1.0
 40
1.0
 10
810.4544225763925
 20
2020.570969501975
 30
0.0
 10
809.6246604676583
 20
2020.785317064549
 30
0.0
 10
808.0879478852718
 20
2021.261039832622
 30
0.0
 10
806.1256798014058
 20
2022.050589855012
 30
0.0
 10
804.5831148538459
 20
2022.767619394907
 30
0.0
 10
803.9022138458264
 20
2023.11877778363
 30
0.0
 10
803.6429927866706
 20
2023.250000000035
 30
0.0
  0
LINE
  5
152
330
87
100
AcDbEntity
  8
P-SANR-FIXT
100
AcDbLine
 10
839.4272911823112
 20
2023.499999999995
 30
0.0
 11
839.4272911823112
 21
1976.499999999995
 31
0.0
  0
SPLINE
  5
153
330
87
100
AcDbEntity
  8
P-SANR-FIXT
100
AcDbSpline
210
0.0
220
0.0
230
1.0
 70
     8
 71
     3
 72
    17
 73
    13
 74
     0
 42
0.000000001
 43
0.0000000001
 40
0.0
 40
0.0
 40
0.0
 40
0.0
 40
0.1428571428571428
 40
0.2857142857142857
 40
0.4285714285714286
 40
0.5
 40
0.5714285714285714
 40
0.625
 40
0.6785714285714287
 40
0.7321428571428572
 40
0.7857142857142857
 40
1.0
 40
1.0
 40
1.0
 40
1.0
 10
827.6898220996459
 20
2023.250000000035
 30
0.0
 10
827.3938853313705
 20
2023.101242162112
 30
0.0
 10
826.6006397158701
 20
2022.69109913497
 30
0.0
 10
824.7554068356777
 20
2021.850245822818
 30
0.0
 10
822.7996962716316
 20
2021.111074877036
 30
0.0
 10
821.0138923458899
 20
2020.59197452366
 30
0.0
 10
819.705415441942
 20
2020.291190782051
 30
0.0
 10
818.4618571569432
 20
2020.087532225015
 30
0.0
 10
817.2942338121684
 20
2019.955046944275
 30
0.0
 10
816.1385930982332
 20
2019.893965252583
 30
0.0
 10
813.7562850917417
 20
2019.913947466432
 30
0.0
 10
811.8797105804471
 20
2020.20580994266
 30
0.0
 10
810.4544225763925
 20
2020.570969501975
 30
0.0
  0
SPLINE
  5
154
330
87
100
AcDbEntity
  8
P-SANR-FIXT
100
AcDbSpline
210
0.0
220
0.0
230
1.0
 70
     8
 71
     3
 72
    33
 73
    29
 74
     0
 42
0.000000001
 43
0.0000000001
 40
0.0
 40
0.0
 40
0.0
 40
0.0
 40
0.0625
 40
0.09375
 40
0.125
 40
0.15625
 40
0.1875
 40
0.21875
 40
0.234375
 40
0.25
 40
0.265625
 40
0.28125
 40
0.3125
 40
0.34375
 40
0.359375
 40
0.375
 40
0.390625
 40
0.40625
 40
0.4375
 40
0.46875
 40
0.5
 40
0.5625
 40
0.625
 40
0.6875
 40
0.75
 40
0.8125
 40
0.875
 40
1.0
 40
1.0
 40
1.0
 40
1.0
 10
810.4544225763925
 20
1985.548277395012
 30
0.0
 10
811.1979102619301
 20
1985.826636483903
 30
0.0
 10
812.3197238510176
 20
1986.159598889949
 30
0.0
 10
813.831542701334
 20
1986.418117481042
 30
0.0
 10
814.9676339848953
 20
1986.520372550648
 30
0.0
 10
816.1291786273844
 20
1986.518200133432
 30
0.0
 10
817.3120351921349
 20
1986.413657938937
 30
0.0
 10
818.2869149697026
 20
1986.256676034042
 30
0.0
 10
819.0480577396455
 20
1986.095685261174
 30
0.0
 10
819.6042702844872
 20
1985.961234410491
 30
0.0
 10
820.1491704618328
 20
1985.807023630554
 30
0.0
 10
820.8688647087246
 20
1985.569119381084
 30
0.0
 10
821.7501439156068
 20
1985.224819088148
 30
0.0
 10
822.6043324652987
 20
1984.840096083043
 30
0.0
 10
823.269096613988
 20
1984.52084113262
 30
0.0
 10
823.7576679991009
 20
1984.280450008674
 30
0.0
 10
824.2364302625521
 20
1984.035232138342
 30
0.0
 10
824.8628617955331
 20
1983.69499716096
 30
0.0
 10
825.6232813679931
 20
1983.253783133461
 30
0.0
 10
826.500903659901
 20
1982.71023367463
 30
0.0
 10
827.624097492699
 20
1981.989419712607
 30
0.0
 10
828.9527076733026
 20
1981.089402545748
 30
0.0
 10
830.3904970351036
 20
1980.042897743489
 30
0.0
 10
831.6866447622754
 20
1979.070711396929
 30
0.0
 10
832.79752681158
 20
1978.204741126422
 30
0.0
 10
833.7106356096672
 20
1977.476326923918
 30
0.0
 10
834.6283706135661
 20
1976.74151587448
 30
0.0
 10
834.8991391825041
 20
1976.499999999995
 30
0.0
 10
834.9164074431582
 20
1976.499999999995
 30
0.0
  0
LINE
  5
155
330
87
100
AcDbEntity
  8
P-SANR-FIXT
100
AcDbLine
 10
842.4664074431584
 20
1980.999999999995
 30
0.0
 11
842.4664074431584
 21
2018.999999999995
 31
0.0
  0
LINE
  5
156
330
87
100
AcDbEntity
  8
P-SANR-FIXT
100
AcDbLine
 10
796.4164074431583
 20
1960.999999999995
 30
0.0
 11
834.9164074431582
 21
1960.999999999995
 31
0.0
  0
LINE
  5
157
330
87
100
AcDbEntity
  8
P-SANR-FIXT
100
AcDbLine
 10
833.9164074431581
 20
1959.999999999995
 30
0.0
 11
797.4164074431582
 21
1959.999999999995
 31
0.0
  0
ENDBLK
  5
159
330
87
100
AcDbEntity
  8
0
100
AcDbBlockEnd
  0
BLOCK
  5
245
330
15B
100
AcDbEntity
  8
0
100
AcDbBlockBegin
  2
Automatic flow rate regulator valve_Caleffi_121 DN15 - 1_2__-V1-Est - Idraulica
 70
     0
 10
0.0
 20
0.0
 30
0.0
  3
Automatic flow rate regulator valve_Caleffi_121 DN15 - 1_2__-V1-Est - Idraulica
  1

  0
LINE
  5
15C
330
15B
100
AcDbEntity
  8
P-SANR-FIXT
100
AcDbLine
 10
1077.614353943098
 20
1927.165670370111
 30
0.0
 11
1077.614353943098
 21
1891.482558849878
 31
0.0
  0
LINE
  5
15D
330
15B
100
AcDbEntity
  8
P-SANR-FIXT
100
AcDbLine
 10
1116.614353943102
 20
1891.482558849878
 30
0.0
 11
1116.614353943102
 21
1895.517810065618
 31
0.0
  0
LINE
  5
15E
330
15B
100
AcDbEntity
  8
P-SANR-FIXT
100
AcDbLine
 10
1116.614353943102
 20
1911.447307634265
 30
0.0
 11
1116.614353943102
 21
1927.165670370111
 31
0.0
  0
LINE
  5
15F
330
15B
100
AcDbEntity
  8
P-SANR-FIXT
100
AcDbLine
 10
1116.614353943102
 20
1895.517810065618
 30
0.0
 11
1121.264584779884
 21
1895.517810065618
 31
0.0
  0
LINE
  5
160
330
15B
100
AcDbEntity
  8
P-SANR-FIXT
100
AcDbLine
 10
1121.264584779884
 20
1911.447307634265
 30
0.0
 11
1116.614353943102
 21
1911.447307634265
 31
0.0
  0
SPLINE
  5
161
330
15B
100
AcDbEntity
  8
P-SANR-FIXT
100
AcDbSpline
210
0.0
220
0.0
230
1.0
 70
     8
 71
     3
 72
    10
 73
     6
 74
     0
 42
0.000000001
 43
0.0000000001
 40
0.0
 40
0.0
 40
0.0
 40
0.0
 40
0.4
 40
0.7
 40
1.0
 40
1.0
 40
1.0
 40
1.0
 10
1115.264584779882
 20
1907.034755723125
 30
0.0
 10
1115.475183185032
 20
1908.097271394091
 30
0.0
 10
1115.939370302863
 20
1909.696188623841
 30
0.0
 10
1116.486485417554
 20
1911.142206816478
 30
0.0
 10
1116.6143539431
 20
1911.443363791804
 30
0.0
 10
1116.6143539431
 20
1911.447307634265
 30
0.0
  0
SPLINE
  5
162
330
15B
100
AcDbEntity
  8
P-SANR-FIXT
100
AcDbSpline
210
0.0
220
0.0
230
1.0
 70
     8
 71
     3
 72
    11
 73
     7
 74
     0
 42
0.000000001
 43
0.0000000001
 40
0.0
 40
0.0
 40
0.0
 40
0.0
 40
0.2
 40
0.4
 40
0.7
 40
1.0
 40
1.0
 40
1.0
 40
1.0
 10
1116.6143539431
 20
1895.517810065616
 30
0.0
 10
1116.6143539431
 20
1895.520222651109
 30
0.0
 10
1116.558702779175
 20
1895.651440570218
 30
0.0
 10
1116.286850335746
 20
1896.341156108401
 30
0.0
 10
1115.797978770078
 20
1897.71076743178
 30
0.0
 10
1115.423003443891
 20
1899.131687446259
 30
0.0
 10
1115.264584779882
 20
1899.930361976756
 30
0.0
  0
LINE
  5
163
330
15B
100
AcDbEntity
  8
P-SANR-FIXT
100
AcDbLine
 10
1077.708251772989
 20
1891.482558849877
 30
0.0
 11
1077.76319300642
 21
1891.482558849877
 31
0.0
  0
LINE
  5
164
330
15B
100
AcDbEntity
  8
P-SANR-FIXT
100
AcDbLine
 10
1077.951667379881
 20
1891.482558849877
 30
0.0
 11
1078.095215571032
 21
1891.482558849877
 31
0.0
  0
LINE
  5
165
330
15B
100
AcDbEntity
  8
P-SANR-FIXT
100
AcDbLine
 10
1078.371817675369
 20
1891.482558849877
 30
0.0
 11
1078.712465855943
 21
1891.482558849877
 31
0.0
  0
LINE
  5
166
330
15B
100
AcDbEntity
  8
P-SANR-FIXT
100
AcDbLine
 10
1079.098703059126
 20
1891.482558849877
 30
0.0
 11
1079.297876869381
 21
1891.482558849877
 31
0.0
  0
LINE
  5
167
330
15B
100
AcDbEntity
  8
P-SANR-FIXT
100
AcDbLine
 10
1079.916889288304
 20
1891.482558849877
 30
0.0
 11
1080.209405095529
 21
1891.482558849877
 31
0.0
  0
LINE
  5
168
330
15B
100
AcDbEntity
  8
P-SANR-FIXT
100
AcDbLine
 10
1081.12825140444
 20
1891.482558849877
 30
0.0
 11
1082.040650102523
 21
1891.482558849877
 31
0.0
  0
LINE
  5
169
330
15B
100
AcDbEntity
  8
P-SANR-FIXT
100
AcDbLine
 10
1082.169830578131
 20
1891.482558849877
 30
0.0
 11
1084.573642643561
 21
1891.482558849877
 31
0.0
  0
LINE
  5
16A
330
15B
100
AcDbEntity
  8
P-SANR-FIXT
100
AcDbLine
 10
1084.743684901906
 20
1891.482558849877
 30
0.0
 11
1087.353612815283
 21
1891.482558849877
 31
0.0
  0
LINE
  5
16B
330
15B
100
AcDbEntity
  8
P-SANR-FIXT
100
AcDbLine
 10
1087.92211757499
 20
1891.482558849877
 30
0.0
 11
1088.863389280864
 21
1891.482558849877
 31
0.0
  0
LINE
  5
16C
330
15B
100
AcDbEntity
  8
P-SANR-FIXT
100
AcDbLine
 10
1089.652027011978
 20
1891.482558849877
 30
0.0
 11
1090.437118981586
 21
1891.482558849877
 31
0.0
  0
LINE
  5
16D
330
15B
100
AcDbEntity
  8
P-SANR-FIXT
100
AcDbLine
 10
1092.062219135649
 20
1891.482558849877
 30
0.0
 11
1093.310092663783
 21
1891.482558849877
 31
0.0
  0
LINE
  5
16E
330
15B
100
AcDbEntity
  8
P-SANR-FIXT
100
AcDbLine
 10
1093.72569602515
 20
1891.482558849877
 30
0.0
 11
1095.203019706671
 21
1891.482558849877
 31
0.0
  0
LINE
  5
16F
330
15B
100
AcDbEntity
  8
P-SANR-FIXT
100
AcDbLine
 10
1095.414245005321
 20
1891.482558849877
 30
0.0
 11
1097.114353943098
 21
1891.482558849877
 31
0.0
  0
LINE
  5
170
330
15B
100
AcDbEntity
  8
P-SANR-FIXT
100
AcDbLine
 10
1097.114353943098
 20
1891.482558849877
 30
0.0
 11
1098.814462880876
 21
1891.482558849877
 31
0.0
  0
LINE
  5
171
330
15B
100
AcDbEntity
  8
P-SANR-FIXT
100
AcDbLine
 10
1099.025688179525
 20
1891.482558849877
 30
0.0
 11
1100.503011861047
 21
1891.482558849877
 31
0.0
  0
LINE
  5
172
330
15B
100
AcDbEntity
  8
P-SANR-FIXT
100
AcDbLine
 10
1100.918615222413
 20
1891.482558849877
 30
0.0
 11
1102.166488750548
 21
1891.482558849877
 31
0.0
  0
LINE
  5
173
330
15B
100
AcDbEntity
  8
P-SANR-FIXT
100
AcDbLine
 10
1102.774905149561
 20
1891.482558849877
 30
0.0
 11
1103.791588904611
 21
1891.482558849877
 31
0.0
  0
LINE
  5
174
330
15B
100
AcDbEntity
  8
P-SANR-FIXT
100
AcDbLine
 10
1103.957612406129
 20
1891.482558849877
 30
0.0
 11
1104.576680874218
 21
1891.482558849877
 31
0.0
  0
LINE
  5
175
330
15B
100
AcDbEntity
  8
P-SANR-FIXT
100
AcDbLine
 10
1105.365318605332
 20
1891.482558849877
 30
0.0
 11
1106.306590311206
 21
1891.482558849877
 31
0.0
  0
LINE
  5
176
330
15B
100
AcDbEntity
  8
P-SANR-FIXT
100
AcDbLine
 10
1106.875095070913
 20
1891.482558849877
 30
0.0
 11
1107.947973486982
 21
1891.482558849877
 31
0.0
  0
LINE
  5
177
330
15B
100
AcDbEntity
  8
P-SANR-FIXT
100
AcDbLine
 10
1108.308840357985
 20
1891.482558849877
 30
0.0
 11
1109.48502298429
 21
1891.482558849877
 31
0.0
  0
LINE
  5
178
330
15B
100
AcDbEntity
  8
P-SANR-FIXT
100
AcDbLine
 10
1109.655065242636
 20
1891.482558849877
 30
0.0
 11
1112.058877308065
 21
1891.482558849877
 31
0.0
  0
LINE
  5
179
330
15B
100
AcDbEntity
  8
P-SANR-FIXT
100
AcDbLine
 10
1112.188057783673
 20
1891.482558849877
 30
0.0
 11
1113.328011382999
 21
1891.482558849877
 31
0.0
  0
LINE
  5
17A
330
15B
100
AcDbEntity
  8
P-SANR-FIXT
100
AcDbLine
 10
1114.019302790667
 20
1891.482558849877
 30
0.0
 11
1114.311818597893
 21
1891.482558849877
 31
0.0
  0
LINE
  5
17B
330
15B
100
AcDbEntity
  8
P-SANR-FIXT
100
AcDbLine
 10
1114.929621578681
 20
1891.482558849877
 30
0.0
 11
1115.13000482707
 21
1891.482558849877
 31
0.0
  0
LINE
  5
17C
330
15B
100
AcDbEntity
  8
P-SANR-FIXT
100
AcDbLine
 10
1115.528293417836
 20
1891.482558849877
 30
0.0
 11
1115.856890210827
 21
1891.482558849877
 31
0.0
  0
LINE
  5
17D
330
15B
100
AcDbEntity
  8
P-SANR-FIXT
100
AcDbLine
 10
1116.133492315165
 20
1891.482558849877
 30
0.0
 11
1116.277040506314
 21
1891.482558849877
 31
0.0
  0
LINE
  5
17E
330
15B
100
AcDbEntity
  8
P-SANR-FIXT
100
AcDbLine
 10
1116.465514879773
 20
1891.482558849877
 30
0.0
 11
1116.520456113208
 21
1891.482558849877
 31
0.0
  0
LINE
  5
17F
330
15B
100
AcDbEntity
  8
P-SANR-FIXT
100
AcDbLine
 10
1115.264584779882
 20
1907.034755723125
 30
0.0
 11
1115.264584779882
 21
1899.930361976756
 31
0.0
  0
LINE
  5
180
330
15B
100
AcDbEntity
  8
P-SANR-FIXT
100
AcDbLine
 10
1077.614353943098
 20
1891.482558849878
 30
0.0
 11
1075.597112276817
 21
1889.465317183598
 31
0.0
  0
LINE
  5
181
330
15B
100
AcDbEntity
  8
P-SANR-FIXT
100
AcDbLine
 10
1118.631595609383
 20
1889.465317183597
 30
0.0
 11
1116.614353943102
 21
1891.482558849878
 31
0.0
  0
LINE
  5
182
330
15B
100
AcDbEntity
  8
P-SANR-FIXT
100
AcDbLine
 10
1075.614084379832
 20
1873.771402831459
 30
0.0
 11
1076.114376831281
 21
1873.482558849941
 31
0.0
  0
LINE
  5
183
330
15B
100
AcDbEntity
  8
P-SANR-FIXT
100
AcDbLine
 10
1118.114331054918
 20
1873.482558849941
 30
0.0
 11
1118.614623506368
 21
1873.771402831459
 31
0.0
  0
LINE
  5
184
330
15B
100
AcDbEntity
  8
P-SANR-FIXT
100
AcDbLine
 10
1097.114353943098
 20
1873.482558849941
 30
0.0
 11
1076.11437683128
 21
1873.482558849941
 31
0.0
  0
LINE
  5
185
330
15B
100
AcDbEntity
  8
P-SANR-FIXT
100
AcDbLine
 10
1118.114331054917
 20
1873.482558849941
 30
0.0
 11
1097.114353943099
 21
1873.482558849941
 31
0.0
  0
LINE
  5
186
330
15B
100
AcDbEntity
  8
P-SANR-FIXT
100
AcDbLine
 10
1077.614353943096
 20
1891.482558849877
 30
0.0
 11
1077.702293761368
 21
1891.482558849877
 31
0.0
  0
LINE
  5
187
330
15B
100
AcDbEntity
  8
P-SANR-FIXT
100
AcDbLine
 10
1077.763168726648
 20
1891.482558849877
 30
0.0
 11
1077.951743153139
 21
1891.482558849877
 31
0.0
  0
LINE
  5
188
330
15B
100
AcDbEntity
  8
P-SANR-FIXT
100
AcDbLine
 10
1078.09514181921
 20
1891.482558849877
 30
0.0
 11
1078.371951116767
 21
1891.482558849877
 31
0.0
  0
LINE
  5
189
330
15B
100
AcDbEntity
  8
P-SANR-FIXT
100
AcDbLine
 10
1078.59135025427
 20
1891.482558849877
 30
0.0
 11
1079.081598314742
 21
1891.482558849877
 31
0.0
  0
LINE
  5
18A
330
15B
100
AcDbEntity
  8
P-SANR-FIXT
100
AcDbLine
 10
1079.246697336274
 20
1891.482558849877
 30
0.0
 11
1079.901183264674
 21
1891.482558849877
 31
0.0
  0
LINE
  5
18B
330
15B
100
AcDbEntity
  8
P-SANR-FIXT
100
AcDbLine
 10
1080.226858569299
 20
1891.482558849877
 30
0.0
 11
1080.888620470715
 21
1891.482558849877
 31
0.0
  0
LINE
  5
18C
330
15B
100
AcDbEntity
  8
P-SANR-FIXT
100
AcDbLine
 10
1081.140889079461
 20
1891.482558849877
 30
0.0
 11
1082.033993809916
 21
1891.482558849877
 31
0.0
  0
LINE
  5
18D
330
15B
100
AcDbEntity
  8
P-SANR-FIXT
100
AcDbLine
 10
1082.176487302276
 20
1891.482558849877
 30
0.0
 11
1084.579995554209
 21
1891.482558849877
 31
0.0
  0
LINE
  5
18E
330
15B
100
AcDbEntity
  8
P-SANR-FIXT
100
AcDbLine
 10
1084.738799653026
 20
1891.482558849877
 30
0.0
 11
1085.929613434251
 21
1891.482558849877
 31
0.0
  0
LINE
  5
18F
330
15B
100
AcDbEntity
  8
P-SANR-FIXT
100
AcDbLine
 10
1086.273275940929
 20
1891.482558849877
 30
0.0
 11
1087.364353943097
 21
1891.482558849877
 31
0.0
  0
LINE
  5
190
330
15B
100
AcDbEntity
  8
P-SANR-FIXT
100
AcDbLine
 10
1087.914072120752
 20
1891.482558849877
 30
0.0
 11
1089.644922856536
 21
1891.482558849877
 31
0.0
  0
LINE
  5
191
330
15B
100
AcDbEntity
  8
P-SANR-FIXT
100
AcDbLine
 10
1090.444961148247
 20
1891.482558849877
 30
0.0
 11
1091.448612032836
 21
1891.482558849877
 31
0.0
  0
LINE
  5
192
330
15B
100
AcDbEntity
  8
P-SANR-FIXT
100
AcDbLine
 10
1092.067382563598
 20
1891.482558849877
 30
0.0
 11
1093.307164544668
 21
1891.482558849877
 31
0.0
  0
LINE
  5
193
330
15B
100
AcDbEntity
  8
P-SANR-FIXT
100
AcDbLine
 10
1093.728214478592
 20
1891.482558849877
 30
0.0
 11
1095.202043790418
 21
1891.482558849877
 31
0.0
  0
LINE
  5
194
330
15B
100
AcDbEntity
  8
P-SANR-FIXT
100
AcDbLine
 10
1095.414816959519
 20
1891.482558849877
 30
0.0
 11
1097.114353943098
 21
1891.482558849877
 31
0.0
  0
LINE
  5
195
330
15B
100
AcDbEntity
  8
P-SANR-FIXT
100
AcDbLine
 10
1097.114353943098
 20
1891.482558849877
 30
0.0
 11
1098.813890926678
 21
1891.482558849877
 31
0.0
  0
LINE
  5
196
330
15B
100
AcDbEntity
  8
P-SANR-FIXT
100
AcDbLine
 10
1099.026664095778
 20
1891.482558849877
 30
0.0
 11
1100.500493407604
 21
1891.482558849877
 31
0.0
  0
LINE
  5
197
330
15B
100
AcDbEntity
  8
P-SANR-FIXT
100
AcDbLine
 10
1100.921543341528
 20
1891.482558849877
 30
0.0
 11
1102.161325322598
 21
1891.482558849877
 31
0.0
  0
LINE
  5
198
330
15B
100
AcDbEntity
  8
P-SANR-FIXT
100
AcDbLine
 10
1102.78009585336
 20
1891.482558849877
 30
0.0
 11
1103.952951668206
 21
1891.482558849877
 31
0.0
  0
LINE
  5
199
330
15B
100
AcDbEntity
  8
P-SANR-FIXT
100
AcDbLine
 10
1104.58378502966
 20
1891.482558849877
 30
0.0
 11
1106.314635765444
 21
1891.482558849877
 31
0.0
  0
LINE
  5
19A
330
15B
100
AcDbEntity
  8
P-SANR-FIXT
100
AcDbLine
 10
1106.8643539431
 20
1891.482558849877
 30
0.0
 11
1107.955431945267
 21
1891.482558849877
 31
0.0
  0
LINE
  5
19B
330
15B
100
AcDbEntity
  8
P-SANR-FIXT
100
AcDbLine
 10
1108.299094451945
 20
1891.482558849877
 30
0.0
 11
1109.48990823317
 21
1891.482558849877
 31
0.0
  0
LINE
  5
19C
330
15B
100
AcDbEntity
  8
P-SANR-FIXT
100
AcDbLine
 10
1109.648712331987
 20
1891.482558849877
 30
0.0
 11
1112.05222058392
 21
1891.482558849877
 31
0.0
  0
LINE
  5
19D
330
15B
100
AcDbEntity
  8
P-SANR-FIXT
100
AcDbLine
 10
1112.19471407628
 20
1891.482558849877
 30
0.0
 11
1113.087818806736
 21
1891.482558849877
 31
0.0
  0
LINE
  5
19E
330
15B
100
AcDbEntity
  8
P-SANR-FIXT
100
AcDbLine
 10
1113.340087415482
 20
1891.482558849877
 30
0.0
 11
1114.001849316897
 21
1891.482558849877
 31
0.0
  0
LINE
  5
19F
330
15B
100
AcDbEntity
  8
P-SANR-FIXT
100
AcDbLine
 10
1114.327524621523
 20
1891.482558849877
 30
0.0
 11
1115.121392816856
 21
1891.482558849877
 31
0.0
  0
LINE
  5
1A0
330
15B
100
AcDbEntity
  8
P-SANR-FIXT
100
AcDbLine
 10
1115.147109571454
 20
1891.482558849877
 30
0.0
 11
1115.637357631925
 21
1891.482558849877
 31
0.0
  0
LINE
  5
1A1
330
15B
100
AcDbEntity
  8
P-SANR-FIXT
100
AcDbLine
 10
1115.856756769429
 20
1891.482558849877
 30
0.0
 11
1116.133566066987
 21
1891.482558849877
 31
0.0
  0
LINE
  5
1A2
330
15B
100
AcDbEntity
  8
P-SANR-FIXT
100
AcDbLine
 10
1116.276964733057
 20
1891.482558849877
 30
0.0
 11
1116.465539159549
 21
1891.482558849877
 31
0.0
  0
LINE
  5
1A3
330
15B
100
AcDbEntity
  8
P-SANR-FIXT
100
AcDbLine
 10
1116.526414124828
 20
1891.482558849877
 30
0.0
 11
1116.6143539431
 21
1891.482558849877
 31
0.0
  0
LINE
  5
1A4
330
15B
100
AcDbEntity
  8
P-SANR-FIXT
100
AcDbLine
 10
1078.148515580536
 20
1887.482558849877
 30
0.0
 11
1078.148515580536
 21
1874.925947737414
 31
0.0
  0
SPLINE
  5
1A5
330
15B
100
AcDbEntity
  8
P-SANR-FIXT
100
AcDbSpline
210
0.0
220
0.0
230
1.0
 70
     8
 71
     3
 72
     9
 73
     5
 74
     0
 42
0.000000001
 43
0.0000000001
 40
0.0
 40
0.0
 40
0.0
 40
0.0
 40
0.5
 40
1.0
 40
1.0
 40
1.0
 40
1.0
 10
1078.148515580536
 20
1874.925947737414
 30
0.0
 10
1080.930257405506
 20
1874.156197328917
 30
0.0
 10
1086.450612017995
 20
1873.386446920421
 30
0.0
 10
1091.884708555581
 20
1874.156197328918
 30
0.0
 10
1094.580192305648
 20
1874.925947737414
 30
0.0
  0
SPLINE
  5
1A6
330
15B
100
AcDbEntity
  8
P-SANR-FIXT
100
AcDbSpline
210
0.0
220
0.0
230
1.0
 70
     8
 71
     3
 72
    10
 73
     6
 74
     0
 42
0.000000001
 43
0.0000000001
 40
0.0
 40
0.0
 40
0.0
 40
0.0
 40
0.3333333333333333
 40
0.6666666666666666
 40
1.0
 40
1.0
 40
1.0
 40
1.0
 10
1094.580192305648
 20
1887.482558849876
 30
0.0
 10
1092.799061347317
 20
1888.359845421859
 30
0.0
 10
1089.20541634733
 20
1889.529769904419
 30
0.0
 10
1083.587758448805
 20
1889.547643957236
 30
0.0
 10
1079.95727521456
 20
1888.36768491871
 30
0.0
 10
1078.148515580536
 20
1887.482558849877
 30
0.0
  0
LINE
  5
1A7
330
15B
100
AcDbEntity
  8
P-SANR-FIXT
100
AcDbLine
 10
1094.580192305648
 20
1874.925947737414
 30
0.0
 11
1094.580192305648
 21
1887.482558849876
 31
0.0
  0
LINE
  5
1A8
330
15B
100
AcDbEntity
  8
P-SANR-FIXT
100
AcDbLine
 10
1094.580192305648
 20
1874.925947737413
 30
0.0
 11
1097.114353943098
 21
1874.925947737413
 31
0.0
  0
LINE
  5
1A9
330
15B
100
AcDbEntity
  8
P-SANR-FIXT
100
AcDbLine
 10
1097.114353943098
 20
1874.925947737413
 30
0.0
 11
1099.648515580549
 21
1874.925947737413
 31
0.0
  0
LINE
  5
1AA
330
15B
100
AcDbEntity
  8
P-SANR-FIXT
100
AcDbLine
 10
1099.648515580549
 20
1887.482558849877
 30
0.0
 11
1097.114353943099
 21
1887.482558849877
 31
0.0
  0
LINE
  5
1AB
330
15B
100
AcDbEntity
  8
P-SANR-FIXT
100
AcDbLine
 10
1097.114353943098
 20
1887.482558849877
 30
0.0
 11
1094.580192305648
 21
1887.482558849877
 31
0.0
  0
LINE
  5
1AC
330
15B
100
AcDbEntity
  8
P-SANR-FIXT
100
AcDbLine
 10
1099.648515580549
 20
1874.925947737414
 30
0.0
 11
1099.648515580549
 21
1887.482558849876
 31
0.0
  0
SPLINE
  5
1AD
330
15B
100
AcDbEntity
  8
P-SANR-FIXT
100
AcDbSpline
210
0.0
220
0.0
230
1.0
 70
     8
 71
     3
 72
     9
 73
     5
 74
     0
 42
0.000000001
 43
0.0000000001
 40
0.0
 40
0.0
 40
0.0
 40
0.0
 40
0.5
 40
1.0
 40
1.0
 40
1.0
 40
1.0
 10
1099.648515580549
 20
1874.925947737414
 30
0.0
 10
1102.430257405519
 20
1874.156197328918
 30
0.0
 10
1107.950612018008
 20
1873.386446920422
 30
0.0
 10
1113.384708555594
 20
1874.156197328918
 30
0.0
 10
1116.080192305661
 20
1874.925947737414
 30
0.0
  0
SPLINE
  5
1AE
330
15B
100
AcDbEntity
  8
P-SANR-FIXT
100
AcDbSpline
210
0.0
220
0.0
230
1.0
 70
     8
 71
     3
 72
    10
 73
     6
 74
     0
 42
0.000000001
 43
0.0000000001
 40
0.0
 40
0.0
 40
0.0
 40
0.0
 40
0.3333333333333333
 40
0.6666666666666666
 40
1.0
 40
1.0
 40
1.0
 40
1.0
 10
1116.080192305661
 20
1887.482558849876
 30
0.0
 10
1114.29906134733
 20
1888.359845421859
 30
0.0
 10
1110.705416347343
 20
1889.529769904419
 30
0.0
 10
1105.087758448818
 20
1889.547643957236
 30
0.0
 10
1101.457275214573
 20
1888.367684918708
 30
0.0
 10
1099.648515580549
 20
1887.482558849876
 30
0.0
  0
LINE
  5
1AF
330
15B
100
AcDbEntity
  8
P-SANR-FIXT
100
AcDbLine
 10
1116.080192305661
 20
1874.925947737414
 30
0.0
 11
1116.080192305661
 21
1887.482558849876
 31
0.0
  0
LINE
  5
1B0
330
15B
100
AcDbEntity
  8
P-SANR-FIXT
100
AcDbLine
 10
1116.080192305661
 20
1874.925947737413
 30
0.0
 11
1118.614353943111
 21
1874.925947737413
 31
0.0
  0
LINE
  5
1B1
330
15B
100
AcDbEntity
  8
P-SANR-FIXT
100
AcDbLine
 10
1118.614353943111
 20
1887.482558849877
 30
0.0
 11
1116.080192305661
 21
1887.482558849877
 31
0.0
  0
LINE
  5
1B2
330
15B
100
AcDbEntity
  8
P-SANR-FIXT
100
AcDbLine
 10
1118.614353943112
 20
1874.925947737414
 30
0.0
 11
1118.614353943112
 21
1887.482558849876
 31
0.0
  0
SPLINE
  5
1B3
330
15B
100
AcDbEntity
  8
P-SANR-FIXT
100
AcDbSpline
210
0.0
220
0.0
230
1.0
 70
    24
 71
     3
 72
     8
 73
     4
 74
     0
 42
0.000000001
 43
0.0000000001
 40
0.0
 40
0.0
 40
0.0
 40
0.0
 40
0.5
 40
0.5
 40
0.5
 40
0.5
 10
1118.614353943112
 20
1874.925947737414
 30
0.0
 10
1118.614353943112
 20
1874.156197328917
 30
0.0
 10
1118.614353943112
 20
1873.771322124669
 30
0.0
 10
1118.614353943112
 20
1873.771322124669
 30
0.0
  0
SPLINE
  5
1B4
330
15B
100
AcDbEntity
  8
P-SANR-FIXT
100
AcDbSpline
210
0.0
220
0.0
230
1.0
 70
    24
 71
     3
 72
     9
 73
     5
 74
     0
 42
0.000000001
 43
0.0000000001
 40
0.5017962146088481
 40
0.5017962146088481
 40
0.5017962146088481
 40
0.5017962146088481
 40
0.6666666666666666
 40
1.0
 40
1.0
 40
1.0
 40
1.0
 10
1118.614353943112
 20
1889.465309580513
 30
0.0
 10
1118.614353943112
 20
1889.465643658965
 30
0.0
 10
1118.614353943112
 20
1889.249475008111
 30
0.0
 10
1118.614353943112
 20
1888.367684918709
 30
0.0
 10
1118.614353943112
 20
1887.482558849876
 30
0.0
  0
SPLINE
  5
1B5
330
15B
100
AcDbEntity
  8
P-SANR-FIXT
100
AcDbSpline
210
0.0
220
0.0
230
1.0
 70
    24
 71
     3
 72
     9
 73
     5
 74
     0
 42
0.000000001
 43
0.0000000001
 40
0.4958197289060474
 40
0.4958197289060474
 40
0.4958197289060474
 40
0.4958197289060474
 40
0.5
 40
1.0
 40
1.0
 40
1.0
 40
1.0
 10
1075.614353943086
 20
1873.771402831458
 30
0.0
 10
1075.614353943086
 20
1873.771349026932
 30
0.0
 10
1075.614353943086
 20
1873.768104359286
 30
0.0
 10
1075.614353943039
 20
1874.156197328856
 30
0.0
 10
1075.614353943085
 20
1874.925947737414
 30
0.0
  0
SPLINE
  5
1B6
330
15B
100
AcDbEntity
  8
P-SANR-FIXT
100
AcDbSpline
210
0.0
220
0.0
230
1.0
 70
    24
 71
     3
 72
     9
 73
     5
 74
     0
 42
0.000000001
 43
0.0000000001
 40
0.0
 40
0.0
 40
0.0
 40
0.0
 40
0.3333333333333333
 40
0.5555555555555556
 40
0.5555555555555556
 40
0.5555555555555556
 40
0.5555555555555556
 10
1075.614353943085
 20
1887.482558849877
 30
0.0
 10
1075.614353943085
 20
1888.35984542186
 30
0.0
 10
1075.614353943086
 20
1889.33478249066
 30
0.0
 10
1075.614353943086
 20
1889.505547026579
 30
0.0
 10
1075.614353943086
 20
1889.442676596694
 30
0.0
  0
LINE
  5
1B7
330
15B
100
AcDbEntity
  8
P-SANR-FIXT
100
AcDbLine
 10
1078.148515580536
 20
1887.482558849877
 30
0.0
 11
1075.614353943086
 21
1887.482558849877
 31
0.0
  0
LINE
  5
1B8
330
15B
100
AcDbEntity
  8
P-SANR-FIXT
100
AcDbLine
 10
1075.614353943085
 20
1874.925947737414
 30
0.0
 11
1075.614353943085
 21
1887.482558849877
 31
0.0
  0
LINE
  5
1B9
330
15B
100
AcDbEntity
  8
P-SANR-FIXT
100
AcDbLine
 10
1075.614353943086
 20
1874.925947737413
 30
0.0
 11
1078.148515580536
 21
1874.925947737413
 31
0.0
  0
LINE
  5
1BA
330
15B
100
AcDbEntity
  8
P-SANR-FIXT
100
AcDbLine
 10
1120.574706932175
 20
1928.563951435852
 30
0.0
 11
1120.574706932175
 21
1941.527270259914
 31
0.0
  0
LINE
  5
1BB
330
15B
100
AcDbEntity
  8
P-SANR-FIXT
100
AcDbLine
 10
1073.654000954108
 20
1941.527270259959
 30
0.0
 11
1073.654000954108
 21
1928.563951435808
 31
0.0
  0
LINE
  5
1BC
330
15B
100
AcDbEntity
  8
P-SANR-FIXT
100
AcDbLine
 10
1077.9943539431
 20
1945.165670370111
 30
0.0
 11
1073.653780501707
 21
1942.659639125285
 31
0.0
  0
LINE
  5
1BD
330
15B
100
AcDbEntity
  8
P-SANR-FIXT
100
AcDbLine
 10
1120.574927384577
 20
1942.659639125237
 30
0.0
 11
1116.2343539431
 21
1945.165670370111
 31
0.0
  0
LINE
  5
1BE
330
15B
100
AcDbEntity
  8
P-SANR-FIXT
100
AcDbLine
 10
1073.653780501707
 20
1927.431582570481
 30
0.0
 11
1074.1143539431
 21
1927.165670370111
 31
0.0
  0
LINE
  5
1BF
330
15B
100
AcDbEntity
  8
P-SANR-FIXT
100
AcDbLine
 10
1120.1143539431
 20
1927.165670370111
 30
0.0
 11
1120.574927384577
 21
1927.431582570529
 31
0.0
  0
LINE
  5
1C0
330
15B
100
AcDbEntity
  8
P-SANR-FIXT
100
AcDbLine
 10
1077.994353943098
 20
1945.16567037011
 30
0.0
 11
1097.114353943098
 21
1945.16567037011
 31
0.0
  0
LINE
  5
1C1
330
15B
100
AcDbEntity
  8
P-SANR-FIXT
100
AcDbLine
 10
1097.114353943098
 20
1945.16567037011
 30
0.0
 11
1116.234353943098
 21
1945.16567037011
 31
0.0
  0
LINE
  5
1C2
330
15B
100
AcDbEntity
  8
P-SANR-FIXT
100
AcDbLine
 10
1095.109771859902
 20
1927.16567037011
 30
0.0
 11
1074.114353943098
 21
1927.16567037011
 31
0.0
  0
LINE
  5
1C3
330
15B
100
AcDbEntity
  8
P-SANR-FIXT
100
AcDbLine
 10
1120.114353943098
 20
1927.16567037011
 30
0.0
 11
1099.118936026294
 21
1927.16567037011
 31
0.0
  0
SPLINE
  5
1C4
330
15B
100
AcDbEntity
  8
P-SANR-FIXT
100
AcDbSpline
210
0.0
220
0.0
230
1.0
 70
     8
 71
     3
 72
    10
 73
     6
 74
     0
 42
0.000000001
 43
0.0000000001
 40
0.0
 40
0.0
 40
0.0
 40
0.0
 40
0.4
 40
0.7
 40
1.0
 40
1.0
 40
1.0
 40
1.0
 10
1117.324706932173
 20
1928.563951435848
 30
0.0
 10
1118.099814097418
 20
1928.764871158439
 30
0.0
 10
1119.312384257162
 20
1928.983083614804
 30
0.0
 10
1120.365777568772
 20
1928.928936770729
 30
0.0
 10
1120.574706932173
 20
1928.71441188463
 30
0.0
 10
1120.574706932173
 20
1928.563951435851
 30
0.0
  0
SPLINE
  5
1C5
330
15B
100
AcDbEntity
  8
P-SANR-FIXT
100
AcDbSpline
210
0.0
220
0.0
230
1.0
 70
     8
 71
     3
 72
    10
 73
     6
 74
     0
 42
0.000000001
 43
0.0000000001
 40
0.0
 40
0.0
 40
0.0
 40
0.0
 40
0.4
 40
0.7
 40
1.0
 40
1.0
 40
1.0
 40
1.0
 10
1120.574706932173
 20
1941.527270259913
 30
0.0
 10
1120.574706932173
 20
1941.326656328208
 30
0.0
 10
1120.244867268037
 20
1941.108290105984
 30
0.0
 10
1118.976297484231
 20
1941.162019264912
 30
0.0
 10
1117.906037306107
 20
1941.376580467973
 30
0.0
 10
1117.324706932173
 20
1941.527270259916
 30
0.0
  0
SPLINE
  5
1C6
330
15B
100
AcDbEntity
  8
P-SANR-FIXT
100
AcDbSpline
210
0.0
220
0.0
230
1.0
 70
    24
 71
     3
 72
     8
 73
     4
 74
     0
 42
0.000000001
 43
0.0000000001
 40
0.0
 40
0.0
 40
0.0
 40
0.0
 40
0.5
 40
0.5
 40
0.5
 40
0.5
 10
1120.574706932173
 20
1928.563951435851
 30
0.0
 10
1120.574706932173
 20
1927.808995010472
 30
0.0
 10
1120.574706932173
 20
1927.431516797783
 30
0.0
 10
1120.574706932173
 20
1927.431516797783
 30
0.0
  0
SPLINE
  5
1C7
330
15B
100
AcDbEntity
  8
P-SANR-FIXT
100
AcDbSpline
210
0.0
220
0.0
230
1.0
 70
    24
 71
     3
 72
     8
 73
     4
 74
     0
 42
0.000000001
 43
0.0000000001
 40
0.5
 40
0.5
 40
0.5
 40
0.5
 40
1.0
 40
1.0
 40
1.0
 40
1.0
 10
1120.574706932173
 20
1942.659704897981
 30
0.0
 10
1120.574706932173
 20
1942.659704897981
 30
0.0
 10
1120.574706932173
 20
1942.282226685292
 30
0.0
 10
1120.574706932173
 20
1941.527270259913
 30
0.0
  0
SPLINE
  5
1C8
330
15B
100
AcDbEntity
  8
P-SANR-FIXT
100
AcDbSpline
210
0.0
220
0.0
230
1.0
 70
    24
 71
     3
 72
     9
 73
     5
 74
     0
 42
0.000000001
 43
0.0000000001
 40
0.4961894609470129
 40
0.4961894609470129
 40
0.4961894609470129
 40
0.4961894609470129
 40
0.5
 40
1.0
 40
1.0
 40
1.0
 40
1.0
 10
1073.654000954107
 20
1927.43158257048
 30
0.0
 10
1073.654000954107
 20
1927.431538721983
 30
0.0
 10
1073.654000954107
 20
1927.428640006793
 30
0.0
 10
1073.654000954107
 20
1927.808995010484
 30
0.0
 10
1073.654000954107
 20
1928.563951435807
 30
0.0
  0
SPLINE
  5
1C9
330
15B
100
AcDbEntity
  8
P-SANR-FIXT
100
AcDbSpline
210
0.0
220
0.0
230
1.0
 70
    24
 71
     3
 72
     9
 73
     5
 74
     0
 42
0.000000001
 43
0.0000000001
 40
0.0
 40
0.0
 40
0.0
 40
0.0
 40
0.5
 40
0.5038105390529838
 40
0.5038105390529838
 40
0.5038105390529838
 40
0.5038105390529838
 10
1073.654000954107
 20
1941.527270259958
 30
0.0
 10
1073.654000954107
 20
1942.282226685339
 30
0.0
 10
1073.654000954107
 20
1942.662581688973
 30
0.0
 10
1073.654000954107
 20
1942.659682973781
 30
0.0
 10
1073.654000954107
 20
1942.659639125284
 30
0.0
  0
SPLINE
  5
1CA
330
15B
100
AcDbEntity
  8
P-SANR-FIXT
100
AcDbSpline
210
0.0
220
0.0
230
1.0
 70
     8
 71
     3
 72
    10
 73
     6
 74
     0
 42
0.000000001
 43
0.0000000001
 40
0.0
 40
0.0
 40
0.0
 40
0.0
 40
0.4
 40
0.7
 40
1.0
 40
1.0
 40
1.0
 40
1.0
 10
1073.654000954107
 20
1928.563951435807
 30
0.0
 10
1073.654000954107
 20
1928.764871158398
 30
0.0
 10
1073.984528245465
 20
1928.983083614762
 30
0.0
 10
1075.253934232093
 20
1928.928936770687
 30
0.0
 10
1076.323865238403
 20
1928.714411884589
 30
0.0
 10
1076.904000954107
 20
1928.56395143581
 30
0.0
  0
SPLINE
  5
1CB
330
15B
100
AcDbEntity
  8
P-SANR-FIXT
100
AcDbSpline
210
0.0
220
0.0
230
1.0
 70
     8
 71
     3
 72
    10
 73
     6
 74
     0
 42
0.000000001
 43
0.0000000001
 40
0.0
 40
0.0
 40
0.0
 40
0.0
 40
0.4
 40
0.7
 40
1.0
 40
1.0
 40
1.0
 40
1.0
 10
1076.904000954107
 20
1941.527270259955
 30
0.0
 10
1076.130486666502
 20
1941.326656328249
 30
0.0
 10
1074.917394706142
 20
1941.108290106027
 30
0.0
 10
1073.863668947726
 20
1941.162019264954
 30
0.0
 10
1073.654000954107
 20
1941.376580468015
 30
0.0
 10
1073.654000954107
 20
1941.527270259958
 30
0.0
  0
SPLINE
  5
1CC
330
15B
100
AcDbEntity
  8
P-SANR-FIXT
100
AcDbSpline
210
0.0
220
0.0
230
1.0
 70
     8
 71
     3
 72
     9
 73
     5
 74
     0
 42
0.000000001
 43
0.0000000001
 40
0.0
 40
0.0
 40
0.0
 40
0.0
 40
0.5
 40
1.0
 40
1.0
 40
1.0
 40
1.0
 10
1076.904000954107
 20
1928.56395143581
 30
0.0
 10
1079.771545179066
 20
1927.808995010432
 30
0.0
 10
1085.465814902198
 20
1927.054038585056
 30
0.0
 10
1091.078447171755
 20
1927.808995010442
 30
0.0
 10
1093.86435394314
 20
1928.563951435826
 30
0.0
  0
SPLINE
  5
1CD
330
15B
100
AcDbEntity
  8
P-SANR-FIXT
100
AcDbSpline
210
0.0
220
0.0
230
1.0
 70
     8
 71
     3
 72
     9
 73
     5
 74
     0
 42
0.000000001
 43
0.0000000001
 40
0.0
 40
0.0
 40
0.0
 40
0.0
 40
0.5
 40
1.0
 40
1.0
 40
1.0
 40
1.0
 10
1093.86435394314
 20
1941.527270259939
 30
0.0
 10
1091.078447171755
 20
1942.282226685321
 30
0.0
 10
1085.465814902198
 20
1943.037183110708
 30
0.0
 10
1079.771545179066
 20
1942.282226685333
 30
0.0
 10
1076.904000954107
 20
1941.527270259955
 30
0.0
  0
SPLINE
  5
1CE
330
15B
100
AcDbEntity
  8
P-SANR-FIXT
100
AcDbSpline
210
0.0
220
0.0
230
1.0
 70
     8
 71
     3
 72
     8
 73
     4
 74
     0
 42
0.000000001
 43
0.0000000001
 40
0.0
 40
0.0
 40
0.0
 40
0.0
 40
0.4044003993714918
 40
0.4044003993714918
 40
0.4044003993714918
 40
0.4044003993714918
 10
1093.86435394314
 20
1928.563951435826
 30
0.0
 10
1094.256326109399
 20
1928.665938332783
 30
0.0
 10
1094.674291955185
 20
1928.747524356318
 30
0.0
 10
1095.109532932847
 20
1928.808709506432
 30
0.0
  0
SPLINE
  5
1CF
330
15B
100
AcDbEntity
  8
P-SANR-FIXT
100
AcDbSpline
210
0.0
220
0.0
230
1.0
 70
     8
 71
     3
 72
     8
 73
     4
 74
     0
 42
0.000000001
 43
0.0000000001
 40
0.5955996006123963
 40
0.5955996006123963
 40
0.5955996006123963
 40
0.5955996006123963
 40
1.0
 40
1.0
 40
1.0
 40
1.0
 10
1099.11917495335
 20
1928.808709506447
 30
0.0
 10
1099.554415931042
 20
1928.747524356333
 30
0.0
 10
1099.972381776857
 20
1928.665938332795
 30
0.0
 10
1100.36435394314
 20
1928.563951435832
 30
0.0
  0
SPLINE
  5
1D0
330
15B
100
AcDbEntity
  8
P-SANR-FIXT
100
AcDbSpline
210
0.0
220
0.0
230
1.0
 70
     8
 71
     3
 72
     9
 73
     5
 74
     0
 42
0.000000001
 43
0.0000000001
 40
0.0
 40
0.0
 40
0.0
 40
0.0
 40
0.5
 40
1.0
 40
1.0
 40
1.0
 40
1.0
 10
1100.36435394314
 20
1941.527270259932
 30
0.0
 10
1099.879720190457
 20
1941.401173825412
 30
0.0
 10
1098.83098059902
 20
1941.211353810002
 30
0.0
 10
1097.689211101768
 20
1941.146279501854
 30
0.0
 10
1097.114353943098
 20
1941.144928774594
 30
0.0
  0
SPLINE
  5
1D1
330
15B
100
AcDbEntity
  8
P-SANR-FIXT
100
AcDbSpline
210
0.0
220
0.0
230
1.0
 70
     8
 71
     3
 72
     9
 73
     5
 74
     0
 42
0.000000001
 43
0.0000000001
 40
0.0
 40
0.0
 40
0.0
 40
0.0
 40
0.5
 40
1.0
 40
1.0
 40
1.0
 40
1.0
 10
1097.114353943098
 20
1941.144928774594
 30
0.0
 10
1096.539496784442
 20
1941.146279501857
 30
0.0
 10
1095.397727287221
 20
1941.211353810011
 30
0.0
 10
1094.348987695812
 20
1941.40117382542
 30
0.0
 10
1093.86435394314
 20
1941.527270259939
 30
0.0
  0
SPLINE
  5
1D2
330
15B
100
AcDbEntity
  8
P-SANR-FIXT
100
AcDbSpline
210
0.0
220
0.0
230
1.0
 70
     8
 71
     3
 72
     9
 73
     5
 74
     0
 42
0.000000001
 43
0.0000000001
 40
0.0
 40
0.0
 40
0.0
 40
0.0
 40
0.5
 40
1.0
 40
1.0
 40
1.0
 40
1.0
 10
1117.324706932173
 20
1941.527270259916
 30
0.0
 10
1114.457162707214
 20
1942.282226685298
 30
0.0
 10
1108.762892984083
 20
1943.037183110683
 30
0.0
 10
1103.150260714526
 20
1942.282226685309
 30
0.0
 10
1100.36435394314
 20
1941.527270259932
 30
0.0
  0
SPLINE
  5
1D3
330
15B
100
AcDbEntity
  8
P-SANR-FIXT
100
AcDbSpline
210
0.0
220
0.0
230
1.0
 70
     8
 71
     3
 72
     9
 73
     5
 74
     0
 42
0.000000001
 43
0.0000000001
 40
0.0
 40
0.0
 40
0.0
 40
0.0
 40
0.5
 40
1.0
 40
1.0
 40
1.0
 40
1.0
 10
1100.36435394314
 20
1928.563951435832
 30
0.0
 10
1103.150260714526
 20
1927.808995010455
 30
0.0
 10
1108.762892984083
 20
1927.054038585081
 30
0.0
 10
1114.457162707214
 20
1927.808995010466
 30
0.0
 10
1117.324706932173
 20
1928.563951435848
 30
0.0
  0
LINE
  5
1D4
330
15B
100
AcDbEntity
  8
P-SANR-FIXT
100
AcDbLine
 10
1080.264353943099
 20
1959.982558850011
 30
0.0
 11
1080.264353943099
 21
1945.165670370111
 31
0.0
  0
LINE
  5
1D5
330
15B
100
AcDbEntity
  8
P-SANR-FIXT
100
AcDbLine
 10
1113.964353943101
 20
1945.165670370111
 30
0.0
 11
1113.964353943101
 21
1959.982558850011
 31
0.0
  0
ARC
  5
1D6
330
15B
100
AcDbEntity
  8
P-SANR-FIXT
100
AcDbCircle
 10
1097.114353943098
 20
1999.982558850011
 30
0.0
 40
19.12435565297478
100
AcDbArc
 50
90.00000000000033
 51
269.9999999999993
  0
ARC
  5
1D7
330
15B
100
AcDbEntity
  8
P-SANR-FIXT
100
AcDbCircle
 10
1097.114353943098
 20
1999.982558850011
 30
0.0
 40
19.12435565297483
100
AcDbArc
 50
269.9999999999997
 51
89.99999999999934
  0
SPLINE
  5
1D8
330
15B
100
AcDbEntity
  8
P-SANR-FIXT
100
AcDbSpline
210
0.0
220
0.0
230
1.0
 70
     8
 71
     3
 72
    10
 73
     6
 74
     0
 42
0.000000001
 43
0.0000000001
 40
0.0
 40
0.0
 40
0.0
 40
0.0
 40
0.4
 40
0.7
 40
1.0
 40
1.0
 40
1.0
 40
1.0
 10
1117.324706932173
 20
2015.403788338385
 30
0.0
 10
1118.098221219778
 20
2014.957199656215
 30
0.0
 10
1119.311313180138
 20
2013.875954648592
 30
0.0
 10
1120.365038938554
 20
2011.802767585987
 30
0.0
 10
1120.574706932173
 20
2010.445885709543
 30
0.0
 10
1120.574706932173
 20
2009.774623213786
 30
0.0
  0
SPLINE
  5
1D9
330
15B
100
AcDbEntity
  8
P-SANR-FIXT
100
AcDbSpline
210
0.0
220
0.0
230
1.0
 70
    24
 71
     3
 72
     9
 73
     5
 74
     0
 42
0.000000001
 43
0.0000000001
 40
0.0
 40
0.0
 40
0.0
 40
0.0
 40
0.5
 40
1.0
 40
1.0
 40
1.0
 40
1.0
 10
1120.574706932173
 20
2009.774623213786
 30
0.0
 10
1120.574706932173
 20
2006.4634683534
 30
0.0
 10
1120.574706932173
 20
1999.888292038423
 30
0.0
 10
1120.574706932173
 20
1993.407382535041
 30
0.0
 10
1120.574706932173
 20
1990.190494486247
 30
0.0
  0
SPLINE
  5
1DA
330
15B
100
AcDbEntity
  8
P-SANR-FIXT
100
AcDbSpline
210
0.0
220
0.0
230
1.0
 70
     8
 71
     3
 72
    10
 73
     6
 74
     0
 42
0.000000001
 43
0.0000000001
 40
0.0
 40
0.0
 40
0.0
 40
0.0
 40
0.4
 40
0.7
 40
1.0
 40
1.0
 40
1.0
 40
1.0
 10
1120.574706932173
 20
1990.190494486247
 30
0.0
 10
1120.574706932173
 20
1989.295477825238
 30
0.0
 10
1120.244179640815
 20
1987.704492388319
 30
0.0
 10
1118.974773654187
 20
1985.755246676187
 30
0.0
 10
1117.904842647877
 20
1984.896270873277
 30
0.0
 10
1117.324706932173
 20
1984.561329361649
 30
0.0
  0
SPLINE
  5
1DB
330
15B
100
AcDbEntity
  8
P-SANR-FIXT
100
AcDbSpline
210
0.0
220
0.0
230
1.0
 70
    24
 71
     3
 72
     9
 73
     5
 74
     0
 42
0.000000001
 43
0.0000000001
 40
0.0
 40
0.0
 40
0.0
 40
0.0
 40
0.5
 40
1.0
 40
1.0
 40
1.0
 40
1.0
 10
1117.324706932173
 20
1984.561329361649
 30
0.0
 10
1114.457162707214
 20
1982.905751931455
 30
0.0
 10
1108.762892984083
 20
1979.618163773968
 30
0.0
 10
1103.150260714526
 20
1976.377709022276
 30
0.0
 10
1100.36435394314
 20
1974.76926499788
 30
0.0
  0
SPLINE
  5
1DC
330
15B
100
AcDbEntity
  8
P-SANR-FIXT
100
AcDbSpline
210
0.0
220
0.0
230
1.0
 70
     8
 71
     3
 72
     9
 73
     5
 74
     0
 42
0.000000001
 43
0.0000000001
 40
0.0
 40
0.0
 40
0.0
 40
0.0
 40
0.5
 40
1.0
 40
1.0
 40
1.0
 40
1.0
 10
1100.36435394314
 20
1974.76926499788
 30
0.0
 10
1099.879720190457
 20
1974.489461570309
 30
0.0
 10
1098.83098059902
 20
1974.051818697843
 30
0.0
 10
1097.689211101768
 20
1973.898430122474
 30
0.0
 10
1097.114353943098
 20
1973.898430122478
 30
0.0
  0
SPLINE
  5
1DD
330
15B
100
AcDbEntity
  8
P-SANR-FIXT
100
AcDbSpline
210
0.0
220
0.0
230
1.0
 70
     8
 71
     3
 72
     9
 73
     5
 74
     0
 42
0.000000001
 43
0.0000000001
 40
0.0
 40
0.0
 40
0.0
 40
0.0
 40
0.5
 40
1.0
 40
1.0
 40
1.0
 40
1.0
 10
1097.114353943098
 20
1973.898430122478
 30
0.0
 10
1096.539496784442
 20
1973.898430122482
 30
0.0
 10
1095.397727287221
 20
1974.051818697857
 30
0.0
 10
1094.348987695812
 20
1974.489461570317
 30
0.0
 10
1093.86435394314
 20
1974.76926499788
 30
0.0
  0
SPLINE
  5
1DE
330
15B
100
AcDbEntity
  8
P-SANR-FIXT
100
AcDbSpline
210
0.0
220
0.0
230
1.0
 70
    24
 71
     3
 72
     9
 73
     5
 74
     0
 42
0.000000001
 43
0.0000000001
 40
0.0
 40
0.0
 40
0.0
 40
0.0
 40
0.5
 40
1.0
 40
1.0
 40
1.0
 40
1.0
 10
1093.86435394314
 20
1974.76926499788
 30
0.0
 10
1090.996809718181
 20
1976.424842428073
 30
0.0
 10
1085.30253999505
 20
1979.712430585561
 30
0.0
 10
1079.689907725493
 20
1982.952885337252
 30
0.0
 10
1076.904000954107
 20
1984.561329361649
 30
0.0
  0
SPLINE
  5
1DF
330
15B
100
AcDbEntity
  8
P-SANR-FIXT
100
AcDbSpline
210
0.0
220
0.0
230
1.0
 70
     8
 71
     3
 72
    10
 73
     6
 74
     0
 42
0.000000001
 43
0.0000000001
 40
0.0
 40
0.0
 40
0.0
 40
0.0
 40
0.4
 40
0.7
 40
1.0
 40
1.0
 40
1.0
 40
1.0
 10
1076.904000954107
 20
1984.561329361649
 30
0.0
 10
1076.128893788863
 20
1985.008837692154
 30
0.0
 10
1074.916323629118
 20
1986.090575441573
 30
0.0
 10
1073.862930317508
 20
1988.164536129775
 30
0.0
 10
1073.654000954107
 20
1989.520611462992
 30
0.0
 10
1073.654000954107
 20
1990.190494486247
 30
0.0
  0
SPLINE
  5
1E0
330
15B
100
AcDbEntity
  8
P-SANR-FIXT
100
AcDbSpline
210
0.0
220
0.0
230
1.0
 70
    24
 71
     3
 72
     9
 73
     5
 74
     0
 42
0.000000001
 43
0.0000000001
 40
0.0
 40
0.0
 40
0.0
 40
0.0
 40
0.5
 40
1.0
 40
1.0
 40
1.0
 40
1.0
 10
1073.654000954107
 20
1990.190494486247
 30
0.0
 10
1073.654000954107
 20
1993.501649346634
 30
0.0
 10
1073.654000954107
 20
2000.076825661611
 30
0.0
 10
1073.654000954107
 20
2006.557735164994
 30
0.0
 10
1073.654000954107
 20
2009.774623213786
 30
0.0
  0
SPLINE
  5
1E1
330
15B
100
AcDbEntity
  8
P-SANR-FIXT
100
AcDbSpline
210
0.0
220
0.0
230
1.0
 70
     8
 71
     3
 72
    10
 73
     6
 74
     0
 42
0.000000001
 43
0.0000000001
 40
0.0
 40
0.0
 40
0.0
 40
0.0
 40
0.4
 40
0.7
 40
1.0
 40
1.0
 40
1.0
 40
1.0
 10
1073.654000954107
 20
2009.774623213786
 30
0.0
 10
1073.654000954107
 20
2010.669639874796
 30
0.0
 10
1073.984528245465
 20
2012.260625311715
 30
0.0
 10
1075.253934232093
 20
2014.209871023847
 30
0.0
 10
1076.323865238403
 20
2015.068846826757
 30
0.0
 10
1076.904000954107
 20
2015.403788338385
 30
0.0
  0
SPLINE
  5
1E2
330
15B
100
AcDbEntity
  8
P-SANR-FIXT
100
AcDbSpline
210
0.0
220
0.0
230
1.0
 70
    24
 71
     3
 72
     9
 73
     5
 74
     0
 42
0.000000001
 43
0.0000000001
 40
0.0
 40
0.0
 40
0.0
 40
0.0
 40
0.5
 40
1.0
 40
1.0
 40
1.0
 40
1.0
 10
1076.904000954107
 20
2015.403788338385
 30
0.0
 10
1079.771545179067
 20
2017.059365768579
 30
0.0
 10
1085.465814902198
 20
2020.346953926067
 30
0.0
 10
1091.078447171755
 20
2023.587408677758
 30
0.0
 10
1093.86435394314
 20
2025.195852702155
 30
0.0
  0
SPLINE
  5
1E3
330
15B
100
AcDbEntity
  8
P-SANR-FIXT
100
AcDbSpline
210
0.0
220
0.0
230
1.0
 70
     8
 71
     3
 72
     9
 73
     5
 74
     0
 42
0.000000001
 43
0.0000000001
 40
0.0
 40
0.0
 40
0.0
 40
0.0
 40
0.5
 40
1.0
 40
1.0
 40
1.0
 40
1.0
 10
1093.86435394314
 20
2025.195852702155
 30
0.0
 10
1094.348987695812
 20
2025.475656129718
 30
0.0
 10
1095.397727287221
 20
2025.913299002177
 30
0.0
 10
1096.539496784443
 20
2026.066687577552
 30
0.0
 10
1097.114353943098
 20
2026.066687577555
 30
0.0
  0
SPLINE
  5
1E4
330
15B
100
AcDbEntity
  8
P-SANR-FIXT
100
AcDbSpline
210
0.0
220
0.0
230
1.0
 70
     8
 71
     3
 72
     9
 73
     5
 74
     0
 42
0.000000001
 43
0.0000000001
 40
0.0
 40
0.0
 40
0.0
 40
0.0
 40
0.5
 40
1.0
 40
1.0
 40
1.0
 40
1.0
 10
1097.114353943098
 20
2026.066687577555
 30
0.0
 10
1097.689211101769
 20
2026.066687577559
 30
0.0
 10
1098.83098059902
 20
2025.913299002191
 30
0.0
 10
1099.879720190457
 20
2025.475656129724
 30
0.0
 10
1100.36435394314
 20
2025.195852702154
 30
0.0
  0
SPLINE
  5
1E5
330
15B
100
AcDbEntity
  8
P-SANR-FIXT
100
AcDbSpline
210
0.0
220
0.0
230
1.0
 70
    24
 71
     3
 72
     9
 73
     5
 74
     0
 42
0.000000001
 43
0.0000000001
 40
0.0
 40
0.0
 40
0.0
 40
0.0
 40
0.5
 40
1.0
 40
1.0
 40
1.0
 40
1.0
 10
1100.36435394314
 20
2025.195852702154
 30
0.0
 10
1103.2318981681
 20
2023.540275271961
 30
0.0
 10
1108.926167891231
 20
2020.252687114473
 30
0.0
 10
1114.538800160788
 20
2017.012232362782
 30
0.0
 10
1117.324706932173
 20
2015.403788338385
 30
0.0
  0
ARC
  5
1E6
330
15B
100
AcDbEntity
  8
P-SANR-FIXT
100
AcDbCircle
 10
1097.114353943098
 20
1999.982558850011
 30
0.0
 40
15.19999999998776
100
AcDbArc
 50
90.0
 51
269.9999999999997
  0
ARC
  5
1E7
330
15B
100
AcDbEntity
  8
P-SANR-FIXT
100
AcDbCircle
 10
1097.114353943098
 20
1999.982558850011
 30
0.0
 40
15.19999999998799
100
AcDbArc
 50
269.9999999999997
 51
89.99999999999914
  0
ARC
  5
1E8
330
15B
100
AcDbEntity
  8
P-SANR-FIXT
100
AcDbCircle
 10
1097.114353943098
 20
1999.982558850011
 30
0.0
 40
16.69999999998799
100
AcDbArc
 50
90.0
 51
269.9999999999997
  0
ARC
  5
1E9
330
15B
100
AcDbEntity
  8
P-SANR-FIXT
100
AcDbCircle
 10
1097.114353943098
 20
1999.982558850011
 30
0.0
 40
16.69999999998799
100
AcDbArc
 50
269.9999999999997
 51
90.0
  0
ARC
  5
1EA
330
15B
100
AcDbEntity
  8
P-SANR-FIXT
100
AcDbCircle
 10
1097.114353943098
 20
1999.982558850011
 30
0.0
 40
23.4999999999999
100
AcDbArc
 50
242.9999999999996
 51
243.1983231733172
  0
ARC
  5
1EB
330
15B
100
AcDbEntity
  8
P-SANR-FIXT
100
AcDbCircle
 10
1097.114353943098
 20
1999.982558850011
 30
0.0
 40
23.50000000000009
100
AcDbArc
 50
237.3219207191655
 51
239.8621024585474
  0
ARC
  5
1EC
330
15B
100
AcDbEntity
  8
P-SANR-FIXT
100
AcDbCircle
 10
1097.114353943098
 20
1999.982558850011
 30
0.0
 40
23.49999999999972
100
AcDbArc
 50
179.8274474289824
 51
180.0000000000003
  0
ARC
  5
1ED
330
15B
100
AcDbEntity
  8
P-SANR-FIXT
100
AcDbCircle
 10
1097.114353943098
 20
1999.982558850011
 30
0.0
 40
23.49999999999984
100
AcDbArc
 50
119.7956158579479
 51
122.6780792804202
  0
ARC
  5
1EE
330
15B
100
AcDbEntity
  8
P-SANR-FIXT
100
AcDbCircle
 10
1097.114353943098
 20
1999.982558850011
 30
0.0
 40
23.49999999999969
100
AcDbArc
 50
116.8016768269834
 51
117.0000000000003
  0
ARC
  5
1EF
330
15B
100
AcDbEntity
  8
P-SANR-FIXT
100
AcDbCircle
 10
1097.114353943098
 20
1999.982558850011
 30
0.0
 40
23.49999999999966
100
AcDbArc
 50
62.99999999999955
 51
63.19832317189838
  0
ARC
  5
1F0
330
15B
100
AcDbEntity
  8
P-SANR-FIXT
100
AcDbCircle
 10
1097.114353943098
 20
1999.982558850011
 30
0.0
 40
23.49999999999962
100
AcDbArc
 50
57.32192072114649
 51
59.86210245831108
  0
ARC
  5
1F1
330
15B
100
AcDbEntity
  8
P-SANR-FIXT
100
AcDbCircle
 10
1097.114353943098
 20
1999.982558850011
 30
0.0
 40
23.49999999999977
100
AcDbArc
 50
359.8274474290134
 51
0.0
  0
ARC
  5
1F2
330
15B
100
AcDbEntity
  8
P-SANR-FIXT
100
AcDbCircle
 10
1097.114353943098
 20
1999.982558850011
 30
0.0
 40
23.49999999999988
100
AcDbArc
 50
299.7956158581837
 51
302.6780792792643
  0
ARC
  5
1F3
330
15B
100
AcDbEntity
  8
P-SANR-FIXT
100
AcDbCircle
 10
1097.114353943098
 20
1999.982558850011
 30
0.0
 40
23.49999999999989
100
AcDbArc
 50
296.8016768278027
 51
296.9999999999998
  0
LWPOLYLINE
  5
1F4
330
15B
100
AcDbEntity
  8
P-SANR-FIXT
100
AcDbPolyline
 90
       14
 70
   128
 43
0.0
 10
1091.114376257427
 20
2085.628702761811
 10
1091.316169033759
 20
2084.120776442465
 10
1091.912293116178
 20
2082.665025253515
 10
1092.863418642466
 20
2081.410663913289
 10
1094.066278982703
 20
2080.483429969083
 10
1095.51547978569
 20
2079.868099577829
 10
1097.076255537368
 20
2079.645270835685
 10
1098.582880329511
 20
2079.833077847674
 10
1100.043812688381
 20
2080.415754746216
 10
1101.310607694584
 20
2081.35654098767
 10
1102.090359843626
 20
2082.298303285292
 10
1102.5385938699
 20
2083.094389005987
 10
1102.979395343079
 20
2084.397654179648
 10
1103.114331628773
 20
2085.628702761811
  0
LWPOLYLINE
  5
1F5
330
15B
100
AcDbEntity
  8
P-SANR-FIXT
100
AcDbPolyline
 90
        4
 70
   128
 43
0.0
 10
1091.1143539431
 20
2085.890758282093
 10
1091.1143539431
 20
2086.356453478361
 10
1091.1143539431
 20
2088.796490864549
 10
1091.1143539431
 20
2089.565749320699
  0
LWPOLYLINE
  5
1F6
330
15B
100
AcDbEntity
  8
P-SANR-FIXT
100
AcDbPolyline
 90
        4
 70
   128
 43
0.0
 10
1103.1143539431
 20
2089.446783118503
 10
1103.1143539431
 20
2088.796490864549
 10
1103.1143539431
 20
2086.356453478361
 10
1103.1143539431
 20
2085.890758282093
  0
LWPOLYLINE
  5
1F7
330
15B
100
AcDbEntity
  8
P-SANR-FIXT
100
AcDbPolyline
 90
        4
 70
   128
 43
0.0
 10
1103.1143539431
 20
2085.890758282093
 10
1103.1143539431
 20
2086.356453478361
 10
1103.1143539431
 20
2088.796490864549
 10
1103.1143539431
 20
2090.26457007462
  0
LWPOLYLINE
  5
1F8
330
15B
100
AcDbEntity
  8
P-SANR-FIXT
100
AcDbPolyline
 90
        4
 70
   128
 43
0.0
 10
1091.1143539431
 20
2090.26457007462
 10
1091.1143539431
 20
2088.796490864549
 10
1091.1143539431
 20
2086.356453478361
 10
1091.1143539431
 20
2085.890758282093
  0
ARC
  5
1F9
330
15B
100
AcDbEntity
  8
P-SANR-FIXT
100
AcDbCircle
 10
1097.114353943098
 20
2090.264570074619
 30
0.0
 40
5.999999999999974
100
AcDbArc
 50
127.5000000000023
 51
142.5000000000002
  0
ARC
  5
1FA
330
15B
100
AcDbEntity
  8
P-SANR-FIXT
100
AcDbCircle
 10
1097.114353943098
 20
2090.264570074619
 30
0.0
 40
5.999999999999901
100
AcDbArc
 50
97.50000000000374
 51
120.0000000000007
  0
ARC
  5
1FB
330
15B
100
AcDbEntity
  8
P-SANR-FIXT
100
AcDbCircle
 10
1097.114353943098
 20
2090.264570074619
 30
0.0
 40
5.999999999999772
100
AcDbArc
 50
75.00000000000082
 51
90.0
  0
ARC
  5
1FC
330
15B
100
AcDbEntity
  8
P-SANR-FIXT
100
AcDbCircle
 10
1097.114353943098
 20
2090.264570074619
 30
0.0
 40
5.999999999999798
100
AcDbArc
 50
52.50000000000141
 51
67.53859048222389
  0
ARC
  5
1FD
330
15B
100
AcDbEntity
  8
P-SANR-FIXT
100
AcDbCircle
 10
1097.114353943098
 20
2090.264570074619
 30
0.0
 40
5.999999999999727
100
AcDbArc
 50
37.5000000000024
 51
45.00000000000306
  0
ELLIPSE
  5
1FE
330
15B
100
AcDbEntity
  8
P-SANR-FIXT
100
AcDbEllipse
 10
1097.114353943098
 20
2085.890758282091
 30
0.0
 11
6.0
 21
0.0
 31
0.0
210
0.0
220
0.0
230
1.0
 40
0.9975640502598253
 41
0.0
 42
3.141592653589793
  0
ELLIPSE
  5
1FF
330
15B
100
AcDbEntity
  8
P-SANR-FIXT
100
AcDbEllipse
 10
1097.114353943098
 20
2085.890758282091
 30
0.0
 11
6.0
 21
0.0
 31
0.0
210
0.0
220
0.0
230
1.0
 40
0.9975640502598253
 41
3.141592653589793
 42
6.283185307179586
  0
LWPOLYLINE
  5
200
330
15B
100
AcDbEntity
  8
P-SANR-FIXT
100
AcDbPolyline
 90
       77
 70
   128
 43
0.0
 10
1097.1143539431
 20
2100.83602754218
 10
1096.69160839759
 20
2100.827571503768
 10
1096.269539154771
 20
2100.802216916389
 10
1095.848821435397
 20
2100.760004341975
 10
1095.430128298069
 20
2100.70100131164
 10
1095.014129562491
 20
2100.625302217645
 10
1094.601490737898
 20
2100.533028162394
 10
1094.192871958384
 20
2100.42432676469
 10
1093.78892692683
 20
2100.29937192358
 10
1093.390301869115
 20
2100.158363540155
 10
1092.997634500296
 20
2100.00152719775
 10
1092.6115530044
 20
2099.829113801054
 10
1092.232675029458
 20
2099.641399174723
 10
1091.86160669941
 20
2099.438683622115
 10
1091.498941644424
 20
2099.221291444871
 10
1091.145260051226
 20
2098.9895704241
 10
1090.801127734917
 20
2098.743891264004
 10
1090.46709523379
 20
2098.48464699883
 10
1090.143696928593
 20
2098.212252364101
 10
1089.831450187624
 20
2097.927143133123
 10
1089.53085453906
 20
2097.629775419846
 10
1089.242390871817
 20
2097.320624949179
 10
1088.966520666225
 20
2097.000186295922
 10
1088.703685255764
 20
2096.668972093567
 10
1088.454305121022
 20
2096.32751221418
 10
1088.218779217018
 20
2095.97635292073
 10
1087.997484334953
 20
2095.616055993174
 10
1087.790774499433
 20
2095.247197829737
 10
1087.598980402099
 20
2094.870368524797
 10
1087.422408872592
 20
2094.486170924854
 10
1087.261342387694
 20
2094.095219664111
 10
1087.116038619421
 20
2093.698140181186
 10
1086.986730022805
 20
2093.295567718547
 10
1086.873623464017
 20
2092.888146306256
 10
1086.776899889422
 20
2092.47652773166
 10
1086.696714036109
 20
2092.061370496673
 10
1086.633194184335
 20
2091.643338764306
 10
1086.586441952313
 20
2091.22310129616
 10
1086.556532133641
 20
2090.801330382533
 10
1086.54351257765
 20
2090.378700766917
 10
1086.547404112851
 20
2089.955888566539
 10
1086.568200513618
 20
2089.533570190726
 10
1086.605868510146
 20
2089.112421258789
 10
1086.660347841676
 20
2088.693115519178
 10
1086.731551352899
 20
2088.276323771632
 10
1086.819365133387
 20
2087.862712794032
 10
1086.923648699823
 20
2087.452944275713
 10
1087.044235220748
 20
2087.04767375889
 10
1087.18093178345
 20
2086.647549589938
 10
1087.333519702591
 20
2086.253211882172
 10
1087.501754870051
 20
2085.865291491803
 10
1087.685368145448
 20
2085.484409008703
 10
1087.884065786712
 20
2085.111173763596
 10
1088.097529920004
 20
2084.746182853254
 10
1088.325419048245
 20
2084.390020185273
 10
1088.567368597446
 20
2084.043255543944
 10
1088.82299149994
 20
2083.706443678721
 10
1089.091878813614
 20
2083.38012341674
 10
1089.373600376124
 20
2083.064816800808
 10
1089.667705493069
 20
2082.761028254248
 10
1089.973723659001
 20
2082.46924377393
 10
1090.291165310134
 20
2082.18993015278
 10
1090.619522607543
 20
2081.923534233006
 10
1090.9582702496
 20
2081.670482191253
 10
1091.306866312338
 20
2081.431178856805
 10
1091.66475311642
 20
2081.206007063951
 10
1092.031358119306
 20
2080.995327039522
 10
1092.406094831196
 20
2080.799475826617
 10
1092.788363753289
 20
2080.618766745395
 10
1093.177553336858
 20
2080.453488891839
 10
1093.57304096159
 20
2080.303906675257
 10
1093.974193931653
 20
2080.170259395285
 10
1094.380370487869
 20
2080.052760859063
 10
1094.790920834395
 20
2079.951599039182
 10
1095.205188178256
 20
2079.866935772974
 10
1095.622509780073
 20
2079.798906503606
 10
1095.837641137191
 20
2079.772618428738
  0
LWPOLYLINE
  5
201
330
15B
100
AcDbEntity
  8
P-SANR-FIXT
100
AcDbPolyline
 90
       77
 70
   128
 43
0.0
 10
1098.488945088787
 20
2079.784504557196
 10
1098.79857958813
 20
2079.8281388376
 10
1099.214578323708
 20
2079.903837931595
 10
1099.627217148301
 20
2079.996111986847
 10
1100.035835927815
 20
2080.104813384551
 10
1100.439780959369
 20
2080.229768225661
 10
1100.838406017084
 20
2080.370776609085
 10
1101.231073385903
 20
2080.52761295149
 10
1101.6171548818
 20
2080.700026348186
 10
1101.996032856741
 20
2080.887740974518
 10
1102.36710118679
 20
2081.090456527125
 10
1102.729766241775
 20
2081.307848704369
 10
1103.083447834973
 20
2081.53956972514
 10
1103.427580151283
 20
2081.785248885236
 10
1103.761612652409
 20
2082.04449315041
 10
1104.085010957607
 20
2082.31688778514
 10
1104.397257698575
 20
2082.601997016117
 10
1104.697853347139
 20
2082.899364729394
 10
1104.986317014382
 20
2083.208515200062
 10
1105.262187219975
 20
2083.528953853318
 10
1105.525022630436
 20
2083.860168055673
 10
1105.774402765177
 20
2084.20162793506
 10
1106.009928669182
 20
2084.552787228511
 10
1106.231223551246
 20
2084.913084156067
 10
1106.437933386766
 20
2085.281942319503
 10
1106.6297274841
 20
2085.658771624443
 10
1106.806299013607
 20
2086.042969224386
 10
1106.967365498505
 20
2086.433920485129
 10
1107.112669266779
 20
2086.830999968054
 10
1107.241977863395
 20
2087.233572430694
 10
1107.355084422183
 20
2087.640993842985
 10
1107.451807996777
 20
2088.05261241758
 10
1107.531993850091
 20
2088.467769652568
 10
1107.595513701865
 20
2088.885801384934
 10
1107.642265933887
 20
2089.306038853081
 10
1107.672175752558
 20
2089.727809766708
 10
1107.685195308549
 20
2090.150439382324
 10
1107.681303773348
 20
2090.573251582701
 10
1107.660507372581
 20
2090.995569958514
 10
1107.622839376054
 20
2091.416718890451
 10
1107.568360044523
 20
2091.836024630062
 10
1107.4971565333
 20
2092.252816377609
 10
1107.409342752812
 20
2092.666427355208
 10
1107.305059186376
 20
2093.076195873528
 10
1107.184472665451
 20
2093.48146639035
 10
1107.047776102749
 20
2093.881590559302
 10
1106.895188183607
 20
2094.275928267068
 10
1106.726953016149
 20
2094.663848657438
 10
1106.543339740751
 20
2095.044731140538
 10
1106.344642099487
 20
2095.417966385644
 10
1106.131177966195
 20
2095.782957295987
 10
1105.903288837954
 20
2096.139119963968
 10
1105.661339288753
 20
2096.485884605296
 10
1105.405716386259
 20
2096.822696470519
 10
1105.136829072586
 20
2097.1490167325
 10
1104.855107510075
 20
2097.464323348433
 10
1104.56100239313
 20
2097.768111894993
 10
1104.254984227199
 20
2098.05989637531
 10
1103.937542576066
 20
2098.339209996461
 10
1103.609185278656
 20
2098.605605916235
 10
1103.2704376366
 20
2098.858657957987
 10
1102.921841573862
 20
2099.097961292435
 10
1102.563954769779
 20
2099.32313308529
 10
1102.197349766893
 20
2099.533813109718
 10
1101.822613055004
 20
2099.729664322624
 10
1101.44034413291
 20
2099.910373403845
 10
1101.051154549342
 20
2100.075651257401
 10
1100.655666924609
 20
2100.225233473983
 10
1100.254513954546
 20
2100.358880753955
 10
1099.84833739833
 20
2100.476379290178
 10
1099.437787051804
 20
2100.577541110059
 10
1099.023519707944
 20
2100.662204376266
 10
1098.606198106127
 20
2100.730233645634
 10
1098.186489871891
 20
2100.781520085845
 10
1097.76506644888
 20
2100.815981649535
 10
1097.342602024671
 20
2100.833563205552
 10
1097.1143539431
 20
2100.83602754218
  0
LINE
  5
202
330
15B
100
AcDbEntity
  8
P-SANR-FIXT
100
AcDbLine
 10
1083.618910002218
 20
2049.482558850051
 30
0.0
 11
1083.618910002218
 21
2023.232558850051
 31
0.0
  0
LINE
  5
203
330
15B
100
AcDbEntity
  8
P-SANR-FIXT
100
AcDbLine
 10
1110.609797883981
 20
2023.232558850051
 30
0.0
 11
1110.609797883981
 21
2049.482558850051
 31
0.0
  0
LINE
  5
204
330
15B
100
AcDbEntity
  8
P-SANR-FIXT
100
AcDbLine
 10
1087.124992056696
 20
2106.482558850051
 30
0.0
 11
1087.124992056696
 21
2104.482558850051
 31
0.0
  0
LINE
  5
205
330
15B
100
AcDbEntity
  8
P-SANR-FIXT
100
AcDbLine
 10
1107.103715829504
 20
2104.482558850051
 30
0.0
 11
1107.103715829504
 21
2106.482558850051
 31
0.0
  0
LINE
  5
206
330
15B
100
AcDbEntity
  8
P-SANR-FIXT
100
AcDbLine
 10
1083.618910002217
 20
2023.23255885005
 30
0.0
 11
1090.457576296179
 21
2023.23255885005
 31
0.0
  0
LINE
  5
207
330
15B
100
AcDbEntity
  8
P-SANR-FIXT
100
AcDbLine
 10
1103.771131590102
 20
2023.23255885005
 30
0.0
 11
1110.60979788398
 21
2023.23255885005
 31
0.0
  0
LINE
  5
208
330
15B
100
AcDbEntity
  8
P-SANR-FIXT
100
AcDbLine
 10
1087.124992056694
 20
2106.482558850049
 30
0.0
 11
1097.114353943098
 21
2106.482558850049
 31
0.0
  0
LINE
  5
209
330
15B
100
AcDbEntity
  8
P-SANR-FIXT
100
AcDbLine
 10
1097.114353943098
 20
2106.482558850049
 30
0.0
 11
1107.103715829502
 21
2106.482558850049
 31
0.0
  0
LINE
  5
20A
330
15B
100
AcDbEntity
  8
P-SANR-FIXT
100
AcDbLine
 10
1063.114353943099
 20
2049.482558850051
 30
0.0
 11
1131.1143539431
 21
2049.482558850051
 31
0.0
  0
LINE
  5
20B
330
15B
100
AcDbEntity
  8
P-SANR-FIXT
100
AcDbLine
 10
1131.114353943098
 20
2061.48255885005
 30
0.0
 11
1131.114353943098
 21
2049.48255885005
 31
0.0
  0
LINE
  5
20C
330
15B
100
AcDbEntity
  8
P-SANR-FIXT
100
AcDbLine
 10
1131.114353943098
 20
2074.48255885005
 30
0.0
 11
1131.114353943098
 21
2061.48255885005
 31
0.0
  0
LINE
  5
20D
330
15B
100
AcDbEntity
  8
P-SANR-FIXT
100
AcDbLine
 10
1063.114353943098
 20
2061.48255885005
 30
0.0
 11
1063.114353943098
 21
2074.48255885005
 31
0.0
  0
LINE
  5
20E
330
15B
100
AcDbEntity
  8
P-SANR-FIXT
100
AcDbLine
 10
1063.114353943098
 20
2049.48255885005
 30
0.0
 11
1063.114353943098
 21
2061.48255885005
 31
0.0
  0
LINE
  5
20F
330
15B
100
AcDbEntity
  8
P-SANR-FIXT
100
AcDbLine
 10
1063.114353943098
 20
2074.48255885005
 30
0.0
 11
1131.114353943098
 21
2074.48255885005
 31
0.0
  0
LINE
  5
210
330
15B
100
AcDbEntity
  8
P-SANR-FIXT
100
AcDbLine
 10
1131.1143539431
 20
2104.482558850051
 30
0.0
 11
1063.1143539431
 21
2104.482558850051
 31
0.0
  0
LINE
  5
211
330
15B
100
AcDbEntity
  8
P-SANR-FIXT
100
AcDbLine
 10
1131.114353943098
 20
2104.482558850051
 30
0.0
 11
1131.114353943098
 21
2099.48255885005
 31
0.0
  0
LINE
  5
212
330
15B
100
AcDbEntity
  8
P-SANR-FIXT
100
AcDbLine
 10
1131.114353943098
 20
2099.48255885005
 30
0.0
 11
1131.114353943098
 21
2074.48255885005
 31
0.0
  0
LINE
  5
213
330
15B
100
AcDbEntity
  8
P-SANR-FIXT
100
AcDbLine
 10
1063.114353943098
 20
2074.48255885005
 30
0.0
 11
1063.114353943098
 21
2099.48255885005
 31
0.0
  0
LINE
  5
214
330
15B
100
AcDbEntity
  8
P-SANR-FIXT
100
AcDbLine
 10
1063.114353943098
 20
2099.48255885005
 30
0.0
 11
1063.114353943098
 21
2104.482558850051
 31
0.0
  0
LINE
  5
215
330
15B
100
AcDbEntity
  8
P-SANR-FIXT
100
AcDbLine
 10
1063.114353943098
 20
2074.48255885005
 30
0.0
 11
1131.114353943098
 21
2074.48255885005
 31
0.0
  0
LWPOLYLINE
  5
216
330
15B
100
AcDbEntity
  8
P-SANR-FIXT
100
AcDbPolyline
 90
        4
 70
   128
 43
0.0
 10
1099.1143539431
 20
1913.162558849939
 10
1099.1143539431
 20
1915.1701008634
 10
1099.1143539431
 20
1921.192726903781
 10
1099.1143539431
 20
1931.230436971083
  0
LWPOLYLINE
  5
217
330
15B
100
AcDbEntity
  8
P-SANR-FIXT
100
AcDbPolyline
 90
        4
 70
   128
 43
0.0
 10
1095.1143539431
 20
1931.230436971083
 10
1095.1143539431
 20
1921.192726903781
 10
1095.1143539431
 20
1915.1701008634
 10
1095.1143539431
 20
1913.162558849939
  0
LWPOLYLINE
  5
218
330
15B
100
AcDbEntity
  8
P-SANR-FIXT
100
AcDbPolyline
 90
        3
 70
   128
 43
0.0
 10
1095.1143539431
 20
1914.780474280125
 10
1095.1143539431
 20
1915.1701008634
 10
1095.1143539431
 20
1917.014253242324
  0
LWPOLYLINE
  5
219
330
15B
100
AcDbEntity
  8
P-SANR-FIXT
100
AcDbPolyline
 90
        3
 70
   128
 43
0.0
 10
1095.1143539431
 20
1919.377780453664
 10
1095.1143539431
 20
1921.192726903781
 10
1095.1143539431
 20
1924.162502030563
  0
LINE
  5
21A
330
15B
100
AcDbEntity
  8
P-SANR-FIXT
100
AcDbLine
 10
1095.1143539431
 20
1929.194919645095
 30
0.0
 11
1095.1143539431
 21
1929.544744875029
 31
0.0
  0
LINE
  5
21B
330
15B
100
AcDbEntity
  8
P-SANR-FIXT
100
AcDbLine
 10
1095.1143539431
 20
1929.736074482638
 30
0.0
 11
1095.1143539431
 21
1931.230436971083
 31
0.0
  0
LINE
  5
21C
330
15B
100
AcDbEntity
  8
P-SANR-FIXT
100
AcDbLine
 10
1099.1143539431
 20
1931.230436971083
 30
0.0
 11
1099.1143539431
 21
1929.736074426728
 31
0.0
  0
LINE
  5
21D
330
15B
100
AcDbEntity
  8
P-SANR-FIXT
100
AcDbLine
 10
1099.1143539431
 20
1929.544744936475
 30
0.0
 11
1099.1143539431
 21
1929.194919645095
 31
0.0
  0
LWPOLYLINE
  5
21E
330
15B
100
AcDbEntity
  8
P-SANR-FIXT
100
AcDbPolyline
 90
        3
 70
   128
 43
0.0
 10
1099.1143539431
 20
1922.90439762693
 10
1099.1143539431
 20
1921.192726903781
 10
1099.1143539431
 20
1919.37977537136
  0
LWPOLYLINE
  5
21F
330
15B
100
AcDbEntity
  8
P-SANR-FIXT
100
AcDbPolyline
 90
        3
 70
   128
 43
0.0
 10
1099.1143539431
 20
1917.011430340715
 10
1099.1143539431
 20
1915.1701008634
 10
1099.1143539431
 20
1914.845208090092
  0
ELLIPSE
  5
220
330
15B
100
AcDbEntity
  8
P-SANR-FIXT
100
AcDbEllipse
 10
1097.114353943098
 20
1931.230436971082
 30
0.0
 11
2.0
 21
0.0
 31
0.0
210
0.0
220
0.0
230
1.0
 40
0.4226182617406949
 41
0.0
 42
3.141592653589793
  0
ELLIPSE
  5
221
330
15B
100
AcDbEntity
  8
P-SANR-FIXT
100
AcDbEllipse
 10
1097.114353943098
 20
1931.230436971082
 30
0.0
 11
2.0
 21
0.0
 31
0.0
210
0.0
220
0.0
230
1.0
 40
0.4226182617405812
 41
3.141592653589793
 42
3.403239376995833
  0
ELLIPSE
  5
222
330
15B
100
AcDbEntity
  8
P-SANR-FIXT
100
AcDbEllipse
 10
1097.114353943098
 20
1931.230436971082
 30
0.0
 11
2.00000000000006
 21
0.0
 31
0.0
210
0.0
220
0.0
230
1.0
 40
0.4226182617406313
 41
3.403392041388844
 42
3.665124294234103
  0
ELLIPSE
  5
223
330
15B
100
AcDbEntity
  8
P-SANR-FIXT
100
AcDbEllipse
 10
1097.114353943098
 20
1931.230436971082
 30
0.0
 11
1.999999999999967
 21
0.0
 31
0.0
210
0.0
220
0.0
230
1.0
 40
0.4226182617406872
 41
3.665191429187986
 42
5.75958653158138
  0
ELLIPSE
  5
224
330
15B
100
AcDbEntity
  8
P-SANR-FIXT
100
AcDbEllipse
 10
1097.114353943098
 20
1931.230436971082
 30
0.0
 11
2.000000000000067
 21
0.0
 31
0.0
210
0.0
220
0.0
230
1.0
 40
0.4226182617406992
 41
5.759653666535332
 42
6.021385919380563
  0
ELLIPSE
  5
225
330
15B
100
AcDbEntity
  8
P-SANR-FIXT
100
AcDbEllipse
 10
1097.114353943098
 20
1931.230436971082
 30
0.0
 11
2.000000000000055
 21
0.0
 31
0.0
210
0.0
220
0.0
230
1.0
 40
0.4226182617407978
 41
6.02153858377369
 42
6.283185307179586
  0
SPLINE
  5
226
330
15B
100
AcDbEntity
  8
P-SANR-FIXT
100
AcDbSpline
210
0.0
220
0.0
230
1.0
 70
     8
 71
     3
 72
     8
 73
     4
 74
     0
 42
0.000000001
 43
0.0000000001
 40
0.7142857142857144
 40
0.7142857142857144
 40
0.7142857142857144
 40
0.7142857142857144
 40
0.8571428571428571
 40
0.8571428571428571
 40
0.8571428571428571
 40
0.8571428571428571
 10
1096.247762592406
 20
1911.362631399994
 30
0.0
 10
1096.382640266986
 20
1911.297999910804
 30
0.0
 10
1096.52358537463
 20
1911.239527550235
 30
0.0
 10
1096.670116382157
 20
1911.214132351323
 30
0.0
  0
SPLINE
  5
227
330
15B
100
AcDbEntity
  8
P-SANR-FIXT
100
AcDbSpline
210
0.0
220
0.0
230
1.0
 70
     8
 71
     3
 72
     8
 73
     4
 74
     0
 42
0.000000001
 43
0.0000000001
 40
0.1428571428571428
 40
0.1428571428571428
 40
0.1428571428571428
 40
0.1428571428571428
 40
0.2857142857142857
 40
0.2857142857142857
 40
0.2857142857142857
 40
0.2857142857142857
 10
1097.558591504039
 20
1911.214132351323
 30
0.0
 10
1097.704181150041
 20
1911.24799261654
 30
0.0
 10
1097.846240539307
 20
1911.297890998185
 30
0.0
 10
1097.980945293791
 20
1911.362631399994
 30
0.0
  0
ARC
  5
228
330
15B
100
AcDbEntity
  8
P-SANR-FIXT
100
AcDbCircle
 10
1097.114353943098
 20
1913.162558849938
 30
0.0
 40
2.500000000000321
100
AcDbArc
 50
145.8245771361807
 51
269.9999999999997
  0
ARC
  5
229
330
15B
100
AcDbEntity
  8
P-SANR-FIXT
100
AcDbCircle
 10
1097.114353943098
 20
1913.162558849938
 30
0.0
 40
2.499999999999772
100
AcDbArc
 50
269.9999999999997
 51
34.17542286381704
  0
ARC
  5
22A
330
15B
100
AcDbEntity
  8
P-SANR-FIXT
100
AcDbCircle
 10
1097.114353943098
 20
1913.162558849938
 30
0.0
 40
3.95117105123091
100
AcDbArc
 50
120.5360424695488
 51
269.9999999999997
  0
ARC
  5
22B
330
15B
100
AcDbEntity
  8
P-SANR-FIXT
100
AcDbCircle
 10
1097.114353943098
 20
1913.162558849938
 30
0.0
 40
3.95117105123063
100
AcDbArc
 50
269.9999999999997
 51
59.46395753044871
  0
LINE
  5
22C
330
15B
100
AcDbEntity
  8
P-SANR-FIXT
100
AcDbLine
 10
1121.264584779884
 20
1880.482558849941
 30
0.0
 11
1127.934584779884
 21
1880.482558849941
 31
0.0
  0
LINE
  5
22D
330
15B
100
AcDbEntity
  8
P-SANR-FIXT
100
AcDbLine
 10
1127.934584779884
 20
1926.482558849941
 30
0.0
 11
1121.264584779884
 21
1926.482558849941
 31
0.0
  0
LINE
  5
22E
330
15B
100
AcDbEntity
  8
P-SANR-FIXT
100
AcDbLine
 10
1127.934584779884
 20
1880.482558849941
 30
0.0
 11
1128.434584779884
 21
1880.982558849941
 31
0.0
  0
LINE
  5
22F
330
15B
100
AcDbEntity
  8
P-SANR-FIXT
100
AcDbLine
 10
1128.434584779884
 20
1925.982558849941
 30
0.0
 11
1127.934584779884
 21
1926.482558849942
 31
0.0
  0
LINE
  5
230
330
15B
100
AcDbEntity
  8
P-SANR-FIXT
100
AcDbLine
 10
1128.434584779882
 20
1925.982558849941
 30
0.0
 11
1128.434584779882
 21
1880.982558849941
 31
0.0
  0
LINE
  5
231
330
15B
100
AcDbEntity
  8
P-SANR-FIXT
100
AcDbLine
 10
1121.264584779883
 20
1903.48255884994
 30
0.0
 11
1121.264584779883
 21
1926.48255884994
 31
0.0
  0
LINE
  5
232
330
15B
100
AcDbEntity
  8
P-SANR-FIXT
100
AcDbLine
 10
1121.264584779883
 20
1880.482558849941
 30
0.0
 11
1121.264584779883
 21
1903.48255884994
 31
0.0
  0
LINE
  5
233
330
15B
100
AcDbEntity
  8
P-SANR-FIXT
100
AcDbLine
 10
1127.934584779882
 20
1880.482558849941
 30
0.0
 11
1127.934584779882
 21
1903.48255884994
 31
0.0
  0
LINE
  5
234
330
15B
100
AcDbEntity
  8
P-SANR-FIXT
100
AcDbLine
 10
1127.934584779882
 20
1903.48255884994
 30
0.0
 11
1127.934584779882
 21
1926.48255884994
 31
0.0
  0
LINE
  5
235
330
15B
100
AcDbEntity
  8
P-SANR-FIXT
100
AcDbLine
 10
1084.614353943099
 20
2023.232558850051
 30
0.0
 11
1084.614353943099
 21
2019.885102769069
 31
0.0
  0
LINE
  5
236
330
15B
100
AcDbEntity
  8
P-SANR-FIXT
100
AcDbLine
 10
1109.6143539431
 20
2019.885102769069
 30
0.0
 11
1109.6143539431
 21
2023.232558850051
 31
0.0
  0
LINE
  5
237
330
15B
100
AcDbEntity
  8
P-SANR-FIXT
100
AcDbLine
 10
1077.8643539431
 20
1984.006869304939
 30
0.0
 11
1077.8643539431
 21
1960.982558850011
 31
0.0
  0
LINE
  5
238
330
15B
100
AcDbEntity
  8
P-SANR-FIXT
100
AcDbLine
 10
1116.3643539431
 20
1960.982558850011
 30
0.0
 11
1116.3643539431
 21
1984.00686930489
 31
0.0
  0
LINE
  5
239
330
15B
100
AcDbEntity
  8
P-SANR-FIXT
100
AcDbLine
 10
1077.8643539431
 20
1960.982558850011
 30
0.0
 11
1078.864353943099
 21
1959.982558850011
 31
0.0
  0
LINE
  5
23A
330
15B
100
AcDbEntity
  8
P-SANR-FIXT
100
AcDbLine
 10
1115.3643539431
 20
1959.982558850011
 30
0.0
 11
1116.3643539431
 21
1960.982558850011
 31
0.0
  0
SPLINE
  5
23B
330
15B
100
AcDbEntity
  8
P-SANR-FIXT
100
AcDbSpline
210
0.0
220
0.0
230
1.0
 70
     8
 71
     3
 72
     8
 73
     4
 74
     0
 42
0.000000001
 43
0.0000000001
 40
0.8648561905544008
 40
0.8648561905544008
 40
0.8648561905544008
 40
0.8648561905544008
 40
0.875
 40
0.875
 40
0.875
 40
0.875
 10
1086.442920865654
 20
2020.920040645283
 30
0.0
 10
1086.424087203067
 20
2020.910440620841
 30
0.0
 10
1086.405588196622
 20
2020.900932998946
 30
0.0
 10
1086.387374968111
 20
2020.891504239694
 30
0.0
  0
SPLINE
  5
23C
330
15B
100
AcDbEntity
  8
P-SANR-FIXT
100
AcDbSpline
210
0.0
220
0.0
230
1.0
 70
     8
 71
     3
 72
     8
 73
     4
 74
     0
 42
0.000000001
 43
0.0000000001
 40
0.5555555555555558
 40
0.5555555555555558
 40
0.5555555555555558
 40
0.5555555555555558
 40
0.5645286794988475
 40
0.5645286794988475
 40
0.5645286794988475
 40
0.5645286794988475
 10
1086.258110758898
 20
1979.14052746568
 30
0.0
 10
1086.318924024135
 20
1979.108848095793
 30
0.0
 10
1086.380047330557
 20
1979.07736611863
 30
0.0
 10
1086.441468176089
 20
1979.046072988445
 30
0.0
  0
SPLINE
  5
23D
330
15B
100
AcDbEntity
  8
P-SANR-FIXT
100
AcDbSpline
210
0.0
220
0.0
230
1.0
 70
     8
 71
     3
 72
     8
 73
     4
 74
     0
 42
0.000000001
 43
0.0000000001
 40
0.4354713205011528
 40
0.4354713205011528
 40
0.4354713205011528
 40
0.4354713205011528
 40
0.4444444444444446
 40
0.4444444444444446
 40
0.4444444444444446
 40
0.4444444444444446
 10
1107.787260517091
 20
1979.046040590073
 30
0.0
 10
1107.84867080083
 20
1979.077350165934
 30
0.0
 10
1107.909770961463
 20
1979.108846921727
 30
0.0
 10
1107.970563807236
 20
1979.140524433266
 30
0.0
  0
SPLINE
  5
23E
330
15B
100
AcDbEntity
  8
P-SANR-FIXT
100
AcDbSpline
210
0.0
220
0.0
230
1.0
 70
     8
 71
     3
 72
     8
 73
     4
 74
     0
 42
0.000000001
 43
0.0000000001
 40
0.125
 40
0.125
 40
0.125
 40
0.125
 40
0.1351438094455707
 40
0.1351438094455707
 40
0.1351438094455707
 40
0.1351438094455707
 10
1107.841925534648
 20
2020.891328456563
 30
0.0
 10
1107.823333258801
 20
2020.900869649608
 30
0.0
 10
1107.804637079781
 20
2020.91044465539
 30
0.0
 10
1107.785832218708
 20
2020.920051766712
 30
0.0
  0
SPLINE
  5
23F
330
15B
100
AcDbEntity
  8
P-SANR-FIXT
100
AcDbSpline
210
0.0
220
0.0
230
1.0
 70
     8
 71
     3
 72
     8
 73
     4
 74
     0
 42
0.000000001
 43
0.0000000001
 40
0.1428571428571428
 40
0.1428571428571428
 40
0.1428571428571428
 40
0.1428571428571428
 40
0.2380952380952381
 40
0.2380952380952381
 40
0.2380952380952381
 40
0.2380952380952381
 10
1084.822203817749
 20
2020.011364238648
 30
0.0
 10
1084.69875399314
 20
2019.93562690767
 30
0.0
 10
1084.628508414503
 20
2019.891689609835
 30
0.0
 10
1084.616740755951
 20
2019.884132012636
 30
0.0
  0
SPLINE
  5
240
330
15B
100
AcDbEntity
  8
P-SANR-FIXT
100
AcDbSpline
210
0.0
220
0.0
230
1.0
 70
     8
 71
     3
 72
     9
 73
     5
 74
     0
 42
0.000000001
 43
0.0000000001
 40
0.7619047619047618
 40
0.7619047619047618
 40
0.7619047619047618
 40
0.7619047619047618
 40
0.7857142857142857
 40
0.8095238095238093
 40
0.8095238095238093
 40
0.8095238095238093
 40
0.8095238095238093
 10
1109.609904465532
 20
2019.88500223883
 30
0.0
 10
1109.606781932562
 20
2019.886952543661
 30
0.0
 10
1109.599129752167
 20
2019.892357883598
 30
0.0
 10
1109.555348615033
 20
2019.918426228251
 30
0.0
 10
1109.526384425722
 20
2019.935512680987
 30
0.0
  0
LINE
  5
241
330
15B
100
AcDbEntity
  8
P-SANR-FIXT
100
AcDbLine
 10
1077.864353943098
 20
1960.98255885001
 30
0.0
 11
1097.114353943098
 21
1960.98255885001
 31
0.0
  0
LINE
  5
242
330
15B
100
AcDbEntity
  8
P-SANR-FIXT
100
AcDbLine
 10
1097.114353943098
 20
1960.98255885001
 30
0.0
 11
1116.364353943098
 21
1960.98255885001
 31
0.0
  0
LINE
  5
243
330
15B
100
AcDbEntity
  8
P-SANR-FIXT
100
AcDbLine
 10
1097.114353943098
 20
1959.982558850011
 30
0.0
 11
1078.864353943098
 21
1959.982558850011
 31
0.0
  0
LINE
  5
244
330
15B
100
AcDbEntity
  8
P-SANR-FIXT
100
AcDbLine
 10
1115.364353943098
 20
1959.982558850011
 30
0.0
 11
1097.114353943099
 21
1959.982558850011
 31
0.0
  0
ENDBLK
  5
246
330
15B
100
AcDbEntity
  8
0
100
AcDbBlockEnd
  0
ENDSEC
  0
SECTION
  2
ENTITIES
  0
INSERT
  5
15A
330
71
100
AcDbEntity
  8
P-SANR-FIXT
100
AcDbBlockReference
  2
Automatic flow rate regulator valve_Caleffi_121 DN15 - 1_2__-859151-Est - Idraulica
 10
0.0
 20
0.0
 30
0.0
1001
REVIT
1002
{
1070
     1
1000
863131
1002
}
1002
{
1070
     5
1000
859151
1002
}
1002
{
1070
     2
1000
-2001160
1002
}
  0
INSERT
  5
247
330
71
100
AcDbEntity
  8
P-SANR-FIXT
100
AcDbBlockReference
  2
Automatic flow rate regulator valve_Caleffi_121 DN15 - 1_2__-V1-Est - Idraulica
 10
0.0
 20
0.0
 30
0.0
1001
REVIT
1002
{
1070
     1
1000
863172
1002
}
1002
{
1070
     5
1000
859151
1002
}
1002
{
1070
     2
1000
-2001160
1002
}
  0
ENDSEC
  0
SECTION
  2
OBJECTS
  0
DICTIONARY
  5
C
330
0
100
AcDbDictionary
281
     1
  3
ACAD_CIP_PREVIOUS_PRODUCT_INFO
350
7A
  3
ACAD_COLOR
350
63
  3
ACAD_DETAILVIEWSTYLE
350
6B
  3
ACAD_GROUP
350
D
  3
ACAD_IMAGE_VARS
350
7B
  3
ACAD_LAYOUT
350
62
  3
ACAD_MATERIAL
350
10
  3
ACAD_MLEADERSTYLE
350
66
  3
ACAD_MLINESTYLE
350
5F
  3
ACAD_PLOTSETTINGS
350
61
  3
ACAD_PLOTSTYLENAME
350
E
  3
ACAD_SCALELIST
350
42
  3
ACAD_SECTIONVIEWSTYLE
350
68
  3
ACAD_TABLESTYLE
350
64
  3
ACAD_VISUALSTYLE
350
29
  3
ACDB_RECOMPOSE_DATA
350
251
  3
AcDbVariableDictionary
350
7C
  3
REVIT_DICTIONARY
350
249
  0
DICTIONARY
  5
24D
330
71
100
AcDbDictionary
280
     1
281
     1
  3
ACAD_SORTENTS
360
24E
  0
XRECORD
  5
7A
102
{ACAD_REACTORS
330
C
102
}
330
C
100
AcDbXrecord
280
     1
300
RVT
300
2013
300
RVT2013
  0
DICTIONARY
  5
63
102
{ACAD_REACTORS
330
C
102
}
330
C
100
AcDbDictionary
281
     1
  0
DICTIONARY
  5
6B
102
{ACAD_REACTORS
330
C
102
}
330
C
100
AcDbDictionary
281
     1
  3
Imperial24
350
6C
  0
DICTIONARY
  5
D
102
{ACAD_REACTORS
330
C
102
}
330
C
100
AcDbDictionary
281
     1
  0
RASTERVARIABLES
  5
7B
102
{ACAD_REACTORS
330
C
102
}
330
C
100
AcDbRasterVariables
 90
        0
 70
     0
 71
     1
 72
     1
  0
DICTIONARY
  5
62
102
{ACAD_REACTORS
330
C
102
}
330
C
100
AcDbDictionary
281
     1
  3
Layout1
350
70
  3
Layout2
350
78
  3
Model
350
74
  0
DICTIONARY
  5
10
102
{ACAD_REACTORS
330
C
102
}
330
C
100
AcDbDictionary
281
     1
  3
ByBlock
350
19
  3
ByLayer
350
11
  3
Global
350
21
  0
DICTIONARY
  5
66
102
{ACAD_REACTORS
330
C
102
}
330
C
100
AcDbDictionary
281
     1
  3
Standard
350
67
  0
DICTIONARY
  5
5F
102
{ACAD_REACTORS
330
C
102
}
330
C
100
AcDbDictionary
281
     1
  3
Standard
350
60
  0
DICTIONARY
  5
61
102
{ACAD_REACTORS
330
C
102
}
330
C
100
AcDbDictionary
281
     1
  0
ACDBDICTIONARYWDFLT
  5
E
102
{ACAD_REACTORS
330
C
102
}
330
C
100
AcDbDictionary
281
     1
  3
Normal
350
F
100
AcDbDictionaryWithDefault
340
F
  0
DICTIONARY
  5
42
102
{ACAD_REACTORS
330
C
102
}
330
C
100
AcDbDictionary
281
     1
  3
A0
350
43
  3
A1
350
44
  3
A2
350
45
  3
A3
350
46
  3
A4
350
47
  3
A5
350
48
  3
A6
350
49
  3
A7
350
4A
  3
A8
350
4B
  3
A9
350
4C
  3
B0
350
4D
  3
B1
350
4E
  3
B2
350
4F
  3
B3
350
50
  3
B4
350
51
  3
B5
350
52
  3
B6
350
53
  0
DICTIONARY
  5
68
102
{ACAD_REACTORS
330
C
102
}
330
C
100
AcDbDictionary
281
     1
  3
Imperial24
350
6A
  0
DICTIONARY
  5
64
102
{ACAD_REACTORS
330
C
102
}
330
C
100
AcDbDictionary
281
     1
  3
Standard
350
65
  0
DICTIONARY
  5
29
102
{ACAD_REACTORS
330
C
102
}
330
C
100
AcDbDictionary
281
     1
  3
2dWireframe
350
2F
  3
Basic
350
2E
  3
Brighten
350
35
  3
ColorChange
350
39
  3
Conceptual
350
32
  3
Dim
350
34
  3
EdgeColorOff
350
41
  3
Facepattern
350
38
  3
Flat
350
2A
  3
FlatWithEdges
350
2B
  3
Gouraud
350
2C
  3
GouraudWithEdges
350
2D
  3
Hidden
350
31
  3
JitterOff
350
3F
  3
Linepattern
350
37
  3
OverhangOff
350
40
  3
Realistic
350
33
  3
Shaded
350
3E
  3
Shaded with edges
350
3D
  3
Shades of Gray
350
3A
  3
Sketchy
350
3B
  3
Thicken
350
36
  3
Wireframe
350
30
  3
X-Ray
350
3C
  0
XRECORD
  5
251
102
{ACAD_REACTORS
330
C
102
}
330
C
100
AcDbXrecord
280
     1
 90
        1
330
65
  0
DICTIONARY
  5
7C
102
{ACAD_REACTORS
330
C
102
}
330
C
100
AcDbDictionary
281
     1
  3
CANNOSCALE
350
81
  3
CMLEADERSTYLE
350
7E
  3
CTABLESTYLE
350
7D
  3
CVIEWDETAILSTYLE
350
7F
  3
CVIEWSECTIONSTYLE
350
80
  0
DICTIONARY
  5
249
102
{ACAD_REACTORS
330
C
102
}
330
C
100
AcDbDictionary
281
     1
  3
DRAWING_TOOL
350
24C
  3
REVIT_CATEGORY_MAPPING
350
24B
  3
REVIT_TYPE_MAPPING
350
24A
  0
SORTENTSTABLE
  5
24E
102
{ACAD_REACTORS
330
24D
102
}
330
24D
100
AcDbSortentsTable
330
71
  0
ACDBDETAILVIEWSTYLE
  5
6C
102
{ACAD_REACTORS
330
6B
102
}
330
6B
100
AcDbModelDocViewStyle
 70
     0
  3
Imperial24
290
     1
100
AcDbDetailViewStyle
 70
     0
 71
     0
 90
        3
 71
     1
340
55
 62
   256
 40
0.24
340
0
 62
   256
 40
0.24
300

 40
0.36
280
     3
 71
     2
340
5D
 90
       25
 62
   256
 71
     3
340
55
 62
   256
 40
0.24
 90
        1
 40
0.75
 90
        1
300
%<\AcVar ViewType \f "%tc1">% %<\AcVar ViewDetailId>%\PSCALA %<\AcVar ViewScale \f "%sn">%
 71
     4
340
5D
 90
       25
 62
   256
340
5D
 90
       25
 62
   256
280
     0
  0
LAYOUT
  5
70
102
{ACAD_REACTORS
330
62
102
}
330
62
100
AcDbPlotSettings
  1

  2

  4

  6

 40
0.0
 41
0.0
 42
0.0
 43
0.0
 44
0.0
 45
0.0
 46
0.0
 47
0.0
 48
0.0
 49
0.0
140
0.0
141
0.0
142
1.0
143
1.0
 70
   688
 72
     0
 73
     0
 74
     5
  7

 75
    16
147
1.0
 76
     0
 77
     2
 78
   300
148
0.0
149
0.0
100
AcDbLayout
  1
Layout1
 70
     1
 71
     1
 10
0.0
 20
0.0
 11
12.0
 21
9.0
 12
0.0
 22
0.0
 32
0.0
 14
0.0
 24
0.0
 34
0.0
 15
0.0
 25
0.0
 35
0.0
146
0.0
 13
0.0
 23
0.0
 33
0.0
 16
1.0
 26
0.0
 36
0.0
 17
0.0
 27
1.0
 37
0.0
 76
     0
330
6D
  0
LAYOUT
  5
78
102
{ACAD_REACTORS
330
62
102
}
330
62
100
AcDbPlotSettings
  1

  2

  4

  6

 40
0.0
 41
0.0
 42
0.0
 43
0.0
 44
0.0
 45
0.0
 46
0.0
 47
0.0
 48
0.0
 49
0.0
140
0.0
141
0.0
142
1.0
143
1.0
 70
   688
 72
     0
 73
     0
 74
     5
  7

 75
    16
147
1.0
 76
     0
 77
     2
 78
   300
148
0.0
149
0.0
100
AcDbLayout
  1
Layout2
 70
     1
 71
     2
 10
0.0
 20
0.0
 11
12.0
 21
9.0
 12
0.0
 22
0.0
 32
0.0
 14
0.0
 24
0.0
 34
0.0
 15
0.0
 25
0.0
 35
0.0
146
0.0
 13
0.0
 23
0.0
 33
0.0
 16
1.0
 26
0.0
 36
0.0
 17
0.0
 27
1.0
 37
0.0
 76
     0
330
75
  0
LAYOUT
  5
74
102
{ACAD_REACTORS
330
62
102
}
330
62
100
AcDbPlotSettings
  1

  2

  4

  6

 40
0.0
 41
0.0
 42
0.0
 43
0.0
 44
0.0
 45
0.0
 46
0.0
 47
0.0
 48
0.0
 49
0.0
140
0.0
141
0.0
142
1.0
143
1.0
 70
  1712
 72
     0
 73
     0
 74
     0
  7

 75
     0
147
1.0
 76
     0
 77
     2
 78
   300
148
0.0
149
0.0
100
AcDbLayout
  1
Model
 70
     1
 71
     0
 10
0.0
 20
0.0
 11
12.0
 21
9.0
 12
0.0
 22
0.0
 32
0.0
 14
0.0
 24
0.0
 34
0.0
 15
0.0
 25
0.0
 35
0.0
146
0.0
 13
0.0
 23
0.0
 33
0.0
 16
1.0
 26
0.0
 36
0.0
 17
0.0
 27
1.0
 37
0.0
 76
     0
330
71
  0
MATERIAL
  5
19
102
{ACAD_XDICTIONARY
360
1A
102
}
102
{ACAD_REACTORS
330
10
102
}
330
10
100
AcDbMaterial
  1
ByBlock
 72
     0
 43
0.0208333333333333
 43
0.0
 43
0.0
 43
0.0
 43
0.0
 43
0.0208333333333333
 43
0.0
 43
0.0
 43
0.0
 43
0.0
 43
1.0
 43
0.0
 43
0.0
 43
0.0
 43
0.0
 43
1.0
 77
     0
 47
0.0208333333333333
 47
0.0
 47
0.0
 47
0.0
 47
0.0
 47
0.0208333333333333
 47
0.0
 47
0.0
 47
0.0
 47
0.0
 47
1.0
 47
0.0
 47
0.0
 47
0.0
 47
0.0
 47
1.0
171
     0
 49
0.0208333333333333
 49
0.0
 49
0.0
 49
0.0
 49
0.0
 49
0.0208333333333333
 49
0.0
 49
0.0
 49
0.0
 49
0.0
 49
1.0
 49
0.0
 49
0.0
 49
0.0
 49
0.0
 49
1.0
175
     0
142
0.0208333333333333
142
0.0
142
0.0
142
0.0
142
0.0
142
0.0208333333333333
142
0.0
142
0.0
142
0.0
142
0.0
142
1.0
142
0.0
142
0.0
142
0.0
142
0.0
142
1.0
179
     0
144
0.0208333333333333
144
0.0
144
0.0
144
0.0
144
0.0
144
0.0208333333333333
144
0.0
144
0.0
144
0.0
144
0.0
144
1.0
144
0.0
144
0.0
144
0.0
144
0.0
144
1.0
147
0.0208333333333333
147
0.0
147
0.0
147
0.0
147
0.0
147
0.0208333333333333
147
0.0
147
0.0
147
0.0
147
0.0
147
1.0
147
0.0
147
0.0
147
0.0
147
0.0
147
1.0
  0
MATERIAL
  5
11
102
{ACAD_XDICTIONARY
360
12
102
}
102
{ACAD_REACTORS
330
10
102
}
330
10
100
AcDbMaterial
  1
ByLayer
 72
     0
 43
0.0208333333333333
 43
0.0
 43
0.0
 43
0.0
 43
0.0
 43
0.0208333333333333
 43
0.0
 43
0.0
 43
0.0
 43
0.0
 43
1.0
 43
0.0
 43
0.0
 43
0.0
 43
0.0
 43
1.0
 77
     0
 47
0.0208333333333333
 47
0.0
 47
0.0
 47
0.0
 47
0.0
 47
0.0208333333333333
 47
0.0
 47
0.0
 47
0.0
 47
0.0
 47
1.0
 47
0.0
 47
0.0
 47
0.0
 47
0.0
 47
1.0
171
     0
 49
0.0208333333333333
 49
0.0
 49
0.0
 49
0.0
 49
0.0
 49
0.0208333333333333
 49
0.0
 49
0.0
 49
0.0
 49
0.0
 49
1.0
 49
0.0
 49
0.0
 49
0.0
 49
0.0
 49
1.0
175
     0
142
0.0208333333333333
142
0.0
142
0.0
142
0.0
142
0.0
142
0.0208333333333333
142
0.0
142
0.0
142
0.0
142
0.0
142
1.0
142
0.0
142
0.0
142
0.0
142
0.0
142
1.0
179
     0
144
0.0208333333333333
144
0.0
144
0.0
144
0.0
144
0.0
144
0.0208333333333333
144
0.0
144
0.0
144
0.0
144
0.0
144
1.0
144
0.0
144
0.0
144
0.0
144
0.0
144
1.0
147
0.0208333333333333
147
0.0
147
0.0
147
0.0
147
0.0
147
0.0208333333333333
147
0.0
147
0.0
147
0.0
147
0.0
147
1.0
147
0.0
147
0.0
147
0.0
147
0.0
147
1.0
  0
MATERIAL
  5
21
102
{ACAD_XDICTIONARY
360
22
102
}
102
{ACAD_REACTORS
330
10
102
}
330
10
100
AcDbMaterial
  1
Global
 72
     0
 43
0.0208333333333333
 43
0.0
 43
0.0
 43
0.0
 43
0.0
 43
0.0208333333333333
 43
0.0
 43
0.0
 43
0.0
 43
0.0
 43
1.0
 43
0.0
 43
0.0
 43
0.0
 43
0.0
 43
1.0
 77
     0
 47
0.0208333333333333
 47
0.0
 47
0.0
 47
0.0
 47
0.0
 47
0.0208333333333333
 47
0.0
 47
0.0
 47
0.0
 47
0.0
 47
1.0
 47
0.0
 47
0.0
 47
0.0
 47
0.0
 47
1.0
171
     0
 49
0.0208333333333333
 49
0.0
 49
0.0
 49
0.0
 49
0.0
 49
0.0208333333333333
 49
0.0
 49
0.0
 49
0.0
 49
0.0
 49
1.0
 49
0.0
 49
0.0
 49
0.0
 49
0.0
 49
1.0
175
     0
142
0.0208333333333333
142
0.0
142
0.0
142
0.0
142
0.0
142
0.0208333333333333
142
0.0
142
0.0
142
0.0
142
0.0
142
1.0
142
0.0
142
0.0
142
0.0
142
0.0
142
1.0
179
     0
144
0.0208333333333333
144
0.0
144
0.0
144
0.0
144
0.0
144
0.0208333333333333
144
0.0
144
0.0
144
0.0
144
0.0
144
1.0
144
0.0
144
0.0
144
0.0
144
0.0
144
1.0
147
0.0208333333333333
147
0.0
147
0.0
147
0.0
147
0.0
147
0.0208333333333333
147
0.0
147
0.0
147
0.0
147
0.0
147
1.0
147
0.0
147
0.0
147
0.0
147
0.0
147
1.0
  0
MLEADERSTYLE
  5
67
102
{ACAD_REACTORS
330
66
102
}
330
66
100
AcDbMLeaderStyle
179
     2
170
     2
171
     1
172
     0
 90
        2
 40
0.0
 41
0.0
173
     1
 91
-1056964608
340
5B
 92
       -2
290
     1
 42
0.09
291
     1
 43
0.36
  3
Standard
 44
0.18
300

342
55
174
     1
178
     6
175
     1
176
     0
 93
-1056964608
 45
0.18
292
     0
297
     0
 46
0.18
 94
-1056964608
 47
1.0
 49
1.0
140
1.0
293
     1
141
0.0
294
     1
177
     0
142
1.0
295
     1
296
     0
143
0.125
271
     0
272
     9
273
     9
298
     1
  0
MLINESTYLE
  5
60
102
{ACAD_REACTORS
330
5F
102
}
330
5F
100
AcDbMlineStyle
  2
STANDARD
 70
     0
  3

 62
   256
 51
90.0
 52
90.0
 71
     2
 49
0.5
 62
   256
  6
BYLAYER
 49
-0.5
 62
   256
  6
BYLAYER
  0
ACDBPLACEHOLDER
  5
F
102
{ACAD_REACTORS
330
E
102
}
330
E
  0
SCALE
  5
43
102
{ACAD_REACTORS
330
42
102
}
330
42
100
AcDbScale
 70
     0
300
1:1
140
1.0
141
1.0
290
     1
  0
SCALE
  5
44
102
{ACAD_REACTORS
330
42
102
}
330
42
100
AcDbScale
 70
     0
300
1/128" = 1'-0"
140
0.0078125
141
12.0
290
     0
  0
SCALE
  5
45
102
{ACAD_REACTORS
330
42
102
}
330
42
100
AcDbScale
 70
     0
300
1/64" = 1'-0"
140
0.015625
141
12.0
290
     0
  0
SCALE
  5
46
102
{ACAD_REACTORS
330
42
102
}
330
42
100
AcDbScale
 70
     0
300
1/32" = 1'-0"
140
0.03125
141
12.0
290
     0
  0
SCALE
  5
47
102
{ACAD_REACTORS
330
42
102
}
330
42
100
AcDbScale
 70
     0
300
1/16" = 1'-0"
140
0.0625
141
12.0
290
     0
  0
SCALE
  5
48
102
{ACAD_REACTORS
330
42
102
}
330
42
100
AcDbScale
 70
     0
300
3/32" = 1'-0"
140
0.09375
141
12.0
290
     0
  0
SCALE
  5
49
102
{ACAD_REACTORS
330
42
102
}
330
42
100
AcDbScale
 70
     0
300
1/8" = 1'-0"
140
0.125
141
12.0
290
     0
  0
SCALE
  5
4A
102
{ACAD_REACTORS
330
42
102
}
330
42
100
AcDbScale
 70
     0
300
3/16" = 1'-0"
140
0.1875
141
12.0
290
     0
  0
SCALE
  5
4B
102
{ACAD_REACTORS
330
42
102
}
330
42
100
AcDbScale
 70
     0
300
1/4" = 1'-0"
140
0.25
141
12.0
290
     0
  0
SCALE
  5
4C
102
{ACAD_REACTORS
330
42
102
}
330
42
100
AcDbScale
 70
     0
300
3/8" = 1'-0"
140
0.375
141
12.0
290
     0
  0
SCALE
  5
4D
102
{ACAD_REACTORS
330
42
102
}
330
42
100
AcDbScale
 70
     0
300
1/2" = 1'-0"
140
0.5
141
12.0
290
     0
  0
SCALE
  5
4E
102
{ACAD_REACTORS
330
42
102
}
330
42
100
AcDbScale
 70
     0
300
3/4" = 1'-0"
140
0.75
141
12.0
290
     0
  0
SCALE
  5
4F
102
{ACAD_REACTORS
330
42
102
}
330
42
100
AcDbScale
 70
     0
300
1" = 1'-0"
140
1.0
141
12.0
290
     0
  0
SCALE
  5
50
102
{ACAD_REACTORS
330
42
102
}
330
42
100
AcDbScale
 70
     0
300
1-1/2" = 1'-0"
140
1.5
141
12.0
290
     0
  0
SCALE
  5
51
102
{ACAD_REACTORS
330
42
102
}
330
42
100
AcDbScale
 70
     0
300
3" = 1'-0"
140
3.0
141
12.0
290
     0
  0
SCALE
  5
52
102
{ACAD_REACTORS
330
42
102
}
330
42
100
AcDbScale
 70
     0
300
6" = 1'-0"
140
6.0
141
12.0
290
     0
  0
SCALE
  5
53
102
{ACAD_REACTORS
330
42
102
}
330
42
100
AcDbScale
 70
     0
300
1'-0" = 1'-0"
140
12.0
141
12.0
290
     0
  0
ACDBSECTIONVIEWSTYLE
  5
6A
102
{ACAD_REACTORS
330
68
102
}
330
68
100
AcDbModelDocViewStyle
 70
     0
  3
Imperial24
290
     1
100
AcDbSectionViewStyle
 70
     0
 71
     0
 90
       78
 71
     1
340
55
 62
   256
 40
0.24
340
0
340
0
 62
   256
 40
0.24
300
I, O, Q, S, X, Z
 40
0.48
 90
        3
 40
0.18
 90
        1
 71
     2
340
69
 90
       25
 62
   256
340
5D
 90
       50
 62
   256
 40
0.24
 40
0.0
 40
0.24
 71
     3
340
55
 62
   256
 40
0.24
 90
        1
 40
0.75
 90
        1
300
%<\AcVar ViewType \f "%tc1">% %<\AcVar ViewSectionStartId>%-%<\AcVar ViewSectionEndId>%\PSCALA %<\AcVar ViewScale \f "%sn">%
 71
     4
 62
   256
 62
   257
300
ANSI31
 40
1.0
 90
        0
290
     0
290
     0
 90
        6
 40
0.0
 40
1.570796326794896
 40
0.2617993877991494
 40
1.308996938995747
 40
-0.2617993877991494
 40
1.832595714594046
  0
TABLESTYLE
  5
65
102
{ACAD_XDICTIONARY
360
24F
102
}
102
{ACAD_REACTORS
330
64
102
}
330
64
100
AcDbTableStyle
280
     0
  3
Standard
 70
     0
 71
     0
 40
0.06
 41
0.06
280
     0
281
     0
  7
Standard
140
0.18
170
     2
 62
     0
 63
     7
283
     0
 90
      512
 91
        0
  1

274
    -2
284
     1
 64
     0
275
    -2
285
     1
 65
     0
276
    -2
286
     1
 66
     0
277
    -2
287
     1
 67
     0
278
    -2
288
     1
 68
     0
279
    -2
289
     1
 69
     0
  7
Standard
140
0.25
170
     5
 62
     0
 63
     7
283
     0
 90
      512
 91
        0
  1

274
    -2
284
     1
 64
     0
275
    -2
285
     1
 65
     0
276
    -2
286
     1
 66
     0
277
    -2
287
     1
 67
     0
278
    -2
288
     1
 68
     0
279
    -2
289
     1
 69
     0
  7
Standard
140
0.18
170
     5
 62
     0
 63
     7
283
     0
 90
      512
 91
        0
  1

274
    -2
284
     1
 64
     0
275
    -2
285
     1
 65
     0
276
    -2
286
     1
 66
     0
277
    -2
287
     1
 67
     0
278
    -2
288
     1
 68
     0
279
    -2
289
     1
 69
     0
  0
VISUALSTYLE
  5
2F
102
{ACAD_REACTORS
330
29
102
}
330
29
100
AcDbVisualStyle
  2
2dWireframe
 70
     4
177
     3
291
     0
 70
    58
 90
        0
176
     1
 90
        2
176
     1
 90
        0
176
     1
 90
        0
176
     1
 40
0.6
176
     1
 40
30.0
176
     1
 62
     7
420
 16777215
176
     1
 90
        1
176
     1
 90
        4
176
     1
 62
     7
176
     1
 62
   257
176
     1
 90
        1
176
     1
 90
        1
176
     1
 40
1.0
176
     1
 90
        0
176
     1
 62
   257
176
     1
 40
1.0
176
     1
 90
        1
176
     1
 90
        6
176
     1
 90
        2
176
     1
 62
     7
176
     1
 90
        5
176
     1
 90
        0
176
     1
 90
        0
176
     1
290
     0
176
     1
 90
        1
176
     1
 40
0.0
176
     1
 90
        0
176
     1
290
     1
176
     1
290
     1
176
     1
290
     0
176
     1
290
     0
176
     1
290
     0
176
     1
290
     0
176
     1
290
     0
176
     1
290
     0
176
     1
290
     0
176
     1
 90
       50
176
     1
 40
0.0
176
     1
 40
1.0
176
     1
 90
        0
176
     1
 62
    18
420
        0
176
     1
 90
       50
176
     1
 90
        3
176
     1
 62
     5
420
      255
176
     1
290
     0
176
     1
 90
       50
176
     1
 90
       50
176
     1
 90
       50
176
     1
290
     0
176
     1
 90
       50
176
     1
 62
   256
176
     0
 40
1.0
176
     0
 90
        2
176
     1
  1
strokes_ogs.tif
176
     1
290
     0
176
     1
 40
1.0
176
     1
 40
1.0
176
     1
  0
VISUALSTYLE
  5
2E
102
{ACAD_REACTORS
330
29
102
}
330
29
100
AcDbVisualStyle
  2
Basic
 70
     7
177
     3
291
     1
 70
    58
 90
        1
176
     1
 90
        0
176
     1
 90
        1
176
     1
 90
        0
176
     1
 40
0.6
176
     1
 40
30.0
176
     1
 62
     7
420
 16777215
176
     1
 90
        0
176
     1
 90
        4
176
     1
 62
     7
176
     1
 62
   257
176
     1
 90
        1
176
     1
 90
        1
176
     1
 40
1.0
176
     1
 90
        8
176
     1
 62
     7
176
     1
 40
1.0
176
     1
 90
        1
176
     1
 90
        6
176
     1
 90
        2
176
     1
 62
     7
176
     1
 90
        5
176
     1
 90
        0
176
     1
 90
        0
176
     1
290
     0
176
     1
 90
        1
176
     1
 40
0.0
176
     1
 90
        0
176
     1
290
     0
176
     1
290
     1
176
     1
290
     1
176
     1
290
     0
176
     1
290
     0
176
     1
290
     0
176
     1
290
     0
176
     1
290
     0
176
     1
290
     0
176
     1
 90
       50
176
     1
 40
0.0
176
     1
 40
1.0
176
     1
 90
        0
176
     1
 62
    18
420
        0
176
     1
 90
       50
176
     1
 90
        3
176
     1
 62
     5
420
      255
176
     1
290
     0
176
     1
 90
       50
176
     1
 90
       50
176
     1
 90
       50
176
     1
290
     0
176
     1
 90
       50
176
     1
 62
   256
176
     0
 40
1.0
176
     0
 90
        2
176
     1
  1
strokes_ogs.tif
176
     1
290
     0
176
     1
 40
1.0
176
     1
 40
1.0
176
     1
  0
VISUALSTYLE
  5
35
102
{ACAD_REACTORS
330
29
102
}
330
29
100
AcDbVisualStyle
  2
Brighten
 70
    12
177
     3
291
     1
 70
    58
 90
        2
176
     1
 90
        2
176
     1
 90
        0
176
     1
 90
        0
176
     1
 40
0.6
176
     1
 40
30.0
176
     1
 62
     7
420
 16777215
176
     1
 90
        1
176
     1
 90
        4
176
     1
 62
     7
176
     1
 62
   257
176
     1
 90
        1
176
     1
 90
        1
176
     1
 40
1.0
176
     1
 90
        8
176
     1
 62
     7
176
     1
 40
1.0
176
     1
 90
        1
176
     1
 90
        6
176
     1
 90
        2
176
     1
 62
     7
176
     1
 90
        5
176
     1
 90
        0
176
     1
 90
        0
176
     1
290
     0
176
     1
 90
        1
176
     1
 40
50.0
176
     1
 90
        0
176
     1
290
     0
176
     1
290
     1
176
     1
290
     1
176
     1
290
     0
176
     1
290
     0
176
     1
290
     0
176
     1
290
     0
176
     1
290
     0
176
     1
290
     0
176
     1
 90
       50
176
     1
 40
0.0
176
     1
 40
1.0
176
     1
 90
        0
176
     1
 62
    18
420
        0
176
     1
 90
       50
176
     1
 90
        3
176
     1
 62
     5
420
      255
176
     1
290
     0
176
     1
 90
       50
176
     1
 90
       50
176
     1
 90
       50
176
     1
290
     0
176
     1
 90
       50
176
     1
 62
   256
176
     0
 40
1.0
176
     0
 90
        2
176
     1
  1
strokes_ogs.tif
176
     1
290
     0
176
     1
 40
1.0
176
     1
 40
1.0
176
     1
  0
VISUALSTYLE
  5
39
102
{ACAD_REACTORS
330
29
102
}
330
29
100
AcDbVisualStyle
  2
ColorChange
 70
    16
177
     3
291
     1
 70
    58
 90
        2
176
     1
 90
        2
176
     1
 90
        3
176
     1
 90
        0
176
     1
 40
0.6
176
     1
 40
30.0
176
     1
 62
     8
420
  8421504
176
     1
 90
        1
176
     1
 90
        4
176
     1
 62
     7
176
     1
 62
   257
176
     1
 90
        1
176
     1
 90
        1
176
     1
 40
1.0
176
     1
 90
        8
176
     1
 62
     8
420
  8421504
176
     1
 40
1.0
176
     1
 90
        1
176
     1
 90
        6
176
     1
 90
        2
176
     1
 62
     7
176
     1
 90
        5
176
     1
 90
        0
176
     1
 90
        0
176
     1
290
     0
176
     1
 90
        1
176
     1
 40
0.0
176
     1
 90
        0
176
     1
290
     0
176
     1
290
     1
176
     1
290
     1
176
     1
290
     0
176
     1
290
     0
176
     1
290
     0
176
     1
290
     0
176
     1
290
     0
176
     1
290
     0
176
     1
 90
       50
176
     1
 40
0.0
176
     1
 40
1.0
176
     1
 90
        0
176
     1
 62
    18
420
        0
176
     1
 90
       50
176
     1
 90
        3
176
     1
 62
     5
420
      255
176
     1
290
     0
176
     1
 90
       50
176
     1
 90
       50
176
     1
 90
       50
176
     1
290
     0
176
     1
 90
       50
176
     1
 62
   256
176
     0
 40
1.0
176
     0
 90
        2
176
     1
  1
strokes_ogs.tif
176
     1
290
     0
176
     1
 40
1.0
176
     1
 40
1.0
176
     1
  0
VISUALSTYLE
  5
32
102
{ACAD_REACTORS
330
29
102
}
330
29
100
AcDbVisualStyle
  2
Conceptual
 70
     9
177
     3
291
     0
 70
    58
 90
        3
176
     1
 90
        2
176
     1
 90
        0
176
     1
 90
        0
176
     1
 40
0.6
176
     1
 40
30.0
176
     1
 62
     7
420
 16777215
176
     1
 90
        2
176
     1
 90
        2
176
     1
 62
     7
176
     1
 62
   257
176
     1
 90
        1
176
     1
 90
        1
176
     1
 40
179.0
176
     1
 90
        8
176
     1
 62
     7
176
     1
 40
1.0
176
     1
 90
        1
176
     1
 90
        6
176
     1
 90
        2
176
     1
 62
     7
176
     1
 90
        3
176
     1
 90
        0
176
     1
 90
        0
176
     1
290
     0
176
     1
 90
        1
176
     1
 40
0.0
176
     1
 90
        0
176
     1
290
     0
176
     1
290
     1
176
     1
290
     1
176
     1
290
     0
176
     1
290
     0
176
     1
290
     0
176
     1
290
     0
176
     1
290
     0
176
     1
290
     0
176
     1
 90
       50
176
     1
 40
0.0
176
     1
 40
1.0
176
     1
 90
        0
176
     1
 62
    18
420
        0
176
     1
 90
       50
176
     1
 90
        3
176
     1
 62
     5
420
      255
176
     1
290
     0
176
     1
 90
       50
176
     1
 90
       50
176
     1
 90
       50
176
     1
290
     0
176
     1
 90
       50
176
     1
 62
   256
176
     0
 40
1.0
176
     0
 90
        2
176
     1
  1
strokes_ogs.tif
176
     1
290
     0
176
     1
 40
1.0
176
     1
 40
1.0
176
     1
  0
VISUALSTYLE
  5
34
102
{ACAD_REACTORS
330
29
102
}
330
29
100
AcDbVisualStyle
  2
Dim
 70
    11
177
     3
291
     1
 70
    58
 90
        2
176
     1
 90
        2
176
     1
 90
        0
176
     1
 90
        0
176
     1
 40
0.6
176
     1
 40
30.0
176
     1
 62
     7
420
 16777215
176
     1
 90
        1
176
     1
 90
        4
176
     1
 62
     7
176
     1
 62
   257
176
     1
 90
        1
176
     1
 90
        1
176
     1
 40
1.0
176
     1
 90
        8
176
     1
 62
     7
176
     1
 40
1.0
176
     1
 90
        1
176
     1
 90
        6
176
     1
 90
        2
176
     1
 62
     7
176
     1
 90
        5
176
     1
 90
        0
176
     1
 90
        0
176
     1
290
     0
176
     1
 90
        1
176
     1
 40
-50.0
176
     1
 90
        0
176
     1
290
     0
176
     1
290
     1
176
     1
290
     1
176
     1
290
     0
176
     1
290
     0
176
     1
290
     0
176
     1
290
     0
176
     1
290
     0
176
     1
290
     0
176
     1
 90
       50
176
     1
 40
0.0
176
     1
 40
1.0
176
     1
 90
        0
176
     1
 62
    18
420
        0
176
     1
 90
       50
176
     1
 90
        3
176
     1
 62
     5
420
      255
176
     1
290
     0
176
     1
 90
       50
176
     1
 90
       50
176
     1
 90
       50
176
     1
290
     0
176
     1
 90
       50
176
     1
 62
   256
176
     0
 40
1.0
176
     0
 90
        2
176
     1
  1
strokes_ogs.tif
176
     1
290
     0
176
     1
 40
1.0
176
     1
 40
1.0
176
     1
  0
VISUALSTYLE
  5
41
102
{ACAD_REACTORS
330
29
102
}
330
29
100
AcDbVisualStyle
  2
EdgeColorOff
 70
    22
177
     3
291
     1
 70
    58
 90
        2
176
     0
 90
        2
176
     0
 90
        0
176
     0
 90
        0
176
     0
 40
0.6
176
     0
 40
30.0
176
     0
 62
     7
420
 16777215
176
     0
 90
        1
176
     0
 90
        4
176
     0
 62
     7
176
     0
 62
   257
176
     0
 90
        1
176
     0
 90
        1
176
     0
 40
1.0
176
     0
 90
        8
176
     2
 62
     7
176
     0
 40
1.0
176
     0
 90
        1
176
     0
 90
        6
176
     0
 90
        2
176
     0
 62
     7
176
     0
 90
        5
176
     0
 90
        0
176
     0
 90
        0
176
     0
290
     0
176
     0
 90
        1
176
     0
 40
0.0
176
     0
 90
        0
176
     0
290
     0
176
     0
290
     1
176
     0
290
     1
176
     0
290
     0
176
     0
290
     0
176
     0
290
     0
176
     0
290
     0
176
     0
290
     0
176
     0
290
     0
176
     0
 90
       50
176
     0
 40
0.0
176
     0
 40
1.0
176
     0
 90
        0
176
     0
 62
    18
420
        0
176
     0
 90
       50
176
     0
 90
        3
176
     0
 62
     5
420
      255
176
     0
290
     0
176
     0
 90
       50
176
     0
 90
       50
176
     0
 90
       50
176
     0
290
     0
176
     0
 90
       50
176
     0
 62
   256
176
     0
 40
1.0
176
     0
 90
        2
176
     0
  1
strokes_ogs.tif
176
     0
290
     0
176
     0
 40
1.0
176
     0
 40
1.0
176
     0
  0
VISUALSTYLE
  5
38
102
{ACAD_REACTORS
330
29
102
}
330
29
100
AcDbVisualStyle
  2
Facepattern
 70
    15
177
     3
291
     1
 70
    58
 90
        2
176
     1
 90
        2
176
     1
 90
        0
176
     1
 90
        0
176
     1
 40
0.6
176
     1
 40
30.0
176
     1
 62
     7
420
 16777215
176
     1
 90
        1
176
     1
 90
        4
176
     1
 62
     7
176
     1
 62
   257
176
     1
 90
        1
176
     1
 90
        1
176
     1
 40
1.0
176
     1
 90
        8
176
     1
 62
     7
176
     1
 40
1.0
176
     1
 90
        1
176
     1
 90
        6
176
     1
 90
        2
176
     1
 62
     7
176
     1
 90
        5
176
     1
 90
        0
176
     1
 90
        0
176
     1
290
     0
176
     1
 90
        1
176
     1
 40
0.0
176
     1
 90
        0
176
     1
290
     0
176
     1
290
     1
176
     1
290
     1
176
     1
290
     0
176
     1
290
     0
176
     1
290
     0
176
     1
290
     0
176
     1
290
     0
176
     1
290
     0
176
     1
 90
       50
176
     1
 40
0.0
176
     1
 40
1.0
176
     1
 90
        0
176
     1
 62
    18
420
        0
176
     1
 90
       50
176
     1
 90
        3
176
     1
 62
     5
420
      255
176
     1
290
     0
176
     1
 90
       50
176
     1
 90
       50
176
     1
 90
       50
176
     1
290
     0
176
     1
 90
       50
176
     1
 62
   256
176
     0
 40
1.0
176
     0
 90
        2
176
     1
  1
strokes_ogs.tif
176
     1
290
     0
176
     1
 40
1.0
176
     1
 40
1.0
176
     1
  0
VISUALSTYLE
  5
2A
102
{ACAD_REACTORS
330
29
102
}
330
29
100
AcDbVisualStyle
  2
Flat
 70
     0
177
     3
291
     1
 70
    58
 90
        2
176
     1
 90
        1
176
     1
 90
        1
176
     1
 90
        2
176
     1
 40
0.6
176
     1
 40
30.0
176
     1
 62
     7
420
 16777215
176
     1
 90
        0
176
     1
 90
        0
176
     1
 62
     7
176
     1
 62
   257
176
     1
 90
        1
176
     1
 90
        1
176
     1
 40
1.0
176
     1
 90
        8
176
     1
 62
     7
176
     1
 40
1.0
176
     1
 90
        1
176
     1
 90
        6
176
     1
 90
        2
176
     1
 62
     7
176
     1
 90
        5
176
     1
 90
        0
176
     1
 90
        0
176
     1
290
     0
176
     1
 90
       13
176
     1
 40
0.0
176
     1
 90
        0
176
     1
290
     0
176
     1
290
     1
176
     1
290
     1
176
     1
290
     0
176
     1
290
     0
176
     1
290
     0
176
     1
290
     0
176
     1
290
     0
176
     1
290
     0
176
     1
 90
       50
176
     1
 40
0.0
176
     1
 40
1.0
176
     1
 90
        0
176
     1
 62
    18
420
        0
176
     1
 90
       50
176
     1
 90
        3
176
     1
 62
     5
420
      255
176
     1
290
     0
176
     1
 90
       50
176
     1
 90
       50
176
     1
 90
       50
176
     1
290
     0
176
     1
 90
       50
176
     1
 62
   256
176
     0
 40
1.0
176
     0
 90
        2
176
     1
  1
strokes_ogs.tif
176
     1
290
     0
176
     1
 40
1.0
176
     1
 40
1.0
176
     1
  0
VISUALSTYLE
  5
2B
102
{ACAD_REACTORS
330
29
102
}
330
29
100
AcDbVisualStyle
  2
FlatWithEdges
 70
     1
177
     3
291
     1
 70
    58
 90
        2
176
     1
 90
        1
176
     1
 90
        1
176
     1
 90
        2
176
     1
 40
0.6
176
     1
 40
30.0
176
     1
 62
     7
420
 16777215
176
     1
 90
        1
176
     1
 90
        0
176
     1
 62
     7
176
     1
 62
   257
176
     1
 90
        1
176
     1
 90
        1
176
     1
 40
1.0
176
     1
 90
        0
176
     1
 62
   257
176
     1
 40
1.0
176
     1
 90
        1
176
     1
 90
        6
176
     1
 90
        2
176
     1
 62
     7
176
     1
 90
        5
176
     1
 90
        0
176
     1
 90
        0
176
     1
290
     0
176
     1
 90
       13
176
     1
 40
0.0
176
     1
 90
        0
176
     1
290
     0
176
     1
290
     1
176
     1
290
     1
176
     1
290
     0
176
     1
290
     0
176
     1
290
     0
176
     1
290
     0
176
     1
290
     0
176
     1
290
     0
176
     1
 90
       50
176
     1
 40
0.0
176
     1
 40
1.0
176
     1
 90
        0
176
     1
 62
    18
420
        0
176
     1
 90
       50
176
     1
 90
        3
176
     1
 62
     5
420
      255
176
     1
290
     0
176
     1
 90
       50
176
     1
 90
       50
176
     1
 90
       50
176
     1
290
     0
176
     1
 90
       50
176
     1
 62
   256
176
     0
 40
1.0
176
     0
 90
        2
176
     1
  1
strokes_ogs.tif
176
     1
290
     0
176
     1
 40
1.0
176
     1
 40
1.0
176
     1
  0
VISUALSTYLE
  5
2C
102
{ACAD_REACTORS
330
29
102
}
330
29
100
AcDbVisualStyle
  2
Gouraud
 70
     2
177
     3
291
     1
 70
    58
 90
        2
176
     1
 90
        2
176
     1
 90
        1
176
     1
 90
        2
176
     1
 40
0.6
176
     1
 40
30.0
176
     1
 62
     7
420
 16777215
176
     1
 90
        0
176
     1
 90
        0
176
     1
 62
     7
176
     1
 62
   257
176
     1
 90
        1
176
     1
 90
        1
176
     1
 40
1.0
176
     1
 90
        0
176
     1
 62
     7
176
     1
 40
1.0
176
     1
 90
        1
176
     1
 90
        6
176
     1
 90
        2
176
     1
 62
     7
176
     1
 90
        5
176
     1
 90
        0
176
     1
 90
        0
176
     1
290
     0
176
     1
 90
       13
176
     1
 40
0.0
176
     1
 90
        0
176
     1
290
     0
176
     1
290
     1
176
     1
290
     1
176
     1
290
     0
176
     1
290
     0
176
     1
290
     0
176
     1
290
     0
176
     1
290
     0
176
     1
290
     0
176
     1
 90
       50
176
     1
 40
0.0
176
     1
 40
1.0
176
     1
 90
        0
176
     1
 62
    18
420
        0
176
     1
 90
       50
176
     1
 90
        3
176
     1
 62
     5
420
      255
176
     1
290
     0
176
     1
 90
       50
176
     1
 90
       50
176
     1
 90
       50
176
     1
290
     0
176
     1
 90
       50
176
     1
 62
   256
176
     0
 40
1.0
176
     0
 90
        2
176
     1
  1
strokes_ogs.tif
176
     1
290
     0
176
     1
 40
1.0
176
     1
 40
1.0
176
     1
  0
VISUALSTYLE
  5
2D
102
{ACAD_REACTORS
330
29
102
}
330
29
100
AcDbVisualStyle
  2
GouraudWithEdges
 70
     3
177
     3
291
     1
 70
    58
 90
        2
176
     1
 90
        2
176
     1
 90
        1
176
     1
 90
        2
176
     1
 40
0.6
176
     1
 40
30.0
176
     1
 62
     7
420
 16777215
176
     1
 90
        1
176
     1
 90
        0
176
     1
 62
     7
176
     1
 62
   257
176
     1
 90
        1
176
     1
 90
        1
176
     1
 40
1.0
176
     1
 90
        0
176
     1
 62
   257
176
     1
 40
1.0
176
     1
 90
        1
176
     1
 90
        6
176
     1
 90
        2
176
     1
 62
     7
176
     1
 90
        5
176
     1
 90
        0
176
     1
 90
        0
176
     1
290
     0
176
     1
 90
       13
176
     1
 40
0.0
176
     1
 90
        0
176
     1
290
     0
176
     1
290
     1
176
     1
290
     1
176
     1
290
     0
176
     1
290
     0
176
     1
290
     0
176
     1
290
     0
176
     1
290
     0
176
     1
290
     0
176
     1
 90
       50
176
     1
 40
0.0
176
     1
 40
1.0
176
     1
 90
        0
176
     1
 62
    18
420
        0
176
     1
 90
       50
176
     1
 90
        3
176
     1
 62
     5
420
      255
176
     1
290
     0
176
     1
 90
       50
176
     1
 90
       50
176
     1
 90
       50
176
     1
290
     0
176
     1
 90
       50
176
     1
 62
   256
176
     0
 40
1.0
176
     0
 90
        2
176
     1
  1
strokes_ogs.tif
176
     1
290
     0
176
     1
 40
1.0
176
     1
 40
1.0
176
     1
  0
VISUALSTYLE
  5
31
102
{ACAD_REACTORS
330
29
102
}
330
29
100
AcDbVisualStyle
  2
Hidden
 70
     6
177
     3
291
     0
 70
    58
 90
        1
176
     1
 90
        2
176
     1
 90
        2
176
     1
 90
        0
176
     1
 40
0.6
176
     1
 40
30.0
176
     1
 62
     7
420
 16777215
176
     1
 90
        2
176
     1
 90
        2
176
     1
 62
     7
176
     1
 62
   257
176
     1
 90
        2
176
     1
 90
        1
176
     1
 40
40.0
176
     1
 90
        0
176
     1
 62
   257
176
     1
 40
1.0
176
     1
 90
        1
176
     1
 90
        6
176
     1
 90
        2
176
     1
 62
     7
176
     1
 90
        3
176
     1
 90
        0
176
     1
 90
        0
176
     1
290
     0
176
     1
 90
        1
176
     1
 40
0.0
176
     1
 90
        0
176
     1
290
     0
176
     1
290
     1
176
     1
290
     1
176
     1
290
     0
176
     1
290
     0
176
     1
290
     0
176
     1
290
     0
176
     1
290
     0
176
     1
290
     0
176
     1
 90
       50
176
     1
 40
0.0
176
     1
 40
1.0
176
     1
 90
        0
176
     1
 62
    18
420
        0
176
     1
 90
       50
176
     1
 90
        3
176
     1
 62
     5
420
      255
176
     1
290
     0
176
     1
 90
       50
176
     1
 90
       50
176
     1
 90
       50
176
     1
290
     0
176
     1
 90
       50
176
     1
 62
   256
176
     0
 40
1.0
176
     0
 90
        2
176
     1
  1
strokes_ogs.tif
176
     1
290
     0
176
     1
 40
1.0
176
     1
 40
1.0
176
     1
  0
VISUALSTYLE
  5
3F
102
{ACAD_REACTORS
330
29
102
}
330
29
100
AcDbVisualStyle
  2
JitterOff
 70
    20
177
     3
291
     1
 70
    58
 90
        2
176
     0
 90
        2
176
     0
 90
        0
176
     0
 90
        0
176
     0
 40
0.6
176
     0
 40
30.0
176
     0
 62
     7
420
 16777215
176
     0
 90
        1
176
     0
 90
        4
176
     0
 62
     7
176
     0
 62
   257
176
     0
 90
        1
176
     0
 90
        1
176
     0
 40
1.0
176
     0
 90
       10
176
     2
 62
     7
176
     0
 40
1.0
176
     0
 90
        1
176
     0
 90
        6
176
     0
 90
        2
176
     0
 62
     7
176
     0
 90
        5
176
     0
 90
        0
176
     0
 90
        0
176
     0
290
     0
176
     0
 90
        1
176
     0
 40
0.0
176
     0
 90
        0
176
     0
290
     0
176
     0
290
     1
176
     0
290
     1
176
     0
290
     0
176
     0
290
     0
176
     0
290
     0
176
     0
290
     0
176
     0
290
     0
176
     0
290
     0
176
     0
 90
       50
176
     0
 40
0.0
176
     0
 40
1.0
176
     0
 90
        0
176
     0
 62
    18
420
        0
176
     0
 90
       50
176
     0
 90
        3
176
     0
 62
     5
420
      255
176
     0
290
     0
176
     0
 90
       50
176
     0
 90
       50
176
     0
 90
       50
176
     0
290
     0
176
     0
 90
       50
176
     0
 62
   256
176
     0
 40
1.0
176
     0
 90
        2
176
     0
  1
strokes_ogs.tif
176
     0
290
     0
176
     0
 40
1.0
176
     0
 40
1.0
176
     0
  0
VISUALSTYLE
  5
37
102
{ACAD_REACTORS
330
29
102
}
330
29
100
AcDbVisualStyle
  2
Linepattern
 70
    14
177
     3
291
     1
 70
    58
 90
        2
176
     1
 90
        2
176
     1
 90
        0
176
     1
 90
        0
176
     1
 40
0.6
176
     1
 40
30.0
176
     1
 62
     7
420
 16777215
176
     1
 90
        1
176
     1
 90
        4
176
     1
 62
     7
176
     1
 62
   257
176
     1
 90
        7
176
     1
 90
        7
176
     1
 40
1.0
176
     1
 90
        8
176
     1
 62
     7
176
     1
 40
1.0
176
     1
 90
        1
176
     1
 90
        6
176
     1
 90
        2
176
     1
 62
     7
176
     1
 90
        5
176
     1
 90
        0
176
     1
 90
        0
176
     1
290
     0
176
     1
 90
        1
176
     1
 40
0.0
176
     1
 90
        0
176
     1
290
     0
176
     1
290
     1
176
     1
290
     1
176
     1
290
     0
176
     1
290
     0
176
     1
290
     0
176
     1
290
     0
176
     1
290
     0
176
     1
290
     0
176
     1
 90
       50
176
     1
 40
0.0
176
     1
 40
1.0
176
     1
 90
        0
176
     1
 62
    18
420
        0
176
     1
 90
       50
176
     1
 90
        3
176
     1
 62
     5
420
      255
176
     1
290
     0
176
     1
 90
       50
176
     1
 90
       50
176
     1
 90
       50
176
     1
290
     0
176
     1
 90
       50
176
     1
 62
   256
176
     0
 40
1.0
176
     0
 90
        2
176
     1
  1
strokes_ogs.tif
176
     1
290
     0
176
     1
 40
1.0
176
     1
 40
1.0
176
     1
  0
VISUALSTYLE
  5
40
102
{ACAD_REACTORS
330
29
102
}
330
29
100
AcDbVisualStyle
  2
OverhangOff
 70
    21
177
     3
291
     1
 70
    58
 90
        2
176
     0
 90
        2
176
     0
 90
        0
176
     0
 90
        0
176
     0
 40
0.6
176
     0
 40
30.0
176
     0
 62
     7
420
 16777215
176
     0
 90
        1
176
     0
 90
        4
176
     0
 62
     7
176
     0
 62
   257
176
     0
 90
        1
176
     0
 90
        1
176
     0
 40
1.0
176
     0
 90
        9
176
     2
 62
     7
176
     0
 40
1.0
176
     0
 90
        1
176
     0
 90
        6
176
     0
 90
        2
176
     0
 62
     7
176
     0
 90
        5
176
     0
 90
        0
176
     0
 90
        0
176
     0
290
     0
176
     0
 90
        1
176
     0
 40
0.0
176
     0
 90
        0
176
     0
290
     0
176
     0
290
     1
176
     0
290
     1
176
     0
290
     0
176
     0
290
     0
176
     0
290
     0
176
     0
290
     0
176
     0
290
     0
176
     0
290
     0
176
     0
 90
       50
176
     0
 40
0.0
176
     0
 40
1.0
176
     0
 90
        0
176
     0
 62
    18
420
        0
176
     0
 90
       50
176
     0
 90
        3
176
     0
 62
     5
420
      255
176
     0
290
     0
176
     0
 90
       50
176
     0
 90
       50
176
     0
 90
       50
176
     0
290
     0
176
     0
 90
       50
176
     0
 62
   256
176
     0
 40
1.0
176
     0
 90
        2
176
     0
  1
strokes_ogs.tif
176
     0
290
     0
176
     0
 40
1.0
176
     0
 40
1.0
176
     0
  0
VISUALSTYLE
  5
33
102
{ACAD_REACTORS
330
29
102
}
330
29
100
AcDbVisualStyle
  2
Realistic
 70
     8
177
     3
291
     0
 70
    58
 90
        2
176
     1
 90
        3
176
     1
 90
        0
176
     1
 90
        2
176
     1
 40
0.6
176
     1
 40
30.0
176
     1
 62
     7
420
 16777215
176
     1
 90
        0
176
     1
 90
        0
176
     1
 62
     7
176
     1
 62
   257
176
     1
 90
        1
176
     1
 90
        1
176
     1
 40
1.0
176
     1
 90
        8
176
     1
 62
   257
176
     1
 40
1.0
176
     1
 90
        1
176
     1
 90
        6
176
     1
 90
        2
176
     1
 62
     7
176
     1
 90
        3
176
     1
 90
        0
176
     1
 90
        0
176
     1
290
     0
176
     1
 90
       13
176
     1
 40
0.0
176
     1
 90
        0
176
     1
290
     0
176
     1
290
     1
176
     1
290
     1
176
     1
290
     0
176
     1
290
     0
176
     1
290
     0
176
     1
290
     0
176
     1
290
     0
176
     1
290
     0
176
     1
 90
       50
176
     1
 40
0.0
176
     1
 40
1.0
176
     1
 90
        0
176
     1
 62
    18
420
        0
176
     1
 90
       50
176
     1
 90
        3
176
     1
 62
     5
420
      255
176
     1
290
     0
176
     1
 90
       50
176
     1
 90
       50
176
     1
 90
       50
176
     1
290
     0
176
     1
 90
       50
176
     1
 62
   256
176
     0
 40
1.0
176
     0
 90
        2
176
     1
  1
strokes_ogs.tif
176
     1
290
     0
176
     1
 40
1.0
176
     1
 40
1.0
176
     1
  0
VISUALSTYLE
  5
3E
102
{ACAD_REACTORS
330
29
102
}
330
29
100
AcDbVisualStyle
  2
Shaded
 70
    27
177
     3
291
     0
 70
    58
 90
        2
176
     1
 90
        2
176
     1
 90
        1
176
     1
 90
        2
176
     1
 40
0.6
176
     1
 40
30.0
176
     1
 62
     7
420
 16777215
176
     1
 90
        0
176
     1
 90
        4
176
     1
 62
     7
176
     1
 62
   257
176
     1
 90
        1
176
     1
 90
        1
176
     1
 40
1.0
176
     1
 90
        8
176
     1
 62
   257
176
     1
 40
1.0
176
     1
 90
        1
176
     1
 90
        6
176
     1
 90
        2
176
     1
 62
     8
420
  7895160
176
     1
 90
        3
176
     1
 90
        0
176
     1
 90
        0
176
     1
290
     0
176
     1
 90
        5
176
     1
 40
0.0
176
     1
 90
        0
176
     1
290
     0
176
     1
290
     1
176
     1
290
     1
176
     1
290
     0
176
     1
290
     0
176
     1
290
     0
176
     1
290
     0
176
     1
290
     0
176
     1
290
     0
176
     1
 90
       50
176
     1
 40
0.0
176
     1
 40
1.0
176
     1
 90
        0
176
     1
 62
    18
420
        0
176
     1
 90
       50
176
     1
 90
        3
176
     1
 62
     5
420
      255
176
     1
290
     0
176
     1
 90
       50
176
     1
 90
       50
176
     1
 90
       50
176
     1
290
     0
176
     1
 90
       50
176
     1
 62
   256
176
     0
 40
1.0
176
     0
 90
        2
176
     1
  1
strokes_ogs.tif
176
     1
290
     0
176
     1
 40
1.0
176
     1
 40
1.0
176
     1
  0
VISUALSTYLE
  5
3D
102
{ACAD_REACTORS
330
29
102
}
330
29
100
AcDbVisualStyle
  2
Shaded with edges
 70
    26
177
     3
291
     0
 70
    58
 90
        2
176
     1
 90
        2
176
     1
 90
        1
176
     1
 90
        2
176
     1
 40
0.6
176
     1
 40
30.0
176
     1
 62
     7
420
 16777215
176
     1
 90
        1
176
     1
 90
       10
176
     1
 62
     7
176
     1
 62
   257
176
     1
 90
        2
176
     1
 90
        1
176
     1
 40
1.0
176
     1
 90
        8
176
     1
 62
   257
176
     1
 40
1.0
176
     1
 90
        1
176
     1
 90
        6
176
     1
 90
        2
176
     1
 62
     7
176
     1
 90
        3
176
     1
 90
        0
176
     1
 90
        0
176
     1
290
     0
176
     1
 90
        5
176
     1
 40
0.0
176
     1
 90
        0
176
     1
290
     0
176
     1
290
     1
176
     1
290
     1
176
     1
290
     0
176
     1
290
     0
176
     1
290
     0
176
     1
290
     0
176
     1
290
     0
176
     1
290
     0
176
     1
 90
       50
176
     1
 40
0.0
176
     1
 40
1.0
176
     1
 90
        0
176
     1
 62
    18
420
        0
176
     1
 90
       50
176
     1
 90
        3
176
     1
 62
     5
420
      255
176
     1
290
     0
176
     1
 90
       50
176
     1
 90
       50
176
     1
 90
       50
176
     1
290
     0
176
     1
 90
       50
176
     1
 62
   256
176
     0
 40
1.0
176
     0
 90
        2
176
     1
  1
strokes_ogs.tif
176
     1
290
     0
176
     1
 40
1.0
176
     1
 40
1.0
176
     1
  0
VISUALSTYLE
  5
3A
102
{ACAD_REACTORS
330
29
102
}
330
29
100
AcDbVisualStyle
  2
Shades of Gray
 70
    23
177
     3
291
     0
 70
    58
 90
        2
176
     1
 90
        2
176
     1
 90
        3
176
     1
 90
        0
176
     1
 40
0.6
176
     1
 40
30.0
176
     1
 62
     7
420
 16777215
176
     1
 90
        2
176
     1
 90
        2
176
     1
 62
     7
176
     1
 62
     7
176
     1
 90
        1
176
     1
 90
        1
176
     1
 40
40.0
176
     1
 90
        8
176
     1
 62
     7
176
     1
 40
1.0
176
     1
 90
        1
176
     1
 90
        6
176
     1
 90
        2
176
     1
 62
     7
176
     1
 90
        3
176
     1
 90
        0
176
     1
 90
        0
176
     1
290
     0
176
     1
 90
        1
176
     1
 40
0.0
176
     1
 90
        0
176
     1
290
     0
176
     1
290
     1
176
     1
290
     1
176
     1
290
     0
176
     1
290
     0
176
     1
290
     0
176
     1
290
     0
176
     1
290
     0
176
     1
290
     0
176
     1
 90
       50
176
     1
 40
0.0
176
     1
 40
1.0
176
     1
 90
        0
176
     1
 62
    18
420
        0
176
     1
 90
       50
176
     1
 90
        3
176
     1
 62
     5
420
      255
176
     1
290
     0
176
     1
 90
       50
176
     1
 90
       50
176
     1
 90
       50
176
     1
290
     0
176
     1
 90
       50
176
     1
 62
   256
176
     0
 40
1.0
176
     0
 90
        2
176
     1
  1
strokes_ogs.tif
176
     1
290
     0
176
     1
 40
1.0
176
     1
 40
1.0
176
     1
  0
VISUALSTYLE
  5
3B
102
{ACAD_REACTORS
330
29
102
}
330
29
100
AcDbVisualStyle
  2
Sketchy
 70
    24
177
     3
291
     0
 70
    58
 90
        1
176
     1
 90
        2
176
     1
 90
        2
176
     1
 90
        0
176
     1
 40
0.6
176
     1
 40
30.0
176
     1
 62
     7
420
 16777215
176
     1
 90
        2
176
     1
 90
        2
176
     1
 62
     7
176
     1
 62
     7
176
     1
 90
        1
176
     1
 90
        1
176
     1
 40
40.0
176
     1
 90
       11
176
     1
 62
     7
176
     1
 40
1.0
176
     1
 90
        1
176
     1
 90
        6
176
     1
 90
        2
176
     1
 62
     7
176
     1
 90
        6
176
     1
 90
        0
176
     1
 90
        0
176
     1
290
     0
176
     1
 90
        1
176
     1
 40
0.0
176
     1
 90
        0
176
     1
290
     0
176
     1
290
     1
176
     1
290
     1
176
     1
290
     0
176
     1
290
     0
176
     1
290
     0
176
     1
290
     0
176
     1
290
     0
176
     1
290
     0
176
     1
 90
       50
176
     1
 40
0.0
176
     1
 40
1.0
176
     1
 90
        0
176
     1
 62
    18
420
        0
176
     1
 90
       50
176
     1
 90
        3
176
     1
 62
     5
420
      255
176
     1
290
     0
176
     1
 90
       50
176
     1
 90
       50
176
     1
 90
       50
176
     1
290
     0
176
     1
 90
       50
176
     1
 62
   256
176
     0
 40
1.0
176
     0
 90
        2
176
     1
  1
strokes_ogs.tif
176
     1
290
     0
176
     1
 40
1.0
176
     1
 40
1.0
176
     1
  0
VISUALSTYLE
  5
36
102
{ACAD_REACTORS
330
29
102
}
330
29
100
AcDbVisualStyle
  2
Thicken
 70
    13
177
     3
291
     1
 70
    58
 90
        2
176
     1
 90
        2
176
     1
 90
        0
176
     1
 90
        0
176
     1
 40
0.6
176
     1
 40
30.0
176
     1
 62
     7
420
 16777215
176
     1
 90
        1
176
     1
 90
        4
176
     1
 62
     7
176
     1
 62
   257
176
     1
 90
        1
176
     1
 90
        1
176
     1
 40
1.0
176
     1
 90
       12
176
     1
 62
     7
176
     1
 40
1.0
176
     1
 90
        1
176
     1
 90
        6
176
     1
 90
        2
176
     1
 62
     7
176
     1
 90
        5
176
     1
 90
        0
176
     1
 90
        0
176
     1
290
     0
176
     1
 90
        1
176
     1
 40
0.0
176
     1
 90
        0
176
     1
290
     0
176
     1
290
     1
176
     1
290
     1
176
     1
290
     0
176
     1
290
     0
176
     1
290
     0
176
     1
290
     0
176
     1
290
     0
176
     1
290
     0
176
     1
 90
       50
176
     1
 40
0.0
176
     1
 40
1.0
176
     1
 90
        0
176
     1
 62
    18
420
        0
176
     1
 90
       50
176
     1
 90
        3
176
     1
 62
     5
420
      255
176
     1
290
     0
176
     1
 90
       50
176
     1
 90
       50
176
     1
 90
       50
176
     1
290
     0
176
     1
 90
       50
176
     1
 62
   256
176
     0
 40
1.0
176
     0
 90
        2
176
     1
  1
strokes_ogs.tif
176
     1
290
     0
176
     1
 40
1.0
176
     1
 40
1.0
176
     1
  0
VISUALSTYLE
  5
30
102
{ACAD_REACTORS
330
29
102
}
330
29
100
AcDbVisualStyle
  2
Wireframe
 70
     5
177
     3
291
     0
 70
    58
 90
        0
176
     1
 90
        2
176
     1
 90
        0
176
     1
 90
        0
176
     1
 40
0.6
176
     1
 40
30.0
176
     1
 62
     7
420
 16777215
176
     1
 90
        1
176
     1
 90
        4
176
     1
 62
     7
176
     1
 62
   257
176
     1
 90
        1
176
     1
 90
        1
176
     1
 40
1.0
176
     1
 90
        0
176
     1
 62
   257
176
     1
 40
1.0
176
     1
 90
        1
176
     1
 90
        6
176
     1
 90
        2
176
     1
 62
     7
176
     1
 90
        3
176
     1
 90
        0
176
     1
 90
        0
176
     1
290
     0
176
     1
 90
        1
176
     1
 40
0.0
176
     1
 90
        0
176
     1
290
     0
176
     1
290
     1
176
     1
290
     1
176
     1
290
     0
176
     1
290
     0
176
     1
290
     0
176
     1
290
     0
176
     1
290
     0
176
     1
290
     0
176
     1
 90
       50
176
     1
 40
0.0
176
     1
 40
1.0
176
     1
 90
        0
176
     1
 62
    18
420
        0
176
     1
 90
       50
176
     1
 90
        3
176
     1
 62
     5
420
      255
176
     1
290
     0
176
     1
 90
       50
176
     1
 90
       50
176
     1
 90
       50
176
     1
290
     0
176
     1
 90
       50
176
     1
 62
   256
176
     0
 40
1.0
176
     0
 90
        2
176
     1
  1
strokes_ogs.tif
176
     1
290
     0
176
     1
 40
1.0
176
     1
 40
1.0
176
     1
  0
VISUALSTYLE
  5
3C
102
{ACAD_REACTORS
330
29
102
}
330
29
100
AcDbVisualStyle
  2
X-Ray
 70
    25
177
     3
291
     0
 70
    58
 90
        2
176
     1
 90
        2
176
     1
 90
        1
176
     1
 90
        1
176
     1
 40
0.5
176
     1
 40
30.0
176
     1
 62
     7
420
 16777215
176
     1
 90
        1
176
     1
 90
        0
176
     1
 62
     7
176
     1
 62
   257
176
     1
 90
        1
176
     1
 90
        1
176
     1
 40
1.0
176
     1
 90
        8
176
     1
 62
     7
176
     1
 40
1.0
176
     1
 90
        1
176
     1
 90
        6
176
     1
 90
        2
176
     1
 62
     7
176
     1
 90
        3
176
     1
 90
        0
176
     1
 90
        0
176
     1
290
     0
176
     1
 90
       13
176
     1
 40
0.0
176
     1
 90
        0
176
     1
290
     0
176
     1
290
     1
176
     1
290
     1
176
     1
290
     0
176
     1
290
     0
176
     1
290
     0
176
     1
290
     0
176
     1
290
     0
176
     1
290
     0
176
     1
 90
       50
176
     1
 40
0.0
176
     1
 40
1.0
176
     1
 90
        0
176
     1
 62
    18
420
        0
176
     1
 90
       50
176
     1
 90
        3
176
     1
 62
     5
420
      255
176
     1
290
     0
176
     1
 90
       50
176
     1
 90
       50
176
     1
 90
       50
176
     1
290
     0
176
     1
 90
       50
176
     1
 62
   256
176
     0
 40
1.0
176
     0
 90
        2
176
     1
  1
strokes_ogs.tif
176
     1
290
     0
176
     1
 40
1.0
176
     1
 40
1.0
176
     1
  0
DICTIONARYVAR
  5
81
102
{ACAD_REACTORS
330
7C
102
}
330
7C
100
DictionaryVariables
280
     0
  1
1:1
  0
DICTIONARYVAR
  5
7E
102
{ACAD_REACTORS
330
7C
102
}
330
7C
100
DictionaryVariables
280
     0
  1
STANDARD
  0
DICTIONARYVAR
  5
7D
102
{ACAD_REACTORS
330
7C
102
}
330
7C
100
DictionaryVariables
280
     0
  1
STANDARD
  0
DICTIONARYVAR
  5
7F
102
{ACAD_REACTORS
330
7C
102
}
330
7C
100
DictionaryVariables
280
     0
  1
Imperial24
  0
DICTIONARYVAR
  5
80
102
{ACAD_REACTORS
330
7C
102
}
330
7C
100
DictionaryVariables
280
     0
  1
Imperial24
  0
XRECORD
  5
24C
102
{ACAD_REACTORS
330
249
102
}
330
249
100
AcDbXrecord
280
     1
  1
BUILDING_ID
  1
Progetto per messa in tavola DXF, DWG
  1
FLOOR_ID
  1
694395
  0
XRECORD
  5
24B
102
{ACAD_REACTORS
330
249
102
}
330
249
100
AcDbXrecord
280
     1
  1
-2001160
  1
Apparecchi idraulici
  0
XRECORD
  5
24A
102
{ACAD_REACTORS
330
249
102
}
330
249
100
AcDbXrecord
280
     1
  1
859151
  1
Automatic flow rate regulator valve_Caleffi_121 DN15 : 1/2''
  0
DICTIONARY
  5
1A
330
19
100
AcDbDictionary
280
     1
281
     1
  3
BUMPTILE
360
1C
  3
DIFFUSETILE
360
1B
  3
OPACITYTILE
360
1F
  3
REFLECTIONTILE
360
1E
  3
REFRACTIONTILE
360
20
  3
SPECULARTILE
360
1D
  0
DICTIONARY
  5
12
330
11
100
AcDbDictionary
280
     1
281
     1
  3
BUMPTILE
360
14
  3
DIFFUSETILE
360
13
  3
OPACITYTILE
360
17
  3
REFLECTIONTILE
360
16
  3
REFRACTIONTILE
360
18
  3
SPECULARTILE
360
15
  0
DICTIONARY
  5
22
330
21
100
AcDbDictionary
280
     1
281
     1
  3
BUMPTILE
360
24
  3
DIFFUSETILE
360
23
  3
OPACITYTILE
360
27
  3
REFLECTIONTILE
360
26
  3
REFRACTIONTILE
360
28
  3
SPECULARTILE
360
25
  0
DICTIONARY
  5
24F
330
65
100
AcDbDictionary
280
     1
281
     1
  3
ACAD_ROUNDTRIP_2008_TABLESTYLE_CELLSTYLEMAP
360
250
  0
XRECORD
  5
1C
102
{ACAD_REACTORS
330
1A
102
}
330
1A
100
AcDbXrecord
280
     1
270
     1
271
     1
  0
XRECORD
  5
1B
102
{ACAD_REACTORS
330
1A
102
}
330
1A
100
AcDbXrecord
280
     1
270
     1
271
     1
  0
XRECORD
  5
1F
102
{ACAD_REACTORS
330
1A
102
}
330
1A
100
AcDbXrecord
280
     1
270
     1
271
     1
  0
XRECORD
  5
1E
102
{ACAD_REACTORS
330
1A
102
}
330
1A
100
AcDbXrecord
280
     1
270
     1
271
     1
  0
XRECORD
  5
20
102
{ACAD_REACTORS
330
1A
102
}
330
1A
100
AcDbXrecord
280
     1
270
     1
271
     1
  0
XRECORD
  5
1D
102
{ACAD_REACTORS
330
1A
102
}
330
1A
100
AcDbXrecord
280
     1
270
     1
271
     1
  0
XRECORD
  5
14
102
{ACAD_REACTORS
330
12
102
}
330
12
100
AcDbXrecord
280
     1
270
     1
271
     1
  0
XRECORD
  5
13
102
{ACAD_REACTORS
330
12
102
}
330
12
100
AcDbXrecord
280
     1
270
     1
271
     1
  0
XRECORD
  5
17
102
{ACAD_REACTORS
330
12
102
}
330
12
100
AcDbXrecord
280
     1
270
     1
271
     1
  0
XRECORD
  5
16
102
{ACAD_REACTORS
330
12
102
}
330
12
100
AcDbXrecord
280
     1
270
     1
271
     1
  0
XRECORD
  5
18
102
{ACAD_REACTORS
330
12
102
}
330
12
100
AcDbXrecord
280
     1
270
     1
271
     1
  0
XRECORD
  5
15
102
{ACAD_REACTORS
330
12
102
}
330
12
100
AcDbXrecord
280
     1
270
     1
271
     1
  0
XRECORD
  5
24
102
{ACAD_REACTORS
330
22
102
}
330
22
100
AcDbXrecord
280
     1
270
     1
271
     1
  0
XRECORD
  5
23
102
{ACAD_REACTORS
330
22
102
}
330
22
100
AcDbXrecord
280
     1
270
     1
271
     1
  0
XRECORD
  5
27
102
{ACAD_REACTORS
330
22
102
}
330
22
100
AcDbXrecord
280
     1
270
     1
271
     1
  0
XRECORD
  5
26
102
{ACAD_REACTORS
330
22
102
}
330
22
100
AcDbXrecord
280
     1
270
     1
271
     1
  0
XRECORD
  5
28
102
{ACAD_REACTORS
330
22
102
}
330
22
100
AcDbXrecord
280
     1
270
     1
271
     1
  0
XRECORD
  5
25
102
{ACAD_REACTORS
330
22
102
}
330
22
100
AcDbXrecord
280
     1
270
     1
271
     1
  0
CELLSTYLEMAP
  5
250
102
{ACAD_REACTORS
330
24F
102
}
330
24F
100
AcDbCellStyleMap
 90
        3
300
CELLSTYLE
  1
TABLEFORMAT_BEGIN
 90
        5
170
     1
 91
        0
 92
    32768
 62
   257
 93
        1
300
CONTENTFORMAT
  1
CONTENTFORMAT_BEGIN
 90
        0
 91
        0
 92
      512
 93
        0
300

 40
0.0
140
1.0
 94
        5
 62
     0
340
55
144
0.25
309
CONTENTFORMAT_END
171
     0
 94
        0
309
TABLEFORMAT_END
  1
CELLSTYLE_BEGIN
 90
        1
 91
        1
300
_TITLE
309
CELLSTYLE_END
300
CELLSTYLE
  1
TABLEFORMAT_BEGIN
 90
        5
170
     1
 91
        0
 92
        0
 62
   257
 93
        1
300
CONTENTFORMAT
  1
CONTENTFORMAT_BEGIN
 90
        0
 91
        0
 92
      512
 93
        0
300

 40
0.0
140
1.0
 94
        5
 62
     0
340
55
144
0.18
309
CONTENTFORMAT_END
171
     0
 94
        0
309
TABLEFORMAT_END
  1
CELLSTYLE_BEGIN
 90
        2
 91
        1
300
_HEADER
309
CELLSTYLE_END
300
CELLSTYLE
  1
TABLEFORMAT_BEGIN
 90
        5
170
     1
 91
        0
 92
        0
 62
   257
 93
        1
300
CONTENTFORMAT
  1
CONTENTFORMAT_BEGIN
 90
        0
 91
        0
 92
      512
 93
        0
300

 40
0.0
140
1.0
 94
        2
 62
     0
340
55
144
0.18
309
CONTENTFORMAT_END
171
     0
 94
        0
309
TABLEFORMAT_END
  1
CELLSTYLE_BEGIN
 90
        3
 91
        2
300
_DATA
309
CELLSTYLE_END
  0
ENDSEC
  0
EOF
