  0
SECTION
  2
HEADER
  9
$ACADVER
  1
AC1027
  9
$ACADMAINTVER
 70
    20
  9
$DWGCODEPAGE
  3
ANSI_1252
  9
$REQUIREDVERSIONS
160
                 0
  9
$INSBASE
 10
0.0
 20
0.0
 30
0.0
  9
$EXTMIN
 10
726.9712575187627
 20
1885.982558849976
 30
-0.00000001
  9
$EXTMAX
 10
1131.1143539431
 20
2102.499999999996
 30
0.00000001
  9
$LIMMIN
 10
0.0
 20
0.0
  9
$LIMMAX
 10
12.0
 20
9.0
  9
$ORTHOMODE
 70
     0
  9
$REGENMODE
 70
     1
  9
$FILLMODE
 70
     1
  9
$QTEXTMODE
 70
     0
  9
$MIRRTEXT
 70
     0
  9
$LTSCALE
 40
1.0
  9
$ATTMODE
 70
     1
  9
$TEXTSIZE
 40
0.2
  9
$TRACEWID
 40
0.05
  9
$TEXTSTYLE
  7
Standard
  9
$CLAYER
  8
0
  9
$CELTYPE
  6
ByLayer
  9
$CECOLOR
 62
   256
  9
$CELTSCALE
 40
1.0
  9
$DISPSILH
 70
     0
  9
$DIMSCALE
 40
1.0
  9
$DIMASZ
 40
0.18
  9
$DIMEXO
 40
0.0625
  9
$DIMDLI
 40
0.38
  9
$DIMRND
 40
0.0
  9
$DIMDLE
 40
0.0
  9
$DIMEXE
 40
0.18
  9
$DIMTP
 40
0.0
  9
$DIMTM
 40
0.0
  9
$DIMTXT
 40
0.18
  9
$DIMCEN
 40
0.09
  9
$DIMTSZ
 40
0.0
  9
$DIMTOL
 70
     0
  9
$DIMLIM
 70
     0
  9
$DIMTIH
 70
     1
  9
$DIMTOH
 70
     1
  9
$DIMSE1
 70
     0
  9
$DIMSE2
 70
     0
  9
$DIMTAD
 70
     0
  9
$DIMZIN
 70
     0
  9
$DIMBLK
  1

  9
$DIMASO
 70
     1
  9
$DIMSHO
 70
     1
  9
$DIMPOST
  1

  9
$DIMAPOST
  1

  9
$DIMALT
 70
     0
  9
$DIMALTD
 70
     2
  9
$DIMALTF
 40
25.4
  9
$DIMLFAC
 40
1.0
  9
$DIMTOFL
 70
     0
  9
$DIMTVP
 40
0.0
  9
$DIMTIX
 70
     0
  9
$DIMSOXD
 70
     0
  9
$DIMSAH
 70
     0
  9
$DIMBLK1
  1

  9
$DIMBLK2
  1

  9
$DIMSTYLE
  2
Standard
  9
$DIMCLRD
 70
     0
  9
$DIMCLRE
 70
     0
  9
$DIMCLRT
 70
     0
  9
$DIMTFAC
 40
1.0
  9
$DIMGAP
 40
0.09
  9
$DIMJUST
 70
     0
  9
$DIMSD1
 70
     0
  9
$DIMSD2
 70
     0
  9
$DIMTOLJ
 70
     1
  9
$DIMTZIN
 70
     0
  9
$DIMALTZ
 70
     0
  9
$DIMALTTZ
 70
     0
  9
$DIMUPT
 70
     0
  9
$DIMDEC
 70
     4
  9
$DIMTDEC
 70
     4
  9
$DIMALTU
 70
     2
  9
$DIMALTTD
 70
     2
  9
$DIMTXSTY
  7
Standard
  9
$DIMAUNIT
 70
     0
  9
$DIMADEC
 70
     0
  9
$DIMALTRND
 40
0.0
  9
$DIMAZIN
 70
     0
  9
$DIMDSEP
 70
    46
  9
$DIMATFIT
 70
     3
  9
$DIMFRAC
 70
     0
  9
$DIMLDRBLK
  1

  9
$DIMLUNIT
 70
     2
  9
$DIMLWD
 70
    -2
  9
$DIMLWE
 70
    -2
  9
$DIMTMOVE
 70
     0
  9
$DIMFXL
 40
1.0
  9
$DIMFXLON
 70
     0
  9
$DIMJOGANG
 40
0.7853981633974483
  9
$DIMTFILL
 70
     0
  9
$DIMTFILLCLR
 70
     0
  9
$DIMARCSYM
 70
     0
  9
$DIMLTYPE
  6

  9
$DIMLTEX1
  6

  9
$DIMLTEX2
  6

  9
$DIMTXTDIRECTION
 70
     0
  9
$LUNITS
 70
     2
  9
$LUPREC
 70
     4
  9
$SKETCHINC
 40
0.1
  9
$FILLETRAD
 40
0.0
  9
$AUNITS
 70
     0
  9
$AUPREC
 70
     0
  9
$MENU
  1
.
  9
$ELEVATION
 40
0.0
  9
$PELEVATION
 40
0.0
  9
$THICKNESS
 40
0.0
  9
$LIMCHECK
 70
     0
  9
$CHAMFERA
 40
0.0
  9
$CHAMFERB
 40
0.0
  9
$CHAMFERC
 40
0.0
  9
$CHAMFERD
 40
0.0
  9
$SKPOLY
 70
     0
  9
$TDCREATE
 40
2457549.570964780
  9
$TDUCREATE
 40
2457549.487631447
  9
$TDUPDATE
 40
2457549.570964780
  9
$TDUUPDATE
 40
2457549.487631447
  9
$TDINDWG
 40
0.0000129398
  9
$TDUSRTIMER
 40
0.0000129398
  9
$USRTIMER
 70
     1
  9
$ANGBASE
 50
0.0
  9
$ANGDIR
 70
     0
  9
$PDMODE
 70
     0
  9
$PDSIZE
 40
0.0
  9
$PLINEWID
 40
0.0
  9
$SPLFRAME
 70
     0
  9
$SPLINETYPE
 70
     6
  9
$SPLINESEGS
 70
     8
  9
$HANDSEED
  5
28A
  9
$SURFTAB1
 70
     6
  9
$SURFTAB2
 70
     6
  9
$SURFTYPE
 70
     6
  9
$SURFU
 70
     6
  9
$SURFV
 70
     6
  9
$UCSBASE
  2

  9
$UCSNAME
  2

  9
$UCSORG
 10
0.0
 20
0.0
 30
0.0
  9
$UCSXDIR
 10
1.0
 20
0.0
 30
0.0
  9
$UCSYDIR
 10
0.0
 20
1.0
 30
0.0
  9
$UCSORTHOREF
  2

  9
$UCSORTHOVIEW
 70
     0
  9
$UCSORGTOP
 10
0.0
 20
0.0
 30
0.0
  9
$UCSORGBOTTOM
 10
0.0
 20
0.0
 30
0.0
  9
$UCSORGLEFT
 10
0.0
 20
0.0
 30
0.0
  9
$UCSORGRIGHT
 10
0.0
 20
0.0
 30
0.0
  9
$UCSORGFRONT
 10
0.0
 20
0.0
 30
0.0
  9
$UCSORGBACK
 10
0.0
 20
0.0
 30
0.0
  9
$PUCSBASE
  2

  9
$PUCSNAME
  2

  9
$PUCSORG
 10
0.0
 20
0.0
 30
0.0
  9
$PUCSXDIR
 10
1.0
 20
0.0
 30
0.0
  9
$PUCSYDIR
 10
0.0
 20
1.0
 30
0.0
  9
$PUCSORTHOREF
  2

  9
$PUCSORTHOVIEW
 70
     0
  9
$PUCSORGTOP
 10
0.0
 20
0.0
 30
0.0
  9
$PUCSORGBOTTOM
 10
0.0
 20
0.0
 30
0.0
  9
$PUCSORGLEFT
 10
0.0
 20
0.0
 30
0.0
  9
$PUCSORGRIGHT
 10
0.0
 20
0.0
 30
0.0
  9
$PUCSORGFRONT
 10
0.0
 20
0.0
 30
0.0
  9
$PUCSORGBACK
 10
0.0
 20
0.0
 30
0.0
  9
$USERI1
 70
     0
  9
$USERI2
 70
     0
  9
$USERI3
 70
     0
  9
$USERI4
 70
     0
  9
$USERI5
 70
     0
  9
$USERR1
 40
0.0
  9
$USERR2
 40
0.0
  9
$USERR3
 40
0.0
  9
$USERR4
 40
0.0
  9
$USERR5
 40
0.0
  9
$WORLDVIEW
 70
     1
  9
$SHADEDGE
 70
     3
  9
$SHADEDIF
 70
    70
  9
$TILEMODE
 70
     1
  9
$MAXACTVP
 70
    64
  9
$PINSBASE
 10
0.0
 20
0.0
 30
0.0
  9
$PLIMCHECK
 70
     0
  9
$PEXTMIN
 10
1.000000000000000E+20
 20
1.000000000000000E+20
 30
1.000000000000000E+20
  9
$PEXTMAX
 10
-1.000000000000000E+20
 20
-1.000000000000000E+20
 30
-1.000000000000000E+20
  9
$PLIMMIN
 10
0.0
 20
0.0
  9
$PLIMMAX
 10
12.0
 20
9.0
  9
$UNITMODE
 70
     0
  9
$VISRETAIN
 70
     1
  9
$PLINEGEN
 70
     0
  9
$PSLTSCALE
 70
     1
  9
$TREEDEPTH
 70
  3020
  9
$CMLSTYLE
  2
Standard
  9
$CMLJUST
 70
     0
  9
$CMLSCALE
 40
1.0
  9
$PROXYGRAPHICS
 70
     1
  9
$MEASUREMENT
 70
     1
  9
$CELWEIGHT
370
    -1
  9
$ENDCAPS
280
     0
  9
$JOINSTYLE
280
     0
  9
$LWDISPLAY
290
     0
  9
$INSUNITS
 70
     4
  9
$HYPERLINKBASE
  1

  9
$STYLESHEET
  1

  9
$XEDIT
290
     1
  9
$CEPSNTYPE
380
     0
  9
$PSTYLEMODE
290
     1
  9
$FINGERPRINTGUID
  2
{7DAF4C44-9AFB-4155-ADA0-305C54F5264D}
  9
$VERSIONGUID
  2
{C0F86A26-F63B-4A12-8E16-AD110746A9C7}
  9
$EXTNAMES
290
     1
  9
$PSVPSCALE
 40
0.0
  9
$OLESTARTUP
290
     0
  9
$SORTENTS
280
   127
  9
$INDEXCTL
280
     0
  9
$HIDETEXT
280
     1
  9
$XCLIPFRAME
280
     2
  9
$HALOGAP
280
     0
  9
$OBSCOLOR
 70
   257
  9
$OBSLTYPE
280
     0
  9
$INTERSECTIONDISPLAY
280
     0
  9
$INTERSECTIONCOLOR
 70
   257
  9
$DIMASSOC
280
     2
  9
$PROJECTNAME
  1

  9
$CAMERADISPLAY
290
     0
  9
$LENSLENGTH
 40
50.0
  9
$CAMERAHEIGHT
 40
0.0
  9
$STEPSPERSEC
 40
2.0
  9
$STEPSIZE
 40
6.0
  9
$3DDWFPREC
 40
2.0
  9
$PSOLWIDTH
 40
0.25
  9
$PSOLHEIGHT
 40
4.0
  9
$LOFTANG1
 40
1.570796326794896
  9
$LOFTANG2
 40
1.570796326794896
  9
$LOFTMAG1
 40
0.0
  9
$LOFTMAG2
 40
0.0
  9
$LOFTPARAM
 70
     7
  9
$LOFTNORMALS
280
     1
  9
$LATITUDE
 40
37.795
  9
$LONGITUDE
 40
-122.394
  9
$NORTHDIRECTION
 40
0.0
  9
$TIMEZONE
 70
 -8000
  9
$LIGHTGLYPHDISPLAY
280
     1
  9
$TILEMODELIGHTSYNCH
280
     1
  9
$CMATERIAL
347
11
  9
$SOLIDHIST
280
     0
  9
$SHOWHIST
280
     1
  9
$DWFFRAME
280
     2
  9
$DGNFRAME
280
     0
  9
$REALWORLDSCALE
290
     1
  9
$INTERFERECOLOR
 62
     1
  9
$INTERFEREOBJVS
345
33
  9
$INTERFEREVPVS
346
30
  9
$CSHADOW
280
     0
  9
$SHADOWPLANELOCATION
 40
0.0
  0
ENDSEC
  0
SECTION
  2
CLASSES
  0
CLASS
  1
ACDBDICTIONARYWDFLT
  2
AcDbDictionaryWithDefault
  3
ObjectDBX Classes
 90
        0
 91
        1
280
     0
281
     0
  0
CLASS
  1
MATERIAL
  2
AcDbMaterial
  3
ObjectDBX Classes
 90
     1153
 91
        3
280
     0
281
     0
  0
CLASS
  1
VISUALSTYLE
  2
AcDbVisualStyle
  3
ObjectDBX Classes
 90
     4095
 91
       24
280
     0
281
     0
  0
CLASS
  1
SCALE
  2
AcDbScale
  3
ObjectDBX Classes
 90
     1153
 91
       17
280
     0
281
     0
  0
CLASS
  1
TABLESTYLE
  2
AcDbTableStyle
  3
ObjectDBX Classes
 90
     4095
 91
        1
280
     0
281
     0
  0
CLASS
  1
MLEADERSTYLE
  2
AcDbMLeaderStyle
  3
ACDB_MLEADERSTYLE_CLASS
 90
     4095
 91
        1
280
     0
281
     0
  0
CLASS
  1
ACDBSECTIONVIEWSTYLE
  2
AcDbSectionViewStyle
  3
ObjectDBX Classes
 90
     1025
 91
        1
280
     0
281
     0
  0
CLASS
  1
ACDBDETAILVIEWSTYLE
  2
AcDbDetailViewStyle
  3
ObjectDBX Classes
 90
     1025
 91
        1
280
     0
281
     0
  0
CLASS
  1
RASTERVARIABLES
  2
AcDbRasterVariables
  3
ISM
 90
        0
 91
        1
280
     0
281
     0
  0
CLASS
  1
DICTIONARYVAR
  2
AcDbDictionaryVar
  3
ObjectDBX Classes
 90
        0
 91
        5
280
     0
281
     0
  0
CLASS
  1
CELLSTYLEMAP
  2
AcDbCellStyleMap
  3
ObjectDBX Classes
 90
     1152
 91
        2
280
     0
281
     0
  0
CLASS
  1
SORTENTSTABLE
  2
AcDbSortentsTable
  3
ObjectDBX Classes
 90
        0
 91
        1
280
     0
281
     0
  0
ENDSEC
  0
SECTION
  2
TABLES
  0
TABLE
  2
VPORT
  5
8
330
0
100
AcDbSymbolTable
 70
     1
  0
VPORT
  5
57
330
8
100
AcDbSymbolTableRecord
100
AcDbViewportTableRecord
  2
*Active
 70
     0
 10
0.0
 20
0.0
 11
1.0
 21
1.0
 12
929.0428057309313
 22
1994.241279424986
 13
0.0
 23
0.0
 14
1.0
 24
1.0
 15
0.0
 25
0.0
 16
0.0
 26
0.0
 36
1.0
 17
0.0
 27
0.0
 37
0.0
 40
216.5174411500191
 41
1.866561392365234
 42
50.0
 43
0.0
 44
0.0
 50
0.0
 51
0.0
 71
     0
 72
  1000
 73
     1
 74
     1
 75
     0
 76
     0
 77
     0
 78
     0
281
     0
 65
     1
110
0.0
120
0.0
130
0.0
111
1.0
121
0.0
131
0.0
112
0.0
122
1.0
132
0.0
 79
     0
146
0.0
 60
     3
 61
     5
292
     1
282
     1
141
0.0
142
0.0
 63
   250
421
  3355443
  0
ENDTAB
  0
TABLE
  2
LTYPE
  5
5
330
0
100
AcDbSymbolTable
 70
     3
  0
LTYPE
  5
5B
330
5
100
AcDbSymbolTableRecord
100
AcDbLinetypeTableRecord
  2
ByBlock
 70
     0
  3

 72
    65
 73
     0
 40
0.0
  0
LTYPE
  5
5C
330
5
100
AcDbSymbolTableRecord
100
AcDbLinetypeTableRecord
  2
ByLayer
 70
     0
  3

 72
    65
 73
     0
 40
0.0
  0
LTYPE
  5
5D
330
5
100
AcDbSymbolTableRecord
100
AcDbLinetypeTableRecord
  2
Continuous
 70
     0
  3
Solid line
 72
    65
 73
     0
 40
0.0
  0
LTYPE
  5
69
330
5
100
AcDbSymbolTableRecord
100
AcDbLinetypeTableRecord
  2
PHANTOM2
 70
     0
  3
___ _ _ ___ _ _ ___ _ _ ___ _ _
 72
    65
 73
     6
 40
1.25
 49
0.625
 74
     0
 49
-0.125
 74
     0
 49
0.125
 74
     0
 49
-0.125
 74
     0
 49
0.125
 74
     0
 49
-0.125
 74
     0
  0
LTYPE
  5
86
330
5
100
AcDbSymbolTableRecord
100
AcDbLinetypeTableRecord
  2
Nascosto 1_5 mm
 70
     0
  3

 72
    65
 73
     2
 40
2.2
 49
1.5
 74
     0
 49
-0.7000000000000001
 74
     0
  0
ENDTAB
  0
TABLE
  2
LAYER
  5
2
330
0
100
AcDbSymbolTable
 70
     3
  0
LAYER
  5
54
330
2
100
AcDbSymbolTableRecord
100
AcDbLayerTableRecord
  2
0
 70
     0
 62
     7
  6
Continuous
370
    -3
390
F
347
21
348
0
  0
LAYER
  5
85
330
2
100
AcDbSymbolTableRecord
100
AcDbLayerTableRecord
  2
P-SANR-FIXT
 70
     0
 62
     6
  6
Continuous
370
    18
390
F
347
21
348
0
  0
ENDTAB
  0
TABLE
  2
STYLE
  5
3
330
0
100
AcDbSymbolTable
 70
     2
  0
STYLE
  5
55
330
3
100
AcDbSymbolTableRecord
100
AcDbTextStyleTableRecord
  2
Standard
 70
     0
 40
0.0
 41
1.0
 50
0.0
 71
     0
 42
0.2
  3
txt
  4

  0
STYLE
  5
5A
330
3
100
AcDbSymbolTableRecord
100
AcDbTextStyleTableRecord
  2
Annotative
 70
     0
 40
0.0
 41
1.0
 50
0.0
 71
     0
 42
0.2
  3
txt
  4

1001
AcadAnnotative
1000
AnnotativeData
1002
{
1070
     1
1070
     1
1002
}
  0
ENDTAB
  0
TABLE
  2
VIEW
  5
6
330
0
100
AcDbSymbolTable
 70
     0
  0
ENDTAB
  0
TABLE
  2
UCS
  5
7
330
0
100
AcDbSymbolTable
 70
     0
  0
ENDTAB
  0
TABLE
  2
APPID
  5
9
330
0
100
AcDbSymbolTable
 70
     3
  0
APPID
  5
56
330
9
100
AcDbSymbolTableRecord
100
AcDbRegAppTableRecord
  2
ACAD
 70
     0
  0
APPID
  5
5E
330
9
100
AcDbSymbolTableRecord
100
AcDbRegAppTableRecord
  2
AcadAnnotative
 70
     0
  0
APPID
  5
79
330
9
100
AcDbSymbolTableRecord
100
AcDbRegAppTableRecord
  2
REVIT
 70
     0
  0
ENDTAB
  0
TABLE
  2
DIMSTYLE
  5
A
330
0
100
AcDbSymbolTable
 70
     2
100
AcDbDimStyleTable
 71
     0
  0
DIMSTYLE
105
58
330
A
100
AcDbSymbolTableRecord
100
AcDbDimStyleTableRecord
  2
Standard
 70
     0
340
55
  0
DIMSTYLE
105
59
330
A
100
AcDbSymbolTableRecord
100
AcDbDimStyleTableRecord
  2
Annotative
 70
     0
340
55
1001
AcadAnnotative
1000
AnnotativeData
1002
{
1070
     1
1070
     1
1002
}
  0
ENDTAB
  0
TABLE
  2
BLOCK_RECORD
  5
1
330
0
100
AcDbSymbolTable
 70
     3
  0
BLOCK_RECORD
  5
71
102
{ACAD_XDICTIONARY
360
285
102
}
330
1
100
AcDbSymbolTableRecord
100
AcDbBlockTableRecord
  2
*Model_Space
340
74
 70
     0
280
     1
281
     0
  0
BLOCK_RECORD
  5
6D
330
1
100
AcDbSymbolTableRecord
100
AcDbBlockTableRecord
  2
*Paper_Space
340
70
 70
     0
280
     1
281
     0
  0
BLOCK_RECORD
  5
75
330
1
100
AcDbSymbolTableRecord
100
AcDbBlockTableRecord
  2
*Paper_Space0
340
78
 70
     0
280
     1
281
     0
  0
BLOCK_RECORD
  5
87
330
1
100
AcDbSymbolTableRecord
100
AcDbBlockTableRecord
  2
Automatic flow rate regulator valve_Caleffi_121 DN15 - 1_2__-859151-Est - Idraulica
340
0
102
{BLKREFS
331
197
102
}
 70
     0
280
     1
281
     0
  0
BLOCK_RECORD
  5
198
330
1
100
AcDbSymbolTableRecord
100
AcDbBlockTableRecord
  2
Automatic flow rate regulator valve_Caleffi_121 DN15 - 1_2__-V1-Est - Idraulica
340
0
102
{BLKREFS
331
27F
102
}
 70
     0
280
     1
281
     0
  0
ENDTAB
  0
ENDSEC
  0
SECTION
  2
BLOCKS
  0
BLOCK
  5
72
330
71
100
AcDbEntity
  8
0
100
AcDbBlockBegin
  2
*Model_Space
 70
     0
 10
0.0
 20
0.0
 30
0.0
  3
*Model_Space
  1

  0
ENDBLK
  5
73
330
71
100
AcDbEntity
  8
0
100
AcDbBlockEnd
  0
BLOCK
  5
6E
330
6D
100
AcDbEntity
 67
     1
  8
0
100
AcDbBlockBegin
  2
*Paper_Space
 70
     0
 10
0.0
 20
0.0
 30
0.0
  3
*Paper_Space
  1

  0
ENDBLK
  5
6F
330
6D
100
AcDbEntity
 67
     1
  8
0
100
AcDbBlockEnd
  0
BLOCK
  5
76
330
75
100
AcDbEntity
 67
     1
  8
0
100
AcDbBlockBegin
  2
*Paper_Space0
 70
     0
 10
0.0
 20
0.0
 30
0.0
  3
*Paper_Space0
  1

  0
ENDBLK
  5
77
330
75
100
AcDbEntity
 67
     1
  8
0
100
AcDbBlockEnd
  0
BLOCK
  5
195
330
87
100
AcDbEntity
  8
0
100
AcDbBlockBegin
  2
Automatic flow rate regulator valve_Caleffi_121 DN15 - 1_2__-859151-Est - Idraulica
 70
     0
 10
0.0
 20
0.0
 30
0.0
  3
Automatic flow rate regulator valve_Caleffi_121 DN15 - 1_2__-859151-Est - Idraulica
  1

  0
LINE
  5
88
330
87
100
AcDbEntity
  8
P-SANR-FIXT
100
AcDbLine
 10
798.8164074433052
 20
1941.634386696925
 30
0.0
 11
798.8164074433052
 21
1939.999999999944
 31
0.0
  0
LINE
  5
89
330
87
100
AcDbEntity
  8
P-SANR-FIXT
100
AcDbLine
 10
832.5164074430139
 20
1939.999999999944
 30
0.0
 11
832.5164074430139
 21
1941.631255209448
 31
0.0
  0
LINE
  5
8A
330
87
100
AcDbEntity
  8
P-SANR-FIXT
100
AcDbLine
 10
796.7664074431604
 20
1939.999999999944
 30
0.0
 11
796.7664074431604
 21
1929.487619091048
 31
0.0
  0
LINE
  5
8B
330
87
100
AcDbEntity
  8
P-SANR-FIXT
100
AcDbLine
 10
796.7664074431604
 20
1902.901142935439
 30
0.0
 11
796.7664074431604
 21
1897.999999999899
 31
0.0
  0
LINE
  5
8C
330
87
100
AcDbEntity
  8
P-SANR-FIXT
100
AcDbLine
 10
834.5664074431589
 20
1897.999999999899
 30
0.0
 11
834.5664074431589
 21
1902.901142935439
 31
0.0
  0
LINE
  5
8D
330
87
100
AcDbEntity
  8
P-SANR-FIXT
100
AcDbLine
 10
834.5664074431589
 20
1929.098857064338
 30
0.0
 11
834.5664074431589
 21
1939.999999999944
 31
0.0
  0
LINE
  5
8E
330
87
100
AcDbEntity
  8
P-SANR-FIXT
100
AcDbLine
 10
796.7664074431589
 20
1939.999999999943
 30
0.0
 11
834.5664074431576
 21
1939.999999999943
 31
0.0
  0
LINE
  5
8F
330
87
100
AcDbEntity
  8
P-SANR-FIXT
100
AcDbLine
 10
796.7664074431589
 20
1897.999999999898
 30
0.0
 11
801.3657593226632
 21
1897.999999999898
 31
0.0
  0
LINE
  5
90
330
87
100
AcDbEntity
  8
P-SANR-FIXT
100
AcDbLine
 10
829.9670555636534
 20
1897.999999999898
 30
0.0
 11
834.5664074431576
 21
1897.999999999898
 31
0.0
  0
LINE
  5
91
330
87
100
AcDbEntity
  8
P-SANR-FIXT
100
AcDbLine
 10
798.1664074431582
 20
1897.999999999898
 30
0.0
 11
798.1664074431582
 21
1886.866025403746
 31
0.0
  0
LINE
  5
92
330
87
100
AcDbEntity
  8
P-SANR-FIXT
100
AcDbLine
 10
833.1664074431598
 20
1886.866025403746
 30
0.0
 11
833.1664074431598
 21
1897.999999999898
 31
0.0
  0
LINE
  5
93
330
87
100
AcDbEntity
  8
P-SANR-FIXT
100
AcDbLine
 10
831.6664074431599
 20
1885.999999999961
 30
0.0
 11
833.16640744316
 21
1886.866025403746
 31
0.0
  0
LINE
  5
94
330
87
100
AcDbEntity
  8
P-SANR-FIXT
100
AcDbLine
 10
798.1664074431585
 20
1886.866025403746
 30
0.0
 11
799.6664074431592
 21
1885.999999999961
 31
0.0
  0
LINE
  5
95
330
87
100
AcDbEntity
  8
P-SANR-FIXT
100
AcDbLine
 10
801.0858729141768
 20
1885.999999999961
 30
0.0
 11
801.8100009826071
 21
1885.999999999961
 31
0.0
  0
LINE
  5
96
330
87
100
AcDbEntity
  8
P-SANR-FIXT
100
AcDbLine
 10
801.8100009826069
 20
1885.999999999961
 30
0.0
 11
802.5254099763804
 21
1885.999999999961
 31
0.0
  0
LINE
  5
97
330
87
100
AcDbEntity
  8
P-SANR-FIXT
100
AcDbLine
 10
828.8074049099554
 20
1885.999999999961
 30
0.0
 11
829.5228139037096
 21
1885.999999999961
 31
0.0
  0
LINE
  5
98
330
87
100
AcDbEntity
  8
P-SANR-FIXT
100
AcDbLine
 10
829.5228139037096
 20
1885.999999999961
 30
0.0
 11
830.2469419721235
 21
1885.999999999961
 31
0.0
  0
LINE
  5
99
330
87
100
AcDbEntity
  8
P-SANR-FIXT
100
AcDbLine
 10
831.6664074431587
 20
1885.999999999961
 30
0.0
 11
829.5228139037096
 21
1885.999999999961
 31
0.0
  0
LINE
  5
9A
330
87
100
AcDbEntity
  8
P-SANR-FIXT
100
AcDbLine
 10
829.5228139037096
 20
1885.999999999961
 30
0.0
 11
828.8074049099554
 21
1885.999999999961
 31
0.0
  0
LINE
  5
9B
330
87
100
AcDbEntity
  8
P-SANR-FIXT
100
AcDbLine
 10
828.5695211114383
 20
1885.999999999961
 30
0.0
 11
815.6664074431583
 21
1885.999999999961
 31
0.0
  0
LINE
  5
9C
330
87
100
AcDbEntity
  8
P-SANR-FIXT
100
AcDbLine
 10
815.6664074431583
 20
1885.999999999961
 30
0.0
 11
814.2311693342062
 21
1885.999999999961
 31
0.0
  0
LINE
  5
9D
330
87
100
AcDbEntity
  8
P-SANR-FIXT
100
AcDbLine
 10
813.9245374455267
 20
1885.999999999961
 30
0.0
 11
802.7632937748784
 21
1885.999999999961
 31
0.0
  0
LINE
  5
9E
330
87
100
AcDbEntity
  8
P-SANR-FIXT
100
AcDbLine
 10
802.5254099763804
 20
1885.999999999961
 30
0.0
 11
801.8100009826071
 21
1885.999999999961
 31
0.0
  0
LINE
  5
9F
330
87
100
AcDbEntity
  8
P-SANR-FIXT
100
AcDbLine
 10
801.8100009826071
 20
1885.999999999961
 30
0.0
 11
799.6664074431579
 21
1885.999999999961
 31
0.0
  0
LINE
  5
A0
330
87
100
AcDbEntity
  8
P-SANR-FIXT
100
AcDbLine
 10
817.1033622126824
 20
1885.999999999961
 30
0.0
 11
814.2294526736346
 21
1885.999999999961
 31
0.0
  0
LINE
  5
A1
330
87
100
AcDbEntity
  8
P-SANR-FIXT
100
AcDbLine
 10
814.2294526736346
 20
1885.999999999961
 30
0.0
 11
817.1033622126824
 21
1885.999999999961
 31
0.0
  0
LINE
  5
A2
330
87
100
AcDbEntity
  8
P-SANR-FIXT
100
AcDbLine
 10
798.166407443157
 20
1886.866025403746
 30
0.0
 11
798.2656392629157
 21
1886.866025403746
 31
0.0
  0
LINE
  5
A3
330
87
100
AcDbEntity
  8
P-SANR-FIXT
100
AcDbLine
 10
798.2656392629157
 20
1886.866025403746
 30
0.0
 11
798.2656392629157
 21
1897.999999999897
 31
0.0
  0
SPLINE
  5
A4
330
87
100
AcDbEntity
  8
P-SANR-FIXT
100
AcDbSpline
210
0.0
220
0.0
230
1.0
 70
     8
 71
     3
 72
     9
 73
     5
 74
     0
 42
0.000000001
 43
0.0000000001
 40
0.0
 40
0.0
 40
0.0
 40
0.0
 40
0.5
 40
0.8015527323923311
 40
0.8015527323923311
 40
0.8015527323923311
 40
0.8015527323923311
 10
798.2656392629157
 20
1886.866025403746
 30
0.0
 10
798.8482279007399
 20
1886.584345598777
 30
0.0
 10
799.78870221875
 20
1886.24287020999
 30
0.0
 10
800.739634056992
 20
1886.077875966053
 30
0.0
 10
801.0988649106646
 20
1886.040781534299
 30
0.0
  0
SPLINE
  5
A5
330
87
100
AcDbEntity
  8
P-SANR-FIXT
100
AcDbSpline
210
0.0
220
0.0
230
1.0
 70
     8
 71
     3
 72
     8
 73
     4
 74
     0
 42
0.000000001
 43
0.0000000001
 40
0.8217425864313058
 40
0.8217425864313058
 40
0.8217425864313058
 40
0.8217425864313058
 40
1.0
 40
1.0
 40
1.0
 40
1.0
 10
801.1710395436098
 20
1886.033666695134
 30
0.0
 10
801.3835094885124
 20
1886.013716170418
 30
0.0
 10
801.5964966348455
 20
1886.002493938693
 30
0.0
 10
801.8100009826088
 20
1885.999999999961
 30
0.0
  0
SPLINE
  5
A6
330
87
100
AcDbEntity
  8
P-SANR-FIXT
100
AcDbSpline
210
0.0
220
0.0
230
1.0
 70
     8
 71
     3
 72
     9
 73
     5
 74
     0
 42
0.000000001
 43
0.0000000001
 40
0.0
 40
0.0
 40
0.0
 40
0.0
 40
0.5
 40
1.0
 40
1.0
 40
1.0
 40
1.0
 10
801.8100009826088
 20
1885.999999999961
 30
0.0
 10
802.408866251349
 20
1886.006995329587
 30
0.0
 10
803.5984584733713
 20
1886.158328226511
 30
0.0
 10
804.7717740644777
 20
1886.584345598777
 30
0.0
 10
805.3543627023021
 20
1886.866025403746
 30
0.0
  0
LINE
  5
A7
330
87
100
AcDbEntity
  8
P-SANR-FIXT
100
AcDbLine
 10
805.3543627023021
 20
1886.866025403746
 30
0.0
 11
805.3543627023021
 21
1895.463005347406
 31
0.0
  0
LINE
  5
A8
330
87
100
AcDbEntity
  8
P-SANR-FIXT
100
AcDbLine
 10
805.3543627023019
 20
1886.866025403746
 30
0.0
 11
808.577684003772
 21
1886.866025403746
 31
0.0
  0
LINE
  5
A9
330
87
100
AcDbEntity
  8
P-SANR-FIXT
100
AcDbLine
 10
808.5776840037723
 20
1886.866025403746
 30
0.0
 11
808.5776840037723
 21
1894.141849286804
 31
0.0
  0
SPLINE
  5
AA
330
87
100
AcDbEntity
  8
P-SANR-FIXT
100
AcDbSpline
210
0.0
220
0.0
230
1.0
 70
     8
 71
     3
 72
     9
 73
     5
 74
     0
 42
0.000000001
 43
0.0000000001
 40
0.0
 40
0.0
 40
0.0
 40
0.0
 40
0.5
 40
0.8015527323947512
 40
0.8015527323947512
 40
0.8015527323947512
 40
0.8015527323947512
 10
808.5776840037723
 20
1886.866025403746
 30
0.0
 10
809.7428612794209
 20
1886.584345598777
 30
0.0
 10
811.6238099154465
 20
1886.24287020999
 30
0.0
 10
813.5256735919359
 20
1886.077875966052
 30
0.0
 10
814.2441352992868
 20
1886.040781534299
 30
0.0
  0
SPLINE
  5
AB
330
87
100
AcDbEntity
  8
P-SANR-FIXT
100
AcDbSpline
210
0.0
220
0.0
230
1.0
 70
     8
 71
     3
 72
     8
 73
     4
 74
     0
 42
0.000000001
 43
0.0000000001
 40
0.8071594078416424
 40
0.8071594078416424
 40
0.8071594078416424
 40
0.8071594078416424
 40
1.0
 40
1.0
 40
1.0
 40
1.0
 10
814.284212769281
 20
1886.038738382829
 30
0.0
 10
814.7437337530115
 20
1886.015610761265
 30
0.0
 10
815.2044653109706
 20
1886.002697966976
 30
0.0
 10
815.6664074431581
 20
1885.999999999961
 30
0.0
  0
SPLINE
  5
AC
330
87
100
AcDbEntity
  8
P-SANR-FIXT
100
AcDbSpline
210
0.0
220
0.0
230
1.0
 70
     8
 71
     3
 72
     8
 73
     4
 74
     0
 42
0.000000001
 43
0.0000000001
 40
0.0
 40
0.0
 40
0.0
 40
0.0
 40
0.1928405921584353
 40
0.1928405921584353
 40
0.1928405921584353
 40
0.1928405921584353
 10
815.6664074431581
 20
1885.999999999961
 30
0.0
 10
816.128349575346
 20
1886.002697966976
 30
0.0
 10
816.5890811333051
 20
1886.015610761265
 30
0.0
 10
817.0486021170356
 20
1886.038738382829
 30
0.0
  0
SPLINE
  5
AD
330
87
100
AcDbEntity
  8
P-SANR-FIXT
100
AcDbSpline
210
0.0
220
0.0
230
1.0
 70
     8
 71
     3
 72
     9
 73
     5
 74
     0
 42
0.000000001
 43
0.0000000001
 40
0.1984472676053748
 40
0.1984472676053748
 40
0.1984472676053748
 40
0.1984472676053748
 40
0.5
 40
1.0
 40
1.0
 40
1.0
 40
1.0
 10
817.08867958703
 20
1886.040781534299
 30
0.0
 10
817.8071412943806
 20
1886.077875966052
 30
0.0
 10
819.7090049708695
 20
1886.24287020999
 30
0.0
 10
821.5899536068944
 20
1886.584345598777
 30
0.0
 10
822.7551308825429
 20
1886.866025403746
 30
0.0
  0
LINE
  5
AE
330
87
100
AcDbEntity
  8
P-SANR-FIXT
100
AcDbLine
 10
822.7551308825429
 20
1886.866025403746
 30
0.0
 11
822.7551308825429
 21
1894.141849286803
 31
0.0
  0
LINE
  5
AF
330
87
100
AcDbEntity
  8
P-SANR-FIXT
100
AcDbLine
 10
822.7551308825427
 20
1886.866025403746
 30
0.0
 11
825.9784521840176
 21
1886.866025403746
 31
0.0
  0
LINE
  5
B0
330
87
100
AcDbEntity
  8
P-SANR-FIXT
100
AcDbLine
 10
825.9784521840179
 20
1886.866025403746
 30
0.0
 11
825.9784521840179
 21
1895.463005347408
 31
0.0
  0
SPLINE
  5
B1
330
87
100
AcDbEntity
  8
P-SANR-FIXT
100
AcDbSpline
210
0.0
220
0.0
230
1.0
 70
     8
 71
     3
 72
     9
 73
     5
 74
     0
 42
0.000000001
 43
0.0000000001
 40
0.0
 40
0.0
 40
0.0
 40
0.0
 40
0.5
 40
1.0
 40
1.0
 40
1.0
 40
1.0
 10
825.9784521840179
 20
1886.866025403746
 30
0.0
 10
826.5610408218419
 20
1886.584345598777
 30
0.0
 10
827.7343564129477
 20
1886.158328226511
 30
0.0
 10
828.9239486349693
 20
1886.006995329587
 30
0.0
 10
829.5228139037089
 20
1885.999999999961
 30
0.0
  0
SPLINE
  5
B2
330
87
100
AcDbEntity
  8
P-SANR-FIXT
100
AcDbSpline
210
0.0
220
0.0
230
1.0
 70
     8
 71
     3
 72
     8
 73
     4
 74
     0
 42
0.000000001
 43
0.0000000001
 40
0.0
 40
0.0
 40
0.0
 40
0.0
 40
0.1782574135685925
 40
0.1782574135685925
 40
0.1782574135685925
 40
0.1782574135685925
 10
829.5228139037089
 20
1885.999999999961
 30
0.0
 10
829.736318251472
 20
1886.002493938693
 30
0.0
 10
829.9493053978048
 20
1886.013716170418
 30
0.0
 10
830.1617753427072
 20
1886.033666695134
 30
0.0
  0
SPLINE
  5
B3
330
87
100
AcDbEntity
  8
P-SANR-FIXT
100
AcDbSpline
210
0.0
220
0.0
230
1.0
 70
     8
 71
     3
 72
     9
 73
     5
 74
     0
 42
0.000000001
 43
0.0000000001
 40
0.1984472676034125
 40
0.1984472676034125
 40
0.1984472676034125
 40
0.1984472676034125
 40
0.5
 40
1.0
 40
1.0
 40
1.0
 40
1.0
 10
830.2339499756374
 20
1886.040781534298
 30
0.0
 10
830.5931808293149
 20
1886.077875966052
 30
0.0
 10
831.544112667561
 20
1886.242870209989
 30
0.0
 10
832.4845869855755
 20
1886.584345598777
 30
0.0
 10
833.0671756233993
 20
1886.866025403745
 30
0.0
  0
LINE
  5
B4
330
87
100
AcDbEntity
  8
P-SANR-FIXT
100
AcDbLine
 10
833.0671756233993
 20
1886.866025403745
 30
0.0
 11
833.0671756233993
 21
1897.999999999897
 31
0.0
  0
LINE
  5
B5
330
87
100
AcDbEntity
  8
P-SANR-FIXT
100
AcDbLine
 10
833.0671756233993
 20
1886.866025403746
 30
0.0
 11
833.1664074431586
 21
1886.866025403746
 31
0.0
  0
LINE
  5
B6
330
87
100
AcDbEntity
  8
P-SANR-FIXT
100
AcDbLine
 10
836.0228139037101
 20
1943.645585097941
 30
0.0
 11
836.0228139037101
 21
1956.136750146654
 31
0.0
  0
LINE
  5
B7
330
87
100
AcDbEntity
  8
P-SANR-FIXT
100
AcDbLine
 10
795.3100009826085
 20
1956.136750146654
 30
0.0
 11
795.3100009826085
 21
1943.645585097941
 31
0.0
  0
LINE
  5
B8
330
87
100
AcDbEntity
  8
P-SANR-FIXT
100
AcDbLine
 10
797.5930208651318
 20
1957.465809534842
 30
0.0
 11
795.5340061010806
 21
1956.267154663928
 31
0.0
  0
LINE
  5
B9
330
87
100
AcDbEntity
  8
P-SANR-FIXT
100
AcDbLine
 10
795.4839730524611
 20
1956.238027938621
 30
0.0
 11
795.3100009826085
 21
1956.136750146654
 31
0.0
  0
LINE
  5
BA
330
87
100
AcDbEntity
  8
P-SANR-FIXT
100
AcDbLine
 10
836.0228139037101
 20
1956.136750146654
 30
0.0
 11
835.8488418338577
 21
1956.238027938621
 31
0.0
  0
LINE
  5
BB
330
87
100
AcDbEntity
  8
P-SANR-FIXT
100
AcDbLine
 10
835.798808785238
 20
1956.267154663928
 30
0.0
 11
833.7397940211873
 21
1957.465809534842
 31
0.0
  0
LINE
  5
BC
330
87
100
AcDbEntity
  8
P-SANR-FIXT
100
AcDbLine
 10
832.4518064544445
 20
1941.576462060007
 30
0.0
 11
835.7988301757435
 21
1943.515803825221
 31
0.0
  0
LINE
  5
BD
330
87
100
AcDbEntity
  8
P-SANR-FIXT
100
AcDbLine
 10
835.8483901217692
 20
1943.544519986566
 30
0.0
 11
836.0228139037101
 21
1943.645585097941
 31
0.0
  0
LINE
  5
BE
330
87
100
AcDbEntity
  8
P-SANR-FIXT
100
AcDbLine
 10
795.3100009826085
 20
1943.645585097941
 30
0.0
 11
795.4844247645493
 21
1943.544519986567
 31
0.0
  0
LINE
  5
BF
330
87
100
AcDbEntity
  8
P-SANR-FIXT
100
AcDbLine
 10
795.5339847105749
 20
1943.515803825221
 30
0.0
 11
798.8810084318746
 21
1941.576462060007
 31
0.0
  0
LINE
  5
C0
330
87
100
AcDbEntity
  8
P-SANR-FIXT
100
AcDbLine
 10
797.5930208651305
 20
1957.465809534841
 30
0.0
 11
833.7397940211861
 21
1957.465809534841
 31
0.0
  0
SPLINE
  5
C1
330
87
100
AcDbEntity
  8
P-SANR-FIXT
100
AcDbSpline
210
0.0
220
0.0
230
1.0
 70
     8
 71
     3
 72
    10
 73
     6
 74
     0
 42
0.000000001
 43
0.0000000001
 40
0.0
 40
0.0
 40
0.0
 40
0.0
 40
0.4
 40
0.7
 40
1.0
 40
1.0
 40
1.0
 40
1.0
 10
803.1090390882837
 20
1943.296969479206
 30
0.0
 10
803.5574021732159
 20
1943.480617445162
 30
0.0
 10
804.6397611290924
 20
1943.678975742092
 30
0.0
 10
806.7102123934722
 20
1943.63004791116
 30
0.0
 10
808.0670484616227
 20
1943.434499447917
 30
0.0
 10
808.7382042128826
 20
1943.2969694792
 30
0.0
  0
SPLINE
  5
C2
330
87
100
AcDbEntity
  8
P-SANR-FIXT
100
AcDbSpline
210
0.0
220
0.0
230
1.0
 70
     8
 71
     3
 72
    10
 73
     6
 74
     0
 42
0.000000001
 43
0.0000000001
 40
0.0
 40
0.0
 40
0.0
 40
0.0
 40
0.4
 40
0.7
 40
1.0
 40
1.0
 40
1.0
 40
1.0
 10
808.7382042128826
 20
1956.487006461724
 30
0.0
 10
807.8434260065135
 20
1956.302783339912
 30
0.0
 10
806.2524089985767
 20
1956.103317832408
 30
0.0
 10
804.3062691820219
 20
1956.152142197586
 30
0.0
 10
803.4452759996105
 20
1956.348631881247
 30
0.0
 10
803.1090390882837
 20
1956.487006461718
 30
0.0
  0
SPLINE
  5
C3
330
87
100
AcDbEntity
  8
P-SANR-FIXT
100
AcDbSpline
210
0.0
220
0.0
230
1.0
 70
     8
 71
     3
 72
     9
 73
     5
 74
     0
 42
0.000000001
 43
0.0000000001
 40
0.0
 40
0.0
 40
0.0
 40
0.0
 40
0.5
 40
1.0
 40
1.0
 40
1.0
 40
1.0
 10
808.7382042128826
 20
1943.2969694792
 30
0.0
 10
811.0844456007409
 20
1942.812315653373
 30
0.0
 10
815.7400880653577
 20
1942.327661827545
 30
0.0
 10
820.3220499077747
 20
1942.812315653372
 30
0.0
 10
822.5946106734332
 20
1943.2969694792
 30
0.0
  0
SPLINE
  5
C4
330
87
100
AcDbEntity
  8
P-SANR-FIXT
100
AcDbSpline
210
0.0
220
0.0
230
1.0
 70
     8
 71
     3
 72
     9
 73
     5
 74
     0
 42
0.000000001
 43
0.0000000001
 40
0.0
 40
0.0
 40
0.0
 40
0.0
 40
0.5
 40
1.0
 40
1.0
 40
1.0
 40
1.0
 10
822.5946106734333
 20
1956.487006461724
 30
0.0
 10
820.3220302534688
 20
1956.973941257257
 30
0.0
 10
815.7400487567462
 20
1957.46087605279
 30
0.0
 10
811.0844259464352
 20
1956.973941257257
 30
0.0
 10
808.7382042128826
 20
1956.487006461724
 30
0.0
  0
SPLINE
  5
C5
330
87
100
AcDbEntity
  8
P-SANR-FIXT
100
AcDbSpline
210
0.0
220
0.0
230
1.0
 70
     8
 71
     3
 72
    10
 73
     6
 74
     0
 42
0.000000001
 43
0.0000000001
 40
0.0
 40
0.0
 40
0.0
 40
0.0
 40
0.4
 40
0.7
 40
1.0
 40
1.0
 40
1.0
 40
1.0
 10
822.5946106734333
 20
1943.2969694792
 30
0.0
 10
823.4913368432977
 20
1943.480617445158
 30
0.0
 10
825.0818362041504
 20
1943.678975742091
 30
0.0
 10
827.0281061726555
 20
1943.630047911162
 30
0.0
 10
827.8881979224021
 20
1943.434499447922
 30
0.0
 10
828.223775798032
 20
1943.296969479206
 30
0.0
  0
SPLINE
  5
C6
330
87
100
AcDbEntity
  8
P-SANR-FIXT
100
AcDbSpline
210
0.0
220
0.0
230
1.0
 70
     8
 71
     3
 72
    10
 73
     6
 74
     0
 42
0.000000001
 43
0.0000000001
 40
0.0
 40
0.0
 40
0.0
 40
0.0
 40
0.4
 40
0.7
 40
1.0
 40
1.0
 40
1.0
 40
1.0
 10
828.2237757980322
 20
1956.487006461718
 30
0.0
 10
827.7763866948475
 20
1956.302783339909
 30
0.0
 10
826.6943355289221
 20
1956.103317832407
 30
0.0
 10
824.6245436278519
 20
1956.152142197588
 30
0.0
 10
823.2670844960862
 20
1956.348631881251
 30
0.0
 10
822.5946106734333
 20
1956.487006461724
 30
0.0
  0
SPLINE
  5
C7
330
87
100
AcDbEntity
  8
P-SANR-FIXT
100
AcDbSpline
210
0.0
220
0.0
230
1.0
 70
     8
 71
     3
 72
     9
 73
     5
 74
     0
 42
0.000000001
 43
0.0000000001
 40
0.0
 40
0.0
 40
0.0
 40
0.0
 40
0.5
 40
1.0
 40
1.0
 40
1.0
 40
1.0
 10
828.2237757980322
 20
1943.296969479206
 30
0.0
 10
829.3968964919613
 20
1942.812315653382
 30
0.0
 10
831.7247177242698
 20
1942.327661827563
 30
0.0
 10
834.0156986454784
 20
1942.812315653396
 30
0.0
 10
835.1519790283074
 20
1943.296969479226
 30
0.0
  0
SPLINE
  5
C8
330
87
100
AcDbEntity
  8
P-SANR-FIXT
100
AcDbSpline
210
0.0
220
0.0
230
1.0
 70
     8
 71
     3
 72
     9
 73
     5
 74
     0
 42
0.000000001
 43
0.0000000001
 40
0.0
 40
0.0
 40
0.0
 40
0.0
 40
0.5
 40
1.0
 40
1.0
 40
1.0
 40
1.0
 10
835.1519790283076
 20
1956.487006461697
 30
0.0
 10
834.0156888183255
 20
1956.973941257233
 30
0.0
 10
831.7246980699641
 20
1957.460876052772
 30
0.0
 10
829.3968866648084
 20
1956.973941257247
 30
0.0
 10
828.2237757980322
 20
1956.487006461718
 30
0.0
  0
SPLINE
  5
C9
330
87
100
AcDbEntity
  8
P-SANR-FIXT
100
AcDbSpline
210
0.0
220
0.0
230
1.0
 70
     8
 71
     3
 72
     9
 73
     5
 74
     0
 42
0.000000001
 43
0.0000000001
 40
0.0
 40
0.0
 40
0.0
 40
0.0
 40
0.5
 40
1.0
 40
1.0
 40
1.0
 40
1.0
 10
835.1519790283074
 20
1943.296969479226
 30
0.0
 10
835.4323821091691
 20
1943.412161178109
 30
0.0
 10
835.8700623450484
 20
1943.58545548011
 30
0.0
 10
836.0228139037037
 20
1943.644571590584
 30
0.0
 10
836.0228139037086
 20
1943.645585097939
 30
0.0
  0
SPLINE
  5
CA
330
87
100
AcDbEntity
  8
P-SANR-FIXT
100
AcDbSpline
210
0.0
220
0.0
230
1.0
 70
     8
 71
     3
 72
     9
 73
     5
 74
     0
 42
0.000000001
 43
0.0000000001
 40
0.0
 40
0.0
 40
0.0
 40
0.0
 40
0.5
 40
1.0
 40
1.0
 40
1.0
 40
1.0
 10
836.0228139037086
 20
1956.136750146653
 30
0.0
 10
836.0228139037037
 20
1956.137774117557
 30
0.0
 10
835.8700332623476
 20
1956.197174140968
 30
0.0
 10
835.4323547125479
 20
1956.371278327587
 30
0.0
 10
835.1519790283076
 20
1956.487006461697
 30
0.0
  0
SPLINE
  5
CB
330
87
100
AcDbEntity
  8
P-SANR-FIXT
100
AcDbSpline
210
0.0
220
0.0
230
1.0
 70
     8
 71
     3
 72
     9
 73
     5
 74
     0
 42
0.000000001
 43
0.0000000001
 40
0.0
 40
0.0
 40
0.0
 40
0.0
 40
0.5
 40
1.0
 40
1.0
 40
1.0
 40
1.0
 10
795.3100009826073
 20
1943.64558509794
 30
0.0
 10
795.3100009826124
 20
1943.644571590584
 30
0.0
 10
795.4627525412676
 20
1943.58545548011
 30
0.0
 10
795.9004327771468
 20
1943.412161178109
 30
0.0
 10
796.1808358580083
 20
1943.296969479227
 30
0.0
  0
SPLINE
  5
CC
330
87
100
AcDbEntity
  8
P-SANR-FIXT
100
AcDbSpline
210
0.0
220
0.0
230
1.0
 70
     8
 71
     3
 72
     9
 73
     5
 74
     0
 42
0.000000001
 43
0.0000000001
 40
0.0
 40
0.0
 40
0.0
 40
0.0
 40
0.5
 40
1.0
 40
1.0
 40
1.0
 40
1.0
 10
796.1808358580084
 20
1956.487006461697
 30
0.0
 10
795.900460173768
 20
1956.371278327587
 30
0.0
 10
795.4627816239683
 20
1956.197174140968
 30
0.0
 10
795.3100009826124
 20
1956.137774117557
 30
0.0
 10
795.3100009826073
 20
1956.136750146653
 30
0.0
  0
SPLINE
  5
CD
330
87
100
AcDbEntity
  8
P-SANR-FIXT
100
AcDbSpline
210
0.0
220
0.0
230
1.0
 70
     8
 71
     3
 72
     9
 73
     5
 74
     0
 42
0.000000001
 43
0.0000000001
 40
0.0
 40
0.0
 40
0.0
 40
0.0
 40
0.5
 40
1.0
 40
1.0
 40
1.0
 40
1.0
 10
803.1090390882837
 20
1956.487006461718
 30
0.0
 10
801.9359282215074
 20
1956.973941257247
 30
0.0
 10
799.6081168163519
 20
1957.460876052772
 30
0.0
 10
797.3171260679906
 20
1956.973941257233
 30
0.0
 10
796.1808358580084
 20
1956.487006461697
 30
0.0
  0
SPLINE
  5
CE
330
87
100
AcDbEntity
  8
P-SANR-FIXT
100
AcDbSpline
210
0.0
220
0.0
230
1.0
 70
     8
 71
     3
 72
     9
 73
     5
 74
     0
 42
0.000000001
 43
0.0000000001
 40
0.0
 40
0.0
 40
0.0
 40
0.0
 40
0.5
 40
1.0
 40
1.0
 40
1.0
 40
1.0
 10
796.1808358580083
 20
1943.296969479227
 30
0.0
 10
797.3171162408375
 20
1942.812315653396
 30
0.0
 10
799.6080971620459
 20
1942.327661827563
 30
0.0
 10
801.9359183943546
 20
1942.812315653383
 30
0.0
 10
803.1090390882837
 20
1943.296969479206
 30
0.0
  0
LINE
  5
CF
330
87
100
AcDbEntity
  8
P-SANR-FIXT
100
AcDbLine
 10
747.8664074431614
 20
2013.250000000026
 30
0.0
 11
747.8182719243666
 21
2013.201864481231
 31
0.0
  0
LINE
  5
D0
330
87
100
AcDbEntity
  8
P-SANR-FIXT
100
AcDbLine
 10
747.802605071568
 20
2013.186197628433
 30
0.0
 11
746.5664074431615
 21
2011.950000000027
 31
0.0
  0
LINE
  5
D1
330
87
100
AcDbEntity
  8
P-SANR-FIXT
100
AcDbLine
 10
746.5664074431615
 20
1988.049999999965
 30
0.0
 11
747.802605071568
 21
1986.813802371559
 31
0.0
  0
LINE
  5
D2
330
87
100
AcDbEntity
  8
P-SANR-FIXT
100
AcDbLine
 10
747.8182851029611
 20
1986.798122340166
 30
0.0
 11
747.8664074431614
 21
1986.749999999965
 31
0.0
  0
LINE
  5
D3
330
87
100
AcDbEntity
  8
P-SANR-FIXT
100
AcDbLine
 10
763.0664074431614
 20
2013.250000000026
 30
0.0
 11
747.8664074431614
 21
2013.250000000026
 31
0.0
  0
LINE
  5
D4
330
87
100
AcDbEntity
  8
P-SANR-FIXT
100
AcDbLine
 10
747.8664074431614
 20
1986.749999999965
 30
0.0
 11
763.0664074431614
 21
1986.749999999965
 31
0.0
  0
LINE
  5
D5
330
87
100
AcDbEntity
  8
P-SANR-FIXT
100
AcDbLine
 10
763.0664074431614
 20
1986.749999999958
 30
0.0
 11
773.5624174429325
 21
1986.749999999958
 31
0.0
  0
LINE
  5
D6
330
87
100
AcDbEntity
  8
P-SANR-FIXT
100
AcDbLine
 10
773.5624174429325
 20
2013.250000000034
 30
0.0
 11
763.0664074431614
 21
2013.250000000034
 31
0.0
  0
LINE
  5
D7
330
87
100
AcDbEntity
  8
P-SANR-FIXT
100
AcDbLine
 10
746.5664074431603
 20
1988.049999999964
 30
0.0
 11
746.5664074431603
 21
2011.950000000025
 31
0.0
  0
LINE
  5
D8
330
87
100
AcDbEntity
  8
P-SANR-FIXT
100
AcDbLine
 10
747.8664074431604
 20
1986.749999999964
 30
0.0
 11
747.8664074431604
 21
2013.250000000025
 31
0.0
  0
LINE
  5
D9
330
87
100
AcDbEntity
  8
P-SANR-FIXT
100
AcDbLine
 10
763.06640744316
 20
1986.977382973723
 30
0.0
 11
763.06640744316
 21
1991.371981931703
 31
0.0
  0
LINE
  5
DA
330
87
100
AcDbEntity
  8
P-SANR-FIXT
100
AcDbLine
 10
763.0664074431603
 20
1995.605401041952
 30
0.0
 11
763.0664074431603
 21
2004.394598958038
 31
0.0
  0
LINE
  5
DB
330
87
100
AcDbEntity
  8
P-SANR-FIXT
100
AcDbLine
 10
763.0664074431603
 20
2008.628018068286
 30
0.0
 11
763.0664074431603
 21
2013.022617026267
 31
0.0
  0
LINE
  5
DC
330
87
100
AcDbEntity
  8
P-SANR-FIXT
100
AcDbLine
 10
763.06640744316
 20
2004.394598957937
 30
0.0
 11
773.5624174429314
 21
2004.394598957937
 31
0.0
  0
LINE
  5
DD
330
87
100
AcDbEntity
  8
P-SANR-FIXT
100
AcDbLine
 10
763.06640744316
 20
1995.605401042053
 30
0.0
 11
773.5624174429314
 21
1995.605401042053
 31
0.0
  0
LINE
  5
DE
330
87
100
AcDbEntity
  8
P-SANR-FIXT
100
AcDbLine
 10
763.06640744316
 20
1991.371981931664
 30
0.0
 11
773.5624174429314
 21
1991.371981931664
 31
0.0
  0
LINE
  5
DF
330
87
100
AcDbEntity
  8
P-SANR-FIXT
100
AcDbLine
 10
763.06640744316
 20
1986.977382973723
 30
0.0
 11
773.5624174429314
 21
1986.977382973723
 31
0.0
  0
LINE
  5
E0
330
87
100
AcDbEntity
  8
P-SANR-FIXT
100
AcDbLine
 10
763.06640744316
 20
2013.022617026267
 30
0.0
 11
773.5624174429314
 21
2013.022617026267
 31
0.0
  0
LINE
  5
E1
330
87
100
AcDbEntity
  8
P-SANR-FIXT
100
AcDbLine
 10
773.5624174429314
 20
2008.628018068325
 30
0.0
 11
763.06640744316
 21
2008.628018068325
 31
0.0
  0
LINE
  5
E2
330
87
100
AcDbEntity
  8
P-SANR-FIXT
100
AcDbLine
 10
793.8744441472155
 20
2014.999999999997
 30
0.0
 11
791.4164036283656
 21
2014.999999999997
 31
0.0
  0
LINE
  5
E3
330
87
100
AcDbEntity
  8
P-SANR-FIXT
100
AcDbLine
 10
791.4164036283656
 20
1984.999999999996
 30
0.0
 11
793.8744441472155
 21
1984.999999999996
 31
0.0
  0
LINE
  5
E4
330
87
100
AcDbEntity
  8
P-SANR-FIXT
100
AcDbLine
 10
791.4164036283656
 20
2014.999999999997
 30
0.0
 11
789.5664036283656
 21
2016.849999999996
 31
0.0
  0
LINE
  5
E5
330
87
100
AcDbEntity
  8
P-SANR-FIXT
100
AcDbLine
 10
789.5664036283656
 20
1983.149999999996
 30
0.0
 11
791.4164036283656
 21
1984.999999999996
 31
0.0
  0
LINE
  5
E6
330
87
100
AcDbEntity
  8
P-SANR-FIXT
100
AcDbLine
 10
796.666407443145
 20
2019.249999999995
 30
0.0
 11
793.8744441472155
 21
2019.249999999995
 31
0.0
  0
LINE
  5
E7
330
87
100
AcDbEntity
  8
P-SANR-FIXT
100
AcDbLine
 10
793.8744441472155
 20
1980.749999999996
 30
0.0
 11
796.666407443145
 21
1980.749999999996
 31
0.0
  0
LINE
  5
E8
330
87
100
AcDbEntity
  8
P-SANR-FIXT
100
AcDbLine
 10
793.8744441472143
 20
1980.749999999995
 30
0.0
 11
793.8744441472143
 21
2019.249999999995
 31
0.0
  0
LINE
  5
E9
330
87
100
AcDbEntity
  8
P-SANR-FIXT
100
AcDbLine
 10
791.4164036283644
 20
2014.999999999995
 30
0.0
 11
791.4164036283644
 21
1984.999999999995
 31
0.0
  0
LINE
  5
EA
330
87
100
AcDbEntity
  8
P-SANR-FIXT
100
AcDbLine
 10
789.5664036283643
 20
2016.32568633137
 30
0.0
 11
789.5664036283643
 21
2015.752894207416
 31
0.0
  0
LINE
  5
EB
330
87
100
AcDbEntity
  8
P-SANR-FIXT
100
AcDbLine
 10
789.5664036283643
 20
2000.570234116612
 30
0.0
 11
789.5664036283643
 21
1999.429765883249
 31
0.0
  0
LINE
  5
EC
330
87
100
AcDbEntity
  8
P-SANR-FIXT
100
AcDbLine
 10
789.5664036283643
 20
1984.247105792442
 30
0.0
 11
789.5664036283643
 21
1983.674313668612
 31
0.0
  0
LINE
  5
ED
330
87
100
AcDbEntity
  8
P-SANR-FIXT
100
AcDbLine
 10
796.6664074431438
 20
2019.249999999995
 30
0.0
 11
796.6664074431438
 21
1980.749999999995
 31
0.0
  0
LINE
  5
EE
330
87
100
AcDbEntity
  8
P-SANR-FIXT
100
AcDbLine
 10
883.1664074431575
 20
2011.950000000027
 30
0.0
 11
881.8664074431577
 21
2013.250000000026
 31
0.0
  0
LINE
  5
EF
330
87
100
AcDbEntity
  8
P-SANR-FIXT
100
AcDbLine
 10
881.8664074431577
 20
1986.749999999965
 30
0.0
 11
883.1664074431575
 21
1988.049999999965
 31
0.0
  0
LINE
  5
F0
330
87
100
AcDbEntity
  8
P-SANR-FIXT
100
AcDbLine
 10
881.8664074431577
 20
2013.250000000026
 30
0.0
 11
866.6664074431578
 21
2013.250000000026
 31
0.0
  0
LINE
  5
F1
330
87
100
AcDbEntity
  8
P-SANR-FIXT
100
AcDbLine
 10
866.6664074431578
 20
1986.749999999965
 30
0.0
 11
881.8664074431577
 21
1986.749999999965
 31
0.0
  0
LINE
  5
F2
330
87
100
AcDbEntity
  8
P-SANR-FIXT
100
AcDbLine
 10
856.1664074431579
 20
1986.749999999958
 30
0.0
 11
866.6664074431578
 21
1986.749999999958
 31
0.0
  0
LINE
  5
F3
330
87
100
AcDbEntity
  8
P-SANR-FIXT
100
AcDbLine
 10
866.6664074431578
 20
2013.250000000034
 30
0.0
 11
856.1664074431579
 21
2013.250000000034
 31
0.0
  0
LINE
  5
F4
330
87
100
AcDbEntity
  8
P-SANR-FIXT
100
AcDbLine
 10
883.1664074431563
 20
2011.950000000025
 30
0.0
 11
883.1664074431563
 21
1988.049999999964
 31
0.0
  0
LINE
  5
F5
330
87
100
AcDbEntity
  8
P-SANR-FIXT
100
AcDbLine
 10
881.8664074431563
 20
2013.250000000025
 30
0.0
 11
881.8664074431563
 21
1986.749999999964
 31
0.0
  0
LINE
  5
F6
330
87
100
AcDbEntity
  8
P-SANR-FIXT
100
AcDbLine
 10
866.6664074431563
 20
2013.022617026267
 30
0.0
 11
866.6664074431563
 21
2008.628018068286
 31
0.0
  0
LINE
  5
F7
330
87
100
AcDbEntity
  8
P-SANR-FIXT
100
AcDbLine
 10
866.6664074431563
 20
2004.394598958038
 30
0.0
 11
866.6664074431563
 21
1995.605401041952
 31
0.0
  0
LINE
  5
F8
330
87
100
AcDbEntity
  8
P-SANR-FIXT
100
AcDbLine
 10
866.6664074431563
 20
1991.371981931703
 30
0.0
 11
866.6664074431563
 21
1986.977382973723
 31
0.0
  0
LINE
  5
F9
330
87
100
AcDbEntity
  8
P-SANR-FIXT
100
AcDbLine
 10
866.6664074431563
 20
2008.628018068325
 30
0.0
 11
856.1664074431565
 21
2008.628018068325
 31
0.0
  0
LINE
  5
FA
330
87
100
AcDbEntity
  8
P-SANR-FIXT
100
AcDbLine
 10
856.1664074431565
 20
2004.394598957937
 30
0.0
 11
866.6664074431563
 21
2004.394598957937
 31
0.0
  0
LINE
  5
FB
330
87
100
AcDbEntity
  8
P-SANR-FIXT
100
AcDbLine
 10
856.1664074431565
 20
1995.605401042053
 30
0.0
 11
866.6664074431563
 21
1995.605401042053
 31
0.0
  0
LINE
  5
FC
330
87
100
AcDbEntity
  8
P-SANR-FIXT
100
AcDbLine
 10
856.1664074431565
 20
1991.371981931664
 30
0.0
 11
866.6664074431563
 21
1991.371981931664
 31
0.0
  0
LINE
  5
FD
330
87
100
AcDbEntity
  8
P-SANR-FIXT
100
AcDbLine
 10
856.1664074431565
 20
1986.977382973723
 30
0.0
 11
866.6664074431563
 21
1986.977382973723
 31
0.0
  0
LINE
  5
FE
330
87
100
AcDbEntity
  8
P-SANR-FIXT
100
AcDbLine
 10
856.1664074431565
 20
2013.022617026267
 30
0.0
 11
866.6664074431563
 21
2013.022617026267
 31
0.0
  0
LINE
  5
FF
330
87
100
AcDbEntity
  8
P-SANR-FIXT
100
AcDbLine
 10
775.9905458907081
 20
1979.643593539445
 30
0.0
 11
788.4817109394216
 21
1979.643593539445
 31
0.0
  0
LINE
  5
100
330
87
100
AcDbEntity
  8
P-SANR-FIXT
100
AcDbLine
 10
788.4817109394211
 20
2020.356406460547
 30
0.0
 11
775.9905458907082
 21
2020.356406460547
 31
0.0
  0
LINE
  5
101
330
87
100
AcDbEntity
  8
P-SANR-FIXT
100
AcDbLine
 10
788.4817109394218
 20
1979.643593539445
 30
0.0
 11
788.5829929060186
 21
1979.817572780356
 31
0.0
  0
LINE
  5
102
330
87
100
AcDbEntity
  8
P-SANR-FIXT
100
AcDbLine
 10
788.6121154566957
 20
1979.867598657917
 30
0.0
 11
789.5624174429308
 21
1981.499999999993
 31
0.0
  0
LINE
  5
103
330
87
100
AcDbEntity
  8
P-SANR-FIXT
100
AcDbLine
 10
789.5624174429308
 20
2018.499999999999
 30
0.0
 11
788.6121154566954
 21
2020.132401342074
 31
0.0
  0
LINE
  5
104
330
87
100
AcDbEntity
  8
P-SANR-FIXT
100
AcDbLine
 10
788.5829929060181
 20
2020.182427219636
 30
0.0
 11
788.4817109394214
 21
2020.356406460547
 31
0.0
  0
LINE
  5
105
330
87
100
AcDbEntity
  8
P-SANR-FIXT
100
AcDbLine
 10
773.5624174429325
 20
1983.834192462669
 30
0.0
 11
775.8607646179882
 21
1979.867577267411
 31
0.0
  0
LINE
  5
106
330
87
100
AcDbEntity
  8
P-SANR-FIXT
100
AcDbLine
 10
775.8894737682195
 20
1979.818029421556
 30
0.0
 11
775.9905458907078
 21
1979.643593539445
 31
0.0
  0
LINE
  5
107
330
87
100
AcDbEntity
  8
P-SANR-FIXT
100
AcDbLine
 10
775.9905458907082
 20
2020.356406460547
 30
0.0
 11
775.8894737682198
 21
2020.181970578435
 31
0.0
  0
LINE
  5
108
330
87
100
AcDbEntity
  8
P-SANR-FIXT
100
AcDbLine
 10
775.8607646179885
 20
2020.13242273258
 30
0.0
 11
773.5624174429325
 21
2016.165807537322
 31
0.0
  0
LINE
  5
109
330
87
100
AcDbEntity
  8
P-SANR-FIXT
100
AcDbLine
 10
773.5624174429314
 20
1983.834192462668
 30
0.0
 11
773.5624174429314
 21
2016.165807537322
 31
0.0
  0
LINE
  5
10A
330
87
100
AcDbEntity
  8
P-SANR-FIXT
100
AcDbLine
 10
789.5624174429295
 20
2018.499999999998
 30
0.0
 11
789.5624174429295
 21
2016.021469970009
 31
0.0
  0
LINE
  5
10B
330
87
100
AcDbEntity
  8
P-SANR-FIXT
100
AcDbLine
 10
789.5624174429295
 20
2016.021469970009
 30
0.0
 11
789.5624174429295
 21
1999.999999999994
 31
0.0
  0
LINE
  5
10C
330
87
100
AcDbEntity
  8
P-SANR-FIXT
100
AcDbLine
 10
789.5624174429295
 20
1999.999999999994
 30
0.0
 11
789.5624174429295
 21
1983.97853002998
 31
0.0
  0
LINE
  5
10D
330
87
100
AcDbEntity
  8
P-SANR-FIXT
100
AcDbLine
 10
789.5624174429295
 20
1983.97853002998
 30
0.0
 11
789.5624174429295
 21
1981.499999999991
 31
0.0
  0
SPLINE
  5
10E
330
87
100
AcDbEntity
  8
P-SANR-FIXT
100
AcDbSpline
210
0.0
220
0.0
230
1.0
 70
     8
 71
     3
 72
    10
 73
     6
 74
     0
 42
0.000000001
 43
0.0000000001
 40
0.0
 40
0.0
 40
0.0
 40
0.0
 40
0.4
 40
0.7
 40
1.0
 40
1.0
 40
1.0
 40
1.0
 10
788.8319672544906
 20
2006.928203230271
 30
0.0
 10
788.6474678138609
 20
2007.824834993808
 30
0.0
 10
788.4481587505098
 20
2009.415359948294
 30
0.0
 10
788.4973294991998
 20
2011.361792711972
 30
0.0
 10
788.6937999131276
 20
2012.221826527481
 30
0.0
 10
788.831967254485
 20
2012.557368354869
 30
0.0
  0
SPLINE
  5
10F
330
87
100
AcDbEntity
  8
P-SANR-FIXT
100
AcDbSpline
210
0.0
220
0.0
230
1.0
 70
     8
 71
     3
 72
    10
 73
     6
 74
     0
 42
0.000000001
 43
0.0000000001
 40
0.0
 40
0.0
 40
0.0
 40
0.0
 40
0.4
 40
0.7
 40
1.0
 40
1.0
 40
1.0
 40
1.0
 10
775.6419302719731
 20
2012.557368354869
 30
0.0
 10
775.8253035635942
 20
2012.109931187362
 30
0.0
 10
776.0238176371538
 20
2011.027841684379
 30
0.0
 10
775.9752336607004
 20
2008.958240128029
 30
0.0
 10
775.779666246436
 20
2007.600747857669
 30
0.0
 10
775.6419302719674
 20
2006.928203230271
 30
0.0
  0
SPLINE
  5
110
330
87
100
AcDbEntity
  8
P-SANR-FIXT
100
AcDbSpline
210
0.0
220
0.0
230
1.0
 70
     8
 71
     3
 72
     9
 73
     5
 74
     0
 42
0.000000001
 43
0.0000000001
 40
0.0
 40
0.0
 40
0.0
 40
0.0
 40
0.5
 40
1.0
 40
1.0
 40
1.0
 40
1.0
 10
775.6419302719674
 20
2006.928203230271
 30
0.0
 10
775.1572764461399
 20
2004.581961842412
 30
0.0
 10
774.6726226203125
 20
1999.926319377795
 30
0.0
 10
775.1572764461399
 20
1995.344357535378
 30
0.0
 10
775.6419302719672
 20
1993.07179676972
 30
0.0
  0
SPLINE
  5
111
330
87
100
AcDbEntity
  8
P-SANR-FIXT
100
AcDbSpline
210
0.0
220
0.0
230
1.0
 70
     8
 71
     3
 72
     9
 73
     5
 74
     0
 42
0.000000001
 43
0.0000000001
 40
0.0
 40
0.0
 40
0.0
 40
0.0
 40
0.5
 40
1.0
 40
1.0
 40
1.0
 40
1.0
 10
788.8319672544907
 20
1993.07179676972
 30
0.0
 10
789.0711066549892
 20
1994.214395983746
 30
0.0
 10
789.4319877535608
 20
1996.511695736153
 30
0.0
 10
789.5580734472818
 20
1998.833198137263
 30
0.0
 10
789.5624174429295
 20
1999.999999999994
 30
0.0
  0
SPLINE
  5
112
330
87
100
AcDbEntity
  8
P-SANR-FIXT
100
AcDbSpline
210
0.0
220
0.0
230
1.0
 70
     8
 71
     3
 72
     9
 73
     5
 74
     0
 42
0.000000001
 43
0.0000000001
 40
0.0
 40
0.0
 40
0.0
 40
0.0
 40
0.5
 40
1.0
 40
1.0
 40
1.0
 40
1.0
 10
789.5624174429295
 20
1999.999999999994
 30
0.0
 10
789.5580734472818
 20
2001.166801862726
 30
0.0
 10
789.4319877535608
 20
2003.488304263837
 30
0.0
 10
789.0711066549892
 20
2005.785604016244
 30
0.0
 10
788.8319672544906
 20
2006.928203230271
 30
0.0
  0
SPLINE
  5
113
330
87
100
AcDbEntity
  8
P-SANR-FIXT
100
AcDbSpline
210
0.0
220
0.0
230
1.0
 70
     8
 71
     3
 72
    10
 73
     6
 74
     0
 42
0.000000001
 43
0.0000000001
 40
0.0
 40
0.0
 40
0.0
 40
0.0
 40
0.4
 40
0.7
 40
1.0
 40
1.0
 40
1.0
 40
1.0
 10
775.6419302719672
 20
1993.07179676972
 30
0.0
 10
775.8255782379252
 20
1992.175070599855
 30
0.0
 10
776.0239365348575
 20
1990.584571239002
 30
0.0
 10
775.9750087039297
 20
1988.638301270497
 30
0.0
 10
775.7794602406887
 20
1987.778209520751
 30
0.0
 10
775.6419302719728
 20
1987.44263164512
 30
0.0
  0
SPLINE
  5
114
330
87
100
AcDbEntity
  8
P-SANR-FIXT
100
AcDbSpline
210
0.0
220
0.0
230
1.0
 70
     8
 71
     3
 72
    10
 73
     6
 74
     0
 42
0.000000001
 43
0.0000000001
 40
0.0
 40
0.0
 40
0.0
 40
0.0
 40
0.4
 40
0.7
 40
1.0
 40
1.0
 40
1.0
 40
1.0
 10
788.8319672544852
 20
1987.44263164512
 30
0.0
 10
788.6477441326754
 20
1987.890020748305
 30
0.0
 10
788.4482786251742
 20
1988.972071914231
 30
0.0
 10
788.4971029903555
 20
1991.041863815301
 30
0.0
 10
788.6935926740185
 20
1992.399322947067
 30
0.0
 10
788.8319672544907
 20
1993.07179676972
 30
0.0
  0
SPLINE
  5
115
330
87
100
AcDbEntity
  8
P-SANR-FIXT
100
AcDbSpline
210
0.0
220
0.0
230
1.0
 70
     8
 71
     3
 72
     9
 73
     5
 74
     0
 42
0.000000001
 43
0.0000000001
 40
0.0
 40
0.0
 40
0.0
 40
0.0
 40
0.5
 40
1.0
 40
1.0
 40
1.0
 40
1.0
 10
775.6419302719728
 20
1987.44263164512
 30
0.0
 10
775.1572764461497
 20
1986.269510951191
 30
0.0
 10
774.6726226203299
 20
1983.941689718883
 30
0.0
 10
775.1572764461633
 20
1981.650708797674
 30
0.0
 10
775.6419302719933
 20
1980.514428414845
 30
0.0
  0
SPLINE
  5
116
330
87
100
AcDbEntity
  8
P-SANR-FIXT
100
AcDbSpline
210
0.0
220
0.0
230
1.0
 70
     8
 71
     3
 72
     9
 73
     5
 74
     0
 42
0.000000001
 43
0.0000000001
 40
0.0
 40
0.0
 40
0.0
 40
0.0
 40
0.5
 40
1.0
 40
1.0
 40
1.0
 40
1.0
 10
788.8319672544645
 20
1980.514428414845
 30
0.0
 10
789.0711066549632
 20
1981.085728021863
 30
0.0
 10
789.4319877535393
 20
1982.234377898075
 30
0.0
 10
789.5580734472733
 20
1983.395129098639
 30
0.0
 10
789.5624174429295
 20
1983.978530030008
 30
0.0
  0
SPLINE
  5
117
330
87
100
AcDbEntity
  8
P-SANR-FIXT
100
AcDbSpline
210
0.0
220
0.0
230
1.0
 70
     8
 71
     3
 72
     9
 73
     5
 74
     0
 42
0.000000001
 43
0.0000000001
 40
0.0
 40
0.0
 40
0.0
 40
0.0
 40
0.5
 40
1.0
 40
1.0
 40
1.0
 40
1.0
 10
789.5624174429295
 20
1983.978530030008
 30
0.0
 10
789.5580734472734
 20
1984.561930961369
 30
0.0
 10
789.4319877535433
 20
1985.722682161916
 30
0.0
 10
789.0711066549772
 20
1986.871332038111
 30
0.0
 10
788.8319672544852
 20
1987.44263164512
 30
0.0
  0
SPLINE
  5
118
330
87
100
AcDbEntity
  8
P-SANR-FIXT
100
AcDbSpline
210
0.0
220
0.0
230
1.0
 70
     8
 71
     3
 72
     9
 73
     5
 74
     0
 42
0.000000001
 43
0.0000000001
 40
0.0
 40
0.0
 40
0.0
 40
0.0
 40
0.5
 40
1.0
 40
1.0
 40
1.0
 40
1.0
 10
775.6419302719933
 20
1980.514428414845
 30
0.0
 10
775.7571219708755
 20
1980.234025333984
 30
0.0
 10
775.9304162728768
 20
1979.796345098105
 30
0.0
 10
775.9895323833512
 20
1979.643593539449
 30
0.0
 10
775.9905458907066
 20
1979.643593539444
 30
0.0
  0
SPLINE
  5
119
330
87
100
AcDbEntity
  8
P-SANR-FIXT
100
AcDbSpline
210
0.0
220
0.0
230
1.0
 70
     8
 71
     3
 72
     9
 73
     5
 74
     0
 42
0.000000001
 43
0.0000000001
 40
0.0
 40
0.0
 40
0.0
 40
0.0
 40
0.5
 40
1.0
 40
1.0
 40
1.0
 40
1.0
 10
788.4817109394203
 20
1979.643593539444
 30
0.0
 10
788.4827349103244
 20
1979.643593539449
 30
0.0
 10
788.5421349337357
 20
1979.796374180805
 30
0.0
 10
788.7162391203538
 20
1980.234052730605
 30
0.0
 10
788.8319672544645
 20
1980.514428414845
 30
0.0
  0
SPLINE
  5
11A
330
87
100
AcDbEntity
  8
P-SANR-FIXT
100
AcDbSpline
210
0.0
220
0.0
230
1.0
 70
     8
 71
     3
 72
     9
 73
     5
 74
     0
 42
0.000000001
 43
0.0000000001
 40
0.0
 40
0.0
 40
0.0
 40
0.0
 40
0.5
 40
1.0
 40
1.0
 40
1.0
 40
1.0
 10
775.9905458907069
 20
2020.356406460546
 30
0.0
 10
775.9895323833514
 20
2020.356406460541
 30
0.0
 10
775.9304162728771
 20
2020.203654901886
 30
0.0
 10
775.757121970876
 20
2019.765974666006
 30
0.0
 10
775.6419302719937
 20
2019.485571585144
 30
0.0
  0
SPLINE
  5
11B
330
87
100
AcDbEntity
  8
P-SANR-FIXT
100
AcDbSpline
210
0.0
220
0.0
230
1.0
 70
     8
 71
     3
 72
     9
 73
     5
 74
     0
 42
0.000000001
 43
0.0000000001
 40
0.0
 40
0.0
 40
0.0
 40
0.0
 40
0.5
 40
1.0
 40
1.0
 40
1.0
 40
1.0
 10
788.8319672544643
 20
2019.485571585144
 30
0.0
 10
788.7162391203535
 20
2019.765947269385
 30
0.0
 10
788.5421349337355
 20
2020.203625819185
 30
0.0
 10
788.4827349103241
 20
2020.356406460541
 30
0.0
 10
788.4817109394202
 20
2020.356406460546
 30
0.0
  0
SPLINE
  5
11C
330
87
100
AcDbEntity
  8
P-SANR-FIXT
100
AcDbSpline
210
0.0
220
0.0
230
1.0
 70
     8
 71
     3
 72
     9
 73
     5
 74
     0
 42
0.000000001
 43
0.0000000001
 40
0.0
 40
0.0
 40
0.0
 40
0.0
 40
0.5
 40
1.0
 40
1.0
 40
1.0
 40
1.0
 10
775.6419302719937
 20
2019.485571585144
 30
0.0
 10
775.1572764461635
 20
2018.312450891215
 30
0.0
 10
774.6726226203299
 20
2015.984629658907
 30
0.0
 10
775.1572764461497
 20
2013.693648737699
 30
0.0
 10
775.6419302719731
 20
2012.557368354869
 30
0.0
  0
SPLINE
  5
11D
330
87
100
AcDbEntity
  8
P-SANR-FIXT
100
AcDbSpline
210
0.0
220
0.0
230
1.0
 70
     8
 71
     3
 72
     9
 73
     5
 74
     0
 42
0.000000001
 43
0.0000000001
 40
0.0
 40
0.0
 40
0.0
 40
0.0
 40
0.5
 40
1.0
 40
1.0
 40
1.0
 40
1.0
 10
788.831967254485
 20
2012.557368354869
 30
0.0
 10
789.071106654977
 20
2013.128667961879
 30
0.0
 10
789.4319877535431
 20
2014.277317838073
 30
0.0
 10
789.5580734472734
 20
2015.438069038621
 30
0.0
 10
789.5624174429295
 20
2016.021469969981
 30
0.0
  0
SPLINE
  5
11E
330
87
100
AcDbEntity
  8
P-SANR-FIXT
100
AcDbSpline
210
0.0
220
0.0
230
1.0
 70
     8
 71
     3
 72
     9
 73
     5
 74
     0
 42
0.000000001
 43
0.0000000001
 40
0.0
 40
0.0
 40
0.0
 40
0.0
 40
0.5
 40
1.0
 40
1.0
 40
1.0
 40
1.0
 10
789.5624174429295
 20
2016.021469969981
 30
0.0
 10
789.5580734472731
 20
2016.604870901351
 30
0.0
 10
789.4319877535391
 20
2017.765622101915
 30
0.0
 10
789.0711066549629
 20
2018.914271978127
 30
0.0
 10
788.8319672544643
 20
2019.485571585144
 30
0.0
  0
LINE
  5
11F
330
87
100
AcDbEntity
  8
P-SANR-FIXT
100
AcDbLine
 10
841.2471139466688
 20
1979.643593539445
 30
0.0
 11
853.7382789953825
 21
1979.643593539445
 31
0.0
  0
LINE
  5
120
330
87
100
AcDbEntity
  8
P-SANR-FIXT
100
AcDbLine
 10
853.7382789953822
 20
2020.356406460547
 30
0.0
 11
841.2471139466692
 21
2020.356406460547
 31
0.0
  0
LINE
  5
121
330
87
100
AcDbEntity
  8
P-SANR-FIXT
100
AcDbLine
 10
840.1664074431597
 20
1981.499999999993
 30
0.0
 11
841.1167094293949
 21
1979.867598657918
 31
0.0
  0
LINE
  5
122
330
87
100
AcDbEntity
  8
P-SANR-FIXT
100
AcDbLine
 10
841.145831980072
 20
1979.817572780356
 30
0.0
 11
841.2471139466688
 21
1979.643593539445
 31
0.0
  0
LINE
  5
123
330
87
100
AcDbEntity
  8
P-SANR-FIXT
100
AcDbLine
 10
841.2471139466692
 20
2020.356406460547
 30
0.0
 11
841.1458319800724
 21
2020.182427219637
 31
0.0
  0
LINE
  5
124
330
87
100
AcDbEntity
  8
P-SANR-FIXT
100
AcDbLine
 10
841.1167094293949
 20
2020.132401342075
 30
0.0
 11
840.1664074431597
 21
2018.499999999999
 31
0.0
  0
LINE
  5
125
330
87
100
AcDbEntity
  8
P-SANR-FIXT
100
AcDbLine
 10
856.1664074431579
 20
2016.165807537323
 30
0.0
 11
853.868060268102
 21
2020.132422732581
 31
0.0
  0
LINE
  5
126
330
87
100
AcDbEntity
  8
P-SANR-FIXT
100
AcDbLine
 10
853.8393511178709
 20
2020.181970578436
 30
0.0
 11
853.7382789953822
 21
2020.356406460547
 31
0.0
  0
LINE
  5
127
330
87
100
AcDbEntity
  8
P-SANR-FIXT
100
AcDbLine
 10
853.7382789953825
 20
1979.643593539445
 30
0.0
 11
853.8393511178709
 21
1979.818029421557
 31
0.0
  0
LINE
  5
128
330
87
100
AcDbEntity
  8
P-SANR-FIXT
100
AcDbLine
 10
853.8680602681022
 20
1979.867577267412
 30
0.0
 11
856.1664074431579
 21
1983.834192462669
 31
0.0
  0
LINE
  5
129
330
87
100
AcDbEntity
  8
P-SANR-FIXT
100
AcDbLine
 10
856.1664074431565
 20
2016.165807537322
 30
0.0
 11
856.1664074431565
 21
1983.834192462668
 31
0.0
  0
LINE
  5
12A
330
87
100
AcDbEntity
  8
P-SANR-FIXT
100
AcDbLine
 10
840.1664074431584
 20
1981.499999999992
 30
0.0
 11
840.1664074431584
 21
1983.97853002998
 31
0.0
  0
LINE
  5
12B
330
87
100
AcDbEntity
  8
P-SANR-FIXT
100
AcDbLine
 10
840.1664074431584
 20
1983.97853002998
 30
0.0
 11
840.1664074431584
 21
1999.999999999994
 31
0.0
  0
LINE
  5
12C
330
87
100
AcDbEntity
  8
P-SANR-FIXT
100
AcDbLine
 10
840.1664074431584
 20
1999.999999999995
 30
0.0
 11
840.1664074431584
 21
2016.02146997001
 31
0.0
  0
LINE
  5
12D
330
87
100
AcDbEntity
  8
P-SANR-FIXT
100
AcDbLine
 10
840.1664074431584
 20
2016.021469970009
 30
0.0
 11
840.1664074431584
 21
2018.499999999998
 31
0.0
  0
SPLINE
  5
12E
330
87
100
AcDbEntity
  8
P-SANR-FIXT
100
AcDbSpline
210
0.0
220
0.0
230
1.0
 70
     8
 71
     3
 72
    10
 73
     6
 74
     0
 42
0.000000001
 43
0.0000000001
 40
0.0
 40
0.0
 40
0.0
 40
0.0
 40
0.4
 40
0.7
 40
1.0
 40
1.0
 40
1.0
 40
1.0
 10
840.8968576316029
 20
2012.55736835487
 30
0.0
 10
841.0813570722311
 20
2012.109052473101
 30
0.0
 10
841.2806661355798
 20
2011.026728278472
 30
0.0
 10
841.2314953868856
 20
2008.956086899704
 30
0.0
 10
841.0350249729557
 20
2007.599286885048
 30
0.0
 10
840.8968576315974
 20
2006.928203230271
 30
0.0
  0
SPLINE
  5
12F
330
87
100
AcDbEntity
  8
P-SANR-FIXT
100
AcDbSpline
210
0.0
220
0.0
230
1.0
 70
     8
 71
     3
 72
    10
 73
     6
 74
     0
 42
0.000000001
 43
0.0000000001
 40
0.0
 40
0.0
 40
0.0
 40
0.0
 40
0.4
 40
0.7
 40
1.0
 40
1.0
 40
1.0
 40
1.0
 10
854.0868946141205
 20
2006.928203230271
 30
0.0
 10
853.903521322498
 20
2007.823077565284
 30
0.0
 10
853.7050072489357
 20
2009.414072784759
 30
0.0
 10
853.7535912253852
 20
2011.36004716321
 30
0.0
 10
853.9491586396476
 20
2012.22109604117
 30
0.0
 10
854.0868946141149
 20
2012.55736835487
 30
0.0
  0
SPLINE
  5
130
330
87
100
AcDbEntity
  8
P-SANR-FIXT
100
AcDbSpline
210
0.0
220
0.0
230
1.0
 70
     8
 71
     3
 72
     9
 73
     5
 74
     0
 42
0.000000001
 43
0.0000000001
 40
0.0
 40
0.0
 40
0.0
 40
0.0
 40
0.5
 40
1.0
 40
1.0
 40
1.0
 40
1.0
 10
840.8968576315974
 20
2006.928203230271
 30
0.0
 10
840.6577182310989
 20
2005.785604016244
 30
0.0
 10
840.296837132527
 20
2003.488304263837
 30
0.0
 10
840.1707514388061
 20
2001.166801862726
 30
0.0
 10
840.1664074431582
 20
1999.999999999995
 30
0.0
  0
SPLINE
  5
131
330
87
100
AcDbEntity
  8
P-SANR-FIXT
100
AcDbSpline
210
0.0
220
0.0
230
1.0
 70
     8
 71
     3
 72
     9
 73
     5
 74
     0
 42
0.000000001
 43
0.0000000001
 40
0.0
 40
0.0
 40
0.0
 40
0.0
 40
0.5
 40
1.0
 40
1.0
 40
1.0
 40
1.0
 10
840.1664074431584
 20
1999.999999999995
 30
0.0
 10
840.1707514388061
 20
1998.833198137264
 30
0.0
 10
840.296837132527
 20
1996.511695736153
 30
0.0
 10
840.6577182310986
 20
1994.214395983747
 30
0.0
 10
840.8968576315972
 20
1993.07179676972
 30
0.0
  0
SPLINE
  5
132
330
87
100
AcDbEntity
  8
P-SANR-FIXT
100
AcDbSpline
210
0.0
220
0.0
230
1.0
 70
     8
 71
     3
 72
     9
 73
     5
 74
     0
 42
0.000000001
 43
0.0000000001
 40
0.0
 40
0.0
 40
0.0
 40
0.0
 40
0.5
 40
1.0
 40
1.0
 40
1.0
 40
1.0
 10
854.0868946141205
 20
1993.07179676972
 30
0.0
 10
854.571548439948
 20
1995.344357535378
 30
0.0
 10
855.0562022657755
 20
1999.926319377795
 30
0.0
 10
854.571548439948
 20
2004.581961842412
 30
0.0
 10
854.0868946141205
 20
2006.928203230271
 30
0.0
  0
SPLINE
  5
133
330
87
100
AcDbEntity
  8
P-SANR-FIXT
100
AcDbSpline
210
0.0
220
0.0
230
1.0
 70
     8
 71
     3
 72
    10
 73
     6
 74
     0
 42
0.000000001
 43
0.0000000001
 40
0.0
 40
0.0
 40
0.0
 40
0.0
 40
0.4
 40
0.7
 40
1.0
 40
1.0
 40
1.0
 40
1.0
 10
840.8968576315972
 20
1993.07179676972
 30
0.0
 10
841.0813570722268
 20
1992.175165006182
 30
0.0
 10
841.280666135578
 20
1990.584640051696
 30
0.0
 10
841.2314953868879
 20
1988.638207288019
 30
0.0
 10
841.0350249729599
 20
1987.778173472509
 30
0.0
 10
840.8968576316027
 20
1987.442631645121
 30
0.0
  0
SPLINE
  5
134
330
87
100
AcDbEntity
  8
P-SANR-FIXT
100
AcDbSpline
210
0.0
220
0.0
230
1.0
 70
     8
 71
     3
 72
    10
 73
     6
 74
     0
 42
0.000000001
 43
0.0000000001
 40
0.0
 40
0.0
 40
0.0
 40
0.0
 40
0.4
 40
0.7
 40
1.0
 40
1.0
 40
1.0
 40
1.0
 10
854.086894614115
 20
1987.442631645121
 30
0.0
 10
853.903521322494
 20
1987.890068812628
 30
0.0
 10
853.7050072489341
 20
1988.972158315611
 30
0.0
 10
853.7535912253877
 20
1991.041759871961
 30
0.0
 10
853.9491586396522
 20
1992.399252142322
 30
0.0
 10
854.0868946141205
 20
1993.07179676972
 30
0.0
  0
SPLINE
  5
135
330
87
100
AcDbEntity
  8
P-SANR-FIXT
100
AcDbSpline
210
0.0
220
0.0
230
1.0
 70
     8
 71
     3
 72
     9
 73
     5
 74
     0
 42
0.000000001
 43
0.0000000001
 40
0.0
 40
0.0
 40
0.0
 40
0.0
 40
0.5
 40
1.0
 40
1.0
 40
1.0
 40
1.0
 10
840.8968576316027
 20
1987.442631645121
 30
0.0
 10
840.6577182311107
 20
1986.871332038111
 30
0.0
 10
840.2968371325444
 20
1985.722682161917
 30
0.0
 10
840.1707514388144
 20
1984.56193096137
 30
0.0
 10
840.1664074431584
 20
1983.978530030009
 30
0.0
  0
SPLINE
  5
136
330
87
100
AcDbEntity
  8
P-SANR-FIXT
100
AcDbSpline
210
0.0
220
0.0
230
1.0
 70
     8
 71
     3
 72
     9
 73
     5
 74
     0
 42
0.000000001
 43
0.0000000001
 40
0.0
 40
0.0
 40
0.0
 40
0.0
 40
0.5
 40
1.0
 40
1.0
 40
1.0
 40
1.0
 10
840.1664074431584
 20
1983.978530030009
 30
0.0
 10
840.1707514388146
 20
1983.395129098639
 30
0.0
 10
840.2968371325485
 20
1982.234377898075
 30
0.0
 10
840.6577182311247
 20
1981.085728021864
 30
0.0
 10
840.8968576316233
 20
1980.514428414846
 30
0.0
  0
SPLINE
  5
137
330
87
100
AcDbEntity
  8
P-SANR-FIXT
100
AcDbSpline
210
0.0
220
0.0
230
1.0
 70
     8
 71
     3
 72
     9
 73
     5
 74
     0
 42
0.000000001
 43
0.0000000001
 40
0.0
 40
0.0
 40
0.0
 40
0.0
 40
0.5
 40
1.0
 40
1.0
 40
1.0
 40
1.0
 10
854.0868946140946
 20
1980.514428414846
 30
0.0
 10
854.5715484399247
 20
1981.650708797675
 30
0.0
 10
855.0562022657581
 20
1983.941689718884
 30
0.0
 10
854.5715484399382
 20
1986.269510951192
 30
0.0
 10
854.086894614115
 20
1987.442631645121
 30
0.0
  0
SPLINE
  5
138
330
87
100
AcDbEntity
  8
P-SANR-FIXT
100
AcDbSpline
210
0.0
220
0.0
230
1.0
 70
     8
 71
     3
 72
     9
 73
     5
 74
     0
 42
0.000000001
 43
0.0000000001
 40
0.0
 40
0.0
 40
0.0
 40
0.0
 40
0.5
 40
1.0
 40
1.0
 40
1.0
 40
1.0
 10
840.8968576316233
 20
1980.514428414846
 30
0.0
 10
841.0125857657341
 20
1980.234052730605
 30
0.0
 10
841.1866899523522
 20
1979.796374180805
 30
0.0
 10
841.2460899757634
 20
1979.64359353945
 30
0.0
 10
841.2471139466674
 20
1979.643593539444
 30
0.0
  0
SPLINE
  5
139
330
87
100
AcDbEntity
  8
P-SANR-FIXT
100
AcDbSpline
210
0.0
220
0.0
230
1.0
 70
     8
 71
     3
 72
     9
 73
     5
 74
     0
 42
0.000000001
 43
0.0000000001
 40
0.0
 40
0.0
 40
0.0
 40
0.0
 40
0.5
 40
1.0
 40
1.0
 40
1.0
 40
1.0
 10
853.7382789953813
 20
1979.643593539444
 30
0.0
 10
853.7392925027369
 20
1979.64359353945
 30
0.0
 10
853.7984086132112
 20
1979.796345098105
 30
0.0
 10
853.9717029152123
 20
1980.234025333984
 30
0.0
 10
854.0868946140946
 20
1980.514428414846
 30
0.0
  0
SPLINE
  5
13A
330
87
100
AcDbEntity
  8
P-SANR-FIXT
100
AcDbSpline
210
0.0
220
0.0
230
1.0
 70
     8
 71
     3
 72
     9
 73
     5
 74
     0
 42
0.000000001
 43
0.0000000001
 40
0.0
 40
0.0
 40
0.0
 40
0.0
 40
0.5
 40
1.0
 40
1.0
 40
1.0
 40
1.0
 10
841.247113946668
 20
2020.356406460546
 30
0.0
 10
841.2460899757638
 20
2020.356406460541
 30
0.0
 10
841.1866899523525
 20
2020.203625819185
 30
0.0
 10
841.0125857657344
 20
2019.765947269386
 30
0.0
 10
840.8968576316237
 20
2019.485571585144
 30
0.0
  0
SPLINE
  5
13B
330
87
100
AcDbEntity
  8
P-SANR-FIXT
100
AcDbSpline
210
0.0
220
0.0
230
1.0
 70
     8
 71
     3
 72
     9
 73
     5
 74
     0
 42
0.000000001
 43
0.0000000001
 40
0.0
 40
0.0
 40
0.0
 40
0.0
 40
0.5
 40
1.0
 40
1.0
 40
1.0
 40
1.0
 10
854.0868946140943
 20
2019.485571585144
 30
0.0
 10
853.971702915212
 20
2019.765974666006
 30
0.0
 10
853.7984086132111
 20
2020.203654901886
 30
0.0
 10
853.7392925027365
 20
2020.356406460541
 30
0.0
 10
853.7382789953809
 20
2020.356406460546
 30
0.0
  0
SPLINE
  5
13C
330
87
100
AcDbEntity
  8
P-SANR-FIXT
100
AcDbSpline
210
0.0
220
0.0
230
1.0
 70
     8
 71
     3
 72
     9
 73
     5
 74
     0
 42
0.000000001
 43
0.0000000001
 40
0.0
 40
0.0
 40
0.0
 40
0.0
 40
0.5
 40
1.0
 40
1.0
 40
1.0
 40
1.0
 10
854.0868946141149
 20
2012.55736835487
 30
0.0
 10
854.571548439938
 20
2013.730489048799
 30
0.0
 10
855.0562022657578
 20
2016.058310281108
 30
0.0
 10
854.5715484399243
 20
2018.349291202316
 30
0.0
 10
854.0868946140943
 20
2019.485571585144
 30
0.0
  0
SPLINE
  5
13D
330
87
100
AcDbEntity
  8
P-SANR-FIXT
100
AcDbSpline
210
0.0
220
0.0
230
1.0
 70
     8
 71
     3
 72
     9
 73
     5
 74
     0
 42
0.000000001
 43
0.0000000001
 40
0.0
 40
0.0
 40
0.0
 40
0.0
 40
0.5
 40
1.0
 40
1.0
 40
1.0
 40
1.0
 10
840.8968576316237
 20
2019.485571585144
 30
0.0
 10
840.657718231125
 20
2018.914271978127
 30
0.0
 10
840.2968371325489
 20
2017.765622101916
 30
0.0
 10
840.1707514388148
 20
2016.604870901352
 30
0.0
 10
840.1664074431582
 20
2016.021469969982
 30
0.0
  0
SPLINE
  5
13E
330
87
100
AcDbEntity
  8
P-SANR-FIXT
100
AcDbSpline
210
0.0
220
0.0
230
1.0
 70
     8
 71
     3
 72
     9
 73
     5
 74
     0
 42
0.000000001
 43
0.0000000001
 40
0.0
 40
0.0
 40
0.0
 40
0.0
 40
0.5
 40
1.0
 40
1.0
 40
1.0
 40
1.0
 10
840.1664074431584
 20
2016.021469969982
 30
0.0
 10
840.1707514388144
 20
2015.438069038621
 30
0.0
 10
840.2968371325449
 20
2014.277317838074
 30
0.0
 10
840.657718231111
 20
2013.128667961879
 30
0.0
 10
840.8968576316029
 20
2012.55736835487
 30
0.0
  0
LINE
  5
13F
330
87
100
AcDbEntity
  8
P-SANR-FIXT
100
AcDbLine
 10
802.2164074431593
 20
1967.999999999996
 30
0.0
 11
802.2164074431593
 21
1957.465809534842
 31
0.0
  0
LINE
  5
140
330
87
100
AcDbEntity
  8
P-SANR-FIXT
100
AcDbLine
 10
829.11640744316
 20
1957.465809534842
 30
0.0
 11
829.11640744316
 21
1967.999999999996
 31
0.0
  0
LWPOLYLINE
  5
141
330
87
100
AcDbEntity
  8
P-SANR-FIXT
100
AcDbPolyline
 90
        3
 70
   128
 43
0.0
 10
726.9712575187639
 20
2075.922815130478
 10
753.5494198568575
 20
2077.394504421103
 10
773.772160789076
 20
2080.282011224565
  0
LWPOLYLINE
  5
142
330
87
100
AcDbEntity
  8
P-SANR-FIXT
100
AcDbPolyline
 90
        3
 70
   128
 43
0.0
 10
727.8083352036933
 20
2087.893583733596
 10
753.0662364687685
 20
2089.488633236708
 10
773.772160789076
 20
2092.282011224565
  0
LINE
  5
143
330
87
100
AcDbEntity
  8
P-SANR-FIXT
100
AcDbLine
 10
727.3897963612275
 20
2081.908199432036
 30
0.0
 11
727.8083352036921
 21
2087.893583733595
 31
0.0
  0
LINE
  5
144
330
87
100
AcDbEntity
  8
P-SANR-FIXT
100
AcDbLine
 10
726.9712575187627
 20
2075.922815130477
 30
0.0
 11
727.3897963612275
 21
2081.908199432036
 31
0.0
  0
LINE
  5
145
330
87
100
AcDbEntity
  8
P-SANR-FIXT
100
AcDbLine
 10
783.772160789076
 20
2096.853468692124
 30
0.0
 11
780.0818896337991
 21
2096.853468692124
 31
0.0
  0
LINE
  5
146
330
87
100
AcDbEntity
  8
P-SANR-FIXT
100
AcDbLine
 10
780.0818896337991
 20
2075.710553757005
 30
0.0
 11
783.7721607890753
 21
2075.710553757005
 31
0.0
  0
LINE
  5
147
330
87
100
AcDbEntity
  8
P-SANR-FIXT
100
AcDbLine
 10
780.0818896337991
 20
2096.853468692124
 30
0.0
 11
776.4453621113887
 21
2096.853468692124
 31
0.0
  0
LINE
  5
148
330
87
100
AcDbEntity
  8
P-SANR-FIXT
100
AcDbLine
 10
776.4453621113887
 20
2075.710553757005
 30
0.0
 11
780.0818896337991
 21
2075.710553757005
 31
0.0
  0
LWPOLYLINE
  5
149
330
87
100
AcDbEntity
  8
P-SANR-FIXT
100
AcDbPolyline
 90
       41
 70
   128
 43
0.0
 10
776.4453621113887
 20
2075.710553757005
 10
776.3384625703625
 20
2075.712692032937
 10
776.2317340457979
 20
2075.719103439946
 10
776.125347280567
 20
2075.72977772115
 10
776.0194724707989
 20
2075.744697799975
 10
775.9142789936043
 20
2075.763839807478
 10
775.8099351361063
 20
2075.787173120531
 10
775.7066078262184
 20
2075.81466041081
 10
775.6044623655943
 20
2075.846257704514
 10
775.503662165181
 20
2075.881914452714
 10
775.4043684837963
 20
2075.92157361222
 10
775.306740170149
 20
2075.965171736834
 10
775.2109334087147
 20
2076.01263907886
 10
775.1171014698739
 20
2076.063899700676
 10
775.0253944647122
 20
2076.118871596221
 10
774.935959104875
 20
2076.17746682219
 10
774.8489384678596
 20
2076.239591638721
 10
774.7644717681214
 20
2076.305146659359
 10
774.6826941343616
 20
2076.374027010057
 10
774.6037363933494
 20
2076.446122496946
 10
774.5277248606269
 20
2076.521317782627
 10
774.4547811384316
 20
2076.599492570684
 10
774.385021921158
 20
2076.680521798134
 10
774.3185588086732
 20
2076.764275835495
 10
774.2554981277789
 20
2076.850620694176
 10
774.1959407621124
 20
2076.939418240823
 10
774.1399819907536
 20
2077.030526418302
 10
774.0877113357997
 20
2077.123799472966
 10
774.0392124191481
 20
2077.219088187823
 10
773.9945628287195
 20
2077.316240121258
 10
773.9538339943338
 20
2077.415099850901
 10
773.917091073438
 20
2077.515509222274
 10
773.8843928468669
 20
2077.617307601803
 10
773.8557916248081
 20
2077.720332133796
 10
773.8313331631157
 20
2077.824418000978
 10
773.8110565901108
 20
2077.929398688167
 10
773.7949943439846
 20
2078.035106248659
 10
773.7831721209047
 20
2078.141371572904
 10
773.7756088339059
 20
2078.248024659054
 10
773.7723165826342
 20
2078.354894884922
 10
773.772160789076
 20
2078.383755079318
  0
LWPOLYLINE
  5
14A
330
87
100
AcDbEntity
  8
P-SANR-FIXT
100
AcDbPolyline
 90
       41
 70
   128
 43
0.0
 10
773.772160789076
 20
2094.180267369812
 10
773.7742990650076
 20
2094.287166910838
 10
773.7807104720169
 20
2094.393895435402
 10
773.7913847532207
 20
2094.500282200634
 10
773.8063048320458
 20
2094.606157010402
 10
773.825446839549
 20
2094.711350487596
 10
773.8487801526016
 20
2094.815694345093
 10
773.8762674428806
 20
2094.919021654982
 10
773.9078647365848
 20
2095.021167115606
 10
773.9435214847844
 20
2095.121967316019
 10
773.9831806442895
 20
2095.221260997404
 10
774.0267787689045
 20
2095.318889311052
 10
774.0742461109305
 20
2095.414696072486
 10
774.125506732746
 20
2095.508528011326
 10
774.1804786282913
 20
2095.600235016488
 10
774.2390738542605
 20
2095.689670376325
 10
774.3011986707911
 20
2095.776691013341
 10
774.3667536914293
 20
2095.861157713079
 10
774.435634042127
 20
2095.942935346839
 10
774.5077295290163
 20
2096.021893087851
 10
774.5829248146978
 20
2096.097904620574
 10
774.6610996027552
 20
2096.170848342769
 10
774.7421288302039
 20
2096.240607560043
 10
774.8258828675655
 20
2096.307070672527
 10
774.912227726247
 20
2096.370131353421
 10
775.0010252728935
 20
2096.429688719088
 10
775.0921334503726
 20
2096.485647490447
 10
775.1854065050358
 20
2096.537918145401
 10
775.2806952198934
 20
2096.586417062052
 10
775.377847153328
 20
2096.631066652481
 10
775.4767068829715
 20
2096.671795486866
 10
775.5771162543448
 20
2096.708538407762
 10
775.6789146338733
 20
2096.741236634333
 10
775.7819391658661
 20
2096.769837856392
 10
775.8860250330489
 20
2096.794296318085
 10
775.9910057202382
 20
2096.814572891089
 10
776.0967132807289
 20
2096.830635137216
 10
776.2029786049744
 20
2096.842457360295
 10
776.3096316911246
 20
2096.850020647294
 10
776.4165019169927
 20
2096.853312898566
 10
776.4453621113887
 20
2096.853468692124
  0
LWPOLYLINE
  5
14B
330
87
100
AcDbEntity
  8
P-SANR-FIXT
100
AcDbPolyline
 90
        5
 70
   128
 43
0.0
 10
773.772160789076
 20
2078.383755079318
 10
773.772160789076
 20
2078.390072841798
 10
773.772160789076
 20
2078.409016022168
 10
773.772160789076
 20
2078.440554315378
 10
773.772160789076
 20
2078.484637266888
  0
LWPOLYLINE
  5
14C
330
87
100
AcDbEntity
  8
P-SANR-FIXT
100
AcDbPolyline
 90
        6
 70
   128
 43
0.0
 10
773.772160789076
 20
2094.081912061935
 10
773.772160789076
 20
2094.101225544588
 10
773.772160789076
 20
2094.139543197835
 10
773.772160789076
 20
2094.165290476109
 10
773.772160789076
 20
2094.178426189257
 10
773.772160789076
 20
2094.180267369812
  0
LWPOLYLINE
  5
14D
330
87
100
AcDbEntity
  8
P-SANR-FIXT
100
AcDbPolyline
 90
       80
 70
   128
 43
0.0
 10
773.772160789076
 20
2094.180267369812
 10
773.772160789076
 20
2094.173949607331
 10
773.772160789076
 20
2094.155006426962
 10
773.772160789076
 20
2094.123468133752
 10
773.772160789076
 20
2094.079385182242
 10
773.772160789076
 20
2094.02282809575
 10
773.772160789076
 20
2093.953887353551
 10
773.772160789076
 20
2093.872673246126
 10
773.772160789076
 20
2093.77931569872
 10
773.772160789076
 20
2093.673964063496
 10
773.772160789076
 20
2093.556786880595
 10
773.772160789076
 20
2093.427971608514
 10
773.772160789076
 20
2093.287724324209
 10
773.772160789076
 20
2093.136269393417
 10
773.772160789076
 20
2092.973849111718
 10
773.772160789076
 20
2092.800723316917
 10
773.772160789076
 20
2092.617168973351
 10
773.772160789076
 20
2092.423479728815
 10
773.772160789076
 20
2092.219965444784
 10
773.772160789076
 20
2092.006951700696
 10
773.772160789076
 20
2091.784779273101
 10
773.772160789076
 20
2091.55380359049
 10
773.772160789076
 20
2091.314394164682
 10
773.772160789076
 20
2091.066933999689
 10
773.772160789076
 20
2090.811818978984
 10
773.772160789076
 20
2090.549457232179
 10
773.772160789076
 20
2090.280268482102
 10
773.772160789076
 20
2090.004683373329
 10
773.772160789076
 20
2089.723142783246
 10
773.772160789076
 20
2089.436097116738
 10
773.772160789076
 20
2089.144005585638
 10
773.772160789076
 20
2088.847335474087
 10
773.772160789076
 20
2088.546561390976
 10
773.772160789076
 20
2088.242164510678
 10
773.772160789076
 20
2087.934631803265
 10
773.772160789076
 20
2087.624455255467
 10
773.772160789076
 20
2087.312131083592
 10
773.772160789076
 20
2086.998158939689
 10
773.772160789076
 20
2086.683041112213
 10
773.772160789076
 20
2086.367281722465
 10
773.772160789076
 20
2086.05138591811
 10
773.772160789076
 20
2085.735859065048
 10
773.772160789076
 20
2085.421205938936
 10
773.772160789076
 20
2085.107929917652
 10
773.772160789076
 20
2084.796532176001
 10
773.772160789076
 20
2084.487510883942
 10
773.772160789076
 20
2084.181360409623
 10
773.772160789076
 20
2083.878570528492
 10
773.772160789076
 20
2083.579625639768
 10
773.772160789076
 20
2083.285003991502
 10
773.772160789076
 20
2082.995176915481
 10
773.772160789076
 20
2082.710608073201
 10
773.772160789076
 20
2082.431752714105
 10
773.772160789076
 20
2082.15905694728
 10
773.772160789076
 20
2081.892957027783
 10
773.772160789076
 20
2081.633878658718
 10
773.772160789076
 20
2081.382236310211
 10
773.772160789076
 20
2081.138432556336
 10
773.772160789076
 20
2080.902857431093
 10
773.772160789076
 20
2080.675887804428
 10
773.772160789076
 20
2080.457886779325
 10
773.772160789076
 20
2080.249203110921
 10
773.772160789076
 20
2080.050170648569
 10
773.772160789076
 20
2079.86110780175
 10
773.772160789076
 20
2079.682317030687
 10
773.772160789076
 20
2079.514084362475
 10
773.772160789076
 20
2079.356678933496
 10
773.772160789076
 20
2079.210352558857
 10
773.772160789076
 20
2079.075339329542
 10
773.772160789076
 20
2078.951855237918
 10
773.772160789076
 20
2078.84009783219
 10
773.772160789076
 20
2078.740245900366
 10
773.772160789076
 20
2078.652459184236
 10
773.772160789076
 20
2078.57687812382
 10
773.772160789076
 20
2078.513623632692
 10
773.772160789076
 20
2078.462796904542
 10
773.772160789076
 20
2078.424479251295
 10
773.772160789076
 20
2078.39873197302
 10
773.772160789076
 20
2078.385596259872
 10
773.772160789076
 20
2078.383755079318
  0
LINE
  5
14E
330
87
100
AcDbEntity
  8
P-SANR-FIXT
100
AcDbLine
 10
885.6664074431581
 20
2100.499999999994
 30
0.0
 11
815.6664074431581
 21
2100.499999999995
 31
0.0
  0
LINE
  5
14F
330
87
100
AcDbEntity
  8
P-SANR-FIXT
100
AcDbLine
 10
815.6664074431581
 20
2100.499999999995
 30
0.0
 11
788.7721607890745
 21
2100.499999999995
 31
0.0
  0
ARC
  5
150
330
87
100
AcDbEntity
  8
P-SANR-FIXT
100
AcDbCircle
 10
788.7721607890745
 20
2095.499999999995
 30
0.0
 40
4.999999999999886
100
AcDbArc
 50
90.0
 51
180.0
  0
LINE
  5
151
330
87
100
AcDbEntity
  8
P-SANR-FIXT
100
AcDbLine
 10
783.7721607890746
 20
2095.499999999995
 30
0.0
 11
783.7721607890745
 21
2070.499999999995
 31
0.0
  0
ARC
  5
152
330
87
100
AcDbEntity
  8
P-SANR-FIXT
100
AcDbCircle
 10
786.7013439132986
 20
2165.368679590419
 30
0.0
 40
94.91388982127794
100
AcDbArc
 50
268.2314866324188
 51
287.7685133675701
  0
ARC
  5
153
330
87
100
AcDbEntity
  8
P-SANR-FIXT
100
AcDbCircle
 10
898.6879137654764
 20
1815.911670116488
 30
0.0
 40
272.0482244326591
100
AcDbArc
 50
91.68964557852145
 51
107.768513367573
  0
LINE
  5
154
330
87
100
AcDbEntity
  8
P-SANR-FIXT
100
AcDbLine
 10
890.6664074431581
 20
2087.841609353203
 30
0.0
 11
890.6664074431581
 21
2095.499999999995
 31
0.0
  0
ARC
  5
155
330
87
100
AcDbEntity
  8
P-SANR-FIXT
100
AcDbCircle
 10
885.6664074431582
 20
2095.499999999995
 30
0.0
 40
4.999999999999886
100
AcDbArc
 50
0.0
 51
90.0
  0
LINE
  5
156
330
87
100
AcDbEntity
  8
P-SANR-FIXT
100
AcDbLine
 10
783.7721607890747
 20
2095.499999999995
 30
0.0
 11
783.7721607890747
 21
2096.853468692124
 31
0.0
  0
LINE
  5
157
330
87
100
AcDbEntity
  8
P-SANR-FIXT
100
AcDbLine
 10
802.1709635022782
 20
2045.499999999996
 30
0.0
 11
802.1709635022782
 21
2019.249999999995
 31
0.0
  0
LINE
  5
158
330
87
100
AcDbEntity
  8
P-SANR-FIXT
100
AcDbLine
 10
829.1618513840413
 20
2019.249999999995
 30
0.0
 11
829.1618513840413
 21
2045.499999999996
 31
0.0
  0
LINE
  5
159
330
87
100
AcDbEntity
  8
P-SANR-FIXT
100
AcDbLine
 10
805.6770455567557
 20
2102.499999999996
 30
0.0
 11
805.6770455567557
 21
2100.499999999996
 31
0.0
  0
LINE
  5
15A
330
87
100
AcDbEntity
  8
P-SANR-FIXT
100
AcDbLine
 10
825.6557693295635
 20
2100.499999999996
 30
0.0
 11
825.6557693295635
 21
2102.499999999996
 31
0.0
  0
LINE
  5
15B
330
87
100
AcDbEntity
  8
P-SANR-FIXT
100
AcDbLine
 10
802.1709635022769
 20
2019.249999999995
 30
0.0
 11
829.1560637494949
 21
2019.249999999995
 31
0.0
  0
ARC
  5
15C
330
87
100
AcDbEntity
  8
P-SANR-FIXT
100
AcDbCircle
 10
795.7721607890732
 20
2057.499999999995
 30
0.0
 40
12.0
100
AcDbArc
 50
180.0
 51
269.9999999999991
  0
LINE
  5
15D
330
87
100
AcDbEntity
  8
P-SANR-FIXT
100
AcDbLine
 10
795.7721607890732
 20
2045.499999999995
 30
0.0
 11
852.6645435890131
 21
2045.499999999995
 31
0.0
  0
ARC
  5
15E
330
87
100
AcDbEntity
  8
P-SANR-FIXT
100
AcDbCircle
 10
852.6645435890131
 20
2083.501863854136
 30
0.0
 40
38.00186385414168
100
AcDbArc
 50
269.9999999999989
 51
359.9999999999988
  0
LINE
  5
15F
330
87
100
AcDbEntity
  8
P-SANR-FIXT
100
AcDbLine
 10
890.6664074431548
 20
2083.501863854136
 30
0.0
 11
890.6664074431548
 21
2087.841609353204
 31
0.0
  0
ARC
  5
160
330
87
100
AcDbEntity
  8
P-SANR-FIXT
100
AcDbCircle
 10
898.6879137657997
 20
1815.911670114634
 30
0.0
 40
272.0482244345223
100
AcDbArc
 50
91.68964557857792
 51
107.7685133675304
  0
ARC
  5
161
330
87
100
AcDbEntity
  8
P-SANR-FIXT
100
AcDbCircle
 10
786.7013439132914
 20
2165.368679590474
 30
0.0
 40
94.91388982133313
100
AcDbArc
 50
268.2314866324243
 51
287.7685133675289
  0
LINE
  5
162
330
87
100
AcDbEntity
  8
P-SANR-FIXT
100
AcDbLine
 10
783.7721607890734
 20
2070.499999999995
 30
0.0
 11
783.7721607890732
 21
2057.499999999995
 31
0.0
  0
LINE
  5
163
330
87
100
AcDbEntity
  8
P-SANR-FIXT
100
AcDbLine
 10
805.6770455567543
 20
2102.499999999995
 30
0.0
 11
825.6557693295622
 21
2102.499999999995
 31
0.0
  0
LWPOLYLINE
  5
164
330
87
100
AcDbEntity
  8
P-SANR-FIXT
100
AcDbPolyline
 90
        6
 70
   128
 43
0.0
 10
765.342780697074
 20
1923.678524674197
 10
758.3151024990841
 20
1924.540657614119
 10
752.2183576089186
 20
1926.942951182109
 10
746.8045062765473
 20
1930.773401813614
 10
741.9230490855217
 20
1936.093495685166
 10
738.5071953171449
 20
1941.2653664701
  0
LWPOLYLINE
  5
165
330
87
100
AcDbEntity
  8
P-SANR-FIXT
100
AcDbPolyline
 90
        6
 70
   128
 43
0.0
 10
765.342780697074
 20
1927.678524674197
 10
758.7577325268108
 20
1928.563854306837
 10
753.2127768140493
 20
1930.983051494005
 10
748.337415227644
 20
1934.815971937729
 10
744.3280425217119
 20
1939.576800444622
 10
741.9712969322826
 20
1943.2653664701
  0
LINE
  5
166
330
87
100
AcDbEntity
  8
P-SANR-FIXT
100
AcDbLine
 10
765.342780697074
 20
1923.178524674197
 30
0.0
 11
767.342780697074
 21
1923.178524674197
 31
0.0
  0
LINE
  5
167
330
87
100
AcDbEntity
  8
P-SANR-FIXT
100
AcDbLine
 10
767.342780697074
 20
1928.178524674197
 30
0.0
 11
765.342780697074
 21
1928.178524674197
 31
0.0
  0
LINE
  5
168
330
87
100
AcDbEntity
  8
P-SANR-FIXT
100
AcDbLine
 10
767.342780697074
 20
1923.178524674197
 30
0.0
 11
775.5742734971456
 21
1921.727090402037
 31
0.0
  0
LINE
  5
169
330
87
100
AcDbEntity
  8
P-SANR-FIXT
100
AcDbLine
 10
775.5742734971456
 20
1929.629958946357
 30
0.0
 11
767.342780697074
 21
1928.178524674197
 31
0.0
  0
LINE
  5
16A
330
87
100
AcDbEntity
  8
P-SANR-FIXT
100
AcDbLine
 10
775.5742734971456
 20
1921.727090402037
 30
0.0
 11
793.4000663926808
 21
1921.727090402037
 31
0.0
  0
LINE
  5
16B
330
87
100
AcDbEntity
  8
P-SANR-FIXT
100
AcDbLine
 10
796.7886417537332
 20
1929.629958946357
 30
0.0
 11
775.5742734971456
 21
1929.629958946357
 31
0.0
  0
LINE
  5
16C
330
87
100
AcDbEntity
  8
P-SANR-FIXT
100
AcDbLine
 10
740.2392461247126
 20
1942.265366470099
 30
0.0
 11
741.9712969322813
 21
1943.265366470099
 31
0.0
  0
LINE
  5
16D
330
87
100
AcDbEntity
  8
P-SANR-FIXT
100
AcDbLine
 10
738.5071953171437
 20
1941.265366470099
 30
0.0
 11
738.7392461247126
 21
1941.399341066314
 31
0.0
  0
LINE
  5
16E
330
87
100
AcDbEntity
  8
P-SANR-FIXT
100
AcDbLine
 10
738.7406191130946
 20
1941.400133761526
 30
0.0
 11
740.2392461247126
 21
1942.265366470099
 31
0.0
  0
LINE
  5
16F
330
87
100
AcDbEntity
  8
P-SANR-FIXT
100
AcDbLine
 10
765.3427806970728
 20
1923.178524674196
 30
0.0
 11
765.3427806970728
 21
1928.178524674197
 31
0.0
  0
LINE
  5
170
330
87
100
AcDbEntity
  8
P-SANR-FIXT
100
AcDbLine
 10
767.3427806970728
 20
1923.178524674196
 30
0.0
 11
767.3427806970728
 21
1928.178524674197
 31
0.0
  0
LINE
  5
171
330
87
100
AcDbEntity
  8
P-SANR-FIXT
100
AcDbLine
 10
775.5742734971445
 20
1921.727090402036
 30
0.0
 11
775.5742734971446
 21
1929.629958946357
 31
0.0
  0
LINE
  5
172
330
87
100
AcDbEntity
  8
P-SANR-FIXT
100
AcDbLine
 10
796.8059824141176
 20
1929.208057085988
 30
0.0
 11
796.8059824141176
 21
1929.554033244812
 31
0.0
  0
ARC
  5
173
330
87
100
AcDbEntity
  8
P-SANR-FIXT
100
AcDbCircle
 10
815.6664074431581
 20
1915.999999999887
 30
0.0
 40
22.5
100
AcDbArc
 50
90.0
 51
269.9999999999993
  0
ARC
  5
174
330
87
100
AcDbEntity
  8
P-SANR-FIXT
100
AcDbCircle
 10
815.6664074431581
 20
1915.999999999887
 30
0.0
 40
22.50000000000006
100
AcDbArc
 50
269.9999999999995
 51
89.99999999999898
  0
ARC
  5
175
330
87
100
AcDbEntity
  8
P-SANR-FIXT
100
AcDbCircle
 10
815.6664074431583
 20
1915.999999999888
 30
0.0
 40
23.00000000000006
100
AcDbArc
 50
269.9999999999989
 51
359.9999999999995
  0
ARC
  5
176
330
87
100
AcDbEntity
  8
P-SANR-FIXT
100
AcDbCircle
 10
815.6664074431583
 20
1915.999999999888
 30
0.0
 40
23.00000000000006
100
AcDbArc
 50
179.9999999999999
 51
269.9999999999984
  0
ARC
  5
177
330
87
100
AcDbEntity
  8
P-SANR-FIXT
100
AcDbCircle
 10
815.6664074431583
 20
1915.999999999888
 30
0.0
 40
22.99999999999994
100
AcDbArc
 50
90.00000000000069
 51
180.0000000000001
  0
ARC
  5
178
330
87
100
AcDbEntity
  8
P-SANR-FIXT
100
AcDbCircle
 10
815.6664074431583
 20
1915.999999999888
 30
0.0
 40
23.0
100
AcDbArc
 50
0.0000000000005664
 51
90.00000000000058
  0
LINE
  5
179
330
87
100
AcDbEntity
  8
P-SANR-FIXT
100
AcDbLine
 10
796.6664074431595
 20
1980.749999999996
 30
0.0
 11
799.6664074431597
 21
1980.749999999996
 31
0.0
  0
LINE
  5
17A
330
87
100
AcDbEntity
  8
P-SANR-FIXT
100
AcDbLine
 10
802.2200386559058
 20
2019.249999999995
 30
0.0
 11
796.6664074431596
 21
2019.249999999995
 31
0.0
  0
LINE
  5
17B
330
87
100
AcDbEntity
  8
P-SANR-FIXT
100
AcDbLine
 10
836.6045654371621
 20
1984.999999999996
 30
0.0
 11
838.3164074431595
 21
1984.999999999996
 31
0.0
  0
LINE
  5
17C
330
87
100
AcDbEntity
  8
P-SANR-FIXT
100
AcDbLine
 10
838.3164074431599
 20
2014.999999999996
 30
0.0
 11
836.6045654371625
 21
2014.999999999996
 31
0.0
  0
LINE
  5
17D
330
87
100
AcDbEntity
  8
P-SANR-FIXT
100
AcDbLine
 10
831.6664074431594
 20
1980.749999999996
 30
0.0
 11
834.400076269142
 21
1980.749999999996
 31
0.0
  0
LINE
  5
17E
330
87
100
AcDbEntity
  8
P-SANR-FIXT
100
AcDbLine
 10
834.4000762691424
 20
2019.249999999995
 30
0.0
 11
829.1127762304135
 21
2019.249999999995
 31
0.0
  0
LINE
  5
17F
330
87
100
AcDbEntity
  8
P-SANR-FIXT
100
AcDbLine
 10
838.3164074431595
 20
1984.999999999996
 30
0.0
 11
840.1664074431597
 21
1983.149999999996
 31
0.0
  0
LINE
  5
180
330
87
100
AcDbEntity
  8
P-SANR-FIXT
100
AcDbLine
 10
840.1664074431593
 20
2016.849999999995
 30
0.0
 11
838.3164074431599
 21
2014.999999999996
 31
0.0
  0
LINE
  5
181
330
87
100
AcDbEntity
  8
P-SANR-FIXT
100
AcDbLine
 10
799.6664074431597
 20
1980.749999999996
 30
0.0
 11
799.6664074431597
 21
1968.999999999996
 31
0.0
  0
LINE
  5
182
330
87
100
AcDbEntity
  8
P-SANR-FIXT
100
AcDbLine
 10
831.6664074431594
 20
1968.999999999996
 30
0.0
 11
831.6664074431594
 21
1980.749999999996
 31
0.0
  0
LINE
  5
183
330
87
100
AcDbEntity
  8
P-SANR-FIXT
100
AcDbLine
 10
799.6664074431597
 20
1968.999999999996
 30
0.0
 11
800.6664074431595
 21
1967.999999999996
 31
0.0
  0
LINE
  5
184
330
87
100
AcDbEntity
  8
P-SANR-FIXT
100
AcDbLine
 10
830.6664074431594
 20
1967.999999999996
 30
0.0
 11
831.6664074431594
 21
1968.999999999996
 31
0.0
  0
LINE
  5
185
330
87
100
AcDbEntity
  8
P-SANR-FIXT
100
AcDbLine
 10
834.400076269142
 20
1980.749999999996
 30
0.0
 11
835.3164074431596
 21
1980.749999999996
 31
0.0
  0
LINE
  5
186
330
87
100
AcDbEntity
  8
P-SANR-FIXT
100
AcDbLine
 10
835.3164074431598
 20
2019.249999999995
 30
0.0
 11
834.4000762691424
 21
2019.249999999995
 31
0.0
  0
LINE
  5
187
330
87
100
AcDbEntity
  8
P-SANR-FIXT
100
AcDbLine
 10
835.3164074431596
 20
1984.999999999996
 30
0.0
 11
836.6045654371621
 21
1984.999999999996
 31
0.0
  0
LINE
  5
188
330
87
100
AcDbEntity
  8
P-SANR-FIXT
100
AcDbLine
 10
836.6045654371625
 20
2014.999999999996
 30
0.0
 11
835.3164074431598
 21
2014.999999999996
 31
0.0
  0
LINE
  5
189
330
87
100
AcDbEntity
  8
P-SANR-FIXT
100
AcDbLine
 10
796.6664074431584
 20
2019.249999999995
 30
0.0
 11
796.6664074431583
 21
1980.749999999995
 31
0.0
  0
SPLINE
  5
18A
330
87
100
AcDbEntity
  8
P-SANR-FIXT
100
AcDbSpline
210
0.0
220
0.0
230
1.0
 70
     8
 71
     3
 72
    15
 73
    11
 74
     0
 42
0.000000001
 43
0.0000000001
 40
0.0
 40
0.0
 40
0.0
 40
0.0
 40
0.2
 40
0.3
 40
0.35
 40
0.4
 40
0.55
 40
0.7
 40
0.85
 40
1.0
 40
1.0
 40
1.0
 40
1.0
 10
799.6664074431584
 20
1980.749999999995
 30
0.0
 10
799.6833611547449
 20
1980.749999999995
 30
0.0
 10
799.928798992289
 20
1980.972153671399
 30
0.0
 10
800.6462229608301
 20
1981.557515297614
 30
0.0
 10
801.1651314757543
 20
1981.973077692157
 30
0.0
 10
801.8736205237479
 20
1982.547897837604
 30
0.0
 10
803.0939980185955
 20
1983.497122507394
 30
0.0
 10
804.9598964020656
 20
1984.889934450738
 30
0.0
 10
807.1167245212899
 20
1986.335112497121
 30
0.0
 10
808.7290057193738
 20
1987.250485089028
 30
0.0
 10
809.5816727242494
 20
1987.687953192112
 30
0.0
  0
SPLINE
  5
18B
330
87
100
AcDbEntity
  8
P-SANR-FIXT
100
AcDbSpline
210
0.0
220
0.0
230
1.0
 70
     8
 71
     3
 72
    14
 73
    10
 74
     0
 42
0.000000001
 43
0.0000000001
 40
0.0
 40
0.0
 40
0.0
 40
0.0
 40
0.4
 40
0.55
 40
0.625
 40
0.7
 40
0.775
 40
0.85
 40
0.958612911143467
 40
0.958612911143467
 40
0.958612911143467
 40
0.958612911143467
 10
809.5816727242494
 20
2015.853595699378
 30
0.0
 10
808.0519675681689
 20
2016.449389884455
 30
0.0
 10
806.2567317650664
 20
2017.374092994917
 30
0.0
 10
804.7651967924899
 20
2018.248208639914
 30
0.0
 10
804.1914035867881
 20
2018.600701727624
 30
0.0
 10
803.8248187462565
 20
2018.829278523862
 30
0.0
 10
803.5318144182507
 20
2019.01348301117
 30
0.0
 10
803.2956286643019
 20
2019.167779598306
 30
0.0
 10
803.2068591624261
 20
2019.226240831994
 30
0.0
 10
803.1822955855647
 20
2019.24133043105
 30
0.0
  0
LINE
  5
18C
330
87
100
AcDbEntity
  8
P-SANR-FIXT
100
AcDbLine
 10
840.1664074431584
 20
2016.325686331352
 30
0.0
 11
840.1664074431584
 21
2015.752894207434
 31
0.0
  0
LINE
  5
18D
330
87
100
AcDbEntity
  8
P-SANR-FIXT
100
AcDbLine
 10
840.1664074431584
 20
2000.57023411661
 30
0.0
 11
840.1664074431584
 21
1999.429765883246
 31
0.0
  0
LINE
  5
18E
330
87
100
AcDbEntity
  8
P-SANR-FIXT
100
AcDbLine
 10
840.1664074431582
 20
1984.24710579246
 30
0.0
 11
840.1664074431582
 21
1983.674313668593
 31
0.0
  0
LINE
  5
18F
330
87
100
AcDbEntity
  8
P-SANR-FIXT
100
AcDbLine
 10
835.3164074431585
 20
2019.249999999995
 30
0.0
 11
835.3164074431582
 21
1980.749999999995
 31
0.0
  0
SPLINE
  5
190
330
87
100
AcDbEntity
  8
P-SANR-FIXT
100
AcDbSpline
210
0.0
220
0.0
230
1.0
 70
     8
 71
     3
 72
    21
 73
    17
 74
     0
 42
0.000000001
 43
0.0000000001
 40
0.037037037037037
 40
0.037037037037037
 40
0.037037037037037
 40
0.037037037037037
 40
0.1111111111111111
 40
0.2222222222222222
 40
0.3333333333333333
 40
0.4444444444444445
 40
0.4791666666666666
 40
0.5138888888888889
 40
0.5486111111111111
 40
0.5833333333333333
 40
0.6527777777777777
 40
0.6875
 40
0.7222222222222223
 40
0.7916666666666668
 40
0.861111111111111
 40
1.0
 40
1.0
 40
1.0
 40
1.0
 10
828.1229035460835
 20
2019.224207342632
 30
0.0
 10
828.0698497522555
 20
2019.190055001772
 30
0.0
 10
827.8159874673022
 20
2019.021077314638
 30
0.0
 10
826.9015728940592
 20
2018.444869950022
 30
0.0
 10
825.3284309341834
 20
2017.519390409953
 30
0.0
 10
823.7645059599387
 20
2016.710398718117
 30
0.0
 10
822.5288111772959
 20
2016.164296835842
 30
0.0
 10
821.774757067051
 20
2015.85532373472
 30
0.0
 10
820.9886485678019
 20
2015.569232792
 30
0.0
 10
819.8963800967716
 20
2015.226985423807
 30
0.0
 10
818.7260378646984
 20
2014.931429416952
 30
0.0
 10
817.5355074723325
 20
2014.752220669469
 30
0.0
 10
816.2918706092311
 20
2014.634784429036
 30
0.0
 10
814.7510808918998
 20
2014.625416826629
 30
0.0
 10
812.2816019083307
 20
2014.952200147989
 30
0.0
 10
810.6226808022586
 20
2015.442667939649
 30
0.0
 10
809.5816727242494
 20
2015.853595699378
 30
0.0
  0
SPLINE
  5
191
330
87
100
AcDbEntity
  8
P-SANR-FIXT
100
AcDbSpline
210
0.0
220
0.0
230
1.0
 70
     8
 71
     3
 72
    31
 73
    27
 74
     0
 42
0.000000001
 43
0.0000000001
 40
0.0
 40
0.0
 40
0.0
 40
0.0
 40
0.0625
 40
0.125
 40
0.1875
 40
0.21875
 40
0.25
 40
0.28125
 40
0.3125
 40
0.34375
 40
0.359375
 40
0.375
 40
0.390625
 40
0.40625
 40
0.4375
 40
0.46875
 40
0.5
 40
0.53125
 40
0.5625
 40
0.625
 40
0.6875
 40
0.75
 40
0.78125
 40
0.8125
 40
0.875
 40
1.0
 40
1.0
 40
1.0
 40
1.0
 10
809.5816727242494
 20
1987.687953192112
 30
0.0
 10
810.1823065952196
 20
1988.010230317456
 30
0.0
 10
811.4169352556498
 20
1988.569251076115
 30
0.0
 10
813.3356531924766
 20
1989.104490712975
 30
0.0
 10
815.0735001182052
 20
1989.286363890458
 30
0.0
 10
816.4849730186874
 20
1989.260909361645
 30
0.0
 10
817.506068427197
 20
1989.158184576605
 30
0.0
 10
818.4974756418196
 20
1988.949371292662
 30
0.0
 10
819.4823422822688
 20
1988.643895648718
 30
0.0
 10
820.2794247340801
 20
1988.339746372048
 30
0.0
 10
820.898402538976
 20
1988.080007144219
 30
0.0
 10
821.3509983652
 20
1987.882820115459
 30
0.0
 10
821.7927029000733
 20
1987.678109106474
 30
0.0
 10
822.3703279983475
 20
1987.386817057867
 30
0.0
 10
823.0703186306506
 20
1986.999708326871
 30
0.0
 10
823.8771837021563
 20
1986.513788274714
 30
0.0
 10
824.6523888761974
 20
1986.027709047881
 30
0.0
 10
825.3980587610552
 20
1985.542273044634
 30
0.0
 10
826.3516843902438
 20
1984.886822657796
 30
0.0
 10
827.4526470954265
 20
1984.084333180605
 30
0.0
 10
828.6496596641233
 20
1983.18126826023
 30
0.0
 10
829.5107930913122
 20
1982.504225784788
 30
0.0
 10
830.1015901152878
 20
1982.026130262528
 30
0.0
 10
830.6427154344468
 20
1981.593381868263
 30
0.0
 10
831.3916777777595
 20
1980.982722536557
 30
0.0
 10
831.6480471490143
 20
1980.749999999995
 30
0.0
 10
831.6664074431582
 20
1980.749999999995
 30
0.0
  0
LINE
  5
192
330
87
100
AcDbEntity
  8
P-SANR-FIXT
100
AcDbLine
 10
838.3164074431583
 20
1984.999999999995
 30
0.0
 11
838.3164074431585
 21
2014.999999999995
 31
0.0
  0
LINE
  5
193
330
87
100
AcDbEntity
  8
P-SANR-FIXT
100
AcDbLine
 10
799.6664074431584
 20
1968.999999999995
 30
0.0
 11
831.6664074431582
 21
1968.999999999995
 31
0.0
  0
LINE
  5
194
330
87
100
AcDbEntity
  8
P-SANR-FIXT
100
AcDbLine
 10
830.6664074431582
 20
1967.999999999995
 30
0.0
 11
800.6664074431585
 21
1967.999999999995
 31
0.0
  0
ENDBLK
  5
196
330
87
100
AcDbEntity
  8
0
100
AcDbBlockEnd
  0
BLOCK
  5
27D
330
198
100
AcDbEntity
  8
0
100
AcDbBlockBegin
  2
Automatic flow rate regulator valve_Caleffi_121 DN15 - 1_2__-V1-Est - Idraulica
 70
     0
 10
0.0
 20
0.0
 30
0.0
  3
Automatic flow rate regulator valve_Caleffi_121 DN15 - 1_2__-V1-Est - Idraulica
  1

  0
LINE
  5
199
330
198
100
AcDbEntity
  8
P-SANR-FIXT
100
AcDbLine
 10
1080.264353943245
 20
1941.621336836058
 30
0.0
 11
1080.264353943245
 21
1939.98255884996
 31
0.0
  0
LINE
  5
19A
330
198
100
AcDbEntity
  8
P-SANR-FIXT
100
AcDbLine
 10
1113.964353942954
 20
1939.98255884996
 30
0.0
 11
1113.964353942954
 21
1941.622444857446
 31
0.0
  0
LINE
  5
19B
330
198
100
AcDbEntity
  8
P-SANR-FIXT
100
AcDbLine
 10
1078.2143539431
 20
1939.98255884996
 30
0.0
 11
1078.2143539431
 21
1897.982558849914
 31
0.0
  0
LINE
  5
19C
330
198
100
AcDbEntity
  8
P-SANR-FIXT
100
AcDbLine
 10
1116.014353943099
 20
1897.982558849914
 30
0.0
 11
1116.014353943099
 21
1907.973580645652
 31
0.0
  0
LINE
  5
19D
330
198
100
AcDbEntity
  8
P-SANR-FIXT
100
AcDbLine
 10
1116.014353943099
 20
1923.973580645652
 30
0.0
 11
1116.014353943099
 21
1939.98255884996
 31
0.0
  0
LINE
  5
19E
330
198
100
AcDbEntity
  8
P-SANR-FIXT
100
AcDbLine
 10
1116.014353943099
 20
1907.973580645652
 30
0.0
 11
1119.804412275708
 21
1907.973580645652
 31
0.0
  0
LINE
  5
19F
330
198
100
AcDbEntity
  8
P-SANR-FIXT
100
AcDbLine
 10
1119.804412275708
 20
1923.973580645652
 30
0.0
 11
1116.014353943099
 21
1923.973580645652
 31
0.0
  0
LINE
  5
1A0
330
198
100
AcDbEntity
  8
P-SANR-FIXT
100
AcDbLine
 10
1078.214353943099
 20
1939.982558849959
 30
0.0
 11
1095.113457801787
 21
1939.982558849959
 31
0.0
  0
LINE
  5
1A1
330
198
100
AcDbEntity
  8
P-SANR-FIXT
100
AcDbLine
 10
1099.115250084409
 20
1939.982558849959
 30
0.0
 11
1116.014353943098
 21
1939.982558849959
 31
0.0
  0
SPLINE
  5
1A2
330
198
100
AcDbEntity
  8
P-SANR-FIXT
100
AcDbSpline
210
0.0
220
0.0
230
1.0
 70
     8
 71
     3
 72
    10
 73
     6
 74
     0
 42
0.000000001
 43
0.0000000001
 40
0.0
 40
0.0
 40
0.0
 40
0.0
 40
0.5
 40
0.75
 40
1.0
 40
1.0
 40
1.0
 40
1.0
 10
1114.804412275706
 20
1920.415220411672
 30
0.0
 10
1115.082326070634
 20
1921.511249470451
 30
0.0
 10
1115.548588059897
 20
1922.835848124002
 30
0.0
 10
1115.943016368374
 20
1923.809090577306
 30
0.0
 10
1116.014353943098
 20
1923.969661559058
 30
0.0
 10
1116.014353943098
 20
1923.973580645652
 30
0.0
  0
SPLINE
  5
1A3
330
198
100
AcDbEntity
  8
P-SANR-FIXT
100
AcDbSpline
210
0.0
220
0.0
230
1.0
 70
     8
 71
     3
 72
    10
 73
     6
 74
     0
 42
0.000000001
 43
0.0000000001
 40
0.0
 40
0.0
 40
0.0
 40
0.0
 40
0.25
 40
0.5
 40
1.0
 40
1.0
 40
1.0
 40
1.0
 10
1116.014353943098
 20
1907.973580645652
 30
0.0
 10
1116.014353943098
 20
1907.977419468199
 30
0.0
 10
1115.943116071298
 20
1908.137869997331
 30
0.0
 10
1115.548660124911
 20
1909.111094095837
 30
0.0
 10
1115.082385301372
 20
1910.435719263649
 30
0.0
 10
1114.804412275706
 20
1911.531940879632
 30
0.0
  0
LINE
  5
1A4
330
198
100
AcDbEntity
  8
P-SANR-FIXT
100
AcDbLine
 10
1114.804412275706
 20
1911.531940879632
 30
0.0
 11
1114.804412275706
 21
1911.581457994233
 31
0.0
  0
LINE
  5
1A5
330
198
100
AcDbEntity
  8
P-SANR-FIXT
100
AcDbLine
 10
1078.214353943099
 20
1897.982558849913
 30
0.0
 11
1097.114353943098
 21
1897.982558849913
 31
0.0
  0
LINE
  5
1A6
330
198
100
AcDbEntity
  8
P-SANR-FIXT
100
AcDbLine
 10
1097.114353943098
 20
1897.982558849913
 30
0.0
 11
1116.014353943098
 21
1897.982558849913
 31
0.0
  0
LINE
  5
1A7
330
198
100
AcDbEntity
  8
P-SANR-FIXT
100
AcDbLine
 10
1114.804412275706
 20
1920.415220411672
 30
0.0
 11
1114.804412275706
 21
1911.531940879632
 31
0.0
  0
LINE
  5
1A8
330
198
100
AcDbEntity
  8
P-SANR-FIXT
100
AcDbLine
 10
1097.114353943098
 20
1885.982558849976
 30
0.0
 11
1090.670406905358
 21
1885.982558849976
 31
0.0
  0
LINE
  5
1A9
330
198
100
AcDbEntity
  8
P-SANR-FIXT
100
AcDbLine
 10
1090.352461755247
 20
1885.982558849976
 30
0.0
 11
1089.114353943098
 21
1885.982558849976
 31
0.0
  0
LINE
  5
1AA
330
198
100
AcDbEntity
  8
P-SANR-FIXT
100
AcDbLine
 10
1089.114353943098
 20
1885.982558849976
 30
0.0
 11
1087.869546252928
 21
1885.982558849976
 31
0.0
  0
LINE
  5
1AB
330
198
100
AcDbEntity
  8
P-SANR-FIXT
100
AcDbLine
 10
1087.653399569281
 20
1885.982558849976
 30
0.0
 11
1081.114353943098
 21
1885.982558849976
 31
0.0
  0
LINE
  5
1AC
330
198
100
AcDbEntity
  8
P-SANR-FIXT
100
AcDbLine
 10
1113.114353943099
 20
1885.982558849976
 30
0.0
 11
1106.575308316916
 21
1885.982558849976
 31
0.0
  0
LINE
  5
1AD
330
198
100
AcDbEntity
  8
P-SANR-FIXT
100
AcDbLine
 10
1106.359161632968
 20
1885.982558849976
 30
0.0
 11
1105.114353943098
 21
1885.982558849976
 31
0.0
  0
LINE
  5
1AE
330
198
100
AcDbEntity
  8
P-SANR-FIXT
100
AcDbLine
 10
1105.114353943098
 20
1885.982558849976
 30
0.0
 11
1103.876246130949
 21
1885.982558849976
 31
0.0
  0
LINE
  5
1AF
330
198
100
AcDbEntity
  8
P-SANR-FIXT
100
AcDbLine
 10
1103.558300980838
 20
1885.982558849976
 30
0.0
 11
1097.114353943098
 21
1885.982558849976
 31
0.0
  0
LINE
  5
1B0
330
198
100
AcDbEntity
  8
P-SANR-FIXT
100
AcDbLine
 10
1090.356814143504
 20
1885.982558849976
 30
0.0
 11
1087.866059360743
 21
1885.982558849976
 31
0.0
  0
LINE
  5
1B1
330
198
100
AcDbEntity
  8
P-SANR-FIXT
100
AcDbLine
 10
1087.866059360743
 20
1885.982558849976
 30
0.0
 11
1090.356814143504
 21
1885.982558849976
 31
0.0
  0
LINE
  5
1B2
330
198
100
AcDbEntity
  8
P-SANR-FIXT
100
AcDbLine
 10
1103.871893743009
 20
1885.982558849976
 30
0.0
 11
1106.36264852508
 21
1885.982558849976
 31
0.0
  0
LINE
  5
1B3
330
198
100
AcDbEntity
  8
P-SANR-FIXT
100
AcDbLine
 10
1106.36264852508
 20
1885.982558849976
 30
0.0
 11
1103.871893743009
 21
1885.982558849976
 31
0.0
  0
LINE
  5
1B4
330
198
100
AcDbEntity
  8
P-SANR-FIXT
100
AcDbLine
 10
1095.253368522008
 20
1897.982558849913
 30
0.0
 11
1095.253368522008
 21
1886.848584253761
 31
0.0
  0
LINE
  5
1B5
330
198
100
AcDbEntity
  8
P-SANR-FIXT
100
AcDbLine
 10
1095.253368522008
 20
1886.848584253761
 30
0.0
 11
1097.114353943098
 21
1886.848584253761
 31
0.0
  0
LINE
  5
1B6
330
198
100
AcDbEntity
  8
P-SANR-FIXT
100
AcDbLine
 10
1097.114353943098
 20
1886.848584253761
 30
0.0
 11
1098.975339364186
 21
1886.848584253761
 31
0.0
  0
LINE
  5
1B7
330
198
100
AcDbEntity
  8
P-SANR-FIXT
100
AcDbLine
 10
1098.975339364186
 20
1886.848584253761
 30
0.0
 11
1098.975339364186
 21
1897.982558849913
 31
0.0
  0
SPLINE
  5
1B8
330
198
100
AcDbEntity
  8
P-SANR-FIXT
100
AcDbSpline
210
0.0
220
0.0
230
1.0
 70
     8
 71
     3
 72
     9
 73
     5
 74
     0
 42
0.000000001
 43
0.0000000001
 40
0.0
 40
0.0
 40
0.0
 40
0.0
 40
0.5
 40
1.0
 40
1.0
 40
1.0
 40
1.0
 10
1098.975339364186
 20
1886.848584253761
 30
0.0
 10
1099.98441248481
 20
1886.566904448793
 30
0.0
 10
1102.016654701919
 20
1886.140887076527
 30
0.0
 10
1104.077088870751
 20
1885.989554179603
 30
0.0
 10
1105.114353943097
 20
1885.982558849976
 30
0.0
  0
SPLINE
  5
1B9
330
198
100
AcDbEntity
  8
P-SANR-FIXT
100
AcDbSpline
210
0.0
220
0.0
230
1.0
 70
     8
 71
     3
 72
     9
 73
     5
 74
     0
 42
0.000000001
 43
0.0000000001
 40
0.0
 40
0.0
 40
0.0
 40
0.0
 40
0.5
 40
1.0
 40
1.0
 40
1.0
 40
1.0
 10
1105.114353943097
 20
1885.982558849976
 30
0.0
 10
1106.151619015443
 20
1885.989554179603
 30
0.0
 10
1108.212053184274
 20
1886.140887076527
 30
0.0
 10
1110.244295401384
 20
1886.566904448793
 30
0.0
 10
1111.253368522008
 20
1886.848584253761
 30
0.0
  0
LINE
  5
1BA
330
198
100
AcDbEntity
  8
P-SANR-FIXT
100
AcDbLine
 10
1111.253368522008
 20
1886.848584253761
 30
0.0
 11
1111.253368522008
 21
1897.982558849913
 31
0.0
  0
LINE
  5
1BB
330
198
100
AcDbEntity
  8
P-SANR-FIXT
100
AcDbLine
 10
1111.253368522008
 20
1886.848584253761
 30
0.0
 11
1113.114353943096
 21
1886.848584253761
 31
0.0
  0
LINE
  5
1BC
330
198
100
AcDbEntity
  8
P-SANR-FIXT
100
AcDbLine
 10
1113.114353943096
 20
1886.848584253761
 30
0.0
 11
1113.114353943096
 21
1897.982558849913
 31
0.0
  0
SPLINE
  5
1BD
330
198
100
AcDbEntity
  8
P-SANR-FIXT
100
AcDbSpline
210
0.0
220
0.0
230
1.0
 70
    24
 71
     3
 72
     9
 73
     5
 74
     0
 42
0.000000001
 43
0.0000000001
 40
0.0
 40
0.0
 40
0.0
 40
0.0
 40
0.5
 40
1.0
 40
1.0
 40
1.0
 40
1.0
 10
1113.114353943096
 20
1886.848584253761
 30
0.0
 10
1113.114353943096
 20
1886.566904448793
 30
0.0
 10
1113.114353943096
 20
1886.140887076527
 30
0.0
 10
1113.114353943096
 20
1885.989554179603
 30
0.0
 10
1113.114353943096
 20
1885.982558849976
 30
0.0
  0
SPLINE
  5
1BE
330
198
100
AcDbEntity
  8
P-SANR-FIXT
100
AcDbSpline
210
0.0
220
0.0
230
1.0
 70
    24
 71
     3
 72
     8
 73
     4
 74
     0
 42
0.000000001
 43
0.0000000001
 40
0.0
 40
0.0
 40
0.0
 40
0.0
 40
0.1984472676052002
 40
0.1984472676052002
 40
0.1984472676052002
 40
0.1984472676052002
 10
1113.114353943096
 20
1885.982558849976
 30
0.0
 10
1113.114353943096
 20
1885.985335258077
 30
0.0
 10
1113.114353943096
 20
1885.998929102856
 30
0.0
 10
1113.114353943096
 20
1886.023340384314
 30
0.0
  0
SPLINE
  5
1BF
330
198
100
AcDbEntity
  8
P-SANR-FIXT
100
AcDbSpline
210
0.0
220
0.0
230
1.0
 70
    24
 71
     3
 72
     8
 73
     4
 74
     0
 42
0.000000001
 43
0.0000000001
 40
0.8015527323281414
 40
0.8015527323281414
 40
0.8015527323281414
 40
0.8015527323281414
 40
1.0
 40
1.0
 40
1.0
 40
1.0
 10
1081.114353943098
 20
1886.023340384339
 30
0.0
 10
1081.114353943098
 20
1885.998929102866
 30
0.0
 10
1081.114353943098
 20
1885.985335258078
 30
0.0
 10
1081.114353943098
 20
1885.982558849976
 30
0.0
  0
SPLINE
  5
1C0
330
198
100
AcDbEntity
  8
P-SANR-FIXT
100
AcDbSpline
210
0.0
220
0.0
230
1.0
 70
    24
 71
     3
 72
     9
 73
     5
 74
     0
 42
0.000000001
 43
0.0000000001
 40
0.0
 40
0.0
 40
0.0
 40
0.0
 40
0.5
 40
1.0
 40
1.0
 40
1.0
 40
1.0
 10
1081.114353943098
 20
1885.982558849976
 30
0.0
 10
1081.114353943098
 20
1885.989554179603
 30
0.0
 10
1081.114353943098
 20
1886.140887076528
 30
0.0
 10
1081.114353943098
 20
1886.566904448793
 30
0.0
 10
1081.114353943098
 20
1886.848584253761
 30
0.0
  0
LINE
  5
1C1
330
198
100
AcDbEntity
  8
P-SANR-FIXT
100
AcDbLine
 10
1081.114353943098
 20
1886.848584253761
 30
0.0
 11
1081.114353943098
 21
1897.982558849913
 31
0.0
  0
LINE
  5
1C2
330
198
100
AcDbEntity
  8
P-SANR-FIXT
100
AcDbLine
 10
1081.114353943098
 20
1886.848584253761
 30
0.0
 11
1082.975339364191
 21
1886.848584253761
 31
0.0
  0
LINE
  5
1C3
330
198
100
AcDbEntity
  8
P-SANR-FIXT
100
AcDbLine
 10
1082.975339364191
 20
1886.848584253761
 30
0.0
 11
1082.975339364191
 21
1897.982558849913
 31
0.0
  0
SPLINE
  5
1C4
330
198
100
AcDbEntity
  8
P-SANR-FIXT
100
AcDbSpline
210
0.0
220
0.0
230
1.0
 70
     8
 71
     3
 72
     9
 73
     5
 74
     0
 42
0.000000001
 43
0.0000000001
 40
0.0
 40
0.0
 40
0.0
 40
0.0
 40
0.5
 40
1.0
 40
1.0
 40
1.0
 40
1.0
 10
1082.975339364191
 20
1886.848584253761
 30
0.0
 10
1083.984412484814
 20
1886.566904448793
 30
0.0
 10
1086.016654701922
 20
1886.140887076527
 30
0.0
 10
1088.077088870753
 20
1885.989554179603
 30
0.0
 10
1089.114353943099
 20
1885.982558849976
 30
0.0
  0
SPLINE
  5
1C5
330
198
100
AcDbEntity
  8
P-SANR-FIXT
100
AcDbSpline
210
0.0
220
0.0
230
1.0
 70
     8
 71
     3
 72
     9
 73
     5
 74
     0
 42
0.000000001
 43
0.0000000001
 40
0.0
 40
0.0
 40
0.0
 40
0.0
 40
0.5
 40
1.0
 40
1.0
 40
1.0
 40
1.0
 10
1089.114353943099
 20
1885.982558849976
 30
0.0
 10
1090.151619015444
 20
1885.989554179603
 30
0.0
 10
1092.212053184275
 20
1886.140887076527
 30
0.0
 10
1094.244295401384
 20
1886.566904448793
 30
0.0
 10
1095.253368522008
 20
1886.848584253761
 30
0.0
  0
LINE
  5
1C6
330
198
100
AcDbEntity
  8
P-SANR-FIXT
100
AcDbLine
 10
1115.614353943041
 20
1943.279528329217
 30
0.0
 11
1115.614353943041
 21
1956.46956531174
 31
0.0
  0
LINE
  5
1C7
330
198
100
AcDbEntity
  8
P-SANR-FIXT
100
AcDbLine
 10
1078.614353943041
 20
1956.469565311676
 30
0.0
 11
1078.614353943041
 21
1943.27952832928
 31
0.0
  0
LINE
  5
1C8
330
198
100
AcDbEntity
  8
P-SANR-FIXT
100
AcDbLine
 10
1079.040967365072
 20
1957.448368384858
 30
0.0
 11
1078.614184417951
 21
1957.199916811163
 31
0.0
  0
LINE
  5
1C9
330
198
100
AcDbEntity
  8
P-SANR-FIXT
100
AcDbLine
 10
1115.614523468132
 20
1957.199916811231
 30
0.0
 11
1115.187740521128
 21
1957.448368384858
 31
0.0
  0
LINE
  5
1CA
330
198
100
AcDbEntity
  8
P-SANR-FIXT
100
AcDbLine
 10
1078.614184236942
 20
1942.552598100758
 30
0.0
 11
1080.32901416398
 21
1941.558986589558
 31
0.0
  0
LINE
  5
1CB
330
198
100
AcDbEntity
  8
P-SANR-FIXT
100
AcDbLine
 10
1113.89969372222
 20
1941.558986589558
 30
0.0
 11
1115.61452364914
 21
1942.552598100689
 31
0.0
  0
LINE
  5
1CC
330
198
100
AcDbEntity
  8
P-SANR-FIXT
100
AcDbLine
 10
1079.04096736507
 20
1957.448368384857
 30
0.0
 11
1097.114353943098
 21
1957.448368384857
 31
0.0
  0
LINE
  5
1CD
330
198
100
AcDbEntity
  8
P-SANR-FIXT
100
AcDbLine
 10
1097.114353943098
 20
1957.448368384857
 30
0.0
 11
1115.187740521126
 21
1957.448368384857
 31
0.0
  0
SPLINE
  5
1CE
330
198
100
AcDbEntity
  8
P-SANR-FIXT
100
AcDbSpline
210
0.0
220
0.0
230
1.0
 70
     8
 71
     3
 72
    10
 73
     6
 74
     0
 42
0.000000001
 43
0.0000000001
 40
0.0
 40
0.0
 40
0.0
 40
0.0
 40
0.4
 40
0.7
 40
1.0
 40
1.0
 40
1.0
 40
1.0
 10
1112.364353943039
 20
1943.279528329222
 30
0.0
 10
1113.14094158638
 20
1943.463176295178
 30
0.0
 10
1114.352591820115
 20
1943.661534592108
 30
0.0
 10
1115.404575205745
 20
1943.612606761176
 30
0.0
 10
1115.614353943039
 20
1943.417058297933
 30
0.0
 10
1115.614353943039
 20
1943.279528329216
 30
0.0
  0
SPLINE
  5
1CF
330
198
100
AcDbEntity
  8
P-SANR-FIXT
100
AcDbSpline
210
0.0
220
0.0
230
1.0
 70
     8
 71
     3
 72
    10
 73
     6
 74
     0
 42
0.000000001
 43
0.0000000001
 40
0.0
 40
0.0
 40
0.0
 40
0.0
 40
0.4
 40
0.7
 40
1.0
 40
1.0
 40
1.0
 40
1.0
 10
1115.614353943039
 20
1956.469565311739
 30
0.0
 10
1115.614353943039
 20
1956.285342189928
 30
0.0
 10
1115.28348297701
 20
1956.085876682424
 30
0.0
 10
1114.017097501479
 20
1956.134701047601
 30
0.0
 10
1112.946733356837
 20
1956.331190731263
 30
0.0
 10
1112.364353943039
 20
1956.469565311733
 30
0.0
  0
SPLINE
  5
1D0
330
198
100
AcDbEntity
  8
P-SANR-FIXT
100
AcDbSpline
210
0.0
220
0.0
230
1.0
 70
    24
 71
     3
 72
     8
 73
     4
 74
     0
 42
0.000000001
 43
0.0000000001
 40
0.0
 40
0.0
 40
0.0
 40
0.0
 40
0.5
 40
0.5
 40
0.5
 40
0.5
 10
1115.614353943039
 20
1943.279528329216
 30
0.0
 10
1115.61435394304
 20
1942.794874503389
 30
0.0
 10
1115.61435394304
 20
1942.552547590475
 30
0.0
 10
1115.61435394304
 20
1942.552547590475
 30
0.0
  0
SPLINE
  5
1D1
330
198
100
AcDbEntity
  8
P-SANR-FIXT
100
AcDbSpline
210
0.0
220
0.0
230
1.0
 70
    24
 71
     3
 72
     8
 73
     4
 74
     0
 42
0.000000001
 43
0.0000000001
 40
0.5
 40
0.5
 40
0.5
 40
0.5
 40
1.0
 40
1.0
 40
1.0
 40
1.0
 10
1115.61435394304
 20
1957.199967505039
 30
0.0
 10
1115.61435394304
 20
1957.199967505039
 30
0.0
 10
1115.61435394304
 20
1956.956500107272
 30
0.0
 10
1115.614353943039
 20
1956.469565311739
 30
0.0
  0
SPLINE
  5
1D2
330
198
100
AcDbEntity
  8
P-SANR-FIXT
100
AcDbSpline
210
0.0
220
0.0
230
1.0
 70
    24
 71
     3
 72
     9
 73
     5
 74
     0
 42
0.000000001
 43
0.0000000001
 40
0.4958322836190529
 40
0.4958322836190529
 40
0.4958322836190529
 40
0.4958322836190529
 40
0.5
 40
1.0
 40
1.0
 40
1.0
 40
1.0
 10
1078.61435394304
 20
1942.552598100757
 30
0.0
 10
1078.61435394304
 20
1942.55256442728
 30
0.0
 10
1078.61435394304
 20
1942.550527690852
 30
0.0
 10
1078.61435394304
 20
1942.794874503539
 30
0.0
 10
1078.61435394304
 20
1943.27952832928
 30
0.0
  0
SPLINE
  5
1D3
330
198
100
AcDbEntity
  8
P-SANR-FIXT
100
AcDbSpline
210
0.0
220
0.0
230
1.0
 70
    24
 71
     3
 72
     9
 73
     5
 74
     0
 42
0.000000001
 43
0.0000000001
 40
0.0
 40
0.0
 40
0.0
 40
0.0
 40
0.5
 40
0.5041654932261675
 40
0.5041654932261675
 40
0.5041654932261675
 40
0.5041654932261675
 10
1078.61435394304
 20
1956.469565311675
 30
0.0
 10
1078.61435394304
 20
1956.956500107206
 30
0.0
 10
1078.61435394304
 20
1957.201995828563
 30
0.0
 10
1078.61435394304
 20
1957.199950607034
 30
0.0
 10
1078.61435394304
 20
1957.199916811162
 30
0.0
  0
SPLINE
  5
1D4
330
198
100
AcDbEntity
  8
P-SANR-FIXT
100
AcDbSpline
210
0.0
220
0.0
230
1.0
 70
     8
 71
     3
 72
    10
 73
     6
 74
     0
 42
0.000000001
 43
0.0000000001
 40
0.0
 40
0.0
 40
0.0
 40
0.0
 40
0.4
 40
0.7
 40
1.0
 40
1.0
 40
1.0
 40
1.0
 10
1078.61435394304
 20
1943.27952832928
 30
0.0
 10
1078.61435394304
 20
1943.463176295236
 30
0.0
 10
1078.945879177975
 20
1943.661534592166
 30
0.0
 10
1080.212950877411
 20
1943.612606761235
 30
0.0
 10
1081.283116012553
 20
1943.417058297991
 30
0.0
 10
1081.86435394304
 20
1943.279528329274
 30
0.0
  0
SPLINE
  5
1D5
330
198
100
AcDbEntity
  8
P-SANR-FIXT
100
AcDbSpline
210
0.0
220
0.0
230
1.0
 70
     8
 71
     3
 72
    10
 73
     6
 74
     0
 42
0.000000001
 43
0.0000000001
 40
0.0
 40
0.0
 40
0.0
 40
0.0
 40
0.4
 40
0.7
 40
1.0
 40
1.0
 40
1.0
 40
1.0
 10
1081.86435394304
 20
1956.469565311681
 30
0.0
 10
1081.089453285572
 20
1956.28534218987
 30
0.0
 10
1079.87702762186
 20
1956.085876682365
 30
0.0
 10
1078.824813839172
 20
1956.134701047542
 30
0.0
 10
1078.61435394304
 20
1956.331190731204
 30
0.0
 10
1078.61435394304
 20
1956.469565311675
 30
0.0
  0
SPLINE
  5
1D6
330
198
100
AcDbEntity
  8
P-SANR-FIXT
100
AcDbSpline
210
0.0
220
0.0
230
1.0
 70
     8
 71
     3
 72
     9
 73
     5
 74
     0
 42
0.000000001
 43
0.0000000001
 40
0.0
 40
0.0
 40
0.0
 40
0.0
 40
0.5
 40
1.0
 40
1.0
 40
1.0
 40
1.0
 10
1081.86435394304
 20
1943.279528329274
 30
0.0
 10
1083.896258588335
 20
1942.794874503445
 30
0.0
 10
1087.928163233631
 20
1942.310220677613
 30
0.0
 10
1091.896258588335
 20
1942.794874503432
 30
0.0
 10
1093.86435394304
 20
1943.279528329254
 30
0.0
  0
SPLINE
  5
1D7
330
198
100
AcDbEntity
  8
P-SANR-FIXT
100
AcDbSpline
210
0.0
220
0.0
230
1.0
 70
     8
 71
     3
 72
     9
 73
     5
 74
     0
 42
0.000000001
 43
0.0000000001
 40
0.0
 40
0.0
 40
0.0
 40
0.0
 40
0.5
 40
1.0
 40
1.0
 40
1.0
 40
1.0
 10
1093.86435394304
 20
1956.469565311701
 30
0.0
 10
1091.896241567207
 20
1956.956500107229
 30
0.0
 10
1087.928129191374
 20
1957.443434902753
 30
0.0
 10
1083.896241567207
 20
1956.956500107216
 30
0.0
 10
1081.86435394304
 20
1956.469565311681
 30
0.0
  0
SPLINE
  5
1D8
330
198
100
AcDbEntity
  8
P-SANR-FIXT
100
AcDbSpline
210
0.0
220
0.0
230
1.0
 70
     8
 71
     3
 72
     9
 73
     5
 74
     0
 42
0.000000001
 43
0.0000000001
 40
0.0
 40
0.0
 40
0.0
 40
0.0
 40
0.5
 40
1.0
 40
1.0
 40
1.0
 40
1.0
 10
1093.86435394304
 20
1943.279528329254
 30
0.0
 10
1094.350026325707
 20
1943.394720028138
 30
0.0
 10
1095.400082128211
 20
1943.568014330139
 30
0.0
 10
1096.540696091024
 20
1943.627130440606
 30
0.0
 10
1097.114353943098
 20
1943.628143947955
 30
0.0
  0
SPLINE
  5
1D9
330
198
100
AcDbEntity
  8
P-SANR-FIXT
100
AcDbSpline
210
0.0
220
0.0
230
1.0
 70
     8
 71
     3
 72
     9
 73
     5
 74
     0
 42
0.000000001
 43
0.0000000001
 40
0.0
 40
0.0
 40
0.0
 40
0.0
 40
0.5
 40
1.0
 40
1.0
 40
1.0
 40
1.0
 10
1097.114353943098
 20
1943.628143947955
 30
0.0
 10
1097.688011795152
 20
1943.6271304406
 30
0.0
 10
1098.828625757923
 20
1943.568014330125
 30
0.0
 10
1099.878681560388
 20
1943.394720028125
 30
0.0
 10
1100.36435394304
 20
1943.279528329242
 30
0.0
  0
SPLINE
  5
1DA
330
198
100
AcDbEntity
  8
P-SANR-FIXT
100
AcDbSpline
210
0.0
220
0.0
230
1.0
 70
     8
 71
     3
 72
     9
 73
     5
 74
     0
 42
0.000000001
 43
0.0000000001
 40
0.0
 40
0.0
 40
0.0
 40
0.0
 40
0.5
 40
1.0
 40
1.0
 40
1.0
 40
1.0
 10
1100.36435394304
 20
1956.469565311713
 30
0.0
 10
1099.878729012728
 20
1956.353837177602
 30
0.0
 10
1098.828733350222
 20
1956.179732990984
 30
0.0
 10
1097.688066588394
 20
1956.120332967573
 30
0.0
 10
1097.114353943098
 20
1956.119308996668
 30
0.0
  0
SPLINE
  5
1DB
330
198
100
AcDbEntity
  8
P-SANR-FIXT
100
AcDbSpline
210
0.0
220
0.0
230
1.0
 70
     8
 71
     3
 72
     9
 73
     5
 74
     0
 42
0.000000001
 43
0.0000000001
 40
0.0
 40
0.0
 40
0.0
 40
0.0
 40
0.5
 40
1.0
 40
1.0
 40
1.0
 40
1.0
 10
1097.114353943098
 20
1956.119308996668
 30
0.0
 10
1096.540641297782
 20
1956.120332967566
 30
0.0
 10
1095.399974535912
 20
1956.17973299097
 30
0.0
 10
1094.349978873367
 20
1956.353837177589
 30
0.0
 10
1093.86435394304
 20
1956.469565311701
 30
0.0
  0
SPLINE
  5
1DC
330
198
100
AcDbEntity
  8
P-SANR-FIXT
100
AcDbSpline
210
0.0
220
0.0
230
1.0
 70
     8
 71
     3
 72
     9
 73
     5
 74
     0
 42
0.000000001
 43
0.0000000001
 40
0.0
 40
0.0
 40
0.0
 40
0.0
 40
0.5
 40
1.0
 40
1.0
 40
1.0
 40
1.0
 10
1112.364353943039
 20
1956.469565311733
 30
0.0
 10
1110.332466318872
 20
1956.956500107262
 30
0.0
 10
1106.300578694704
 20
1957.443434902788
 30
0.0
 10
1102.332466318872
 20
1956.956500107249
 30
0.0
 10
1100.36435394304
 20
1956.469565311713
 30
0.0
  0
SPLINE
  5
1DD
330
198
100
AcDbEntity
  8
P-SANR-FIXT
100
AcDbSpline
210
0.0
220
0.0
230
1.0
 70
     8
 71
     3
 72
     9
 73
     5
 74
     0
 42
0.000000001
 43
0.0000000001
 40
0.0
 40
0.0
 40
0.0
 40
0.0
 40
0.5
 40
1.0
 40
1.0
 40
1.0
 40
1.0
 10
1100.36435394304
 20
1943.279528329242
 30
0.0
 10
1102.332449297743
 20
1942.794874503412
 30
0.0
 10
1106.300544652448
 20
1942.310220677579
 30
0.0
 10
1110.332449297743
 20
1942.794874503398
 30
0.0
 10
1112.364353943039
 20
1943.279528329222
 30
0.0
  0
ARC
  5
1DE
330
198
100
AcDbEntity
  8
P-SANR-FIXT
100
AcDbCircle
 10
1097.114353943098
 20
1999.982558850011
 30
0.0
 40
11.95000000003051
100
AcDbArc
 50
90.0
 51
269.9999999999997
  0
ARC
  5
1DF
330
198
100
AcDbEntity
  8
P-SANR-FIXT
100
AcDbCircle
 10
1097.114353943098
 20
1999.982558850011
 30
0.0
 40
11.95000000003051
100
AcDbArc
 50
269.9999999999997
 51
89.99999999999891
  0
ARC
  5
1E0
330
198
100
AcDbEntity
  8
P-SANR-FIXT
100
AcDbCircle
 10
1097.114353943098
 20
1999.982558850011
 30
0.0
 40
13.25000000003047
100
AcDbArc
 50
90.0
 51
269.9999999999997
  0
ARC
  5
1E1
330
198
100
AcDbEntity
  8
P-SANR-FIXT
100
AcDbCircle
 10
1097.114353943098
 20
1999.982558850011
 30
0.0
 40
13.25000000003047
100
AcDbArc
 50
269.9999999999997
 51
89.99999999999902
  0
ARC
  5
1E2
330
198
100
AcDbEntity
  8
P-SANR-FIXT
100
AcDbCircle
 10
1097.114353943098
 20
1999.982558850011
 30
0.0
 40
19.24999999999976
100
AcDbArc
 50
104.195137486721
 51
135.9156798474396
  0
ARC
  5
1E3
330
198
100
AcDbEntity
  8
P-SANR-FIXT
100
AcDbCircle
 10
1097.114353943098
 20
1999.982558850011
 30
0.0
 40
19.2499999999998
100
AcDbArc
 50
164.0918618520887
 51
195.9081381479149
  0
ARC
  5
1E4
330
198
100
AcDbEntity
  8
P-SANR-FIXT
100
AcDbCircle
 10
1097.114353943098
 20
1999.982558850011
 30
0.0
 40
19.24999999999977
100
AcDbArc
 50
224.0843201525626
 51
255.8048625132766
  0
ARC
  5
1E5
330
198
100
AcDbEntity
  8
P-SANR-FIXT
100
AcDbCircle
 10
1097.114353943098
 20
1999.982558850011
 30
0.0
 40
19.24999999999978
100
AcDbArc
 50
284.1951374860888
 51
315.9156798480062
  0
ARC
  5
1E6
330
198
100
AcDbEntity
  8
P-SANR-FIXT
100
AcDbCircle
 10
1097.114353943098
 20
1999.982558850011
 30
0.0
 40
19.24999999999973
100
AcDbArc
 50
344.0918618506507
 51
15.9081381493468
  0
ARC
  5
1E7
330
198
100
AcDbEntity
  8
P-SANR-FIXT
100
AcDbCircle
 10
1097.114353943098
 20
1999.982558850011
 30
0.0
 40
19.24999999999994
100
AcDbArc
 50
44.08432015199277
 51
75.80486251391298
  0
ARC
  5
1E8
330
198
100
AcDbEntity
  8
P-SANR-FIXT
100
AcDbCircle
 10
1097.114353943098
 20
1999.98255885001
 30
0.0
 40
16.16580753732671
100
AcDbArc
 50
90.0000000000004
 51
269.9999999999993
  0
ARC
  5
1E9
330
198
100
AcDbEntity
  8
P-SANR-FIXT
100
AcDbCircle
 10
1097.114353943098
 20
1999.98255885001
 30
0.0
 40
16.1658075373266
100
AcDbArc
 50
269.9999999999997
 51
90.0
  0
ARC
  5
1EA
330
198
100
AcDbEntity
  8
P-SANR-FIXT
100
AcDbCircle
 10
1097.114353943098
 20
1999.98255885001
 30
0.0
 40
18.50000000000338
100
AcDbArc
 50
239.8242057332853
 51
240.0000000000007
  0
ARC
  5
1EB
330
198
100
AcDbEntity
  8
P-SANR-FIXT
100
AcDbCircle
 10
1097.114353943098
 20
1999.98255885001
 30
0.0
 40
18.50000000000307
100
AcDbArc
 50
179.8286370950923
 51
180.0000000000011
  0
ARC
  5
1EC
330
198
100
AcDbEntity
  8
P-SANR-FIXT
100
AcDbCircle
 10
1097.114353943098
 20
1999.98255885001
 30
0.0
 40
18.50000000000313
100
AcDbArc
 50
119.8328505415379
 51
120.0000000000016
  0
ARC
  5
1ED
330
198
100
AcDbEntity
  8
P-SANR-FIXT
100
AcDbCircle
 10
1097.114353943098
 20
1999.98255885001
 30
0.0
 40
18.50000000000279
100
AcDbArc
 50
59.82420573371575
 51
60.00000000000006
  0
ARC
  5
1EE
330
198
100
AcDbEntity
  8
P-SANR-FIXT
100
AcDbCircle
 10
1097.114353943098
 20
1999.98255885001
 30
0.0
 40
18.50000000000295
100
AcDbArc
 50
359.8286370950923
 51
0.0
  0
ARC
  5
1EF
330
198
100
AcDbEntity
  8
P-SANR-FIXT
100
AcDbCircle
 10
1097.114353943098
 20
1999.98255885001
 30
0.0
 40
18.5000000000031
100
AcDbArc
 50
299.832850541126
 51
299.9999999999998
  0
SPLINE
  5
1F0
330
198
100
AcDbEntity
  8
P-SANR-FIXT
100
AcDbSpline
210
0.0
220
0.0
230
1.0
 70
     8
 71
     3
 72
    10
 73
     6
 74
     0
 42
0.000000001
 43
0.0000000001
 40
0.0
 40
0.0
 40
0.0
 40
0.0
 40
0.4
 40
0.7
 40
1.0
 40
1.0
 40
1.0
 40
1.0
 10
1112.36435394304
 20
2012.539927204885
 30
0.0
 10
1113.139337850356
 20
2012.092490037378
 30
0.0
 10
1114.351716221008
 20
2011.010400534395
 30
0.0
 10
1115.403848867804
 20
2008.940798978045
 30
0.0
 10
1115.61435394304
 20
2007.583306707684
 30
0.0
 10
1115.61435394304
 20
2006.910762080286
 30
0.0
  0
SPLINE
  5
1F1
330
198
100
AcDbEntity
  8
P-SANR-FIXT
100
AcDbSpline
210
0.0
220
0.0
230
1.0
 70
    24
 71
     3
 72
     9
 73
     5
 74
     0
 42
0.000000001
 43
0.0000000001
 40
0.0
 40
0.0
 40
0.0
 40
0.0
 40
0.5
 40
1.0
 40
1.0
 40
1.0
 40
1.0
 10
1115.61435394304
 20
2006.910762080286
 30
0.0
 10
1115.61435394304
 20
2004.564520692428
 30
0.0
 10
1115.61435394304
 20
1999.908878227811
 30
0.0
 10
1115.61435394304
 20
1995.326916385394
 30
0.0
 10
1115.61435394304
 20
1993.054355619735
 30
0.0
  0
SPLINE
  5
1F2
330
198
100
AcDbEntity
  8
P-SANR-FIXT
100
AcDbSpline
210
0.0
220
0.0
230
1.0
 70
     8
 71
     3
 72
    10
 73
     6
 74
     0
 42
0.000000001
 43
0.0000000001
 40
0.0
 40
0.0
 40
0.0
 40
0.0
 40
0.4
 40
0.7
 40
1.0
 40
1.0
 40
1.0
 40
1.0
 10
1115.61435394304
 20
1993.054355619735
 30
0.0
 10
1115.61435394304
 20
1992.157629449871
 30
0.0
 10
1115.282828708105
 20
1990.567130089018
 30
0.0
 10
1114.015757008669
 20
1988.620860120513
 30
0.0
 10
1112.945591873527
 20
1987.760768370766
 30
0.0
 10
1112.36435394304
 20
1987.425190495136
 30
0.0
  0
SPLINE
  5
1F3
330
198
100
AcDbEntity
  8
P-SANR-FIXT
100
AcDbSpline
210
0.0
220
0.0
230
1.0
 70
    24
 71
     3
 72
     9
 73
     5
 74
     0
 42
0.000000001
 43
0.0000000001
 40
0.0
 40
0.0
 40
0.0
 40
0.0
 40
0.5
 40
1.0
 40
1.0
 40
1.0
 40
1.0
 10
1112.36435394304
 20
1987.425190495136
 30
0.0
 10
1110.332449297743
 20
1986.252069801207
 30
0.0
 10
1106.300544652448
 20
1983.924248568898
 30
0.0
 10
1102.332449297744
 20
1981.63326764769
 30
0.0
 10
1100.36435394304
 20
1980.496987264861
 30
0.0
  0
SPLINE
  5
1F4
330
198
100
AcDbEntity
  8
P-SANR-FIXT
100
AcDbSpline
210
0.0
220
0.0
230
1.0
 70
     8
 71
     3
 72
     9
 73
     5
 74
     0
 42
0.000000001
 43
0.0000000001
 40
0.0
 40
0.0
 40
0.0
 40
0.0
 40
0.5
 40
1.0
 40
1.0
 40
1.0
 40
1.0
 10
1100.36435394304
 20
1980.496987264861
 30
0.0
 10
1099.878681560389
 20
1980.216584184
 30
0.0
 10
1098.828625757923
 20
1979.77890394812
 30
0.0
 10
1097.688011795152
 20
1979.626152389465
 30
0.0
 10
1097.114353943098
 20
1979.62615238946
 30
0.0
  0
SPLINE
  5
1F5
330
198
100
AcDbEntity
  8
P-SANR-FIXT
100
AcDbSpline
210
0.0
220
0.0
230
1.0
 70
     8
 71
     3
 72
     9
 73
     5
 74
     0
 42
0.000000001
 43
0.0000000001
 40
0.0
 40
0.0
 40
0.0
 40
0.0
 40
0.5
 40
1.0
 40
1.0
 40
1.0
 40
1.0
 10
1097.114353943098
 20
1979.62615238946
 30
0.0
 10
1096.540696091024
 20
1979.626152389455
 30
0.0
 10
1095.400082128211
 20
1979.7789039481
 30
0.0
 10
1094.350026325708
 20
1980.21658418399
 30
0.0
 10
1093.86435394304
 20
1980.496987264861
 30
0.0
  0
SPLINE
  5
1F6
330
198
100
AcDbEntity
  8
P-SANR-FIXT
100
AcDbSpline
210
0.0
220
0.0
230
1.0
 70
    24
 71
     3
 72
     9
 73
     5
 74
     0
 42
0.000000001
 43
0.0000000001
 40
0.0
 40
0.0
 40
0.0
 40
0.0
 40
0.5
 40
1.0
 40
1.0
 40
1.0
 40
1.0
 10
1093.86435394304
 20
1980.496987264861
 30
0.0
 10
1091.832449297744
 20
1981.67010795879
 30
0.0
 10
1087.800544652448
 20
1983.997929191098
 30
0.0
 10
1083.832449297744
 20
1986.288910112307
 30
0.0
 10
1081.86435394304
 20
1987.425190495136
 30
0.0
  0
SPLINE
  5
1F7
330
198
100
AcDbEntity
  8
P-SANR-FIXT
100
AcDbSpline
210
0.0
220
0.0
230
1.0
 70
     8
 71
     3
 72
    10
 73
     6
 74
     0
 42
0.000000001
 43
0.0000000001
 40
0.0
 40
0.0
 40
0.0
 40
0.0
 40
0.4
 40
0.7
 40
1.0
 40
1.0
 40
1.0
 40
1.0
 10
1081.86435394304
 20
1987.425190495136
 30
0.0
 10
1081.0877662997
 20
1987.873553580068
 30
0.0
 10
1079.876116065965
 20
1988.955912535944
 30
0.0
 10
1078.824132680335
 20
1991.026363800324
 30
0.0
 10
1078.61435394304
 20
1992.383199868475
 30
0.0
 10
1078.61435394304
 20
1993.054355619735
 30
0.0
  0
SPLINE
  5
1F8
330
198
100
AcDbEntity
  8
P-SANR-FIXT
100
AcDbSpline
210
0.0
220
0.0
230
1.0
 70
    24
 71
     3
 72
     9
 73
     5
 74
     0
 42
0.000000001
 43
0.0000000001
 40
0.0
 40
0.0
 40
0.0
 40
0.0
 40
0.5
 40
1.0
 40
1.0
 40
1.0
 40
1.0
 10
1078.61435394304
 20
1993.054355619735
 30
0.0
 10
1078.61435394304
 20
1995.400597007593
 30
0.0
 10
1078.61435394304
 20
2000.05623947221
 30
0.0
 10
1078.61435394304
 20
2004.638201314627
 30
0.0
 10
1078.61435394304
 20
2006.910762080286
 30
0.0
  0
SPLINE
  5
1F9
330
198
100
AcDbEntity
  8
P-SANR-FIXT
100
AcDbSpline
210
0.0
220
0.0
230
1.0
 70
     8
 71
     3
 72
    10
 73
     6
 74
     0
 42
0.000000001
 43
0.0000000001
 40
0.0
 40
0.0
 40
0.0
 40
0.0
 40
0.4
 40
0.7
 40
1.0
 40
1.0
 40
1.0
 40
1.0
 10
1078.61435394304
 20
2006.910762080286
 30
0.0
 10
1078.61435394304
 20
2007.807488250151
 30
0.0
 10
1078.945879177975
 20
2009.397987611004
 30
0.0
 10
1080.212950877411
 20
2011.344257579509
 30
0.0
 10
1081.283116012553
 20
2012.204349329255
 30
0.0
 10
1081.86435394304
 20
2012.539927204885
 30
0.0
  0
SPLINE
  5
1FA
330
198
100
AcDbEntity
  8
P-SANR-FIXT
100
AcDbSpline
210
0.0
220
0.0
230
1.0
 70
    24
 71
     3
 72
     9
 73
     5
 74
     0
 42
0.000000001
 43
0.0000000001
 40
0.0
 40
0.0
 40
0.0
 40
0.0
 40
0.5
 40
1.0
 40
1.0
 40
1.0
 40
1.0
 10
1081.86435394304
 20
2012.539927204885
 30
0.0
 10
1083.896258588336
 20
2013.713047898814
 30
0.0
 10
1087.928163233631
 20
2016.040869131122
 30
0.0
 10
1091.896258588335
 20
2018.331850052331
 30
0.0
 10
1093.86435394304
 20
2019.46813043516
 30
0.0
  0
SPLINE
  5
1FB
330
198
100
AcDbEntity
  8
P-SANR-FIXT
100
AcDbSpline
210
0.0
220
0.0
230
1.0
 70
     8
 71
     3
 72
     9
 73
     5
 74
     0
 42
0.000000001
 43
0.0000000001
 40
0.0
 40
0.0
 40
0.0
 40
0.0
 40
0.5
 40
1.0
 40
1.0
 40
1.0
 40
1.0
 10
1093.86435394304
 20
2019.46813043516
 30
0.0
 10
1094.350026325707
 20
2019.748533516031
 30
0.0
 10
1095.400082128211
 20
2020.186213751921
 30
0.0
 10
1096.540696091024
 20
2020.338965310566
 30
0.0
 10
1097.114353943098
 20
2020.338965310561
 30
0.0
  0
SPLINE
  5
1FC
330
198
100
AcDbEntity
  8
P-SANR-FIXT
100
AcDbSpline
210
0.0
220
0.0
230
1.0
 70
     8
 71
     3
 72
     9
 73
     5
 74
     0
 42
0.000000001
 43
0.0000000001
 40
0.0
 40
0.0
 40
0.0
 40
0.0
 40
0.5
 40
1.0
 40
1.0
 40
1.0
 40
1.0
 10
1097.114353943098
 20
2020.338965310561
 30
0.0
 10
1097.688011795152
 20
2020.338965310557
 30
0.0
 10
1098.828625757923
 20
2020.186213751901
 30
0.0
 10
1099.878681560389
 20
2019.748533516022
 30
0.0
 10
1100.36435394304
 20
2019.46813043516
 30
0.0
  0
SPLINE
  5
1FD
330
198
100
AcDbEntity
  8
P-SANR-FIXT
100
AcDbSpline
210
0.0
220
0.0
230
1.0
 70
    24
 71
     3
 72
     9
 73
     5
 74
     0
 42
0.000000001
 43
0.0000000001
 40
0.0
 40
0.0
 40
0.0
 40
0.0
 40
0.5
 40
1.0
 40
1.0
 40
1.0
 40
1.0
 10
1100.36435394304
 20
2019.46813043516
 30
0.0
 10
1102.396258588335
 20
2018.295009741231
 30
0.0
 10
1106.428163233631
 20
2015.967188508923
 30
0.0
 10
1110.396258588335
 20
2013.676207587714
 30
0.0
 10
1112.36435394304
 20
2012.539927204885
 30
0.0
  0
LINE
  5
1FE
330
198
100
AcDbEntity
  8
P-SANR-FIXT
100
AcDbLine
 10
1083.664353943099
 20
1967.982558850011
 30
0.0
 11
1083.664353943099
 21
1957.448368384858
 31
0.0
  0
LINE
  5
1FF
330
198
100
AcDbEntity
  8
P-SANR-FIXT
100
AcDbLine
 10
1110.5643539431
 20
1957.448368384858
 30
0.0
 11
1110.5643539431
 21
1967.982558850011
 31
0.0
  0
LWPOLYLINE
  5
200
330
198
100
AcDbEntity
  8
P-SANR-FIXT
100
AcDbPolyline
 90
       14
 70
   128
 43
0.0
 10
1091.114376257427
 20
2081.628702761771
 10
1091.316169033759
 20
2080.120776442425
 10
1091.912293116178
 20
2078.665025253476
 10
1092.863418642466
 20
2077.41066391325
 10
1094.066278982703
 20
2076.483429969043
 10
1095.51547978569
 20
2075.86809957779
 10
1097.076255537368
 20
2075.645270835646
 10
1098.582880329511
 20
2075.833077847634
 10
1100.043812688381
 20
2076.415754746177
 10
1101.310607694584
 20
2077.35654098763
 10
1102.090359843626
 20
2078.298303285252
 10
1102.5385938699
 20
2079.094389005948
 10
1102.979395343079
 20
2080.397654179608
 10
1103.114331628773
 20
2081.628702761771
  0
LWPOLYLINE
  5
201
330
198
100
AcDbEntity
  8
P-SANR-FIXT
100
AcDbPolyline
 90
        4
 70
   128
 43
0.0
 10
1091.1143539431
 20
2081.890758282053
 10
1091.1143539431
 20
2082.356453478321
 10
1091.1143539431
 20
2084.79649086451
 10
1091.1143539431
 20
2085.565749320659
  0
LWPOLYLINE
  5
202
330
198
100
AcDbEntity
  8
P-SANR-FIXT
100
AcDbPolyline
 90
        4
 70
   128
 43
0.0
 10
1103.1143539431
 20
2085.446783118466
 10
1103.1143539431
 20
2084.79649086451
 10
1103.1143539431
 20
2082.356453478321
 10
1103.1143539431
 20
2081.890758282053
  0
LWPOLYLINE
  5
203
330
198
100
AcDbEntity
  8
P-SANR-FIXT
100
AcDbPolyline
 90
        4
 70
   128
 43
0.0
 10
1103.1143539431
 20
2081.890758282053
 10
1103.1143539431
 20
2082.356453478321
 10
1103.1143539431
 20
2084.79649086451
 10
1103.1143539431
 20
2086.264570074581
  0
LWPOLYLINE
  5
204
330
198
100
AcDbEntity
  8
P-SANR-FIXT
100
AcDbPolyline
 90
        4
 70
   128
 43
0.0
 10
1091.1143539431
 20
2086.264570074581
 10
1091.1143539431
 20
2084.79649086451
 10
1091.1143539431
 20
2082.356453478321
 10
1091.1143539431
 20
2081.890758282053
  0
ARC
  5
205
330
198
100
AcDbEntity
  8
P-SANR-FIXT
100
AcDbCircle
 10
1097.114353943098
 20
2086.264570074579
 30
0.0
 40
6.000000000000111
100
AcDbArc
 50
127.5000000000017
 51
142.4999999999995
  0
ARC
  5
206
330
198
100
AcDbEntity
  8
P-SANR-FIXT
100
AcDbCircle
 10
1097.114353943098
 20
2086.264570074579
 30
0.0
 40
5.999999999999901
100
AcDbArc
 50
97.5000000000014
 51
120.0000000000002
  0
ARC
  5
207
330
198
100
AcDbEntity
  8
P-SANR-FIXT
100
AcDbCircle
 10
1097.114353943098
 20
2086.264570074579
 30
0.0
 40
5.999999999999772
100
AcDbArc
 50
75.00000000000082
 51
90.0
  0
ARC
  5
208
330
198
100
AcDbEntity
  8
P-SANR-FIXT
100
AcDbCircle
 10
1097.114353943098
 20
2086.264570074579
 30
0.0
 40
5.999999999999798
100
AcDbArc
 50
52.49999999999968
 51
67.53859048222389
  0
ARC
  5
209
330
198
100
AcDbEntity
  8
P-SANR-FIXT
100
AcDbCircle
 10
1097.114353943098
 20
2086.264570074579
 30
0.0
 40
5.999999999999727
100
AcDbArc
 50
37.50000000000092
 51
45.00000000000154
  0
ELLIPSE
  5
20A
330
198
100
AcDbEntity
  8
P-SANR-FIXT
100
AcDbEllipse
 10
1097.114353943098
 20
2081.890758282051
 30
0.0
 11
6.0
 21
0.0
 31
0.0
210
0.0
220
0.0
230
1.0
 40
0.9975640502598253
 41
0.0
 42
3.141592653589793
  0
ELLIPSE
  5
20B
330
198
100
AcDbEntity
  8
P-SANR-FIXT
100
AcDbEllipse
 10
1097.114353943098
 20
2081.890758282051
 30
0.0
 11
6.0
 21
0.0
 31
0.0
210
0.0
220
0.0
230
1.0
 40
0.9975640502598253
 41
3.141592653589793
 42
6.283185307179586
  0
LINE
  5
20C
330
198
100
AcDbEntity
  8
P-SANR-FIXT
100
AcDbLine
 10
1131.1143539431
 20
2100.482558850012
 30
0.0
 11
1063.1143539431
 21
2100.482558850012
 31
0.0
  0
LWPOLYLINE
  5
20D
330
198
100
AcDbEntity
  8
P-SANR-FIXT
100
AcDbPolyline
 90
       77
 70
   128
 43
0.0
 10
1097.1143539431
 20
2096.83602754214
 10
1096.69160839759
 20
2096.827571503728
 10
1096.269539154772
 20
2096.80221691635
 10
1095.848821435397
 20
2096.760004341935
 10
1095.430128298069
 20
2096.7010013116
 10
1095.014129562491
 20
2096.625302217606
 10
1094.601490737898
 20
2096.533028162354
 10
1094.192871958384
 20
2096.42432676465
 10
1093.78892692683
 20
2096.29937192354
 10
1093.390301869115
 20
2096.158363540116
 10
1092.997634500296
 20
2096.00152719771
 10
1092.6115530044
 20
2095.829113801014
 10
1092.232675029458
 20
2095.641399174683
 10
1091.86160669941
 20
2095.438683622075
 10
1091.498941644424
 20
2095.221291444831
 10
1091.145260051226
 20
2094.98957042406
 10
1090.801127734917
 20
2094.743891263965
 10
1090.46709523379
 20
2094.48464699879
 10
1090.143696928593
 20
2094.212252364061
 10
1089.831450187624
 20
2093.927143133083
 10
1089.53085453906
 20
2093.629775419808
 10
1089.242390871817
 20
2093.320624949139
 10
1088.966520666225
 20
2093.000186295883
 10
1088.703685255764
 20
2092.668972093527
 10
1088.454305121022
 20
2092.327512214141
 10
1088.218779217018
 20
2091.97635292069
 10
1087.997484334953
 20
2091.616055993134
 10
1087.790774499433
 20
2091.247197829698
 10
1087.598980402099
 20
2090.870368524757
 10
1087.422408872593
 20
2090.486170924814
 10
1087.261342387694
 20
2090.095219664071
 10
1087.116038619421
 20
2089.698140181146
 10
1086.986730022805
 20
2089.295567718507
 10
1086.873623464017
 20
2088.888146306216
 10
1086.776899889423
 20
2088.476527731621
 10
1086.696714036109
 20
2088.061370496633
 10
1086.633194184335
 20
2087.643338764268
 10
1086.586441952313
 20
2087.22310129612
 10
1086.556532133641
 20
2086.801330382493
 10
1086.54351257765
 20
2086.378700766877
 10
1086.547404112851
 20
2085.955888566499
 10
1086.568200513618
 20
2085.533570190687
 10
1086.605868510146
 20
2085.112421258749
 10
1086.660347841676
 20
2084.693115519139
 10
1086.731551352899
 20
2084.276323771591
 10
1086.819365133387
 20
2083.862712793992
 10
1086.923648699824
 20
2083.452944275673
 10
1087.044235220748
 20
2083.047673758851
 10
1087.18093178345
 20
2082.647549589899
 10
1087.333519702591
 20
2082.253211882132
 10
1087.501754870051
 20
2081.865291491763
 10
1087.685368145448
 20
2081.484409008663
 10
1087.884065786712
 20
2081.111173763556
 10
1088.097529920004
 20
2080.746182853214
 10
1088.325419048245
 20
2080.390020185233
 10
1088.567368597446
 20
2080.043255543904
 10
1088.82299149994
 20
2079.706443678682
 10
1089.091878813614
 20
2079.3801234167
 10
1089.373600376124
 20
2079.064816800768
 10
1089.667705493069
 20
2078.761028254208
 10
1089.973723659001
 20
2078.46924377389
 10
1090.291165310134
 20
2078.18993015274
 10
1090.619522607543
 20
2077.923534232966
 10
1090.9582702496
 20
2077.670482191213
 10
1091.306866312338
 20
2077.431178856766
 10
1091.66475311642
 20
2077.20600706391
 10
1092.031358119307
 20
2076.995327039482
 10
1092.406094831196
 20
2076.799475826577
 10
1092.788363753289
 20
2076.618766745355
 10
1093.177553336858
 20
2076.4534888918
 10
1093.57304096159
 20
2076.303906675218
 10
1093.974193931653
 20
2076.170259395246
 10
1094.380370487869
 20
2076.052760859023
 10
1094.790920834395
 20
2075.951599039142
 10
1095.205188178256
 20
2075.866935772934
 10
1095.622509780073
 20
2075.798906503566
 10
1095.837641137191
 20
2075.772618428698
  0
LWPOLYLINE
  5
20E
330
198
100
AcDbEntity
  8
P-SANR-FIXT
100
AcDbPolyline
 90
       77
 70
   128
 43
0.0
 10
1098.488945088787
 20
2075.784504557157
 10
1098.79857958813
 20
2075.828138837561
 10
1099.214578323708
 20
2075.903837931555
 10
1099.627217148301
 20
2075.996111986807
 10
1100.035835927815
 20
2076.104813384512
 10
1100.43978095937
 20
2076.229768225621
 10
1100.838406017084
 20
2076.370776609045
 10
1101.231073385903
 20
2076.527612951451
 10
1101.6171548818
 20
2076.700026348147
 10
1101.996032856741
 20
2076.887740974478
 10
1102.36710118679
 20
2077.090456527086
 10
1102.729766241775
 20
2077.30784870433
 10
1103.083447834973
 20
2077.539569725101
 10
1103.427580151283
 20
2077.785248885197
 10
1103.761612652409
 20
2078.04449315037
 10
1104.085010957607
 20
2078.3168877851
 10
1104.397257698576
 20
2078.601997016077
 10
1104.697853347139
 20
2078.899364729354
 10
1104.986317014382
 20
2079.208515200022
 10
1105.262187219975
 20
2079.528953853278
 10
1105.525022630436
 20
2079.860168055634
 10
1105.774402765177
 20
2080.20162793502
 10
1106.009928669182
 20
2080.552787228471
 10
1106.231223551246
 20
2080.913084156027
 10
1106.437933386766
 20
2081.281942319463
 10
1106.6297274841
 20
2081.658771624404
 10
1106.806299013607
 20
2082.042969224347
 10
1106.967365498505
 20
2082.43392048509
 10
1107.112669266779
 20
2082.830999968015
 10
1107.241977863395
 20
2083.233572430654
 10
1107.355084422183
 20
2083.640993842945
 10
1107.451807996777
 20
2084.05261241754
 10
1107.531993850091
 20
2084.467769652528
 10
1107.595513701865
 20
2084.885801384894
 10
1107.642265933887
 20
2085.306038853041
 10
1107.672175752558
 20
2085.727809766668
 10
1107.685195308549
 20
2086.150439382285
 10
1107.681303773349
 20
2086.573251582662
 10
1107.660507372581
 20
2086.995569958475
 10
1107.622839376054
 20
2087.416718890412
 10
1107.568360044523
 20
2087.836024630022
 10
1107.4971565333
 20
2088.25281637757
 10
1107.409342752812
 20
2088.666427355169
 10
1107.305059186376
 20
2089.076195873488
 10
1107.184472665452
 20
2089.481466390311
 10
1107.047776102749
 20
2089.881590559262
 10
1106.895188183607
 20
2090.275928267029
 10
1106.726953016149
 20
2090.663848657398
 10
1106.543339740751
 20
2091.044731140497
 10
1106.344642099487
 20
2091.417966385605
 10
1106.131177966195
 20
2091.782957295947
 10
1105.903288837954
 20
2092.139119963928
 10
1105.661339288753
 20
2092.485884605256
 10
1105.405716386259
 20
2092.822696470479
 10
1105.136829072586
 20
2093.149016732461
 10
1104.855107510075
 20
2093.464323348393
 10
1104.56100239313
 20
2093.768111894953
 10
1104.254984227199
 20
2094.059896375271
 10
1103.937542576066
 20
2094.339209996421
 10
1103.609185278656
 20
2094.605605916195
 10
1103.2704376366
 20
2094.858657957948
 10
1102.921841573862
 20
2095.097961292395
 10
1102.563954769779
 20
2095.32313308525
 10
1102.197349766893
 20
2095.533813109679
 10
1101.822613055004
 20
2095.729664322584
 10
1101.44034413291
 20
2095.910373403805
 10
1101.051154549342
 20
2096.075651257361
 10
1100.655666924609
 20
2096.225233473944
 10
1100.254513954546
 20
2096.358880753915
 10
1099.84833739833
 20
2096.476379290138
 10
1099.437787051804
 20
2096.577541110019
 10
1099.023519707944
 20
2096.662204376227
 10
1098.606198106127
 20
2096.730233645595
 10
1098.186489871891
 20
2096.781520085806
 10
1097.76506644888
 20
2096.815981649495
 10
1097.342602024671
 20
2096.833563205512
 10
1097.1143539431
 20
2096.83602754214
  0
LINE
  5
20F
330
198
100
AcDbEntity
  8
P-SANR-FIXT
100
AcDbLine
 10
1131.114353943099
 20
2100.482558850011
 30
0.0
 11
1131.114353943099
 21
2095.482558850011
 31
0.0
  0
LINE
  5
210
330
198
100
AcDbEntity
  8
P-SANR-FIXT
100
AcDbLine
 10
1131.114353943099
 20
2095.482558850011
 30
0.0
 11
1131.114353943099
 21
2070.482558850011
 31
0.0
  0
LINE
  5
211
330
198
100
AcDbEntity
  8
P-SANR-FIXT
100
AcDbLine
 10
1063.114353943098
 20
2070.482558850011
 30
0.0
 11
1063.114353943098
 21
2095.482558850011
 31
0.0
  0
LINE
  5
212
330
198
100
AcDbEntity
  8
P-SANR-FIXT
100
AcDbLine
 10
1063.114353943098
 20
2095.482558850011
 30
0.0
 11
1063.114353943098
 21
2100.482558850011
 31
0.0
  0
LINE
  5
213
330
198
100
AcDbEntity
  8
P-SANR-FIXT
100
AcDbLine
 10
1091.938989615397
 20
2095.482558850011
 30
0.0
 11
1091.956048176624
 21
2095.482558850011
 31
0.0
  0
LINE
  5
214
330
198
100
AcDbEntity
  8
P-SANR-FIXT
100
AcDbLine
 10
1102.272659709573
 20
2095.482558850011
 30
0.0
 11
1102.2897182708
 21
2095.482558850011
 31
0.0
  0
ARC
  5
215
330
198
100
AcDbEntity
  8
P-SANR-FIXT
100
AcDbCircle
 10
1097.114353943098
 20
2086.264570074579
 30
0.0
 40
10.57145746755928
100
AcDbArc
 50
59.97679450388254
 51
60.68832423825739
  0
ARC
  5
216
330
198
100
AcDbEntity
  8
P-SANR-FIXT
100
AcDbCircle
 10
1097.114353943098
 20
2086.264570074579
 30
0.0
 40
10.57145746755945
100
AcDbArc
 50
52.44753489609454
 51
53.83885495470064
  0
ARC
  5
217
330
198
100
AcDbEntity
  8
P-SANR-FIXT
100
AcDbCircle
 10
1097.114353943098
 20
2086.264570074579
 30
0.0
 40
10.57145746755947
100
AcDbArc
 50
45.08097388472199
 51
46.98938567114304
  0
ARC
  5
218
330
198
100
AcDbEntity
  8
P-SANR-FIXT
100
AcDbCircle
 10
1097.114353943098
 20
2086.264570074579
 30
0.0
 40
10.57145746755937
100
AcDbArc
 50
19.59150853691498
 51
40.13991638758574
  0
ARC
  5
219
330
198
100
AcDbEntity
  8
P-SANR-FIXT
100
AcDbCircle
 10
1097.114353943098
 20
2086.264570074579
 30
0.0
 40
10.57145746755931
100
AcDbArc
 50
12.74203925335758
 51
15.0256204908979
  0
ARC
  5
21A
330
198
100
AcDbEntity
  8
P-SANR-FIXT
100
AcDbCircle
 10
1097.114353943098
 20
2086.264570074579
 30
0.0
 40
10.57145746755937
100
AcDbArc
 50
5.892569969801107
 51
7.511289086783863
  0
ARC
  5
21B
330
198
100
AcDbEntity
  8
P-SANR-FIXT
100
AcDbCircle
 10
1097.114353943098
 20
2086.264570074579
 30
0.0
 40
10.57145746755938
100
AcDbArc
 50
359.0431006862435
 51
0.0014143162190578
  0
ARC
  5
21C
330
198
100
AcDbEntity
  8
P-SANR-FIXT
100
AcDbCircle
 10
1097.114353943098
 20
2086.264570074579
 30
0.0
 40
10.57145746755929
100
AcDbArc
 50
352.193631402686
 51
352.4983420755896
  0
ARC
  5
21D
330
198
100
AcDbEntity
  8
P-SANR-FIXT
100
AcDbCircle
 10
1097.114353943098
 20
2086.264570074579
 30
0.0
 40
10.57145746755941
100
AcDbArc
 50
344.9939712484484
 51
345.3441621191284
  0
ARC
  5
21E
330
198
100
AcDbEntity
  8
P-SANR-FIXT
100
AcDbCircle
 10
1097.114353943098
 20
2086.264570074579
 30
0.0
 40
10.57145746755943
100
AcDbArc
 50
337.4770923167376
 51
338.4946928355708
  0
ARC
  5
21F
330
198
100
AcDbEntity
  8
P-SANR-FIXT
100
AcDbCircle
 10
1097.114353943098
 20
2086.264570074579
 30
0.0
 40
10.57145746755948
100
AcDbArc
 50
329.9544731113619
 51
331.6452235520142
  0
ARC
  5
220
330
198
100
AcDbEntity
  8
P-SANR-FIXT
100
AcDbCircle
 10
1097.114353943098
 20
2086.264570074579
 30
0.0
 40
10.57145746755934
100
AcDbArc
 50
322.427676405327
 51
324.7957542684578
  0
ARC
  5
221
330
198
100
AcDbEntity
  8
P-SANR-FIXT
100
AcDbCircle
 10
1097.114353943098
 20
2086.264570074579
 30
0.0
 40
10.57145746755956
100
AcDbArc
 50
297.3978771342275
 51
317.9462849848994
  0
ARC
  5
222
330
198
100
AcDbEntity
  8
P-SANR-FIXT
100
AcDbCircle
 10
1097.114353943098
 20
2086.264570074579
 30
0.0
 40
10.57145746755951
100
AcDbArc
 50
290.5484078506699
 51
292.5363857518054
  0
ARC
  5
223
330
198
100
AcDbEntity
  8
P-SANR-FIXT
100
AcDbCircle
 10
1097.114353943098
 20
2086.264570074579
 30
0.0
 40
10.57145746755976
100
AcDbArc
 50
283.6989385671136
 51
285.0186335895426
  0
ARC
  5
224
330
198
100
AcDbEntity
  8
P-SANR-FIXT
100
AcDbCircle
 10
1097.114353943098
 20
2086.264570074579
 30
0.0
 40
10.57145746755959
100
AcDbArc
 50
262.4941885531393
 51
263.062636457463
  0
ARC
  5
225
330
198
100
AcDbEntity
  8
P-SANR-FIXT
100
AcDbCircle
 10
1097.114353943098
 20
2086.264570074579
 30
0.0
 40
10.57145746755965
100
AcDbArc
 50
254.9813664104573
 51
256.3010614328857
  0
ARC
  5
226
330
198
100
AcDbEntity
  8
P-SANR-FIXT
100
AcDbCircle
 10
1097.114353943098
 20
2086.264570074579
 30
0.0
 40
10.57145746755963
100
AcDbArc
 50
247.4636142481934
 51
249.4515921493278
  0
ARC
  5
227
330
198
100
AcDbEntity
  8
P-SANR-FIXT
100
AcDbCircle
 10
1097.114353943098
 20
2086.264570074579
 30
0.0
 40
10.5714574675596
100
AcDbArc
 50
222.0537150150988
 51
242.6021228657716
  0
ARC
  5
228
330
198
100
AcDbEntity
  8
P-SANR-FIXT
100
AcDbCircle
 10
1097.114353943098
 20
2086.264570074579
 30
0.0
 40
10.57145746755961
100
AcDbArc
 50
215.2042457315425
 51
217.5723235946712
  0
ARC
  5
229
330
198
100
AcDbEntity
  8
P-SANR-FIXT
100
AcDbCircle
 10
1097.114353943098
 20
2086.264570074579
 30
0.0
 40
10.57145746755975
100
AcDbArc
 50
208.3547764479841
 51
210.0455268886363
  0
ARC
  5
22A
330
198
100
AcDbEntity
  8
P-SANR-FIXT
100
AcDbCircle
 10
1097.114353943098
 20
2086.264570074579
 30
0.0
 40
10.5714574675598
100
AcDbArc
 50
201.5053071644283
 51
202.5229076832616
  0
ARC
  5
22B
330
198
100
AcDbEntity
  8
P-SANR-FIXT
100
AcDbCircle
 10
1097.114353943098
 20
2086.264570074579
 30
0.0
 40
10.57145746755969
100
AcDbArc
 50
194.6558378808705
 51
195.0060287515505
  0
ARC
  5
22C
330
198
100
AcDbEntity
  8
P-SANR-FIXT
100
AcDbCircle
 10
1097.114353943098
 20
2086.264570074579
 30
0.0
 40
10.57145746755961
100
AcDbArc
 50
187.5016579244095
 51
187.8063685973131
  0
ARC
  5
22D
330
198
100
AcDbEntity
  8
P-SANR-FIXT
100
AcDbCircle
 10
1097.114353943098
 20
2086.264570074579
 30
0.0
 40
10.57145746755946
100
AcDbArc
 50
179.9985856837834
 51
180.9568993137582
  0
ARC
  5
22E
330
198
100
AcDbEntity
  8
P-SANR-FIXT
100
AcDbCircle
 10
1097.114353943098
 20
2086.264570074579
 30
0.0
 40
10.57145746755975
100
AcDbArc
 50
172.4887109132161
 51
174.107430030199
  0
ARC
  5
22F
330
198
100
AcDbEntity
  8
P-SANR-FIXT
100
AcDbCircle
 10
1097.114353943098
 20
2086.264570074579
 30
0.0
 40
10.57145746755971
100
AcDbArc
 50
164.9743795091022
 51
167.2579607466424
  0
ARC
  5
230
330
198
100
AcDbEntity
  8
P-SANR-FIXT
100
AcDbCircle
 10
1097.114353943098
 20
2086.264570074579
 30
0.0
 40
10.57145746755957
100
AcDbArc
 50
139.8600836124152
 51
160.4084914630855
  0
ARC
  5
231
330
198
100
AcDbEntity
  8
P-SANR-FIXT
100
AcDbCircle
 10
1097.114353943098
 20
2086.264570074579
 30
0.0
 40
10.57145746755947
100
AcDbArc
 50
133.0106143288587
 51
134.9190261152797
  0
ARC
  5
232
330
198
100
AcDbEntity
  8
P-SANR-FIXT
100
AcDbCircle
 10
1097.114353943098
 20
2086.264570074579
 30
0.0
 40
10.57145746755933
100
AcDbArc
 50
126.1611450453007
 51
127.5524651039083
  0
ARC
  5
233
330
198
100
AcDbEntity
  8
P-SANR-FIXT
100
AcDbCircle
 10
1097.114353943098
 20
2086.264570074579
 30
0.0
 40
10.57145746755953
100
AcDbArc
 50
119.3116757617443
 51
120.0232054961191
  0
LINE
  5
234
330
198
100
AcDbEntity
  8
P-SANR-FIXT
100
AcDbLine
 10
1063.114353943098
 20
2070.482558850011
 30
0.0
 11
1131.114353943099
 21
2070.482558850011
 31
0.0
  0
LINE
  5
235
330
198
100
AcDbEntity
  8
P-SANR-FIXT
100
AcDbLine
 10
1083.618910002218
 20
2045.482558850012
 30
0.0
 11
1083.618910002218
 21
2019.232558850012
 31
0.0
  0
LINE
  5
236
330
198
100
AcDbEntity
  8
P-SANR-FIXT
100
AcDbLine
 10
1110.609797883981
 20
2019.232558850012
 30
0.0
 11
1110.609797883981
 21
2045.482558850011
 31
0.0
  0
LINE
  5
237
330
198
100
AcDbEntity
  8
P-SANR-FIXT
100
AcDbLine
 10
1063.114353943099
 20
2045.482558850012
 30
0.0
 11
1131.1143539431
 21
2045.482558850012
 31
0.0
  0
LINE
  5
238
330
198
100
AcDbEntity
  8
P-SANR-FIXT
100
AcDbLine
 10
1087.124992056696
 20
2102.482558850011
 30
0.0
 11
1087.124992056696
 21
2100.482558850012
 31
0.0
  0
LINE
  5
239
330
198
100
AcDbEntity
  8
P-SANR-FIXT
100
AcDbLine
 10
1107.103715829504
 20
2100.482558850012
 30
0.0
 11
1107.103715829504
 21
2102.482558850011
 31
0.0
  0
LINE
  5
23A
330
198
100
AcDbEntity
  8
P-SANR-FIXT
100
AcDbLine
 10
1083.618910002217
 20
2019.23255885001
 30
0.0
 11
1093.453686278252
 21
2019.23255885001
 31
0.0
  0
LINE
  5
23B
330
198
100
AcDbEntity
  8
P-SANR-FIXT
100
AcDbLine
 10
1100.775021607828
 20
2019.23255885001
 30
0.0
 11
1110.60979788398
 21
2019.23255885001
 31
0.0
  0
LINE
  5
23C
330
198
100
AcDbEntity
  8
P-SANR-FIXT
100
AcDbLine
 10
1131.114353943099
 20
2057.482558850011
 30
0.0
 11
1131.114353943098
 21
2045.482558850011
 31
0.0
  0
LINE
  5
23D
330
198
100
AcDbEntity
  8
P-SANR-FIXT
100
AcDbLine
 10
1131.114353943099
 20
2070.482558850011
 30
0.0
 11
1131.114353943099
 21
2057.482558850011
 31
0.0
  0
LINE
  5
23E
330
198
100
AcDbEntity
  8
P-SANR-FIXT
100
AcDbLine
 10
1063.114353943098
 20
2057.482558850011
 30
0.0
 11
1063.114353943098
 21
2070.482558850011
 31
0.0
  0
LINE
  5
23F
330
198
100
AcDbEntity
  8
P-SANR-FIXT
100
AcDbLine
 10
1063.114353943098
 20
2045.482558850011
 30
0.0
 11
1063.114353943098
 21
2057.482558850011
 31
0.0
  0
LINE
  5
240
330
198
100
AcDbEntity
  8
P-SANR-FIXT
100
AcDbLine
 10
1063.114353943098
 20
2070.482558850011
 30
0.0
 11
1131.114353943099
 21
2070.482558850011
 31
0.0
  0
LINE
  5
241
330
198
100
AcDbEntity
  8
P-SANR-FIXT
100
AcDbLine
 10
1087.124992056694
 20
2102.48255885001
 30
0.0
 11
1097.114353943098
 21
2102.48255885001
 31
0.0
  0
LINE
  5
242
330
198
100
AcDbEntity
  8
P-SANR-FIXT
100
AcDbLine
 10
1097.114353943098
 20
2102.48255885001
 30
0.0
 11
1107.103715829502
 21
2102.48255885001
 31
0.0
  0
LWPOLYLINE
  5
243
330
198
100
AcDbEntity
  8
P-SANR-FIXT
100
AcDbPolyline
 90
        3
 70
   128
 43
0.0
 10
1099.1143539431
 20
1925.661083524213
 10
1099.1143539431
 20
1929.807793973188
 10
1099.1143539431
 20
1942.247925320115
  0
LWPOLYLINE
  5
244
330
198
100
AcDbEntity
  8
P-SANR-FIXT
100
AcDbPolyline
 90
        3
 70
   128
 43
0.0
 10
1095.1143539431
 20
1942.247925320115
 10
1095.1143539431
 20
1929.807793973188
 10
1095.1143539431
 20
1925.661083524213
  0
LWPOLYLINE
  5
245
330
198
100
AcDbEntity
  8
P-SANR-FIXT
100
AcDbPolyline
 90
        3
 70
   128
 43
0.0
 10
1095.1143539431
 20
1929.369204637213
 10
1095.1143539431
 20
1929.807793973188
 10
1095.1143539431
 20
1931.711128452361
  0
LINE
  5
246
330
198
100
AcDbEntity
  8
P-SANR-FIXT
100
AcDbLine
 10
1095.1143539431
 20
1939.259754874159
 30
0.0
 11
1095.1143539431
 21
1942.247925320115
 31
0.0
  0
LINE
  5
247
330
198
100
AcDbEntity
  8
P-SANR-FIXT
100
AcDbLine
 10
1099.1143539431
 20
1942.247925320115
 30
0.0
 11
1099.1143539431
 21
1939.259754874159
 31
0.0
  0
LWPOLYLINE
  5
248
330
198
100
AcDbEntity
  8
P-SANR-FIXT
100
AcDbPolyline
 90
        3
 70
   128
 43
0.0
 10
1099.1143539431
 20
1931.711128452361
 10
1099.1143539431
 20
1929.807793973188
 10
1099.1143539431
 20
1929.369204638282
  0
ELLIPSE
  5
249
330
198
100
AcDbEntity
  8
P-SANR-FIXT
100
AcDbEllipse
 10
1097.114353943098
 20
1942.247925320114
 30
0.0
 11
2.0
 21
0.0
 31
0.0
210
0.0
220
0.0
230
1.0
 40
0.5
 41
0.0
 42
3.141592653589793
  0
ELLIPSE
  5
24A
330
198
100
AcDbEntity
  8
P-SANR-FIXT
100
AcDbEllipse
 10
1097.114353943098
 20
1942.247925320114
 30
0.0
 11
2.0
 21
0.0
 31
0.0
210
0.0
220
0.0
230
1.0
 40
0.5
 41
3.141592653589793
 42
3.40323937699581
  0
ELLIPSE
  5
24B
330
198
100
AcDbEntity
  8
P-SANR-FIXT
100
AcDbEllipse
 10
1097.114353943098
 20
1942.247925320114
 30
0.0
 11
2.00000000000006
 21
0.0
 31
0.0
210
0.0
220
0.0
230
1.0
 40
0.4999999999999049
 41
3.403392041389106
 42
6.02138591938026
  0
ELLIPSE
  5
24C
330
198
100
AcDbEntity
  8
P-SANR-FIXT
100
AcDbEllipse
 10
1097.114353943098
 20
1942.247925320114
 30
0.0
 11
2.000000000000055
 21
0.0
 31
0.0
210
0.0
220
0.0
230
1.0
 40
0.5
 41
6.021538583773585
 42
6.283185307179586
  0
SPLINE
  5
24D
330
198
100
AcDbEntity
  8
P-SANR-FIXT
100
AcDbSpline
210
0.0
220
0.0
230
1.0
 70
     8
 71
     3
 72
    11
 73
     7
 74
     0
 42
0.000000001
 43
0.0000000001
 40
0.4999999999984341
 40
0.4999999999984341
 40
0.4999999999984341
 40
0.4999999999984341
 40
0.5714285714285714
 40
0.7142857142857144
 40
0.8571428571428571
 40
1.0
 40
1.0
 40
1.0
 40
1.0
 10
1095.700510678796
 20
1924.246787781334
 30
0.0
 10
1095.753381323858
 20
1924.193977872809
 30
0.0
 10
1095.921081597838
 20
1924.044671089632
 30
0.0
 10
1096.240753797816
 20
1923.846531879342
 30
0.0
 10
1096.666413205325
 20
1923.696509996549
 30
0.0
 10
1096.964998850993
 20
1923.661083524212
 30
0.0
 10
1097.114353943098
 20
1923.661083524212
 30
0.0
  0
SPLINE
  5
24E
330
198
100
AcDbEntity
  8
P-SANR-FIXT
100
AcDbSpline
210
0.0
220
0.0
230
1.0
 70
     8
 71
     3
 72
     8
 73
     4
 74
     0
 42
0.000000001
 43
0.0000000001
 40
0.0
 40
0.0
 40
0.0
 40
0.0
 40
0.1428571428571428
 40
0.1428571428571428
 40
0.1428571428571428
 40
0.1428571428571428
 10
1097.114353943098
 20
1923.661083524212
 30
0.0
 10
1097.263709035203
 20
1923.661083524212
 30
0.0
 10
1097.413001858037
 20
1923.678796760381
 30
0.0
 10
1097.558591504039
 20
1923.712657025597
 30
0.0
  0
SPLINE
  5
24F
330
198
100
AcDbEntity
  8
P-SANR-FIXT
100
AcDbSpline
210
0.0
220
0.0
230
1.0
 70
     8
 71
     3
 72
     8
 73
     4
 74
     0
 42
0.000000001
 43
0.0000000001
 40
0.2857142857142857
 40
0.2857142857142857
 40
0.2857142857142857
 40
0.2857142857142857
 40
0.4285714285714286
 40
0.4285714285714286
 40
0.4285714285714286
 40
0.4285714285714286
 10
1097.980945293791
 20
1923.861156074267
 30
0.0
 10
1098.115822968372
 20
1923.925787563458
 30
0.0
 10
1098.243131291352
 20
1924.005315047572
 30
0.0
 10
1098.36084826346
 20
1924.097820379245
 30
0.0
  0
SPLINE
  5
250
330
198
100
AcDbEntity
  8
P-SANR-FIXT
100
AcDbSpline
210
0.0
220
0.0
230
1.0
 70
     8
 71
     3
 72
     8
 73
     4
 74
     0
 42
0.000000001
 43
0.0000000001
 40
0.4999999999998842
 40
0.4999999999998842
 40
0.4999999999998842
 40
0.4999999999998842
 40
0.5714285714285714
 40
0.5714285714285714
 40
0.5714285714285714
 40
0.5714285714285714
 10
1098.528197207397
 20
1924.24678778133
 30
0.0
 10
1098.581067852459
 20
1924.299597689855
 30
0.0
 10
1098.631449288727
 20
1924.355259751542
 30
0.0
 10
1098.677369473747
 20
1924.41400106821
 30
0.0
  0
ARC
  5
251
330
198
100
AcDbEntity
  8
P-SANR-FIXT
100
AcDbCircle
 10
1097.114353943098
 20
1925.661083524212
 30
0.0
 40
2.500000000000232
100
AcDbArc
 50
143.767998736848
 51
269.9999999999997
  0
ARC
  5
252
330
198
100
AcDbEntity
  8
P-SANR-FIXT
100
AcDbCircle
 10
1097.114353943098
 20
1925.661083524212
 30
0.0
 40
2.499999999999772
100
AcDbArc
 50
269.9999999999997
 51
36.23200126313512
  0
ARC
  5
253
330
198
100
AcDbEntity
  8
P-SANR-FIXT
100
AcDbCircle
 10
1097.114353943098
 20
1925.661083524212
 30
0.0
 40
3.951434272160266
100
AcDbArc
 50
120.5338483488957
 51
269.9999999999997
  0
ARC
  5
254
330
198
100
AcDbEntity
  8
P-SANR-FIXT
100
AcDbCircle
 10
1097.114353943098
 20
1925.661083524212
 30
0.0
 40
3.951434272159985
100
AcDbArc
 50
269.9999999999997
 51
59.46615165110524
  0
LINE
  5
255
330
198
100
AcDbEntity
  8
P-SANR-FIXT
100
AcDbLine
 10
1119.804412275708
 20
1892.982558849904
 30
0.0
 11
1126.47231637618
 21
1892.982558849904
 31
0.0
  0
LINE
  5
256
330
198
100
AcDbEntity
  8
P-SANR-FIXT
100
AcDbLine
 10
1126.47231637618
 20
1938.982558849904
 30
0.0
 11
1119.804412275708
 21
1938.982558849904
 31
0.0
  0
LINE
  5
257
330
198
100
AcDbEntity
  8
P-SANR-FIXT
100
AcDbLine
 10
1126.47231637618
 20
1892.982558849904
 30
0.0
 11
1126.97231637618
 21
1893.482558849903
 31
0.0
  0
LINE
  5
258
330
198
100
AcDbEntity
  8
P-SANR-FIXT
100
AcDbLine
 10
1126.97231637618
 20
1938.482558849903
 30
0.0
 11
1126.47231637618
 21
1938.982558849904
 31
0.0
  0
LINE
  5
259
330
198
100
AcDbEntity
  8
P-SANR-FIXT
100
AcDbLine
 10
1126.972316376179
 20
1938.482558849903
 30
0.0
 11
1126.972316376178
 21
1893.482558849903
 31
0.0
  0
LINE
  5
25A
330
198
100
AcDbEntity
  8
P-SANR-FIXT
100
AcDbLine
 10
1119.804412275706
 20
1915.982558849903
 30
0.0
 11
1119.804412275706
 21
1938.982558849903
 31
0.0
  0
LINE
  5
25B
330
198
100
AcDbEntity
  8
P-SANR-FIXT
100
AcDbLine
 10
1119.804412275706
 20
1892.982558849903
 30
0.0
 11
1119.804412275706
 21
1915.982558849903
 31
0.0
  0
LINE
  5
25C
330
198
100
AcDbEntity
  8
P-SANR-FIXT
100
AcDbLine
 10
1126.472316376179
 20
1892.982558849903
 30
0.0
 11
1126.472316376179
 21
1915.982558849903
 31
0.0
  0
LINE
  5
25D
330
198
100
AcDbEntity
  8
P-SANR-FIXT
100
AcDbLine
 10
1126.472316376179
 20
1915.982558849903
 30
0.0
 11
1126.472316376179
 21
1938.982558849903
 31
0.0
  0
LINE
  5
25E
330
198
100
AcDbEntity
  8
P-SANR-FIXT
100
AcDbLine
 10
1084.6143539431
 20
2019.232558850012
 30
0.0
 11
1084.6143539431
 21
2014.624148818672
 31
0.0
  0
LINE
  5
25F
330
198
100
AcDbEntity
  8
P-SANR-FIXT
100
AcDbLine
 10
1109.6143539431
 20
2014.624226236237
 30
0.0
 11
1109.6143539431
 21
2019.232558850012
 31
0.0
  0
LINE
  5
260
330
198
100
AcDbEntity
  8
P-SANR-FIXT
100
AcDbLine
 10
1081.1143539431
 20
1987.969288388182
 30
0.0
 11
1081.1143539431
 21
1968.982558850011
 31
0.0
  0
LINE
  5
261
330
198
100
AcDbEntity
  8
P-SANR-FIXT
100
AcDbLine
 10
1113.114353943099
 20
1968.982558850011
 30
0.0
 11
1113.114353943099
 21
1987.969129620369
 31
0.0
  0
LINE
  5
262
330
198
100
AcDbEntity
  8
P-SANR-FIXT
100
AcDbLine
 10
1081.1143539431
 20
1968.982558850011
 30
0.0
 11
1082.1143539431
 21
1967.982558850011
 31
0.0
  0
LINE
  5
263
330
198
100
AcDbEntity
  8
P-SANR-FIXT
100
AcDbLine
 10
1112.114353943099
 20
1967.982558850011
 30
0.0
 11
1113.114353943099
 21
1968.982558850011
 31
0.0
  0
SPLINE
  5
264
330
198
100
AcDbEntity
  8
P-SANR-FIXT
100
AcDbSpline
210
0.0
220
0.0
230
1.0
 70
     8
 71
     3
 72
     8
 73
     4
 74
     0
 42
0.000000001
 43
0.0000000001
 40
0.4
 40
0.4
 40
0.4
 40
0.4
 40
0.5
 40
0.5
 40
0.5
 40
0.5
 10
1091.830680450431
 20
2018.493239399976
 30
0.0
 10
1091.426667251302
 20
2018.377962555117
 30
0.0
 10
1091.022317745252
 20
2018.253020016943
 30
0.0
 10
1090.632253270235
 20
2018.119992835873
 30
0.0
  0
SPLINE
  5
265
330
198
100
AcDbEntity
  8
P-SANR-FIXT
100
AcDbSpline
210
0.0
220
0.0
230
1.0
 70
     8
 71
     3
 72
     8
 73
     4
 74
     0
 42
0.000000001
 43
0.0000000001
 40
0.5840988971300484
 40
0.5840988971300484
 40
0.5840988971300484
 40
0.5840988971300484
 40
0.6
 40
0.6
 40
0.6
 40
0.6
 10
1089.739657643036
 20
2017.763345268777
 30
0.0
 10
1089.683720346724
 20
2017.740151017561
 30
0.0
 10
1089.627773835394
 20
2017.716816064369
 30
0.0
 10
1089.571986551948
 20
2017.693350021957
 30
0.0
  0
SPLINE
  5
266
330
198
100
AcDbEntity
  8
P-SANR-FIXT
100
AcDbSpline
210
0.0
220
0.0
230
1.0
 70
     8
 71
     3
 72
     8
 73
     4
 74
     0
 42
0.000000001
 43
0.0000000001
 40
0.7
 40
0.7
 40
0.7
 40
0.7
 40
0.8
 40
0.8
 40
0.8
 40
0.8
 10
1088.580257496119
 20
2017.237462438083
 30
0.0
 10
1088.265710042735
 20
2017.082095048316
 30
0.0
 10
1087.989611526523
 20
2016.927255592964
 30
0.0
 10
1087.730029953928
 20
2016.77230497536
 30
0.0
  0
SPLINE
  5
267
330
198
100
AcDbEntity
  8
P-SANR-FIXT
100
AcDbSpline
210
0.0
220
0.0
230
1.0
 70
     8
 71
     3
 72
     8
 73
     4
 74
     0
 42
0.000000001
 43
0.0000000001
 40
0.9
 40
0.9
 40
0.9
 40
0.9
 40
1.0
 40
1.0
 40
1.0
 40
1.0
 10
1086.89226327434
 20
2016.294476396458
 30
0.0
 10
1086.643783595416
 20
2016.138664357685
 30
0.0
 10
1086.411549066322
 20
2015.985103095663
 30
0.0
 10
1086.19528789327
 20
2015.836154549393
 30
0.0
  0
SPLINE
  5
268
330
198
100
AcDbEntity
  8
P-SANR-FIXT
100
AcDbSpline
210
0.0
220
0.0
230
1.0
 70
     8
 71
     3
 72
     8
 73
     4
 74
     0
 42
0.000000001
 43
0.0000000001
 40
0.1333333333333333
 40
0.1333333333333333
 40
0.1333333333333333
 40
0.1333333333333333
 40
0.2
 40
0.2
 40
0.2
 40
0.2
 10
1083.411196277048
 20
1986.46211140288
 30
0.0
 10
1083.615704938561
 20
1986.254903671334
 30
0.0
 10
1083.831939134024
 20
1986.045375329956
 30
0.0
 10
1084.060930340776
 20
1985.834391751113
 30
0.0
  0
SPLINE
  5
269
330
198
100
AcDbEntity
  8
P-SANR-FIXT
100
AcDbSpline
210
0.0
220
0.0
230
1.0
 70
     8
 71
     3
 72
     8
 73
     4
 74
     0
 42
0.000000001
 43
0.0000000001
 40
0.2666666666666666
 40
0.2666666666666666
 40
0.2666666666666666
 40
0.2666666666666666
 40
0.3333333333333333
 40
0.3333333333333333
 40
0.3333333333333333
 40
0.3333333333333333
 10
1084.785858918449
 20
1985.199140534388
 30
0.0
 10
1085.04003887707
 20
1984.987303329138
 30
0.0
 10
1085.306637933359
 20
1984.776054848423
 30
0.0
 10
1085.585327944611
 20
1984.567451359321
 30
0.0
  0
SPLINE
  5
26A
330
198
100
AcDbEntity
  8
P-SANR-FIXT
100
AcDbSpline
210
0.0
220
0.0
230
1.0
 70
     8
 71
     3
 72
     8
 73
     4
 74
     0
 42
0.000000001
 43
0.0000000001
 40
0.3971085480457303
 40
0.3971085480457303
 40
0.3971085480457303
 40
0.3971085480457303
 40
0.4
 40
0.4
 40
0.4
 40
0.4
 10
1086.418044954264
 20
1983.977846794108
 30
0.0
 10
1086.431122079175
 20
1983.969099866589
 30
0.0
 10
1086.444221320133
 20
1983.960361569246
 30
0.0
 10
1086.457342700556
 20
1983.951632133931
 30
0.0
  0
SPLINE
  5
26B
330
198
100
AcDbEntity
  8
P-SANR-FIXT
100
AcDbSpline
210
0.0
220
0.0
230
1.0
 70
     8
 71
     3
 72
     8
 73
     4
 74
     0
 42
0.000000001
 43
0.0000000001
 40
0.4666666666666666
 40
0.4666666666666666
 40
0.4666666666666666
 40
0.4666666666666666
 40
0.5333333333333333
 40
0.5333333333333333
 40
0.5333333333333333
 40
0.5333333333333333
 10
1087.400048677748
 20
1983.363311509896
 30
0.0
 10
1087.725938769041
 20
1983.172843697368
 30
0.0
 10
1088.063455128877
 20
1982.988521836119
 30
0.0
 10
1088.412405459004
 20
1982.811697094912
 30
0.0
  0
SPLINE
  5
26C
330
198
100
AcDbEntity
  8
P-SANR-FIXT
100
AcDbSpline
210
0.0
220
0.0
230
1.0
 70
     8
 71
     3
 72
    10
 73
     6
 74
     0
 42
0.000000001
 43
0.0000000001
 40
0.6
 40
0.6
 40
0.6
 40
0.6
 40
0.625
 40
0.7
 40
0.7333333333333333
 40
0.7333333333333333
 40
0.7333333333333333
 40
0.7333333333333333
 10
1089.49273982586
 20
1982.305628926834
 30
0.0
 10
1089.631818251938
 20
1982.245659046509
 30
0.0
 10
1090.194455935431
 20
1982.011190751081
 30
0.0
 10
1090.981244938752
 20
1981.722711441655
 30
0.0
 10
1091.647716112131
 20
1981.526209142975
 30
0.0
 10
1091.854484809478
 20
1981.468265803711
 30
0.0
  0
SPLINE
  5
26D
330
198
100
AcDbEntity
  8
P-SANR-FIXT
100
AcDbSpline
210
0.0
220
0.0
230
1.0
 70
     8
 71
     3
 72
    10
 73
     6
 74
     0
 42
0.000000001
 43
0.0000000001
 40
0.2666666666666666
 40
0.2666666666666666
 40
0.2666666666666666
 40
0.2666666666666666
 40
0.3
 40
0.35
 40
0.4
 40
0.4
 40
0.4
 40
0.4
 10
1102.3758980587
 20
1981.465608530377
 30
0.0
 10
1102.582180726376
 20
1981.524210160285
 30
0.0
 10
1103.092851180016
 20
1981.678600744014
 30
0.0
 10
1103.888275505128
 20
1981.955605231873
 30
0.0
 10
1104.457119765461
 20
1982.185630699873
 30
0.0
 10
1104.736083060772
 20
1982.305688503232
 30
0.0
  0
SPLINE
  5
26E
330
198
100
AcDbEntity
  8
P-SANR-FIXT
100
AcDbSpline
210
0.0
220
0.0
230
1.0
 70
     8
 71
     3
 72
     8
 73
     4
 74
     0
 42
0.000000001
 43
0.0000000001
 40
0.4666666666666666
 40
0.4666666666666666
 40
0.4666666666666666
 40
0.4666666666666666
 40
0.5333333333333333
 40
0.5333333333333333
 40
0.5333333333333333
 40
0.5333333333333333
 10
1105.81708598492
 20
1982.812148757278
 30
0.0
 10
1106.16621853876
 20
1982.989105494678
 30
0.0
 10
1106.505668504948
 20
1983.173642743016
 30
0.0
 10
1106.831119091762
 20
1983.364296810703
 30
0.0
  0
SPLINE
  5
26F
330
198
100
AcDbEntity
  8
P-SANR-FIXT
100
AcDbSpline
210
0.0
220
0.0
230
1.0
 70
     8
 71
     3
 72
     8
 73
     4
 74
     0
 42
0.000000001
 43
0.0000000001
 40
0.6
 40
0.6
 40
0.6
 40
0.6
 40
0.6028914519542567
 40
0.6028914519542567
 40
0.6028914519542567
 40
0.6028914519542567
 10
1107.773041147196
 20
1983.952787856446
 30
0.0
 10
1107.786157139909
 20
1983.961509853507
 30
0.0
 10
1107.799241387727
 20
1983.970239583671
 30
0.0
 10
1107.81229466973
 20
1983.978976943991
 30
0.0
  0
SPLINE
  5
270
330
198
100
AcDbEntity
  8
P-SANR-FIXT
100
AcDbSpline
210
0.0
220
0.0
230
1.0
 70
     8
 71
     3
 72
     9
 73
     5
 74
     0
 42
0.000000001
 43
0.0000000001
 40
0.6666666666666666
 40
0.6666666666666666
 40
0.6666666666666666
 40
0.6666666666666666
 40
0.7
 40
0.7333333333333333
 40
0.7333333333333333
 40
0.7333333333333333
 40
0.7333333333333333
 10
1108.644086982942
 20
1984.567401258278
 30
0.0
 10
1108.783190131286
 20
1984.671430500606
 30
0.0
 10
1109.053148526393
 20
1984.880393247508
 30
0.0
 10
1109.319300451256
 20
1985.092666942751
 30
0.0
 10
1109.449855373013
 20
1985.199109963481
 30
0.0
  0
SPLINE
  5
271
330
198
100
AcDbEntity
  8
P-SANR-FIXT
100
AcDbSpline
210
0.0
220
0.0
230
1.0
 70
     8
 71
     3
 72
     9
 73
     5
 74
     0
 42
0.000000001
 43
0.0000000001
 40
0.8
 40
0.8
 40
0.8
 40
0.8
 40
0.85
 40
0.8666666666666666
 40
0.8666666666666666
 40
0.8666666666666666
 40
0.8666666666666666
 10
1110.165818697698
 20
1985.832707139298
 30
0.0
 10
1110.337642174399
 20
1985.991178510272
 30
0.0
 10
1110.56297705426
 20
1986.203354508255
 30
0.0
 10
1110.761823572236
 20
1986.408790915369
 30
0.0
 10
1110.810245695348
 20
1986.459823647703
 30
0.0
  0
SPLINE
  5
272
330
198
100
AcDbEntity
  8
P-SANR-FIXT
100
AcDbSpline
210
0.0
220
0.0
230
1.0
 70
     8
 71
     3
 72
     8
 73
     4
 74
     0
 42
0.000000001
 43
0.0000000001
 40
0.0
 40
0.0
 40
0.0
 40
0.0
 40
0.1
 40
0.1
 40
0.1
 40
0.1
 10
1108.033419992926
 20
2015.836154549393
 30
0.0
 10
1107.817158819874
 20
2015.985103095663
 30
0.0
 10
1107.584530994717
 20
2016.138846464931
 30
0.0
 10
1107.335551972987
 20
2016.294900981673
 30
0.0
  0
SPLINE
  5
273
330
198
100
AcDbEntity
  8
P-SANR-FIXT
100
AcDbSpline
210
0.0
220
0.0
230
1.0
 70
     8
 71
     3
 72
     8
 73
     4
 74
     0
 42
0.000000001
 43
0.0000000001
 40
0.2
 40
0.2
 40
0.2
 40
0.2
 40
0.3
 40
0.3
 40
0.3
 40
0.3
 10
1106.539576773601
 20
2016.767514298795
 30
0.0
 10
1106.257910814253
 20
2016.925707434959
 30
0.0
 10
1105.959881568643
 20
2017.083700029294
 30
0.0
 10
1105.645545810129
 20
2017.23905042694
 30
0.0
  0
SPLINE
  5
274
330
198
100
AcDbEntity
  8
P-SANR-FIXT
100
AcDbSpline
210
0.0
220
0.0
230
1.0
 70
     8
 71
     3
 72
     8
 73
     4
 74
     0
 42
0.000000001
 43
0.0000000001
 40
0.4
 40
0.4
 40
0.4
 40
0.4
 40
0.4159011028699361
 40
0.4159011028699361
 40
0.4159011028699361
 40
0.4159011028699361
 10
1104.653675769236
 20
2017.69473337495
 30
0.0
 10
1104.598507353738
 20
2017.718198365612
 30
0.0
 10
1104.542928997957
 20
2017.741536337806
 30
0.0
 10
1104.486951420694
 20
2017.764733495301
 30
0.0
  0
SPLINE
  5
275
330
198
100
AcDbEntity
  8
P-SANR-FIXT
100
AcDbSpline
210
0.0
220
0.0
230
1.0
 70
     8
 71
     3
 72
     9
 73
     5
 74
     0
 42
0.000000001
 43
0.0000000001
 40
0.5
 40
0.5
 40
0.5
 40
0.5
 40
0.55
 40
0.6
 40
0.6
 40
0.6
 40
0.6
 10
1103.566769459277
 20
2018.118819864888
 30
0.0
 10
1103.378415820686
 20
2018.185864727554
 30
0.0
 10
1102.995025660747
 20
2018.315864369565
 30
0.0
 10
1102.599425736531
 20
2018.43560877345
 30
0.0
 10
1102.398317382505
 20
2018.49301736647
 30
0.0
  0
SPLINE
  5
276
330
198
100
AcDbEntity
  8
P-SANR-FIXT
100
AcDbSpline
210
0.0
220
0.0
230
1.0
 70
     8
 71
     3
 72
     8
 73
     4
 74
     0
 42
0.000000001
 43
0.0000000001
 40
0.0367478057780136
 40
0.0367478057780136
 40
0.0367478057780136
 40
0.0367478057780136
 40
0.037037037037037
 40
0.037037037037037
 40
0.037037037037037
 40
0.037037037037037
 10
1085.759697543101
 20
2015.527493847787
 30
0.0
 10
1085.758654347723
 20
2015.526732839081
 30
0.0
 10
1085.757611916956
 20
2015.525972223645
 30
0.0
 10
1085.756570250343
 20
2015.525212001698
 30
0.0
  0
SPLINE
  5
277
330
198
100
AcDbEntity
  8
P-SANR-FIXT
100
AcDbSpline
210
0.0
220
0.0
230
1.0
 70
     8
 71
     3
 72
    11
 73
     7
 74
     0
 42
0.000000001
 43
0.0000000001
 40
0.0740740740740741
 40
0.0740740740740741
 40
0.0740740740740741
 40
0.0740740740740741
 40
0.1111111111111111
 40
0.1666666666666666
 40
0.2222222222222222
 40
0.2592592592592593
 40
0.2592592592592593
 40
0.2592592592592593
 40
0.2592592592592593
 10
1085.393034651212
 20
2015.252983263602
 30
0.0
 10
1085.283746549047
 20
2015.169000186473
 30
0.0
 10
1085.03945248298
 20
2014.976326500064
 30
0.0
 10
1084.754688096289
 20
2014.741797636728
 30
0.0
 10
1084.611459120504
 20
2014.619448508194
 30
0.0
 10
1084.612219612159
 20
2014.620212546337
 30
0.0
 10
1084.625439715335
 20
2014.631467088685
 30
0.0
  0
SPLINE
  5
278
330
198
100
AcDbEntity
  8
P-SANR-FIXT
100
AcDbSpline
210
0.0
220
0.0
230
1.0
 70
     8
 71
     3
 72
    10
 73
     6
 74
     0
 42
0.000000001
 43
0.0000000001
 40
0.7407407407407405
 40
0.7407407407407405
 40
0.7407407407407405
 40
0.7407407407407405
 40
0.7916666666666668
 40
0.861111111111111
 40
0.9259259259259255
 40
0.9259259259259255
 40
0.9259259259259255
 40
0.9259259259259255
 10
1109.603344922315
 20
2014.631481935022
 30
0.0
 10
1109.621028137999
 20
2014.616509305481
 30
0.0
 10
1109.599248314193
 20
2014.632939706268
 30
0.0
 10
1109.376978408562
 20
2014.832569034331
 30
0.0
 10
1108.968656928122
 20
2015.137157121098
 30
0.0
 10
1108.756468343848
 20
2015.294710275879
 30
0.0
  0
LINE
  5
279
330
198
100
AcDbEntity
  8
P-SANR-FIXT
100
AcDbLine
 10
1081.114353943098
 20
1968.98255885001
 30
0.0
 11
1097.114353943098
 21
1968.98255885001
 31
0.0
  0
LINE
  5
27A
330
198
100
AcDbEntity
  8
P-SANR-FIXT
100
AcDbLine
 10
1097.114353943098
 20
1968.98255885001
 30
0.0
 11
1113.114353943098
 21
1968.98255885001
 31
0.0
  0
LINE
  5
27B
330
198
100
AcDbEntity
  8
P-SANR-FIXT
100
AcDbLine
 10
1097.114353943098
 20
1967.982558850011
 30
0.0
 11
1082.114353943098
 21
1967.982558850011
 31
0.0
  0
LINE
  5
27C
330
198
100
AcDbEntity
  8
P-SANR-FIXT
100
AcDbLine
 10
1112.114353943098
 20
1967.982558850011
 30
0.0
 11
1097.114353943098
 21
1967.982558850011
 31
0.0
  0
ENDBLK
  5
27E
330
198
100
AcDbEntity
  8
0
100
AcDbBlockEnd
  0
ENDSEC
  0
SECTION
  2
ENTITIES
  0
INSERT
  5
197
330
71
100
AcDbEntity
  8
P-SANR-FIXT
100
AcDbBlockReference
  2
Automatic flow rate regulator valve_Caleffi_121 DN15 - 1_2__-859151-Est - Idraulica
 10
0.0
 20
0.0
 30
0.0
1001
REVIT
1002
{
1070
     1
1000
863131
1002
}
1002
{
1070
     5
1000
859151
1002
}
1002
{
1070
     2
1000
-2001160
1002
}
  0
INSERT
  5
27F
330
71
100
AcDbEntity
  8
P-SANR-FIXT
100
AcDbBlockReference
  2
Automatic flow rate regulator valve_Caleffi_121 DN15 - 1_2__-V1-Est - Idraulica
 10
0.0
 20
0.0
 30
0.0
1001
REVIT
1002
{
1070
     1
1000
863172
1002
}
1002
{
1070
     5
1000
859151
1002
}
1002
{
1070
     2
1000
-2001160
1002
}
  0
ENDSEC
  0
SECTION
  2
OBJECTS
  0
DICTIONARY
  5
C
330
0
100
AcDbDictionary
281
     1
  3
ACAD_CIP_PREVIOUS_PRODUCT_INFO
350
7A
  3
ACAD_COLOR
350
63
  3
ACAD_DETAILVIEWSTYLE
350
6B
  3
ACAD_GROUP
350
D
  3
ACAD_IMAGE_VARS
350
7B
  3
ACAD_LAYOUT
350
62
  3
ACAD_MATERIAL
350
10
  3
ACAD_MLEADERSTYLE
350
66
  3
ACAD_MLINESTYLE
350
5F
  3
ACAD_PLOTSETTINGS
350
61
  3
ACAD_PLOTSTYLENAME
350
E
  3
ACAD_SCALELIST
350
42
  3
ACAD_SECTIONVIEWSTYLE
350
68
  3
ACAD_TABLESTYLE
350
64
  3
ACAD_VISUALSTYLE
350
29
  3
ACDB_RECOMPOSE_DATA
350
289
  3
AcDbVariableDictionary
350
7C
  3
REVIT_DICTIONARY
350
281
  0
DICTIONARY
  5
285
330
71
100
AcDbDictionary
280
     1
281
     1
  3
ACAD_SORTENTS
360
286
  0
XRECORD
  5
7A
102
{ACAD_REACTORS
330
C
102
}
330
C
100
AcDbXrecord
280
     1
300
RVT
300
2013
300
RVT2013
  0
DICTIONARY
  5
63
102
{ACAD_REACTORS
330
C
102
}
330
C
100
AcDbDictionary
281
     1
  0
DICTIONARY
  5
6B
102
{ACAD_REACTORS
330
C
102
}
330
C
100
AcDbDictionary
281
     1
  3
Imperial24
350
6C
  0
DICTIONARY
  5
D
102
{ACAD_REACTORS
330
C
102
}
330
C
100
AcDbDictionary
281
     1
  0
RASTERVARIABLES
  5
7B
102
{ACAD_REACTORS
330
C
102
}
330
C
100
AcDbRasterVariables
 90
        0
 70
     0
 71
     1
 72
     1
  0
DICTIONARY
  5
62
102
{ACAD_REACTORS
330
C
102
}
330
C
100
AcDbDictionary
281
     1
  3
Layout1
350
70
  3
Layout2
350
78
  3
Model
350
74
  0
DICTIONARY
  5
10
102
{ACAD_REACTORS
330
C
102
}
330
C
100
AcDbDictionary
281
     1
  3
ByBlock
350
19
  3
ByLayer
350
11
  3
Global
350
21
  0
DICTIONARY
  5
66
102
{ACAD_REACTORS
330
C
102
}
330
C
100
AcDbDictionary
281
     1
  3
Standard
350
67
  0
DICTIONARY
  5
5F
102
{ACAD_REACTORS
330
C
102
}
330
C
100
AcDbDictionary
281
     1
  3
Standard
350
60
  0
DICTIONARY
  5
61
102
{ACAD_REACTORS
330
C
102
}
330
C
100
AcDbDictionary
281
     1
  0
ACDBDICTIONARYWDFLT
  5
E
102
{ACAD_REACTORS
330
C
102
}
330
C
100
AcDbDictionary
281
     1
  3
Normal
350
F
100
AcDbDictionaryWithDefault
340
F
  0
DICTIONARY
  5
42
102
{ACAD_REACTORS
330
C
102
}
330
C
100
AcDbDictionary
281
     1
  3
A0
350
43
  3
A1
350
44
  3
A2
350
45
  3
A3
350
46
  3
A4
350
47
  3
A5
350
48
  3
A6
350
49
  3
A7
350
4A
  3
A8
350
4B
  3
A9
350
4C
  3
B0
350
4D
  3
B1
350
4E
  3
B2
350
4F
  3
B3
350
50
  3
B4
350
51
  3
B5
350
52
  3
B6
350
53
  0
DICTIONARY
  5
68
102
{ACAD_REACTORS
330
C
102
}
330
C
100
AcDbDictionary
281
     1
  3
Imperial24
350
6A
  0
DICTIONARY
  5
64
102
{ACAD_REACTORS
330
C
102
}
330
C
100
AcDbDictionary
281
     1
  3
Standard
350
65
  0
DICTIONARY
  5
29
102
{ACAD_REACTORS
330
C
102
}
330
C
100
AcDbDictionary
281
     1
  3
2dWireframe
350
2F
  3
Basic
350
2E
  3
Brighten
350
35
  3
ColorChange
350
39
  3
Conceptual
350
32
  3
Dim
350
34
  3
EdgeColorOff
350
41
  3
Facepattern
350
38
  3
Flat
350
2A
  3
FlatWithEdges
350
2B
  3
Gouraud
350
2C
  3
GouraudWithEdges
350
2D
  3
Hidden
350
31
  3
JitterOff
350
3F
  3
Linepattern
350
37
  3
OverhangOff
350
40
  3
Realistic
350
33
  3
Shaded
350
3E
  3
Shaded with edges
350
3D
  3
Shades of Gray
350
3A
  3
Sketchy
350
3B
  3
Thicken
350
36
  3
Wireframe
350
30
  3
X-Ray
350
3C
  0
XRECORD
  5
289
102
{ACAD_REACTORS
330
C
102
}
330
C
100
AcDbXrecord
280
     1
 90
        1
330
65
  0
DICTIONARY
  5
7C
102
{ACAD_REACTORS
330
C
102
}
330
C
100
AcDbDictionary
281
     1
  3
CANNOSCALE
350
81
  3
CMLEADERSTYLE
350
7E
  3
CTABLESTYLE
350
7D
  3
CVIEWDETAILSTYLE
350
7F
  3
CVIEWSECTIONSTYLE
350
80
  0
DICTIONARY
  5
281
102
{ACAD_REACTORS
330
C
102
}
330
C
100
AcDbDictionary
281
     1
  3
DRAWING_TOOL
350
284
  3
REVIT_CATEGORY_MAPPING
350
283
  3
REVIT_TYPE_MAPPING
350
282
  0
SORTENTSTABLE
  5
286
102
{ACAD_REACTORS
330
285
102
}
330
285
100
AcDbSortentsTable
330
71
  0
ACDBDETAILVIEWSTYLE
  5
6C
102
{ACAD_REACTORS
330
6B
102
}
330
6B
100
AcDbModelDocViewStyle
 70
     0
  3
Imperial24
290
     1
100
AcDbDetailViewStyle
 70
     0
 71
     0
 90
        3
 71
     1
340
55
 62
   256
 40
0.24
340
0
 62
   256
 40
0.24
300

 40
0.36
280
     3
 71
     2
340
5D
 90
       25
 62
   256
 71
     3
340
55
 62
   256
 40
0.24
 90
        1
 40
0.75
 90
        1
300
%<\AcVar ViewType \f "%tc1">% %<\AcVar ViewDetailId>%\PSCALA %<\AcVar ViewScale \f "%sn">%
 71
     4
340
5D
 90
       25
 62
   256
340
5D
 90
       25
 62
   256
280
     0
  0
LAYOUT
  5
70
102
{ACAD_REACTORS
330
62
102
}
330
62
100
AcDbPlotSettings
  1

  2

  4

  6

 40
0.0
 41
0.0
 42
0.0
 43
0.0
 44
0.0
 45
0.0
 46
0.0
 47
0.0
 48
0.0
 49
0.0
140
0.0
141
0.0
142
1.0
143
1.0
 70
   688
 72
     0
 73
     0
 74
     5
  7

 75
    16
147
1.0
 76
     0
 77
     2
 78
   300
148
0.0
149
0.0
100
AcDbLayout
  1
Layout1
 70
     1
 71
     1
 10
0.0
 20
0.0
 11
12.0
 21
9.0
 12
0.0
 22
0.0
 32
0.0
 14
0.0
 24
0.0
 34
0.0
 15
0.0
 25
0.0
 35
0.0
146
0.0
 13
0.0
 23
0.0
 33
0.0
 16
1.0
 26
0.0
 36
0.0
 17
0.0
 27
1.0
 37
0.0
 76
     0
330
6D
  0
LAYOUT
  5
78
102
{ACAD_REACTORS
330
62
102
}
330
62
100
AcDbPlotSettings
  1

  2

  4

  6

 40
0.0
 41
0.0
 42
0.0
 43
0.0
 44
0.0
 45
0.0
 46
0.0
 47
0.0
 48
0.0
 49
0.0
140
0.0
141
0.0
142
1.0
143
1.0
 70
   688
 72
     0
 73
     0
 74
     5
  7

 75
    16
147
1.0
 76
     0
 77
     2
 78
   300
148
0.0
149
0.0
100
AcDbLayout
  1
Layout2
 70
     1
 71
     2
 10
0.0
 20
0.0
 11
12.0
 21
9.0
 12
0.0
 22
0.0
 32
0.0
 14
0.0
 24
0.0
 34
0.0
 15
0.0
 25
0.0
 35
0.0
146
0.0
 13
0.0
 23
0.0
 33
0.0
 16
1.0
 26
0.0
 36
0.0
 17
0.0
 27
1.0
 37
0.0
 76
     0
330
75
  0
LAYOUT
  5
74
102
{ACAD_REACTORS
330
62
102
}
330
62
100
AcDbPlotSettings
  1

  2

  4

  6

 40
0.0
 41
0.0
 42
0.0
 43
0.0
 44
0.0
 45
0.0
 46
0.0
 47
0.0
 48
0.0
 49
0.0
140
0.0
141
0.0
142
1.0
143
1.0
 70
  1712
 72
     0
 73
     0
 74
     0
  7

 75
     0
147
1.0
 76
     0
 77
     2
 78
   300
148
0.0
149
0.0
100
AcDbLayout
  1
Model
 70
     1
 71
     0
 10
0.0
 20
0.0
 11
12.0
 21
9.0
 12
0.0
 22
0.0
 32
0.0
 14
0.0
 24
0.0
 34
0.0
 15
0.0
 25
0.0
 35
0.0
146
0.0
 13
0.0
 23
0.0
 33
0.0
 16
1.0
 26
0.0
 36
0.0
 17
0.0
 27
1.0
 37
0.0
 76
     0
330
71
  0
MATERIAL
  5
19
102
{ACAD_XDICTIONARY
360
1A
102
}
102
{ACAD_REACTORS
330
10
102
}
330
10
100
AcDbMaterial
  1
ByBlock
 72
     0
 43
0.0208333333333333
 43
0.0
 43
0.0
 43
0.0
 43
0.0
 43
0.0208333333333333
 43
0.0
 43
0.0
 43
0.0
 43
0.0
 43
1.0
 43
0.0
 43
0.0
 43
0.0
 43
0.0
 43
1.0
 77
     0
 47
0.0208333333333333
 47
0.0
 47
0.0
 47
0.0
 47
0.0
 47
0.0208333333333333
 47
0.0
 47
0.0
 47
0.0
 47
0.0
 47
1.0
 47
0.0
 47
0.0
 47
0.0
 47
0.0
 47
1.0
171
     0
 49
0.0208333333333333
 49
0.0
 49
0.0
 49
0.0
 49
0.0
 49
0.0208333333333333
 49
0.0
 49
0.0
 49
0.0
 49
0.0
 49
1.0
 49
0.0
 49
0.0
 49
0.0
 49
0.0
 49
1.0
175
     0
142
0.0208333333333333
142
0.0
142
0.0
142
0.0
142
0.0
142
0.0208333333333333
142
0.0
142
0.0
142
0.0
142
0.0
142
1.0
142
0.0
142
0.0
142
0.0
142
0.0
142
1.0
179
     0
144
0.0208333333333333
144
0.0
144
0.0
144
0.0
144
0.0
144
0.0208333333333333
144
0.0
144
0.0
144
0.0
144
0.0
144
1.0
144
0.0
144
0.0
144
0.0
144
0.0
144
1.0
147
0.0208333333333333
147
0.0
147
0.0
147
0.0
147
0.0
147
0.0208333333333333
147
0.0
147
0.0
147
0.0
147
0.0
147
1.0
147
0.0
147
0.0
147
0.0
147
0.0
147
1.0
  0
MATERIAL
  5
11
102
{ACAD_XDICTIONARY
360
12
102
}
102
{ACAD_REACTORS
330
10
102
}
330
10
100
AcDbMaterial
  1
ByLayer
 72
     0
 43
0.0208333333333333
 43
0.0
 43
0.0
 43
0.0
 43
0.0
 43
0.0208333333333333
 43
0.0
 43
0.0
 43
0.0
 43
0.0
 43
1.0
 43
0.0
 43
0.0
 43
0.0
 43
0.0
 43
1.0
 77
     0
 47
0.0208333333333333
 47
0.0
 47
0.0
 47
0.0
 47
0.0
 47
0.0208333333333333
 47
0.0
 47
0.0
 47
0.0
 47
0.0
 47
1.0
 47
0.0
 47
0.0
 47
0.0
 47
0.0
 47
1.0
171
     0
 49
0.0208333333333333
 49
0.0
 49
0.0
 49
0.0
 49
0.0
 49
0.0208333333333333
 49
0.0
 49
0.0
 49
0.0
 49
0.0
 49
1.0
 49
0.0
 49
0.0
 49
0.0
 49
0.0
 49
1.0
175
     0
142
0.0208333333333333
142
0.0
142
0.0
142
0.0
142
0.0
142
0.0208333333333333
142
0.0
142
0.0
142
0.0
142
0.0
142
1.0
142
0.0
142
0.0
142
0.0
142
0.0
142
1.0
179
     0
144
0.0208333333333333
144
0.0
144
0.0
144
0.0
144
0.0
144
0.0208333333333333
144
0.0
144
0.0
144
0.0
144
0.0
144
1.0
144
0.0
144
0.0
144
0.0
144
0.0
144
1.0
147
0.0208333333333333
147
0.0
147
0.0
147
0.0
147
0.0
147
0.0208333333333333
147
0.0
147
0.0
147
0.0
147
0.0
147
1.0
147
0.0
147
0.0
147
0.0
147
0.0
147
1.0
  0
MATERIAL
  5
21
102
{ACAD_XDICTIONARY
360
22
102
}
102
{ACAD_REACTORS
330
10
102
}
330
10
100
AcDbMaterial
  1
Global
 72
     0
 43
0.0208333333333333
 43
0.0
 43
0.0
 43
0.0
 43
0.0
 43
0.0208333333333333
 43
0.0
 43
0.0
 43
0.0
 43
0.0
 43
1.0
 43
0.0
 43
0.0
 43
0.0
 43
0.0
 43
1.0
 77
     0
 47
0.0208333333333333
 47
0.0
 47
0.0
 47
0.0
 47
0.0
 47
0.0208333333333333
 47
0.0
 47
0.0
 47
0.0
 47
0.0
 47
1.0
 47
0.0
 47
0.0
 47
0.0
 47
0.0
 47
1.0
171
     0
 49
0.0208333333333333
 49
0.0
 49
0.0
 49
0.0
 49
0.0
 49
0.0208333333333333
 49
0.0
 49
0.0
 49
0.0
 49
0.0
 49
1.0
 49
0.0
 49
0.0
 49
0.0
 49
0.0
 49
1.0
175
     0
142
0.0208333333333333
142
0.0
142
0.0
142
0.0
142
0.0
142
0.0208333333333333
142
0.0
142
0.0
142
0.0
142
0.0
142
1.0
142
0.0
142
0.0
142
0.0
142
0.0
142
1.0
179
     0
144
0.0208333333333333
144
0.0
144
0.0
144
0.0
144
0.0
144
0.0208333333333333
144
0.0
144
0.0
144
0.0
144
0.0
144
1.0
144
0.0
144
0.0
144
0.0
144
0.0
144
1.0
147
0.0208333333333333
147
0.0
147
0.0
147
0.0
147
0.0
147
0.0208333333333333
147
0.0
147
0.0
147
0.0
147
0.0
147
1.0
147
0.0
147
0.0
147
0.0
147
0.0
147
1.0
  0
MLEADERSTYLE
  5
67
102
{ACAD_REACTORS
330
66
102
}
330
66
100
AcDbMLeaderStyle
179
     2
170
     2
171
     1
172
     0
 90
        2
 40
0.0
 41
0.0
173
     1
 91
-1056964608
340
5B
 92
       -2
290
     1
 42
0.09
291
     1
 43
0.36
  3
Standard
 44
0.18
300

342
55
174
     1
178
     6
175
     1
176
     0
 93
-1056964608
 45
0.18
292
     0
297
     0
 46
0.18
 94
-1056964608
 47
1.0
 49
1.0
140
1.0
293
     1
141
0.0
294
     1
177
     0
142
1.0
295
     1
296
     0
143
0.125
271
     0
272
     9
273
     9
298
     1
  0
MLINESTYLE
  5
60
102
{ACAD_REACTORS
330
5F
102
}
330
5F
100
AcDbMlineStyle
  2
STANDARD
 70
     0
  3

 62
   256
 51
90.0
 52
90.0
 71
     2
 49
0.5
 62
   256
  6
BYLAYER
 49
-0.5
 62
   256
  6
BYLAYER
  0
ACDBPLACEHOLDER
  5
F
102
{ACAD_REACTORS
330
E
102
}
330
E
  0
SCALE
  5
43
102
{ACAD_REACTORS
330
42
102
}
330
42
100
AcDbScale
 70
     0
300
1:1
140
1.0
141
1.0
290
     1
  0
SCALE
  5
44
102
{ACAD_REACTORS
330
42
102
}
330
42
100
AcDbScale
 70
     0
300
1/128" = 1'-0"
140
0.0078125
141
12.0
290
     0
  0
SCALE
  5
45
102
{ACAD_REACTORS
330
42
102
}
330
42
100
AcDbScale
 70
     0
300
1/64" = 1'-0"
140
0.015625
141
12.0
290
     0
  0
SCALE
  5
46
102
{ACAD_REACTORS
330
42
102
}
330
42
100
AcDbScale
 70
     0
300
1/32" = 1'-0"
140
0.03125
141
12.0
290
     0
  0
SCALE
  5
47
102
{ACAD_REACTORS
330
42
102
}
330
42
100
AcDbScale
 70
     0
300
1/16" = 1'-0"
140
0.0625
141
12.0
290
     0
  0
SCALE
  5
48
102
{ACAD_REACTORS
330
42
102
}
330
42
100
AcDbScale
 70
     0
300
3/32" = 1'-0"
140
0.09375
141
12.0
290
     0
  0
SCALE
  5
49
102
{ACAD_REACTORS
330
42
102
}
330
42
100
AcDbScale
 70
     0
300
1/8" = 1'-0"
140
0.125
141
12.0
290
     0
  0
SCALE
  5
4A
102
{ACAD_REACTORS
330
42
102
}
330
42
100
AcDbScale
 70
     0
300
3/16" = 1'-0"
140
0.1875
141
12.0
290
     0
  0
SCALE
  5
4B
102
{ACAD_REACTORS
330
42
102
}
330
42
100
AcDbScale
 70
     0
300
1/4" = 1'-0"
140
0.25
141
12.0
290
     0
  0
SCALE
  5
4C
102
{ACAD_REACTORS
330
42
102
}
330
42
100
AcDbScale
 70
     0
300
3/8" = 1'-0"
140
0.375
141
12.0
290
     0
  0
SCALE
  5
4D
102
{ACAD_REACTORS
330
42
102
}
330
42
100
AcDbScale
 70
     0
300
1/2" = 1'-0"
140
0.5
141
12.0
290
     0
  0
SCALE
  5
4E
102
{ACAD_REACTORS
330
42
102
}
330
42
100
AcDbScale
 70
     0
300
3/4" = 1'-0"
140
0.75
141
12.0
290
     0
  0
SCALE
  5
4F
102
{ACAD_REACTORS
330
42
102
}
330
42
100
AcDbScale
 70
     0
300
1" = 1'-0"
140
1.0
141
12.0
290
     0
  0
SCALE
  5
50
102
{ACAD_REACTORS
330
42
102
}
330
42
100
AcDbScale
 70
     0
300
1-1/2" = 1'-0"
140
1.5
141
12.0
290
     0
  0
SCALE
  5
51
102
{ACAD_REACTORS
330
42
102
}
330
42
100
AcDbScale
 70
     0
300
3" = 1'-0"
140
3.0
141
12.0
290
     0
  0
SCALE
  5
52
102
{ACAD_REACTORS
330
42
102
}
330
42
100
AcDbScale
 70
     0
300
6" = 1'-0"
140
6.0
141
12.0
290
     0
  0
SCALE
  5
53
102
{ACAD_REACTORS
330
42
102
}
330
42
100
AcDbScale
 70
     0
300
1'-0" = 1'-0"
140
12.0
141
12.0
290
     0
  0
ACDBSECTIONVIEWSTYLE
  5
6A
102
{ACAD_REACTORS
330
68
102
}
330
68
100
AcDbModelDocViewStyle
 70
     0
  3
Imperial24
290
     1
100
AcDbSectionViewStyle
 70
     0
 71
     0
 90
       78
 71
     1
340
55
 62
   256
 40
0.24
340
0
340
0
 62
   256
 40
0.24
300
I, O, Q, S, X, Z
 40
0.48
 90
        3
 40
0.18
 90
        1
 71
     2
340
69
 90
       25
 62
   256
340
5D
 90
       50
 62
   256
 40
0.24
 40
0.0
 40
0.24
 71
     3
340
55
 62
   256
 40
0.24
 90
        1
 40
0.75
 90
        1
300
%<\AcVar ViewType \f "%tc1">% %<\AcVar ViewSectionStartId>%-%<\AcVar ViewSectionEndId>%\PSCALA %<\AcVar ViewScale \f "%sn">%
 71
     4
 62
   256
 62
   257
300
ANSI31
 40
1.0
 90
        0
290
     0
290
     0
 90
        6
 40
0.0
 40
1.570796326794896
 40
0.2617993877991494
 40
1.308996938995747
 40
-0.2617993877991494
 40
1.832595714594046
  0
TABLESTYLE
  5
65
102
{ACAD_XDICTIONARY
360
287
102
}
102
{ACAD_REACTORS
330
64
102
}
330
64
100
AcDbTableStyle
280
     0
  3
Standard
 70
     0
 71
     0
 40
0.06
 41
0.06
280
     0
281
     0
  7
Standard
140
0.18
170
     2
 62
     0
 63
     7
283
     0
 90
      512
 91
        0
  1

274
    -2
284
     1
 64
     0
275
    -2
285
     1
 65
     0
276
    -2
286
     1
 66
     0
277
    -2
287
     1
 67
     0
278
    -2
288
     1
 68
     0
279
    -2
289
     1
 69
     0
  7
Standard
140
0.25
170
     5
 62
     0
 63
     7
283
     0
 90
      512
 91
        0
  1

274
    -2
284
     1
 64
     0
275
    -2
285
     1
 65
     0
276
    -2
286
     1
 66
     0
277
    -2
287
     1
 67
     0
278
    -2
288
     1
 68
     0
279
    -2
289
     1
 69
     0
  7
Standard
140
0.18
170
     5
 62
     0
 63
     7
283
     0
 90
      512
 91
        0
  1

274
    -2
284
     1
 64
     0
275
    -2
285
     1
 65
     0
276
    -2
286
     1
 66
     0
277
    -2
287
     1
 67
     0
278
    -2
288
     1
 68
     0
279
    -2
289
     1
 69
     0
  0
VISUALSTYLE
  5
2F
102
{ACAD_REACTORS
330
29
102
}
330
29
100
AcDbVisualStyle
  2
2dWireframe
 70
     4
177
     3
291
     0
 70
    58
 90
        0
176
     1
 90
        2
176
     1
 90
        0
176
     1
 90
        0
176
     1
 40
0.6
176
     1
 40
30.0
176
     1
 62
     7
420
 16777215
176
     1
 90
        1
176
     1
 90
        4
176
     1
 62
     7
176
     1
 62
   257
176
     1
 90
        1
176
     1
 90
        1
176
     1
 40
1.0
176
     1
 90
        0
176
     1
 62
   257
176
     1
 40
1.0
176
     1
 90
        1
176
     1
 90
        6
176
     1
 90
        2
176
     1
 62
     7
176
     1
 90
        5
176
     1
 90
        0
176
     1
 90
        0
176
     1
290
     0
176
     1
 90
        1
176
     1
 40
0.0
176
     1
 90
        0
176
     1
290
     1
176
     1
290
     1
176
     1
290
     0
176
     1
290
     0
176
     1
290
     0
176
     1
290
     0
176
     1
290
     0
176
     1
290
     0
176
     1
290
     0
176
     1
 90
       50
176
     1
 40
0.0
176
     1
 40
1.0
176
     1
 90
        0
176
     1
 62
    18
420
        0
176
     1
 90
       50
176
     1
 90
        3
176
     1
 62
     5
420
      255
176
     1
290
     0
176
     1
 90
       50
176
     1
 90
       50
176
     1
 90
       50
176
     1
290
     0
176
     1
 90
       50
176
     1
 62
   256
176
     0
 40
1.0
176
     0
 90
        2
176
     1
  1
strokes_ogs.tif
176
     1
290
     0
176
     1
 40
1.0
176
     1
 40
1.0
176
     1
  0
VISUALSTYLE
  5
2E
102
{ACAD_REACTORS
330
29
102
}
330
29
100
AcDbVisualStyle
  2
Basic
 70
     7
177
     3
291
     1
 70
    58
 90
        1
176
     1
 90
        0
176
     1
 90
        1
176
     1
 90
        0
176
     1
 40
0.6
176
     1
 40
30.0
176
     1
 62
     7
420
 16777215
176
     1
 90
        0
176
     1
 90
        4
176
     1
 62
     7
176
     1
 62
   257
176
     1
 90
        1
176
     1
 90
        1
176
     1
 40
1.0
176
     1
 90
        8
176
     1
 62
     7
176
     1
 40
1.0
176
     1
 90
        1
176
     1
 90
        6
176
     1
 90
        2
176
     1
 62
     7
176
     1
 90
        5
176
     1
 90
        0
176
     1
 90
        0
176
     1
290
     0
176
     1
 90
        1
176
     1
 40
0.0
176
     1
 90
        0
176
     1
290
     0
176
     1
290
     1
176
     1
290
     1
176
     1
290
     0
176
     1
290
     0
176
     1
290
     0
176
     1
290
     0
176
     1
290
     0
176
     1
290
     0
176
     1
 90
       50
176
     1
 40
0.0
176
     1
 40
1.0
176
     1
 90
        0
176
     1
 62
    18
420
        0
176
     1
 90
       50
176
     1
 90
        3
176
     1
 62
     5
420
      255
176
     1
290
     0
176
     1
 90
       50
176
     1
 90
       50
176
     1
 90
       50
176
     1
290
     0
176
     1
 90
       50
176
     1
 62
   256
176
     0
 40
1.0
176
     0
 90
        2
176
     1
  1
strokes_ogs.tif
176
     1
290
     0
176
     1
 40
1.0
176
     1
 40
1.0
176
     1
  0
VISUALSTYLE
  5
35
102
{ACAD_REACTORS
330
29
102
}
330
29
100
AcDbVisualStyle
  2
Brighten
 70
    12
177
     3
291
     1
 70
    58
 90
        2
176
     1
 90
        2
176
     1
 90
        0
176
     1
 90
        0
176
     1
 40
0.6
176
     1
 40
30.0
176
     1
 62
     7
420
 16777215
176
     1
 90
        1
176
     1
 90
        4
176
     1
 62
     7
176
     1
 62
   257
176
     1
 90
        1
176
     1
 90
        1
176
     1
 40
1.0
176
     1
 90
        8
176
     1
 62
     7
176
     1
 40
1.0
176
     1
 90
        1
176
     1
 90
        6
176
     1
 90
        2
176
     1
 62
     7
176
     1
 90
        5
176
     1
 90
        0
176
     1
 90
        0
176
     1
290
     0
176
     1
 90
        1
176
     1
 40
50.0
176
     1
 90
        0
176
     1
290
     0
176
     1
290
     1
176
     1
290
     1
176
     1
290
     0
176
     1
290
     0
176
     1
290
     0
176
     1
290
     0
176
     1
290
     0
176
     1
290
     0
176
     1
 90
       50
176
     1
 40
0.0
176
     1
 40
1.0
176
     1
 90
        0
176
     1
 62
    18
420
        0
176
     1
 90
       50
176
     1
 90
        3
176
     1
 62
     5
420
      255
176
     1
290
     0
176
     1
 90
       50
176
     1
 90
       50
176
     1
 90
       50
176
     1
290
     0
176
     1
 90
       50
176
     1
 62
   256
176
     0
 40
1.0
176
     0
 90
        2
176
     1
  1
strokes_ogs.tif
176
     1
290
     0
176
     1
 40
1.0
176
     1
 40
1.0
176
     1
  0
VISUALSTYLE
  5
39
102
{ACAD_REACTORS
330
29
102
}
330
29
100
AcDbVisualStyle
  2
ColorChange
 70
    16
177
     3
291
     1
 70
    58
 90
        2
176
     1
 90
        2
176
     1
 90
        3
176
     1
 90
        0
176
     1
 40
0.6
176
     1
 40
30.0
176
     1
 62
     8
420
  8421504
176
     1
 90
        1
176
     1
 90
        4
176
     1
 62
     7
176
     1
 62
   257
176
     1
 90
        1
176
     1
 90
        1
176
     1
 40
1.0
176
     1
 90
        8
176
     1
 62
     8
420
  8421504
176
     1
 40
1.0
176
     1
 90
        1
176
     1
 90
        6
176
     1
 90
        2
176
     1
 62
     7
176
     1
 90
        5
176
     1
 90
        0
176
     1
 90
        0
176
     1
290
     0
176
     1
 90
        1
176
     1
 40
0.0
176
     1
 90
        0
176
     1
290
     0
176
     1
290
     1
176
     1
290
     1
176
     1
290
     0
176
     1
290
     0
176
     1
290
     0
176
     1
290
     0
176
     1
290
     0
176
     1
290
     0
176
     1
 90
       50
176
     1
 40
0.0
176
     1
 40
1.0
176
     1
 90
        0
176
     1
 62
    18
420
        0
176
     1
 90
       50
176
     1
 90
        3
176
     1
 62
     5
420
      255
176
     1
290
     0
176
     1
 90
       50
176
     1
 90
       50
176
     1
 90
       50
176
     1
290
     0
176
     1
 90
       50
176
     1
 62
   256
176
     0
 40
1.0
176
     0
 90
        2
176
     1
  1
strokes_ogs.tif
176
     1
290
     0
176
     1
 40
1.0
176
     1
 40
1.0
176
     1
  0
VISUALSTYLE
  5
32
102
{ACAD_REACTORS
330
29
102
}
330
29
100
AcDbVisualStyle
  2
Conceptual
 70
     9
177
     3
291
     0
 70
    58
 90
        3
176
     1
 90
        2
176
     1
 90
        0
176
     1
 90
        0
176
     1
 40
0.6
176
     1
 40
30.0
176
     1
 62
     7
420
 16777215
176
     1
 90
        2
176
     1
 90
        2
176
     1
 62
     7
176
     1
 62
   257
176
     1
 90
        1
176
     1
 90
        1
176
     1
 40
179.0
176
     1
 90
        8
176
     1
 62
     7
176
     1
 40
1.0
176
     1
 90
        1
176
     1
 90
        6
176
     1
 90
        2
176
     1
 62
     7
176
     1
 90
        3
176
     1
 90
        0
176
     1
 90
        0
176
     1
290
     0
176
     1
 90
        1
176
     1
 40
0.0
176
     1
 90
        0
176
     1
290
     0
176
     1
290
     1
176
     1
290
     1
176
     1
290
     0
176
     1
290
     0
176
     1
290
     0
176
     1
290
     0
176
     1
290
     0
176
     1
290
     0
176
     1
 90
       50
176
     1
 40
0.0
176
     1
 40
1.0
176
     1
 90
        0
176
     1
 62
    18
420
        0
176
     1
 90
       50
176
     1
 90
        3
176
     1
 62
     5
420
      255
176
     1
290
     0
176
     1
 90
       50
176
     1
 90
       50
176
     1
 90
       50
176
     1
290
     0
176
     1
 90
       50
176
     1
 62
   256
176
     0
 40
1.0
176
     0
 90
        2
176
     1
  1
strokes_ogs.tif
176
     1
290
     0
176
     1
 40
1.0
176
     1
 40
1.0
176
     1
  0
VISUALSTYLE
  5
34
102
{ACAD_REACTORS
330
29
102
}
330
29
100
AcDbVisualStyle
  2
Dim
 70
    11
177
     3
291
     1
 70
    58
 90
        2
176
     1
 90
        2
176
     1
 90
        0
176
     1
 90
        0
176
     1
 40
0.6
176
     1
 40
30.0
176
     1
 62
     7
420
 16777215
176
     1
 90
        1
176
     1
 90
        4
176
     1
 62
     7
176
     1
 62
   257
176
     1
 90
        1
176
     1
 90
        1
176
     1
 40
1.0
176
     1
 90
        8
176
     1
 62
     7
176
     1
 40
1.0
176
     1
 90
        1
176
     1
 90
        6
176
     1
 90
        2
176
     1
 62
     7
176
     1
 90
        5
176
     1
 90
        0
176
     1
 90
        0
176
     1
290
     0
176
     1
 90
        1
176
     1
 40
-50.0
176
     1
 90
        0
176
     1
290
     0
176
     1
290
     1
176
     1
290
     1
176
     1
290
     0
176
     1
290
     0
176
     1
290
     0
176
     1
290
     0
176
     1
290
     0
176
     1
290
     0
176
     1
 90
       50
176
     1
 40
0.0
176
     1
 40
1.0
176
     1
 90
        0
176
     1
 62
    18
420
        0
176
     1
 90
       50
176
     1
 90
        3
176
     1
 62
     5
420
      255
176
     1
290
     0
176
     1
 90
       50
176
     1
 90
       50
176
     1
 90
       50
176
     1
290
     0
176
     1
 90
       50
176
     1
 62
   256
176
     0
 40
1.0
176
     0
 90
        2
176
     1
  1
strokes_ogs.tif
176
     1
290
     0
176
     1
 40
1.0
176
     1
 40
1.0
176
     1
  0
VISUALSTYLE
  5
41
102
{ACAD_REACTORS
330
29
102
}
330
29
100
AcDbVisualStyle
  2
EdgeColorOff
 70
    22
177
     3
291
     1
 70
    58
 90
        2
176
     0
 90
        2
176
     0
 90
        0
176
     0
 90
        0
176
     0
 40
0.6
176
     0
 40
30.0
176
     0
 62
     7
420
 16777215
176
     0
 90
        1
176
     0
 90
        4
176
     0
 62
     7
176
     0
 62
   257
176
     0
 90
        1
176
     0
 90
        1
176
     0
 40
1.0
176
     0
 90
        8
176
     2
 62
     7
176
     0
 40
1.0
176
     0
 90
        1
176
     0
 90
        6
176
     0
 90
        2
176
     0
 62
     7
176
     0
 90
        5
176
     0
 90
        0
176
     0
 90
        0
176
     0
290
     0
176
     0
 90
        1
176
     0
 40
0.0
176
     0
 90
        0
176
     0
290
     0
176
     0
290
     1
176
     0
290
     1
176
     0
290
     0
176
     0
290
     0
176
     0
290
     0
176
     0
290
     0
176
     0
290
     0
176
     0
290
     0
176
     0
 90
       50
176
     0
 40
0.0
176
     0
 40
1.0
176
     0
 90
        0
176
     0
 62
    18
420
        0
176
     0
 90
       50
176
     0
 90
        3
176
     0
 62
     5
420
      255
176
     0
290
     0
176
     0
 90
       50
176
     0
 90
       50
176
     0
 90
       50
176
     0
290
     0
176
     0
 90
       50
176
     0
 62
   256
176
     0
 40
1.0
176
     0
 90
        2
176
     0
  1
strokes_ogs.tif
176
     0
290
     0
176
     0
 40
1.0
176
     0
 40
1.0
176
     0
  0
VISUALSTYLE
  5
38
102
{ACAD_REACTORS
330
29
102
}
330
29
100
AcDbVisualStyle
  2
Facepattern
 70
    15
177
     3
291
     1
 70
    58
 90
        2
176
     1
 90
        2
176
     1
 90
        0
176
     1
 90
        0
176
     1
 40
0.6
176
     1
 40
30.0
176
     1
 62
     7
420
 16777215
176
     1
 90
        1
176
     1
 90
        4
176
     1
 62
     7
176
     1
 62
   257
176
     1
 90
        1
176
     1
 90
        1
176
     1
 40
1.0
176
     1
 90
        8
176
     1
 62
     7
176
     1
 40
1.0
176
     1
 90
        1
176
     1
 90
        6
176
     1
 90
        2
176
     1
 62
     7
176
     1
 90
        5
176
     1
 90
        0
176
     1
 90
        0
176
     1
290
     0
176
     1
 90
        1
176
     1
 40
0.0
176
     1
 90
        0
176
     1
290
     0
176
     1
290
     1
176
     1
290
     1
176
     1
290
     0
176
     1
290
     0
176
     1
290
     0
176
     1
290
     0
176
     1
290
     0
176
     1
290
     0
176
     1
 90
       50
176
     1
 40
0.0
176
     1
 40
1.0
176
     1
 90
        0
176
     1
 62
    18
420
        0
176
     1
 90
       50
176
     1
 90
        3
176
     1
 62
     5
420
      255
176
     1
290
     0
176
     1
 90
       50
176
     1
 90
       50
176
     1
 90
       50
176
     1
290
     0
176
     1
 90
       50
176
     1
 62
   256
176
     0
 40
1.0
176
     0
 90
        2
176
     1
  1
strokes_ogs.tif
176
     1
290
     0
176
     1
 40
1.0
176
     1
 40
1.0
176
     1
  0
VISUALSTYLE
  5
2A
102
{ACAD_REACTORS
330
29
102
}
330
29
100
AcDbVisualStyle
  2
Flat
 70
     0
177
     3
291
     1
 70
    58
 90
        2
176
     1
 90
        1
176
     1
 90
        1
176
     1
 90
        2
176
     1
 40
0.6
176
     1
 40
30.0
176
     1
 62
     7
420
 16777215
176
     1
 90
        0
176
     1
 90
        0
176
     1
 62
     7
176
     1
 62
   257
176
     1
 90
        1
176
     1
 90
        1
176
     1
 40
1.0
176
     1
 90
        8
176
     1
 62
     7
176
     1
 40
1.0
176
     1
 90
        1
176
     1
 90
        6
176
     1
 90
        2
176
     1
 62
     7
176
     1
 90
        5
176
     1
 90
        0
176
     1
 90
        0
176
     1
290
     0
176
     1
 90
       13
176
     1
 40
0.0
176
     1
 90
        0
176
     1
290
     0
176
     1
290
     1
176
     1
290
     1
176
     1
290
     0
176
     1
290
     0
176
     1
290
     0
176
     1
290
     0
176
     1
290
     0
176
     1
290
     0
176
     1
 90
       50
176
     1
 40
0.0
176
     1
 40
1.0
176
     1
 90
        0
176
     1
 62
    18
420
        0
176
     1
 90
       50
176
     1
 90
        3
176
     1
 62
     5
420
      255
176
     1
290
     0
176
     1
 90
       50
176
     1
 90
       50
176
     1
 90
       50
176
     1
290
     0
176
     1
 90
       50
176
     1
 62
   256
176
     0
 40
1.0
176
     0
 90
        2
176
     1
  1
strokes_ogs.tif
176
     1
290
     0
176
     1
 40
1.0
176
     1
 40
1.0
176
     1
  0
VISUALSTYLE
  5
2B
102
{ACAD_REACTORS
330
29
102
}
330
29
100
AcDbVisualStyle
  2
FlatWithEdges
 70
     1
177
     3
291
     1
 70
    58
 90
        2
176
     1
 90
        1
176
     1
 90
        1
176
     1
 90
        2
176
     1
 40
0.6
176
     1
 40
30.0
176
     1
 62
     7
420
 16777215
176
     1
 90
        1
176
     1
 90
        0
176
     1
 62
     7
176
     1
 62
   257
176
     1
 90
        1
176
     1
 90
        1
176
     1
 40
1.0
176
     1
 90
        0
176
     1
 62
   257
176
     1
 40
1.0
176
     1
 90
        1
176
     1
 90
        6
176
     1
 90
        2
176
     1
 62
     7
176
     1
 90
        5
176
     1
 90
        0
176
     1
 90
        0
176
     1
290
     0
176
     1
 90
       13
176
     1
 40
0.0
176
     1
 90
        0
176
     1
290
     0
176
     1
290
     1
176
     1
290
     1
176
     1
290
     0
176
     1
290
     0
176
     1
290
     0
176
     1
290
     0
176
     1
290
     0
176
     1
290
     0
176
     1
 90
       50
176
     1
 40
0.0
176
     1
 40
1.0
176
     1
 90
        0
176
     1
 62
    18
420
        0
176
     1
 90
       50
176
     1
 90
        3
176
     1
 62
     5
420
      255
176
     1
290
     0
176
     1
 90
       50
176
     1
 90
       50
176
     1
 90
       50
176
     1
290
     0
176
     1
 90
       50
176
     1
 62
   256
176
     0
 40
1.0
176
     0
 90
        2
176
     1
  1
strokes_ogs.tif
176
     1
290
     0
176
     1
 40
1.0
176
     1
 40
1.0
176
     1
  0
VISUALSTYLE
  5
2C
102
{ACAD_REACTORS
330
29
102
}
330
29
100
AcDbVisualStyle
  2
Gouraud
 70
     2
177
     3
291
     1
 70
    58
 90
        2
176
     1
 90
        2
176
     1
 90
        1
176
     1
 90
        2
176
     1
 40
0.6
176
     1
 40
30.0
176
     1
 62
     7
420
 16777215
176
     1
 90
        0
176
     1
 90
        0
176
     1
 62
     7
176
     1
 62
   257
176
     1
 90
        1
176
     1
 90
        1
176
     1
 40
1.0
176
     1
 90
        0
176
     1
 62
     7
176
     1
 40
1.0
176
     1
 90
        1
176
     1
 90
        6
176
     1
 90
        2
176
     1
 62
     7
176
     1
 90
        5
176
     1
 90
        0
176
     1
 90
        0
176
     1
290
     0
176
     1
 90
       13
176
     1
 40
0.0
176
     1
 90
        0
176
     1
290
     0
176
     1
290
     1
176
     1
290
     1
176
     1
290
     0
176
     1
290
     0
176
     1
290
     0
176
     1
290
     0
176
     1
290
     0
176
     1
290
     0
176
     1
 90
       50
176
     1
 40
0.0
176
     1
 40
1.0
176
     1
 90
        0
176
     1
 62
    18
420
        0
176
     1
 90
       50
176
     1
 90
        3
176
     1
 62
     5
420
      255
176
     1
290
     0
176
     1
 90
       50
176
     1
 90
       50
176
     1
 90
       50
176
     1
290
     0
176
     1
 90
       50
176
     1
 62
   256
176
     0
 40
1.0
176
     0
 90
        2
176
     1
  1
strokes_ogs.tif
176
     1
290
     0
176
     1
 40
1.0
176
     1
 40
1.0
176
     1
  0
VISUALSTYLE
  5
2D
102
{ACAD_REACTORS
330
29
102
}
330
29
100
AcDbVisualStyle
  2
GouraudWithEdges
 70
     3
177
     3
291
     1
 70
    58
 90
        2
176
     1
 90
        2
176
     1
 90
        1
176
     1
 90
        2
176
     1
 40
0.6
176
     1
 40
30.0
176
     1
 62
     7
420
 16777215
176
     1
 90
        1
176
     1
 90
        0
176
     1
 62
     7
176
     1
 62
   257
176
     1
 90
        1
176
     1
 90
        1
176
     1
 40
1.0
176
     1
 90
        0
176
     1
 62
   257
176
     1
 40
1.0
176
     1
 90
        1
176
     1
 90
        6
176
     1
 90
        2
176
     1
 62
     7
176
     1
 90
        5
176
     1
 90
        0
176
     1
 90
        0
176
     1
290
     0
176
     1
 90
       13
176
     1
 40
0.0
176
     1
 90
        0
176
     1
290
     0
176
     1
290
     1
176
     1
290
     1
176
     1
290
     0
176
     1
290
     0
176
     1
290
     0
176
     1
290
     0
176
     1
290
     0
176
     1
290
     0
176
     1
 90
       50
176
     1
 40
0.0
176
     1
 40
1.0
176
     1
 90
        0
176
     1
 62
    18
420
        0
176
     1
 90
       50
176
     1
 90
        3
176
     1
 62
     5
420
      255
176
     1
290
     0
176
     1
 90
       50
176
     1
 90
       50
176
     1
 90
       50
176
     1
290
     0
176
     1
 90
       50
176
     1
 62
   256
176
     0
 40
1.0
176
     0
 90
        2
176
     1
  1
strokes_ogs.tif
176
     1
290
     0
176
     1
 40
1.0
176
     1
 40
1.0
176
     1
  0
VISUALSTYLE
  5
31
102
{ACAD_REACTORS
330
29
102
}
330
29
100
AcDbVisualStyle
  2
Hidden
 70
     6
177
     3
291
     0
 70
    58
 90
        1
176
     1
 90
        2
176
     1
 90
        2
176
     1
 90
        0
176
     1
 40
0.6
176
     1
 40
30.0
176
     1
 62
     7
420
 16777215
176
     1
 90
        2
176
     1
 90
        2
176
     1
 62
     7
176
     1
 62
   257
176
     1
 90
        2
176
     1
 90
        1
176
     1
 40
40.0
176
     1
 90
        0
176
     1
 62
   257
176
     1
 40
1.0
176
     1
 90
        1
176
     1
 90
        6
176
     1
 90
        2
176
     1
 62
     7
176
     1
 90
        3
176
     1
 90
        0
176
     1
 90
        0
176
     1
290
     0
176
     1
 90
        1
176
     1
 40
0.0
176
     1
 90
        0
176
     1
290
     0
176
     1
290
     1
176
     1
290
     1
176
     1
290
     0
176
     1
290
     0
176
     1
290
     0
176
     1
290
     0
176
     1
290
     0
176
     1
290
     0
176
     1
 90
       50
176
     1
 40
0.0
176
     1
 40
1.0
176
     1
 90
        0
176
     1
 62
    18
420
        0
176
     1
 90
       50
176
     1
 90
        3
176
     1
 62
     5
420
      255
176
     1
290
     0
176
     1
 90
       50
176
     1
 90
       50
176
     1
 90
       50
176
     1
290
     0
176
     1
 90
       50
176
     1
 62
   256
176
     0
 40
1.0
176
     0
 90
        2
176
     1
  1
strokes_ogs.tif
176
     1
290
     0
176
     1
 40
1.0
176
     1
 40
1.0
176
     1
  0
VISUALSTYLE
  5
3F
102
{ACAD_REACTORS
330
29
102
}
330
29
100
AcDbVisualStyle
  2
JitterOff
 70
    20
177
     3
291
     1
 70
    58
 90
        2
176
     0
 90
        2
176
     0
 90
        0
176
     0
 90
        0
176
     0
 40
0.6
176
     0
 40
30.0
176
     0
 62
     7
420
 16777215
176
     0
 90
        1
176
     0
 90
        4
176
     0
 62
     7
176
     0
 62
   257
176
     0
 90
        1
176
     0
 90
        1
176
     0
 40
1.0
176
     0
 90
       10
176
     2
 62
     7
176
     0
 40
1.0
176
     0
 90
        1
176
     0
 90
        6
176
     0
 90
        2
176
     0
 62
     7
176
     0
 90
        5
176
     0
 90
        0
176
     0
 90
        0
176
     0
290
     0
176
     0
 90
        1
176
     0
 40
0.0
176
     0
 90
        0
176
     0
290
     0
176
     0
290
     1
176
     0
290
     1
176
     0
290
     0
176
     0
290
     0
176
     0
290
     0
176
     0
290
     0
176
     0
290
     0
176
     0
290
     0
176
     0
 90
       50
176
     0
 40
0.0
176
     0
 40
1.0
176
     0
 90
        0
176
     0
 62
    18
420
        0
176
     0
 90
       50
176
     0
 90
        3
176
     0
 62
     5
420
      255
176
     0
290
     0
176
     0
 90
       50
176
     0
 90
       50
176
     0
 90
       50
176
     0
290
     0
176
     0
 90
       50
176
     0
 62
   256
176
     0
 40
1.0
176
     0
 90
        2
176
     0
  1
strokes_ogs.tif
176
     0
290
     0
176
     0
 40
1.0
176
     0
 40
1.0
176
     0
  0
VISUALSTYLE
  5
37
102
{ACAD_REACTORS
330
29
102
}
330
29
100
AcDbVisualStyle
  2
Linepattern
 70
    14
177
     3
291
     1
 70
    58
 90
        2
176
     1
 90
        2
176
     1
 90
        0
176
     1
 90
        0
176
     1
 40
0.6
176
     1
 40
30.0
176
     1
 62
     7
420
 16777215
176
     1
 90
        1
176
     1
 90
        4
176
     1
 62
     7
176
     1
 62
   257
176
     1
 90
        7
176
     1
 90
        7
176
     1
 40
1.0
176
     1
 90
        8
176
     1
 62
     7
176
     1
 40
1.0
176
     1
 90
        1
176
     1
 90
        6
176
     1
 90
        2
176
     1
 62
     7
176
     1
 90
        5
176
     1
 90
        0
176
     1
 90
        0
176
     1
290
     0
176
     1
 90
        1
176
     1
 40
0.0
176
     1
 90
        0
176
     1
290
     0
176
     1
290
     1
176
     1
290
     1
176
     1
290
     0
176
     1
290
     0
176
     1
290
     0
176
     1
290
     0
176
     1
290
     0
176
     1
290
     0
176
     1
 90
       50
176
     1
 40
0.0
176
     1
 40
1.0
176
     1
 90
        0
176
     1
 62
    18
420
        0
176
     1
 90
       50
176
     1
 90
        3
176
     1
 62
     5
420
      255
176
     1
290
     0
176
     1
 90
       50
176
     1
 90
       50
176
     1
 90
       50
176
     1
290
     0
176
     1
 90
       50
176
     1
 62
   256
176
     0
 40
1.0
176
     0
 90
        2
176
     1
  1
strokes_ogs.tif
176
     1
290
     0
176
     1
 40
1.0
176
     1
 40
1.0
176
     1
  0
VISUALSTYLE
  5
40
102
{ACAD_REACTORS
330
29
102
}
330
29
100
AcDbVisualStyle
  2
OverhangOff
 70
    21
177
     3
291
     1
 70
    58
 90
        2
176
     0
 90
        2
176
     0
 90
        0
176
     0
 90
        0
176
     0
 40
0.6
176
     0
 40
30.0
176
     0
 62
     7
420
 16777215
176
     0
 90
        1
176
     0
 90
        4
176
     0
 62
     7
176
     0
 62
   257
176
     0
 90
        1
176
     0
 90
        1
176
     0
 40
1.0
176
     0
 90
        9
176
     2
 62
     7
176
     0
 40
1.0
176
     0
 90
        1
176
     0
 90
        6
176
     0
 90
        2
176
     0
 62
     7
176
     0
 90
        5
176
     0
 90
        0
176
     0
 90
        0
176
     0
290
     0
176
     0
 90
        1
176
     0
 40
0.0
176
     0
 90
        0
176
     0
290
     0
176
     0
290
     1
176
     0
290
     1
176
     0
290
     0
176
     0
290
     0
176
     0
290
     0
176
     0
290
     0
176
     0
290
     0
176
     0
290
     0
176
     0
 90
       50
176
     0
 40
0.0
176
     0
 40
1.0
176
     0
 90
        0
176
     0
 62
    18
420
        0
176
     0
 90
       50
176
     0
 90
        3
176
     0
 62
     5
420
      255
176
     0
290
     0
176
     0
 90
       50
176
     0
 90
       50
176
     0
 90
       50
176
     0
290
     0
176
     0
 90
       50
176
     0
 62
   256
176
     0
 40
1.0
176
     0
 90
        2
176
     0
  1
strokes_ogs.tif
176
     0
290
     0
176
     0
 40
1.0
176
     0
 40
1.0
176
     0
  0
VISUALSTYLE
  5
33
102
{ACAD_REACTORS
330
29
102
}
330
29
100
AcDbVisualStyle
  2
Realistic
 70
     8
177
     3
291
     0
 70
    58
 90
        2
176
     1
 90
        3
176
     1
 90
        0
176
     1
 90
        2
176
     1
 40
0.6
176
     1
 40
30.0
176
     1
 62
     7
420
 16777215
176
     1
 90
        0
176
     1
 90
        0
176
     1
 62
     7
176
     1
 62
   257
176
     1
 90
        1
176
     1
 90
        1
176
     1
 40
1.0
176
     1
 90
        8
176
     1
 62
   257
176
     1
 40
1.0
176
     1
 90
        1
176
     1
 90
        6
176
     1
 90
        2
176
     1
 62
     7
176
     1
 90
        3
176
     1
 90
        0
176
     1
 90
        0
176
     1
290
     0
176
     1
 90
       13
176
     1
 40
0.0
176
     1
 90
        0
176
     1
290
     0
176
     1
290
     1
176
     1
290
     1
176
     1
290
     0
176
     1
290
     0
176
     1
290
     0
176
     1
290
     0
176
     1
290
     0
176
     1
290
     0
176
     1
 90
       50
176
     1
 40
0.0
176
     1
 40
1.0
176
     1
 90
        0
176
     1
 62
    18
420
        0
176
     1
 90
       50
176
     1
 90
        3
176
     1
 62
     5
420
      255
176
     1
290
     0
176
     1
 90
       50
176
     1
 90
       50
176
     1
 90
       50
176
     1
290
     0
176
     1
 90
       50
176
     1
 62
   256
176
     0
 40
1.0
176
     0
 90
        2
176
     1
  1
strokes_ogs.tif
176
     1
290
     0
176
     1
 40
1.0
176
     1
 40
1.0
176
     1
  0
VISUALSTYLE
  5
3E
102
{ACAD_REACTORS
330
29
102
}
330
29
100
AcDbVisualStyle
  2
Shaded
 70
    27
177
     3
291
     0
 70
    58
 90
        2
176
     1
 90
        2
176
     1
 90
        1
176
     1
 90
        2
176
     1
 40
0.6
176
     1
 40
30.0
176
     1
 62
     7
420
 16777215
176
     1
 90
        0
176
     1
 90
        4
176
     1
 62
     7
176
     1
 62
   257
176
     1
 90
        1
176
     1
 90
        1
176
     1
 40
1.0
176
     1
 90
        8
176
     1
 62
   257
176
     1
 40
1.0
176
     1
 90
        1
176
     1
 90
        6
176
     1
 90
        2
176
     1
 62
     8
420
  7895160
176
     1
 90
        3
176
     1
 90
        0
176
     1
 90
        0
176
     1
290
     0
176
     1
 90
        5
176
     1
 40
0.0
176
     1
 90
        0
176
     1
290
     0
176
     1
290
     1
176
     1
290
     1
176
     1
290
     0
176
     1
290
     0
176
     1
290
     0
176
     1
290
     0
176
     1
290
     0
176
     1
290
     0
176
     1
 90
       50
176
     1
 40
0.0
176
     1
 40
1.0
176
     1
 90
        0
176
     1
 62
    18
420
        0
176
     1
 90
       50
176
     1
 90
        3
176
     1
 62
     5
420
      255
176
     1
290
     0
176
     1
 90
       50
176
     1
 90
       50
176
     1
 90
       50
176
     1
290
     0
176
     1
 90
       50
176
     1
 62
   256
176
     0
 40
1.0
176
     0
 90
        2
176
     1
  1
strokes_ogs.tif
176
     1
290
     0
176
     1
 40
1.0
176
     1
 40
1.0
176
     1
  0
VISUALSTYLE
  5
3D
102
{ACAD_REACTORS
330
29
102
}
330
29
100
AcDbVisualStyle
  2
Shaded with edges
 70
    26
177
     3
291
     0
 70
    58
 90
        2
176
     1
 90
        2
176
     1
 90
        1
176
     1
 90
        2
176
     1
 40
0.6
176
     1
 40
30.0
176
     1
 62
     7
420
 16777215
176
     1
 90
        1
176
     1
 90
       10
176
     1
 62
     7
176
     1
 62
   257
176
     1
 90
        2
176
     1
 90
        1
176
     1
 40
1.0
176
     1
 90
        8
176
     1
 62
   257
176
     1
 40
1.0
176
     1
 90
        1
176
     1
 90
        6
176
     1
 90
        2
176
     1
 62
     7
176
     1
 90
        3
176
     1
 90
        0
176
     1
 90
        0
176
     1
290
     0
176
     1
 90
        5
176
     1
 40
0.0
176
     1
 90
        0
176
     1
290
     0
176
     1
290
     1
176
     1
290
     1
176
     1
290
     0
176
     1
290
     0
176
     1
290
     0
176
     1
290
     0
176
     1
290
     0
176
     1
290
     0
176
     1
 90
       50
176
     1
 40
0.0
176
     1
 40
1.0
176
     1
 90
        0
176
     1
 62
    18
420
        0
176
     1
 90
       50
176
     1
 90
        3
176
     1
 62
     5
420
      255
176
     1
290
     0
176
     1
 90
       50
176
     1
 90
       50
176
     1
 90
       50
176
     1
290
     0
176
     1
 90
       50
176
     1
 62
   256
176
     0
 40
1.0
176
     0
 90
        2
176
     1
  1
strokes_ogs.tif
176
     1
290
     0
176
     1
 40
1.0
176
     1
 40
1.0
176
     1
  0
VISUALSTYLE
  5
3A
102
{ACAD_REACTORS
330
29
102
}
330
29
100
AcDbVisualStyle
  2
Shades of Gray
 70
    23
177
     3
291
     0
 70
    58
 90
        2
176
     1
 90
        2
176
     1
 90
        3
176
     1
 90
        0
176
     1
 40
0.6
176
     1
 40
30.0
176
     1
 62
     7
420
 16777215
176
     1
 90
        2
176
     1
 90
        2
176
     1
 62
     7
176
     1
 62
     7
176
     1
 90
        1
176
     1
 90
        1
176
     1
 40
40.0
176
     1
 90
        8
176
     1
 62
     7
176
     1
 40
1.0
176
     1
 90
        1
176
     1
 90
        6
176
     1
 90
        2
176
     1
 62
     7
176
     1
 90
        3
176
     1
 90
        0
176
     1
 90
        0
176
     1
290
     0
176
     1
 90
        1
176
     1
 40
0.0
176
     1
 90
        0
176
     1
290
     0
176
     1
290
     1
176
     1
290
     1
176
     1
290
     0
176
     1
290
     0
176
     1
290
     0
176
     1
290
     0
176
     1
290
     0
176
     1
290
     0
176
     1
 90
       50
176
     1
 40
0.0
176
     1
 40
1.0
176
     1
 90
        0
176
     1
 62
    18
420
        0
176
     1
 90
       50
176
     1
 90
        3
176
     1
 62
     5
420
      255
176
     1
290
     0
176
     1
 90
       50
176
     1
 90
       50
176
     1
 90
       50
176
     1
290
     0
176
     1
 90
       50
176
     1
 62
   256
176
     0
 40
1.0
176
     0
 90
        2
176
     1
  1
strokes_ogs.tif
176
     1
290
     0
176
     1
 40
1.0
176
     1
 40
1.0
176
     1
  0
VISUALSTYLE
  5
3B
102
{ACAD_REACTORS
330
29
102
}
330
29
100
AcDbVisualStyle
  2
Sketchy
 70
    24
177
     3
291
     0
 70
    58
 90
        1
176
     1
 90
        2
176
     1
 90
        2
176
     1
 90
        0
176
     1
 40
0.6
176
     1
 40
30.0
176
     1
 62
     7
420
 16777215
176
     1
 90
        2
176
     1
 90
        2
176
     1
 62
     7
176
     1
 62
     7
176
     1
 90
        1
176
     1
 90
        1
176
     1
 40
40.0
176
     1
 90
       11
176
     1
 62
     7
176
     1
 40
1.0
176
     1
 90
        1
176
     1
 90
        6
176
     1
 90
        2
176
     1
 62
     7
176
     1
 90
        6
176
     1
 90
        0
176
     1
 90
        0
176
     1
290
     0
176
     1
 90
        1
176
     1
 40
0.0
176
     1
 90
        0
176
     1
290
     0
176
     1
290
     1
176
     1
290
     1
176
     1
290
     0
176
     1
290
     0
176
     1
290
     0
176
     1
290
     0
176
     1
290
     0
176
     1
290
     0
176
     1
 90
       50
176
     1
 40
0.0
176
     1
 40
1.0
176
     1
 90
        0
176
     1
 62
    18
420
        0
176
     1
 90
       50
176
     1
 90
        3
176
     1
 62
     5
420
      255
176
     1
290
     0
176
     1
 90
       50
176
     1
 90
       50
176
     1
 90
       50
176
     1
290
     0
176
     1
 90
       50
176
     1
 62
   256
176
     0
 40
1.0
176
     0
 90
        2
176
     1
  1
strokes_ogs.tif
176
     1
290
     0
176
     1
 40
1.0
176
     1
 40
1.0
176
     1
  0
VISUALSTYLE
  5
36
102
{ACAD_REACTORS
330
29
102
}
330
29
100
AcDbVisualStyle
  2
Thicken
 70
    13
177
     3
291
     1
 70
    58
 90
        2
176
     1
 90
        2
176
     1
 90
        0
176
     1
 90
        0
176
     1
 40
0.6
176
     1
 40
30.0
176
     1
 62
     7
420
 16777215
176
     1
 90
        1
176
     1
 90
        4
176
     1
 62
     7
176
     1
 62
   257
176
     1
 90
        1
176
     1
 90
        1
176
     1
 40
1.0
176
     1
 90
       12
176
     1
 62
     7
176
     1
 40
1.0
176
     1
 90
        1
176
     1
 90
        6
176
     1
 90
        2
176
     1
 62
     7
176
     1
 90
        5
176
     1
 90
        0
176
     1
 90
        0
176
     1
290
     0
176
     1
 90
        1
176
     1
 40
0.0
176
     1
 90
        0
176
     1
290
     0
176
     1
290
     1
176
     1
290
     1
176
     1
290
     0
176
     1
290
     0
176
     1
290
     0
176
     1
290
     0
176
     1
290
     0
176
     1
290
     0
176
     1
 90
       50
176
     1
 40
0.0
176
     1
 40
1.0
176
     1
 90
        0
176
     1
 62
    18
420
        0
176
     1
 90
       50
176
     1
 90
        3
176
     1
 62
     5
420
      255
176
     1
290
     0
176
     1
 90
       50
176
     1
 90
       50
176
     1
 90
       50
176
     1
290
     0
176
     1
 90
       50
176
     1
 62
   256
176
     0
 40
1.0
176
     0
 90
        2
176
     1
  1
strokes_ogs.tif
176
     1
290
     0
176
     1
 40
1.0
176
     1
 40
1.0
176
     1
  0
VISUALSTYLE
  5
30
102
{ACAD_REACTORS
330
29
102
}
330
29
100
AcDbVisualStyle
  2
Wireframe
 70
     5
177
     3
291
     0
 70
    58
 90
        0
176
     1
 90
        2
176
     1
 90
        0
176
     1
 90
        0
176
     1
 40
0.6
176
     1
 40
30.0
176
     1
 62
     7
420
 16777215
176
     1
 90
        1
176
     1
 90
        4
176
     1
 62
     7
176
     1
 62
   257
176
     1
 90
        1
176
     1
 90
        1
176
     1
 40
1.0
176
     1
 90
        0
176
     1
 62
   257
176
     1
 40
1.0
176
     1
 90
        1
176
     1
 90
        6
176
     1
 90
        2
176
     1
 62
     7
176
     1
 90
        3
176
     1
 90
        0
176
     1
 90
        0
176
     1
290
     0
176
     1
 90
        1
176
     1
 40
0.0
176
     1
 90
        0
176
     1
290
     0
176
     1
290
     1
176
     1
290
     1
176
     1
290
     0
176
     1
290
     0
176
     1
290
     0
176
     1
290
     0
176
     1
290
     0
176
     1
290
     0
176
     1
 90
       50
176
     1
 40
0.0
176
     1
 40
1.0
176
     1
 90
        0
176
     1
 62
    18
420
        0
176
     1
 90
       50
176
     1
 90
        3
176
     1
 62
     5
420
      255
176
     1
290
     0
176
     1
 90
       50
176
     1
 90
       50
176
     1
 90
       50
176
     1
290
     0
176
     1
 90
       50
176
     1
 62
   256
176
     0
 40
1.0
176
     0
 90
        2
176
     1
  1
strokes_ogs.tif
176
     1
290
     0
176
     1
 40
1.0
176
     1
 40
1.0
176
     1
  0
VISUALSTYLE
  5
3C
102
{ACAD_REACTORS
330
29
102
}
330
29
100
AcDbVisualStyle
  2
X-Ray
 70
    25
177
     3
291
     0
 70
    58
 90
        2
176
     1
 90
        2
176
     1
 90
        1
176
     1
 90
        1
176
     1
 40
0.5
176
     1
 40
30.0
176
     1
 62
     7
420
 16777215
176
     1
 90
        1
176
     1
 90
        0
176
     1
 62
     7
176
     1
 62
   257
176
     1
 90
        1
176
     1
 90
        1
176
     1
 40
1.0
176
     1
 90
        8
176
     1
 62
     7
176
     1
 40
1.0
176
     1
 90
        1
176
     1
 90
        6
176
     1
 90
        2
176
     1
 62
     7
176
     1
 90
        3
176
     1
 90
        0
176
     1
 90
        0
176
     1
290
     0
176
     1
 90
       13
176
     1
 40
0.0
176
     1
 90
        0
176
     1
290
     0
176
     1
290
     1
176
     1
290
     1
176
     1
290
     0
176
     1
290
     0
176
     1
290
     0
176
     1
290
     0
176
     1
290
     0
176
     1
290
     0
176
     1
 90
       50
176
     1
 40
0.0
176
     1
 40
1.0
176
     1
 90
        0
176
     1
 62
    18
420
        0
176
     1
 90
       50
176
     1
 90
        3
176
     1
 62
     5
420
      255
176
     1
290
     0
176
     1
 90
       50
176
     1
 90
       50
176
     1
 90
       50
176
     1
290
     0
176
     1
 90
       50
176
     1
 62
   256
176
     0
 40
1.0
176
     0
 90
        2
176
     1
  1
strokes_ogs.tif
176
     1
290
     0
176
     1
 40
1.0
176
     1
 40
1.0
176
     1
  0
DICTIONARYVAR
  5
81
102
{ACAD_REACTORS
330
7C
102
}
330
7C
100
DictionaryVariables
280
     0
  1
1:1
  0
DICTIONARYVAR
  5
7E
102
{ACAD_REACTORS
330
7C
102
}
330
7C
100
DictionaryVariables
280
     0
  1
STANDARD
  0
DICTIONARYVAR
  5
7D
102
{ACAD_REACTORS
330
7C
102
}
330
7C
100
DictionaryVariables
280
     0
  1
STANDARD
  0
DICTIONARYVAR
  5
7F
102
{ACAD_REACTORS
330
7C
102
}
330
7C
100
DictionaryVariables
280
     0
  1
Imperial24
  0
DICTIONARYVAR
  5
80
102
{ACAD_REACTORS
330
7C
102
}
330
7C
100
DictionaryVariables
280
     0
  1
Imperial24
  0
XRECORD
  5
284
102
{ACAD_REACTORS
330
281
102
}
330
281
100
AcDbXrecord
280
     1
  1
BUILDING_ID
  1
Progetto per messa in tavola DXF, DWG
  1
FLOOR_ID
  1
694395
  0
XRECORD
  5
283
102
{ACAD_REACTORS
330
281
102
}
330
281
100
AcDbXrecord
280
     1
  1
-2001160
  1
Apparecchi idraulici
  0
XRECORD
  5
282
102
{ACAD_REACTORS
330
281
102
}
330
281
100
AcDbXrecord
280
     1
  1
859151
  1
Automatic flow rate regulator valve_Caleffi_121 DN15 : 1/2''
  0
DICTIONARY
  5
1A
330
19
100
AcDbDictionary
280
     1
281
     1
  3
BUMPTILE
360
1C
  3
DIFFUSETILE
360
1B
  3
OPACITYTILE
360
1F
  3
REFLECTIONTILE
360
1E
  3
REFRACTIONTILE
360
20
  3
SPECULARTILE
360
1D
  0
DICTIONARY
  5
12
330
11
100
AcDbDictionary
280
     1
281
     1
  3
BUMPTILE
360
14
  3
DIFFUSETILE
360
13
  3
OPACITYTILE
360
17
  3
REFLECTIONTILE
360
16
  3
REFRACTIONTILE
360
18
  3
SPECULARTILE
360
15
  0
DICTIONARY
  5
22
330
21
100
AcDbDictionary
280
     1
281
     1
  3
BUMPTILE
360
24
  3
DIFFUSETILE
360
23
  3
OPACITYTILE
360
27
  3
REFLECTIONTILE
360
26
  3
REFRACTIONTILE
360
28
  3
SPECULARTILE
360
25
  0
DICTIONARY
  5
287
330
65
100
AcDbDictionary
280
     1
281
     1
  3
ACAD_ROUNDTRIP_2008_TABLESTYLE_CELLSTYLEMAP
360
288
  0
XRECORD
  5
1C
102
{ACAD_REACTORS
330
1A
102
}
330
1A
100
AcDbXrecord
280
     1
270
     1
271
     1
  0
XRECORD
  5
1B
102
{ACAD_REACTORS
330
1A
102
}
330
1A
100
AcDbXrecord
280
     1
270
     1
271
     1
  0
XRECORD
  5
1F
102
{ACAD_REACTORS
330
1A
102
}
330
1A
100
AcDbXrecord
280
     1
270
     1
271
     1
  0
XRECORD
  5
1E
102
{ACAD_REACTORS
330
1A
102
}
330
1A
100
AcDbXrecord
280
     1
270
     1
271
     1
  0
XRECORD
  5
20
102
{ACAD_REACTORS
330
1A
102
}
330
1A
100
AcDbXrecord
280
     1
270
     1
271
     1
  0
XRECORD
  5
1D
102
{ACAD_REACTORS
330
1A
102
}
330
1A
100
AcDbXrecord
280
     1
270
     1
271
     1
  0
XRECORD
  5
14
102
{ACAD_REACTORS
330
12
102
}
330
12
100
AcDbXrecord
280
     1
270
     1
271
     1
  0
XRECORD
  5
13
102
{ACAD_REACTORS
330
12
102
}
330
12
100
AcDbXrecord
280
     1
270
     1
271
     1
  0
XRECORD
  5
17
102
{ACAD_REACTORS
330
12
102
}
330
12
100
AcDbXrecord
280
     1
270
     1
271
     1
  0
XRECORD
  5
16
102
{ACAD_REACTORS
330
12
102
}
330
12
100
AcDbXrecord
280
     1
270
     1
271
     1
  0
XRECORD
  5
18
102
{ACAD_REACTORS
330
12
102
}
330
12
100
AcDbXrecord
280
     1
270
     1
271
     1
  0
XRECORD
  5
15
102
{ACAD_REACTORS
330
12
102
}
330
12
100
AcDbXrecord
280
     1
270
     1
271
     1
  0
XRECORD
  5
24
102
{ACAD_REACTORS
330
22
102
}
330
22
100
AcDbXrecord
280
     1
270
     1
271
     1
  0
XRECORD
  5
23
102
{ACAD_REACTORS
330
22
102
}
330
22
100
AcDbXrecord
280
     1
270
     1
271
     1
  0
XRECORD
  5
27
102
{ACAD_REACTORS
330
22
102
}
330
22
100
AcDbXrecord
280
     1
270
     1
271
     1
  0
XRECORD
  5
26
102
{ACAD_REACTORS
330
22
102
}
330
22
100
AcDbXrecord
280
     1
270
     1
271
     1
  0
XRECORD
  5
28
102
{ACAD_REACTORS
330
22
102
}
330
22
100
AcDbXrecord
280
     1
270
     1
271
     1
  0
XRECORD
  5
25
102
{ACAD_REACTORS
330
22
102
}
330
22
100
AcDbXrecord
280
     1
270
     1
271
     1
  0
CELLSTYLEMAP
  5
288
102
{ACAD_REACTORS
330
287
102
}
330
287
100
AcDbCellStyleMap
 90
        3
300
CELLSTYLE
  1
TABLEFORMAT_BEGIN
 90
        5
170
     1
 91
        0
 92
    32768
 62
   257
 93
        1
300
CONTENTFORMAT
  1
CONTENTFORMAT_BEGIN
 90
        0
 91
        0
 92
      512
 93
        0
300

 40
0.0
140
1.0
 94
        5
 62
     0
340
55
144
0.25
309
CONTENTFORMAT_END
171
     0
 94
        0
309
TABLEFORMAT_END
  1
CELLSTYLE_BEGIN
 90
        1
 91
        1
300
_TITLE
309
CELLSTYLE_END
300
CELLSTYLE
  1
TABLEFORMAT_BEGIN
 90
        5
170
     1
 91
        0
 92
        0
 62
   257
 93
        1
300
CONTENTFORMAT
  1
CONTENTFORMAT_BEGIN
 90
        0
 91
        0
 92
      512
 93
        0
300

 40
0.0
140
1.0
 94
        5
 62
     0
340
55
144
0.18
309
CONTENTFORMAT_END
171
     0
 94
        0
309
TABLEFORMAT_END
  1
CELLSTYLE_BEGIN
 90
        2
 91
        1
300
_HEADER
309
CELLSTYLE_END
300
CELLSTYLE
  1
TABLEFORMAT_BEGIN
 90
        5
170
     1
 91
        0
 92
        0
 62
   257
 93
        1
300
CONTENTFORMAT
  1
CONTENTFORMAT_BEGIN
 90
        0
 91
        0
 92
      512
 93
        0
300

 40
0.0
140
1.0
 94
        2
 62
     0
340
55
144
0.18
309
CONTENTFORMAT_END
171
     0
 94
        0
309
TABLEFORMAT_END
  1
CELLSTYLE_BEGIN
 90
        3
 91
        2
300
_DATA
309
CELLSTYLE_END
  0
ENDSEC
  0
EOF
