  0
SECTION
  2
HEADER
  9
$ACADVER
  1
AC1027
  9
$ACADMAINTVER
 70
    20
  9
$DWGCODEPAGE
  3
ANSI_1252
  9
$REQUIREDVERSIONS
160
                 0
  9
$INSBASE
 10
0.0
 20
0.0
 30
0.0
  9
$EXTMIN
 10
668.971846491993
 20
1724.982573440276
 30
-0.00000001
  9
$EXTMAX
 10
1361.114353953097
 20
2324.999999999995
 30
0.00000001
  9
$LIMMIN
 10
0.0
 20
0.0
  9
$LIMMAX
 10
12.0
 20
9.0
  9
$ORTHOMODE
 70
     0
  9
$REGENMODE
 70
     1
  9
$FILLMODE
 70
     1
  9
$QTEXTMODE
 70
     0
  9
$MIRRTEXT
 70
     0
  9
$LTSCALE
 40
1.0
  9
$ATTMODE
 70
     1
  9
$TEXTSIZE
 40
0.2
  9
$TRACEWID
 40
0.05
  9
$TEXTSTYLE
  7
Standard
  9
$CLAYER
  8
0
  9
$CELTYPE
  6
ByLayer
  9
$CECOLOR
 62
   256
  9
$CELTSCALE
 40
1.0
  9
$DISPSILH
 70
     0
  9
$DIMSCALE
 40
1.0
  9
$DIMASZ
 40
0.18
  9
$DIMEXO
 40
0.0625
  9
$DIMDLI
 40
0.38
  9
$DIMRND
 40
0.0
  9
$DIMDLE
 40
0.0
  9
$DIMEXE
 40
0.18
  9
$DIMTP
 40
0.0
  9
$DIMTM
 40
0.0
  9
$DIMTXT
 40
0.18
  9
$DIMCEN
 40
0.09
  9
$DIMTSZ
 40
0.0
  9
$DIMTOL
 70
     0
  9
$DIMLIM
 70
     0
  9
$DIMTIH
 70
     1
  9
$DIMTOH
 70
     1
  9
$DIMSE1
 70
     0
  9
$DIMSE2
 70
     0
  9
$DIMTAD
 70
     0
  9
$DIMZIN
 70
     0
  9
$DIMBLK
  1

  9
$DIMASO
 70
     1
  9
$DIMSHO
 70
     1
  9
$DIMPOST
  1

  9
$DIMAPOST
  1

  9
$DIMALT
 70
     0
  9
$DIMALTD
 70
     2
  9
$DIMALTF
 40
25.4
  9
$DIMLFAC
 40
1.0
  9
$DIMTOFL
 70
     0
  9
$DIMTVP
 40
0.0
  9
$DIMTIX
 70
     0
  9
$DIMSOXD
 70
     0
  9
$DIMSAH
 70
     0
  9
$DIMBLK1
  1

  9
$DIMBLK2
  1

  9
$DIMSTYLE
  2
Standard
  9
$DIMCLRD
 70
     0
  9
$DIMCLRE
 70
     0
  9
$DIMCLRT
 70
     0
  9
$DIMTFAC
 40
1.0
  9
$DIMGAP
 40
0.09
  9
$DIMJUST
 70
     0
  9
$DIMSD1
 70
     0
  9
$DIMSD2
 70
     0
  9
$DIMTOLJ
 70
     1
  9
$DIMTZIN
 70
     0
  9
$DIMALTZ
 70
     0
  9
$DIMALTTZ
 70
     0
  9
$DIMUPT
 70
     0
  9
$DIMDEC
 70
     4
  9
$DIMTDEC
 70
     4
  9
$DIMALTU
 70
     2
  9
$DIMALTTD
 70
     2
  9
$DIMTXSTY
  7
Standard
  9
$DIMAUNIT
 70
     0
  9
$DIMADEC
 70
     0
  9
$DIMALTRND
 40
0.0
  9
$DIMAZIN
 70
     0
  9
$DIMDSEP
 70
    46
  9
$DIMATFIT
 70
     3
  9
$DIMFRAC
 70
     0
  9
$DIMLDRBLK
  1

  9
$DIMLUNIT
 70
     2
  9
$DIMLWD
 70
    -2
  9
$DIMLWE
 70
    -2
  9
$DIMTMOVE
 70
     0
  9
$DIMFXL
 40
1.0
  9
$DIMFXLON
 70
     0
  9
$DIMJOGANG
 40
0.7853981633974483
  9
$DIMTFILL
 70
     0
  9
$DIMTFILLCLR
 70
     0
  9
$DIMARCSYM
 70
     0
  9
$DIMLTYPE
  6

  9
$DIMLTEX1
  6

  9
$DIMLTEX2
  6

  9
$DIMTXTDIRECTION
 70
     0
  9
$LUNITS
 70
     2
  9
$LUPREC
 70
     4
  9
$SKETCHINC
 40
0.1
  9
$FILLETRAD
 40
0.0
  9
$AUNITS
 70
     0
  9
$AUPREC
 70
     0
  9
$MENU
  1
.
  9
$ELEVATION
 40
0.0
  9
$PELEVATION
 40
0.0
  9
$THICKNESS
 40
0.0
  9
$LIMCHECK
 70
     0
  9
$CHAMFERA
 40
0.0
  9
$CHAMFERB
 40
0.0
  9
$CHAMFERC
 40
0.0
  9
$CHAMFERD
 40
0.0
  9
$SKPOLY
 70
     0
  9
$TDCREATE
 40
2457549.594808981
  9
$TDUCREATE
 40
2457549.511475648
  9
$TDUPDATE
 40
2457549.594808981
  9
$TDUUPDATE
 40
2457549.511475648
  9
$TDINDWG
 40
0.0000207292
  9
$TDUSRTIMER
 40
0.0000207292
  9
$USRTIMER
 70
     1
  9
$ANGBASE
 50
0.0
  9
$ANGDIR
 70
     0
  9
$PDMODE
 70
     0
  9
$PDSIZE
 40
0.0
  9
$PLINEWID
 40
0.0
  9
$SPLFRAME
 70
     0
  9
$SPLINETYPE
 70
     6
  9
$SPLINESEGS
 70
     8
  9
$HANDSEED
  5
1D6
  9
$SURFTAB1
 70
     6
  9
$SURFTAB2
 70
     6
  9
$SURFTYPE
 70
     6
  9
$SURFU
 70
     6
  9
$SURFV
 70
     6
  9
$UCSBASE
  2

  9
$UCSNAME
  2

  9
$UCSORG
 10
0.0
 20
0.0
 30
0.0
  9
$UCSXDIR
 10
1.0
 20
0.0
 30
0.0
  9
$UCSYDIR
 10
0.0
 20
1.0
 30
0.0
  9
$UCSORTHOREF
  2

  9
$UCSORTHOVIEW
 70
     0
  9
$UCSORGTOP
 10
0.0
 20
0.0
 30
0.0
  9
$UCSORGBOTTOM
 10
0.0
 20
0.0
 30
0.0
  9
$UCSORGLEFT
 10
0.0
 20
0.0
 30
0.0
  9
$UCSORGRIGHT
 10
0.0
 20
0.0
 30
0.0
  9
$UCSORGFRONT
 10
0.0
 20
0.0
 30
0.0
  9
$UCSORGBACK
 10
0.0
 20
0.0
 30
0.0
  9
$PUCSBASE
  2

  9
$PUCSNAME
  2

  9
$PUCSORG
 10
0.0
 20
0.0
 30
0.0
  9
$PUCSXDIR
 10
1.0
 20
0.0
 30
0.0
  9
$PUCSYDIR
 10
0.0
 20
1.0
 30
0.0
  9
$PUCSORTHOREF
  2

  9
$PUCSORTHOVIEW
 70
     0
  9
$PUCSORGTOP
 10
0.0
 20
0.0
 30
0.0
  9
$PUCSORGBOTTOM
 10
0.0
 20
0.0
 30
0.0
  9
$PUCSORGLEFT
 10
0.0
 20
0.0
 30
0.0
  9
$PUCSORGRIGHT
 10
0.0
 20
0.0
 30
0.0
  9
$PUCSORGFRONT
 10
0.0
 20
0.0
 30
0.0
  9
$PUCSORGBACK
 10
0.0
 20
0.0
 30
0.0
  9
$USERI1
 70
     0
  9
$USERI2
 70
     0
  9
$USERI3
 70
     0
  9
$USERI4
 70
     0
  9
$USERI5
 70
     0
  9
$USERR1
 40
0.0
  9
$USERR2
 40
0.0
  9
$USERR3
 40
0.0
  9
$USERR4
 40
0.0
  9
$USERR5
 40
0.0
  9
$WORLDVIEW
 70
     1
  9
$SHADEDGE
 70
     3
  9
$SHADEDIF
 70
    70
  9
$TILEMODE
 70
     1
  9
$MAXACTVP
 70
    64
  9
$PINSBASE
 10
0.0
 20
0.0
 30
0.0
  9
$PLIMCHECK
 70
     0
  9
$PEXTMIN
 10
1.000000000000000E+20
 20
1.000000000000000E+20
 30
1.000000000000000E+20
  9
$PEXTMAX
 10
-1.000000000000000E+20
 20
-1.000000000000000E+20
 30
-1.000000000000000E+20
  9
$PLIMMIN
 10
0.0
 20
0.0
  9
$PLIMMAX
 10
12.0
 20
9.0
  9
$UNITMODE
 70
     0
  9
$VISRETAIN
 70
     1
  9
$PLINEGEN
 70
     0
  9
$PSLTSCALE
 70
     1
  9
$TREEDEPTH
 70
  3020
  9
$CMLSTYLE
  2
Standard
  9
$CMLJUST
 70
     0
  9
$CMLSCALE
 40
1.0
  9
$PROXYGRAPHICS
 70
     1
  9
$MEASUREMENT
 70
     1
  9
$CELWEIGHT
370
    -1
  9
$ENDCAPS
280
     0
  9
$JOINSTYLE
280
     0
  9
$LWDISPLAY
290
     0
  9
$INSUNITS
 70
     4
  9
$HYPERLINKBASE
  1

  9
$STYLESHEET
  1

  9
$XEDIT
290
     1
  9
$CEPSNTYPE
380
     0
  9
$PSTYLEMODE
290
     1
  9
$FINGERPRINTGUID
  2
{C89FC8F0-9BE1-4101-B7BC-44BFF6F0AD51}
  9
$VERSIONGUID
  2
{CF4FAD61-2106-4AEA-ACFD-F32E5E8A0EDF}
  9
$EXTNAMES
290
     1
  9
$PSVPSCALE
 40
0.0
  9
$OLESTARTUP
290
     0
  9
$SORTENTS
280
   127
  9
$INDEXCTL
280
     0
  9
$HIDETEXT
280
     1
  9
$XCLIPFRAME
280
     2
  9
$HALOGAP
280
     0
  9
$OBSCOLOR
 70
   257
  9
$OBSLTYPE
280
     0
  9
$INTERSECTIONDISPLAY
280
     0
  9
$INTERSECTIONCOLOR
 70
   257
  9
$DIMASSOC
280
     2
  9
$PROJECTNAME
  1

  9
$CAMERADISPLAY
290
     0
  9
$LENSLENGTH
 40
50.0
  9
$CAMERAHEIGHT
 40
0.0
  9
$STEPSPERSEC
 40
2.0
  9
$STEPSIZE
 40
6.0
  9
$3DDWFPREC
 40
2.0
  9
$PSOLWIDTH
 40
0.25
  9
$PSOLHEIGHT
 40
4.0
  9
$LOFTANG1
 40
1.570796326794896
  9
$LOFTANG2
 40
1.570796326794896
  9
$LOFTMAG1
 40
0.0
  9
$LOFTMAG2
 40
0.0
  9
$LOFTPARAM
 70
     7
  9
$LOFTNORMALS
280
     1
  9
$LATITUDE
 40
37.795
  9
$LONGITUDE
 40
-122.394
  9
$NORTHDIRECTION
 40
0.0
  9
$TIMEZONE
 70
 -8000
  9
$LIGHTGLYPHDISPLAY
280
     1
  9
$TILEMODELIGHTSYNCH
280
     1
  9
$CMATERIAL
347
11
  9
$SOLIDHIST
280
     0
  9
$SHOWHIST
280
     1
  9
$DWFFRAME
280
     2
  9
$DGNFRAME
280
     0
  9
$REALWORLDSCALE
290
     1
  9
$INTERFERECOLOR
 62
     1
  9
$INTERFEREOBJVS
345
33
  9
$INTERFEREVPVS
346
30
  9
$CSHADOW
280
     0
  9
$SHADOWPLANELOCATION
 40
0.0
  0
ENDSEC
  0
SECTION
  2
CLASSES
  0
CLASS
  1
ACDBDICTIONARYWDFLT
  2
AcDbDictionaryWithDefault
  3
ObjectDBX Classes
 90
        0
 91
        1
280
     0
281
     0
  0
CLASS
  1
MATERIAL
  2
AcDbMaterial
  3
ObjectDBX Classes
 90
     1153
 91
        3
280
     0
281
     0
  0
CLASS
  1
VISUALSTYLE
  2
AcDbVisualStyle
  3
ObjectDBX Classes
 90
     4095
 91
       24
280
     0
281
     0
  0
CLASS
  1
SCALE
  2
AcDbScale
  3
ObjectDBX Classes
 90
     1153
 91
       17
280
     0
281
     0
  0
CLASS
  1
TABLESTYLE
  2
AcDbTableStyle
  3
ObjectDBX Classes
 90
     4095
 91
        1
280
     0
281
     0
  0
CLASS
  1
MLEADERSTYLE
  2
AcDbMLeaderStyle
  3
ACDB_MLEADERSTYLE_CLASS
 90
     4095
 91
        1
280
     0
281
     0
  0
CLASS
  1
ACDBSECTIONVIEWSTYLE
  2
AcDbSectionViewStyle
  3
ObjectDBX Classes
 90
     1025
 91
        1
280
     0
281
     0
  0
CLASS
  1
ACDBDETAILVIEWSTYLE
  2
AcDbDetailViewStyle
  3
ObjectDBX Classes
 90
     1025
 91
        1
280
     0
281
     0
  0
CLASS
  1
RASTERVARIABLES
  2
AcDbRasterVariables
  3
ISM
 90
        0
 91
        1
280
     0
281
     0
  0
CLASS
  1
DICTIONARYVAR
  2
AcDbDictionaryVar
  3
ObjectDBX Classes
 90
        0
 91
        5
280
     0
281
     0
  0
CLASS
  1
CELLSTYLEMAP
  2
AcDbCellStyleMap
  3
ObjectDBX Classes
 90
     1152
 91
        2
280
     0
281
     0
  0
CLASS
  1
SORTENTSTABLE
  2
AcDbSortentsTable
  3
ObjectDBX Classes
 90
        0
 91
        1
280
     0
281
     0
  0
ENDSEC
  0
SECTION
  2
TABLES
  0
TABLE
  2
VPORT
  5
8
330
0
100
AcDbSymbolTable
 70
     1
  0
VPORT
  5
57
330
8
100
AcDbSymbolTableRecord
100
AcDbViewportTableRecord
  2
*Active
 70
     0
 10
0.0
 20
0.0
 11
1.0
 21
1.0
 12
1015.043100222545
 22
2024.991286720136
 13
0.0
 23
0.0
 14
1.0
 24
1.0
 15
0.0
 25
0.0
 16
0.0
 26
0.0
 36
1.0
 17
0.0
 27
0.0
 37
0.0
 40
600.017426559719
 41
1.153537342122873
 42
50.0
 43
0.0
 44
0.0
 50
0.0
 51
0.0
 71
     0
 72
  1000
 73
     1
 74
     1
 75
     0
 76
     0
 77
     0
 78
     0
281
     0
 65
     1
110
0.0
120
0.0
130
0.0
111
1.0
121
0.0
131
0.0
112
0.0
122
1.0
132
0.0
 79
     0
146
0.0
 60
     3
 61
     5
292
     1
282
     1
141
0.0
142
0.0
 63
   250
421
  3355443
  0
ENDTAB
  0
TABLE
  2
LTYPE
  5
5
330
0
100
AcDbSymbolTable
 70
     3
  0
LTYPE
  5
5B
330
5
100
AcDbSymbolTableRecord
100
AcDbLinetypeTableRecord
  2
ByBlock
 70
     0
  3

 72
    65
 73
     0
 40
0.0
  0
LTYPE
  5
5C
330
5
100
AcDbSymbolTableRecord
100
AcDbLinetypeTableRecord
  2
ByLayer
 70
     0
  3

 72
    65
 73
     0
 40
0.0
  0
LTYPE
  5
5D
330
5
100
AcDbSymbolTableRecord
100
AcDbLinetypeTableRecord
  2
Continuous
 70
     0
  3
Solid line
 72
    65
 73
     0
 40
0.0
  0
LTYPE
  5
69
330
5
100
AcDbSymbolTableRecord
100
AcDbLinetypeTableRecord
  2
PHANTOM2
 70
     0
  3
___ _ _ ___ _ _ ___ _ _ ___ _ _
 72
    65
 73
     6
 40
1.25
 49
0.625
 74
     0
 49
-0.125
 74
     0
 49
0.125
 74
     0
 49
-0.125
 74
     0
 49
0.125
 74
     0
 49
-0.125
 74
     0
  0
LTYPE
  5
86
330
5
100
AcDbSymbolTableRecord
100
AcDbLinetypeTableRecord
  2
Nascosto 1_5 mm
 70
     0
  3

 72
    65
 73
     2
 40
2.2
 49
1.5
 74
     0
 49
-0.7000000000000001
 74
     0
  0
ENDTAB
  0
TABLE
  2
LAYER
  5
2
330
0
100
AcDbSymbolTable
 70
     3
  0
LAYER
  5
54
330
2
100
AcDbSymbolTableRecord
100
AcDbLayerTableRecord
  2
0
 70
     0
 62
     7
  6
Continuous
370
    -3
390
F
347
21
348
0
  0
LAYER
  5
85
330
2
100
AcDbSymbolTableRecord
100
AcDbLayerTableRecord
  2
P-SANR-FIXT
 70
     0
 62
     6
  6
Continuous
370
    18
390
F
347
21
348
0
  0
ENDTAB
  0
TABLE
  2
STYLE
  5
3
330
0
100
AcDbSymbolTable
 70
     2
  0
STYLE
  5
55
330
3
100
AcDbSymbolTableRecord
100
AcDbTextStyleTableRecord
  2
Standard
 70
     0
 40
0.0
 41
1.0
 50
0.0
 71
     0
 42
0.2
  3
txt
  4

  0
STYLE
  5
5A
330
3
100
AcDbSymbolTableRecord
100
AcDbTextStyleTableRecord
  2
Annotative
 70
     0
 40
0.0
 41
1.0
 50
0.0
 71
     0
 42
0.2
  3
txt
  4

1001
AcadAnnotative
1000
AnnotativeData
1002
{
1070
     1
1070
     1
1002
}
  0
ENDTAB
  0
TABLE
  2
VIEW
  5
6
330
0
100
AcDbSymbolTable
 70
     0
  0
ENDTAB
  0
TABLE
  2
UCS
  5
7
330
0
100
AcDbSymbolTable
 70
     0
  0
ENDTAB
  0
TABLE
  2
APPID
  5
9
330
0
100
AcDbSymbolTable
 70
     3
  0
APPID
  5
56
330
9
100
AcDbSymbolTableRecord
100
AcDbRegAppTableRecord
  2
ACAD
 70
     0
  0
APPID
  5
5E
330
9
100
AcDbSymbolTableRecord
100
AcDbRegAppTableRecord
  2
AcadAnnotative
 70
     0
  0
APPID
  5
79
330
9
100
AcDbSymbolTableRecord
100
AcDbRegAppTableRecord
  2
REVIT
 70
     0
  0
ENDTAB
  0
TABLE
  2
DIMSTYLE
  5
A
330
0
100
AcDbSymbolTable
 70
     2
100
AcDbDimStyleTable
 71
     0
  0
DIMSTYLE
105
58
330
A
100
AcDbSymbolTableRecord
100
AcDbDimStyleTableRecord
  2
Standard
 70
     0
340
55
  0
DIMSTYLE
105
59
330
A
100
AcDbSymbolTableRecord
100
AcDbDimStyleTableRecord
  2
Annotative
 70
     0
340
55
1001
AcadAnnotative
1000
AnnotativeData
1002
{
1070
     1
1070
     1
1002
}
  0
ENDTAB
  0
TABLE
  2
BLOCK_RECORD
  5
1
330
0
100
AcDbSymbolTable
 70
     3
  0
BLOCK_RECORD
  5
71
102
{ACAD_XDICTIONARY
360
1D1
102
}
330
1
100
AcDbSymbolTableRecord
100
AcDbBlockTableRecord
  2
*Model_Space
340
74
 70
     0
280
     1
281
     0
  0
BLOCK_RECORD
  5
6D
330
1
100
AcDbSymbolTableRecord
100
AcDbBlockTableRecord
  2
*Paper_Space
340
70
 70
     0
280
     1
281
     0
  0
BLOCK_RECORD
  5
75
330
1
100
AcDbSymbolTableRecord
100
AcDbBlockTableRecord
  2
*Paper_Space0
340
78
 70
     0
280
     1
281
     0
  0
BLOCK_RECORD
  5
87
330
1
100
AcDbSymbolTableRecord
100
AcDbBlockTableRecord
  2
Automatic flow rate regulator valve_Caleffi_121 DN15 - 1_2__-859151-Est - Idraulica
340
0
102
{BLKREFS
331
156
102
}
 70
     0
280
     1
281
     0
  0
BLOCK_RECORD
  5
157
330
1
100
AcDbSymbolTableRecord
100
AcDbBlockTableRecord
  2
Automatic flow rate regulator valve_Caleffi_121 DN15 - 1_2__-V1-Est - Idraulica
340
0
102
{BLKREFS
331
1CB
102
}
 70
     0
280
     1
281
     0
  0
ENDTAB
  0
ENDSEC
  0
SECTION
  2
BLOCKS
  0
BLOCK
  5
72
330
71
100
AcDbEntity
  8
0
100
AcDbBlockBegin
  2
*Model_Space
 70
     0
 10
0.0
 20
0.0
 30
0.0
  3
*Model_Space
  1

  0
ENDBLK
  5
73
330
71
100
AcDbEntity
  8
0
100
AcDbBlockEnd
  0
BLOCK
  5
6E
330
6D
100
AcDbEntity
 67
     1
  8
0
100
AcDbBlockBegin
  2
*Paper_Space
 70
     0
 10
0.0
 20
0.0
 30
0.0
  3
*Paper_Space
  1

  0
ENDBLK
  5
6F
330
6D
100
AcDbEntity
 67
     1
  8
0
100
AcDbBlockEnd
  0
BLOCK
  5
76
330
75
100
AcDbEntity
 67
     1
  8
0
100
AcDbBlockBegin
  2
*Paper_Space0
 70
     0
 10
0.0
 20
0.0
 30
0.0
  3
*Paper_Space0
  1

  0
ENDBLK
  5
77
330
75
100
AcDbEntity
 67
     1
  8
0
100
AcDbBlockEnd
  0
BLOCK
  5
154
330
87
100
AcDbEntity
  8
0
100
AcDbBlockBegin
  2
Automatic flow rate regulator valve_Caleffi_121 DN15 - 1_2__-859151-Est - Idraulica
 70
     0
 10
0.0
 20
0.0
 30
0.0
  3
Automatic flow rate regulator valve_Caleffi_121 DN15 - 1_2__-859151-Est - Idraulica
  1

  0
LINE
  5
88
330
87
100
AcDbEntity
  8
P-SANR-FIXT
100
AcDbLine
 10
771.2164074435963
 20
1887.254999999996
 30
0.0
 11
771.2164074435963
 21
1864.200014590475
 31
0.0
  0
LINE
  5
89
330
87
100
AcDbEntity
  8
P-SANR-FIXT
100
AcDbLine
 10
860.1164074427229
 20
1864.200014590475
 30
0.0
 11
860.1164074427229
 21
1887.254999999996
 31
0.0
  0
LINE
  5
8A
330
87
100
AcDbEntity
  8
P-SANR-FIXT
100
AcDbLine
 10
763.6664074431562
 20
1864.200014590475
 30
0.0
 11
763.6664074431562
 21
1833.700014590385
 31
0.0
  0
LINE
  5
8B
330
87
100
AcDbEntity
  8
P-SANR-FIXT
100
AcDbLine
 10
867.6664074431633
 20
1833.700014590385
 30
0.0
 11
867.6664074431633
 21
1864.200014590475
 31
0.0
  0
LINE
  5
8C
330
87
100
AcDbEntity
  8
P-SANR-FIXT
100
AcDbLine
 10
763.6664074431563
 20
1833.700014590385
 30
0.0
 11
770.6664074431444
 21
1826.700014590397
 31
0.0
  0
LINE
  5
8D
330
87
100
AcDbEntity
  8
P-SANR-FIXT
100
AcDbLine
 10
860.6664074431749
 20
1826.700014590397
 30
0.0
 11
867.6664074431631
 21
1833.700014590385
 31
0.0
  0
LINE
  5
8E
330
87
100
AcDbEntity
  8
P-SANR-FIXT
100
AcDbLine
 10
770.6664074431442
 20
1826.700014590397
 30
0.0
 11
770.6664074431442
 21
1823.247211930618
 31
0.0
  0
LINE
  5
8F
330
87
100
AcDbEntity
  8
P-SANR-FIXT
100
AcDbLine
 10
770.6664074431442
 20
1802.152817250173
 30
0.0
 11
770.6664074431442
 21
1800.200014590397
 31
0.0
  0
LINE
  5
90
330
87
100
AcDbEntity
  8
P-SANR-FIXT
100
AcDbLine
 10
860.6664074431753
 20
1800.200014590397
 30
0.0
 11
860.6664074431753
 21
1826.700014590397
 31
0.0
  0
LINE
  5
91
330
87
100
AcDbEntity
  8
P-SANR-FIXT
100
AcDbLine
 10
770.6664074431444
 20
1800.200014590397
 30
0.0
 11
767.166407443157
 21
1796.70001459041
 31
0.0
  0
LINE
  5
92
330
87
100
AcDbEntity
  8
P-SANR-FIXT
100
AcDbLine
 10
864.1664074431625
 20
1796.70001459041
 30
0.0
 11
860.6664074431749
 21
1800.200014590397
 31
0.0
  0
LINE
  5
93
330
87
100
AcDbEntity
  8
P-SANR-FIXT
100
AcDbLine
 10
767.166407443157
 20
1796.70001459041
 30
0.0
 11
767.166407443157
 21
1780.700014590333
 31
0.0
  0
LINE
  5
94
330
87
100
AcDbEntity
  8
P-SANR-FIXT
100
AcDbLine
 10
864.1664074431625
 20
1780.700014590333
 30
0.0
 11
864.1664074431625
 21
1796.70001459041
 31
0.0
  0
LINE
  5
95
330
87
100
AcDbEntity
  8
P-SANR-FIXT
100
AcDbLine
 10
767.166407443157
 20
1780.700014590333
 30
0.0
 11
765.6664074431573
 21
1779.200014590333
 31
0.0
  0
LINE
  5
96
330
87
100
AcDbEntity
  8
P-SANR-FIXT
100
AcDbLine
 10
865.6664074431622
 20
1779.200014590333
 30
0.0
 11
864.1664074431625
 21
1780.700014590333
 31
0.0
  0
LINE
  5
97
330
87
100
AcDbEntity
  8
P-SANR-FIXT
100
AcDbLine
 10
765.6664074431573
 20
1779.200014590333
 30
0.0
 11
765.6664074431573
 21
1752.700014590332
 31
0.0
  0
LINE
  5
98
330
87
100
AcDbEntity
  8
P-SANR-FIXT
100
AcDbLine
 10
865.6664074431622
 20
1752.700014590332
 30
0.0
 11
865.6664074431622
 21
1779.200014590333
 31
0.0
  0
LINE
  5
99
330
87
100
AcDbEntity
  8
P-SANR-FIXT
100
AcDbLine
 10
865.6664074431608
 20
1752.700014590331
 30
0.0
 11
765.6664074431558
 21
1752.700014590331
 31
0.0
  0
LINE
  5
9A
330
87
100
AcDbEntity
  8
P-SANR-FIXT
100
AcDbLine
 10
763.6664074431548
 20
1864.200014590474
 30
0.0
 11
776.1200478089769
 21
1864.200014590474
 31
0.0
  0
LINE
  5
9B
330
87
100
AcDbEntity
  8
P-SANR-FIXT
100
AcDbLine
 10
855.2127670773385
 20
1864.200014590474
 30
0.0
 11
867.6664074431618
 21
1864.200014590474
 31
0.0
  0
LINE
  5
9C
330
87
100
AcDbEntity
  8
P-SANR-FIXT
100
AcDbLine
 10
763.666407443155
 20
1833.700014590384
 30
0.0
 11
776.982355134046
 21
1833.700014590384
 31
0.0
  0
LINE
  5
9D
330
87
100
AcDbEntity
  8
P-SANR-FIXT
100
AcDbLine
 10
854.3504597522693
 20
1833.700014590384
 30
0.0
 11
867.6664074431617
 21
1833.700014590384
 31
0.0
  0
LINE
  5
9E
330
87
100
AcDbEntity
  8
P-SANR-FIXT
100
AcDbLine
 10
770.6664074431428
 20
1826.700014590396
 30
0.0
 11
780.7384813536139
 21
1826.700014590396
 31
0.0
  0
LINE
  5
9F
330
87
100
AcDbEntity
  8
P-SANR-FIXT
100
AcDbLine
 10
850.5943335327014
 20
1826.700014590396
 30
0.0
 11
860.6664074431737
 21
1826.700014590396
 31
0.0
  0
LINE
  5
A0
330
87
100
AcDbEntity
  8
P-SANR-FIXT
100
AcDbLine
 10
770.6664074431429
 20
1800.200014590396
 30
0.0
 11
860.6664074431735
 21
1800.200014590396
 31
0.0
  0
LINE
  5
A1
330
87
100
AcDbEntity
  8
P-SANR-FIXT
100
AcDbLine
 10
767.1664074431555
 20
1796.700014590408
 30
0.0
 11
864.1664074431611
 21
1796.700014590408
 31
0.0
  0
LINE
  5
A2
330
87
100
AcDbEntity
  8
P-SANR-FIXT
100
AcDbLine
 10
767.1664074431556
 20
1780.700014590333
 30
0.0
 11
864.1664074431609
 21
1780.700014590333
 31
0.0
  0
LINE
  5
A3
330
87
100
AcDbEntity
  8
P-SANR-FIXT
100
AcDbLine
 10
765.6664074431558
 20
1779.200014590333
 30
0.0
 11
865.6664074431608
 21
1779.200014590333
 31
0.0
  0
LINE
  5
A4
330
87
100
AcDbEntity
  8
P-SANR-FIXT
100
AcDbLine
 10
906.9664074430248
 20
2048.49999999995
 30
0.0
 11
906.6664074431596
 21
2048.49999999995
 31
0.0
  0
LINE
  5
A5
330
87
100
AcDbEntity
  8
P-SANR-FIXT
100
AcDbLine
 10
906.6664074431596
 20
1951.500000000042
 30
0.0
 11
906.9664074430251
 21
1951.500000000042
 31
0.0
  0
LINE
  5
A6
330
87
100
AcDbEntity
  8
P-SANR-FIXT
100
AcDbLine
 10
924.9664074429633
 20
2108.999999999996
 30
0.0
 11
906.9664074430248
 21
2108.999999999996
 31
0.0
  0
LINE
  5
A7
330
87
100
AcDbEntity
  8
P-SANR-FIXT
100
AcDbLine
 10
906.9664074430258
 20
1890.999999999995
 30
0.0
 11
924.966407442964
 21
1890.999999999995
 31
0.0
  0
LINE
  5
A8
330
87
100
AcDbEntity
  8
P-SANR-FIXT
100
AcDbLine
 10
925.9664074429634
 20
2048.49999999995
 30
0.0
 11
924.9664074429635
 21
2048.49999999995
 31
0.0
  0
LINE
  5
A9
330
87
100
AcDbEntity
  8
P-SANR-FIXT
100
AcDbLine
 10
924.9664074429638
 20
1951.500000000042
 30
0.0
 11
925.9664074429636
 21
1951.500000000042
 31
0.0
  0
LWPOLYLINE
  5
AA
330
87
100
AcDbEntity
  8
P-SANR-FIXT
100
AcDbPolyline
 90
       40
 70
   128
 43
0.0
 10
926.9656075496246
 20
1950.539989334228
 10
926.9632091492663
 20
1950.579914694011
 10
926.9592160788176
 20
1950.61971220733
 10
926.9536347263393
 20
1950.659318206656
 10
926.9464740208048
 20
1950.698669330837
 10
926.9377454178158
 20
1950.737702626469
 10
926.9274628812745
 20
1950.776355648606
 10
926.9156428610461
 20
1950.814566560658
 10
926.9023042666416
 20
1950.852274233317
 10
926.8874684369666
 20
1950.889418342351
 10
926.8711591061837
 20
1950.925939465108
 10
926.853402365743
 20
1950.961779175583
 10
926.8342266226413
 20
1950.996880137886
 10
926.8136625539769
 20
1951.031186197963
 10
926.7917430578734
 20
1951.064642473437
 10
926.7685032008479
 20
1951.097195441404
 10
926.7439801617147
 20
1951.12879302406
 10
926.7182131721046
 20
1951.159384672013
 10
926.6912434537047
 20
1951.188921445152
 10
926.6631141523108
 20
1951.217356090941
 10
926.6338702688051
 20
1951.244643120013
 10
926.6035585871623
 20
1951.270738878941
 10
926.5722275996072
 20
1951.295601620078
 10
926.5399274290361
 20
1951.319191568343
 10
926.5067097488319
 20
1951.34147098485
 10
926.4726277001965
 20
1951.362404227285
 10
926.4377358071374
 20
1951.381957806927
 10
926.4020898892406
 20
1951.400100442219
 10
926.36574697237
 20
1951.416803108814
 10
926.3287651974403
 20
1951.432039086009
 10
926.2912037274025
 20
1951.445783999491
 10
926.2531226525958
 20
1951.458015860331
 10
926.2145828946161
 20
1951.46871510016
 10
926.175646108855
 20
1951.477864602478
 10
926.1363745858639
 20
1951.48544973003
 10
926.096831151702
 20
1951.491458348234
 10
926.0570790674281
 20
1951.495880844579
 10
926.0171819278973
 20
1951.498710144017
 10
925.9772035600219
 20
1951.499941720272
 10
925.9664074429636
 20
1951.500000000042
  0
LWPOLYLINE
  5
AB
330
87
100
AcDbEntity
  8
P-SANR-FIXT
100
AcDbPolyline
 90
       39
 70
   128
 43
0.0
 10
925.9664074429634
 20
2048.49999999995
 10
926.00639677715
 20
2048.500799893289
 10
926.0463221369326
 20
2048.503198293648
 10
926.0861196502524
 20
2048.507191364096
 10
926.1257256495778
 20
2048.512772716574
 10
926.1650767737584
 20
2048.519933422109
 10
926.2041100693906
 20
2048.528662025098
 10
926.2427630915276
 20
2048.538944561639
 10
926.2809740035795
 20
2048.550764581868
 10
926.3186816762384
 20
2048.564103176272
 10
926.355825785272
 20
2048.578939005947
 10
926.3923469080294
 20
2048.59524833673
 10
926.4281866185047
 20
2048.613005077171
 10
926.4632875808072
 20
2048.632180820272
 10
926.4975936408843
 20
2048.652744888936
 10
926.5310499163584
 20
2048.67466438504
 10
926.5636028843259
 20
2048.697904242066
 10
926.595200466982
 20
2048.722427281199
 10
926.6257921149348
 20
2048.748194270809
 10
926.6553288880739
 20
2048.775163989209
 10
926.6837635338628
 20
2048.803293290603
 10
926.7110505629343
 20
2048.832537174108
 10
926.7371463218623
 20
2048.862848855752
 10
926.7620090629998
 20
2048.894179843307
 10
926.7855990112643
 20
2048.926480013878
 10
926.8078784277713
 20
2048.959697694082
 10
926.8288116702066
 20
2048.993779742717
 10
926.8483652498483
 20
2049.028671635777
 10
926.86650788514
 20
2049.064317553673
 10
926.8832105517351
 20
2049.100660470544
 10
926.8984465289305
 20
2049.137642245473
 10
926.9121914424129
 20
2049.175203715511
 10
926.9244233032525
 20
2049.213284790317
 10
926.9351225430815
 20
2049.251824548298
 10
926.9442720453987
 20
2049.290761334058
 10
926.9518571729518
 20
2049.33003285705
 10
926.957865791155
 20
2049.369576291212
 10
926.962288287501
 20
2049.409328375486
 10
926.9651175869389
 20
2049.449225515016
  0
LINE
  5
AC
330
87
100
AcDbEntity
  8
P-SANR-FIXT
100
AcDbLine
 10
934.1664074430692
 20
2068.999999999997
 30
0.0
 11
927.9664074429632
 21
2068.999999999997
 31
0.0
  0
LINE
  5
AD
330
87
100
AcDbEntity
  8
P-SANR-FIXT
100
AcDbLine
 10
927.9664074429637
 20
1930.999999999995
 30
0.0
 11
934.1664074430694
 21
1930.999999999995
 31
0.0
  0
LWPOLYLINE
  5
AE
330
87
100
AcDbEntity
  8
P-SANR-FIXT
100
AcDbPolyline
 90
       41
 70
   128
 43
0.0
 10
927.9664074429637
 20
1930.999999999995
 10
927.926418108777
 20
1931.000799893334
 10
927.8864927489946
 20
1931.003198293693
 10
927.8466952356748
 20
1931.007191364141
 10
927.8070892363494
 20
1931.01277271662
 10
927.7677381121687
 20
1931.019933422154
 10
927.7287048165364
 20
1931.028662025143
 10
927.6900517943994
 20
1931.038944561684
 10
927.6518408823477
 20
1931.050764581913
 10
927.6141332096885
 20
1931.064103176317
 10
927.5769891006552
 20
1931.078939005992
 10
927.5404679778977
 20
1931.095248336776
 10
927.5046282674223
 20
1931.113005077216
 10
927.46952730512
 20
1931.132180820318
 10
927.4352212450429
 20
1931.152744888982
 10
927.4017649695688
 20
1931.174664385086
 10
927.3692120016011
 20
1931.197904242111
 10
927.3376144189452
 20
1931.222427281244
 10
927.3070227709922
 20
1931.248194270854
 10
927.2774859978532
 20
1931.275163989255
 10
927.2490513520642
 20
1931.303293290648
 10
927.2217643229929
 20
1931.332537174154
 10
927.1956685640647
 20
1931.362848855797
 10
927.1708058229272
 20
1931.394179843352
 10
927.1472158746627
 20
1931.426480013923
 10
927.1249364581558
 20
1931.459697694127
 10
927.1040032157204
 20
1931.493779742762
 10
927.0844496360789
 20
1931.528671635821
 10
927.0663070007872
 20
1931.564317553718
 10
927.0496043341919
 20
1931.600660470589
 10
927.0343683569967
 20
1931.637642245519
 10
927.0206234435141
 20
1931.675203715556
 10
927.0083915826745
 20
1931.713284790363
 10
926.9976923428455
 20
1931.751824548343
 10
926.9885428405284
 20
1931.790761334104
 10
926.9809577129754
 20
1931.830032857095
 10
926.974949094772
 20
1931.869576291257
 10
926.970526598426
 20
1931.909328375531
 10
926.9676972989882
 20
1931.949225515062
 10
926.9664657227338
 20
1931.989203882937
 10
926.9664074429638
 20
1931.999999999995
  0
LWPOLYLINE
  5
AF
330
87
100
AcDbEntity
  8
P-SANR-FIXT
100
AcDbPolyline
 90
       41
 70
   128
 43
0.0
 10
926.9664074429632
 20
2067.999999999996
 10
926.9672073363024
 20
2068.039989334183
 10
926.9696057366605
 20
2068.079914693966
 10
926.9735988071095
 20
2068.119712207286
 10
926.9791801595877
 20
2068.159318206611
 10
926.986340865122
 20
2068.198669330792
 10
926.9950694681114
 20
2068.237702626424
 10
927.0053520046525
 20
2068.276355648561
 10
927.0171720248807
 20
2068.314566560613
 10
927.0305106192854
 20
2068.352274233272
 10
927.0453464489603
 20
2068.389418342305
 10
927.0616557797433
 20
2068.425939465063
 10
927.079412520184
 20
2068.461779175538
 10
927.0985882632855
 20
2068.49688013784
 10
927.1191523319499
 20
2068.531186197917
 10
927.1410718280534
 20
2068.564642473392
 10
927.1643116850789
 20
2068.597195441359
 10
927.1888347242123
 20
2068.628793024015
 10
927.2146017138224
 20
2068.659384671968
 10
927.2415714322224
 20
2068.688921445107
 10
927.269700733616
 20
2068.717356090896
 10
927.2989446171219
 20
2068.744643119968
 10
927.3292562987647
 20
2068.770738878896
 10
927.3605872863198
 20
2068.795601620033
 10
927.3928874568909
 20
2068.819191568298
 10
927.4261051370951
 20
2068.841470984804
 10
927.4601871857305
 20
2068.86240422724
 10
927.4950790787894
 20
2068.881957806881
 10
927.5307249966866
 20
2068.900100442173
 10
927.5670679135568
 20
2068.916803108769
 10
927.6040496884865
 20
2068.932039085964
 10
927.6416111585245
 20
2068.945783999446
 10
927.6796922333314
 20
2068.958015860286
 10
927.7182319913109
 20
2068.968715100115
 10
927.7571687770718
 20
2068.977864602432
 10
927.796440300063
 20
2068.985449729985
 10
927.8359837342252
 20
2068.991458348188
 10
927.8757358184991
 20
2068.995880844534
 10
927.9156329580295
 20
2068.998710143972
 10
927.9556113259051
 20
2068.999941720226
 10
927.9664074429632
 20
2068.999999999997
  0
LWPOLYLINE
  5
B0
330
87
100
AcDbEntity
  8
P-SANR-FIXT
100
AcDbPolyline
 90
        3
 70
   128
 43
0.0
 10
926.9664074429638
 20
1931.999999999995
 10
926.9664074429638
 20
1932.054392747049
 10
926.9664074429638
 20
1932.074703062739
  0
LWPOLYLINE
  5
B1
330
87
100
AcDbEntity
  8
P-SANR-FIXT
100
AcDbPolyline
 90
        3
 70
   128
 43
0.0
 10
926.9664074429632
 20
2067.909501824918
 10
926.9664074429632
 20
2067.984148364476
 10
926.9664074429632
 20
2067.999999999996
  0
LWPOLYLINE
  5
B2
330
87
100
AcDbEntity
  8
P-SANR-FIXT
100
AcDbPolyline
 90
       80
 70
   128
 43
0.0
 10
926.9664074429632
 20
2067.999999999996
 10
926.9664074429632
 20
2067.945607252943
 10
926.9664074429632
 20
2067.782516028575
 10
926.9664074429632
 20
2067.51098723806
 10
926.9664074429632
 20
2067.131455269539
 10
926.9664074429632
 20
2066.644527293201
 10
926.9664074429632
 20
2066.050982289934
 10
926.9664074429632
 20
2065.351769805129
 10
926.9664074429631
 20
2064.548008429602
 10
926.9664074429631
 20
2063.640984010096
 10
926.9664074429631
 20
2062.632147592192
 10
926.9664074429631
 20
2061.523113098954
 10
926.9664074429631
 20
2060.315654748988
 10
926.9664074429631
 20
2059.011704218077
 10
926.9664074429631
 20
2057.613347548909
 10
926.9664074429631
 20
2056.122821813854
 10
926.9664074429631
 20
2054.542511536128
 10
926.9664074429631
 20
2052.874944875059
 10
926.9664074429631
 20
2051.122789581577
 10
926.9664074429631
 20
2049.288848730378
 10
926.9664074429631
 20
2047.376056235603
 10
926.9664074429631
 20
2045.387472157205
 10
926.9664074429631
 20
2043.326277805499
 10
926.9664074429631
 20
2041.195770651752
 10
926.9664074429631
 20
2038.999359052923
 10
926.9664074429631
 20
2036.740556799029
 10
926.9664074429631
 20
2034.422977491825
 10
926.9664074429631
 20
2032.05032876381
 10
926.9664074429631
 20
2029.626406346812
 10
926.9664074429631
 20
2027.155087999622
 10
926.9664074429631
 20
2024.64032730441
 10
926.9664074429631
 20
2022.086147341833
 10
926.9664074429631
 20
2019.496634254969
 10
926.9664074429631
 20
2016.875930712357
 10
926.9664074429631
 20
2014.228229280612
 10
926.9664074429631
 20
2011.557765717212
 10
926.9664074429631
 20
2008.868812194189
 10
926.9664074429631
 20
2006.165670463568
 10
926.9664074429631
 20
2003.452664975479
 10
926.9664074429631
 20
2000.734135959957
 10
926.9664074429631
 20
1998.014432483508
 10
926.9664074429631
 20
1995.297905491519
 10
926.9664074429631
 20
1992.588900847684
 10
926.9664074429631
 20
1989.891752381543
 10
926.9664074429631
 20
1987.210774955279
 10
926.9664074429631
 20
1984.550257560865
 10
926.9664074429631
 20
1981.914456458584
 10
926.9664074429631
 20
1979.307588367927
 10
926.9664074429631
 20
1976.733823721734
 10
926.9664074429634
 20
1974.1972799944
 10
926.9664074429634
 20
1971.702015114789
 10
926.9664074429634
 20
1969.252020974413
 10
926.9664074429634
 20
1966.851217041259
 10
926.9664074429634
 20
1964.503444089475
 10
926.9664074429634
 20
1962.212458054953
 10
926.9664074429634
 20
1959.981924026632
 10
926.9664074429634
 20
1957.815410383133
 10
926.9664074429634
 20
1955.716383084122
 10
926.9664074429634
 20
1953.688200125509
 10
926.9664074429634
 20
1951.734106167371
 10
926.9664074429634
 20
1949.85722734319
 10
926.9664074429634
 20
1948.060566258707
 10
926.9664074429634
 20
1946.346997188387
 10
926.9664074429634
 20
1944.719261477202
 10
926.9664074429638
 20
1943.179963155059
 10
926.9664074429638
 20
1941.731564770907
 10
926.9664074429638
 20
1940.376383453184
 10
926.9664074429638
 20
1939.116587202909
 10
926.9664074429638
 20
1937.954191425342
 10
926.9664074429634
 20
1936.89105570576
 10
926.9664074429634
 20
1935.928880834526
 10
926.9664074429634
 20
1935.069206086181
 10
926.9664074429638
 20
1934.313406756933
 10
926.9664074429638
 20
1933.662691964482
 10
926.9664074429638
 20
1933.118102713683
 10
926.9664074429638
 20
1932.680510231165
 10
926.9664074429638
 20
1932.350614571552
 10
926.9664074429638
 20
1932.128943497525
 10
926.9664074429638
 20
1932.015851635516
 10
926.9664074429638
 20
1931.999999999995
  0
LINE
  5
B3
330
87
100
AcDbEntity
  8
P-SANR-FIXT
100
AcDbLine
 10
906.9664074430241
 20
1890.999999999994
 30
0.0
 11
906.9664074430233
 21
2108.999999999995
 31
0.0
  0
LINE
  5
B4
330
87
100
AcDbEntity
  8
P-SANR-FIXT
100
AcDbLine
 10
924.9664074429624
 20
1890.999999999994
 30
0.0
 11
924.9664074429617
 21
2108.999999999995
 31
0.0
  0
LINE
  5
B5
330
87
100
AcDbEntity
  8
P-SANR-FIXT
100
AcDbLine
 10
934.1664074430674
 20
2068.999999999995
 30
0.0
 11
934.166407443068
 21
1930.999999999994
 31
0.0
  0
LINE
  5
B6
330
87
100
AcDbEntity
  8
P-SANR-FIXT
100
AcDbLine
 10
726.8664074431442
 20
2048.49999999995
 30
0.0
 11
726.3664074431159
 21
2048.49999999995
 31
0.0
  0
LINE
  5
B7
330
87
100
AcDbEntity
  8
P-SANR-FIXT
100
AcDbLine
 10
726.3664074431155
 20
1951.500000000042
 30
0.0
 11
726.8664074431442
 21
1951.500000000042
 31
0.0
  0
LINE
  5
B8
330
87
100
AcDbEntity
  8
P-SANR-FIXT
100
AcDbLine
 10
726.3664074431159
 20
2108.999999999996
 30
0.0
 11
708.3664074431776
 21
2108.999999999996
 31
0.0
  0
LINE
  5
B9
330
87
100
AcDbEntity
  8
P-SANR-FIXT
100
AcDbLine
 10
708.3664074431769
 20
1890.999999999995
 30
0.0
 11
726.3664074431152
 21
1890.999999999995
 31
0.0
  0
LINE
  5
BA
330
87
100
AcDbEntity
  8
P-SANR-FIXT
100
AcDbLine
 10
708.3664074431772
 20
2048.49999999995
 30
0.0
 11
707.3664074431775
 21
2048.49999999995
 31
0.0
  0
LINE
  5
BB
330
87
100
AcDbEntity
  8
P-SANR-FIXT
100
AcDbLine
 10
707.366407443177
 20
1951.500000000042
 30
0.0
 11
708.3664074431767
 21
1951.500000000042
 31
0.0
  0
LWPOLYLINE
  5
BC
330
87
100
AcDbEntity
  8
P-SANR-FIXT
100
AcDbPolyline
 90
       39
 70
   128
 43
0.0
 10
707.3664074431771
 20
1951.500000000042
 10
707.3264181089907
 20
1951.499200106703
 10
707.2864927492081
 20
1951.496801706345
 10
707.2466952358884
 20
1951.492808635896
 10
707.2070892365628
 20
1951.487227283418
 10
707.1677381123821
 20
1951.480066577883
 10
707.1287048167501
 20
1951.471337974894
 10
707.090051794613
 20
1951.461055438352
 10
707.0518408825611
 20
1951.449235418124
 10
707.014133209902
 20
1951.43589682372
 10
706.9769891008685
 20
1951.421060994045
 10
706.9404679781111
 20
1951.404751663262
 10
706.9046282676358
 20
1951.386994922821
 10
706.8695273053336
 20
1951.36781917972
 10
706.8352212452562
 20
1951.347255111055
 10
706.8017649697821
 20
1951.325335614951
 10
706.7692120018147
 20
1951.302095757926
 10
706.7376144191586
 20
1951.277572718793
 10
706.7070227712058
 20
1951.251805729183
 10
706.6774859980665
 20
1951.224836010783
 10
706.6490513522778
 20
1951.196706709389
 10
706.6217643232063
 20
1951.167462825883
 10
706.5956685642783
 20
1951.13715114424
 10
706.5708058231408
 20
1951.105820156685
 10
706.5472158748763
 20
1951.073519986114
 10
706.5249364583692
 20
1951.04030230591
 10
706.5040032159338
 20
1951.006220257275
 10
706.4844496362922
 20
1950.971328364216
 10
706.4663070010006
 20
1950.935682446318
 10
706.4496043344055
 20
1950.899339529448
 10
706.43436835721
 20
1950.862357754519
 10
706.4206234437278
 20
1950.824796284481
 10
706.408391582888
 20
1950.786715209673
 10
706.3976923430589
 20
1950.748175451694
 10
706.3885428407419
 20
1950.709238665933
 10
706.3809577131888
 20
1950.669967142942
 10
706.3749490949854
 20
1950.63042370878
 10
706.3705265986394
 20
1950.590671624506
 10
706.3676972992015
 20
1950.550774484975
  0
LWPOLYLINE
  5
BD
330
87
100
AcDbEntity
  8
P-SANR-FIXT
100
AcDbPolyline
 90
       40
 70
   128
 43
0.0
 10
706.3672073365165
 20
2049.460010665763
 10
706.3696057368749
 20
2049.42008530598
 10
706.3735988073235
 20
2049.380287792661
 10
706.3791801598019
 20
2049.340681793335
 10
706.3863408653364
 20
2049.301330669155
 10
706.3950694683255
 20
2049.262297373523
 10
706.4053520048668
 20
2049.223644351386
 10
706.4171720250952
 20
2049.185433439334
 10
706.4305106194995
 20
2049.147725766675
 10
706.4453464491746
 20
2049.110581657641
 10
706.4616557799574
 20
2049.074060534884
 10
706.4794125203982
 20
2049.038220824408
 10
706.4985882634999
 20
2049.003119862106
 10
706.5191523321641
 20
2048.968813802029
 10
706.5410718282678
 20
2048.935357526555
 10
706.5643116852933
 20
2048.902804558588
 10
706.5888347244266
 20
2048.871206975931
 10
706.6146017140365
 20
2048.840615327979
 10
706.6415714324365
 20
2048.811078554839
 10
706.6697007338303
 20
2048.782643909051
 10
706.6989446173362
 20
2048.755356879979
 10
706.729256298979
 20
2048.729261121051
 10
706.760587286534
 20
2048.704398379914
 10
706.792887457105
 20
2048.680808431649
 10
706.8261051373094
 20
2048.658529015142
 10
706.8601871859446
 20
2048.637595772707
 10
706.8950790790038
 20
2048.618042193065
 10
706.9307249969007
 20
2048.599899557773
 10
706.9670679137713
 20
2048.583196891178
 10
707.0040496887009
 20
2048.567960913983
 10
707.0416111587388
 20
2048.5542160005
 10
707.0796922335455
 20
2048.541984139661
 10
707.1182319915251
 20
2048.531284899832
 10
707.1571687772859
 20
2048.522135397515
 10
707.1964403002772
 20
2048.514550269961
 10
707.2359837344393
 20
2048.508541651758
 10
707.2757358187132
 20
2048.504119155412
 10
707.3156329582438
 20
2048.501289855975
 10
707.3556113261191
 20
2048.50005827972
 10
707.3664074431775
 20
2048.49999999995
  0
LINE
  5
BE
330
87
100
AcDbEntity
  8
P-SANR-FIXT
100
AcDbLine
 10
705.3664074431775
 20
2068.999999999997
 30
0.0
 11
699.1664074430718
 21
2068.999999999997
 31
0.0
  0
LINE
  5
BF
330
87
100
AcDbEntity
  8
P-SANR-FIXT
100
AcDbLine
 10
699.1664074430713
 20
1930.999999999995
 30
0.0
 11
705.3664074431772
 21
1930.999999999995
 31
0.0
  0
LWPOLYLINE
  5
C0
330
87
100
AcDbEntity
  8
P-SANR-FIXT
100
AcDbPolyline
 90
       41
 70
   128
 43
0.0
 10
706.3664074431771
 20
1931.999999999995
 10
706.3656075498381
 20
1931.960010665808
 10
706.3632091494798
 20
1931.920085306026
 10
706.3592160790309
 20
1931.880287792706
 10
706.3536347265528
 20
1931.840681793381
 10
706.3464740210183
 20
1931.8013306692
 10
706.3377454180291
 20
1931.762297373568
 10
706.327462881488
 20
1931.723644351431
 10
706.3156428612597
 20
1931.685433439379
 10
706.3023042668551
 20
1931.64772576672
 10
706.2874684371799
 20
1931.610581657687
 10
706.2711591063973
 20
1931.574060534929
 10
706.2534023659565
 20
1931.538220824454
 10
706.2342266228549
 20
1931.503119862151
 10
706.2136625541906
 20
1931.468813802074
 10
706.1917430580868
 20
1931.4353575266
 10
706.1685032010615
 20
1931.402804558633
 10
706.1439801619281
 20
1931.371206975977
 10
706.118213172318
 20
1931.340615328024
 10
706.091243453918
 20
1931.311078554885
 10
706.0631141525244
 20
1931.282643909096
 10
706.0338702690184
 20
1931.255356880024
 10
706.0035585873757
 20
1931.229261121096
 10
705.9722275998206
 20
1931.204398379959
 10
705.9399274292498
 20
1931.180808431694
 10
705.9067097490452
 20
1931.158529015187
 10
705.8726277004101
 20
1931.137595772752
 10
705.8377358073508
 20
1931.11804219311
 10
705.8020898894539
 20
1931.099899557818
 10
705.7657469725834
 20
1931.083196891223
 10
705.7287651976539
 20
1931.067960914028
 10
705.6912037276158
 20
1931.054216000546
 10
705.6531226528091
 20
1931.041984139706
 10
705.6145828948294
 20
1931.031284899877
 10
705.5756461090687
 20
1931.02213539756
 10
705.5363745860773
 20
1931.014550270006
 10
705.4968311519153
 20
1931.008541651804
 10
705.4570790676415
 20
1931.004119155458
 10
705.4171819281107
 20
1931.00128985602
 10
705.3772035602354
 20
1931.000058279765
 10
705.3664074431773
 20
1930.999999999995
  0
LWPOLYLINE
  5
C1
330
87
100
AcDbEntity
  8
P-SANR-FIXT
100
AcDbPolyline
 90
       41
 70
   128
 43
0.0
 10
705.3664074431775
 20
2068.999999999997
 10
705.4063967773641
 20
2068.999200106658
 10
705.4463221371467
 20
2068.996801706299
 10
705.4861196504665
 20
2068.992808635851
 10
705.5257256497917
 20
2068.987227283372
 10
705.5650767739726
 20
2068.980066577838
 10
705.6041100696047
 20
2068.971337974849
 10
705.6427630917417
 20
2068.961055438307
 10
705.6809740037938
 20
2068.949235418079
 10
705.7186816764526
 20
2068.935896823675
 10
705.7558257854862
 20
2068.921060993999
 10
705.7923469082436
 20
2068.904751663216
 10
705.8281866187192
 20
2068.886994922776
 10
705.8632875810213
 20
2068.867819179674
 10
705.8975936410984
 20
2068.84725511101
 10
705.9310499165726
 20
2068.825335614906
 10
705.9636028845399
 20
2068.802095757881
 10
705.995200467196
 20
2068.777572718748
 10
706.0257921151491
 20
2068.751805729137
 10
706.0553288882881
 20
2068.724836010737
 10
706.0837635340772
 20
2068.696706709344
 10
706.1110505631486
 20
2068.667462825838
 10
706.1371463220766
 20
2068.637151144196
 10
706.1620090632139
 20
2068.60582015664
 10
706.1855990114786
 20
2068.573519986069
 10
706.2078784279854
 20
2068.540302305864
 10
706.228811670421
 20
2068.506220257229
 10
706.2483652500625
 20
2068.471328364171
 10
706.266507885354
 20
2068.435682446274
 10
706.2832105519494
 20
2068.399339529403
 10
706.2984465291449
 20
2068.362357754473
 10
706.3121914426272
 20
2068.324796284435
 10
706.3244233034668
 20
2068.286715209628
 10
706.3351225432959
 20
2068.248175451649
 10
706.3442720456129
 20
2068.209238665888
 10
706.3518571731662
 20
2068.169967142897
 10
706.3578657913694
 20
2068.130423708735
 10
706.3622882877153
 20
2068.090671624461
 10
706.3651175871532
 20
2068.05077448493
 10
706.3663491634075
 20
2068.010796117055
 10
706.3664074431776
 20
2067.999999999996
  0
LWPOLYLINE
  5
C2
330
87
100
AcDbEntity
  8
P-SANR-FIXT
100
AcDbPolyline
 90
        3
 70
   128
 43
0.0
 10
706.3664074431776
 20
2067.999999999996
 10
706.3664074431776
 20
2067.945607252943
 10
706.3664074431776
 20
2067.925296937252
  0
LWPOLYLINE
  5
C3
330
87
100
AcDbEntity
  8
P-SANR-FIXT
100
AcDbPolyline
 90
        3
 70
   128
 43
0.0
 10
706.3664074431771
 20
1932.090498175074
 10
706.3664074431771
 20
1932.015851635516
 10
706.3664074431771
 20
1931.999999999995
  0
LWPOLYLINE
  5
C4
330
87
100
AcDbEntity
  8
P-SANR-FIXT
100
AcDbPolyline
 90
       80
 70
   128
 43
0.0
 10
706.3664074431771
 20
1931.999999999995
 10
706.3664074431771
 20
1932.054392747049
 10
706.3664074431771
 20
1932.217483971417
 10
706.3664074431771
 20
1932.489012761932
 10
706.3664074431771
 20
1932.868544730452
 10
706.3664074431771
 20
1933.355472706791
 10
706.3664074431771
 20
1933.949017710057
 10
706.3664074431771
 20
1934.648230194863
 10
706.366407443177
 20
1935.451991570389
 10
706.366407443177
 20
1936.359015989896
 10
706.3664074431771
 20
1937.367852407799
 10
706.3664074431771
 20
1938.476886901038
 10
706.3664074431771
 20
1939.684345251004
 10
706.3664074431771
 20
1940.988295781915
 10
706.3664074431771
 20
1942.386652451083
 10
706.3664074431771
 20
1943.877178186137
 10
706.3664074431771
 20
1945.457488463863
 10
706.3664074431771
 20
1947.125055124932
 10
706.3664074431771
 20
1948.877210418414
 10
706.3664074431771
 20
1950.711151269613
 10
706.3664074431771
 20
1952.623943764388
 10
706.3664074431771
 20
1954.612527842786
 10
706.3664074431771
 20
1956.673722194492
 10
706.3664074431771
 20
1958.80422934824
 10
706.3664074431771
 20
1961.000640947068
 10
706.3664074431771
 20
1963.259443200962
 10
706.3664074431771
 20
1965.577022508166
 10
706.3664074431771
 20
1967.949671236181
 10
706.3664074431771
 20
1970.373593653179
 10
706.3664074431771
 20
1972.844912000369
 10
706.366407443177
 20
1975.359672695582
 10
706.366407443177
 20
1977.913852658159
 10
706.366407443177
 20
1980.503365745023
 10
706.366407443177
 20
1983.124069287634
 10
706.366407443177
 20
1985.771770719379
 10
706.366407443177
 20
1988.442234282779
 10
706.366407443177
 20
1991.131187805802
 10
706.366407443177
 20
1993.834329536422
 10
706.366407443177
 20
1996.547335024512
 10
706.366407443177
 20
1999.265864040033
 10
706.366407443177
 20
2001.985567516484
 10
706.366407443177
 20
2004.702094508472
 10
706.3664074431772
 20
2007.411099152307
 10
706.3664074431772
 20
2010.108247618449
 10
706.3664074431772
 20
2012.789225044712
 10
706.3664074431772
 20
2015.449742439126
 10
706.3664074431772
 20
2018.085543541407
 10
706.3664074431772
 20
2020.692411632065
 10
706.3664074431772
 20
2023.266176278257
 10
706.3664074431772
 20
2025.802720005591
 10
706.3664074431772
 20
2028.297984885202
 10
706.3664074431772
 20
2030.747979025578
 10
706.3664074431772
 20
2033.148782958733
 10
706.3664074431772
 20
2035.496555910516
 10
706.3664074431772
 20
2037.787541945038
 10
706.3664074431774
 20
2040.01807597336
 10
706.3664074431774
 20
2042.184589616859
 10
706.3664074431774
 20
2044.283616915869
 10
706.3664074431774
 20
2046.311799874483
 10
706.3664074431774
 20
2048.265893832621
 10
706.3664074431774
 20
2050.142772656801
 10
706.3664074431774
 20
2051.939433741285
 10
706.3664074431774
 20
2053.653002811604
 10
706.3664074431774
 20
2055.280738522789
 10
706.3664074431774
 20
2056.820036844932
 10
706.3664074431774
 20
2058.268435229085
 10
706.3664074431774
 20
2059.623616546808
 10
706.3664074431774
 20
2060.883412797082
 10
706.3664074431774
 20
2062.04580857465
 10
706.3664074431772
 20
2063.108944294231
 10
706.3664074431772
 20
2064.071119165466
 10
706.3664074431774
 20
2064.930793913811
 10
706.3664074431776
 20
2065.686593243059
 10
706.3664074431776
 20
2066.33730803551
 10
706.3664074431776
 20
2066.881897286309
 10
706.3664074431776
 20
2067.319489768827
 10
706.3664074431776
 20
2067.64938542844
 10
706.3664074431776
 20
2067.871056502466
 10
706.3664074431776
 20
2067.984148364476
 10
706.3664074431776
 20
2067.999999999996
  0
LINE
  5
C5
330
87
100
AcDbEntity
  8
P-SANR-FIXT
100
AcDbLine
 10
699.1664074430701
 20
1930.999999999994
 30
0.0
 11
699.1664074430705
 21
2068.999999999995
 31
0.0
  0
LINE
  5
C6
330
87
100
AcDbEntity
  8
P-SANR-FIXT
100
AcDbLine
 10
726.3664074431146
 20
2108.999999999995
 30
0.0
 11
726.3664074431138
 21
1890.999999999994
 31
0.0
  0
LINE
  5
C7
330
87
100
AcDbEntity
  8
P-SANR-FIXT
100
AcDbLine
 10
708.3664074431762
 20
2108.999999999995
 30
0.0
 11
708.3664074431757
 21
1890.999999999994
 31
0.0
  0
LINE
  5
C8
330
87
100
AcDbEntity
  8
P-SANR-FIXT
100
AcDbLine
 10
747.509929360422
 20
1815.971800928527
 30
0.0
 11
746.938143022291
 21
1815.400014590396
 31
0.0
  0
LINE
  5
C9
330
87
100
AcDbEntity
  8
P-SANR-FIXT
100
AcDbLine
 10
746.938143022291
 20
1810.000014590396
 30
0.0
 11
747.509929360422
 21
1809.428228252265
 31
0.0
  0
LINE
  5
CA
330
87
100
AcDbEntity
  8
P-SANR-FIXT
100
AcDbLine
 10
770.6988718767004
 20
1823.365353630569
 30
0.0
 11
764.1475361395721
 21
1823.365353630569
 31
0.0
  0
LINE
  5
CB
330
87
100
AcDbEntity
  8
P-SANR-FIXT
100
AcDbLine
 10
764.1475361395721
 20
1802.034675550222
 30
0.0
 11
770.6988718767004
 21
1802.034675550222
 31
0.0
  0
LINE
  5
CC
330
87
100
AcDbEntity
  8
P-SANR-FIXT
100
AcDbLine
 10
764.1475361395721
 20
1820.114061110084
 30
0.0
 11
759.9381430222909
 21
1820.114061110084
 31
0.0
  0
LINE
  5
CD
330
87
100
AcDbEntity
  8
P-SANR-FIXT
100
AcDbLine
 10
759.9381430222909
 20
1805.285968070707
 30
0.0
 11
764.1475361395721
 21
1805.285968070707
 31
0.0
  0
LINE
  5
CE
330
87
100
AcDbEntity
  8
P-SANR-FIXT
100
AcDbLine
 10
759.9381430222909
 20
1816.447327743941
 30
0.0
 11
750.6078288340562
 21
1816.447327743941
 31
0.0
  0
LINE
  5
CF
330
87
100
AcDbEntity
  8
P-SANR-FIXT
100
AcDbLine
 10
750.6078288340562
 20
1808.95270143685
 30
0.0
 11
759.9381430222909
 21
1808.95270143685
 31
0.0
  0
LINE
  5
D0
330
87
100
AcDbEntity
  8
P-SANR-FIXT
100
AcDbLine
 10
750.6078288340562
 20
1816.447327743941
 30
0.0
 11
749.9028313380413
 21
1815.971800928527
 31
0.0
  0
LINE
  5
D1
330
87
100
AcDbEntity
  8
P-SANR-FIXT
100
AcDbLine
 10
749.9028313380413
 20
1809.428228252265
 30
0.0
 11
750.6078288340562
 21
1808.95270143685
 31
0.0
  0
LINE
  5
D2
330
87
100
AcDbEntity
  8
P-SANR-FIXT
100
AcDbLine
 10
749.9028313380413
 20
1815.971800928527
 30
0.0
 11
747.509929360422
 21
1815.971800928527
 31
0.0
  0
LINE
  5
D3
330
87
100
AcDbEntity
  8
P-SANR-FIXT
100
AcDbLine
 10
747.509929360422
 20
1809.428228252265
 30
0.0
 11
749.9028313380413
 21
1809.428228252265
 31
0.0
  0
LINE
  5
D4
330
87
100
AcDbEntity
  8
P-SANR-FIXT
100
AcDbLine
 10
747.5099293604207
 20
1809.428228252263
 30
0.0
 11
747.5099293604207
 21
1815.971800928526
 31
0.0
  0
LINE
  5
D5
330
87
100
AcDbEntity
  8
P-SANR-FIXT
100
AcDbLine
 10
746.9381430222896
 20
1815.400014590395
 30
0.0
 11
746.9381430222896
 21
1810.000014590395
 31
0.0
  0
LINE
  5
D6
330
87
100
AcDbEntity
  8
P-SANR-FIXT
100
AcDbLine
 10
771.9381430222745
 20
1814.635458794632
 30
0.0
 11
771.9381430222745
 21
1810.764570386158
 31
0.0
  0
LINE
  5
D7
330
87
100
AcDbEntity
  8
P-SANR-FIXT
100
AcDbLine
 10
764.1475361395707
 20
1823.365353630568
 30
0.0
 11
764.1475361395707
 21
1802.034675550222
 31
0.0
  0
LINE
  5
D8
330
87
100
AcDbEntity
  8
P-SANR-FIXT
100
AcDbLine
 10
759.9381430222896
 20
1820.114061110083
 30
0.0
 11
759.9381430222896
 21
1805.285968070706
 31
0.0
  0
LINE
  5
D9
330
87
100
AcDbEntity
  8
P-SANR-FIXT
100
AcDbLine
 10
750.6078288340549
 20
1816.44732774394
 30
0.0
 11
750.6078288340549
 21
1808.952701436849
 31
0.0
  0
LINE
  5
DA
330
87
100
AcDbEntity
  8
P-SANR-FIXT
100
AcDbLine
 10
749.9028313380399
 20
1815.971800928526
 30
0.0
 11
749.9028313380399
 21
1809.428228252263
 31
0.0
  0
LWPOLYLINE
  5
DB
330
87
100
AcDbEntity
  8
P-SANR-FIXT
100
AcDbPolyline
 90
       41
 70
   128
 43
0.0
 10
754.8664074431357
 20
1929.9
 10
754.826418108949
 20
1929.900799893339
 10
754.7864927491664
 20
1929.903198293698
 10
754.7466952358466
 20
1929.907191364146
 10
754.7070892365215
 20
1929.912772716624
 10
754.6677381123405
 20
1929.919933422159
 10
754.6287048167084
 20
1929.928662025148
 10
754.5900517945715
 20
1929.938944561689
 10
754.5518408825194
 20
1929.950764581918
 10
754.5141332098604
 20
1929.964103176322
 10
754.476989100827
 20
1929.978939005997
 10
754.4404679780697
 20
1929.99524833678
 10
754.4046282675942
 20
1930.013005077221
 10
754.3695273052918
 20
1930.032180820322
 10
754.3352212452146
 20
1930.052744888987
 10
754.3017649697405
 20
1930.074664385091
 10
754.2692120017732
 20
1930.097904242115
 10
754.237614419117
 20
1930.122427281249
 10
754.2070227711641
 20
1930.148194270859
 10
754.177485998025
 20
1930.175163989259
 10
754.149051352236
 20
1930.203293290653
 10
754.1217643231647
 20
1930.232537174159
 10
754.0956685642365
 20
1930.262848855802
 10
754.0708058230992
 20
1930.294179843357
 10
754.0472158748346
 20
1930.326480013928
 10
754.0249364583275
 20
1930.359697694132
 10
754.0040032158922
 20
1930.393779742767
 10
753.9844496362507
 20
1930.428671635826
 10
753.9663070009591
 20
1930.464317553724
 10
753.9496043343639
 20
1930.500660470594
 10
753.9343683571683
 20
1930.537642245523
 10
753.9206234436861
 20
1930.575203715561
 10
753.9083915828464
 20
1930.613284790368
 10
753.8976923430174
 20
1930.651824548348
 10
753.8885428407003
 20
1930.690761334109
 10
753.8809577131472
 20
1930.7300328571
 10
753.8749490949438
 20
1930.769576291262
 10
753.870526598598
 20
1930.809328375536
 10
753.8676972991601
 20
1930.849225515066
 10
753.8664657229056
 20
1930.889203882942
 10
753.8664074431356
 20
1930.9
  0
LWPOLYLINE
  5
DC
330
87
100
AcDbEntity
  8
P-SANR-FIXT
100
AcDbPolyline
 90
       41
 70
   128
 43
0.0
 10
753.8664074431356
 20
2069.099999999992
 10
753.8672073364745
 20
2069.139989334178
 10
753.8696057368331
 20
2069.179914693961
 10
753.8735988072818
 20
2069.219712207281
 10
753.8791801597601
 20
2069.259318206606
 10
753.8863408652944
 20
2069.298669330787
 10
753.8950694682835
 20
2069.337702626419
 10
753.9053520048248
 20
2069.376355648556
 10
753.9171720250532
 20
2069.414566560608
 10
753.9305106194579
 20
2069.452274233267
 10
753.9453464491328
 20
2069.489418342301
 10
753.9616557799156
 20
2069.525939465057
 10
753.9794125203565
 20
2069.561779175533
 10
753.998588263458
 20
2069.596880137835
 10
754.0191523321222
 20
2069.631186197913
 10
754.0410718282259
 20
2069.664642473387
 10
754.0643116852512
 20
2069.697195441354
 10
754.0888347243846
 20
2069.72879302401
 10
754.1146017139947
 20
2069.759384671963
 10
754.1415714323947
 20
2069.788921445102
 10
754.1697007337884
 20
2069.817356090891
 10
754.1989446172941
 20
2069.844643119963
 10
754.2292562989371
 20
2069.870738878891
 10
754.2605872864921
 20
2069.895601620028
 10
754.2928874570632
 20
2069.919191568293
 10
754.3261051372675
 20
2069.9414709848
 10
754.3601871859029
 20
2069.962404227235
 10
754.3950790789619
 20
2069.981957806877
 10
754.4307249968589
 20
2070.000100442168
 10
754.4670679137293
 20
2070.016803108764
 10
754.5040496886589
 20
2070.032039085959
 10
754.5416111586968
 20
2070.045783999441
 10
754.5796922335036
 20
2070.058015860281
 10
754.6182319914832
 20
2070.06871510011
 10
754.6571687772442
 20
2070.077864602427
 10
754.6964403002354
 20
2070.08544972998
 10
754.7359837343975
 20
2070.091458348183
 10
754.7757358186713
 20
2070.09588084453
 10
754.8156329582019
 20
2070.098710143967
 10
754.8556113260773
 20
2070.099941720222
 10
754.8664074431357
 20
2070.099999999992
  0
LWPOLYLINE
  5
DD
330
87
100
AcDbEntity
  8
P-SANR-FIXT
100
AcDbPolyline
 90
        3
 70
   128
 43
0.0
 10
753.8664074431356
 20
1930.9
 10
753.8664074431356
 20
1930.955272629726
 10
753.8664074431356
 20
1930.974569429343
  0
LWPOLYLINE
  5
DE
330
87
100
AcDbEntity
  8
P-SANR-FIXT
100
AcDbPolyline
 90
        3
 70
   128
 43
0.0
 10
753.8664074431356
 20
2069.008891887368
 10
753.8664074431356
 20
2069.083891940955
 10
753.8664074431356
 20
2069.099999999992
  0
LWPOLYLINE
  5
DF
330
87
100
AcDbEntity
  8
P-SANR-FIXT
100
AcDbPolyline
 90
       80
 70
   128
 43
0.0
 10
753.8664074431356
 20
2069.099999999992
 10
753.8664074431356
 20
2069.044727370265
 10
753.8664074431356
 20
2068.878997905503
 10
753.8664074431356
 20
2068.603076737494
 10
753.8664074431356
 20
2068.217405281247
 10
753.8664074431356
 20
2067.722600528822
 10
753.8664074431356
 20
2067.119454062268
 10
753.8664074431356
 20
2066.408930787266
 10
753.8664074431353
 20
2065.592167389489
 10
753.8664074431353
 20
2064.670470516137
 10
753.8664074431355
 20
2063.645314685591
 10
753.8664074431355
 20
2062.518339928491
 10
753.8664074431355
 20
2061.29134916404
 10
753.8664074431355
 20
2059.966305315718
 10
753.8664074431355
 20
2058.545328171019
 10
753.8664074431355
 20
2057.030690990251
 10
753.8664074431355
 20
2055.424816869797
 10
753.8664074431355
 20
2053.730274865682
 10
753.8664074431355
 20
2051.949775883628
 10
753.8664074431355
 20
2050.086168342189
 10
753.8664074431355
 20
2048.142433615882
 10
753.8664074431355
 20
2046.121681265627
 10
753.8664074431355
 20
2044.027144064115
 10
753.8664074431355
 20
2041.862172824056
 10
753.8664074431355
 20
2039.6302310376
 10
753.8664074431355
 20
2037.334889335482
 10
753.8664074431355
 20
2034.979819774779
 10
753.8664074431355
 20
2032.568789964399
 10
753.8664074431355
 20
2030.105657037714
 10
753.8664074431353
 20
2027.594361481967
 10
753.8664074431353
 20
2025.038920834332
 10
753.8664074431353
 20
2022.443423254713
 10
753.8664074431353
 20
2019.812020985563
 10
753.8664074431353
 20
2017.148923709173
 10
753.8664074431353
 20
2014.458391813092
 10
753.8664074431353
 20
2011.744729574402
 10
753.8664074431355
 20
2009.012278273801
 10
753.8664074431355
 20
2006.265409250479
 10
753.8664074431355
 20
2003.508516908906
 10
753.8664074431355
 20
2000.746011688722
 10
753.8664074431355
 20
1997.982313008976
 10
753.8664074431355
 20
1995.221842198
 10
753.8664074431355
 20
1992.469015420221
 10
753.8664074431353
 20
1989.728236611245
 10
753.8664074431353
 20
1987.003890432498
 10
753.8664074431353
 20
1984.300335256704
 10
753.8664074431353
 20
1981.621896195416
 10
753.8664074431353
 20
1978.972858179762
 10
753.8664074431353
 20
1976.35745910547
 10
753.8664074431353
 20
1973.779883053136
 10
753.8664074431353
 20
1971.24425359459
 10
753.8664074431355
 20
1968.75462719606
 10
753.8664074431355
 20
1966.314986728693
 10
753.8664074431355
 20
1963.929235096808
 10
753.8664074431355
 20
1961.60118899408
 10
753.8664074431355
 20
1959.334572797653
 10
753.8664074431355
 20
1957.133012609922
 10
753.8664074431355
 20
1955.000030457545
 10
753.8664074431355
 20
1952.939038656954
 10
753.8664074431355
 20
1950.953334355376
 10
753.8664074431355
 20
1949.046094256098
 10
753.8664074431355
 20
1947.220369536425
 10
753.8664074431355
 20
1945.479080966438
 10
753.8664074431355
 20
1943.825014236396
 10
753.8664074431355
 20
1942.260815500219
 10
753.8664074431355
 20
1940.788987142205
 10
753.8664074431355
 20
1939.411883773755
 10
753.8664074431355
 20
1938.131708466491
 10
753.8664074431355
 20
1936.950509227815
 10
753.8664074431353
 20
1935.870175724534
 10
753.8664074431353
 20
1934.892436259795
 10
753.8664074431355
 20
1934.018855008167
 10
753.8664074431356
 20
1933.2508295133
 10
753.8664074431356
 20
1932.589588452147
 10
753.8664074431356
 20
1932.03618966935
 10
753.8664074431356
 20
1931.591518484909
 10
753.8664074431356
 20
1931.256286277861
 10
753.8664074431356
 20
1931.031029348226
 10
753.8664074431356
 20
1930.916108059037
 10
753.8664074431356
 20
1930.9
  0
LINE
  5
E0
330
87
100
AcDbEntity
  8
P-SANR-FIXT
100
AcDbLine
 10
758.3664074431356
 20
2070.099999999992
 30
0.0
 11
754.8664074431357
 21
2070.099999999992
 31
0.0
  0
LINE
  5
E1
330
87
100
AcDbEntity
  8
P-SANR-FIXT
100
AcDbLine
 10
754.8664074431357
 20
1929.9
 30
0.0
 11
758.3664074431356
 21
1929.9
 31
0.0
  0
LINE
  5
E2
330
87
100
AcDbEntity
  8
P-SANR-FIXT
100
AcDbLine
 10
758.3664074431346
 20
2070.099999999991
 30
0.0
 11
758.3664074431346
 21
1929.899999999999
 31
0.0
  0
LINE
  5
E3
330
87
100
AcDbEntity
  8
P-SANR-FIXT
100
AcDbLine
 10
767.1664074432048
 20
1734.200014590367
 30
0.0
 11
767.1664074432048
 21
1733.200014590366
 31
0.0
  0
LINE
  5
E4
330
87
100
AcDbEntity
  8
P-SANR-FIXT
100
AcDbLine
 10
864.1664074431146
 20
1733.200014590366
 30
0.0
 11
864.1664074431146
 21
1734.200014590367
 31
0.0
  0
LWPOLYLINE
  5
E5
330
87
100
AcDbEntity
  8
P-SANR-FIXT
100
AcDbPolyline
 90
       39
 70
   128
 43
0.0
 10
864.1664074431146
 20
1733.200014590366
 10
864.1672073364537
 20
1733.16002525618
 10
864.1696057368122
 20
1733.120099896397
 10
864.1735988072609
 20
1733.080302383078
 10
864.179180159739
 20
1733.040696383752
 10
864.1863408652735
 20
1733.001345259571
 10
864.1950694682627
 20
1732.962311963939
 10
864.2053520048039
 20
1732.923658941802
 10
864.2171720250322
 20
1732.88544802975
 10
864.2305106194369
 20
1732.847740357091
 10
864.2453464491119
 20
1732.810596248057
 10
864.2616557798948
 20
1732.7740751253
 10
864.2794125203353
 20
1732.738235414825
 10
864.2985882634372
 20
1732.703134452522
 10
864.3191523321013
 20
1732.668828392445
 10
864.341071828205
 20
1732.635372116971
 10
864.3643116852304
 20
1732.602819149004
 10
864.3888347243638
 20
1732.571221566348
 10
864.4146017139739
 20
1732.540629918395
 10
864.441571432374
 20
1732.511093145255
 10
864.4697007337676
 20
1732.482658499467
 10
864.4989446172733
 20
1732.455371470395
 10
864.529256298916
 20
1732.429275711467
 10
864.5605872864711
 20
1732.40441297033
 10
864.5928874570422
 20
1732.380823022065
 10
864.6261051372464
 20
1732.358543605558
 10
864.6601871858818
 20
1732.337610363123
 10
864.6950790789407
 20
1732.318056783481
 10
864.7307249968379
 20
1732.29991414819
 10
864.7670679137085
 20
1732.283211481595
 10
864.8040496886379
 20
1732.267975504399
 10
864.8416111586758
 20
1732.254230590917
 10
864.8796922334827
 20
1732.241998730077
 10
864.9182319914624
 20
1732.231299490248
 10
864.9571687772233
 20
1732.222149987931
 10
864.9964403002146
 20
1732.214564860378
 10
865.0359837343765
 20
1732.208556242175
 10
865.0757358186504
 20
1732.204133745829
 10
865.1156329581811
 20
1732.201304446391
  0
LWPOLYLINE
  5
E6
330
87
100
AcDbEntity
  8
P-SANR-FIXT
100
AcDbPolyline
 90
       40
 70
   128
 43
0.0
 10
766.2063967773914
 20
1732.200814483705
 10
766.246322137174
 20
1732.203212884064
 10
766.2861196504937
 20
1732.207205954512
 10
766.325725649819
 20
1732.212787306991
 10
766.3650767739998
 20
1732.219948012525
 10
766.4041100696318
 20
1732.228676615514
 10
766.4427630917688
 20
1732.238959152055
 10
766.4809740038208
 20
1732.250779172284
 10
766.5186816764799
 20
1732.264117766688
 10
766.5558257855134
 20
1732.278953596363
 10
766.5923469082706
 20
1732.295262927146
 10
766.6281866187463
 20
1732.313019667587
 10
766.6632875810486
 20
1732.332195410689
 10
766.6975936411257
 20
1732.352759479353
 10
766.7310499165998
 20
1732.374678975456
 10
766.7636028845671
 20
1732.397918832482
 10
766.7952004672231
 20
1732.422441871615
 10
766.8257921151763
 20
1732.448208861225
 10
766.8553288883153
 20
1732.475178579625
 10
766.8837635341041
 20
1732.503307881019
 10
766.9110505631756
 20
1732.532551764525
 10
766.9371463221039
 20
1732.562863446167
 10
766.9620090632411
 20
1732.594194433723
 10
766.9855990115059
 20
1732.626494604294
 10
767.0078784280126
 20
1732.659712284498
 10
767.0288116704481
 20
1732.693794333133
 10
767.0483652500897
 20
1732.728686226192
 10
767.0665078853812
 20
1732.764332144089
 10
767.0832105519765
 20
1732.80067506096
 10
767.0984465291719
 20
1732.83765683589
 10
767.1121914426544
 20
1732.875218305927
 10
767.124423303494
 20
1732.913299380734
 10
767.135122543323
 20
1732.951839138714
 10
767.1442720456401
 20
1732.990775924475
 10
767.1518571731931
 20
1733.030047447465
 10
767.1578657913965
 20
1733.069590881628
 10
767.1622882877423
 20
1733.109342965902
 10
767.1651175871804
 20
1733.149240105432
 10
767.1663491634348
 20
1733.189218473308
 10
767.1664074432047
 20
1733.200014590366
  0
LWPOLYLINE
  5
E7
330
87
100
AcDbEntity
  8
P-SANR-FIXT
100
AcDbPolyline
 90
       41
 70
   128
 43
0.0
 10
883.6664074431611
 20
1732.200014590366
 10
883.7063967773477
 20
1732.199214697027
 10
883.7463221371304
 20
1732.196816296669
 10
883.7861196504501
 20
1732.19282322622
 10
883.8257256497753
 20
1732.187241873742
 10
883.8650767739563
 20
1732.180081168207
 10
883.9041100695883
 20
1732.171352565218
 10
883.9427630917251
 20
1732.161070028677
 10
883.9809740037773
 20
1732.149250008449
 10
884.0186816764362
 20
1732.135911414044
 10
884.0558257854697
 20
1732.121075584369
 10
884.0923469082271
 20
1732.104766253586
 10
884.1281866187026
 20
1732.087009513145
 10
884.1632875810049
 20
1732.067833770044
 10
884.197593641082
 20
1732.04726970138
 10
884.2310499165561
 20
1732.025350205276
 10
884.2636028845234
 20
1732.002110348251
 10
884.2952004671795
 20
1731.977587309117
 10
884.3257921151327
 20
1731.951820319507
 10
884.3553288882716
 20
1731.924850601107
 10
884.3837635340607
 20
1731.896721299713
 10
884.411050563132
 20
1731.867477416208
 10
884.4371463220602
 20
1731.837165734565
 10
884.4620090631975
 20
1731.80583474701
 10
884.4855990114622
 20
1731.773534576438
 10
884.507878427969
 20
1731.740316896235
 10
884.5288116704045
 20
1731.706234847599
 10
884.548365250046
 20
1731.67134295454
 10
884.5665078853375
 20
1731.635697036643
 10
884.5832105519329
 20
1731.599354119773
 10
884.5984465291284
 20
1731.562372344843
 10
884.6121914426108
 20
1731.524810874805
 10
884.6244233034505
 20
1731.486729799998
 10
884.6351225432794
 20
1731.448190042019
 10
884.6442720455964
 20
1731.409253256257
 10
884.6518571731495
 20
1731.369981733267
 10
884.6578657913529
 20
1731.330438299104
 10
884.6622882876987
 20
1731.29068621483
 10
884.6651175871366
 20
1731.2507890753
 10
884.6663491633911
 20
1731.210810707424
 10
884.6664074431611
 20
1731.200014590366
  0
LWPOLYLINE
  5
E8
330
87
100
AcDbEntity
  8
P-SANR-FIXT
100
AcDbPolyline
 90
       41
 70
   128
 43
0.0
 10
746.6664074431583
 20
1731.200014590366
 10
746.6672073364973
 20
1731.240003924552
 10
746.6696057368557
 20
1731.279929284335
 10
746.6735988073044
 20
1731.319726797655
 10
746.6791801597827
 20
1731.359332796981
 10
746.6863408653169
 20
1731.398683921161
 10
746.6950694683063
 20
1731.437717216794
 10
746.7053520048475
 20
1731.476370238931
 10
746.7171720250758
 20
1731.514581150982
 10
746.7305106194804
 20
1731.552288823641
 10
746.7453464491553
 20
1731.589432932675
 10
746.7616557799383
 20
1731.625954055432
 10
746.779412520379
 20
1731.661793765908
 10
746.7985882634806
 20
1731.69689472821
 10
746.819152332145
 20
1731.731200788287
 10
746.8410718282485
 20
1731.764657063761
 10
746.8643116852741
 20
1731.797210031729
 10
746.8888347244073
 20
1731.828807614385
 10
746.9146017140175
 20
1731.859399262338
 10
746.9415714324173
 20
1731.888936035477
 10
746.9697007338112
 20
1731.917370681266
 10
746.9989446173169
 20
1731.944657710337
 10
747.0292562989596
 20
1731.970753469265
 10
747.0605872865148
 20
1731.995616210403
 10
747.0928874570859
 20
1732.019206158667
 10
747.12610513729
 20
1732.041485575174
 10
747.1601871859255
 20
1732.06241881761
 10
747.1950790789844
 20
1732.081972397251
 10
747.2307249968816
 20
1732.100115032543
 10
747.2670679137519
 20
1732.116817699138
 10
747.3040496886817
 20
1732.132053676334
 10
747.3416111587194
 20
1732.145798589815
 10
747.3796922335265
 20
1732.158030450656
 10
747.4182319915059
 20
1732.168729690485
 10
747.4571687772669
 20
1732.177879192802
 10
747.4964403002579
 20
1732.185464320355
 10
747.5359837344201
 20
1732.191472938558
 10
747.5757358186939
 20
1732.195895434904
 10
747.6156329582246
 20
1732.198724734342
 10
747.6556113261001
 20
1732.199956310596
 10
747.6664074431583
 20
1732.200014590366
  0
LWPOLYLINE
  5
E9
330
87
100
AcDbEntity
  8
P-SANR-FIXT
100
AcDbPolyline
 90
        3
 70
   128
 43
0.0
 10
747.6664074431583
 20
1732.200014590366
 10
747.7208001902119
 20
1732.200014590366
 10
747.7411105059023
 20
1732.200014590366
  0
LWPOLYLINE
  5
EA
330
87
100
AcDbEntity
  8
P-SANR-FIXT
100
AcDbPolyline
 90
        3
 70
   128
 43
0.0
 10
883.5759092680826
 20
1732.200014590366
 10
883.6505558076403
 20
1732.200014590366
 10
883.6664074431611
 20
1732.200014590366
  0
LWPOLYLINE
  5
EB
330
87
100
AcDbEntity
  8
P-SANR-FIXT
100
AcDbPolyline
 90
       80
 70
   128
 43
0.0
 10
883.6664074431611
 20
1732.200014590366
 10
883.6120146961077
 20
1732.200014590366
 10
883.4489234717393
 20
1732.200014590366
 10
883.1773946812242
 20
1732.200014590366
 10
882.7978627127038
 20
1732.200014590366
 10
882.3109347363656
 20
1732.200014590366
 10
881.7173897330992
 20
1732.200014590366
 10
881.0181772482934
 20
1732.200014590366
 10
880.2144158727669
 20
1732.200014590366
 10
879.3073914532605
 20
1732.200014590366
 10
878.2985550353572
 20
1732.200014590366
 10
877.1895205421184
 20
1732.200014590366
 10
875.9820621921523
 20
1732.200014590366
 10
874.678111661241
 20
1732.200014590366
 10
873.2797549920732
 20
1732.200014590366
 10
871.7892292570191
 20
1732.200014590366
 10
870.2089189792927
 20
1732.200014590366
 10
868.5413523182239
 20
1732.200014590366
 10
866.7891970247417
 20
1732.200014590366
 10
864.9552561735424
 20
1732.200014590366
 10
863.0424636787678
 20
1732.200014590366
 10
861.0538796003696
 20
1732.200014590366
 10
858.9926852486641
 20
1732.200014590366
 10
856.8621780949161
 20
1732.200014590366
 10
854.6657664960875
 20
1732.200014590366
 10
852.406964242194
 20
1732.200014590366
 10
850.0893849349894
 20
1732.200014590366
 10
847.7167362069746
 20
1732.200014590366
 10
845.2928137899766
 20
1732.200014590366
 10
842.8214954427868
 20
1732.200014590366
 10
840.3067347475738
 20
1732.200014590366
 10
837.7525547849966
 20
1732.200014590366
 10
835.1630416981329
 20
1732.200014590366
 10
832.5423381555211
 20
1732.200014590366
 10
829.8946367237764
 20
1732.200014590366
 10
827.2241731603763
 20
1732.200014590366
 10
824.5352196373536
 20
1732.200014590366
 10
821.8320779067326
 20
1732.200014590366
 10
819.119072418643
 20
1732.200014590366
 10
816.4005434031217
 20
1732.200014590366
 10
813.6808399266719
 20
1732.200014590366
 10
810.9643129346832
 20
1732.200014590366
 10
808.255308290848
 20
1732.200014590366
 10
805.5581598247066
 20
1732.200014590366
 10
802.8771823984435
 20
1732.200014590366
 10
800.2166650040292
 20
1732.200014590366
 10
797.5808639017485
 20
1732.200014590366
 10
794.9739958110904
 20
1732.200014590366
 10
792.4002311648981
 20
1732.200014590366
 10
789.8636874375645
 20
1732.200014590366
 10
787.3684225579534
 20
1732.200014590366
 10
784.9184284175771
 20
1732.200014590366
 10
782.5176244844226
 20
1732.200014590366
 10
780.1698515326388
 20
1732.200014590366
 10
777.8788654981171
 20
1732.200014590366
 10
775.6483314697954
 20
1732.200014590366
 10
773.4818178262965
 20
1732.200014590366
 10
771.3827905272856
 20
1732.200014590366
 10
769.3546075686723
 20
1732.200014590366
 10
767.4005136105346
 20
1732.200014590366
 10
765.5236347863538
 20
1732.200014590366
 10
763.7269737018698
 20
1732.200014590366
 10
762.0134046315504
 20
1732.200014590366
 10
760.3856689203659
 20
1732.200014590366
 10
758.8463705982227
 20
1732.200014590366
 10
757.39797221407
 20
1732.200014590366
 10
756.0427908963474
 20
1732.200014590366
 10
754.782994646073
 20
1732.200014590366
 10
753.620598868505
 20
1732.200014590366
 10
752.5574631489234
 20
1732.200014590366
 10
751.5952882776893
 20
1732.200014590366
 10
750.7356135293435
 20
1732.200014590366
 10
749.979814200096
 20
1732.200014590366
 10
749.3290994076446
 20
1732.200014590366
 10
748.7845101568458
 20
1732.200014590366
 10
748.346917674328
 20
1732.200014590366
 10
748.0170220147151
 20
1732.200014590366
 10
747.7953509406883
 20
1732.200014590366
 10
747.682259078679
 20
1732.200014590366
 10
747.6664074431583
 20
1732.200014590366
  0
LINE
  5
EC
330
87
100
AcDbEntity
  8
P-SANR-FIXT
100
AcDbLine
 10
746.6664074431583
 20
1731.200014590366
 30
0.0
 11
746.6664074431583
 21
1725.000014590261
 31
0.0
  0
LINE
  5
ED
330
87
100
AcDbEntity
  8
P-SANR-FIXT
100
AcDbLine
 10
884.6664074431611
 20
1725.000014590261
 30
0.0
 11
884.6664074431611
 21
1731.200014590366
 31
0.0
  0
LINE
  5
EE
330
87
100
AcDbEntity
  8
P-SANR-FIXT
100
AcDbLine
 10
706.6664074431586
 20
1752.200014590304
 30
0.0
 11
706.6664074431586
 21
1734.200014590367
 31
0.0
  0
LINE
  5
EF
330
87
100
AcDbEntity
  8
P-SANR-FIXT
100
AcDbLine
 10
924.6664074431608
 20
1734.200014590367
 30
0.0
 11
924.6664074431608
 21
1752.200014590304
 31
0.0
  0
LINE
  5
F0
330
87
100
AcDbEntity
  8
P-SANR-FIXT
100
AcDbLine
 10
767.1664074432052
 20
1752.700014590332
 30
0.0
 11
767.1664074432052
 21
1752.200014590304
 31
0.0
  0
LINE
  5
F1
330
87
100
AcDbEntity
  8
P-SANR-FIXT
100
AcDbLine
 10
864.1664074431142
 20
1752.200014590304
 30
0.0
 11
864.1664074431142
 21
1752.700014590332
 31
0.0
  0
LINE
  5
F2
330
87
100
AcDbEntity
  8
P-SANR-FIXT
100
AcDbLine
 10
924.6664074431592
 20
1734.200014590366
 30
0.0
 11
706.6664074431574
 21
1734.200014590366
 31
0.0
  0
LINE
  5
F3
330
87
100
AcDbEntity
  8
P-SANR-FIXT
100
AcDbLine
 10
746.6664074431569
 20
1725.000014590261
 30
0.0
 11
884.6664074431595
 21
1725.000014590261
 31
0.0
  0
LINE
  5
F4
330
87
100
AcDbEntity
  8
P-SANR-FIXT
100
AcDbLine
 10
706.6664074431574
 20
1752.200014590303
 30
0.0
 11
924.6664074431592
 21
1752.200014590303
 31
0.0
  0
ARC
  5
F5
330
87
100
AcDbEntity
  8
P-SANR-FIXT
100
AcDbCircle
 10
815.666407443158
 20
1850.000014590598
 30
0.0
 40
41.50000000000022
100
AcDbArc
 50
90.0
 51
269.9999999999995
  0
ARC
  5
F6
330
87
100
AcDbEntity
  8
P-SANR-FIXT
100
AcDbCircle
 10
815.666407443158
 20
1850.000014590598
 30
0.0
 40
41.50000000000025
100
AcDbArc
 50
269.9999999999999
 51
89.9999999999993
  0
ARC
  5
F7
330
87
100
AcDbEntity
  8
P-SANR-FIXT
100
AcDbCircle
 10
815.6664074431576
 20
1850.000014590598
 30
0.0
 40
42.00000000000009
100
AcDbArc
 50
269.9999999999991
 51
359.9999999999991
  0
ARC
  5
F8
330
87
100
AcDbEntity
  8
P-SANR-FIXT
100
AcDbCircle
 10
815.6664074431576
 20
1850.000014590598
 30
0.0
 40
41.99999999999987
100
AcDbArc
 50
180.0000000000004
 51
269.9999999999992
  0
ARC
  5
F9
330
87
100
AcDbEntity
  8
P-SANR-FIXT
100
AcDbCircle
 10
815.6664074431576
 20
1850.000014590598
 30
0.0
 40
41.99999999999988
100
AcDbArc
 50
90.00000000000031
 51
179.9999999999999
  0
ARC
  5
FA
330
87
100
AcDbEntity
  8
P-SANR-FIXT
100
AcDbCircle
 10
815.6664074431576
 20
1850.000014590598
 30
0.0
 40
42.00000000000018
100
AcDbArc
 50
359.9999999999995
 51
89.99999999999969
  0
LINE
  5
FB
330
87
100
AcDbEntity
  8
P-SANR-FIXT
100
AcDbLine
 10
791.6664074431597
 20
2217.999999999996
 30
0.0
 11
791.6664074431597
 21
2204.499999999996
 31
0.0
  0
LINE
  5
FC
330
87
100
AcDbEntity
  8
P-SANR-FIXT
100
AcDbLine
 10
839.6664074431598
 20
2204.499999999996
 30
0.0
 11
839.6664074431598
 21
2217.999999999996
 31
0.0
  0
LINE
  5
FD
330
87
100
AcDbEntity
  8
P-SANR-FIXT
100
AcDbLine
 10
913.66640744316
 20
2252.999999999997
 30
0.0
 11
896.6664074431601
 21
2252.999999999997
 31
0.0
  0
LINE
  5
FE
330
87
100
AcDbEntity
  8
P-SANR-FIXT
100
AcDbLine
 10
896.6664074431601
 20
2222.999999999996
 30
0.0
 11
913.66640744316
 21
2222.999999999996
 31
0.0
  0
LINE
  5
FF
330
87
100
AcDbEntity
  8
P-SANR-FIXT
100
AcDbLine
 10
827.6664074431582
 20
2217.999999999995
 30
0.0
 11
734.6664074431581
 21
2217.999999999995
 31
0.0
  0
LINE
  5
100
330
87
100
AcDbEntity
  8
P-SANR-FIXT
100
AcDbLine
 10
896.6664074431584
 20
2217.999999999995
 30
0.0
 11
827.6664074431582
 21
2217.999999999995
 31
0.0
  0
LINE
  5
101
330
87
100
AcDbEntity
  8
P-SANR-FIXT
100
AcDbLine
 10
896.6664074431585
 20
2324.999999999995
 30
0.0
 11
896.6664074431584
 21
2217.999999999995
 31
0.0
  0
LINE
  5
102
330
87
100
AcDbEntity
  8
P-SANR-FIXT
100
AcDbLine
 10
734.6664074431586
 20
2324.999999999995
 30
0.0
 11
896.6664074431585
 21
2324.999999999995
 31
0.0
  0
LINE
  5
103
330
87
100
AcDbEntity
  8
P-SANR-FIXT
100
AcDbLine
 10
734.6664074431581
 20
2217.999999999995
 30
0.0
 11
734.6664074431586
 21
2324.999999999995
 31
0.0
  0
LINE
  5
104
330
87
100
AcDbEntity
  8
P-SANR-FIXT
100
AcDbLine
 10
913.6664074431585
 20
2252.999999999995
 30
0.0
 11
913.6664074431585
 21
2222.999999999995
 31
0.0
  0
LWPOLYLINE
  5
105
330
87
100
AcDbEntity
  8
P-SANR-FIXT
100
AcDbPolyline
 90
       11
 70
   128
 43
0.0
 10
668.9718464919942
 20
1813.757538046319
 10
693.7377587829389
 20
1798.074390808097
 10
697.3910721202495
 20
1796.763727100652
 10
700.3260190796601
 20
1796.18883974398
 10
702.7555056033399
 20
1796.158983239718
 10
704.846232799638
 20
1796.542446243504
 10
706.9364923279668
 20
1797.31860528071
 10
711.2583096999705
 20
1799.981267892252
 10
721.3149127484151
 20
1805.994714765408
 10
728.8814251402629
 20
1808.317951359957
 10
746.938143022291
 20
1810.000014590396
  0
LWPOLYLINE
  5
106
330
87
100
AcDbEntity
  8
P-SANR-FIXT
100
AcDbPolyline
 90
       10
 70
   128
 43
0.0
 10
672.1458868543736
 20
1818.126229815943
 10
697.6078346744808
 20
1802.350674066635
 10
700.4875779370125
 20
1801.603036404028
 10
702.5015376509539
 20
1801.559176575044
 10
704.164894589442
 20
1801.962249557035
 10
705.6500308435281
 20
1802.71759416853
 10
713.7730052661672
 20
1808.240894192083
 10
721.474922580463
 20
1811.833801745756
 10
729.8665157959014
 20
1814.023733969329
 10
746.938143022291
 20
1815.400014590396
  0
LINE
  5
107
330
87
100
AcDbEntity
  8
P-SANR-FIXT
100
AcDbLine
 10
746.9381430222896
 20
1812.700014590395
 30
0.0
 11
746.9381430222896
 21
1810.000014590395
 31
0.0
  0
LINE
  5
108
330
87
100
AcDbEntity
  8
P-SANR-FIXT
100
AcDbLine
 10
746.9381430222896
 20
1815.400014590395
 30
0.0
 11
746.9381430222896
 21
1812.700014590395
 31
0.0
  0
LINE
  5
109
330
87
100
AcDbEntity
  8
P-SANR-FIXT
100
AcDbLine
 10
670.5588666731827
 20
1815.94188393113
 30
0.0
 11
672.1458868543724
 21
1818.126229815943
 31
0.0
  0
LINE
  5
10A
330
87
100
AcDbEntity
  8
P-SANR-FIXT
100
AcDbLine
 10
668.971846491993
 20
1813.757538046318
 30
0.0
 11
670.5588666731827
 21
1815.94188393113
 31
0.0
  0
LINE
  5
10B
330
87
100
AcDbEntity
  8
P-SANR-FIXT
100
AcDbLine
 10
835.6664074431598
 20
2068.499999999996
 30
0.0
 11
835.6664074431598
 21
2101.499999999996
 31
0.0
  0
LINE
  5
10C
330
87
100
AcDbEntity
  8
P-SANR-FIXT
100
AcDbLine
 10
795.6664074431596
 20
2101.499999999996
 30
0.0
 11
795.6664074431596
 21
2068.499999999996
 31
0.0
  0
LINE
  5
10D
330
87
100
AcDbEntity
  8
P-SANR-FIXT
100
AcDbLine
 10
871.6664074431601
 20
2053.124999999996
 30
0.0
 11
845.036126276789
 21
2068.499999999996
 31
0.0
  0
LINE
  5
10E
330
87
100
AcDbEntity
  8
P-SANR-FIXT
100
AcDbLine
 10
868.166410695048
 20
1944.85427593531
 30
0.0
 11
871.6664074431598
 21
1946.874999999995
 31
0.0
  0
LINE
  5
10F
330
87
100
AcDbEntity
  8
P-SANR-FIXT
100
AcDbLine
 10
845.0361262767895
 20
2068.499999999996
 30
0.0
 11
835.6664074431598
 21
2068.499999999996
 31
0.0
  0
LINE
  5
110
330
87
100
AcDbEntity
  8
P-SANR-FIXT
100
AcDbLine
 10
795.6664074431596
 20
2068.499999999996
 30
0.0
 11
775.9164074431597
 21
2068.499999999996
 31
0.0
  0
LINE
  5
111
330
87
100
AcDbEntity
  8
P-SANR-FIXT
100
AcDbLine
 10
775.9164074431597
 20
2068.499999999996
 30
0.0
 11
774.4164074431597
 21
2069.999999999996
 31
0.0
  0
LINE
  5
112
330
87
100
AcDbEntity
  8
P-SANR-FIXT
100
AcDbLine
 10
774.41640744316
 20
2069.999999999996
 30
0.0
 11
758.3664074431595
 21
2069.999999999996
 31
0.0
  0
LINE
  5
113
330
87
100
AcDbEntity
  8
P-SANR-FIXT
100
AcDbLine
 10
758.3664074431591
 20
1929.999999999996
 30
0.0
 11
763.1664041912718
 21
1929.999999999996
 31
0.0
  0
LINE
  5
114
330
87
100
AcDbEntity
  8
P-SANR-FIXT
100
AcDbLine
 10
763.1664041912718
 20
1929.999999999996
 30
0.0
 11
763.1664041912718
 21
1888.255004576561
 31
0.0
  0
LINE
  5
115
330
87
100
AcDbEntity
  8
P-SANR-FIXT
100
AcDbLine
 10
868.1664106950476
 20
1888.255004576561
 30
0.0
 11
868.1664106950476
 21
1944.85427593531
 31
0.0
  0
LINE
  5
116
330
87
100
AcDbEntity
  8
P-SANR-FIXT
100
AcDbLine
 10
763.1664041912713
 20
1888.255004576561
 30
0.0
 11
763.2867951122216
 21
1888.222745926517
 31
0.0
  0
LINE
  5
117
330
87
100
AcDbEntity
  8
P-SANR-FIXT
100
AcDbLine
 10
763.3132048483527
 20
1888.215669459048
 30
0.0
 11
766.8984720788146
 21
1887.254999999996
 31
0.0
  0
LINE
  5
118
330
87
100
AcDbEntity
  8
P-SANR-FIXT
100
AcDbLine
 10
864.4343428075048
 20
1887.254999999996
 30
0.0
 11
868.0196100379667
 21
1888.215669459048
 31
0.0
  0
LINE
  5
119
330
87
100
AcDbEntity
  8
P-SANR-FIXT
100
AcDbLine
 10
868.0452109034622
 20
1888.222529190283
 30
0.0
 11
868.166410695048
 21
1888.255004576561
 31
0.0
  0
LINE
  5
11A
330
87
100
AcDbEntity
  8
P-SANR-FIXT
100
AcDbLine
 10
906.6664074431582
 20
2048.999999999983
 30
0.0
 11
906.666407443158
 21
2042.274960442961
 31
0.0
  0
LINE
  5
11B
330
87
100
AcDbEntity
  8
P-SANR-FIXT
100
AcDbLine
 10
906.6664074431582
 20
2042.274960442961
 30
0.0
 11
906.666407443158
 21
2006.725039557016
 31
0.0
  0
LINE
  5
11C
330
87
100
AcDbEntity
  8
P-SANR-FIXT
100
AcDbLine
 10
906.666407443158
 20
2006.725039557016
 30
0.0
 11
906.666407443158
 21
1993.274960442979
 31
0.0
  0
LINE
  5
11D
330
87
100
AcDbEntity
  8
P-SANR-FIXT
100
AcDbLine
 10
906.666407443158
 20
1993.274960442979
 30
0.0
 11
906.666407443158
 21
1957.725039557027
 31
0.0
  0
LINE
  5
11E
330
87
100
AcDbEntity
  8
P-SANR-FIXT
100
AcDbLine
 10
906.666407443158
 20
1957.725039557027
 30
0.0
 11
906.6664074431582
 21
1951.00000000001
 31
0.0
  0
LINE
  5
11F
330
87
100
AcDbEntity
  8
P-SANR-FIXT
100
AcDbLine
 10
769.6664074431581
 20
2101.499999999995
 30
0.0
 11
815.666407443158
 21
2101.499999999995
 31
0.0
  0
LINE
  5
120
330
87
100
AcDbEntity
  8
P-SANR-FIXT
100
AcDbLine
 10
815.666407443158
 20
2101.499999999995
 30
0.0
 11
865.666407443158
 21
2101.499999999995
 31
0.0
  0
LINE
  5
121
330
87
100
AcDbEntity
  8
P-SANR-FIXT
100
AcDbLine
 10
865.666407443158
 20
2101.499999999995
 30
0.0
 11
865.666407443158
 21
2130.499999999995
 31
0.0
  0
LINE
  5
122
330
87
100
AcDbEntity
  8
P-SANR-FIXT
100
AcDbLine
 10
865.666407443158
 20
2130.499999999995
 30
0.0
 11
817.6664074431577
 21
2130.499999999995
 31
0.0
  0
ARC
  5
123
330
87
100
AcDbEntity
  8
P-SANR-FIXT
100
AcDbCircle
 10
817.6664074431581
 20
2147.499999999995
 30
0.0
 40
17.00000000000052
100
AcDbArc
 50
90.00000000000133
 51
269.9999999999991
  0
LINE
  5
124
330
87
100
AcDbEntity
  8
P-SANR-FIXT
100
AcDbLine
 10
817.6664074431581
 20
2164.499999999995
 30
0.0
 11
865.6664074431581
 21
2164.499999999995
 31
0.0
  0
LINE
  5
125
330
87
100
AcDbEntity
  8
P-SANR-FIXT
100
AcDbLine
 10
865.6664074431581
 20
2164.499999999995
 30
0.0
 11
865.6664074431581
 21
2204.499999999995
 31
0.0
  0
LINE
  5
126
330
87
100
AcDbEntity
  8
P-SANR-FIXT
100
AcDbLine
 10
865.6664074431581
 20
2204.499999999995
 30
0.0
 11
769.6664074431581
 21
2204.499999999995
 31
0.0
  0
LINE
  5
127
330
87
100
AcDbEntity
  8
P-SANR-FIXT
100
AcDbLine
 10
769.6664074431581
 20
2204.499999999995
 30
0.0
 11
769.6664074431581
 21
2101.499999999995
 31
0.0
  0
LINE
  5
128
330
87
100
AcDbEntity
  8
P-SANR-FIXT
100
AcDbLine
 10
871.6664074431578
 20
1993.274960442989
 30
0.0
 11
905.666407443158
 21
1993.274960442989
 31
0.0
  0
LINE
  5
129
330
87
100
AcDbEntity
  8
P-SANR-FIXT
100
AcDbLine
 10
905.666407443158
 20
2006.725039556999
 30
0.0
 11
871.666407443158
 21
2006.725039556999
 31
0.0
  0
LINE
  5
12A
330
87
100
AcDbEntity
  8
P-SANR-FIXT
100
AcDbLine
 10
871.6664074431582
 20
2042.274960442989
 30
0.0
 11
905.6664074431582
 21
2042.274960442989
 31
0.0
  0
LINE
  5
12B
330
87
100
AcDbEntity
  8
P-SANR-FIXT
100
AcDbLine
 10
905.6664074431582
 20
2048.999999999995
 30
0.0
 11
871.6664074431582
 21
2048.999999999995
 31
0.0
  0
LINE
  5
12C
330
87
100
AcDbEntity
  8
P-SANR-FIXT
100
AcDbLine
 10
871.666407443158
 20
1950.999999999994
 30
0.0
 11
905.6664074431578
 21
1950.999999999994
 31
0.0
  0
LINE
  5
12D
330
87
100
AcDbEntity
  8
P-SANR-FIXT
100
AcDbLine
 10
905.6664074431578
 20
1957.725039556999
 30
0.0
 11
871.6664074431578
 21
1957.725039556999
 31
0.0
  0
SPLINE
  5
12E
330
87
100
AcDbEntity
  8
P-SANR-FIXT
100
AcDbSpline
210
0.0
220
0.0
230
1.0
 70
     8
 71
     3
 72
    22
 73
    18
 74
     0
 42
0.000000001
 43
0.0000000001
 40
-1.0
 40
-1.0
 40
-1.0
 40
-1.0
 40
-0.9
 40
-0.85
 40
-0.8
 40
-0.75
 40
-0.7
 40
-0.65
 40
-0.6
 40
-0.55
 40
-0.5
 40
-0.45
 40
-0.4
 40
-0.35
 40
-0.3
 40
-0.2
 40
0.0
 40
0.0
 40
0.0
 40
0.0
 10
845.0361262767879
 20
1947.098392813462
 30
0.0
 10
846.453214373831
 20
1947.331197641248
 30
0.0
 10
848.509512225601
 20
1947.598804413653
 30
0.0
 10
851.0928943199804
 20
1947.788442646909
 30
0.0
 10
852.9460693657059
 20
1947.855025639679
 30
0.0
 10
854.7123029992123
 20
1947.81420408573
 30
0.0
 10
856.3866231248873
 20
1947.672844063881
 30
0.0
 10
857.9622583752058
 20
1947.472650011147
 30
0.0
 10
859.4337883046357
 20
1947.264397427111
 30
0.0
 10
860.7967150804865
 20
1947.02773920288
 30
0.0
 10
862.0503887944774
 20
1946.736570598534
 30
0.0
 10
863.1934868207805
 20
1946.434803873971
 30
0.0
 10
864.2250828863847
 20
1946.161149856822
 30
0.0
 10
865.1419044159094
 20
1945.905108103971
 30
0.0
 10
866.2073553768259
 20
1945.55324193908
 30
0.0
 10
867.6575584916077
 20
1945.044020329322
 30
0.0
 10
868.1664106950462
 20
1944.879618886638
 30
0.0
 10
868.1664106950462
 20
1944.854275935309
 30
0.0
  0
LINE
  5
12F
330
87
100
AcDbEntity
  8
P-SANR-FIXT
100
AcDbLine
 10
871.6664074431582
 20
1946.874999999994
 30
0.0
 11
871.6664074431582
 21
1950.999999999995
 31
0.0
  0
LINE
  5
130
330
87
100
AcDbEntity
  8
P-SANR-FIXT
100
AcDbLine
 10
871.6664074431578
 20
1957.725039556999
 30
0.0
 11
871.666407443158
 21
1950.999999999995
 31
0.0
  0
LINE
  5
131
330
87
100
AcDbEntity
  8
P-SANR-FIXT
100
AcDbLine
 10
871.6664074431582
 20
1957.725039556999
 30
0.0
 11
871.6664074431582
 21
1993.27496044299
 31
0.0
  0
LINE
  5
132
330
87
100
AcDbEntity
  8
P-SANR-FIXT
100
AcDbLine
 10
871.666407443158
 20
2006.725039557001
 30
0.0
 11
871.666407443158
 21
1993.274960442991
 31
0.0
  0
LINE
  5
133
330
87
100
AcDbEntity
  8
P-SANR-FIXT
100
AcDbLine
 10
871.6664074431582
 20
2006.725039557
 30
0.0
 11
871.6664074431584
 21
2042.274960442989
 31
0.0
  0
LINE
  5
134
330
87
100
AcDbEntity
  8
P-SANR-FIXT
100
AcDbLine
 10
871.6664074431582
 20
2048.999999999995
 30
0.0
 11
871.6664074431582
 21
2042.27496044299
 31
0.0
  0
LINE
  5
135
330
87
100
AcDbEntity
  8
P-SANR-FIXT
100
AcDbLine
 10
871.6664074431585
 20
2048.999999999995
 30
0.0
 11
871.6664074431585
 21
2053.124999999995
 31
0.0
  0
SPLINE
  5
136
330
87
100
AcDbEntity
  8
P-SANR-FIXT
100
AcDbSpline
210
0.0
220
0.0
230
1.0
 70
     8
 71
     3
 72
    12
 73
     8
 74
     0
 42
0.000000001
 43
0.0000000001
 40
-1.0
 40
-1.0
 40
-1.0
 40
-1.0
 40
-0.7857142857142857
 40
-0.5714285714285714
 40
-0.2857142857142857
 40
-0.1428571428571428
 40
0.0
 40
0.0
 40
0.0
 40
0.0
 10
815.6664074431583
 20
2065.515265396694
 30
0.0
 10
817.9609361647715
 20
2065.518218870841
 30
0.0
 10
822.4100118118425
 20
2065.757645537737
 30
0.0
 10
829.0491132530366
 20
2066.772588484274
 30
0.0
 10
833.3189220034892
 20
2067.835368755294
 30
0.0
 10
835.3270353310247
 20
2068.398862556569
 30
0.0
 10
835.6608521351555
 20
2068.499999999995
 30
0.0
 10
835.6664074431584
 20
2068.499999999995
 30
0.0
  0
SPLINE
  5
137
330
87
100
AcDbEntity
  8
P-SANR-FIXT
100
AcDbSpline
210
0.0
220
0.0
230
1.0
 70
     8
 71
     3
 72
    15
 73
    11
 74
     0
 42
0.000000001
 43
0.0000000001
 40
0.0
 40
0.0
 40
0.0
 40
0.0
 40
0.1666666666666666
 40
0.25
 40
0.3333333333333333
 40
0.4166666666666666
 40
0.5
 40
0.6666666666666666
 40
0.8333333333333332
 40
1.0
 40
1.0
 40
1.0
 40
1.0
 10
815.6664074431583
 20
1956.000003880088
 30
0.0
 10
817.5194459313198
 20
1955.964920563646
 30
0.0
 10
820.2475635967692
 20
1955.77662651547
 30
0.0
 10
823.7836095986054
 20
1955.256068718747
 30
0.0
 10
826.382050160956
 20
1954.740382261382
 30
0.0
 10
828.9383841028602
 20
1954.076172926131
 30
0.0
 10
832.2892231281228
 20
1953.003354509357
 30
0.0
 10
836.3170396291652
 20
1951.447032014515
 30
0.0
 10
840.8348539121069
 20
1949.401047626184
 30
0.0
 10
843.6673238003884
 20
1947.88133420863
 30
0.0
 10
845.0361262767875
 20
1947.098392813462
 30
0.0
  0
LINE
  5
138
330
87
100
AcDbEntity
  8
P-SANR-FIXT
100
AcDbLine
 10
845.0361262767881
 20
2068.499999999995
 30
0.0
 11
845.0361262767875
 21
1947.098392813462
 31
0.0
  0
SPLINE
  5
139
330
87
100
AcDbEntity
  8
P-SANR-FIXT
100
AcDbSpline
210
0.0
220
0.0
230
1.0
 70
     8
 71
     3
 72
    19
 73
    15
 74
     0
 42
0.000000001
 43
0.0000000001
 40
0.0
 40
0.0
 40
0.0
 40
0.0
 40
0.2
 40
0.3
 40
0.4
 40
0.475
 40
0.55
 40
0.5875
 40
0.625
 40
0.7
 40
0.775
 40
0.8125
 40
0.85
 40
1.0
 40
1.0
 40
1.0
 40
1.0
 10
775.9164074431582
 20
1940.703607541838
 30
0.0
 10
777.8396124908137
 20
1941.995186084758
 30
0.0
 10
780.9507444766302
 20
1944.000151100377
 30
0.0
 10
785.5604298203765
 20
1946.718640706683
 30
0.0
 10
788.9348212423038
 20
1948.542741810917
 30
0.0
 10
792.1619753899733
 20
1950.135587620335
 30
0.0
 10
794.6865583920608
 20
1951.280303749078
 30
0.0
 10
796.7653835373289
 20
1952.124557723391
 30
0.0
 10
798.884594403419
 20
1952.914157020525
 30
0.0
 10
801.6244540079593
 20
1953.848405451476
 30
0.0
 10
804.4507536808067
 20
1954.628428771056
 30
0.0
 10
806.7430924042922
 20
1955.110810467542
 30
0.0
 10
810.2234280962157
 20
1955.712472024782
 30
0.0
 10
813.2150710332055
 20
1955.964274935062
 30
0.0
 10
815.6664074431583
 20
1956.000003880088
 30
0.0
  0
SPLINE
  5
13A
330
87
100
AcDbEntity
  8
P-SANR-FIXT
100
AcDbSpline
210
0.0
220
0.0
230
1.0
 70
     8
 71
     3
 72
    12
 73
     8
 74
     0
 42
0.000000001
 43
0.0000000001
 40
-1.0
 40
-1.0
 40
-1.0
 40
-1.0
 40
-0.7857142857142857
 40
-0.5714285714285714
 40
-0.2857142857142857
 40
-0.1428571428571428
 40
0.0
 40
0.0
 40
0.0
 40
0.0
 10
795.6664074431582
 20
2068.499999999995
 30
0.0
 10
795.6747404051627
 20
2068.499999999995
 30
0.0
 10
796.4392741855648
 20
2068.268118611902
 30
0.0
 10
800.1184175415961
 20
2067.280772903788
 30
0.0
 10
805.460936385983
 20
2066.205908736339
 30
0.0
 10
811.1686768039916
 20
2065.619961975288
 30
0.0
 10
814.1367216287497
 20
2065.517234379459
 30
0.0
 10
815.6664074431583
 20
2065.515265396694
 30
0.0
  0
SPLINE
  5
13B
330
87
100
AcDbEntity
  8
P-SANR-FIXT
100
AcDbSpline
210
0.0
220
0.0
230
1.0
 70
     8
 71
     3
 72
     9
 73
     5
 74
     0
 42
0.000000001
 43
0.0000000001
 40
-1.0
 40
-1.0
 40
-1.0
 40
-1.0
 40
-0.5
 40
0.0
 40
0.0
 40
0.0
 40
0.0
 10
774.4164074431584
 20
1937.989418979078
 30
0.0
 10
774.6645359801942
 20
1938.43479089809
 30
0.0
 10
775.1630329274287
 20
1939.332527577563
 30
0.0
 10
775.6648992275992
 20
1940.244249939931
 30
0.0
 10
775.9164074431585
 20
1940.703607541838
 30
0.0
  0
LINE
  5
13C
330
87
100
AcDbEntity
  8
P-SANR-FIXT
100
AcDbLine
 10
775.9164074431582
 20
2068.499999999995
 30
0.0
 11
775.9164074431577
 21
1940.703607541838
 31
0.0
  0
SPLINE
  5
13D
330
87
100
AcDbEntity
  8
P-SANR-FIXT
100
AcDbSpline
210
0.0
220
0.0
230
1.0
 70
     8
 71
     3
 72
    10
 73
     6
 74
     0
 42
0.000000001
 43
0.0000000001
 40
0.0
 40
0.0
 40
0.0
 40
0.0
 40
0.3333333333333333
 40
0.6666666666666666
 40
1.0
 40
1.0
 40
1.0
 40
1.0
 10
763.1664041912704
 20
1929.999999999995
 30
0.0
 10
763.199643625232
 20
1929.999999999995
 30
0.0
 10
764.0805036780234
 20
1930.704392631065
 30
0.0
 10
768.1047232087234
 20
1933.639840061576
 30
0.0
 10
772.0699174030471
 20
1936.448098259874
 30
0.0
 10
774.4164074431581
 20
1937.989418979077
 30
0.0
  0
LINE
  5
13E
330
87
100
AcDbEntity
  8
P-SANR-FIXT
100
AcDbLine
 10
774.4164074431588
 20
2069.999999999995
 30
0.0
 11
774.4164074431581
 21
1937.989418979078
 31
0.0
  0
LINE
  5
13F
330
87
100
AcDbEntity
  8
P-SANR-FIXT
100
AcDbLine
 10
763.16640419127
 20
1888.25500457656
 30
0.0
 11
798.3631805887063
 21
1888.25500457656
 31
0.0
  0
LINE
  5
140
330
87
100
AcDbEntity
  8
P-SANR-FIXT
100
AcDbLine
 10
832.969634297609
 20
1888.25500457656
 30
0.0
 11
868.1664106950465
 21
1888.25500457656
 31
0.0
  0
LINE
  5
141
330
87
100
AcDbEntity
  8
P-SANR-FIXT
100
AcDbLine
 10
766.8984720788131
 20
1887.254999999995
 30
0.0
 11
796.3471239410075
 21
1887.254999999995
 31
0.0
  0
LINE
  5
142
330
87
100
AcDbEntity
  8
P-SANR-FIXT
100
AcDbLine
 10
834.9856909453079
 20
1887.254999999995
 30
0.0
 11
864.4343428075035
 21
1887.254999999995
 31
0.0
  0
LINE
  5
143
330
87
100
AcDbEntity
  8
P-SANR-FIXT
100
AcDbLine
 10
906.666407443158
 20
1993.27496044299
 30
0.0
 11
905.6664074431532
 21
1993.274960443038
 31
0.0
  0
LINE
  5
144
330
87
100
AcDbEntity
  8
P-SANR-FIXT
100
AcDbLine
 10
753.866407443134
 20
1993.27496044299
 30
0.0
 11
726.8664074431428
 21
1993.27496044299
 31
0.0
  0
LINE
  5
145
330
87
100
AcDbEntity
  8
P-SANR-FIXT
100
AcDbLine
 10
906.666407443158
 20
2042.274960442949
 30
0.0
 11
905.6664074431569
 21
2042.274960443
 31
0.0
  0
LINE
  5
146
330
87
100
AcDbEntity
  8
P-SANR-FIXT
100
AcDbLine
 10
753.866407443134
 20
2042.274960442949
 30
0.0
 11
726.8664074431428
 21
2042.274960442949
 31
0.0
  0
LINE
  5
147
330
87
100
AcDbEntity
  8
P-SANR-FIXT
100
AcDbLine
 10
906.6664074431582
 20
1950.999999999995
 30
0.0
 11
905.6664074431592
 21
1950.999999999995
 31
0.0
  0
LINE
  5
148
330
87
100
AcDbEntity
  8
P-SANR-FIXT
100
AcDbLine
 10
753.8664074431342
 20
1950.999999999995
 30
0.0
 11
726.866407443143
 21
1950.999999999995
 31
0.0
  0
LINE
  5
149
330
87
100
AcDbEntity
  8
P-SANR-FIXT
100
AcDbLine
 10
726.8664074431428
 20
2042.274960442961
 30
0.0
 11
726.8664074431428
 21
2006.725039557016
 31
0.0
  0
LINE
  5
14A
330
87
100
AcDbEntity
  8
P-SANR-FIXT
100
AcDbLine
 10
726.8664074431428
 20
2042.274960442961
 30
0.0
 11
726.866407443143
 21
2048.999999999983
 31
0.0
  0
LINE
  5
14B
330
87
100
AcDbEntity
  8
P-SANR-FIXT
100
AcDbLine
 10
726.866407443143
 20
1951.00000000001
 30
0.0
 11
726.8664074431428
 21
1957.725039557026
 31
0.0
  0
LINE
  5
14C
330
87
100
AcDbEntity
  8
P-SANR-FIXT
100
AcDbLine
 10
726.8664074431428
 20
1993.274960442979
 30
0.0
 11
726.8664074431428
 21
1957.725039557027
 31
0.0
  0
LINE
  5
14D
330
87
100
AcDbEntity
  8
P-SANR-FIXT
100
AcDbLine
 10
726.8664074431428
 20
1993.274960442979
 30
0.0
 11
726.8664074431428
 21
2006.725039557016
 31
0.0
  0
LINE
  5
14E
330
87
100
AcDbEntity
  8
P-SANR-FIXT
100
AcDbLine
 10
905.6664074431532
 20
2006.725039556952
 30
0.0
 11
906.666407443158
 21
2006.725039557016
 31
0.0
  0
LINE
  5
14F
330
87
100
AcDbEntity
  8
P-SANR-FIXT
100
AcDbLine
 10
726.8664074431428
 20
2006.725039557016
 30
0.0
 11
753.8664074431342
 21
2006.725039557016
 31
0.0
  0
LINE
  5
150
330
87
100
AcDbEntity
  8
P-SANR-FIXT
100
AcDbLine
 10
905.6664074431578
 20
1957.725039556996
 30
0.0
 11
906.666407443158
 21
1957.725039557027
 31
0.0
  0
LINE
  5
151
330
87
100
AcDbEntity
  8
P-SANR-FIXT
100
AcDbLine
 10
726.8664074431428
 20
1957.725039557027
 30
0.0
 11
753.866407443134
 21
1957.725039557027
 31
0.0
  0
LINE
  5
152
330
87
100
AcDbEntity
  8
P-SANR-FIXT
100
AcDbLine
 10
905.6664074431582
 20
2048.999999999991
 30
0.0
 11
906.6664074431582
 21
2048.999999999983
 31
0.0
  0
LINE
  5
153
330
87
100
AcDbEntity
  8
P-SANR-FIXT
100
AcDbLine
 10
726.866407443143
 20
2048.999999999983
 30
0.0
 11
753.8664074431342
 21
2048.999999999983
 31
0.0
  0
ENDBLK
  5
155
330
87
100
AcDbEntity
  8
0
100
AcDbBlockEnd
  0
BLOCK
  5
1C9
330
157
100
AcDbEntity
  8
0
100
AcDbBlockBegin
  2
Automatic flow rate regulator valve_Caleffi_121 DN15 - 1_2__-V1-Est - Idraulica
 70
     0
 10
0.0
 20
0.0
 30
0.0
  3
Automatic flow rate regulator valve_Caleffi_121 DN15 - 1_2__-V1-Est - Idraulica
  1

  0
LINE
  5
158
330
157
100
AcDbEntity
  8
P-SANR-FIXT
100
AcDbLine
 10
1207.664353943536
 20
1887.237558850011
 30
0.0
 11
1207.664353943536
 21
1864.182573440491
 31
0.0
  0
LINE
  5
159
330
157
100
AcDbEntity
  8
P-SANR-FIXT
100
AcDbLine
 10
1296.564353942662
 20
1864.182573440491
 30
0.0
 11
1296.564353942662
 21
1887.237558850011
 31
0.0
  0
LINE
  5
15A
330
157
100
AcDbEntity
  8
P-SANR-FIXT
100
AcDbLine
 10
1200.114353943096
 20
1864.182573440491
 30
0.0
 11
1200.114353943096
 21
1833.6825734404
 31
0.0
  0
LINE
  5
15B
330
157
100
AcDbEntity
  8
P-SANR-FIXT
100
AcDbLine
 10
1304.114353943103
 20
1833.6825734404
 30
0.0
 11
1304.114353943103
 21
1841.982573440627
 31
0.0
  0
LINE
  5
15C
330
157
100
AcDbEntity
  8
P-SANR-FIXT
100
AcDbLine
 10
1304.114353943103
 20
1857.982573440602
 30
0.0
 11
1304.114353943103
 21
1864.182573440491
 31
0.0
  0
LINE
  5
15D
330
157
100
AcDbEntity
  8
P-SANR-FIXT
100
AcDbLine
 10
1200.114353943096
 20
1833.6825734404
 30
0.0
 11
1207.114353943084
 21
1826.682573440412
 31
0.0
  0
LINE
  5
15E
330
157
100
AcDbEntity
  8
P-SANR-FIXT
100
AcDbLine
 10
1297.114353943114
 20
1826.682573440412
 30
0.0
 11
1304.114353943103
 21
1833.6825734404
 31
0.0
  0
LINE
  5
15F
330
157
100
AcDbEntity
  8
P-SANR-FIXT
100
AcDbLine
 10
1207.114353943084
 20
1826.682573440412
 30
0.0
 11
1207.114353943084
 21
1800.182573440412
 31
0.0
  0
LINE
  5
160
330
157
100
AcDbEntity
  8
P-SANR-FIXT
100
AcDbLine
 10
1297.114353943115
 20
1800.182573440412
 30
0.0
 11
1297.114353943115
 21
1826.682573440412
 31
0.0
  0
LINE
  5
161
330
157
100
AcDbEntity
  8
P-SANR-FIXT
100
AcDbLine
 10
1207.114353943084
 20
1800.182573440412
 30
0.0
 11
1203.614353943097
 21
1796.682573440425
 31
0.0
  0
LINE
  5
162
330
157
100
AcDbEntity
  8
P-SANR-FIXT
100
AcDbLine
 10
1300.614353943102
 20
1796.682573440425
 30
0.0
 11
1297.114353943114
 21
1800.182573440412
 31
0.0
  0
LINE
  5
163
330
157
100
AcDbEntity
  8
P-SANR-FIXT
100
AcDbLine
 10
1203.614353943097
 20
1796.682573440425
 30
0.0
 11
1203.614353943097
 21
1780.682573440349
 31
0.0
  0
LINE
  5
164
330
157
100
AcDbEntity
  8
P-SANR-FIXT
100
AcDbLine
 10
1300.614353943102
 20
1780.682573440349
 30
0.0
 11
1300.614353943102
 21
1796.682573440425
 31
0.0
  0
LINE
  5
165
330
157
100
AcDbEntity
  8
P-SANR-FIXT
100
AcDbLine
 10
1203.614353943097
 20
1780.682573440349
 30
0.0
 11
1202.114353943097
 21
1779.182573440349
 31
0.0
  0
LINE
  5
166
330
157
100
AcDbEntity
  8
P-SANR-FIXT
100
AcDbLine
 10
1302.114353943102
 20
1779.182573440349
 30
0.0
 11
1300.614353943102
 21
1780.682573440349
 31
0.0
  0
LINE
  5
167
330
157
100
AcDbEntity
  8
P-SANR-FIXT
100
AcDbLine
 10
1202.114353943097
 20
1779.182573440349
 30
0.0
 11
1202.114353943097
 21
1752.682573440347
 31
0.0
  0
LINE
  5
168
330
157
100
AcDbEntity
  8
P-SANR-FIXT
100
AcDbLine
 10
1302.114353943102
 20
1752.682573440347
 30
0.0
 11
1302.114353943102
 21
1779.182573440349
 31
0.0
  0
LINE
  5
169
330
157
100
AcDbEntity
  8
P-SANR-FIXT
100
AcDbLine
 10
1304.114353943103
 20
1841.982573440627
 30
0.0
 11
1309.233575475473
 21
1841.982573440627
 31
0.0
  0
LINE
  5
16A
330
157
100
AcDbEntity
  8
P-SANR-FIXT
100
AcDbLine
 10
1309.233575475473
 20
1857.982573440602
 30
0.0
 11
1304.114353943103
 21
1857.982573440602
 31
0.0
  0
LINE
  5
16B
330
157
100
AcDbEntity
  8
P-SANR-FIXT
100
AcDbLine
 10
1252.114353943097
 20
1752.682573440347
 30
0.0
 11
1202.114353943094
 21
1752.682573440347
 31
0.0
  0
LINE
  5
16C
330
157
100
AcDbEntity
  8
P-SANR-FIXT
100
AcDbLine
 10
1302.114353943099
 20
1752.682573440347
 30
0.0
 11
1252.114353943097
 21
1752.682573440347
 31
0.0
  0
LINE
  5
16D
330
157
100
AcDbEntity
  8
P-SANR-FIXT
100
AcDbLine
 10
1200.114353943093
 20
1864.18257344049
 30
0.0
 11
1252.114353943097
 21
1864.18257344049
 31
0.0
  0
LINE
  5
16E
330
157
100
AcDbEntity
  8
P-SANR-FIXT
100
AcDbLine
 10
1252.114353943097
 20
1864.18257344049
 30
0.0
 11
1304.1143539431
 21
1864.18257344049
 31
0.0
  0
SPLINE
  5
16F
330
157
100
AcDbEntity
  8
P-SANR-FIXT
100
AcDbSpline
210
0.0
220
0.0
230
1.0
 70
     8
 71
     3
 72
    23
 73
    19
 74
     0
 42
0.000000001
 43
0.0000000001
 40
0.0
 40
0.0
 40
0.0
 40
0.0
 40
0.0555555555555556
 40
0.1111111111111111
 40
0.1666666666666666
 40
0.2222222222222222
 40
0.2777777777777778
 40
0.3333333333333333
 40
0.3888888888888888
 40
0.4444444444444445
 40
0.5138888888888889
 40
0.5486111111111111
 40
0.5833333333333333
 40
0.6527777777777777
 40
0.7222222222222223
 40
0.7916666666666668
 40
0.861111111111111
 40
1.0
 40
1.0
 40
1.0
 40
1.0
 10
1304.1143539431
 20
1841.982573440626
 30
0.0
 10
1304.1143539431
 20
1841.987742616941
 30
0.0
 10
1304.100712953953
 20
1842.074644961984
 30
0.0
 10
1304.047252911836
 20
1842.423947942024
 30
0.0
 10
1303.963505720003
 20
1843.024427928811
 30
0.0
 10
1303.860561441021
 20
1843.820253071124
 30
0.0
 10
1303.751566844988
 20
1844.81551579627
 30
0.0
 10
1303.647563314489
 20
1845.957386540521
 30
0.0
 10
1303.56415594745
 20
1847.231279759818
 30
0.0
 10
1303.503038240331
 20
1848.695299774185
 30
0.0
 10
1303.490291415496
 20
1850.043732526988
 30
0.0
 10
1303.507346988509
 20
1851.207961530142
 30
0.0
 10
1303.544021668426
 20
1852.330007076173
 30
0.0
 10
1303.622998300252
 20
1853.721131806584
 30
0.0
 10
1303.750708506239
 20
1855.162134108345
 30
0.0
 10
1303.887372002356
 20
1856.372603894403
 30
0.0
 10
1304.052801426408
 20
1857.601219425528
 30
0.0
 10
1304.1143539431
 20
1857.969977151419
 30
0.0
 10
1304.1143539431
 20
1857.982573440602
 30
0.0
  0
LINE
  5
170
330
157
100
AcDbEntity
  8
P-SANR-FIXT
100
AcDbLine
 10
1200.114353943093
 20
1833.6825734404
 30
0.0
 11
1252.114353943097
 21
1833.6825734404
 31
0.0
  0
LINE
  5
171
330
157
100
AcDbEntity
  8
P-SANR-FIXT
100
AcDbLine
 10
1252.114353943097
 20
1833.6825734404
 30
0.0
 11
1304.1143539431
 21
1833.6825734404
 31
0.0
  0
LINE
  5
172
330
157
100
AcDbEntity
  8
P-SANR-FIXT
100
AcDbLine
 10
1207.114353943081
 20
1826.682573440412
 30
0.0
 11
1252.114353943097
 21
1826.682573440412
 31
0.0
  0
LINE
  5
173
330
157
100
AcDbEntity
  8
P-SANR-FIXT
100
AcDbLine
 10
1252.114353943097
 20
1826.682573440412
 30
0.0
 11
1297.114353943112
 21
1826.682573440412
 31
0.0
  0
LINE
  5
174
330
157
100
AcDbEntity
  8
P-SANR-FIXT
100
AcDbLine
 10
1207.114353943081
 20
1800.182573440412
 30
0.0
 11
1249.41254983835
 21
1800.182573440412
 31
0.0
  0
LINE
  5
175
330
157
100
AcDbEntity
  8
P-SANR-FIXT
100
AcDbLine
 10
1254.816158047843
 20
1800.182573440412
 30
0.0
 11
1297.114353943112
 21
1800.182573440412
 31
0.0
  0
LINE
  5
176
330
157
100
AcDbEntity
  8
P-SANR-FIXT
100
AcDbLine
 10
1203.614353943094
 20
1796.682573440424
 30
0.0
 11
1250.454476290806
 21
1796.682573440424
 31
0.0
  0
LINE
  5
177
330
157
100
AcDbEntity
  8
P-SANR-FIXT
100
AcDbLine
 10
1253.783817891436
 20
1796.682573440424
 30
0.0
 11
1300.614353943099
 21
1796.682573440424
 31
0.0
  0
LINE
  5
178
330
157
100
AcDbEntity
  8
P-SANR-FIXT
100
AcDbLine
 10
1203.614353943094
 20
1780.682573440348
 30
0.0
 11
1252.114353943097
 21
1780.682573440348
 31
0.0
  0
LINE
  5
179
330
157
100
AcDbEntity
  8
P-SANR-FIXT
100
AcDbLine
 10
1252.114353943097
 20
1780.682573440348
 30
0.0
 11
1300.614353943099
 21
1780.682573440348
 31
0.0
  0
LINE
  5
17A
330
157
100
AcDbEntity
  8
P-SANR-FIXT
100
AcDbLine
 10
1202.114353943094
 20
1779.182573440349
 30
0.0
 11
1252.114353943097
 21
1779.182573440349
 31
0.0
  0
LINE
  5
17B
330
157
100
AcDbEntity
  8
P-SANR-FIXT
100
AcDbLine
 10
1252.114353943097
 20
1779.182573440349
 30
0.0
 11
1302.114353943099
 21
1779.182573440349
 31
0.0
  0
ARC
  5
17C
330
157
100
AcDbEntity
  8
P-SANR-FIXT
100
AcDbCircle
 10
1252.114353943097
 20
1999.982558850011
 30
0.0
 40
69.00000000000045
100
AcDbArc
 50
90.0
 51
269.9999999999994
  0
ARC
  5
17D
330
157
100
AcDbEntity
  8
P-SANR-FIXT
100
AcDbCircle
 10
1252.114353943097
 20
1999.982558850011
 30
0.0
 40
31.75000000000251
100
AcDbArc
 50
90.00000000000081
 51
270.0000000000001
  0
ARC
  5
17E
330
157
100
AcDbEntity
  8
P-SANR-FIXT
100
AcDbCircle
 10
1252.114353943097
 20
1999.982558850011
 30
0.0
 40
69.00000000000057
100
AcDbArc
 50
269.9999999999994
 51
89.99999999999934
  0
ARC
  5
17F
330
157
100
AcDbEntity
  8
P-SANR-FIXT
100
AcDbCircle
 10
1252.114353943097
 20
1999.982558850011
 30
0.0
 40
31.75000000000228
100
AcDbArc
 50
269.9999999999997
 51
89.9999999999992
  0
ARC
  5
180
330
157
100
AcDbEntity
  8
P-SANR-FIXT
100
AcDbCircle
 10
1252.114353943097
 20
1999.982558850011
 30
0.0
 40
109.0000000000007
100
AcDbArc
 50
90.00000000000044
 51
269.9999999999999
  0
ARC
  5
181
330
157
100
AcDbEntity
  8
P-SANR-FIXT
100
AcDbCircle
 10
1252.114353943097
 20
1999.982558850011
 30
0.0
 40
109.0000000000004
100
AcDbArc
 50
269.9999999999999
 51
90.00000000000012
  0
ARC
  5
182
330
157
100
AcDbEntity
  8
P-SANR-FIXT
100
AcDbCircle
 10
1252.114353943097
 20
1812.682573440411
 30
0.0
 40
3.271786338130956
100
AcDbArc
 50
146.1500916972231
 51
213.459246631613
  0
ARC
  5
183
330
157
100
AcDbEntity
  8
P-SANR-FIXT
100
AcDbCircle
 10
1252.114353943097
 20
1812.682573440411
 30
0.0
 40
3.271786338131264
100
AcDbArc
 50
326.540760243451
 51
33.84990830276459
  0
ARC
  5
184
330
157
100
AcDbEntity
  8
P-SANR-FIXT
100
AcDbCircle
 10
1252.114353943097
 20
1812.682573440411
 30
0.0
 40
10.66533904017304
100
AcDbArc
 50
90.0
 51
255.3310318455692
  0
ARC
  5
185
330
157
100
AcDbEntity
  8
P-SANR-FIXT
100
AcDbCircle
 10
1252.114353943097
 20
1812.682573440411
 30
0.0
 40
10.66533904017342
100
AcDbArc
 50
284.6689681544321
 51
90.0
  0
ARC
  5
186
330
157
100
AcDbEntity
  8
P-SANR-FIXT
100
AcDbCircle
 10
1252.114353943097
 20
1812.682573440411
 30
0.0
 40
7.414046519688477
100
AcDbArc
 50
90.0
 51
248.6207721410812
  0
ARC
  5
187
330
157
100
AcDbEntity
  8
P-SANR-FIXT
100
AcDbCircle
 10
1252.114353943097
 20
1812.682573440411
 30
0.0
 40
7.414046519688781
100
AcDbArc
 50
291.3792278589229
 51
90.0
  0
ARC
  5
188
330
157
100
AcDbEntity
  8
P-SANR-FIXT
100
AcDbCircle
 10
1252.114353943097
 20
1812.682573440411
 30
0.0
 40
3.747313153545634
100
AcDbArc
 50
136.2130349546321
 51
223.7869650453675
  0
ARC
  5
189
330
157
100
AcDbEntity
  8
P-SANR-FIXT
100
AcDbCircle
 10
1252.114353943097
 20
1812.682573440411
 30
0.0
 40
3.747313153545798
100
AcDbArc
 50
316.2130349546365
 51
43.78696504536798
  0
LINE
  5
18A
330
157
100
AcDbEntity
  8
P-SANR-FIXT
100
AcDbLine
 10
1203.614353943144
 20
1734.182573440382
 30
0.0
 11
1203.614353943144
 21
1733.182573440382
 31
0.0
  0
LINE
  5
18B
330
157
100
AcDbEntity
  8
P-SANR-FIXT
100
AcDbLine
 10
1300.614353943054
 20
1733.182573440382
 30
0.0
 11
1300.614353943054
 21
1734.182573440382
 31
0.0
  0
LWPOLYLINE
  5
18C
330
157
100
AcDbEntity
  8
P-SANR-FIXT
100
AcDbPolyline
 90
       40
 70
   128
 43
0.0
 10
1202.654343277331
 20
1732.183373333721
 10
1202.694268637113
 20
1732.185771734079
 10
1202.734066150433
 20
1732.189764804528
 10
1202.773672149758
 20
1732.195346157006
 10
1202.813023273939
 20
1732.202506862541
 10
1202.852056569571
 20
1732.21123546553
 10
1202.890709591708
 20
1732.221518002071
 10
1202.92892050376
 20
1732.2333380223
 10
1202.966628176419
 20
1732.246676616704
 10
1203.003772285453
 20
1732.261512446379
 10
1203.04029340821
 20
1732.277821777162
 10
1203.076133118686
 20
1732.295578517603
 10
1203.111234080988
 20
1732.314754260704
 10
1203.145540141065
 20
1732.335318329369
 10
1203.17899641654
 20
1732.357237825472
 10
1203.211549384507
 20
1732.380477682497
 10
1203.243146967163
 20
1732.40500072163
 10
1203.273738615116
 20
1732.430767711241
 10
1203.303275388255
 20
1732.457737429641
 10
1203.331710034044
 20
1732.485866731035
 10
1203.358997063115
 20
1732.51511061454
 10
1203.385092822043
 20
1732.545422296183
 10
1203.409955563181
 20
1732.576753283738
 10
1203.433545511445
 20
1732.609053454309
 10
1203.455824927952
 20
1732.642271134514
 10
1203.476758170388
 20
1732.676353183149
 10
1203.496311750029
 20
1732.711245076208
 10
1203.51445438532
 20
1732.746890994105
 10
1203.531157051916
 20
1732.783233910976
 10
1203.546393029111
 20
1732.820215685905
 10
1203.560137942594
 20
1732.857777155943
 10
1203.572369803433
 20
1732.89585823075
 10
1203.583069043262
 20
1732.93439798873
 10
1203.59221854558
 20
1732.97333477449
 10
1203.599803673133
 20
1733.012606297482
 10
1203.605812291336
 20
1733.052149731644
 10
1203.610234787682
 20
1733.091901815917
 10
1203.61306408712
 20
1733.131798955448
 10
1203.614295663374
 20
1733.171777323323
 10
1203.614353943144
 20
1733.182573440382
  0
LWPOLYLINE
  5
18D
330
157
100
AcDbEntity
  8
P-SANR-FIXT
100
AcDbPolyline
 90
       39
 70
   128
 43
0.0
 10
1300.614353943054
 20
1733.182573440382
 10
1300.615153836393
 20
1733.142584106195
 10
1300.617552236752
 20
1733.102658746412
 10
1300.6215453072
 20
1733.062861233093
 10
1300.627126659678
 20
1733.023255233767
 10
1300.634287365213
 20
1732.983904109587
 10
1300.643015968202
 20
1732.944870813955
 10
1300.653298504743
 20
1732.906217791818
 10
1300.665118524972
 20
1732.868006879766
 10
1300.678457119376
 20
1732.830299207107
 10
1300.693292949051
 20
1732.793155098073
 10
1300.709602279834
 20
1732.756633975316
 10
1300.727359020275
 20
1732.720794264841
 10
1300.746534763377
 20
1732.685693302538
 10
1300.767098832041
 20
1732.651387242461
 10
1300.789018328144
 20
1732.617930966987
 10
1300.81225818517
 20
1732.585377999019
 10
1300.836781224303
 20
1732.553780416363
 10
1300.862548213913
 20
1732.52318876841
 10
1300.889517932313
 20
1732.493651995272
 10
1300.917647233707
 20
1732.465217349482
 10
1300.946891117213
 20
1732.437930320411
 10
1300.977202798856
 20
1732.411834561483
 10
1301.008533786411
 20
1732.386971820345
 10
1301.040833956982
 20
1732.363381872081
 10
1301.074051637186
 20
1732.341102455574
 10
1301.108133685821
 20
1732.320169213139
 10
1301.14302557888
 20
1732.300615633497
 10
1301.178671496777
 20
1732.282472998205
 10
1301.215014413648
 20
1732.26577033161
 10
1301.251996188577
 20
1732.250534354415
 10
1301.289557658615
 20
1732.236789440932
 10
1301.327638733422
 20
1732.224557580092
 10
1301.366178491402
 20
1732.213858340263
 10
1301.405115277163
 20
1732.204708837947
 10
1301.444386800154
 20
1732.197123710393
 10
1301.483930234316
 20
1732.19111509219
 10
1301.523682318589
 20
1732.186692595844
 10
1301.56357945812
 20
1732.183863296406
  0
LWPOLYLINE
  5
18E
330
157
100
AcDbEntity
  8
P-SANR-FIXT
100
AcDbPolyline
 90
       41
 70
   128
 43
0.0
 10
1183.114353943098
 20
1731.182573440382
 10
1183.115153836437
 20
1731.222562774568
 10
1183.117552236795
 20
1731.262488134351
 10
1183.121545307244
 20
1731.302285647671
 10
1183.127126659722
 20
1731.341891646996
 10
1183.134287365257
 20
1731.381242771177
 10
1183.143015968246
 20
1731.420276066809
 10
1183.153298504787
 20
1731.458929088946
 10
1183.165118525015
 20
1731.497140000998
 10
1183.17845711942
 20
1731.534847673657
 10
1183.193292949095
 20
1731.57199178269
 10
1183.209602279878
 20
1731.608512905448
 10
1183.227359020318
 20
1731.644352615924
 10
1183.24653476342
 20
1731.679453578226
 10
1183.267098832085
 20
1731.713759638303
 10
1183.289018328188
 20
1731.747215913777
 10
1183.312258185214
 20
1731.779768881744
 10
1183.336781224347
 20
1731.8113664644
 10
1183.362548213957
 20
1731.841958112354
 10
1183.389517932357
 20
1731.871494885492
 10
1183.417647233751
 20
1731.899929531282
 10
1183.446891117256
 20
1731.927216560353
 10
1183.477202798899
 20
1731.953312319281
 10
1183.508533786454
 20
1731.978175060418
 10
1183.540833957025
 20
1732.001765008683
 10
1183.574051637229
 20
1732.024044425189
 10
1183.608133685865
 20
1732.044977667625
 10
1183.643025578924
 20
1732.064531247267
 10
1183.678671496821
 20
1732.082673882558
 10
1183.715014413691
 20
1732.099376549153
 10
1183.751996188621
 20
1732.114612526349
 10
1183.789557658659
 20
1732.128357439832
 10
1183.827638733466
 20
1732.140589300671
 10
1183.866178491445
 20
1732.1512885405
 10
1183.905115277206
 20
1732.160438042817
 10
1183.944386800197
 20
1732.16802317037
 10
1183.98393023436
 20
1732.174031788574
 10
1184.023682318633
 20
1732.17845428492
 10
1184.063579458164
 20
1732.181283584357
 10
1184.103557826039
 20
1732.182515160612
 10
1184.114353943098
 20
1732.182573440382
  0
LWPOLYLINE
  5
18F
330
157
100
AcDbEntity
  8
P-SANR-FIXT
100
AcDbPolyline
 90
       41
 70
   128
 43
0.0
 10
1252.114353943099
 20
1732.182573440382
 10
1249.395079218408
 20
1732.182573440382
 10
1246.680154753196
 20
1732.182573440382
 10
1243.973923847452
 20
1732.182573440382
 10
1241.28071589333
 20
1732.182573440382
 10
1238.604839449035
 20
1732.182573440382
 10
1235.950575346054
 20
1732.182573440382
 10
1233.322169840739
 20
1732.182573440382
 10
1230.723827821203
 20
1732.182573440382
 10
1228.159706080393
 20
1732.182573440382
 10
1225.633906666111
 20
1732.182573440382
 10
1223.150470318611
 20
1732.182573440382
 10
1220.713370006278
 20
1732.182573440382
 10
1218.326504569725
 20
1732.182573440382
 10
1215.993692484478
 20
1732.182573440382
 10
1213.718665752236
 20
1732.182573440382
 10
1211.505063930456
 20
1732.182573440382
 10
1209.356428309843
 20
1732.182573440382
 10
1207.276196249038
 20
1732.182573440382
 10
1205.267695675581
 20
1732.182573440382
 10
1203.334139761931
 20
1732.182573440382
 10
1201.47862178508
 20
1732.182573440382
 10
1199.704110177968
 20
1732.182573440382
 10
1198.013443780625
 20
1732.182573440382
 10
1196.40932729863
 20
1732.182573440382
 10
1194.894326976161
 20
1732.182573440382
 10
1193.470866490551
 20
1732.182573440382
 10
1192.141223074921
 20
1732.182573440382
 10
1190.907523875095
 20
1732.182573440382
 10
1189.771742546618
 20
1732.182573440382
 10
1188.735696097326
 20
1732.182573440382
 10
1187.801041980529
 20
1732.182573440382
 10
1186.96927544343
 20
1732.182573440382
 10
1186.241727135056
 20
1732.182573440382
 10
1185.619560977496
 20
1732.182573440382
 10
1185.103772303882
 20
1732.182573440382
 10
1184.695186266063
 20
1732.182573440382
 10
1184.394456514538
 20
1732.182573440382
 10
1184.202064152758
 20
1732.182573440382
 10
1184.11831696746
 20
1732.182573440382
 10
1184.114353943098
 20
1732.182573440382
  0
LWPOLYLINE
  5
190
330
157
100
AcDbEntity
  8
P-SANR-FIXT
100
AcDbPolyline
 90
       20
 70
   128
 43
0.0
 10
1184.114353943098
 20
1732.182573440382
 10
1184.168746690151
 20
1732.182573440382
 10
1184.33183791452
 20
1732.182573440382
 10
1184.603366705035
 20
1732.182573440382
 10
1184.982898673555
 20
1732.182573440382
 10
1185.469826649893
 20
1732.182573440382
 10
1186.06337165316
 20
1732.182573440382
 10
1186.762584137965
 20
1732.182573440382
 10
1187.566345513492
 20
1732.182573440382
 10
1188.473369932999
 20
1732.182573440382
 10
1189.482206350902
 20
1732.182573440382
 10
1190.59124084414
 20
1732.182573440382
 10
1191.798699194107
 20
1732.182573440382
 10
1193.102649725018
 20
1732.182573440382
 10
1194.501006394186
 20
1732.182573440382
 10
1195.99153212924
 20
1732.182573440382
 10
1197.571842406966
 20
1732.182573440382
 10
1199.239409068035
 20
1732.182573440382
 10
1200.991564361517
 20
1732.182573440382
 10
1202.614353943144
 20
1732.182573440382
  0
LWPOLYLINE
  5
191
330
157
100
AcDbEntity
  8
P-SANR-FIXT
100
AcDbPolyline
 90
       41
 70
   128
 43
0.0
 10
1320.114353943101
 20
1732.182573440382
 10
1320.154343277287
 20
1732.181773547043
 10
1320.19426863707
 20
1732.179375146684
 10
1320.234066150389
 20
1732.175382076236
 10
1320.273672149715
 20
1732.169800723757
 10
1320.313023273895
 20
1732.162640018223
 10
1320.352056569528
 20
1732.153911415234
 10
1320.390709591665
 20
1732.143628878693
 10
1320.428920503717
 20
1732.131808858464
 10
1320.466628176375
 20
1732.11847026406
 10
1320.503772285409
 20
1732.103634434385
 10
1320.540293408166
 20
1732.087325103602
 10
1320.576133118642
 20
1732.069568363161
 10
1320.611234080944
 20
1732.05039262006
 10
1320.645540141021
 20
1732.029828551395
 10
1320.678996416495
 20
1732.007909055291
 10
1320.711549384463
 20
1731.984669198266
 10
1320.743146967119
 20
1731.960146159133
 10
1320.773738615072
 20
1731.934379169523
 10
1320.803275388211
 20
1731.907409451123
 10
1320.831710034
 20
1731.879280149729
 10
1320.858997063071
 20
1731.850036266223
 10
1320.885092821999
 20
1731.81972458458
 10
1320.909955563137
 20
1731.788393597025
 10
1320.933545511401
 20
1731.756093426454
 10
1320.955824927908
 20
1731.72287574625
 10
1320.976758170344
 20
1731.688793697615
 10
1320.996311749985
 20
1731.653901804556
 10
1321.014454385277
 20
1731.618255886658
 10
1321.031157051872
 20
1731.581912969788
 10
1321.046393029068
 20
1731.544931194859
 10
1321.06013794255
 20
1731.50736972482
 10
1321.07236980339
 20
1731.469288650014
 10
1321.083069043219
 20
1731.430748892034
 10
1321.092218545536
 20
1731.391812106273
 10
1321.099803673089
 20
1731.352540583282
 10
1321.105812291292
 20
1731.31299714912
 10
1321.110234787638
 20
1731.273245064846
 10
1321.113064087076
 20
1731.233347925315
 10
1321.114295663331
 20
1731.193369557441
 10
1321.1143539431
 20
1731.182573440382
  0
LWPOLYLINE
  5
192
330
157
100
AcDbEntity
  8
P-SANR-FIXT
100
AcDbPolyline
 90
       21
 70
   128
 43
0.0
 10
1301.614353943054
 20
1732.182573440382
 10
1302.750086101118
 20
1732.182573440382
 10
1304.52459770823
 20
1732.182573440382
 10
1306.215264105573
 20
1732.182573440382
 10
1307.819380587568
 20
1732.182573440382
 10
1309.334380910037
 20
1732.182573440382
 10
1310.757841395647
 20
1732.182573440382
 10
1312.087484811277
 20
1732.182573440382
 10
1313.321184011103
 20
1732.182573440382
 10
1314.45696533958
 20
1732.182573440382
 10
1315.493011788872
 20
1732.182573440382
 10
1316.427665905669
 20
1732.182573440382
 10
1317.259432442767
 20
1732.182573440382
 10
1317.986980751142
 20
1732.182573440382
 10
1318.609146908702
 20
1732.182573440382
 10
1319.124935582316
 20
1732.182573440382
 10
1319.533521620135
 20
1732.182573440382
 10
1319.83425137166
 20
1732.182573440382
 10
1320.02664373344
 20
1732.182573440382
 10
1320.110390918738
 20
1732.182573440382
 10
1320.114353943101
 20
1732.182573440382
  0
LWPOLYLINE
  5
193
330
157
100
AcDbEntity
  8
P-SANR-FIXT
100
AcDbPolyline
 90
       41
 70
   128
 43
0.0
 10
1320.114353943101
 20
1732.182573440382
 10
1320.059961196047
 20
1732.182573440382
 10
1319.896869971679
 20
1732.182573440382
 10
1319.625341181163
 20
1732.182573440382
 10
1319.245809212643
 20
1732.182573440382
 10
1318.758881236305
 20
1732.182573440382
 10
1318.165336233038
 20
1732.182573440382
 10
1317.466123748233
 20
1732.182573440382
 10
1316.662362372706
 20
1732.182573440382
 10
1315.7553379532
 20
1732.182573440382
 10
1314.746501535297
 20
1732.182573440382
 10
1313.637467042058
 20
1732.182573440382
 10
1312.430008692092
 20
1732.182573440382
 10
1311.12605816118
 20
1732.182573440382
 10
1309.727701492013
 20
1732.182573440382
 10
1308.237175756958
 20
1732.182573440382
 10
1306.656865479232
 20
1732.182573440382
 10
1304.989298818163
 20
1732.182573440382
 10
1303.237143524681
 20
1732.182573440382
 10
1301.403202673482
 20
1732.182573440382
 10
1299.490410178708
 20
1732.182573440382
 10
1297.501826100309
 20
1732.182573440382
 10
1295.440631748604
 20
1732.182573440382
 10
1293.310124594856
 20
1732.182573440382
 10
1291.113712996027
 20
1732.182573440382
 10
1288.854910742134
 20
1732.182573440382
 10
1286.537331434929
 20
1732.182573440382
 10
1284.164682706914
 20
1732.182573440382
 10
1281.740760289917
 20
1732.182573440382
 10
1279.269441942727
 20
1732.182573440382
 10
1276.754681247514
 20
1732.182573440382
 10
1274.200501284937
 20
1732.182573440382
 10
1271.610988198073
 20
1732.182573440382
 10
1268.990284655461
 20
1732.182573440382
 10
1266.342583223716
 20
1732.182573440382
 10
1263.672119660316
 20
1732.182573440382
 10
1260.983166137293
 20
1732.182573440382
 10
1258.280024406673
 20
1732.182573440382
 10
1255.567018918583
 20
1732.182573440382
 10
1252.848489903062
 20
1732.182573440382
 10
1252.1143539431
 20
1732.182573440382
  0
LINE
  5
194
330
157
100
AcDbEntity
  8
P-SANR-FIXT
100
AcDbLine
 10
1183.114353943098
 20
1731.182573440382
 30
0.0
 11
1183.114353943098
 21
1724.982573440277
 31
0.0
  0
LINE
  5
195
330
157
100
AcDbEntity
  8
P-SANR-FIXT
100
AcDbLine
 10
1321.1143539431
 20
1724.982573440277
 30
0.0
 11
1321.1143539431
 21
1731.182573440382
 31
0.0
  0
LINE
  5
196
330
157
100
AcDbEntity
  8
P-SANR-FIXT
100
AcDbLine
 10
1143.114353943098
 20
1752.182573440319
 30
0.0
 11
1143.114353943098
 21
1734.182573440382
 31
0.0
  0
LINE
  5
197
330
157
100
AcDbEntity
  8
P-SANR-FIXT
100
AcDbLine
 10
1361.1143539431
 20
1734.182573440382
 30
0.0
 11
1361.1143539431
 21
1752.182573440319
 31
0.0
  0
LINE
  5
198
330
157
100
AcDbEntity
  8
P-SANR-FIXT
100
AcDbLine
 10
1203.614353943145
 20
1752.682573440347
 30
0.0
 11
1203.614353943145
 21
1752.182573440319
 31
0.0
  0
LINE
  5
199
330
157
100
AcDbEntity
  8
P-SANR-FIXT
100
AcDbLine
 10
1300.614353943054
 20
1752.182573440319
 30
0.0
 11
1300.614353943054
 21
1752.682573440347
 31
0.0
  0
LINE
  5
19A
330
157
100
AcDbEntity
  8
P-SANR-FIXT
100
AcDbLine
 10
1361.114353943098
 20
1734.182573440382
 30
0.0
 11
1252.114353943098
 21
1734.182573440382
 31
0.0
  0
LINE
  5
19B
330
157
100
AcDbEntity
  8
P-SANR-FIXT
100
AcDbLine
 10
1252.114353943097
 20
1734.182573440382
 30
0.0
 11
1143.114353943096
 21
1734.182573440382
 31
0.0
  0
LINE
  5
19C
330
157
100
AcDbEntity
  8
P-SANR-FIXT
100
AcDbLine
 10
1183.114353943095
 20
1724.982573440276
 30
0.0
 11
1252.114353943097
 21
1724.982573440276
 31
0.0
  0
LINE
  5
19D
330
157
100
AcDbEntity
  8
P-SANR-FIXT
100
AcDbLine
 10
1252.114353943097
 20
1724.982573440276
 30
0.0
 11
1321.114353943098
 21
1724.982573440276
 31
0.0
  0
LINE
  5
19E
330
157
100
AcDbEntity
  8
P-SANR-FIXT
100
AcDbLine
 10
1143.114353943096
 20
1752.182573440318
 30
0.0
 11
1252.114353943096
 21
1752.182573440318
 31
0.0
  0
LINE
  5
19F
330
157
100
AcDbEntity
  8
P-SANR-FIXT
100
AcDbLine
 10
1252.114353943097
 20
1752.182573440318
 30
0.0
 11
1361.114353943098
 21
1752.182573440318
 31
0.0
  0
LINE
  5
1A0
330
157
100
AcDbEntity
  8
P-SANR-FIXT
100
AcDbLine
 10
1309.233575475473
 20
1807.982573440614
 30
0.0
 11
1318.733575475473
 21
1807.982573440614
 31
0.0
  0
LINE
  5
1A1
330
157
100
AcDbEntity
  8
P-SANR-FIXT
100
AcDbLine
 10
1318.733575475473
 20
1891.982573440614
 30
0.0
 11
1309.233575475473
 21
1891.982573440614
 31
0.0
  0
LINE
  5
1A2
330
157
100
AcDbEntity
  8
P-SANR-FIXT
100
AcDbLine
 10
1318.733575475473
 20
1807.982573440614
 30
0.0
 11
1319.233575475473
 21
1808.482573440614
 31
0.0
  0
LINE
  5
1A3
330
157
100
AcDbEntity
  8
P-SANR-FIXT
100
AcDbLine
 10
1319.233575475473
 20
1891.482573440615
 30
0.0
 11
1318.733575475473
 21
1891.982573440615
 31
0.0
  0
LINE
  5
1A4
330
157
100
AcDbEntity
  8
P-SANR-FIXT
100
AcDbLine
 10
1319.23357547547
 20
1891.482573440614
 30
0.0
 11
1319.23357547547
 21
1808.482573440613
 31
0.0
  0
LINE
  5
1A5
330
157
100
AcDbEntity
  8
P-SANR-FIXT
100
AcDbLine
 10
1309.23357547547
 20
1849.982573440614
 30
0.0
 11
1309.23357547547
 21
1891.982573440614
 31
0.0
  0
LINE
  5
1A6
330
157
100
AcDbEntity
  8
P-SANR-FIXT
100
AcDbLine
 10
1309.23357547547
 20
1807.982573440614
 30
0.0
 11
1309.23357547547
 21
1849.982573440614
 31
0.0
  0
LINE
  5
1A7
330
157
100
AcDbEntity
  8
P-SANR-FIXT
100
AcDbLine
 10
1318.73357547547
 20
1807.982573440614
 30
0.0
 11
1318.73357547547
 21
1849.982573440614
 31
0.0
  0
LINE
  5
1A8
330
157
100
AcDbEntity
  8
P-SANR-FIXT
100
AcDbLine
 10
1318.73357547547
 20
1849.982573440614
 30
0.0
 11
1318.73357547547
 21
1891.982573440614
 31
0.0
  0
LINE
  5
1A9
330
157
100
AcDbEntity
  8
P-SANR-FIXT
100
AcDbLine
 10
1228.114353943099
 20
2217.982558850012
 30
0.0
 11
1228.114353943099
 21
2204.482558850012
 31
0.0
  0
LINE
  5
1AA
330
157
100
AcDbEntity
  8
P-SANR-FIXT
100
AcDbLine
 10
1276.114353943099
 20
2204.482558850012
 30
0.0
 11
1276.114353943099
 21
2217.982558850012
 31
0.0
  0
LINE
  5
1AB
330
157
100
AcDbEntity
  8
P-SANR-FIXT
100
AcDbLine
 10
1203.114353943097
 20
2217.982558850011
 30
0.0
 11
1203.114353943097
 21
2324.982558850011
 31
0.0
  0
LINE
  5
1AC
330
157
100
AcDbEntity
  8
P-SANR-FIXT
100
AcDbLine
 10
1301.114353943097
 20
2217.982558850011
 30
0.0
 11
1203.114353943097
 21
2217.982558850011
 31
0.0
  0
LINE
  5
1AD
330
157
100
AcDbEntity
  8
P-SANR-FIXT
100
AcDbLine
 10
1203.114353943097
 20
2324.982558850011
 30
0.0
 11
1301.114353943097
 21
2324.982558850011
 31
0.0
  0
LINE
  5
1AE
330
157
100
AcDbEntity
  8
P-SANR-FIXT
100
AcDbLine
 10
1301.114353943097
 20
2217.982558850011
 30
0.0
 11
1301.114353943097
 21
2324.982558850011
 31
0.0
  0
LWPOLYLINE
  5
1AF
330
157
100
AcDbEntity
  8
P-SANR-FIXT
100
AcDbPolyline
 90
       17
 70
   128
 43
0.0
 10
1249.414401676984
 20
1798.781928847926
 10
1249.467295310837
 20
1798.266471449541
 10
1249.619270453898
 20
1797.765675664302
 10
1249.861730685113
 20
1797.309082141379
 10
1250.190926635099
 20
1796.902241514535
 10
1250.58735223156
 20
1796.570472526684
 10
1251.045333353713
 20
1796.317487899787
 10
1251.538068592725
 20
1796.159204053847
 10
1252.057471950873
 20
1796.097360379473
 10
1252.574534170191
 20
1796.136470897008
 10
1253.03819572081
 20
1796.259841730596
 10
1253.419607821854
 20
1796.433477409381
 10
1254.010599384208
 20
1796.875042799855
 10
1254.359735504317
 20
1797.298171004743
 10
1254.560841558366
 20
1797.655284706593
 10
1254.755867182127
 20
1798.239523391962
 10
1254.814306209215
 20
1798.781928847926
  0
LWPOLYLINE
  5
1B0
330
157
100
AcDbEntity
  8
P-SANR-FIXT
100
AcDbPolyline
 90
        9
 70
   128
 43
0.0
 10
1249.414353943099
 20
1815.924442781147
 10
1249.414353943099
 20
1805.298881424495
 10
1249.414353943099
 20
1800.005398973734
 10
1249.414353943099
 20
1798.838936191598
 10
1249.414353943099
 20
1800.594433840817
 10
1249.414353943099
 20
1804.066427096751
 10
1249.414353943099
 20
1808.045807228604
 10
1249.414353943099
 20
1811.321539928248
 10
1249.414353943099
 20
1811.662911913861
  0
LWPOLYLINE
  5
1B1
330
157
100
AcDbEntity
  8
P-SANR-FIXT
100
AcDbPolyline
 90
        9
 70
   128
 43
0.0
 10
1254.814353943099
 20
1811.650998426335
 10
1254.814353943099
 20
1811.321539928248
 10
1254.814353943099
 20
1808.045807228604
 10
1254.814353943099
 20
1804.066427096751
 10
1254.814353943099
 20
1800.594433840817
 10
1254.814353943099
 20
1798.838936191598
 10
1254.814353943099
 20
1800.005398973734
 10
1254.814353943099
 20
1805.298881424495
 10
1254.8143539431
 20
1815.924442781147
  0
LWPOLYLINE
  5
1B2
330
157
100
AcDbEntity
  8
P-SANR-FIXT
100
AcDbPolyline
 90
        5
 70
   128
 43
0.0
 10
1254.8143539431
 20
1815.924442781147
 10
1254.814353943099
 20
1805.298881424495
 10
1254.814353943099
 20
1800.005398973734
 10
1254.814353943099
 20
1798.838936191598
 10
1254.814353943099
 20
1799.360079494269
  0
LWPOLYLINE
  5
1B3
330
157
100
AcDbEntity
  8
P-SANR-FIXT
100
AcDbPolyline
 90
        5
 70
   128
 43
0.0
 10
1249.414353943099
 20
1799.347334378082
 10
1249.414353943099
 20
1798.838936191598
 10
1249.414353943099
 20
1800.005398973734
 10
1249.414353943099
 20
1805.298881424495
 10
1249.414353943099
 20
1815.924442781147
  0
ELLIPSE
  5
1B4
330
157
100
AcDbEntity
  8
P-SANR-FIXT
100
AcDbEllipse
 10
1252.114353943097
 20
1815.924442781146
 30
0.0
 11
2.699999999999818
 21
0.0
 31
0.0
210
0.0
220
0.0
230
1.0
 40
0.8090169943749707
 41
0.0
 42
3.141592653589793
  0
ELLIPSE
  5
1B5
330
157
100
AcDbEntity
  8
P-SANR-FIXT
100
AcDbEllipse
 10
1252.114353943097
 20
1815.924442781146
 30
0.0
 11
2.700000000000045
 21
0.0
 31
0.0
210
0.0
220
0.0
230
1.0
 40
0.8090169943749867
 41
3.141592653589793
 42
3.403391214297132
  0
ELLIPSE
  5
1B6
330
157
100
AcDbEntity
  8
P-SANR-FIXT
100
AcDbEllipse
 10
1252.114353943097
 20
1815.924442781146
 30
0.0
 11
2.700000000000017
 21
0.0
 31
0.0
210
0.0
220
0.0
230
1.0
 40
0.8090169943749229
 41
3.40339204138899
 42
3.665155149815871
  0
ELLIPSE
  5
1B7
330
157
100
AcDbEntity
  8
P-SANR-FIXT
100
AcDbEllipse
 10
1252.114353943097
 20
1815.924442781146
 30
0.0
 11
2.700000000000097
 21
0.0
 31
0.0
210
0.0
220
0.0
230
1.0
 40
0.8090169943748765
 41
3.665191429188031
 42
5.759586531581293
  0
ELLIPSE
  5
1B8
330
157
100
AcDbEntity
  8
P-SANR-FIXT
100
AcDbEllipse
 10
1252.114353943097
 20
1815.924442781146
 30
0.0
 11
2.699999999999702
 21
0.0
 31
0.0
210
0.0
220
0.0
230
1.0
 40
0.80901699437507
 41
5.759622810953532
 42
6.021385919380399
  0
ELLIPSE
  5
1B9
330
157
100
AcDbEntity
  8
P-SANR-FIXT
100
AcDbEllipse
 10
1252.114353943097
 20
1815.924442781146
 30
0.0
 11
2.699999999999966
 21
0.0
 31
0.0
210
0.0
220
0.0
230
1.0
 40
0.8090169943748954
 41
6.021386746472183
 42
6.283185307179586
  0
LINE
  5
1BA
330
157
100
AcDbEntity
  8
P-SANR-FIXT
100
AcDbLine
 10
1199.614350691211
 20
1904.551350560527
 30
0.0
 11
1199.614350691211
 21
1888.237563426576
 31
0.0
  0
LINE
  5
1BB
330
157
100
AcDbEntity
  8
P-SANR-FIXT
100
AcDbLine
 10
1304.614357194987
 20
1888.237563426576
 30
0.0
 11
1304.614357194987
 21
1904.551350560527
 31
0.0
  0
LINE
  5
1BC
330
157
100
AcDbEntity
  8
P-SANR-FIXT
100
AcDbLine
 10
1199.614350691211
 20
1888.237563426576
 30
0.0
 11
1199.735552119727
 21
1888.205087601684
 31
0.0
  0
LINE
  5
1BD
330
157
100
AcDbEntity
  8
P-SANR-FIXT
100
AcDbLine
 10
1199.761151348292
 20
1888.198228309063
 30
0.0
 11
1203.346418578754
 21
1887.237558850011
 31
0.0
  0
LINE
  5
1BE
330
157
100
AcDbEntity
  8
P-SANR-FIXT
100
AcDbLine
 10
1300.882289307444
 20
1887.237558850011
 30
0.0
 11
1304.467556537906
 21
1888.198228309063
 31
0.0
  0
LINE
  5
1BF
330
157
100
AcDbEntity
  8
P-SANR-FIXT
100
AcDbLine
 10
1304.493155766471
 20
1888.205087601684
 30
0.0
 11
1304.614357194987
 21
1888.237563426576
 31
0.0
  0
LINE
  5
1C0
330
157
100
AcDbEntity
  8
P-SANR-FIXT
100
AcDbLine
 10
1300.114353943097
 20
2204.48255885001
 30
0.0
 11
1300.114353943097
 21
2101.48255885001
 31
0.0
  0
LINE
  5
1C1
330
157
100
AcDbEntity
  8
P-SANR-FIXT
100
AcDbLine
 10
1204.114353943097
 20
2101.48255885001
 30
0.0
 11
1204.114353943097
 21
2204.48255885001
 31
0.0
  0
LINE
  5
1C2
330
157
100
AcDbEntity
  8
P-SANR-FIXT
100
AcDbLine
 10
1199.614350691208
 20
1888.237563426576
 30
0.0
 11
1252.114353943097
 21
1888.237563426576
 31
0.0
  0
LINE
  5
1C3
330
157
100
AcDbEntity
  8
P-SANR-FIXT
100
AcDbLine
 10
1252.114353943097
 20
1888.237563426576
 30
0.0
 11
1304.614357194985
 21
1888.237563426576
 31
0.0
  0
LINE
  5
1C4
330
157
100
AcDbEntity
  8
P-SANR-FIXT
100
AcDbLine
 10
1203.346418578751
 20
1887.23755885001
 30
0.0
 11
1252.114353943097
 21
1887.23755885001
 31
0.0
  0
LINE
  5
1C5
330
157
100
AcDbEntity
  8
P-SANR-FIXT
100
AcDbLine
 10
1252.114353943097
 20
1887.23755885001
 30
0.0
 11
1300.882289307442
 21
1887.23755885001
 31
0.0
  0
LINE
  5
1C6
330
157
100
AcDbEntity
  8
P-SANR-FIXT
100
AcDbLine
 10
1300.114353943097
 20
2101.48255885001
 30
0.0
 11
1291.666130066753
 21
2101.48255885001
 31
0.0
  0
LINE
  5
1C7
330
157
100
AcDbEntity
  8
P-SANR-FIXT
100
AcDbLine
 10
1212.562577819441
 20
2101.48255885001
 30
0.0
 11
1204.114353943097
 21
2101.48255885001
 31
0.0
  0
LINE
  5
1C8
330
157
100
AcDbEntity
  8
P-SANR-FIXT
100
AcDbLine
 10
1204.114353943097
 20
2204.48255885001
 30
0.0
 11
1300.114353943097
 21
2204.48255885001
 31
0.0
  0
ENDBLK
  5
1CA
330
157
100
AcDbEntity
  8
0
100
AcDbBlockEnd
  0
ENDSEC
  0
SECTION
  2
ENTITIES
  0
INSERT
  5
156
330
71
100
AcDbEntity
  8
P-SANR-FIXT
100
AcDbBlockReference
  2
Automatic flow rate regulator valve_Caleffi_121 DN15 - 1_2__-859151-Est - Idraulica
 10
0.0
 20
0.0
 30
0.0
1001
REVIT
1002
{
1070
     1
1000
863131
1002
}
1002
{
1070
     5
1000
859151
1002
}
1002
{
1070
     2
1000
-2001160
1002
}
  0
INSERT
  5
1CB
330
71
100
AcDbEntity
  8
P-SANR-FIXT
100
AcDbBlockReference
  2
Automatic flow rate regulator valve_Caleffi_121 DN15 - 1_2__-V1-Est - Idraulica
 10
0.0
 20
0.0
 30
0.0
1001
REVIT
1002
{
1070
     1
1000
863172
1002
}
1002
{
1070
     5
1000
859151
1002
}
1002
{
1070
     2
1000
-2001160
1002
}
  0
ENDSEC
  0
SECTION
  2
OBJECTS
  0
DICTIONARY
  5
C
330
0
100
AcDbDictionary
281
     1
  3
ACAD_CIP_PREVIOUS_PRODUCT_INFO
350
7A
  3
ACAD_COLOR
350
63
  3
ACAD_DETAILVIEWSTYLE
350
6B
  3
ACAD_GROUP
350
D
  3
ACAD_IMAGE_VARS
350
7B
  3
ACAD_LAYOUT
350
62
  3
ACAD_MATERIAL
350
10
  3
ACAD_MLEADERSTYLE
350
66
  3
ACAD_MLINESTYLE
350
5F
  3
ACAD_PLOTSETTINGS
350
61
  3
ACAD_PLOTSTYLENAME
350
E
  3
ACAD_SCALELIST
350
42
  3
ACAD_SECTIONVIEWSTYLE
350
68
  3
ACAD_TABLESTYLE
350
64
  3
ACAD_VISUALSTYLE
350
29
  3
ACDB_RECOMPOSE_DATA
350
1D5
  3
AcDbVariableDictionary
350
7C
  3
REVIT_DICTIONARY
350
1CD
  0
DICTIONARY
  5
1D1
330
71
100
AcDbDictionary
280
     1
281
     1
  3
ACAD_SORTENTS
360
1D2
  0
XRECORD
  5
7A
102
{ACAD_REACTORS
330
C
102
}
330
C
100
AcDbXrecord
280
     1
300
RVT
300
2013
300
RVT2013
  0
DICTIONARY
  5
63
102
{ACAD_REACTORS
330
C
102
}
330
C
100
AcDbDictionary
281
     1
  0
DICTIONARY
  5
6B
102
{ACAD_REACTORS
330
C
102
}
330
C
100
AcDbDictionary
281
     1
  3
Imperial24
350
6C
  0
DICTIONARY
  5
D
102
{ACAD_REACTORS
330
C
102
}
330
C
100
AcDbDictionary
281
     1
  0
RASTERVARIABLES
  5
7B
102
{ACAD_REACTORS
330
C
102
}
330
C
100
AcDbRasterVariables
 90
        0
 70
     0
 71
     1
 72
     1
  0
DICTIONARY
  5
62
102
{ACAD_REACTORS
330
C
102
}
330
C
100
AcDbDictionary
281
     1
  3
Layout1
350
70
  3
Layout2
350
78
  3
Model
350
74
  0
DICTIONARY
  5
10
102
{ACAD_REACTORS
330
C
102
}
330
C
100
AcDbDictionary
281
     1
  3
ByBlock
350
19
  3
ByLayer
350
11
  3
Global
350
21
  0
DICTIONARY
  5
66
102
{ACAD_REACTORS
330
C
102
}
330
C
100
AcDbDictionary
281
     1
  3
Standard
350
67
  0
DICTIONARY
  5
5F
102
{ACAD_REACTORS
330
C
102
}
330
C
100
AcDbDictionary
281
     1
  3
Standard
350
60
  0
DICTIONARY
  5
61
102
{ACAD_REACTORS
330
C
102
}
330
C
100
AcDbDictionary
281
     1
  0
ACDBDICTIONARYWDFLT
  5
E
102
{ACAD_REACTORS
330
C
102
}
330
C
100
AcDbDictionary
281
     1
  3
Normal
350
F
100
AcDbDictionaryWithDefault
340
F
  0
DICTIONARY
  5
42
102
{ACAD_REACTORS
330
C
102
}
330
C
100
AcDbDictionary
281
     1
  3
A0
350
43
  3
A1
350
44
  3
A2
350
45
  3
A3
350
46
  3
A4
350
47
  3
A5
350
48
  3
A6
350
49
  3
A7
350
4A
  3
A8
350
4B
  3
A9
350
4C
  3
B0
350
4D
  3
B1
350
4E
  3
B2
350
4F
  3
B3
350
50
  3
B4
350
51
  3
B5
350
52
  3
B6
350
53
  0
DICTIONARY
  5
68
102
{ACAD_REACTORS
330
C
102
}
330
C
100
AcDbDictionary
281
     1
  3
Imperial24
350
6A
  0
DICTIONARY
  5
64
102
{ACAD_REACTORS
330
C
102
}
330
C
100
AcDbDictionary
281
     1
  3
Standard
350
65
  0
DICTIONARY
  5
29
102
{ACAD_REACTORS
330
C
102
}
330
C
100
AcDbDictionary
281
     1
  3
2dWireframe
350
2F
  3
Basic
350
2E
  3
Brighten
350
35
  3
ColorChange
350
39
  3
Conceptual
350
32
  3
Dim
350
34
  3
EdgeColorOff
350
41
  3
Facepattern
350
38
  3
Flat
350
2A
  3
FlatWithEdges
350
2B
  3
Gouraud
350
2C
  3
GouraudWithEdges
350
2D
  3
Hidden
350
31
  3
JitterOff
350
3F
  3
Linepattern
350
37
  3
OverhangOff
350
40
  3
Realistic
350
33
  3
Shaded
350
3E
  3
Shaded with edges
350
3D
  3
Shades of Gray
350
3A
  3
Sketchy
350
3B
  3
Thicken
350
36
  3
Wireframe
350
30
  3
X-Ray
350
3C
  0
XRECORD
  5
1D5
102
{ACAD_REACTORS
330
C
102
}
330
C
100
AcDbXrecord
280
     1
 90
        1
330
65
  0
DICTIONARY
  5
7C
102
{ACAD_REACTORS
330
C
102
}
330
C
100
AcDbDictionary
281
     1
  3
CANNOSCALE
350
81
  3
CMLEADERSTYLE
350
7E
  3
CTABLESTYLE
350
7D
  3
CVIEWDETAILSTYLE
350
7F
  3
CVIEWSECTIONSTYLE
350
80
  0
DICTIONARY
  5
1CD
102
{ACAD_REACTORS
330
C
102
}
330
C
100
AcDbDictionary
281
     1
  3
DRAWING_TOOL
350
1D0
  3
REVIT_CATEGORY_MAPPING
350
1CF
  3
REVIT_TYPE_MAPPING
350
1CE
  0
SORTENTSTABLE
  5
1D2
102
{ACAD_REACTORS
330
1D1
102
}
330
1D1
100
AcDbSortentsTable
330
71
  0
ACDBDETAILVIEWSTYLE
  5
6C
102
{ACAD_REACTORS
330
6B
102
}
330
6B
100
AcDbModelDocViewStyle
 70
     0
  3
Imperial24
290
     1
100
AcDbDetailViewStyle
 70
     0
 71
     0
 90
        3
 71
     1
340
55
 62
   256
 40
0.24
340
0
 62
   256
 40
0.24
300

 40
0.36
280
     3
 71
     2
340
5D
 90
       25
 62
   256
 71
     3
340
55
 62
   256
 40
0.24
 90
        1
 40
0.75
 90
        1
300
%<\AcVar ViewType \f "%tc1">% %<\AcVar ViewDetailId>%\PSCALA %<\AcVar ViewScale \f "%sn">%
 71
     4
340
5D
 90
       25
 62
   256
340
5D
 90
       25
 62
   256
280
     0
  0
LAYOUT
  5
70
102
{ACAD_REACTORS
330
62
102
}
330
62
100
AcDbPlotSettings
  1

  2

  4

  6

 40
0.0
 41
0.0
 42
0.0
 43
0.0
 44
0.0
 45
0.0
 46
0.0
 47
0.0
 48
0.0
 49
0.0
140
0.0
141
0.0
142
1.0
143
1.0
 70
   688
 72
     0
 73
     0
 74
     5
  7

 75
    16
147
1.0
 76
     0
 77
     2
 78
   300
148
0.0
149
0.0
100
AcDbLayout
  1
Layout1
 70
     1
 71
     1
 10
0.0
 20
0.0
 11
12.0
 21
9.0
 12
0.0
 22
0.0
 32
0.0
 14
0.0
 24
0.0
 34
0.0
 15
0.0
 25
0.0
 35
0.0
146
0.0
 13
0.0
 23
0.0
 33
0.0
 16
1.0
 26
0.0
 36
0.0
 17
0.0
 27
1.0
 37
0.0
 76
     0
330
6D
  0
LAYOUT
  5
78
102
{ACAD_REACTORS
330
62
102
}
330
62
100
AcDbPlotSettings
  1

  2

  4

  6

 40
0.0
 41
0.0
 42
0.0
 43
0.0
 44
0.0
 45
0.0
 46
0.0
 47
0.0
 48
0.0
 49
0.0
140
0.0
141
0.0
142
1.0
143
1.0
 70
   688
 72
     0
 73
     0
 74
     5
  7

 75
    16
147
1.0
 76
     0
 77
     2
 78
   300
148
0.0
149
0.0
100
AcDbLayout
  1
Layout2
 70
     1
 71
     2
 10
0.0
 20
0.0
 11
12.0
 21
9.0
 12
0.0
 22
0.0
 32
0.0
 14
0.0
 24
0.0
 34
0.0
 15
0.0
 25
0.0
 35
0.0
146
0.0
 13
0.0
 23
0.0
 33
0.0
 16
1.0
 26
0.0
 36
0.0
 17
0.0
 27
1.0
 37
0.0
 76
     0
330
75
  0
LAYOUT
  5
74
102
{ACAD_REACTORS
330
62
102
}
330
62
100
AcDbPlotSettings
  1

  2

  4

  6

 40
0.0
 41
0.0
 42
0.0
 43
0.0
 44
0.0
 45
0.0
 46
0.0
 47
0.0
 48
0.0
 49
0.0
140
0.0
141
0.0
142
1.0
143
1.0
 70
  1712
 72
     0
 73
     0
 74
     0
  7

 75
     0
147
1.0
 76
     0
 77
     2
 78
   300
148
0.0
149
0.0
100
AcDbLayout
  1
Model
 70
     1
 71
     0
 10
0.0
 20
0.0
 11
12.0
 21
9.0
 12
0.0
 22
0.0
 32
0.0
 14
0.0
 24
0.0
 34
0.0
 15
0.0
 25
0.0
 35
0.0
146
0.0
 13
0.0
 23
0.0
 33
0.0
 16
1.0
 26
0.0
 36
0.0
 17
0.0
 27
1.0
 37
0.0
 76
     0
330
71
  0
MATERIAL
  5
19
102
{ACAD_XDICTIONARY
360
1A
102
}
102
{ACAD_REACTORS
330
10
102
}
330
10
100
AcDbMaterial
  1
ByBlock
 72
     0
 43
0.0208333333333333
 43
0.0
 43
0.0
 43
0.0
 43
0.0
 43
0.0208333333333333
 43
0.0
 43
0.0
 43
0.0
 43
0.0
 43
1.0
 43
0.0
 43
0.0
 43
0.0
 43
0.0
 43
1.0
 77
     0
 47
0.0208333333333333
 47
0.0
 47
0.0
 47
0.0
 47
0.0
 47
0.0208333333333333
 47
0.0
 47
0.0
 47
0.0
 47
0.0
 47
1.0
 47
0.0
 47
0.0
 47
0.0
 47
0.0
 47
1.0
171
     0
 49
0.0208333333333333
 49
0.0
 49
0.0
 49
0.0
 49
0.0
 49
0.0208333333333333
 49
0.0
 49
0.0
 49
0.0
 49
0.0
 49
1.0
 49
0.0
 49
0.0
 49
0.0
 49
0.0
 49
1.0
175
     0
142
0.0208333333333333
142
0.0
142
0.0
142
0.0
142
0.0
142
0.0208333333333333
142
0.0
142
0.0
142
0.0
142
0.0
142
1.0
142
0.0
142
0.0
142
0.0
142
0.0
142
1.0
179
     0
144
0.0208333333333333
144
0.0
144
0.0
144
0.0
144
0.0
144
0.0208333333333333
144
0.0
144
0.0
144
0.0
144
0.0
144
1.0
144
0.0
144
0.0
144
0.0
144
0.0
144
1.0
147
0.0208333333333333
147
0.0
147
0.0
147
0.0
147
0.0
147
0.0208333333333333
147
0.0
147
0.0
147
0.0
147
0.0
147
1.0
147
0.0
147
0.0
147
0.0
147
0.0
147
1.0
  0
MATERIAL
  5
11
102
{ACAD_XDICTIONARY
360
12
102
}
102
{ACAD_REACTORS
330
10
102
}
330
10
100
AcDbMaterial
  1
ByLayer
 72
     0
 43
0.0208333333333333
 43
0.0
 43
0.0
 43
0.0
 43
0.0
 43
0.0208333333333333
 43
0.0
 43
0.0
 43
0.0
 43
0.0
 43
1.0
 43
0.0
 43
0.0
 43
0.0
 43
0.0
 43
1.0
 77
     0
 47
0.0208333333333333
 47
0.0
 47
0.0
 47
0.0
 47
0.0
 47
0.0208333333333333
 47
0.0
 47
0.0
 47
0.0
 47
0.0
 47
1.0
 47
0.0
 47
0.0
 47
0.0
 47
0.0
 47
1.0
171
     0
 49
0.0208333333333333
 49
0.0
 49
0.0
 49
0.0
 49
0.0
 49
0.0208333333333333
 49
0.0
 49
0.0
 49
0.0
 49
0.0
 49
1.0
 49
0.0
 49
0.0
 49
0.0
 49
0.0
 49
1.0
175
     0
142
0.0208333333333333
142
0.0
142
0.0
142
0.0
142
0.0
142
0.0208333333333333
142
0.0
142
0.0
142
0.0
142
0.0
142
1.0
142
0.0
142
0.0
142
0.0
142
0.0
142
1.0
179
     0
144
0.0208333333333333
144
0.0
144
0.0
144
0.0
144
0.0
144
0.0208333333333333
144
0.0
144
0.0
144
0.0
144
0.0
144
1.0
144
0.0
144
0.0
144
0.0
144
0.0
144
1.0
147
0.0208333333333333
147
0.0
147
0.0
147
0.0
147
0.0
147
0.0208333333333333
147
0.0
147
0.0
147
0.0
147
0.0
147
1.0
147
0.0
147
0.0
147
0.0
147
0.0
147
1.0
  0
MATERIAL
  5
21
102
{ACAD_XDICTIONARY
360
22
102
}
102
{ACAD_REACTORS
330
10
102
}
330
10
100
AcDbMaterial
  1
Global
 72
     0
 43
0.0208333333333333
 43
0.0
 43
0.0
 43
0.0
 43
0.0
 43
0.0208333333333333
 43
0.0
 43
0.0
 43
0.0
 43
0.0
 43
1.0
 43
0.0
 43
0.0
 43
0.0
 43
0.0
 43
1.0
 77
     0
 47
0.0208333333333333
 47
0.0
 47
0.0
 47
0.0
 47
0.0
 47
0.0208333333333333
 47
0.0
 47
0.0
 47
0.0
 47
0.0
 47
1.0
 47
0.0
 47
0.0
 47
0.0
 47
0.0
 47
1.0
171
     0
 49
0.0208333333333333
 49
0.0
 49
0.0
 49
0.0
 49
0.0
 49
0.0208333333333333
 49
0.0
 49
0.0
 49
0.0
 49
0.0
 49
1.0
 49
0.0
 49
0.0
 49
0.0
 49
0.0
 49
1.0
175
     0
142
0.0208333333333333
142
0.0
142
0.0
142
0.0
142
0.0
142
0.0208333333333333
142
0.0
142
0.0
142
0.0
142
0.0
142
1.0
142
0.0
142
0.0
142
0.0
142
0.0
142
1.0
179
     0
144
0.0208333333333333
144
0.0
144
0.0
144
0.0
144
0.0
144
0.0208333333333333
144
0.0
144
0.0
144
0.0
144
0.0
144
1.0
144
0.0
144
0.0
144
0.0
144
0.0
144
1.0
147
0.0208333333333333
147
0.0
147
0.0
147
0.0
147
0.0
147
0.0208333333333333
147
0.0
147
0.0
147
0.0
147
0.0
147
1.0
147
0.0
147
0.0
147
0.0
147
0.0
147
1.0
  0
MLEADERSTYLE
  5
67
102
{ACAD_REACTORS
330
66
102
}
330
66
100
AcDbMLeaderStyle
179
     2
170
     2
171
     1
172
     0
 90
        2
 40
0.0
 41
0.0
173
     1
 91
-1056964608
340
5B
 92
       -2
290
     1
 42
0.09
291
     1
 43
0.36
  3
Standard
 44
0.18
300

342
55
174
     1
178
     6
175
     1
176
     0
 93
-1056964608
 45
0.18
292
     0
297
     0
 46
0.18
 94
-1056964608
 47
1.0
 49
1.0
140
1.0
293
     1
141
0.0
294
     1
177
     0
142
1.0
295
     1
296
     0
143
0.125
271
     0
272
     9
273
     9
298
     1
  0
MLINESTYLE
  5
60
102
{ACAD_REACTORS
330
5F
102
}
330
5F
100
AcDbMlineStyle
  2
STANDARD
 70
     0
  3

 62
   256
 51
90.0
 52
90.0
 71
     2
 49
0.5
 62
   256
  6
BYLAYER
 49
-0.5
 62
   256
  6
BYLAYER
  0
ACDBPLACEHOLDER
  5
F
102
{ACAD_REACTORS
330
E
102
}
330
E
  0
SCALE
  5
43
102
{ACAD_REACTORS
330
42
102
}
330
42
100
AcDbScale
 70
     0
300
1:1
140
1.0
141
1.0
290
     1
  0
SCALE
  5
44
102
{ACAD_REACTORS
330
42
102
}
330
42
100
AcDbScale
 70
     0
300
1/128" = 1'-0"
140
0.0078125
141
12.0
290
     0
  0
SCALE
  5
45
102
{ACAD_REACTORS
330
42
102
}
330
42
100
AcDbScale
 70
     0
300
1/64" = 1'-0"
140
0.015625
141
12.0
290
     0
  0
SCALE
  5
46
102
{ACAD_REACTORS
330
42
102
}
330
42
100
AcDbScale
 70
     0
300
1/32" = 1'-0"
140
0.03125
141
12.0
290
     0
  0
SCALE
  5
47
102
{ACAD_REACTORS
330
42
102
}
330
42
100
AcDbScale
 70
     0
300
1/16" = 1'-0"
140
0.0625
141
12.0
290
     0
  0
SCALE
  5
48
102
{ACAD_REACTORS
330
42
102
}
330
42
100
AcDbScale
 70
     0
300
3/32" = 1'-0"
140
0.09375
141
12.0
290
     0
  0
SCALE
  5
49
102
{ACAD_REACTORS
330
42
102
}
330
42
100
AcDbScale
 70
     0
300
1/8" = 1'-0"
140
0.125
141
12.0
290
     0
  0
SCALE
  5
4A
102
{ACAD_REACTORS
330
42
102
}
330
42
100
AcDbScale
 70
     0
300
3/16" = 1'-0"
140
0.1875
141
12.0
290
     0
  0
SCALE
  5
4B
102
{ACAD_REACTORS
330
42
102
}
330
42
100
AcDbScale
 70
     0
300
1/4" = 1'-0"
140
0.25
141
12.0
290
     0
  0
SCALE
  5
4C
102
{ACAD_REACTORS
330
42
102
}
330
42
100
AcDbScale
 70
     0
300
3/8" = 1'-0"
140
0.375
141
12.0
290
     0
  0
SCALE
  5
4D
102
{ACAD_REACTORS
330
42
102
}
330
42
100
AcDbScale
 70
     0
300
1/2" = 1'-0"
140
0.5
141
12.0
290
     0
  0
SCALE
  5
4E
102
{ACAD_REACTORS
330
42
102
}
330
42
100
AcDbScale
 70
     0
300
3/4" = 1'-0"
140
0.75
141
12.0
290
     0
  0
SCALE
  5
4F
102
{ACAD_REACTORS
330
42
102
}
330
42
100
AcDbScale
 70
     0
300
1" = 1'-0"
140
1.0
141
12.0
290
     0
  0
SCALE
  5
50
102
{ACAD_REACTORS
330
42
102
}
330
42
100
AcDbScale
 70
     0
300
1-1/2" = 1'-0"
140
1.5
141
12.0
290
     0
  0
SCALE
  5
51
102
{ACAD_REACTORS
330
42
102
}
330
42
100
AcDbScale
 70
     0
300
3" = 1'-0"
140
3.0
141
12.0
290
     0
  0
SCALE
  5
52
102
{ACAD_REACTORS
330
42
102
}
330
42
100
AcDbScale
 70
     0
300
6" = 1'-0"
140
6.0
141
12.0
290
     0
  0
SCALE
  5
53
102
{ACAD_REACTORS
330
42
102
}
330
42
100
AcDbScale
 70
     0
300
1'-0" = 1'-0"
140
12.0
141
12.0
290
     0
  0
ACDBSECTIONVIEWSTYLE
  5
6A
102
{ACAD_REACTORS
330
68
102
}
330
68
100
AcDbModelDocViewStyle
 70
     0
  3
Imperial24
290
     1
100
AcDbSectionViewStyle
 70
     0
 71
     0
 90
       78
 71
     1
340
55
 62
   256
 40
0.24
340
0
340
0
 62
   256
 40
0.24
300
I, O, Q, S, X, Z
 40
0.48
 90
        3
 40
0.18
 90
        1
 71
     2
340
69
 90
       25
 62
   256
340
5D
 90
       50
 62
   256
 40
0.24
 40
0.0
 40
0.24
 71
     3
340
55
 62
   256
 40
0.24
 90
        1
 40
0.75
 90
        1
300
%<\AcVar ViewType \f "%tc1">% %<\AcVar ViewSectionStartId>%-%<\AcVar ViewSectionEndId>%\PSCALA %<\AcVar ViewScale \f "%sn">%
 71
     4
 62
   256
 62
   257
300
ANSI31
 40
1.0
 90
        0
290
     0
290
     0
 90
        6
 40
0.0
 40
1.570796326794896
 40
0.2617993877991494
 40
1.308996938995747
 40
-0.2617993877991494
 40
1.832595714594046
  0
TABLESTYLE
  5
65
102
{ACAD_XDICTIONARY
360
1D3
102
}
102
{ACAD_REACTORS
330
64
102
}
330
64
100
AcDbTableStyle
280
     0
  3
Standard
 70
     0
 71
     0
 40
0.06
 41
0.06
280
     0
281
     0
  7
Standard
140
0.18
170
     2
 62
     0
 63
     7
283
     0
 90
      512
 91
        0
  1

274
    -2
284
     1
 64
     0
275
    -2
285
     1
 65
     0
276
    -2
286
     1
 66
     0
277
    -2
287
     1
 67
     0
278
    -2
288
     1
 68
     0
279
    -2
289
     1
 69
     0
  7
Standard
140
0.25
170
     5
 62
     0
 63
     7
283
     0
 90
      512
 91
        0
  1

274
    -2
284
     1
 64
     0
275
    -2
285
     1
 65
     0
276
    -2
286
     1
 66
     0
277
    -2
287
     1
 67
     0
278
    -2
288
     1
 68
     0
279
    -2
289
     1
 69
     0
  7
Standard
140
0.18
170
     5
 62
     0
 63
     7
283
     0
 90
      512
 91
        0
  1

274
    -2
284
     1
 64
     0
275
    -2
285
     1
 65
     0
276
    -2
286
     1
 66
     0
277
    -2
287
     1
 67
     0
278
    -2
288
     1
 68
     0
279
    -2
289
     1
 69
     0
  0
VISUALSTYLE
  5
2F
102
{ACAD_REACTORS
330
29
102
}
330
29
100
AcDbVisualStyle
  2
2dWireframe
 70
     4
177
     3
291
     0
 70
    58
 90
        0
176
     1
 90
        2
176
     1
 90
        0
176
     1
 90
        0
176
     1
 40
0.6
176
     1
 40
30.0
176
     1
 62
     7
420
 16777215
176
     1
 90
        1
176
     1
 90
        4
176
     1
 62
     7
176
     1
 62
   257
176
     1
 90
        1
176
     1
 90
        1
176
     1
 40
1.0
176
     1
 90
        0
176
     1
 62
   257
176
     1
 40
1.0
176
     1
 90
        1
176
     1
 90
        6
176
     1
 90
        2
176
     1
 62
     7
176
     1
 90
        5
176
     1
 90
        0
176
     1
 90
        0
176
     1
290
     0
176
     1
 90
        1
176
     1
 40
0.0
176
     1
 90
        0
176
     1
290
     1
176
     1
290
     1
176
     1
290
     0
176
     1
290
     0
176
     1
290
     0
176
     1
290
     0
176
     1
290
     0
176
     1
290
     0
176
     1
290
     0
176
     1
 90
       50
176
     1
 40
0.0
176
     1
 40
1.0
176
     1
 90
        0
176
     1
 62
    18
420
        0
176
     1
 90
       50
176
     1
 90
        3
176
     1
 62
     5
420
      255
176
     1
290
     0
176
     1
 90
       50
176
     1
 90
       50
176
     1
 90
       50
176
     1
290
     0
176
     1
 90
       50
176
     1
 62
   256
176
     0
 40
1.0
176
     0
 90
        2
176
     1
  1
strokes_ogs.tif
176
     1
290
     0
176
     1
 40
1.0
176
     1
 40
1.0
176
     1
  0
VISUALSTYLE
  5
2E
102
{ACAD_REACTORS
330
29
102
}
330
29
100
AcDbVisualStyle
  2
Basic
 70
     7
177
     3
291
     1
 70
    58
 90
        1
176
     1
 90
        0
176
     1
 90
        1
176
     1
 90
        0
176
     1
 40
0.6
176
     1
 40
30.0
176
     1
 62
     7
420
 16777215
176
     1
 90
        0
176
     1
 90
        4
176
     1
 62
     7
176
     1
 62
   257
176
     1
 90
        1
176
     1
 90
        1
176
     1
 40
1.0
176
     1
 90
        8
176
     1
 62
     7
176
     1
 40
1.0
176
     1
 90
        1
176
     1
 90
        6
176
     1
 90
        2
176
     1
 62
     7
176
     1
 90
        5
176
     1
 90
        0
176
     1
 90
        0
176
     1
290
     0
176
     1
 90
        1
176
     1
 40
0.0
176
     1
 90
        0
176
     1
290
     0
176
     1
290
     1
176
     1
290
     1
176
     1
290
     0
176
     1
290
     0
176
     1
290
     0
176
     1
290
     0
176
     1
290
     0
176
     1
290
     0
176
     1
 90
       50
176
     1
 40
0.0
176
     1
 40
1.0
176
     1
 90
        0
176
     1
 62
    18
420
        0
176
     1
 90
       50
176
     1
 90
        3
176
     1
 62
     5
420
      255
176
     1
290
     0
176
     1
 90
       50
176
     1
 90
       50
176
     1
 90
       50
176
     1
290
     0
176
     1
 90
       50
176
     1
 62
   256
176
     0
 40
1.0
176
     0
 90
        2
176
     1
  1
strokes_ogs.tif
176
     1
290
     0
176
     1
 40
1.0
176
     1
 40
1.0
176
     1
  0
VISUALSTYLE
  5
35
102
{ACAD_REACTORS
330
29
102
}
330
29
100
AcDbVisualStyle
  2
Brighten
 70
    12
177
     3
291
     1
 70
    58
 90
        2
176
     1
 90
        2
176
     1
 90
        0
176
     1
 90
        0
176
     1
 40
0.6
176
     1
 40
30.0
176
     1
 62
     7
420
 16777215
176
     1
 90
        1
176
     1
 90
        4
176
     1
 62
     7
176
     1
 62
   257
176
     1
 90
        1
176
     1
 90
        1
176
     1
 40
1.0
176
     1
 90
        8
176
     1
 62
     7
176
     1
 40
1.0
176
     1
 90
        1
176
     1
 90
        6
176
     1
 90
        2
176
     1
 62
     7
176
     1
 90
        5
176
     1
 90
        0
176
     1
 90
        0
176
     1
290
     0
176
     1
 90
        1
176
     1
 40
50.0
176
     1
 90
        0
176
     1
290
     0
176
     1
290
     1
176
     1
290
     1
176
     1
290
     0
176
     1
290
     0
176
     1
290
     0
176
     1
290
     0
176
     1
290
     0
176
     1
290
     0
176
     1
 90
       50
176
     1
 40
0.0
176
     1
 40
1.0
176
     1
 90
        0
176
     1
 62
    18
420
        0
176
     1
 90
       50
176
     1
 90
        3
176
     1
 62
     5
420
      255
176
     1
290
     0
176
     1
 90
       50
176
     1
 90
       50
176
     1
 90
       50
176
     1
290
     0
176
     1
 90
       50
176
     1
 62
   256
176
     0
 40
1.0
176
     0
 90
        2
176
     1
  1
strokes_ogs.tif
176
     1
290
     0
176
     1
 40
1.0
176
     1
 40
1.0
176
     1
  0
VISUALSTYLE
  5
39
102
{ACAD_REACTORS
330
29
102
}
330
29
100
AcDbVisualStyle
  2
ColorChange
 70
    16
177
     3
291
     1
 70
    58
 90
        2
176
     1
 90
        2
176
     1
 90
        3
176
     1
 90
        0
176
     1
 40
0.6
176
     1
 40
30.0
176
     1
 62
     8
420
  8421504
176
     1
 90
        1
176
     1
 90
        4
176
     1
 62
     7
176
     1
 62
   257
176
     1
 90
        1
176
     1
 90
        1
176
     1
 40
1.0
176
     1
 90
        8
176
     1
 62
     8
420
  8421504
176
     1
 40
1.0
176
     1
 90
        1
176
     1
 90
        6
176
     1
 90
        2
176
     1
 62
     7
176
     1
 90
        5
176
     1
 90
        0
176
     1
 90
        0
176
     1
290
     0
176
     1
 90
        1
176
     1
 40
0.0
176
     1
 90
        0
176
     1
290
     0
176
     1
290
     1
176
     1
290
     1
176
     1
290
     0
176
     1
290
     0
176
     1
290
     0
176
     1
290
     0
176
     1
290
     0
176
     1
290
     0
176
     1
 90
       50
176
     1
 40
0.0
176
     1
 40
1.0
176
     1
 90
        0
176
     1
 62
    18
420
        0
176
     1
 90
       50
176
     1
 90
        3
176
     1
 62
     5
420
      255
176
     1
290
     0
176
     1
 90
       50
176
     1
 90
       50
176
     1
 90
       50
176
     1
290
     0
176
     1
 90
       50
176
     1
 62
   256
176
     0
 40
1.0
176
     0
 90
        2
176
     1
  1
strokes_ogs.tif
176
     1
290
     0
176
     1
 40
1.0
176
     1
 40
1.0
176
     1
  0
VISUALSTYLE
  5
32
102
{ACAD_REACTORS
330
29
102
}
330
29
100
AcDbVisualStyle
  2
Conceptual
 70
     9
177
     3
291
     0
 70
    58
 90
        3
176
     1
 90
        2
176
     1
 90
        0
176
     1
 90
        0
176
     1
 40
0.6
176
     1
 40
30.0
176
     1
 62
     7
420
 16777215
176
     1
 90
        2
176
     1
 90
        2
176
     1
 62
     7
176
     1
 62
   257
176
     1
 90
        1
176
     1
 90
        1
176
     1
 40
179.0
176
     1
 90
        8
176
     1
 62
     7
176
     1
 40
1.0
176
     1
 90
        1
176
     1
 90
        6
176
     1
 90
        2
176
     1
 62
     7
176
     1
 90
        3
176
     1
 90
        0
176
     1
 90
        0
176
     1
290
     0
176
     1
 90
        1
176
     1
 40
0.0
176
     1
 90
        0
176
     1
290
     0
176
     1
290
     1
176
     1
290
     1
176
     1
290
     0
176
     1
290
     0
176
     1
290
     0
176
     1
290
     0
176
     1
290
     0
176
     1
290
     0
176
     1
 90
       50
176
     1
 40
0.0
176
     1
 40
1.0
176
     1
 90
        0
176
     1
 62
    18
420
        0
176
     1
 90
       50
176
     1
 90
        3
176
     1
 62
     5
420
      255
176
     1
290
     0
176
     1
 90
       50
176
     1
 90
       50
176
     1
 90
       50
176
     1
290
     0
176
     1
 90
       50
176
     1
 62
   256
176
     0
 40
1.0
176
     0
 90
        2
176
     1
  1
strokes_ogs.tif
176
     1
290
     0
176
     1
 40
1.0
176
     1
 40
1.0
176
     1
  0
VISUALSTYLE
  5
34
102
{ACAD_REACTORS
330
29
102
}
330
29
100
AcDbVisualStyle
  2
Dim
 70
    11
177
     3
291
     1
 70
    58
 90
        2
176
     1
 90
        2
176
     1
 90
        0
176
     1
 90
        0
176
     1
 40
0.6
176
     1
 40
30.0
176
     1
 62
     7
420
 16777215
176
     1
 90
        1
176
     1
 90
        4
176
     1
 62
     7
176
     1
 62
   257
176
     1
 90
        1
176
     1
 90
        1
176
     1
 40
1.0
176
     1
 90
        8
176
     1
 62
     7
176
     1
 40
1.0
176
     1
 90
        1
176
     1
 90
        6
176
     1
 90
        2
176
     1
 62
     7
176
     1
 90
        5
176
     1
 90
        0
176
     1
 90
        0
176
     1
290
     0
176
     1
 90
        1
176
     1
 40
-50.0
176
     1
 90
        0
176
     1
290
     0
176
     1
290
     1
176
     1
290
     1
176
     1
290
     0
176
     1
290
     0
176
     1
290
     0
176
     1
290
     0
176
     1
290
     0
176
     1
290
     0
176
     1
 90
       50
176
     1
 40
0.0
176
     1
 40
1.0
176
     1
 90
        0
176
     1
 62
    18
420
        0
176
     1
 90
       50
176
     1
 90
        3
176
     1
 62
     5
420
      255
176
     1
290
     0
176
     1
 90
       50
176
     1
 90
       50
176
     1
 90
       50
176
     1
290
     0
176
     1
 90
       50
176
     1
 62
   256
176
     0
 40
1.0
176
     0
 90
        2
176
     1
  1
strokes_ogs.tif
176
     1
290
     0
176
     1
 40
1.0
176
     1
 40
1.0
176
     1
  0
VISUALSTYLE
  5
41
102
{ACAD_REACTORS
330
29
102
}
330
29
100
AcDbVisualStyle
  2
EdgeColorOff
 70
    22
177
     3
291
     1
 70
    58
 90
        2
176
     0
 90
        2
176
     0
 90
        0
176
     0
 90
        0
176
     0
 40
0.6
176
     0
 40
30.0
176
     0
 62
     7
420
 16777215
176
     0
 90
        1
176
     0
 90
        4
176
     0
 62
     7
176
     0
 62
   257
176
     0
 90
        1
176
     0
 90
        1
176
     0
 40
1.0
176
     0
 90
        8
176
     2
 62
     7
176
     0
 40
1.0
176
     0
 90
        1
176
     0
 90
        6
176
     0
 90
        2
176
     0
 62
     7
176
     0
 90
        5
176
     0
 90
        0
176
     0
 90
        0
176
     0
290
     0
176
     0
 90
        1
176
     0
 40
0.0
176
     0
 90
        0
176
     0
290
     0
176
     0
290
     1
176
     0
290
     1
176
     0
290
     0
176
     0
290
     0
176
     0
290
     0
176
     0
290
     0
176
     0
290
     0
176
     0
290
     0
176
     0
 90
       50
176
     0
 40
0.0
176
     0
 40
1.0
176
     0
 90
        0
176
     0
 62
    18
420
        0
176
     0
 90
       50
176
     0
 90
        3
176
     0
 62
     5
420
      255
176
     0
290
     0
176
     0
 90
       50
176
     0
 90
       50
176
     0
 90
       50
176
     0
290
     0
176
     0
 90
       50
176
     0
 62
   256
176
     0
 40
1.0
176
     0
 90
        2
176
     0
  1
strokes_ogs.tif
176
     0
290
     0
176
     0
 40
1.0
176
     0
 40
1.0
176
     0
  0
VISUALSTYLE
  5
38
102
{ACAD_REACTORS
330
29
102
}
330
29
100
AcDbVisualStyle
  2
Facepattern
 70
    15
177
     3
291
     1
 70
    58
 90
        2
176
     1
 90
        2
176
     1
 90
        0
176
     1
 90
        0
176
     1
 40
0.6
176
     1
 40
30.0
176
     1
 62
     7
420
 16777215
176
     1
 90
        1
176
     1
 90
        4
176
     1
 62
     7
176
     1
 62
   257
176
     1
 90
        1
176
     1
 90
        1
176
     1
 40
1.0
176
     1
 90
        8
176
     1
 62
     7
176
     1
 40
1.0
176
     1
 90
        1
176
     1
 90
        6
176
     1
 90
        2
176
     1
 62
     7
176
     1
 90
        5
176
     1
 90
        0
176
     1
 90
        0
176
     1
290
     0
176
     1
 90
        1
176
     1
 40
0.0
176
     1
 90
        0
176
     1
290
     0
176
     1
290
     1
176
     1
290
     1
176
     1
290
     0
176
     1
290
     0
176
     1
290
     0
176
     1
290
     0
176
     1
290
     0
176
     1
290
     0
176
     1
 90
       50
176
     1
 40
0.0
176
     1
 40
1.0
176
     1
 90
        0
176
     1
 62
    18
420
        0
176
     1
 90
       50
176
     1
 90
        3
176
     1
 62
     5
420
      255
176
     1
290
     0
176
     1
 90
       50
176
     1
 90
       50
176
     1
 90
       50
176
     1
290
     0
176
     1
 90
       50
176
     1
 62
   256
176
     0
 40
1.0
176
     0
 90
        2
176
     1
  1
strokes_ogs.tif
176
     1
290
     0
176
     1
 40
1.0
176
     1
 40
1.0
176
     1
  0
VISUALSTYLE
  5
2A
102
{ACAD_REACTORS
330
29
102
}
330
29
100
AcDbVisualStyle
  2
Flat
 70
     0
177
     3
291
     1
 70
    58
 90
        2
176
     1
 90
        1
176
     1
 90
        1
176
     1
 90
        2
176
     1
 40
0.6
176
     1
 40
30.0
176
     1
 62
     7
420
 16777215
176
     1
 90
        0
176
     1
 90
        0
176
     1
 62
     7
176
     1
 62
   257
176
     1
 90
        1
176
     1
 90
        1
176
     1
 40
1.0
176
     1
 90
        8
176
     1
 62
     7
176
     1
 40
1.0
176
     1
 90
        1
176
     1
 90
        6
176
     1
 90
        2
176
     1
 62
     7
176
     1
 90
        5
176
     1
 90
        0
176
     1
 90
        0
176
     1
290
     0
176
     1
 90
       13
176
     1
 40
0.0
176
     1
 90
        0
176
     1
290
     0
176
     1
290
     1
176
     1
290
     1
176
     1
290
     0
176
     1
290
     0
176
     1
290
     0
176
     1
290
     0
176
     1
290
     0
176
     1
290
     0
176
     1
 90
       50
176
     1
 40
0.0
176
     1
 40
1.0
176
     1
 90
        0
176
     1
 62
    18
420
        0
176
     1
 90
       50
176
     1
 90
        3
176
     1
 62
     5
420
      255
176
     1
290
     0
176
     1
 90
       50
176
     1
 90
       50
176
     1
 90
       50
176
     1
290
     0
176
     1
 90
       50
176
     1
 62
   256
176
     0
 40
1.0
176
     0
 90
        2
176
     1
  1
strokes_ogs.tif
176
     1
290
     0
176
     1
 40
1.0
176
     1
 40
1.0
176
     1
  0
VISUALSTYLE
  5
2B
102
{ACAD_REACTORS
330
29
102
}
330
29
100
AcDbVisualStyle
  2
FlatWithEdges
 70
     1
177
     3
291
     1
 70
    58
 90
        2
176
     1
 90
        1
176
     1
 90
        1
176
     1
 90
        2
176
     1
 40
0.6
176
     1
 40
30.0
176
     1
 62
     7
420
 16777215
176
     1
 90
        1
176
     1
 90
        0
176
     1
 62
     7
176
     1
 62
   257
176
     1
 90
        1
176
     1
 90
        1
176
     1
 40
1.0
176
     1
 90
        0
176
     1
 62
   257
176
     1
 40
1.0
176
     1
 90
        1
176
     1
 90
        6
176
     1
 90
        2
176
     1
 62
     7
176
     1
 90
        5
176
     1
 90
        0
176
     1
 90
        0
176
     1
290
     0
176
     1
 90
       13
176
     1
 40
0.0
176
     1
 90
        0
176
     1
290
     0
176
     1
290
     1
176
     1
290
     1
176
     1
290
     0
176
     1
290
     0
176
     1
290
     0
176
     1
290
     0
176
     1
290
     0
176
     1
290
     0
176
     1
 90
       50
176
     1
 40
0.0
176
     1
 40
1.0
176
     1
 90
        0
176
     1
 62
    18
420
        0
176
     1
 90
       50
176
     1
 90
        3
176
     1
 62
     5
420
      255
176
     1
290
     0
176
     1
 90
       50
176
     1
 90
       50
176
     1
 90
       50
176
     1
290
     0
176
     1
 90
       50
176
     1
 62
   256
176
     0
 40
1.0
176
     0
 90
        2
176
     1
  1
strokes_ogs.tif
176
     1
290
     0
176
     1
 40
1.0
176
     1
 40
1.0
176
     1
  0
VISUALSTYLE
  5
2C
102
{ACAD_REACTORS
330
29
102
}
330
29
100
AcDbVisualStyle
  2
Gouraud
 70
     2
177
     3
291
     1
 70
    58
 90
        2
176
     1
 90
        2
176
     1
 90
        1
176
     1
 90
        2
176
     1
 40
0.6
176
     1
 40
30.0
176
     1
 62
     7
420
 16777215
176
     1
 90
        0
176
     1
 90
        0
176
     1
 62
     7
176
     1
 62
   257
176
     1
 90
        1
176
     1
 90
        1
176
     1
 40
1.0
176
     1
 90
        0
176
     1
 62
     7
176
     1
 40
1.0
176
     1
 90
        1
176
     1
 90
        6
176
     1
 90
        2
176
     1
 62
     7
176
     1
 90
        5
176
     1
 90
        0
176
     1
 90
        0
176
     1
290
     0
176
     1
 90
       13
176
     1
 40
0.0
176
     1
 90
        0
176
     1
290
     0
176
     1
290
     1
176
     1
290
     1
176
     1
290
     0
176
     1
290
     0
176
     1
290
     0
176
     1
290
     0
176
     1
290
     0
176
     1
290
     0
176
     1
 90
       50
176
     1
 40
0.0
176
     1
 40
1.0
176
     1
 90
        0
176
     1
 62
    18
420
        0
176
     1
 90
       50
176
     1
 90
        3
176
     1
 62
     5
420
      255
176
     1
290
     0
176
     1
 90
       50
176
     1
 90
       50
176
     1
 90
       50
176
     1
290
     0
176
     1
 90
       50
176
     1
 62
   256
176
     0
 40
1.0
176
     0
 90
        2
176
     1
  1
strokes_ogs.tif
176
     1
290
     0
176
     1
 40
1.0
176
     1
 40
1.0
176
     1
  0
VISUALSTYLE
  5
2D
102
{ACAD_REACTORS
330
29
102
}
330
29
100
AcDbVisualStyle
  2
GouraudWithEdges
 70
     3
177
     3
291
     1
 70
    58
 90
        2
176
     1
 90
        2
176
     1
 90
        1
176
     1
 90
        2
176
     1
 40
0.6
176
     1
 40
30.0
176
     1
 62
     7
420
 16777215
176
     1
 90
        1
176
     1
 90
        0
176
     1
 62
     7
176
     1
 62
   257
176
     1
 90
        1
176
     1
 90
        1
176
     1
 40
1.0
176
     1
 90
        0
176
     1
 62
   257
176
     1
 40
1.0
176
     1
 90
        1
176
     1
 90
        6
176
     1
 90
        2
176
     1
 62
     7
176
     1
 90
        5
176
     1
 90
        0
176
     1
 90
        0
176
     1
290
     0
176
     1
 90
       13
176
     1
 40
0.0
176
     1
 90
        0
176
     1
290
     0
176
     1
290
     1
176
     1
290
     1
176
     1
290
     0
176
     1
290
     0
176
     1
290
     0
176
     1
290
     0
176
     1
290
     0
176
     1
290
     0
176
     1
 90
       50
176
     1
 40
0.0
176
     1
 40
1.0
176
     1
 90
        0
176
     1
 62
    18
420
        0
176
     1
 90
       50
176
     1
 90
        3
176
     1
 62
     5
420
      255
176
     1
290
     0
176
     1
 90
       50
176
     1
 90
       50
176
     1
 90
       50
176
     1
290
     0
176
     1
 90
       50
176
     1
 62
   256
176
     0
 40
1.0
176
     0
 90
        2
176
     1
  1
strokes_ogs.tif
176
     1
290
     0
176
     1
 40
1.0
176
     1
 40
1.0
176
     1
  0
VISUALSTYLE
  5
31
102
{ACAD_REACTORS
330
29
102
}
330
29
100
AcDbVisualStyle
  2
Hidden
 70
     6
177
     3
291
     0
 70
    58
 90
        1
176
     1
 90
        2
176
     1
 90
        2
176
     1
 90
        0
176
     1
 40
0.6
176
     1
 40
30.0
176
     1
 62
     7
420
 16777215
176
     1
 90
        2
176
     1
 90
        2
176
     1
 62
     7
176
     1
 62
   257
176
     1
 90
        2
176
     1
 90
        1
176
     1
 40
40.0
176
     1
 90
        0
176
     1
 62
   257
176
     1
 40
1.0
176
     1
 90
        1
176
     1
 90
        6
176
     1
 90
        2
176
     1
 62
     7
176
     1
 90
        3
176
     1
 90
        0
176
     1
 90
        0
176
     1
290
     0
176
     1
 90
        1
176
     1
 40
0.0
176
     1
 90
        0
176
     1
290
     0
176
     1
290
     1
176
     1
290
     1
176
     1
290
     0
176
     1
290
     0
176
     1
290
     0
176
     1
290
     0
176
     1
290
     0
176
     1
290
     0
176
     1
 90
       50
176
     1
 40
0.0
176
     1
 40
1.0
176
     1
 90
        0
176
     1
 62
    18
420
        0
176
     1
 90
       50
176
     1
 90
        3
176
     1
 62
     5
420
      255
176
     1
290
     0
176
     1
 90
       50
176
     1
 90
       50
176
     1
 90
       50
176
     1
290
     0
176
     1
 90
       50
176
     1
 62
   256
176
     0
 40
1.0
176
     0
 90
        2
176
     1
  1
strokes_ogs.tif
176
     1
290
     0
176
     1
 40
1.0
176
     1
 40
1.0
176
     1
  0
VISUALSTYLE
  5
3F
102
{ACAD_REACTORS
330
29
102
}
330
29
100
AcDbVisualStyle
  2
JitterOff
 70
    20
177
     3
291
     1
 70
    58
 90
        2
176
     0
 90
        2
176
     0
 90
        0
176
     0
 90
        0
176
     0
 40
0.6
176
     0
 40
30.0
176
     0
 62
     7
420
 16777215
176
     0
 90
        1
176
     0
 90
        4
176
     0
 62
     7
176
     0
 62
   257
176
     0
 90
        1
176
     0
 90
        1
176
     0
 40
1.0
176
     0
 90
       10
176
     2
 62
     7
176
     0
 40
1.0
176
     0
 90
        1
176
     0
 90
        6
176
     0
 90
        2
176
     0
 62
     7
176
     0
 90
        5
176
     0
 90
        0
176
     0
 90
        0
176
     0
290
     0
176
     0
 90
        1
176
     0
 40
0.0
176
     0
 90
        0
176
     0
290
     0
176
     0
290
     1
176
     0
290
     1
176
     0
290
     0
176
     0
290
     0
176
     0
290
     0
176
     0
290
     0
176
     0
290
     0
176
     0
290
     0
176
     0
 90
       50
176
     0
 40
0.0
176
     0
 40
1.0
176
     0
 90
        0
176
     0
 62
    18
420
        0
176
     0
 90
       50
176
     0
 90
        3
176
     0
 62
     5
420
      255
176
     0
290
     0
176
     0
 90
       50
176
     0
 90
       50
176
     0
 90
       50
176
     0
290
     0
176
     0
 90
       50
176
     0
 62
   256
176
     0
 40
1.0
176
     0
 90
        2
176
     0
  1
strokes_ogs.tif
176
     0
290
     0
176
     0
 40
1.0
176
     0
 40
1.0
176
     0
  0
VISUALSTYLE
  5
37
102
{ACAD_REACTORS
330
29
102
}
330
29
100
AcDbVisualStyle
  2
Linepattern
 70
    14
177
     3
291
     1
 70
    58
 90
        2
176
     1
 90
        2
176
     1
 90
        0
176
     1
 90
        0
176
     1
 40
0.6
176
     1
 40
30.0
176
     1
 62
     7
420
 16777215
176
     1
 90
        1
176
     1
 90
        4
176
     1
 62
     7
176
     1
 62
   257
176
     1
 90
        7
176
     1
 90
        7
176
     1
 40
1.0
176
     1
 90
        8
176
     1
 62
     7
176
     1
 40
1.0
176
     1
 90
        1
176
     1
 90
        6
176
     1
 90
        2
176
     1
 62
     7
176
     1
 90
        5
176
     1
 90
        0
176
     1
 90
        0
176
     1
290
     0
176
     1
 90
        1
176
     1
 40
0.0
176
     1
 90
        0
176
     1
290
     0
176
     1
290
     1
176
     1
290
     1
176
     1
290
     0
176
     1
290
     0
176
     1
290
     0
176
     1
290
     0
176
     1
290
     0
176
     1
290
     0
176
     1
 90
       50
176
     1
 40
0.0
176
     1
 40
1.0
176
     1
 90
        0
176
     1
 62
    18
420
        0
176
     1
 90
       50
176
     1
 90
        3
176
     1
 62
     5
420
      255
176
     1
290
     0
176
     1
 90
       50
176
     1
 90
       50
176
     1
 90
       50
176
     1
290
     0
176
     1
 90
       50
176
     1
 62
   256
176
     0
 40
1.0
176
     0
 90
        2
176
     1
  1
strokes_ogs.tif
176
     1
290
     0
176
     1
 40
1.0
176
     1
 40
1.0
176
     1
  0
VISUALSTYLE
  5
40
102
{ACAD_REACTORS
330
29
102
}
330
29
100
AcDbVisualStyle
  2
OverhangOff
 70
    21
177
     3
291
     1
 70
    58
 90
        2
176
     0
 90
        2
176
     0
 90
        0
176
     0
 90
        0
176
     0
 40
0.6
176
     0
 40
30.0
176
     0
 62
     7
420
 16777215
176
     0
 90
        1
176
     0
 90
        4
176
     0
 62
     7
176
     0
 62
   257
176
     0
 90
        1
176
     0
 90
        1
176
     0
 40
1.0
176
     0
 90
        9
176
     2
 62
     7
176
     0
 40
1.0
176
     0
 90
        1
176
     0
 90
        6
176
     0
 90
        2
176
     0
 62
     7
176
     0
 90
        5
176
     0
 90
        0
176
     0
 90
        0
176
     0
290
     0
176
     0
 90
        1
176
     0
 40
0.0
176
     0
 90
        0
176
     0
290
     0
176
     0
290
     1
176
     0
290
     1
176
     0
290
     0
176
     0
290
     0
176
     0
290
     0
176
     0
290
     0
176
     0
290
     0
176
     0
290
     0
176
     0
 90
       50
176
     0
 40
0.0
176
     0
 40
1.0
176
     0
 90
        0
176
     0
 62
    18
420
        0
176
     0
 90
       50
176
     0
 90
        3
176
     0
 62
     5
420
      255
176
     0
290
     0
176
     0
 90
       50
176
     0
 90
       50
176
     0
 90
       50
176
     0
290
     0
176
     0
 90
       50
176
     0
 62
   256
176
     0
 40
1.0
176
     0
 90
        2
176
     0
  1
strokes_ogs.tif
176
     0
290
     0
176
     0
 40
1.0
176
     0
 40
1.0
176
     0
  0
VISUALSTYLE
  5
33
102
{ACAD_REACTORS
330
29
102
}
330
29
100
AcDbVisualStyle
  2
Realistic
 70
     8
177
     3
291
     0
 70
    58
 90
        2
176
     1
 90
        3
176
     1
 90
        0
176
     1
 90
        2
176
     1
 40
0.6
176
     1
 40
30.0
176
     1
 62
     7
420
 16777215
176
     1
 90
        0
176
     1
 90
        0
176
     1
 62
     7
176
     1
 62
   257
176
     1
 90
        1
176
     1
 90
        1
176
     1
 40
1.0
176
     1
 90
        8
176
     1
 62
   257
176
     1
 40
1.0
176
     1
 90
        1
176
     1
 90
        6
176
     1
 90
        2
176
     1
 62
     7
176
     1
 90
        3
176
     1
 90
        0
176
     1
 90
        0
176
     1
290
     0
176
     1
 90
       13
176
     1
 40
0.0
176
     1
 90
        0
176
     1
290
     0
176
     1
290
     1
176
     1
290
     1
176
     1
290
     0
176
     1
290
     0
176
     1
290
     0
176
     1
290
     0
176
     1
290
     0
176
     1
290
     0
176
     1
 90
       50
176
     1
 40
0.0
176
     1
 40
1.0
176
     1
 90
        0
176
     1
 62
    18
420
        0
176
     1
 90
       50
176
     1
 90
        3
176
     1
 62
     5
420
      255
176
     1
290
     0
176
     1
 90
       50
176
     1
 90
       50
176
     1
 90
       50
176
     1
290
     0
176
     1
 90
       50
176
     1
 62
   256
176
     0
 40
1.0
176
     0
 90
        2
176
     1
  1
strokes_ogs.tif
176
     1
290
     0
176
     1
 40
1.0
176
     1
 40
1.0
176
     1
  0
VISUALSTYLE
  5
3E
102
{ACAD_REACTORS
330
29
102
}
330
29
100
AcDbVisualStyle
  2
Shaded
 70
    27
177
     3
291
     0
 70
    58
 90
        2
176
     1
 90
        2
176
     1
 90
        1
176
     1
 90
        2
176
     1
 40
0.6
176
     1
 40
30.0
176
     1
 62
     7
420
 16777215
176
     1
 90
        0
176
     1
 90
        4
176
     1
 62
     7
176
     1
 62
   257
176
     1
 90
        1
176
     1
 90
        1
176
     1
 40
1.0
176
     1
 90
        8
176
     1
 62
   257
176
     1
 40
1.0
176
     1
 90
        1
176
     1
 90
        6
176
     1
 90
        2
176
     1
 62
     8
420
  7895160
176
     1
 90
        3
176
     1
 90
        0
176
     1
 90
        0
176
     1
290
     0
176
     1
 90
        5
176
     1
 40
0.0
176
     1
 90
        0
176
     1
290
     0
176
     1
290
     1
176
     1
290
     1
176
     1
290
     0
176
     1
290
     0
176
     1
290
     0
176
     1
290
     0
176
     1
290
     0
176
     1
290
     0
176
     1
 90
       50
176
     1
 40
0.0
176
     1
 40
1.0
176
     1
 90
        0
176
     1
 62
    18
420
        0
176
     1
 90
       50
176
     1
 90
        3
176
     1
 62
     5
420
      255
176
     1
290
     0
176
     1
 90
       50
176
     1
 90
       50
176
     1
 90
       50
176
     1
290
     0
176
     1
 90
       50
176
     1
 62
   256
176
     0
 40
1.0
176
     0
 90
        2
176
     1
  1
strokes_ogs.tif
176
     1
290
     0
176
     1
 40
1.0
176
     1
 40
1.0
176
     1
  0
VISUALSTYLE
  5
3D
102
{ACAD_REACTORS
330
29
102
}
330
29
100
AcDbVisualStyle
  2
Shaded with edges
 70
    26
177
     3
291
     0
 70
    58
 90
        2
176
     1
 90
        2
176
     1
 90
        1
176
     1
 90
        2
176
     1
 40
0.6
176
     1
 40
30.0
176
     1
 62
     7
420
 16777215
176
     1
 90
        1
176
     1
 90
       10
176
     1
 62
     7
176
     1
 62
   257
176
     1
 90
        2
176
     1
 90
        1
176
     1
 40
1.0
176
     1
 90
        8
176
     1
 62
   257
176
     1
 40
1.0
176
     1
 90
        1
176
     1
 90
        6
176
     1
 90
        2
176
     1
 62
     7
176
     1
 90
        3
176
     1
 90
        0
176
     1
 90
        0
176
     1
290
     0
176
     1
 90
        5
176
     1
 40
0.0
176
     1
 90
        0
176
     1
290
     0
176
     1
290
     1
176
     1
290
     1
176
     1
290
     0
176
     1
290
     0
176
     1
290
     0
176
     1
290
     0
176
     1
290
     0
176
     1
290
     0
176
     1
 90
       50
176
     1
 40
0.0
176
     1
 40
1.0
176
     1
 90
        0
176
     1
 62
    18
420
        0
176
     1
 90
       50
176
     1
 90
        3
176
     1
 62
     5
420
      255
176
     1
290
     0
176
     1
 90
       50
176
     1
 90
       50
176
     1
 90
       50
176
     1
290
     0
176
     1
 90
       50
176
     1
 62
   256
176
     0
 40
1.0
176
     0
 90
        2
176
     1
  1
strokes_ogs.tif
176
     1
290
     0
176
     1
 40
1.0
176
     1
 40
1.0
176
     1
  0
VISUALSTYLE
  5
3A
102
{ACAD_REACTORS
330
29
102
}
330
29
100
AcDbVisualStyle
  2
Shades of Gray
 70
    23
177
     3
291
     0
 70
    58
 90
        2
176
     1
 90
        2
176
     1
 90
        3
176
     1
 90
        0
176
     1
 40
0.6
176
     1
 40
30.0
176
     1
 62
     7
420
 16777215
176
     1
 90
        2
176
     1
 90
        2
176
     1
 62
     7
176
     1
 62
     7
176
     1
 90
        1
176
     1
 90
        1
176
     1
 40
40.0
176
     1
 90
        8
176
     1
 62
     7
176
     1
 40
1.0
176
     1
 90
        1
176
     1
 90
        6
176
     1
 90
        2
176
     1
 62
     7
176
     1
 90
        3
176
     1
 90
        0
176
     1
 90
        0
176
     1
290
     0
176
     1
 90
        1
176
     1
 40
0.0
176
     1
 90
        0
176
     1
290
     0
176
     1
290
     1
176
     1
290
     1
176
     1
290
     0
176
     1
290
     0
176
     1
290
     0
176
     1
290
     0
176
     1
290
     0
176
     1
290
     0
176
     1
 90
       50
176
     1
 40
0.0
176
     1
 40
1.0
176
     1
 90
        0
176
     1
 62
    18
420
        0
176
     1
 90
       50
176
     1
 90
        3
176
     1
 62
     5
420
      255
176
     1
290
     0
176
     1
 90
       50
176
     1
 90
       50
176
     1
 90
       50
176
     1
290
     0
176
     1
 90
       50
176
     1
 62
   256
176
     0
 40
1.0
176
     0
 90
        2
176
     1
  1
strokes_ogs.tif
176
     1
290
     0
176
     1
 40
1.0
176
     1
 40
1.0
176
     1
  0
VISUALSTYLE
  5
3B
102
{ACAD_REACTORS
330
29
102
}
330
29
100
AcDbVisualStyle
  2
Sketchy
 70
    24
177
     3
291
     0
 70
    58
 90
        1
176
     1
 90
        2
176
     1
 90
        2
176
     1
 90
        0
176
     1
 40
0.6
176
     1
 40
30.0
176
     1
 62
     7
420
 16777215
176
     1
 90
        2
176
     1
 90
        2
176
     1
 62
     7
176
     1
 62
     7
176
     1
 90
        1
176
     1
 90
        1
176
     1
 40
40.0
176
     1
 90
       11
176
     1
 62
     7
176
     1
 40
1.0
176
     1
 90
        1
176
     1
 90
        6
176
     1
 90
        2
176
     1
 62
     7
176
     1
 90
        6
176
     1
 90
        0
176
     1
 90
        0
176
     1
290
     0
176
     1
 90
        1
176
     1
 40
0.0
176
     1
 90
        0
176
     1
290
     0
176
     1
290
     1
176
     1
290
     1
176
     1
290
     0
176
     1
290
     0
176
     1
290
     0
176
     1
290
     0
176
     1
290
     0
176
     1
290
     0
176
     1
 90
       50
176
     1
 40
0.0
176
     1
 40
1.0
176
     1
 90
        0
176
     1
 62
    18
420
        0
176
     1
 90
       50
176
     1
 90
        3
176
     1
 62
     5
420
      255
176
     1
290
     0
176
     1
 90
       50
176
     1
 90
       50
176
     1
 90
       50
176
     1
290
     0
176
     1
 90
       50
176
     1
 62
   256
176
     0
 40
1.0
176
     0
 90
        2
176
     1
  1
strokes_ogs.tif
176
     1
290
     0
176
     1
 40
1.0
176
     1
 40
1.0
176
     1
  0
VISUALSTYLE
  5
36
102
{ACAD_REACTORS
330
29
102
}
330
29
100
AcDbVisualStyle
  2
Thicken
 70
    13
177
     3
291
     1
 70
    58
 90
        2
176
     1
 90
        2
176
     1
 90
        0
176
     1
 90
        0
176
     1
 40
0.6
176
     1
 40
30.0
176
     1
 62
     7
420
 16777215
176
     1
 90
        1
176
     1
 90
        4
176
     1
 62
     7
176
     1
 62
   257
176
     1
 90
        1
176
     1
 90
        1
176
     1
 40
1.0
176
     1
 90
       12
176
     1
 62
     7
176
     1
 40
1.0
176
     1
 90
        1
176
     1
 90
        6
176
     1
 90
        2
176
     1
 62
     7
176
     1
 90
        5
176
     1
 90
        0
176
     1
 90
        0
176
     1
290
     0
176
     1
 90
        1
176
     1
 40
0.0
176
     1
 90
        0
176
     1
290
     0
176
     1
290
     1
176
     1
290
     1
176
     1
290
     0
176
     1
290
     0
176
     1
290
     0
176
     1
290
     0
176
     1
290
     0
176
     1
290
     0
176
     1
 90
       50
176
     1
 40
0.0
176
     1
 40
1.0
176
     1
 90
        0
176
     1
 62
    18
420
        0
176
     1
 90
       50
176
     1
 90
        3
176
     1
 62
     5
420
      255
176
     1
290
     0
176
     1
 90
       50
176
     1
 90
       50
176
     1
 90
       50
176
     1
290
     0
176
     1
 90
       50
176
     1
 62
   256
176
     0
 40
1.0
176
     0
 90
        2
176
     1
  1
strokes_ogs.tif
176
     1
290
     0
176
     1
 40
1.0
176
     1
 40
1.0
176
     1
  0
VISUALSTYLE
  5
30
102
{ACAD_REACTORS
330
29
102
}
330
29
100
AcDbVisualStyle
  2
Wireframe
 70
     5
177
     3
291
     0
 70
    58
 90
        0
176
     1
 90
        2
176
     1
 90
        0
176
     1
 90
        0
176
     1
 40
0.6
176
     1
 40
30.0
176
     1
 62
     7
420
 16777215
176
     1
 90
        1
176
     1
 90
        4
176
     1
 62
     7
176
     1
 62
   257
176
     1
 90
        1
176
     1
 90
        1
176
     1
 40
1.0
176
     1
 90
        0
176
     1
 62
   257
176
     1
 40
1.0
176
     1
 90
        1
176
     1
 90
        6
176
     1
 90
        2
176
     1
 62
     7
176
     1
 90
        3
176
     1
 90
        0
176
     1
 90
        0
176
     1
290
     0
176
     1
 90
        1
176
     1
 40
0.0
176
     1
 90
        0
176
     1
290
     0
176
     1
290
     1
176
     1
290
     1
176
     1
290
     0
176
     1
290
     0
176
     1
290
     0
176
     1
290
     0
176
     1
290
     0
176
     1
290
     0
176
     1
 90
       50
176
     1
 40
0.0
176
     1
 40
1.0
176
     1
 90
        0
176
     1
 62
    18
420
        0
176
     1
 90
       50
176
     1
 90
        3
176
     1
 62
     5
420
      255
176
     1
290
     0
176
     1
 90
       50
176
     1
 90
       50
176
     1
 90
       50
176
     1
290
     0
176
     1
 90
       50
176
     1
 62
   256
176
     0
 40
1.0
176
     0
 90
        2
176
     1
  1
strokes_ogs.tif
176
     1
290
     0
176
     1
 40
1.0
176
     1
 40
1.0
176
     1
  0
VISUALSTYLE
  5
3C
102
{ACAD_REACTORS
330
29
102
}
330
29
100
AcDbVisualStyle
  2
X-Ray
 70
    25
177
     3
291
     0
 70
    58
 90
        2
176
     1
 90
        2
176
     1
 90
        1
176
     1
 90
        1
176
     1
 40
0.5
176
     1
 40
30.0
176
     1
 62
     7
420
 16777215
176
     1
 90
        1
176
     1
 90
        0
176
     1
 62
     7
176
     1
 62
   257
176
     1
 90
        1
176
     1
 90
        1
176
     1
 40
1.0
176
     1
 90
        8
176
     1
 62
     7
176
     1
 40
1.0
176
     1
 90
        1
176
     1
 90
        6
176
     1
 90
        2
176
     1
 62
     7
176
     1
 90
        3
176
     1
 90
        0
176
     1
 90
        0
176
     1
290
     0
176
     1
 90
       13
176
     1
 40
0.0
176
     1
 90
        0
176
     1
290
     0
176
     1
290
     1
176
     1
290
     1
176
     1
290
     0
176
     1
290
     0
176
     1
290
     0
176
     1
290
     0
176
     1
290
     0
176
     1
290
     0
176
     1
 90
       50
176
     1
 40
0.0
176
     1
 40
1.0
176
     1
 90
        0
176
     1
 62
    18
420
        0
176
     1
 90
       50
176
     1
 90
        3
176
     1
 62
     5
420
      255
176
     1
290
     0
176
     1
 90
       50
176
     1
 90
       50
176
     1
 90
       50
176
     1
290
     0
176
     1
 90
       50
176
     1
 62
   256
176
     0
 40
1.0
176
     0
 90
        2
176
     1
  1
strokes_ogs.tif
176
     1
290
     0
176
     1
 40
1.0
176
     1
 40
1.0
176
     1
  0
DICTIONARYVAR
  5
81
102
{ACAD_REACTORS
330
7C
102
}
330
7C
100
DictionaryVariables
280
     0
  1
1:1
  0
DICTIONARYVAR
  5
7E
102
{ACAD_REACTORS
330
7C
102
}
330
7C
100
DictionaryVariables
280
     0
  1
STANDARD
  0
DICTIONARYVAR
  5
7D
102
{ACAD_REACTORS
330
7C
102
}
330
7C
100
DictionaryVariables
280
     0
  1
STANDARD
  0
DICTIONARYVAR
  5
7F
102
{ACAD_REACTORS
330
7C
102
}
330
7C
100
DictionaryVariables
280
     0
  1
Imperial24
  0
DICTIONARYVAR
  5
80
102
{ACAD_REACTORS
330
7C
102
}
330
7C
100
DictionaryVariables
280
     0
  1
Imperial24
  0
XRECORD
  5
1D0
102
{ACAD_REACTORS
330
1CD
102
}
330
1CD
100
AcDbXrecord
280
     1
  1
BUILDING_ID
  1
Progetto per messa in tavola DXF, DWG
  1
FLOOR_ID
  1
694395
  0
XRECORD
  5
1CF
102
{ACAD_REACTORS
330
1CD
102
}
330
1CD
100
AcDbXrecord
280
     1
  1
-2001160
  1
Apparecchi idraulici
  0
XRECORD
  5
1CE
102
{ACAD_REACTORS
330
1CD
102
}
330
1CD
100
AcDbXrecord
280
     1
  1
859151
  1
Automatic flow rate regulator valve_Caleffi_121 DN15 : 1/2''
  0
DICTIONARY
  5
1A
330
19
100
AcDbDictionary
280
     1
281
     1
  3
BUMPTILE
360
1C
  3
DIFFUSETILE
360
1B
  3
OPACITYTILE
360
1F
  3
REFLECTIONTILE
360
1E
  3
REFRACTIONTILE
360
20
  3
SPECULARTILE
360
1D
  0
DICTIONARY
  5
12
330
11
100
AcDbDictionary
280
     1
281
     1
  3
BUMPTILE
360
14
  3
DIFFUSETILE
360
13
  3
OPACITYTILE
360
17
  3
REFLECTIONTILE
360
16
  3
REFRACTIONTILE
360
18
  3
SPECULARTILE
360
15
  0
DICTIONARY
  5
22
330
21
100
AcDbDictionary
280
     1
281
     1
  3
BUMPTILE
360
24
  3
DIFFUSETILE
360
23
  3
OPACITYTILE
360
27
  3
REFLECTIONTILE
360
26
  3
REFRACTIONTILE
360
28
  3
SPECULARTILE
360
25
  0
DICTIONARY
  5
1D3
330
65
100
AcDbDictionary
280
     1
281
     1
  3
ACAD_ROUNDTRIP_2008_TABLESTYLE_CELLSTYLEMAP
360
1D4
  0
XRECORD
  5
1C
102
{ACAD_REACTORS
330
1A
102
}
330
1A
100
AcDbXrecord
280
     1
270
     1
271
     1
  0
XRECORD
  5
1B
102
{ACAD_REACTORS
330
1A
102
}
330
1A
100
AcDbXrecord
280
     1
270
     1
271
     1
  0
XRECORD
  5
1F
102
{ACAD_REACTORS
330
1A
102
}
330
1A
100
AcDbXrecord
280
     1
270
     1
271
     1
  0
XRECORD
  5
1E
102
{ACAD_REACTORS
330
1A
102
}
330
1A
100
AcDbXrecord
280
     1
270
     1
271
     1
  0
XRECORD
  5
20
102
{ACAD_REACTORS
330
1A
102
}
330
1A
100
AcDbXrecord
280
     1
270
     1
271
     1
  0
XRECORD
  5
1D
102
{ACAD_REACTORS
330
1A
102
}
330
1A
100
AcDbXrecord
280
     1
270
     1
271
     1
  0
XRECORD
  5
14
102
{ACAD_REACTORS
330
12
102
}
330
12
100
AcDbXrecord
280
     1
270
     1
271
     1
  0
XRECORD
  5
13
102
{ACAD_REACTORS
330
12
102
}
330
12
100
AcDbXrecord
280
     1
270
     1
271
     1
  0
XRECORD
  5
17
102
{ACAD_REACTORS
330
12
102
}
330
12
100
AcDbXrecord
280
     1
270
     1
271
     1
  0
XRECORD
  5
16
102
{ACAD_REACTORS
330
12
102
}
330
12
100
AcDbXrecord
280
     1
270
     1
271
     1
  0
XRECORD
  5
18
102
{ACAD_REACTORS
330
12
102
}
330
12
100
AcDbXrecord
280
     1
270
     1
271
     1
  0
XRECORD
  5
15
102
{ACAD_REACTORS
330
12
102
}
330
12
100
AcDbXrecord
280
     1
270
     1
271
     1
  0
XRECORD
  5
24
102
{ACAD_REACTORS
330
22
102
}
330
22
100
AcDbXrecord
280
     1
270
     1
271
     1
  0
XRECORD
  5
23
102
{ACAD_REACTORS
330
22
102
}
330
22
100
AcDbXrecord
280
     1
270
     1
271
     1
  0
XRECORD
  5
27
102
{ACAD_REACTORS
330
22
102
}
330
22
100
AcDbXrecord
280
     1
270
     1
271
     1
  0
XRECORD
  5
26
102
{ACAD_REACTORS
330
22
102
}
330
22
100
AcDbXrecord
280
     1
270
     1
271
     1
  0
XRECORD
  5
28
102
{ACAD_REACTORS
330
22
102
}
330
22
100
AcDbXrecord
280
     1
270
     1
271
     1
  0
XRECORD
  5
25
102
{ACAD_REACTORS
330
22
102
}
330
22
100
AcDbXrecord
280
     1
270
     1
271
     1
  0
CELLSTYLEMAP
  5
1D4
102
{ACAD_REACTORS
330
1D3
102
}
330
1D3
100
AcDbCellStyleMap
 90
        3
300
CELLSTYLE
  1
TABLEFORMAT_BEGIN
 90
        5
170
     1
 91
        0
 92
    32768
 62
   257
 93
        1
300
CONTENTFORMAT
  1
CONTENTFORMAT_BEGIN
 90
        0
 91
        0
 92
      512
 93
        0
300

 40
0.0
140
1.0
 94
        5
 62
     0
340
55
144
0.25
309
CONTENTFORMAT_END
171
     0
 94
        0
309
TABLEFORMAT_END
  1
CELLSTYLE_BEGIN
 90
        1
 91
        1
300
_TITLE
309
CELLSTYLE_END
300
CELLSTYLE
  1
TABLEFORMAT_BEGIN
 90
        5
170
     1
 91
        0
 92
        0
 62
   257
 93
        1
300
CONTENTFORMAT
  1
CONTENTFORMAT_BEGIN
 90
        0
 91
        0
 92
      512
 93
        0
300

 40
0.0
140
1.0
 94
        5
 62
     0
340
55
144
0.18
309
CONTENTFORMAT_END
171
     0
 94
        0
309
TABLEFORMAT_END
  1
CELLSTYLE_BEGIN
 90
        2
 91
        1
300
_HEADER
309
CELLSTYLE_END
300
CELLSTYLE
  1
TABLEFORMAT_BEGIN
 90
        5
170
     1
 91
        0
 92
        0
 62
   257
 93
        1
300
CONTENTFORMAT
  1
CONTENTFORMAT_BEGIN
 90
        0
 91
        0
 92
      512
 93
        0
300

 40
0.0
140
1.0
 94
        2
 62
     0
340
55
144
0.18
309
CONTENTFORMAT_END
171
     0
 94
        0
309
TABLEFORMAT_END
  1
CELLSTYLE_BEGIN
 90
        3
 91
        2
300
_DATA
309
CELLSTYLE_END
  0
ENDSEC
  0
EOF
