  0
SECTION
  2
HEADER
  9
$ACADVER
  1
AC1027
  9
$ACADMAINTVER
 70
    55
  9
$DWGCODEPAGE
  3
ANSI_1252
  9
$REQUIREDVERSIONS
160
                 0
  9
$INSBASE
 10
0.0
 20
0.0
 30
0.0
  9
$EXTMIN
 10
758.3683440274429
 20
1837.745878730051
 30
-0.00000001
  9
$EXTMAX
 10
1043.114353953097
 20
2023.899999999996
 30
0.00000001
  9
$LIMMIN
 10
0.0
 20
0.0
  9
$LIMMAX
 10
12.0
 20
9.0
  9
$ORTHOMODE
 70
     0
  9
$REGENMODE
 70
     1
  9
$FILLMODE
 70
     1
  9
$QTEXTMODE
 70
     0
  9
$MIRRTEXT
 70
     0
  9
$LTSCALE
 40
1.0
  9
$ATTMODE
 70
     1
  9
$TEXTSIZE
 40
0.2
  9
$TRACEWID
 40
0.05
  9
$TEXTSTYLE
  7
Standard
  9
$CLAYER
  8
0
  9
$CELTYPE
  6
ByLayer
  9
$CECOLOR
 62
   256
  9
$CELTSCALE
 40
1.0
  9
$DISPSILH
 70
     0
  9
$DIMSCALE
 40
1.0
  9
$DIMASZ
 40
0.18
  9
$DIMEXO
 40
0.0625
  9
$DIMDLI
 40
0.38
  9
$DIMRND
 40
0.0
  9
$DIMDLE
 40
0.0
  9
$DIMEXE
 40
0.18
  9
$DIMTP
 40
0.0
  9
$DIMTM
 40
0.0
  9
$DIMTXT
 40
0.18
  9
$DIMCEN
 40
0.09
  9
$DIMTSZ
 40
0.0
  9
$DIMTOL
 70
     0
  9
$DIMLIM
 70
     0
  9
$DIMTIH
 70
     1
  9
$DIMTOH
 70
     1
  9
$DIMSE1
 70
     0
  9
$DIMSE2
 70
     0
  9
$DIMTAD
 70
     0
  9
$DIMZIN
 70
     0
  9
$DIMBLK
  1

  9
$DIMASO
 70
     1
  9
$DIMSHO
 70
     1
  9
$DIMPOST
  1

  9
$DIMAPOST
  1

  9
$DIMALT
 70
     0
  9
$DIMALTD
 70
     2
  9
$DIMALTF
 40
25.4
  9
$DIMLFAC
 40
1.0
  9
$DIMTOFL
 70
     0
  9
$DIMTVP
 40
0.0
  9
$DIMTIX
 70
     0
  9
$DIMSOXD
 70
     0
  9
$DIMSAH
 70
     0
  9
$DIMBLK1
  1

  9
$DIMBLK2
  1

  9
$DIMSTYLE
  2
Standard
  9
$DIMCLRD
 70
     0
  9
$DIMCLRE
 70
     0
  9
$DIMCLRT
 70
     0
  9
$DIMTFAC
 40
1.0
  9
$DIMGAP
 40
0.09
  9
$DIMJUST
 70
     0
  9
$DIMSD1
 70
     0
  9
$DIMSD2
 70
     0
  9
$DIMTOLJ
 70
     1
  9
$DIMTZIN
 70
     0
  9
$DIMALTZ
 70
     0
  9
$DIMALTTZ
 70
     0
  9
$DIMUPT
 70
     0
  9
$DIMDEC
 70
     4
  9
$DIMTDEC
 70
     4
  9
$DIMALTU
 70
     2
  9
$DIMALTTD
 70
     2
  9
$DIMTXSTY
  7
Standard
  9
$DIMAUNIT
 70
     0
  9
$DIMADEC
 70
     0
  9
$DIMALTRND
 40
0.0
  9
$DIMAZIN
 70
     0
  9
$DIMDSEP
 70
    46
  9
$DIMATFIT
 70
     3
  9
$DIMFRAC
 70
     0
  9
$DIMLDRBLK
  1

  9
$DIMLUNIT
 70
     2
  9
$DIMLWD
 70
    -2
  9
$DIMLWE
 70
    -2
  9
$DIMTMOVE
 70
     0
  9
$DIMFXL
 40
1.0
  9
$DIMFXLON
 70
     0
  9
$DIMJOGANG
 40
0.7853981633974483
  9
$DIMTFILL
 70
     0
  9
$DIMTFILLCLR
 70
     0
  9
$DIMARCSYM
 70
     0
  9
$DIMLTYPE
  6

  9
$DIMLTEX1
  6

  9
$DIMLTEX2
  6

  9
$DIMTXTDIRECTION
 70
     0
  9
$LUNITS
 70
     2
  9
$LUPREC
 70
     4
  9
$SKETCHINC
 40
0.1
  9
$FILLETRAD
 40
0.0
  9
$AUNITS
 70
     0
  9
$AUPREC
 70
     0
  9
$MENU
  1
.
  9
$ELEVATION
 40
0.0
  9
$PELEVATION
 40
0.0
  9
$THICKNESS
 40
0.0
  9
$LIMCHECK
 70
     0
  9
$CHAMFERA
 40
0.0
  9
$CHAMFERB
 40
0.0
  9
$CHAMFERC
 40
0.0
  9
$CHAMFERD
 40
0.0
  9
$SKPOLY
 70
     0
  9
$TDCREATE
 40
2457772.666189526
  9
$TDUCREATE
 40
2457772.624522859
  9
$TDUPDATE
 40
2457772.666189526
  9
$TDUUPDATE
 40
2457772.624522859
  9
$TDINDWG
 40
0.0000129514
  9
$TDUSRTIMER
 40
0.0000129514
  9
$USRTIMER
 70
     1
  9
$ANGBASE
 50
0.0
  9
$ANGDIR
 70
     0
  9
$PDMODE
 70
     0
  9
$PDSIZE
 40
0.0
  9
$PLINEWID
 40
0.0
  9
$SPLFRAME
 70
     0
  9
$SPLINETYPE
 70
     6
  9
$SPLINESEGS
 70
     8
  9
$HANDSEED
  5
28B
  9
$SURFTAB1
 70
     6
  9
$SURFTAB2
 70
     6
  9
$SURFTYPE
 70
     6
  9
$SURFU
 70
     6
  9
$SURFV
 70
     6
  9
$UCSBASE
  2

  9
$UCSNAME
  2

  9
$UCSORG
 10
0.0
 20
0.0
 30
0.0
  9
$UCSXDIR
 10
1.0
 20
0.0
 30
0.0
  9
$UCSYDIR
 10
0.0
 20
1.0
 30
0.0
  9
$UCSORTHOREF
  2

  9
$UCSORTHOVIEW
 70
     0
  9
$UCSORGTOP
 10
0.0
 20
0.0
 30
0.0
  9
$UCSORGBOTTOM
 10
0.0
 20
0.0
 30
0.0
  9
$UCSORGLEFT
 10
0.0
 20
0.0
 30
0.0
  9
$UCSORGRIGHT
 10
0.0
 20
0.0
 30
0.0
  9
$UCSORGFRONT
 10
0.0
 20
0.0
 30
0.0
  9
$UCSORGBACK
 10
0.0
 20
0.0
 30
0.0
  9
$PUCSBASE
  2

  9
$PUCSNAME
  2

  9
$PUCSORG
 10
0.0
 20
0.0
 30
0.0
  9
$PUCSXDIR
 10
1.0
 20
0.0
 30
0.0
  9
$PUCSYDIR
 10
0.0
 20
1.0
 30
0.0
  9
$PUCSORTHOREF
  2

  9
$PUCSORTHOVIEW
 70
     0
  9
$PUCSORGTOP
 10
0.0
 20
0.0
 30
0.0
  9
$PUCSORGBOTTOM
 10
0.0
 20
0.0
 30
0.0
  9
$PUCSORGLEFT
 10
0.0
 20
0.0
 30
0.0
  9
$PUCSORGRIGHT
 10
0.0
 20
0.0
 30
0.0
  9
$PUCSORGFRONT
 10
0.0
 20
0.0
 30
0.0
  9
$PUCSORGBACK
 10
0.0
 20
0.0
 30
0.0
  9
$USERI1
 70
     0
  9
$USERI2
 70
     0
  9
$USERI3
 70
     0
  9
$USERI4
 70
     0
  9
$USERI5
 70
     0
  9
$USERR1
 40
0.0
  9
$USERR2
 40
0.0
  9
$USERR3
 40
0.0
  9
$USERR4
 40
0.0
  9
$USERR5
 40
0.0
  9
$WORLDVIEW
 70
     1
  9
$SHADEDGE
 70
     3
  9
$SHADEDIF
 70
    70
  9
$TILEMODE
 70
     1
  9
$MAXACTVP
 70
    64
  9
$PINSBASE
 10
0.0
 20
0.0
 30
0.0
  9
$PLIMCHECK
 70
     0
  9
$PEXTMIN
 10
1.000000000000000E+20
 20
1.000000000000000E+20
 30
1.000000000000000E+20
  9
$PEXTMAX
 10
-1.000000000000000E+20
 20
-1.000000000000000E+20
 30
-1.000000000000000E+20
  9
$PLIMMIN
 10
0.0
 20
0.0
  9
$PLIMMAX
 10
12.0
 20
9.0
  9
$UNITMODE
 70
     0
  9
$VISRETAIN
 70
     1
  9
$PLINEGEN
 70
     0
  9
$PSLTSCALE
 70
     1
  9
$TREEDEPTH
 70
  3020
  9
$CMLSTYLE
  2
Standard
  9
$CMLJUST
 70
     0
  9
$CMLSCALE
 40
1.0
  9
$PROXYGRAPHICS
 70
     1
  9
$MEASUREMENT
 70
     1
  9
$CELWEIGHT
370
    -1
  9
$ENDCAPS
280
     0
  9
$JOINSTYLE
280
     0
  9
$LWDISPLAY
290
     0
  9
$INSUNITS
 70
     4
  9
$HYPERLINKBASE
  1

  9
$STYLESHEET
  1

  9
$XEDIT
290
     1
  9
$CEPSNTYPE
380
     0
  9
$PSTYLEMODE
290
     1
  9
$FINGERPRINTGUID
  2
{1C643DE6-BC7F-4329-A5A7-3F80BCFE0BE4}
  9
$VERSIONGUID
  2
{3BE4A484-B5F4-45AD-A929-6E5F2BDDA3D2}
  9
$EXTNAMES
290
     1
  9
$PSVPSCALE
 40
0.0
  9
$OLESTARTUP
290
     0
  9
$SORTENTS
280
   127
  9
$INDEXCTL
280
     0
  9
$HIDETEXT
280
     1
  9
$XCLIPFRAME
280
     2
  9
$HALOGAP
280
     0
  9
$OBSCOLOR
 70
   257
  9
$OBSLTYPE
280
     0
  9
$INTERSECTIONDISPLAY
280
     0
  9
$INTERSECTIONCOLOR
 70
   257
  9
$DIMASSOC
280
     2
  9
$PROJECTNAME
  1

  9
$CAMERADISPLAY
290
     0
  9
$LENSLENGTH
 40
50.0
  9
$CAMERAHEIGHT
 40
0.0
  9
$STEPSPERSEC
 40
2.0
  9
$STEPSIZE
 40
6.0
  9
$3DDWFPREC
 40
2.0
  9
$PSOLWIDTH
 40
0.25
  9
$PSOLHEIGHT
 40
4.0
  9
$LOFTANG1
 40
1.570796326794896
  9
$LOFTANG2
 40
1.570796326794896
  9
$LOFTMAG1
 40
0.0
  9
$LOFTMAG2
 40
0.0
  9
$LOFTPARAM
 70
     7
  9
$LOFTNORMALS
280
     1
  9
$LATITUDE
 40
37.795
  9
$LONGITUDE
 40
-122.394
  9
$NORTHDIRECTION
 40
0.0
  9
$TIMEZONE
 70
 -8000
  9
$LIGHTGLYPHDISPLAY
280
     1
  9
$TILEMODELIGHTSYNCH
280
     1
  9
$CMATERIAL
347
11
  9
$SOLIDHIST
280
     0
  9
$SHOWHIST
280
     1
  9
$DWFFRAME
280
     2
  9
$DGNFRAME
280
     0
  9
$REALWORLDSCALE
290
     1
  9
$INTERFERECOLOR
 62
     1
  9
$INTERFEREOBJVS
345
33
  9
$INTERFEREVPVS
346
30
  9
$CSHADOW
280
     0
  9
$SHADOWPLANELOCATION
 40
0.0
  0
ENDSEC
  0
SECTION
  2
CLASSES
  0
CLASS
  1
ACDBDICTIONARYWDFLT
  2
AcDbDictionaryWithDefault
  3
ObjectDBX Classes
 90
        0
 91
        1
280
     0
281
     0
  0
CLASS
  1
MATERIAL
  2
AcDbMaterial
  3
ObjectDBX Classes
 90
     1153
 91
        3
280
     0
281
     0
  0
CLASS
  1
VISUALSTYLE
  2
AcDbVisualStyle
  3
ObjectDBX Classes
 90
     4095
 91
       24
280
     0
281
     0
  0
CLASS
  1
SCALE
  2
AcDbScale
  3
ObjectDBX Classes
 90
     1153
 91
       17
280
     0
281
     0
  0
CLASS
  1
TABLESTYLE
  2
AcDbTableStyle
  3
ObjectDBX Classes
 90
     4095
 91
        1
280
     0
281
     0
  0
CLASS
  1
MLEADERSTYLE
  2
AcDbMLeaderStyle
  3
ACDB_MLEADERSTYLE_CLASS
 90
     4095
 91
        1
280
     0
281
     0
  0
CLASS
  1
ACDBSECTIONVIEWSTYLE
  2
AcDbSectionViewStyle
  3
ObjectDBX Classes
 90
     1025
 91
        1
280
     0
281
     0
  0
CLASS
  1
ACDBDETAILVIEWSTYLE
  2
AcDbDetailViewStyle
  3
ObjectDBX Classes
 90
     1025
 91
        1
280
     0
281
     0
  0
CLASS
  1
RASTERVARIABLES
  2
AcDbRasterVariables
  3
ISM
 90
        0
 91
        1
280
     0
281
     0
  0
CLASS
  1
DICTIONARYVAR
  2
AcDbDictionaryVar
  3
ObjectDBX Classes
 90
        0
 91
        5
280
     0
281
     0
  0
CLASS
  1
CELLSTYLEMAP
  2
AcDbCellStyleMap
  3
ObjectDBX Classes
 90
     1152
 91
        2
280
     0
281
     0
  0
CLASS
  1
SORTENTSTABLE
  2
AcDbSortentsTable
  3
ObjectDBX Classes
 90
        0
 91
        1
280
     0
281
     0
  0
ENDSEC
  0
SECTION
  2
TABLES
  0
TABLE
  2
VPORT
  5
8
330
0
100
AcDbSymbolTable
 70
     1
  0
VPORT
  5
57
330
8
100
AcDbSymbolTableRecord
100
AcDbViewportTableRecord
  2
*Active
 70
     0
 10
0.0
 20
0.0
 11
1.0
 21
1.0
 12
900.7413489902701
 22
1930.822939365024
 13
0.0
 23
0.0
 14
1.0
 24
1.0
 15
0.0
 25
0.0
 16
0.0
 26
0.0
 36
1.0
 17
0.0
 27
0.0
 37
0.0
 40
186.1541212699442
 41
1.529625065419534
 42
50.0
 43
0.0
 44
0.0
 50
0.0
 51
0.0
 71
     0
 72
  1000
 73
     1
 74
     1
 75
     0
 76
     0
 77
     0
 78
     0
281
     0
 65
     1
110
0.0
120
0.0
130
0.0
111
1.0
121
0.0
131
0.0
112
0.0
122
1.0
132
0.0
 79
     0
146
0.0
 60
     3
 61
     5
292
     1
282
     1
141
0.0
142
0.0
 63
   250
421
  3355443
  0
ENDTAB
  0
TABLE
  2
LTYPE
  5
5
330
0
100
AcDbSymbolTable
 70
     2
  0
LTYPE
  5
5B
330
5
100
AcDbSymbolTableRecord
100
AcDbLinetypeTableRecord
  2
ByBlock
 70
     0
  3

 72
    65
 73
     0
 40
0.0
  0
LTYPE
  5
5C
330
5
100
AcDbSymbolTableRecord
100
AcDbLinetypeTableRecord
  2
ByLayer
 70
     0
  3

 72
    65
 73
     0
 40
0.0
  0
LTYPE
  5
5D
330
5
100
AcDbSymbolTableRecord
100
AcDbLinetypeTableRecord
  2
Continuous
 70
     0
  3
Solid line
 72
    65
 73
     0
 40
0.0
  0
LTYPE
  5
89
330
5
100
AcDbSymbolTableRecord
100
AcDbLinetypeTableRecord
  2
Nascosto 1_5 mm
 70
     0
  3

 72
    65
 73
     2
 40
2.2
 49
1.5
 74
     0
 49
-0.7000000000000001
 74
     0
  0
ENDTAB
  0
TABLE
  2
LAYER
  5
2
330
0
100
AcDbSymbolTable
 70
     3
  0
LAYER
  5
54
330
2
100
AcDbSymbolTableRecord
100
AcDbLayerTableRecord
  2
0
 70
     0
 62
     7
  6
Continuous
370
    -3
390
F
347
21
348
0
  0
LAYER
  5
88
330
2
100
AcDbSymbolTableRecord
100
AcDbLayerTableRecord
  2
P-PIPE
 70
     0
 62
     3
  6
Continuous
370
    70
390
F
347
21
348
0
  0
ENDTAB
  0
TABLE
  2
STYLE
  5
3
330
0
100
AcDbSymbolTable
 70
     2
  0
STYLE
  5
55
330
3
100
AcDbSymbolTableRecord
100
AcDbTextStyleTableRecord
  2
Standard
 70
     0
 40
0.0
 41
1.0
 50
0.0
 71
     0
 42
0.2
  3
txt
  4

  0
STYLE
  5
5A
330
3
100
AcDbSymbolTableRecord
100
AcDbTextStyleTableRecord
  2
Annotative
 70
     0
 40
0.0
 41
1.0
 50
0.0
 71
     0
 42
0.2
  3
txt
  4

1001
AcadAnnotative
1000
AnnotativeData
1002
{
1070
     1
1070
     1
1002
}
  0
ENDTAB
  0
TABLE
  2
VIEW
  5
6
330
0
100
AcDbSymbolTable
 70
     0
  0
ENDTAB
  0
TABLE
  2
UCS
  5
7
330
0
100
AcDbSymbolTable
 70
     0
  0
ENDTAB
  0
TABLE
  2
APPID
  5
9
330
0
100
AcDbSymbolTable
 70
     3
  0
APPID
  5
56
330
9
100
AcDbSymbolTableRecord
100
AcDbRegAppTableRecord
  2
ACAD
 70
     0
  0
APPID
  5
5E
330
9
100
AcDbSymbolTableRecord
100
AcDbRegAppTableRecord
  2
AcadAnnotative
 70
     0
  0
APPID
  5
78
330
9
100
AcDbSymbolTableRecord
100
AcDbRegAppTableRecord
  2
REVIT
 70
     0
  0
ENDTAB
  0
TABLE
  2
DIMSTYLE
  5
A
330
0
100
AcDbSymbolTable
 70
     2
100
AcDbDimStyleTable
 71
     0
  0
DIMSTYLE
105
58
330
A
100
AcDbSymbolTableRecord
100
AcDbDimStyleTableRecord
  2
Standard
 70
     0
340
55
  0
DIMSTYLE
105
59
330
A
100
AcDbSymbolTableRecord
100
AcDbDimStyleTableRecord
  2
Annotative
 70
     0
340
55
1001
AcadAnnotative
1000
AnnotativeData
1002
{
1070
     1
1070
     1
1002
}
  0
ENDTAB
  0
TABLE
  2
BLOCK_RECORD
  5
1
330
0
100
AcDbSymbolTable
 70
     4
  0
BLOCK_RECORD
  5
70
102
{ACAD_XDICTIONARY
360
282
102
}
330
1
100
AcDbSymbolTableRecord
100
AcDbBlockTableRecord
  2
*Model_Space
340
73
 70
     0
280
     1
281
     0
  0
BLOCK_RECORD
  5
6C
330
1
100
AcDbSymbolTableRecord
100
AcDbBlockTableRecord
  2
*Paper_Space
340
6F
 70
     0
280
     1
281
     0
  0
BLOCK_RECORD
  5
74
330
1
100
AcDbSymbolTableRecord
100
AcDbBlockTableRecord
  2
*Paper_Space0
340
77
 70
     0
280
     1
281
     0
  0
BLOCK_RECORD
  5
8A
330
1
100
AcDbSymbolTableRecord
100
AcDbBlockTableRecord
  2
Automatic flow rate regulator valve_Caleffi_121 DN15 - 1_2__-859151-Est - Idraulica
340
0
102
{BLKREFS
331
152
102
}
 70
     0
280
     1
281
     0
  0
BLOCK_RECORD
  5
153
330
1
100
AcDbSymbolTableRecord
100
AcDbBlockTableRecord
  2
Automatic flow rate regulator valve_Caleffi_121 DN15 - 1_2__-V1-Est - Idraulica
340
0
102
{BLKREFS
331
1FD
102
}
 70
     0
280
     1
281
     0
  0
BLOCK_RECORD
  5
1FE
330
1
100
AcDbSymbolTableRecord
100
AcDbBlockTableRecord
  2
Automatic flow rate regulator valve_Caleffi_121 DN15 - 1_2__-V2-Est - Idraulica
340
0
102
{BLKREFS
331
27B
102
}
 70
     0
280
     1
281
     0
  0
ENDTAB
  0
ENDSEC
  0
SECTION
  2
BLOCKS
  0
BLOCK
  5
71
330
70
100
AcDbEntity
  8
0
100
AcDbBlockBegin
  2
*Model_Space
 70
     0
 10
0.0
 20
0.0
 30
0.0
  3
*Model_Space
  1

  0
ENDBLK
  5
72
330
70
100
AcDbEntity
  8
0
100
AcDbBlockEnd
  0
BLOCK
  5
6D
330
6C
100
AcDbEntity
 67
     1
  8
0
100
AcDbBlockBegin
  2
*Paper_Space
 70
     0
 10
0.0
 20
0.0
 30
0.0
  3
*Paper_Space
  1

  0
ENDBLK
  5
6E
330
6C
100
AcDbEntity
 67
     1
  8
0
100
AcDbBlockEnd
  0
BLOCK
  5
75
330
74
100
AcDbEntity
 67
     1
  8
0
100
AcDbBlockBegin
  2
*Paper_Space0
 70
     0
 10
0.0
 20
0.0
 30
0.0
  3
*Paper_Space0
  1

  0
ENDBLK
  5
76
330
74
100
AcDbEntity
 67
     1
  8
0
100
AcDbBlockEnd
  0
BLOCK
  5
150
330
8A
100
AcDbEntity
  8
0
100
AcDbBlockBegin
  2
Automatic flow rate regulator valve_Caleffi_121 DN15 - 1_2__-859151-Est - Idraulica
 70
     0
 10
0.0
 20
0.0
 30
0.0
  3
Automatic flow rate regulator valve_Caleffi_121 DN15 - 1_2__-859151-Est - Idraulica
  1

  0
LINE
  5
8B
330
8A
100
AcDbEntity
  8
P-PIPE
370
    18
100
AcDbLine
 10
872.9164074431892
 20
2012.749999999996
 30
0.0
 11
872.0503820394048
 21
2014.249999999996
 31
0.0
1001
REVIT
1002
{
1070
     3
1000
790271
1002
}
  0
LINE
  5
8C
330
8A
100
AcDbEntity
  8
P-PIPE
370
    18
100
AcDbLine
 10
872.0503820394046
 20
1985.749999999995
 30
0.0
 11
872.9164074431892
 21
1987.249999999995
 31
0.0
1001
REVIT
1002
{
1070
     3
1000
790271
1002
}
  0
LINE
  5
8D
330
8A
100
AcDbEntity
  8
P-PIPE
370
    18
100
AcDbLine
 10
872.0503820394046
 20
2014.249999999996
 30
0.0
 11
860.4133595082851
 21
2014.249999999996
 31
0.0
1001
REVIT
1002
{
1070
     3
1000
790271
1002
}
  0
LINE
  5
8E
330
8A
100
AcDbEntity
  8
P-PIPE
370
    18
100
AcDbLine
 10
860.4133595082851
 20
1985.749999999995
 30
0.0
 11
872.0503820394048
 21
1985.749999999995
 31
0.0
1001
REVIT
1002
{
1070
     3
1000
790271
1002
}
  0
LINE
  5
8F
330
8A
100
AcDbEntity
  8
P-PIPE
370
    18
100
AcDbLine
 10
859.8851574431893
 20
1983.523726143559
 30
0.0
 11
860.4133595082851
 21
1984.051928208655
 31
0.0
1001
REVIT
1002
{
1070
     3
1000
790271
1002
}
  0
LINE
  5
90
330
8A
100
AcDbEntity
  8
P-PIPE
370
    18
100
AcDbLine
 10
860.4133595082851
 20
2015.948071791336
 30
0.0
 11
859.8851574431893
 21
2016.476273856432
 31
0.0
1001
REVIT
1002
{
1070
     3
1000
790271
1002
}
  0
LINE
  5
91
330
8A
100
AcDbEntity
  8
P-PIPE
370
    18
100
AcDbLine
 10
872.0503820394032
 20
2014.249999999995
 30
0.0
 11
872.0503820394032
 21
2014.223804413586
 31
0.0
1001
REVIT
1002
{
1070
     3
1000
790271
1002
}
  0
SPLINE
  5
92
330
8A
100
AcDbEntity
  8
P-PIPE
370
    18
100
AcDbSpline
210
0.0
220
0.0
230
1.0
 70
     8
 71
     3
 72
     9
 73
     5
 74
     0
 42
0.000000001
 43
0.0000000001
 40
-1.0
 40
-1.0
 40
-1.0
 40
-1.0
 40
-0.5
 40
0.0
 40
0.0
 40
0.0
 40
0.0
 10
872.0503820394032
 20
2014.223804413586
 30
0.0
 10
872.6277012938426
 20
2013.148034410758
 30
0.0
 10
873.2050205482824
 20
2011.011604236151
 30
0.0
 10
872.6277012938426
 20
2008.905393723639
 30
0.0
 10
872.0503820394032
 20
2007.859843382907
 30
0.0
1001
REVIT
1002
{
1070
     3
1000
790271
1002
}
  0
LINE
  5
93
330
8A
100
AcDbEntity
  8
P-PIPE
370
    18
100
AcDbLine
 10
872.0503820394032
 20
2007.859843382907
 30
0.0
 11
872.0503820394032
 21
2006.363961030674
 31
0.0
1001
REVIT
1002
{
1070
     3
1000
790271
1002
}
  0
SPLINE
  5
94
330
8A
100
AcDbEntity
  8
P-PIPE
370
    18
100
AcDbSpline
210
0.0
220
0.0
230
1.0
 70
     8
 71
     3
 72
     9
 73
     5
 74
     0
 42
0.000000001
 43
0.0000000001
 40
-1.0
 40
-1.0
 40
-1.0
 40
-1.0
 40
-0.5
 40
0.0
 40
0.0
 40
0.0
 40
0.0
 10
872.0503820394032
 20
2006.363961030674
 30
0.0
 10
872.3303777005853
 20
2005.321094480536
 30
0.0
 10
872.7547109290648
 20
2003.217567758618
 30
0.0
 10
872.9077279697749
 20
2001.078453793417
 30
0.0
 10
872.9164074431878
 20
1999.999999999995
 30
0.0
1001
REVIT
1002
{
1070
     3
1000
790271
1002
}
  0
SPLINE
  5
95
330
8A
100
AcDbEntity
  8
P-PIPE
370
    18
100
AcDbSpline
210
0.0
220
0.0
230
1.0
 70
     8
 71
     3
 72
     8
 73
     4
 74
     0
 42
0.000000001
 43
0.0000000001
 40
-1.0
 40
-1.0
 40
-1.0
 40
-1.0
 40
-0.8082843909332629
 40
-0.8082843909332629
 40
-0.8082843909332629
 40
-0.8082843909332629
 10
872.9164074431878
 20
1999.999999999995
 30
0.0
 10
872.9130794621244
 20
1999.586487148282
 30
0.0
 10
872.8997792885591
 20
1999.17428230124
 30
0.0
 10
872.8765069224921
 20
1998.763385458868
 30
0.0
1001
REVIT
1002
{
1070
     3
1000
790271
1002
}
  0
SPLINE
  5
96
330
8A
100
AcDbEntity
  8
P-PIPE
370
    18
100
AcDbSpline
210
0.0
220
0.0
230
1.0
 70
     8
 71
     3
 72
     9
 73
     5
 74
     0
 42
0.000000001
 43
0.0000000001
 40
-0.8025922847131445
 40
-0.8025922847131445
 40
-0.8025922847131445
 40
-0.8025922847131445
 40
-0.5
 40
0.0
 40
0.0
 40
0.0
 40
0.0
 10
872.8744076554391
 20
1998.72678988749
 30
0.0
 10
872.8367413417448
 20
1998.078377833325
 30
0.0
 10
872.6709442759103
 20
1996.367179837153
 30
0.0
 10
872.3303777005853
 20
1994.678905519454
 30
0.0
 10
872.0503820394032
 20
1993.636038969316
 30
0.0
1001
REVIT
1002
{
1070
     3
1000
790271
1002
}
  0
LINE
  5
97
330
8A
100
AcDbEntity
  8
P-PIPE
370
    18
100
AcDbLine
 10
872.0503820394032
 20
1993.636038969316
 30
0.0
 11
872.0503820394032
 21
1992.140156617083
 31
0.0
1001
REVIT
1002
{
1070
     3
1000
790271
1002
}
  0
SPLINE
  5
98
330
8A
100
AcDbEntity
  8
P-PIPE
370
    18
100
AcDbSpline
210
0.0
220
0.0
230
1.0
 70
     8
 71
     3
 72
     8
 73
     4
 74
     0
 42
0.000000001
 43
0.0000000001
 40
-1.0
 40
-1.0
 40
-1.0
 40
-1.0
 40
-0.5931241583119567
 40
-0.5931241583119567
 40
-0.5931241583119567
 40
-0.5931241583119567
 10
872.0503820394032
 20
1992.140156617083
 30
0.0
 10
872.520176554549
 20
1991.264746966356
 30
0.0
 10
872.7988230309243
 20
1990.394340118756
 30
0.0
 10
872.886321468529
 20
1989.528936074282
 30
0.0
1001
REVIT
1002
{
1070
     3
1000
790271
1002
}
  0
SPLINE
  5
99
330
8A
100
AcDbEntity
  8
P-PIPE
370
    18
100
AcDbSpline
210
0.0
220
0.0
230
1.0
 70
     8
 71
     3
 72
     9
 73
     5
 74
     0
 42
0.000000001
 43
0.0000000001
 40
-0.5833333333333354
 40
-0.5833333333333354
 40
-0.5833333333333354
 40
-0.5833333333333354
 40
-0.5
 40
-0.4246958114805017
 40
-0.4246958114805017
 40
-0.4246958114805017
 40
-0.4246958114805017
 10
872.8923059521276
 20
1989.466471017355
 30
0.0
 10
872.9083425980844
 20
1989.289274604529
 30
0.0
 10
872.934719695519
 20
1988.952063250199
 30
0.0
 10
872.8897287309774
 20
1988.616719769407
 30
0.0
 10
872.8569568554306
 20
1988.457833181015
 30
0.0
1001
REVIT
1002
{
1070
     3
1000
790271
1002
}
  0
SPLINE
  5
9A
330
8A
100
AcDbEntity
  8
P-PIPE
370
    18
100
AcDbSpline
210
0.0
220
0.0
230
1.0
 70
     8
 71
     3
 72
     8
 73
     4
 74
     0
 42
0.000000001
 43
0.0000000001
 40
-0.3958333333333347
 40
-0.3958333333333347
 40
-0.3958333333333347
 40
-0.3958333333333347
 40
0.0
 40
0.0
 40
0.0
 40
0.0
 10
872.8787750321016
 20
1988.273582460768
 30
0.0
 10
872.7835574467341
 20
1987.436385230938
 30
0.0
 10
872.5074264491679
 20
1986.603922939483
 30
0.0
 10
872.0503820394032
 20
1985.776195586404
 30
0.0
1001
REVIT
1002
{
1070
     3
1000
790271
1002
}
  0
LINE
  5
9B
330
8A
100
AcDbEntity
  8
P-PIPE
370
    18
100
AcDbLine
 10
872.0503820394032
 20
1985.776195586404
 30
0.0
 11
872.0503820394032
 21
1985.749999999995
 31
0.0
1001
REVIT
1002
{
1070
     3
1000
790271
1002
}
  0
SPLINE
  5
9C
330
8A
100
AcDbEntity
  8
P-PIPE
370
    18
100
AcDbSpline
210
0.0
220
0.0
230
1.0
 70
     8
 71
     3
 72
     8
 73
     4
 74
     0
 42
0.000000001
 43
0.0000000001
 40
-0.5075864779655009
 40
-0.5075864779655009
 40
-0.5075864779655009
 40
-0.5075864779655009
 40
-0.5
 40
-0.5
 40
-0.5
 40
-0.5
 10
872.9161615566241
 20
2011.01620337684
 30
0.0
 10
872.9162944662498
 20
2011.032300205448
 30
0.0
 10
872.91642638263
 20
2011.048397008061
 30
0.0
 10
872.9163609210626
 20
2011.064488644819
 30
0.0
1001
REVIT
1002
{
1070
     3
1000
790271
1002
}
  0
SPLINE
  5
9D
330
8A
100
AcDbEntity
  8
P-PIPE
370
    18
100
AcDbSpline
210
0.0
220
0.0
230
1.0
 70
     8
 71
     3
 72
     8
 73
     4
 74
     0
 42
0.000000001
 43
0.0000000001
 40
-0.5075864779655079
 40
-0.5075864779655079
 40
-0.5075864779655079
 40
-0.5075864779655079
 40
-0.5
 40
-0.5
 40
-0.5
 40
-0.5
 10
872.9161615566241
 20
1988.932555580337
 30
0.0
 10
872.9162944662498
 20
1988.948652408945
 30
0.0
 10
872.91642638263
 20
1988.964749211557
 30
0.0
 10
872.9163609210626
 20
1988.980840848315
 30
0.0
1001
REVIT
1002
{
1070
     3
1000
790271
1002
}
  0
LINE
  5
9E
330
8A
100
AcDbEntity
  8
P-PIPE
370
    18
100
AcDbLine
 10
872.0503820394032
 20
2007.859843382907
 30
0.0
 11
860.4133595082837
 21
2007.859843382907
 31
0.0
1001
REVIT
1002
{
1070
     3
1000
790271
1002
}
  0
LINE
  5
9F
330
8A
100
AcDbEntity
  8
P-PIPE
370
    18
100
AcDbLine
 10
860.4133595082837
 20
2006.363961030674
 30
0.0
 11
872.0503820394032
 21
2006.363961030674
 31
0.0
1001
REVIT
1002
{
1070
     3
1000
790271
1002
}
  0
LINE
  5
A0
330
8A
100
AcDbEntity
  8
P-PIPE
370
    18
100
AcDbLine
 10
872.0503820394032
 20
1993.636038969316
 30
0.0
 11
860.4133595082837
 21
1993.636038969316
 31
0.0
1001
REVIT
1002
{
1070
     3
1000
790271
1002
}
  0
LINE
  5
A1
330
8A
100
AcDbEntity
  8
P-PIPE
370
    18
100
AcDbLine
 10
860.4133595082837
 20
1992.140156617083
 30
0.0
 11
872.0503820394032
 21
1992.140156617083
 31
0.0
1001
REVIT
1002
{
1070
     3
1000
790271
1002
}
  0
LINE
  5
A2
330
8A
100
AcDbEntity
  8
P-PIPE
370
    18
100
AcDbLine
 10
860.4133595082837
 20
2014.223804413586
 30
0.0
 11
872.0503820394032
 21
2014.223804413586
 31
0.0
1001
REVIT
1002
{
1070
     3
1000
790271
1002
}
  0
LINE
  5
A3
330
8A
100
AcDbEntity
  8
P-PIPE
370
    18
100
AcDbLine
 10
872.0503820394032
 20
1985.776195586404
 30
0.0
 11
860.4133595082837
 21
1985.776195586404
 31
0.0
1001
REVIT
1002
{
1070
     3
1000
790271
1002
}
  0
LINE
  5
A4
330
8A
100
AcDbEntity
  8
P-PIPE
370
    18
100
AcDbLine
 10
860.4133595082837
 20
2015.948071791335
 30
0.0
 11
860.4133595082837
 21
1984.051928208655
 31
0.0
1001
REVIT
1002
{
1070
     3
1000
790271
1002
}
  0
LINE
  5
A5
330
8A
100
AcDbEntity
  8
P-PIPE
370
    18
100
AcDbLine
 10
872.9164074431878
 20
1999.999999999994
 30
0.0
 11
872.9164074431878
 21
2012.749999999995
 31
0.0
1001
REVIT
1002
{
1070
     3
1000
790271
1002
}
  0
LINE
  5
A6
330
8A
100
AcDbEntity
  8
P-PIPE
370
    18
100
AcDbLine
 10
872.9164074431878
 20
1987.249999999995
 30
0.0
 11
872.9164074431878
 21
1998.439263891205
 31
0.0
1001
REVIT
1002
{
1070
     3
1000
790271
1002
}
  0
LINE
  5
A7
330
8A
100
AcDbEntity
  8
P-PIPE
370
    18
100
AcDbLine
 10
872.9164074431878
 20
1998.71294196159
 30
0.0
 11
872.9164074431878
 21
1999.999999999994
 31
0.0
1001
REVIT
1002
{
1070
     3
1000
790271
1002
}
  0
LINE
  5
A8
330
8A
100
AcDbEntity
  8
P-PIPE
370
    18
100
AcDbLine
 10
872.9164074431878
 20
1989.256926426527
 30
0.0
 11
872.9164074431878
 21
1988.408717719265
 31
0.0
1001
REVIT
1002
{
1070
     3
1000
790271
1002
}
  0
LINE
  5
A9
330
8A
100
AcDbEntity
  8
P-PIPE
370
    18
100
AcDbLine
 10
872.9164074431878
 20
2011.530959383129
 30
0.0
 11
872.9164074431878
 21
2010.653660278227
 31
0.0
1001
REVIT
1002
{
1070
     3
1000
790271
1002
}
  0
LINE
  5
AA
330
8A
100
AcDbEntity
  8
P-PIPE
370
    18
100
AcDbLine
 10
872.9164074431878
 20
1989.349999999995
 30
0.0
 11
872.9164074431878
 21
1989.426415289924
 31
0.0
1001
REVIT
1002
{
1070
     3
1000
790271
1002
}
  0
LINE
  5
AB
330
8A
100
AcDbEntity
  8
P-PIPE
370
    18
100
AcDbLine
 10
872.9164074431878
 20
1998.712650413355
 30
0.0
 11
872.9164074431878
 21
2001.287349586639
 31
0.0
1001
REVIT
1002
{
1070
     3
1000
790271
1002
}
  0
LINE
  5
AC
330
8A
100
AcDbEntity
  8
P-PIPE
370
    18
100
AcDbLine
 10
872.9164074431878
 20
2010.534005675358
 30
0.0
 11
872.9164074431878
 21
2010.649999999995
 31
0.0
1001
REVIT
1002
{
1070
     3
1000
790271
1002
}
  0
LINE
  5
AD
330
8A
100
AcDbEntity
  8
P-PIPE
370
    18
100
AcDbLine
 10
872.9164074431878
 20
2010.649999999995
 30
0.0
 11
872.9164074431878
 21
2010.534005675358
 31
0.0
1001
REVIT
1002
{
1070
     3
1000
790271
1002
}
  0
LINE
  5
AE
330
8A
100
AcDbEntity
  8
P-PIPE
370
    18
100
AcDbLine
 10
872.9164074431878
 20
2001.287349586639
 30
0.0
 11
872.9164074431878
 21
1998.712650413355
 31
0.0
1001
REVIT
1002
{
1070
     3
1000
790271
1002
}
  0
LINE
  5
AF
330
8A
100
AcDbEntity
  8
P-PIPE
370
    18
100
AcDbLine
 10
872.9164074431878
 20
1989.426415289924
 30
0.0
 11
872.9164074431878
 21
1989.349999999995
 31
0.0
1001
REVIT
1002
{
1070
     3
1000
790271
1002
}
  0
LINE
  5
B0
330
8A
100
AcDbEntity
  8
P-PIPE
370
    18
100
AcDbLine
 10
759.2824328469736
 20
2014.249999999996
 30
0.0
 11
758.4164074431892
 21
2012.749999999996
 31
0.0
1001
REVIT
1002
{
1070
     3
1000
790271
1002
}
  0
LINE
  5
B1
330
8A
100
AcDbEntity
  8
P-PIPE
370
    18
100
AcDbLine
 10
758.4164074431892
 20
1987.249999999995
 30
0.0
 11
759.2824328469735
 21
1985.749999999995
 31
0.0
1001
REVIT
1002
{
1070
     3
1000
790271
1002
}
  0
LINE
  5
B2
330
8A
100
AcDbEntity
  8
P-PIPE
370
    18
100
AcDbLine
 10
770.9194553780933
 20
2014.249999999996
 30
0.0
 11
759.2824328469735
 21
2014.249999999996
 31
0.0
1001
REVIT
1002
{
1070
     3
1000
790271
1002
}
  0
LINE
  5
B3
330
8A
100
AcDbEntity
  8
P-PIPE
370
    18
100
AcDbLine
 10
759.2824328469736
 20
1985.749999999995
 30
0.0
 11
770.9194553780933
 21
1985.749999999995
 31
0.0
1001
REVIT
1002
{
1070
     3
1000
790271
1002
}
  0
LINE
  5
B4
330
8A
100
AcDbEntity
  8
P-PIPE
370
    18
100
AcDbLine
 10
770.9194553780933
 20
1984.051928208655
 30
0.0
 11
771.447657443189
 21
1983.523726143559
 31
0.0
1001
REVIT
1002
{
1070
     3
1000
790271
1002
}
  0
LINE
  5
B5
330
8A
100
AcDbEntity
  8
P-PIPE
370
    18
100
AcDbLine
 10
771.447657443189
 20
2016.476273856432
 30
0.0
 11
770.9194553780933
 21
2015.948071791336
 31
0.0
1001
REVIT
1002
{
1070
     3
1000
790271
1002
}
  0
LINE
  5
B6
330
8A
100
AcDbEntity
  8
P-PIPE
370
    18
100
AcDbLine
 10
758.4164074431878
 20
2012.749999999995
 30
0.0
 11
758.4164074431878
 21
1999.999999999995
 31
0.0
1001
REVIT
1002
{
1070
     3
1000
790271
1002
}
  0
SPLINE
  5
B7
330
8A
100
AcDbEntity
  8
P-PIPE
370
    18
100
AcDbSpline
210
0.0
220
0.0
230
1.0
 70
     8
 71
     3
 72
     8
 73
     4
 74
     0
 42
0.000000001
 43
0.0000000001
 40
-1.0
 40
-1.0
 40
-1.0
 40
-1.0
 40
-0.8082843909332554
 40
-0.8082843909332554
 40
-0.8082843909332554
 40
-0.8082843909332554
 10
758.4164074431878
 20
1999.999999999995
 30
0.0
 10
758.4197354242512
 20
2000.413512851707
 30
0.0
 10
758.4330355978164
 20
2000.82571769875
 30
0.0
 10
758.4563079638834
 20
2001.236614541122
 30
0.0
1001
REVIT
1002
{
1070
     3
1000
790271
1002
}
  0
SPLINE
  5
B8
330
8A
100
AcDbEntity
  8
P-PIPE
370
    18
100
AcDbSpline
210
0.0
220
0.0
230
1.0
 70
     8
 71
     3
 72
     9
 73
     5
 74
     0
 42
0.000000001
 43
0.0000000001
 40
-0.8025922847125132
 40
-0.8025922847125132
 40
-0.8025922847125132
 40
-0.8025922847125132
 40
-0.5
 40
0.0
 40
0.0
 40
0.0
 40
0.0
 10
758.4584072309366
 20
2001.273210112504
 30
0.0
 10
758.496073544631
 20
2001.921622166668
 30
0.0
 10
758.6618706104656
 20
2003.632820162838
 30
0.0
 10
759.0024371857903
 20
2005.321094480536
 30
0.0
 10
759.2824328469723
 20
2006.363961030674
 30
0.0
1001
REVIT
1002
{
1070
     3
1000
790271
1002
}
  0
SPLINE
  5
B9
330
8A
100
AcDbEntity
  8
P-PIPE
370
    18
100
AcDbSpline
210
0.0
220
0.0
230
1.0
 70
     8
 71
     3
 72
     8
 73
     4
 74
     0
 42
0.000000001
 43
0.0000000001
 40
-1.0
 40
-1.0
 40
-1.0
 40
-1.0
 40
-0.5931241583119471
 40
-0.5931241583119471
 40
-0.5931241583119471
 40
-0.5931241583119471
 10
759.2824328469723
 20
2007.859843382907
 30
0.0
 10
758.8126383318267
 20
2008.735253033634
 30
0.0
 10
758.5339918554514
 20
2009.605659881234
 30
0.0
 10
758.4464934178464
 20
2010.471063925708
 30
0.0
1001
REVIT
1002
{
1070
     3
1000
790271
1002
}
  0
SPLINE
  5
BA
330
8A
100
AcDbEntity
  8
P-PIPE
370
    18
100
AcDbSpline
210
0.0
220
0.0
230
1.0
 70
     8
 71
     3
 72
     9
 73
     5
 74
     0
 42
0.000000001
 43
0.0000000001
 40
-0.5833333333333331
 40
-0.5833333333333331
 40
-0.5833333333333331
 40
-0.5833333333333331
 40
-0.5
 40
0.0
 40
0.0
 40
0.0
 40
0.0
 10
758.4405089342481
 20
2010.533528982635
 30
0.0
 10
758.4244722882913
 20
2010.710725395461
 30
0.0
 10
758.3683440274429
 20
2011.949631273889
 30
0.0
 10
758.7051135925327
 20
2013.178254072854
 30
0.0
 10
759.2824328469723
 20
2014.223804413586
 30
0.0
1001
REVIT
1002
{
1070
     3
1000
790271
1002
}
  0
SPLINE
  5
BB
330
8A
100
AcDbEntity
  8
P-PIPE
370
    18
100
AcDbSpline
210
0.0
220
0.0
230
1.0
 70
     8
 71
     3
 72
     9
 73
     5
 74
     0
 42
0.000000001
 43
0.0000000001
 40
-1.0
 40
-1.0
 40
-1.0
 40
-1.0
 40
-0.5
 40
0.0
 40
0.0
 40
0.0
 40
0.0
 10
759.2824328469723
 20
1985.776195586404
 30
0.0
 10
758.7051135925327
 20
1986.851965589231
 30
0.0
 10
758.1277943380932
 20
1988.988395763839
 30
0.0
 10
758.7051135925327
 20
1991.094606276351
 30
0.0
 10
759.2824328469723
 20
1992.140156617083
 30
0.0
1001
REVIT
1002
{
1070
     3
1000
790271
1002
}
  0
SPLINE
  5
BC
330
8A
100
AcDbEntity
  8
P-PIPE
370
    18
100
AcDbSpline
210
0.0
220
0.0
230
1.0
 70
     8
 71
     3
 72
     9
 73
     5
 74
     0
 42
0.000000001
 43
0.0000000001
 40
-1.0
 40
-1.0
 40
-1.0
 40
-1.0
 40
-0.5
 40
0.0
 40
0.0
 40
0.0
 40
0.0
 10
759.2824328469723
 20
1993.636038969316
 30
0.0
 10
759.0024371857903
 20
1994.678905519454
 30
0.0
 10
758.5781039573107
 20
1996.782432241371
 30
0.0
 10
758.4250869166006
 20
1998.921546206573
 30
0.0
 10
758.4164074431878
 20
1999.999999999995
 30
0.0
1001
REVIT
1002
{
1070
     3
1000
790271
1002
}
  0
LINE
  5
BD
330
8A
100
AcDbEntity
  8
P-PIPE
370
    18
100
AcDbLine
 10
758.4164074431878
 20
1999.999999999995
 30
0.0
 11
758.4164074431878
 21
1987.249999999995
 31
0.0
1001
REVIT
1002
{
1070
     3
1000
790271
1002
}
  0
SPLINE
  5
BE
330
8A
100
AcDbEntity
  8
P-PIPE
370
    18
100
AcDbSpline
210
0.0
220
0.0
230
1.0
 70
     8
 71
     3
 72
     8
 73
     4
 74
     0
 42
0.000000001
 43
0.0000000001
 40
-0.5075864779654921
 40
-0.5075864779654921
 40
-0.5075864779654921
 40
-0.5075864779654921
 40
-0.5
 40
-0.5
 40
-0.5
 40
-0.5
 10
758.4166533297516
 20
2011.067444419653
 30
0.0
 10
758.4165204201258
 20
2011.051347591045
 30
0.0
 10
758.4163885037456
 20
2011.035250788433
 30
0.0
 10
758.4164539653129
 20
2011.019159151675
 30
0.0
1001
REVIT
1002
{
1070
     3
1000
790271
1002
}
  0
LINE
  5
BF
330
8A
100
AcDbEntity
  8
P-PIPE
370
    18
100
AcDbLine
 10
758.4164074431878
 20
2010.743143024887
 30
0.0
 11
758.4164074431878
 21
2011.591381692964
 31
0.0
1001
REVIT
1002
{
1070
     3
1000
790271
1002
}
  0
LINE
  5
C0
330
8A
100
AcDbEntity
  8
P-PIPE
370
    18
100
AcDbLine
 10
758.4164074431878
 20
1988.469040616861
 30
0.0
 11
758.4164074431878
 21
1989.346339721763
 31
0.0
1001
REVIT
1002
{
1070
     3
1000
790271
1002
}
  0
SPLINE
  5
C1
330
8A
100
AcDbEntity
  8
P-PIPE
370
    18
100
AcDbSpline
210
0.0
220
0.0
230
1.0
 70
     8
 71
     3
 72
     8
 73
     4
 74
     0
 42
0.000000001
 43
0.0000000001
 40
-0.5075864779654867
 40
-0.5075864779654867
 40
-0.5075864779654867
 40
-0.5075864779654867
 40
-0.5
 40
-0.5
 40
-0.5
 40
-0.5
 10
758.4166533297516
 20
1988.98379662315
 30
0.0
 10
758.4165204201258
 20
1988.967699794542
 30
0.0
 10
758.4163885037456
 20
1988.951602991929
 30
0.0
 10
758.4164539653129
 20
1988.935511355171
 30
0.0
1001
REVIT
1002
{
1070
     3
1000
790271
1002
}
  0
LINE
  5
C2
330
8A
100
AcDbEntity
  8
P-PIPE
370
    18
100
AcDbLine
 10
759.2824328469723
 20
2006.363961030674
 30
0.0
 11
759.2824328469723
 21
2007.859843382907
 31
0.0
1001
REVIT
1002
{
1070
     3
1000
790271
1002
}
  0
LINE
  5
C3
330
8A
100
AcDbEntity
  8
P-PIPE
370
    18
100
AcDbLine
 10
759.2824328469723
 20
2006.363961030674
 30
0.0
 11
770.9194553780919
 21
2006.363961030674
 31
0.0
1001
REVIT
1002
{
1070
     3
1000
790271
1002
}
  0
LINE
  5
C4
330
8A
100
AcDbEntity
  8
P-PIPE
370
    18
100
AcDbLine
 10
770.9194553780919
 20
2007.859843382907
 30
0.0
 11
759.2824328469723
 21
2007.859843382907
 31
0.0
1001
REVIT
1002
{
1070
     3
1000
790271
1002
}
  0
LINE
  5
C5
330
8A
100
AcDbEntity
  8
P-PIPE
370
    18
100
AcDbLine
 10
759.2824328469723
 20
1992.140156617082
 30
0.0
 11
759.2824328469723
 21
1993.636038969316
 31
0.0
1001
REVIT
1002
{
1070
     3
1000
790271
1002
}
  0
LINE
  5
C6
330
8A
100
AcDbEntity
  8
P-PIPE
370
    18
100
AcDbLine
 10
759.2824328469723
 20
1992.140156617083
 30
0.0
 11
770.9194553780919
 21
1992.140156617083
 31
0.0
1001
REVIT
1002
{
1070
     3
1000
790271
1002
}
  0
LINE
  5
C7
330
8A
100
AcDbEntity
  8
P-PIPE
370
    18
100
AcDbLine
 10
770.9194553780919
 20
1993.636038969316
 30
0.0
 11
759.2824328469723
 21
1993.636038969316
 31
0.0
1001
REVIT
1002
{
1070
     3
1000
790271
1002
}
  0
LINE
  5
C8
330
8A
100
AcDbEntity
  8
P-PIPE
370
    18
100
AcDbLine
 10
759.2824328469723
 20
2014.223804413586
 30
0.0
 11
759.2824328469723
 21
2014.249999999995
 31
0.0
1001
REVIT
1002
{
1070
     3
1000
790271
1002
}
  0
LINE
  5
C9
330
8A
100
AcDbEntity
  8
P-PIPE
370
    18
100
AcDbLine
 10
759.2824328469723
 20
2014.223804413586
 30
0.0
 11
770.9194553780919
 21
2014.223804413586
 31
0.0
1001
REVIT
1002
{
1070
     3
1000
790271
1002
}
  0
LINE
  5
CA
330
8A
100
AcDbEntity
  8
P-PIPE
370
    18
100
AcDbLine
 10
770.9194553780919
 20
1985.776195586404
 30
0.0
 11
759.2824328469723
 21
1985.776195586404
 31
0.0
1001
REVIT
1002
{
1070
     3
1000
790271
1002
}
  0
LINE
  5
CB
330
8A
100
AcDbEntity
  8
P-PIPE
370
    18
100
AcDbLine
 10
759.2824328469723
 20
1985.749999999995
 30
0.0
 11
759.2824328469723
 21
1985.776195586404
 31
0.0
1001
REVIT
1002
{
1070
     3
1000
790271
1002
}
  0
LINE
  5
CC
330
8A
100
AcDbEntity
  8
P-PIPE
370
    18
100
AcDbLine
 10
770.9194553780919
 20
1984.051928208655
 30
0.0
 11
770.9194553780919
 21
2015.948071791335
 31
0.0
1001
REVIT
1002
{
1070
     3
1000
790271
1002
}
  0
LINE
  5
CD
330
8A
100
AcDbEntity
  8
P-PIPE
370
    18
100
AcDbLine
 10
758.4164074431878
 20
2010.649999999995
 30
0.0
 11
758.4164074431878
 21
2010.573584710066
 31
0.0
1001
REVIT
1002
{
1070
     3
1000
790271
1002
}
  0
LINE
  5
CE
330
8A
100
AcDbEntity
  8
P-PIPE
370
    18
100
AcDbLine
 10
758.4164074431878
 20
2001.287349586639
 30
0.0
 11
758.4164074431878
 21
1998.712650413355
 31
0.0
1001
REVIT
1002
{
1070
     3
1000
790271
1002
}
  0
LINE
  5
CF
330
8A
100
AcDbEntity
  8
P-PIPE
370
    18
100
AcDbLine
 10
758.4164074431878
 20
1989.465994324632
 30
0.0
 11
758.4164074431878
 21
1989.349999999995
 31
0.0
1001
REVIT
1002
{
1070
     3
1000
790271
1002
}
  0
LINE
  5
D0
330
8A
100
AcDbEntity
  8
P-PIPE
370
    18
100
AcDbLine
 10
758.4164074431878
 20
1989.349999999995
 30
0.0
 11
758.4164074431878
 21
1989.465994324632
 31
0.0
1001
REVIT
1002
{
1070
     3
1000
790271
1002
}
  0
LINE
  5
D1
330
8A
100
AcDbEntity
  8
P-PIPE
370
    18
100
AcDbLine
 10
758.4164074431878
 20
1998.712650413355
 30
0.0
 11
758.4164074431878
 21
2001.287349586639
 31
0.0
1001
REVIT
1002
{
1070
     3
1000
790271
1002
}
  0
LINE
  5
D2
330
8A
100
AcDbEntity
  8
P-PIPE
370
    18
100
AcDbLine
 10
758.4164074431878
 20
2010.573584710066
 30
0.0
 11
758.4164074431878
 21
2010.649999999995
 31
0.0
1001
REVIT
1002
{
1070
     3
1000
790271
1002
}
  0
LWPOLYLINE
  5
D3
330
8A
100
AcDbEntity
  8
P-PIPE
370
    18
100
AcDbPolyline
 90
       15
 70
   128
 43
0.0
 10
859.6172082507582
 20
2019.064101615134
 10
859.6558121290408
 20
2018.994038163222
 10
859.691583337546
 20
2018.92248701121
 10
859.7244646499701
 20
2018.849562625677
 10
859.7544034632282
 20
2018.775381670083
 10
859.7813518816055
 20
2018.700062818132
 10
859.8052667933812
 20
2018.623726563921
 10
859.826109939798
 20
2018.546495029173
 10
859.8438479762679
 20
2018.468491767867
 10
859.8584525257168
 20
2018.389841568582
 10
859.8699002239809
 20
2018.310670254859
 10
859.8781727571847
 20
2018.231104483911
 10
859.8832568910401
 20
2018.151271543998
 10
859.8851444920175
 20
2018.071299150794
 10
859.8851574431893
 20
2018.064101615134
1001
REVIT
1002
{
1070
     3
1000
790271
1002
}
  0
LWPOLYLINE
  5
D4
330
8A
100
AcDbEntity
  8
P-PIPE
370
    18
100
AcDbPolyline
 90
       15
 70
   128
 43
0.0
 10
859.8851574431893
 20
1981.935898384858
 10
859.8835576565111
 20
1981.855919716484
 10
859.8787608557945
 20
1981.77606899692
 10
859.8707747148967
 20
1981.69647397028
 10
859.8596120099404
 20
1981.617261971629
 10
859.8452905988716
 20
1981.538559723268
 10
859.8278333928933
 20
1981.460493132004
 10
859.8072683198106
 20
1981.38318708773
 10
859.783628279354
 20
1981.306765263625
 10
859.7569510905451
 20
1981.231349918308
 10
859.7272794311949
 20
1981.15706170024
 10
859.694660769629
 20
1981.084019454726
 10
859.6591472887478
 20
1981.012340033775
 10
859.6207958025447
 20
1980.94213810917
 10
859.6172082507582
 20
1980.935898384858
1001
REVIT
1002
{
1070
     3
1000
790271
1002
}
  0
LINE
  5
D5
330
8A
100
AcDbEntity
  8
P-PIPE
370
    18
100
AcDbLine
 10
859.8851574431893
 20
2018.049652260577
 30
0.0
 11
859.8851574431893
 21
2018.006327312789
 31
0.0
1001
REVIT
1002
{
1070
     3
1000
790271
1002
}
  0
LWPOLYLINE
  5
D6
330
8A
100
AcDbEntity
  8
P-PIPE
370
    18
100
AcDbPolyline
 90
        4
 70
   128
 43
0.0
 10
859.8851574431893
 20
1982.02903863851
 10
859.8851574431893
 20
1981.970152038417
 10
859.8851574431893
 20
1981.940109348899
 10
859.8851574431893
 20
1981.935898384858
1001
REVIT
1002
{
1070
     3
1000
790271
1002
}
  0
LWPOLYLINE
  5
D7
330
8A
100
AcDbEntity
  8
P-PIPE
370
    18
100
AcDbPolyline
 90
       28
 70
   128
 43
0.0
 10
856.2478507472945
 20
2023.899999999996
 10
856.2878400814811
 20
2023.899200106657
 10
856.3277654412638
 20
2023.896801706298
 10
856.3675629545835
 20
2023.892808635849
 10
856.4071689539089
 20
2023.887227283371
 10
856.4465200780896
 20
2023.880066577837
 10
856.4855533737217
 20
2023.871337974847
 10
856.5242063958587
 20
2023.861055438306
 10
856.5624173079108
 20
2023.849235418078
 10
856.6001249805696
 20
2023.835896823674
 10
856.6372690896031
 20
2023.821060993999
 10
856.6737902123605
 20
2023.804751663216
 10
856.709629922836
 20
2023.786994922776
 10
856.7447308851383
 20
2023.767819179673
 10
856.7790369452154
 20
2023.747255111009
 10
856.8124932206897
 20
2023.725335614905
 10
856.845046188657
 20
2023.70209575788
 10
856.8766437713131
 20
2023.677572718747
 10
856.9072354192661
 20
2023.651805729137
 10
856.9367721924052
 20
2023.624836010737
 10
856.9652068381941
 20
2023.596706709343
 10
856.9924938672656
 20
2023.567462825837
 10
857.0185896261936
 20
2023.537151144195
 10
857.0434523673311
 20
2023.50582015664
 10
857.0670423155958
 20
2023.473519986068
 10
857.0893217321025
 20
2023.440302305864
 10
857.1102549745377
 20
2023.406220257228
 10
857.1138761510791
 20
2023.399999999996
1001
REVIT
1002
{
1070
     3
1000
790271
1002
}
  0
LWPOLYLINE
  5
D8
330
8A
100
AcDbEntity
  8
P-PIPE
370
    18
100
AcDbPolyline
 90
       28
 70
   128
 43
0.0
 10
857.1138761510791
 20
1976.599999999996
 10
857.0931887560339
 20
1976.565768167379
 10
857.0711490005036
 20
1976.532390991731
 10
857.047792143396
 20
1976.499921869413
 10
857.0231555507
 20
1976.468412744094
 10
856.9972786357077
 20
1976.437914023654
 10
856.9702027959634
 20
1976.408474499537
 10
856.9419713470349
 20
1976.380141268704
 10
856.912629453218
 20
1976.35295965828
 10
856.8822240552833
 20
1976.326973153042
 10
856.8508037953817
 20
1976.302223325855
 10
856.8184189392264
 20
1976.278749771164
 10
856.7851212956785
 20
1976.256590041648
 10
856.7509641338649
 20
1976.235779588148
 10
856.716002097958
 20
1976.21635170295
 10
856.6802911197569
 20
1976.198337466525
 10
856.6438883292091
 20
1976.181765697809
 10
856.6068519630134
 20
1976.166662908098
 10
856.5692412714554
 20
1976.153053258632
 10
856.5311164236188
 20
1976.140958521947
 10
856.4925384111264
 20
1976.130398047043
 10
856.4535689505696
 20
1976.121388728427
 10
856.4142703847714
 20
1976.113944979086
 10
856.3747055830544
 20
1976.10807870743
 10
856.3349378406609
 20
1976.103799298245
 10
856.2950307774956
 20
1976.10111359767
 10
856.2550482363468
 20
1976.100025902255
 10
856.2478507472945
 20
1976.099999999996
1001
REVIT
1002
{
1070
     3
1000
790271
1002
}
  0
LINE
  5
D9
330
8A
100
AcDbEntity
  8
P-PIPE
370
    18
100
AcDbLine
 10
787.4858268552574
 20
1981.066111360993
 30
0.0
 11
788.458020414271
 21
1982.749999999995
 31
0.0
1001
REVIT
1002
{
1070
     3
1000
790271
1002
}
  0
LINE
  5
DA
330
8A
100
AcDbEntity
  8
P-PIPE
370
    18
100
AcDbLine
 10
788.458020414271
 20
2017.249999999996
 30
0.0
 11
787.4858268552574
 21
2018.933888638999
 31
0.0
1001
REVIT
1002
{
1070
     3
1000
790271
1002
}
  0
LWPOLYLINE
  5
DB
330
8A
100
AcDbEntity
  8
P-PIPE
370
    18
100
AcDbPolyline
 90
       28
 70
   128
 43
0.0
 10
788.458020414271
 20
2017.249999999996
 10
788.4993952043615
 20
2017.181536334763
 10
788.5434747154216
 20
2017.114781983467
 10
788.5901884296369
 20
2017.049843738831
 10
788.6394616150294
 20
2016.986825488194
 10
788.6912154450137
 20
2016.925828047312
 10
788.7453671245022
 20
2016.86694899908
 10
788.8018300223593
 20
2016.810282537413
 10
788.8605138099934
 20
2016.755919316564
 10
788.9213246058625
 20
2016.703946306088
 10
788.9841651256658
 20
2016.654446651715
 10
789.0489348379766
 20
2016.607499542333
 10
789.115530125072
 20
2016.563180083302
 10
789.1838444486993
 20
2016.521559176301
 10
789.2537685205131
 20
2016.482703405904
 10
789.3251904769154
 20
2016.446674933055
 10
789.3979960580111
 20
2016.413531395623
 10
789.4720687904023
 20
2016.3833258162
 10
789.5472901735181
 20
2016.356106517268
 10
789.6235398691916
 20
2016.3319170439
 10
789.7006958941761
 20
2016.310796094092
 10
789.77863481529
 20
2016.292777456858
 10
789.8572319468863
 20
2016.277889958175
 10
789.9363615503204
 20
2016.266157414865
 10
790.0158970351072
 20
2016.257598596494
 10
790.0957111614376
 20
2016.252227195345
 10
790.1756762437356
 20
2016.250051804515
 10
790.19007122184
 20
2016.249999999996
1001
REVIT
1002
{
1070
     3
1000
790271
1002
}
  0
LWPOLYLINE
  5
DC
330
8A
100
AcDbEntity
  8
P-PIPE
370
    18
100
AcDbPolyline
 90
       28
 70
   128
 43
0.0
 10
790.19007122184
 20
1983.749999999995
 10
790.1100925534666
 20
1983.748400213318
 10
790.0302418339015
 20
1983.743603412601
 10
789.950646807262
 20
1983.735617271703
 10
789.8714348086114
 20
1983.724454566747
 10
789.7927325602498
 20
1983.710133155678
 10
789.7146659689854
 20
1983.6926759497
 10
789.6373599247117
 20
1983.672110876617
 10
789.5609381006078
 20
1983.64847083616
 10
789.4855227552898
 20
1983.621793647351
 10
789.4112345372227
 20
1983.592121988001
 10
789.338192291708
 20
1983.559503326435
 10
789.266512870757
 20
1983.523989845554
 10
789.1963109461523
 20
1983.485638359351
 10
789.1276988259982
 20
1983.444510222022
 10
789.0607862750498
 20
1983.400671229815
 10
788.9956803391151
 20
1983.354191515764
 10
788.932485173803
 20
1983.305145437498
 10
788.8713018778969
 20
1983.253611458277
 10
788.8122283316188
 20
1983.199672021477
 10
788.7553590400409
 20
1983.14341341869
 10
788.7007849818981
 20
1983.084925651678
 10
788.648593464042
 20
1983.024302288393
 10
788.5988679817671
 20
1982.961640313282
 10
788.5516880852379
 20
1982.89703997214
 10
788.5071292522241
 20
1982.830604611732
 10
788.4652627673533
 20
1982.762440514461
 10
788.458020414271
 20
1982.749999999995
1001
REVIT
1002
{
1070
     3
1000
790271
1002
}
  0
LINE
  5
DD
330
8A
100
AcDbEntity
  8
P-PIPE
370
    18
100
AcDbLine
 10
790.19007122184
 20
1983.749999999995
 30
0.0
 11
796.4476574431892
 21
1983.749999999995
 31
0.0
1001
REVIT
1002
{
1070
     3
1000
790271
1002
}
  0
LINE
  5
DE
330
8A
100
AcDbEntity
  8
P-PIPE
370
    18
100
AcDbLine
 10
802.0329812991334
 20
2016.249999999996
 30
0.0
 11
790.19007122184
 21
2016.249999999996
 31
0.0
1001
REVIT
1002
{
1070
     3
1000
790271
1002
}
  0
LWPOLYLINE
  5
DF
330
8A
100
AcDbEntity
  8
P-PIPE
370
    18
100
AcDbPolyline
 90
       32
 70
   128
 43
0.0
 10
802.0329812991334
 20
2016.249999999996
 10
802.1129599675065
 20
2016.251599786674
 10
802.1928106870715
 20
2016.256396587391
 10
802.2724057137111
 20
2016.264382728288
 10
802.3516177123617
 20
2016.275545433245
 10
802.4303199607235
 20
2016.289866844314
 10
802.5083865519876
 20
2016.307324050291
 10
802.5856925962616
 20
2016.327889123374
 10
802.6621144203655
 20
2016.351529163831
 10
802.7375297656835
 20
2016.37820635264
 10
802.8118179837507
 20
2016.40787801199
 10
802.8848602292651
 20
2016.440496673556
 10
802.9565396502162
 20
2016.476010154438
 10
803.0267415748207
 20
2016.514361640641
 10
803.095353694975
 20
2016.555489777969
 10
803.1622662459234
 20
2016.599328770177
 10
803.227372181858
 20
2016.645808484227
 10
803.2905673471702
 20
2016.694854562494
 10
803.3517506430762
 20
2016.746388541714
 10
803.4108241893543
 20
2016.800327978514
 10
803.4676934809322
 20
2016.856586581301
 10
803.522267539075
 20
2016.915074348313
 10
803.5744590569313
 20
2016.975697711599
 10
803.624184539206
 20
2017.038359686709
 10
803.6713644357353
 20
2017.102960027851
 10
803.7159232687493
 20
2017.169395388259
 10
803.7577897536198
 20
2017.23755948553
 10
803.7968969129032
 20
2017.307343271648
 10
803.8331821834862
 20
2017.378635107442
 10
803.8665875166767
 20
2017.451320941183
 10
803.8970594710679
 20
2017.525284491043
 10
803.9153770050548
 20
2017.574288222439
1001
REVIT
1002
{
1070
     3
1000
790271
1002
}
  0
LWPOLYLINE
  5
E0
330
8A
100
AcDbEntity
  8
P-PIPE
370
    18
100
AcDbPolyline
 90
       27
 70
   128
 43
0.0
 10
803.9153770050548
 20
2017.574288222439
 10
803.959686480641
 20
2017.640890152482
 10
804.0066238802108
 20
2017.705666901658
 10
804.0561141139376
 20
2017.768514840987
 10
804.1080780080049
 20
2017.829333427172
 10
804.1624324312673
 20
2017.888025363449
 10
804.2190904282422
 20
2017.944496755241
 10
804.2779613582213
 20
2017.998657260368
 10
804.3389510402748
 20
2018.050420233575
 10
804.401961903922
 20
2018.099702865146
 10
804.4668931452225
 20
2018.146426313386
 10
804.5336408880414
 20
2018.190515830742
 10
804.6020983502295
 20
2018.231900883393
 10
804.6721560144503
 20
2018.270515264084
 10
804.7437018033857
 20
2018.306297198042
 10
804.8166212590361
 20
2018.339189441805
 10
804.8907977258277
 20
2018.369139374802
 10
804.9661125372372
 20
2018.396099083527
 10
805.0424452056327
 20
2018.420025438198
 10
805.1196736150275
 20
2018.440880161751
 10
805.1976742164418
 20
2018.458629891079
 10
805.2763222255522
 20
2018.473246230398
 10
805.355491822322
 20
2018.484705796687
 10
805.4350563522843
 20
2018.492990257081
 10
805.5148885291647
 20
2018.498086358214
 10
805.5948606385095
 20
2018.499985947408
 10
805.6023579815684
 20
2018.499999999995
1001
REVIT
1002
{
1070
     3
1000
790271
1002
}
  0
LINE
  5
E1
330
8A
100
AcDbEntity
  8
P-PIPE
370
    18
100
AcDbLine
 10
818.4835558280514
 20
2018.499999999995
 30
0.0
 11
805.6023579815684
 21
2018.499999999995
 31
0.0
1001
REVIT
1002
{
1070
     3
1000
790271
1002
}
  0
LWPOLYLINE
  5
E2
330
8A
100
AcDbEntity
  8
P-PIPE
370
    18
100
AcDbPolyline
 90
       28
 70
   128
 43
0.0
 10
818.4835558280514
 20
2018.499999999995
 10
818.5635344964246
 20
2018.501599786674
 10
818.6433852159899
 20
2018.50639658739
 10
818.7229802426292
 20
2018.514382728288
 10
818.8021922412799
 20
2018.525545433245
 10
818.8808944896415
 20
2018.539866844313
 10
818.9589610809058
 20
2018.557324050292
 10
819.0362671251795
 20
2018.577889123374
 10
819.1126889492837
 20
2018.601529163831
 10
819.1881042946015
 20
2018.62820635264
 10
819.2623925126685
 20
2018.65787801199
 10
819.3354347581834
 20
2018.690496673556
 10
819.4071141791344
 20
2018.726010154438
 10
819.4773161037389
 20
2018.76436164064
 10
819.5459282238932
 20
2018.805489777969
 10
819.6128407748416
 20
2018.849328770176
 10
819.6779467107763
 20
2018.895808484227
 10
819.7411418760884
 20
2018.944854562494
 10
819.8023251719943
 20
2018.996388541714
 10
819.8613987182724
 20
2019.050327978514
 10
819.9182680098504
 20
2019.106586581301
 10
819.9728420679932
 20
2019.165074348313
 10
820.0250335858493
 20
2019.225697711599
 10
820.0747590681242
 20
2019.288359686709
 10
820.1219389646535
 20
2019.352960027851
 10
820.1664977976671
 20
2019.419395388259
 10
820.208364282538
 20
2019.487559485531
 10
820.2156066356204
 20
2019.499999999996
1001
REVIT
1002
{
1070
     3
1000
790271
1002
}
  0
LINE
  5
E3
330
8A
100
AcDbEntity
  8
P-PIPE
370
    18
100
AcDbLine
 10
821.3703071739995
 20
2021.499999999996
 30
0.0
 11
820.2156066356204
 21
2019.499999999996
 31
0.0
1001
REVIT
1002
{
1070
     3
1000
790271
1002
}
  0
LWPOLYLINE
  5
E4
330
8A
100
AcDbEntity
  8
P-PIPE
370
    18
100
AcDbPolyline
 90
       28
 70
   128
 43
0.0
 10
821.3703071739995
 20
2021.499999999996
 10
821.4116819640899
 20
2021.568463665229
 10
821.4557614751502
 20
2021.635218016524
 10
821.5024751893652
 20
2021.70015626116
 10
821.5517483747579
 20
2021.763174511798
 10
821.6035022047421
 20
2021.82417195268
 10
821.6576538842307
 20
2021.883051000912
 10
821.7141167820878
 20
2021.939717462578
 10
821.7728005697219
 20
2021.994080683428
 10
821.833611365591
 20
2022.046053693903
 10
821.8964518853942
 20
2022.095553348277
 10
821.9612215977049
 20
2022.142500457658
 10
822.0278168848006
 20
2022.18681991669
 10
822.0961312084277
 20
2022.228440823691
 10
822.1660552802415
 20
2022.267296594087
 10
822.2374772366437
 20
2022.303325066937
 10
822.3102828177397
 20
2022.336468604368
 10
822.3843555501307
 20
2022.366674183792
 10
822.4595769332465
 20
2022.393893482723
 10
822.5358266289202
 20
2022.418082956092
 10
822.6129826539045
 20
2022.4392039059
 10
822.6909215750186
 20
2022.457222543133
 10
822.7695187066149
 20
2022.472110041816
 10
822.8486483100491
 20
2022.483842585126
 10
822.9281837948359
 20
2022.492401403498
 10
823.0079979211659
 20
2022.497772804646
 10
823.0879630034639
 20
2022.499948195477
 10
823.1023579815683
 20
2022.499999999996
1001
REVIT
1002
{
1070
     3
1000
790271
1002
}
  0
LWPOLYLINE
  5
E5
330
8A
100
AcDbEntity
  8
P-PIPE
370
    18
100
AcDbPolyline
 90
       10
 70
   128
 43
0.0
 10
823.1023579815683
 20
1977.499999999995
 10
823.0223793131951
 20
1977.501599786674
 10
822.9425285936301
 20
1977.50639658739
 10
822.8629335669905
 20
1977.514382728288
 10
822.7837215683399
 20
1977.525545433244
 10
822.7050193199783
 20
1977.539866844313
 10
822.6269527287142
 20
1977.557324050292
 10
822.5496466844401
 20
1977.577889123374
 10
822.4732248603363
 20
1977.601529163831
 10
822.4476574431891
 20
1977.610193871038
1001
REVIT
1002
{
1070
     3
1000
790271
1002
}
  0
LINE
  5
E6
330
8A
100
AcDbEntity
  8
P-PIPE
370
    18
100
AcDbLine
 10
823.1023579815683
 20
1977.499999999995
 30
0.0
 11
823.947657443189
 21
1977.499999999995
 31
0.0
1001
REVIT
1002
{
1070
     3
1000
790271
1002
}
  0
LINE
  5
E7
330
8A
100
AcDbEntity
  8
P-PIPE
370
    18
100
AcDbLine
 10
823.947657443189
 20
2022.499999999996
 30
0.0
 11
823.1023579815683
 21
2022.499999999996
 31
0.0
1001
REVIT
1002
{
1070
     3
1000
790271
1002
}
  0
LINE
  5
E8
330
8A
100
AcDbEntity
  8
P-PIPE
370
    18
100
AcDbLine
 10
796.4476574431892
 20
1983.749999999995
 30
0.0
 11
796.4476574431893
 21
1965.499999999996
 31
0.0
1001
REVIT
1002
{
1070
     3
1000
790271
1002
}
  0
LINE
  5
E9
330
8A
100
AcDbEntity
  8
P-PIPE
370
    18
100
AcDbLine
 10
822.4476574431891
 20
1965.499999999996
 30
0.0
 11
822.4476574431891
 21
1977.610193871038
 31
0.0
1001
REVIT
1002
{
1070
     3
1000
790271
1002
}
  0
LINE
  5
EA
330
8A
100
AcDbEntity
  8
P-PIPE
370
    18
100
AcDbLine
 10
821.9476574431892
 20
1964.999999999995
 30
0.0
 11
822.4476574431891
 21
1965.499999999996
 31
0.0
1001
REVIT
1002
{
1070
     3
1000
790271
1002
}
  0
LINE
  5
EB
330
8A
100
AcDbEntity
  8
P-PIPE
370
    18
100
AcDbLine
 10
796.4476574431893
 20
1965.499999999996
 30
0.0
 11
796.9476574431892
 21
1964.999999999995
 31
0.0
1001
REVIT
1002
{
1070
     3
1000
790271
1002
}
  0
LWPOLYLINE
  5
EC
330
8A
100
AcDbEntity
  8
P-PIPE
370
    18
100
AcDbPolyline
 90
       80
 70
   128
 43
0.0
 10
771.447657443189
 20
2018.064101615134
 10
771.447657443189
 20
2018.049652260577
 10
771.447657443189
 20
2018.006327312789
 10
771.447657443189
 20
2017.934196082446
 10
771.447657443189
 20
2017.83337396413
 10
771.447657443189
 20
2017.70402225172
 10
771.447657443189
 20
2017.546347880365
 10
771.447657443189
 20
2017.360603095422
 10
771.447657443189
 20
2017.147085048925
 10
771.447657443189
 20
2016.906135324199
 10
771.447657443189
 20
2016.638139389404
 10
771.447657443189
 20
2016.343525980866
 10
771.447657443189
 20
2016.022766417192
 10
771.447657443189
 20
2015.676373845258
 10
771.447657443189
 20
2015.304902419287
 10
771.447657443189
 20
2014.908946414317
 10
771.447657443189
 20
2014.489139275489
 10
771.447657443189
 20
2014.046152604672
 10
771.447657443189
 20
2013.580695086039
 10
771.447657443189
 20
2013.093511352331
 10
771.447657443189
 20
2012.585380793591
 10
771.447657443189
 20
2012.05711631032
 10
771.447657443189
 20
2011.509563013
 10
771.447657443189
 20
2010.943596870102
 10
771.447657443189
 20
2010.360123306721
 10
771.447657443189
 20
2009.760075756091
 10
771.447657443189
 20
2009.14441416629
 10
771.447657443189
 20
2008.514123464527
 10
771.447657443189
 20
2007.87021198147
 10
771.447657443189
 20
2007.213709838132
 10
771.447657443189
 20
2006.545667297896
 10
771.447657443189
 20
2005.867153086317
 10
771.447657443189
 20
2005.179252681393
 10
771.447657443189
 20
2004.483066577027
 10
771.447657443189
 20
2003.779708522474
 10
771.447657443189
 20
2003.07030374058
 10
771.447657443189
 20
2002.355987127665
 10
771.447657443189
 20
2001.637901437929
 10
771.447657443189
 20
2000.917195455292
 10
771.447657443189
 20
2000.195022155585
 10
771.447657443189
 20
1999.472536862031
 10
771.447657443189
 20
1998.75089539698
 10
771.447657443189
 20
1998.031252232831
 10
771.447657443189
 20
1997.314758645132
 10
771.447657443189
 20
1996.60256087078
 10
771.447657443189
 20
1995.895798274288
 10
771.447657443189
 20
1995.195601525039
 10
771.447657443189
 20
1994.503090788467
 10
771.447657443189
 20
1993.819373934021
 10
771.447657443189
 20
1993.145544762819
 10
771.447657443189
 20
1992.48268125779
 10
771.447657443189
 20
1991.831843859139
 10
771.447657443189
 20
1991.194073767867
 10
771.447657443189
 20
1990.570391280068
 10
771.447657443189
 20
1989.961794154679
 10
771.447657443189
 20
1989.369256017273
 10
771.447657443189
 20
1988.793724802468
 10
771.447657443189
 20
1988.236121237434
 10
771.447657443189
 20
1987.697337368927
 10
771.447657443189
 20
1987.178235136202
 10
771.447657443189
 20
1986.679644992095
 10
771.447657443189
 20
1986.202364574476
 10
771.447657443189
 20
1985.747157430199
 10
771.447657443189
 20
1985.31475179359
 10
771.447657443189
 20
1984.905839421425
 10
771.447657443189
 20
1984.52107448627
 10
771.447657443189
 20
1984.161072529943
 10
771.447657443189
 20
1983.826409478776
 10
771.447657443189
 20
1983.517620722261
 10
771.447657443189
 20
1983.235200256538
 10
771.447657443189
 20
1982.979599894104
 10
771.447657443189
 20
1982.751228541015
 10
771.447657443189
 20
1982.550451542717
 10
771.447657443189
 20
1982.37759009958
 10
771.447657443189
 20
1982.232920753038
 10
771.447657443189
 20
1982.116674943181
 10
771.447657443189
 20
1982.02903863851
 10
771.447657443189
 20
1981.970152038417
 10
771.447657443189
 20
1981.940109348899
 10
771.447657443189
 20
1981.935898384858
1001
REVIT
1002
{
1070
     3
1000
790271
1002
}
  0
LWPOLYLINE
  5
ED
330
8A
100
AcDbEntity
  8
P-PIPE
370
    18
100
AcDbPolyline
 90
       15
 70
   128
 43
0.0
 10
771.447657443189
 20
2018.064101615134
 10
771.4492572298673
 20
2018.144080283507
 10
771.4540540305839
 20
2018.223931003072
 10
771.4620401714815
 20
2018.303526029711
 10
771.4732028764379
 20
2018.382738028362
 10
771.4875242875066
 20
2018.461440276724
 10
771.5049814934851
 20
2018.539506867988
 10
771.5255465665676
 20
2018.616812912262
 10
771.5491866070244
 20
2018.693234736366
 10
771.5758637958332
 20
2018.768650081684
 10
771.6055354551834
 20
2018.842938299751
 10
771.6381541167492
 20
2018.915980545266
 10
771.6736675976305
 20
2018.987659966217
 10
771.7120190838337
 20
2019.057861890821
 10
771.7156066356202
 20
2019.064101615134
1001
REVIT
1002
{
1070
     3
1000
790271
1002
}
  0
LWPOLYLINE
  5
EE
330
8A
100
AcDbEntity
  8
P-PIPE
370
    18
100
AcDbPolyline
 90
       15
 70
   128
 43
0.0
 10
771.7156066356202
 20
1980.935898384858
 10
771.6770027573374
 20
1981.005961836769
 10
771.6412315488325
 20
1981.077512988781
 10
771.6083502364081
 20
1981.150437374315
 10
771.57841142315
 20
1981.224618329909
 10
771.5514630047729
 20
1981.299937181859
 10
771.5275480929971
 20
1981.37627343607
 10
771.5067049465804
 20
1981.453504970819
 10
771.4889669101104
 20
1981.531508232125
 10
771.4743623606615
 20
1981.61015843141
 10
771.4629146623975
 20
1981.689329745133
 10
771.4546421291937
 20
1981.768895516081
 10
771.4495579953383
 20
1981.848728455994
 10
771.447670394361
 20
1981.928700849197
 10
771.447657443189
 20
1981.935898384858
1001
REVIT
1002
{
1070
     3
1000
790271
1002
}
  0
LWPOLYLINE
  5
EF
330
8A
100
AcDbEntity
  8
P-PIPE
370
    18
100
AcDbPolyline
 90
        4
 70
   128
 43
0.0
 10
771.447657443189
 20
1981.935898384858
 10
771.447657443189
 20
1981.950347739415
 10
771.447657443189
 20
1981.993672687202
 10
771.447657443189
 20
1982.022356435372
1001
REVIT
1002
{
1070
     3
1000
790271
1002
}
  0
LWPOLYLINE
  5
F0
330
8A
100
AcDbEntity
  8
P-PIPE
370
    18
100
AcDbPolyline
 90
        4
 70
   128
 43
0.0
 10
771.447657443189
 20
2017.970961361482
 10
771.447657443189
 20
2018.029847961575
 10
771.447657443189
 20
2018.059890651092
 10
771.447657443189
 20
2018.064101615134
1001
REVIT
1002
{
1070
     3
1000
790271
1002
}
  0
LINE
  5
F1
330
8A
100
AcDbEntity
  8
P-PIPE
370
    18
100
AcDbLine
 10
771.7156066356202
 20
1980.935898384858
 30
0.0
 11
774.2189387352993
 21
1976.599999999996
 31
0.0
1001
REVIT
1002
{
1070
     3
1000
790271
1002
}
  0
LINE
  5
F2
330
8A
100
AcDbEntity
  8
P-PIPE
370
    18
100
AcDbLine
 10
774.2189387352993
 20
2023.399999999996
 30
0.0
 11
771.7156066356202
 21
2019.064101615134
 31
0.0
1001
REVIT
1002
{
1070
     3
1000
790271
1002
}
  0
LWPOLYLINE
  5
F3
330
8A
100
AcDbEntity
  8
P-PIPE
370
    18
100
AcDbPolyline
 90
       28
 70
   128
 43
0.0
 10
774.2189387352993
 20
2023.399999999996
 10
774.2396261303446
 20
2023.434231832613
 10
774.2616658858747
 20
2023.46760900826
 10
774.2850227429823
 20
2023.500078130578
 10
774.3096593356783
 20
2023.531587255897
 10
774.3355362506707
 20
2023.562085976338
 10
774.3626120904149
 20
2023.591525500454
 10
774.3908435393436
 20
2023.619858731287
 10
774.4201854331604
 20
2023.647040341712
 10
774.450590831095
 20
2023.67302684695
 10
774.4820110909967
 20
2023.697776674136
 10
774.5143959471521
 20
2023.721250228827
 10
774.5476935906997
 20
2023.743409958343
 10
774.5818507525135
 20
2023.764220411843
 10
774.6168127884203
 20
2023.783648297042
 10
774.6525237666214
 20
2023.801662533466
 10
774.6889265571694
 20
2023.818234302182
 10
774.7259629233649
 20
2023.833337091894
 10
774.7635736149228
 20
2023.846946741359
 10
774.8016984627597
 20
2023.859041478044
 10
774.8402764752518
 20
2023.869601952948
 10
774.8792459358088
 20
2023.878611271564
 10
774.9185445016069
 20
2023.886055020906
 10
774.9581093033241
 20
2023.891921292561
 10
774.9978770457174
 20
2023.896200701747
 10
775.0377841088825
 20
2023.898886402321
 10
775.0777666500316
 20
2023.899974097736
 10
775.0849641390836
 20
2023.899999999996
1001
REVIT
1002
{
1070
     3
1000
790271
1002
}
  0
LWPOLYLINE
  5
F4
330
8A
100
AcDbEntity
  8
P-PIPE
370
    18
100
AcDbPolyline
 90
       28
 70
   128
 43
0.0
 10
775.0849641390836
 20
1976.099999999996
 10
775.0449748048971
 20
1976.100799893335
 10
775.0050494451145
 20
1976.103198293693
 10
774.9652519317947
 20
1976.107191364142
 10
774.9256459324694
 20
1976.11277271662
 10
774.8862948082887
 20
1976.119933422155
 10
774.8472615126567
 20
1976.128662025143
 10
774.8086084905196
 20
1976.138944561685
 10
774.7703975784676
 20
1976.150764581913
 10
774.7326899058086
 20
1976.164103176318
 10
774.6955457967751
 20
1976.178939005993
 10
774.6590246740177
 20
1976.195248336775
 10
774.6231849635424
 20
1976.213005077216
 10
774.58808400124
 20
1976.232180820318
 10
774.5537779411628
 20
1976.252744888982
 10
774.5203216656887
 20
1976.274664385086
 10
774.4877686977213
 20
1976.297904242111
 10
774.4561711150653
 20
1976.322427281244
 10
774.4255794671122
 20
1976.348194270855
 10
774.3960426939731
 20
1976.375163989255
 10
774.3676080481842
 20
1976.403293290648
 10
774.3403210191128
 20
1976.432537174154
 10
774.3142252601848
 20
1976.462848855797
 10
774.2893625190474
 20
1976.494179843352
 10
774.2657725707828
 20
1976.526480013923
 10
774.243493154276
 20
1976.559697694128
 10
774.2225599118405
 20
1976.593779742763
 10
774.2189387352993
 20
1976.599999999996
1001
REVIT
1002
{
1070
     3
1000
790271
1002
}
  0
LINE
  5
F5
330
8A
100
AcDbEntity
  8
P-PIPE
370
    18
100
AcDbLine
 10
785.9176792298366
 20
2023.899999999996
 30
0.0
 11
775.0849641390836
 21
2023.899999999996
 31
0.0
1001
REVIT
1002
{
1070
     3
1000
790271
1002
}
  0
LINE
  5
F6
330
8A
100
AcDbEntity
  8
P-PIPE
370
    18
100
AcDbLine
 10
775.0849641390836
 20
1976.099999999996
 30
0.0
 11
785.9176792298366
 21
1976.099999999996
 31
0.0
1001
REVIT
1002
{
1070
     3
1000
790271
1002
}
  0
LINE
  5
F7
330
8A
100
AcDbEntity
  8
P-PIPE
370
    18
100
AcDbLine
 10
785.9176792298366
 20
1976.099999999996
 30
0.0
 11
785.9487702094631
 21
1976.153851156366
 31
0.0
1001
REVIT
1002
{
1070
     3
1000
790271
1002
}
  0
LINE
  5
F8
330
8A
100
AcDbEntity
  8
P-PIPE
370
    18
100
AcDbLine
 10
785.9530468288048
 20
1976.16125847835
 30
0.0
 11
787.447657443189
 21
1978.749999999996
 31
0.0
1001
REVIT
1002
{
1070
     3
1000
790271
1002
}
  0
LINE
  5
F9
330
8A
100
AcDbEntity
  8
P-PIPE
370
    18
100
AcDbLine
 10
787.447657443189
 20
2021.249999999996
 30
0.0
 11
785.9530468288048
 21
2023.838741521641
 31
0.0
1001
REVIT
1002
{
1070
     3
1000
790271
1002
}
  0
LINE
  5
FA
330
8A
100
AcDbEntity
  8
P-PIPE
370
    18
100
AcDbLine
 10
785.9487702094631
 20
2023.846148843626
 30
0.0
 11
785.9176792298366
 21
2023.899999999996
 31
0.0
1001
REVIT
1002
{
1070
     3
1000
790271
1002
}
  0
LINE
  5
FB
330
8A
100
AcDbEntity
  8
P-PIPE
370
    18
100
AcDbLine
 10
843.885157443189
 20
2019.749999999996
 30
0.0
 11
842.4476574431892
 21
2019.749999999996
 31
0.0
1001
REVIT
1002
{
1070
     3
1000
790271
1002
}
  0
LINE
  5
FC
330
8A
100
AcDbEntity
  8
P-PIPE
370
    18
100
AcDbLine
 10
842.4476574431892
 20
1980.249999999995
 30
0.0
 11
843.8851574431891
 21
1980.249999999995
 31
0.0
1001
REVIT
1002
{
1070
     3
1000
790271
1002
}
  0
LINE
  5
FD
330
8A
100
AcDbEntity
  8
P-PIPE
370
    18
100
AcDbLine
 10
842.4476574431892
 20
2019.749999999996
 30
0.0
 11
841.2674214910294
 21
2019.749999999996
 31
0.0
1001
REVIT
1002
{
1070
     3
1000
790271
1002
}
  0
LINE
  5
FE
330
8A
100
AcDbEntity
  8
P-PIPE
370
    18
100
AcDbLine
 10
841.2674214910294
 20
1980.249999999995
 30
0.0
 11
842.4476574431892
 21
1980.249999999995
 31
0.0
1001
REVIT
1002
{
1070
     3
1000
790271
1002
}
  0
LWPOLYLINE
  5
FF
330
8A
100
AcDbEntity
  8
P-PIPE
370
    18
100
AcDbPolyline
 90
       28
 70
   128
 43
0.0
 10
841.2674214910296
 20
1980.249999999995
 10
841.1874428226562
 20
1980.248400213318
 10
841.1075921030912
 20
1980.243603412601
 10
841.0279970764516
 20
1980.235617271703
 10
840.9487850778011
 20
1980.224454566747
 10
840.8700828294396
 20
1980.210133155678
 10
840.7920162381753
 20
1980.1926759497
 10
840.7147101939013
 20
1980.172110876617
 10
840.6382883697974
 20
1980.14847083616
 10
840.5628730244794
 20
1980.121793647352
 10
840.4885848064123
 20
1980.092121988002
 10
840.4155425608976
 20
1980.059503326435
 10
840.3438631399467
 20
1980.023989845554
 10
840.2736612153422
 20
1979.985638359351
 10
840.2050490951879
 20
1979.944510222023
 10
840.1381365442395
 20
1979.900671229815
 10
840.0730306083048
 20
1979.854191515764
 10
840.0098354429927
 20
1979.805145437498
 10
839.9486521470866
 20
1979.753611458277
 10
839.8895786008084
 20
1979.699672021477
 10
839.8327093092305
 20
1979.64341341869
 10
839.7781352510879
 20
1979.584925651678
 10
839.7259437332317
 20
1979.524302288393
 10
839.6762182509569
 20
1979.461640313282
 10
839.6290383544275
 20
1979.39703997214
 10
839.5844795214138
 20
1979.330604611732
 10
839.5426130365429
 20
1979.262440514461
 10
839.5353706834606
 20
1979.249999999996
1001
REVIT
1002
{
1070
     3
1000
790271
1002
}
  0
LWPOLYLINE
  5
100
330
8A
100
AcDbEntity
  8
P-PIPE
370
    18
100
AcDbPolyline
 90
       28
 70
   128
 43
0.0
 10
839.5353706834605
 20
2020.749999999996
 10
839.576745473551
 20
2020.681536334762
 10
839.6208249846111
 20
2020.614781983467
 10
839.6675386988263
 20
2020.549843738831
 10
839.716811884219
 20
2020.486825488194
 10
839.7685657142032
 20
2020.425828047311
 10
839.822717393692
 20
2020.366948999079
 10
839.8791802915489
 20
2020.310282537414
 10
839.9378640791828
 20
2020.255919316564
 10
839.9986748750521
 20
2020.203946306088
 10
840.0615153948553
 20
2020.154446651715
 10
840.1262851071662
 20
2020.107499542333
 10
840.1928803942615
 20
2020.063180083301
 10
840.2611947178886
 20
2020.021559176301
 10
840.3311187897028
 20
2019.982703405904
 10
840.4025407461048
 20
2019.946674933055
 10
840.4753463272008
 20
2019.913531395623
 10
840.549419059592
 20
2019.8833258162
 10
840.6246404427076
 20
2019.856106517268
 10
840.7008901383813
 20
2019.8319170439
 10
840.7780461633656
 20
2019.810796094092
 10
840.8559850844797
 20
2019.792777456858
 10
840.9345822160759
 20
2019.777889958175
 10
841.01371181951
 20
2019.766157414865
 10
841.0932473042969
 20
2019.757598596494
 10
841.1730614306272
 20
2019.752227195345
 10
841.253026512925
 20
2019.750051804515
 10
841.2674214910294
 20
2019.749999999996
1001
REVIT
1002
{
1070
     3
1000
790271
1002
}
  0
LINE
  5
101
330
8A
100
AcDbEntity
  8
P-PIPE
370
    18
100
AcDbLine
 10
839.5353706834605
 20
2020.749999999996
 30
0.0
 11
838.5250077123787
 21
2022.499999999995
 31
0.0
1001
REVIT
1002
{
1070
     3
1000
790271
1002
}
  0
LINE
  5
102
330
8A
100
AcDbEntity
  8
P-PIPE
370
    18
100
AcDbLine
 10
838.5250077123787
 20
1977.499999999995
 30
0.0
 11
839.5353706834606
 21
1979.249999999996
 31
0.0
1001
REVIT
1002
{
1070
     3
1000
790271
1002
}
  0
LWPOLYLINE
  5
103
330
8A
100
AcDbEntity
  8
P-PIPE
370
    18
100
AcDbPolyline
 90
       28
 70
   128
 43
0.0
 10
838.5250077123787
 20
1977.499999999995
 10
838.4836329222883
 20
1977.431536334762
 10
838.4395534112282
 20
1977.364781983467
 10
838.3928396970132
 20
1977.299843738831
 10
838.3435665116204
 20
1977.236825488193
 10
838.291812681636
 20
1977.175828047312
 10
838.2376610021477
 20
1977.116948999079
 10
838.1811981042904
 20
1977.060282537413
 10
838.1225143166563
 20
1977.005919316564
 10
838.0617035207873
 20
1976.953946306087
 10
837.9988630009844
 20
1976.904446651715
 10
837.9340932886734
 20
1976.857499542332
 10
837.8674980015778
 20
1976.813180083301
 10
837.7991836779507
 20
1976.771559176301
 10
837.7292596061366
 20
1976.732703405904
 10
837.6578376497345
 20
1976.696674933054
 10
837.5850320686385
 20
1976.663531395623
 10
837.5109593362475
 20
1976.6333258162
 10
837.4357379531319
 20
1976.606106517268
 10
837.3594882574582
 20
1976.5819170439
 10
837.2823322324739
 20
1976.560796094091
 10
837.2043933113596
 20
1976.542777456858
 10
837.1257961797637
 20
1976.527889958175
 10
837.0466665763295
 20
1976.516157414865
 10
836.9671310915427
 20
1976.507598596494
 10
836.8873169652124
 20
1976.502227195345
 10
836.8073518829143
 20
1976.500051804515
 10
836.7929569048099
 20
1976.499999999996
1001
REVIT
1002
{
1070
     3
1000
790271
1002
}
  0
LWPOLYLINE
  5
104
330
8A
100
AcDbEntity
  8
P-PIPE
370
    18
100
AcDbPolyline
 90
       28
 70
   128
 43
0.0
 10
836.7929569048097
 20
2023.499999999996
 10
836.8729355731829
 20
2023.498400213318
 10
836.9527862927482
 20
2023.493603412601
 10
837.0323813193875
 20
2023.485617271703
 10
837.1115933180384
 20
2023.474454566747
 10
837.1902955663999
 20
2023.460133155678
 10
837.2683621576639
 20
2023.4426759497
 10
837.345668201938
 20
2023.422110876617
 10
837.4220900260421
 20
2023.39847083616
 10
837.4975053713599
 20
2023.371793647351
 10
837.571793589427
 20
2023.342121988001
 10
837.6448358349419
 20
2023.309503326435
 10
837.7165152558928
 20
2023.273989845554
 10
837.7867171804973
 20
2023.235638359351
 10
837.8553293006516
 20
2023.194510222023
 10
837.9222418515999
 20
2023.150671229815
 10
837.9873477875346
 20
2023.104191515765
 10
838.0505429528467
 20
2023.055145437498
 10
838.1117262487528
 20
2023.003611458277
 10
838.1707997950309
 20
2022.949672021478
 10
838.2276690866088
 20
2022.89341341869
 10
838.2822431447515
 20
2022.834925651678
 10
838.3344346626078
 20
2022.774302288393
 10
838.3841601448825
 20
2022.711640313283
 10
838.431340041412
 20
2022.64703997214
 10
838.4758988744255
 20
2022.580604611732
 10
838.5177653592965
 20
2022.512440514461
 10
838.5250077123787
 20
2022.499999999995
1001
REVIT
1002
{
1070
     3
1000
790271
1002
}
  0
LINE
  5
105
330
8A
100
AcDbEntity
  8
P-PIPE
370
    18
100
AcDbLine
 10
836.7929569048097
 20
2023.499999999996
 30
0.0
 11
824.4476574431892
 21
2023.499999999996
 31
0.0
1001
REVIT
1002
{
1070
     3
1000
790271
1002
}
  0
LINE
  5
106
330
8A
100
AcDbEntity
  8
P-PIPE
370
    18
100
AcDbLine
 10
824.4476574431892
 20
1976.499999999996
 30
0.0
 11
836.7929569048099
 21
1976.499999999996
 31
0.0
1001
REVIT
1002
{
1070
     3
1000
790271
1002
}
  0
LINE
  5
107
330
8A
100
AcDbEntity
  8
P-PIPE
370
    18
100
AcDbLine
 10
823.947657443189
 20
1976.999999999996
 30
0.0
 11
824.4476574431892
 21
1976.499999999996
 31
0.0
1001
REVIT
1002
{
1070
     3
1000
790271
1002
}
  0
LINE
  5
108
330
8A
100
AcDbEntity
  8
P-PIPE
370
    18
100
AcDbLine
 10
824.4476574431892
 20
2023.499999999996
 30
0.0
 11
823.947657443189
 21
2022.999999999996
 31
0.0
1001
REVIT
1002
{
1070
     3
1000
790271
1002
}
  0
LWPOLYLINE
  5
109
330
8A
100
AcDbEntity
  8
P-PIPE
370
    18
100
AcDbPolyline
 90
       80
 70
   128
 43
0.0
 10
859.8851574431893
 20
1981.935898384858
 10
859.8851574431893
 20
1981.950347739415
 10
859.8851574431893
 20
1981.993672687202
 10
859.8851574431893
 20
1982.065803917545
 10
859.8851574431893
 20
1982.166626035862
 10
859.8851574431893
 20
1982.295977748271
 10
859.8851574431893
 20
1982.453652119626
 10
859.8851574431893
 20
1982.639396904569
 10
859.8851574431893
 20
1982.852914951067
 10
859.8851574431893
 20
1983.093864675793
 10
859.8851574431893
 20
1983.361860610588
 10
859.8851574431893
 20
1983.656474019126
 10
859.8851574431893
 20
1983.977233582799
 10
859.8851574431893
 20
1984.323626154733
 10
859.8851574431893
 20
1984.695097580704
 10
859.8851574431893
 20
1985.091053585675
 10
859.8851574431893
 20
1985.510860724503
 10
859.8851574431893
 20
1985.95384739532
 10
859.8851574431893
 20
1986.419304913952
 10
859.8851574431893
 20
1986.906488647661
 10
859.8851574431893
 20
1987.4146192064
 10
859.8851574431893
 20
1987.942883689671
 10
859.8851574431893
 20
1988.490436986991
 10
859.8851574431893
 20
1989.05640312989
 10
859.8851574431893
 20
1989.63987669327
 10
859.8851574431893
 20
1990.239924243901
 10
859.8851574431893
 20
1990.855585833702
 10
859.8851574431893
 20
1991.485876535464
 10
859.8851574431893
 20
1992.129788018521
 10
859.8851574431893
 20
1992.786290161859
 10
859.8851574431893
 20
1993.454332702096
 10
859.8851574431893
 20
1994.132846913674
 10
859.8851574431893
 20
1994.820747318598
 10
859.8851574431893
 20
1995.516933422964
 10
859.8851574431893
 20
1996.220291477517
 10
859.8851574431893
 20
1996.929696259411
 10
859.8851574431893
 20
1997.644012872327
 10
859.8851574431893
 20
1998.362098562063
 10
859.8851574431893
 20
1999.082804544699
 10
859.8851574431893
 20
1999.804977844407
 10
859.8851574431893
 20
2000.52746313796
 10
859.8851574431893
 20
2001.249104603012
 10
859.8851574431893
 20
2001.968747767161
 10
859.8851574431893
 20
2002.685241354859
 10
859.8851574431893
 20
2003.397439129211
 10
859.8851574431893
 20
2004.104201725704
 10
859.8851574431893
 20
2004.804398474952
 10
859.8851574431893
 20
2005.496909211525
 10
859.8851574431893
 20
2006.18062606597
 10
859.8851574431893
 20
2006.854455237172
 10
859.8851574431893
 20
2007.517318742202
 10
859.8851574431893
 20
2008.168156140852
 10
859.8851574431893
 20
2008.805926232125
 10
859.8851574431893
 20
2009.429608719923
 10
859.8851574431893
 20
2010.038205845313
 10
859.8851574431893
 20
2010.630743982719
 10
859.8851574431893
 20
2011.206275197524
 10
859.8851574431893
 20
2011.763878762558
 10
859.8851574431893
 20
2012.302662631064
 10
859.8851574431893
 20
2012.82176486379
 10
859.8851574431893
 20
2013.320355007897
 10
859.8851574431893
 20
2013.797635425516
 10
859.8851574431893
 20
2014.252842569792
 10
859.8851574431893
 20
2014.685248206402
 10
859.8851574431893
 20
2015.094160578566
 10
859.8851574431893
 20
2015.478925513721
 10
859.8851574431893
 20
2015.838927470049
 10
859.8851574431893
 20
2016.173590521216
 10
859.8851574431893
 20
2016.48237927773
 10
859.8851574431893
 20
2016.764799743453
 10
859.8851574431893
 20
2017.020400105888
 10
859.8851574431893
 20
2017.248771458977
 10
859.8851574431893
 20
2017.449548457274
 10
859.8851574431893
 20
2017.622409900411
 10
859.8851574431893
 20
2017.767079246954
 10
859.8851574431893
 20
2017.883325056811
 10
859.8851574431893
 20
2017.970961361482
 10
859.8851574431893
 20
2018.029847961575
 10
859.8851574431893
 20
2018.059890651092
 10
859.8851574431893
 20
2018.064101615134
1001
REVIT
1002
{
1070
     3
1000
790271
1002
}
  0
LINE
  5
10A
330
8A
100
AcDbEntity
  8
P-PIPE
370
    18
100
AcDbLine
 10
857.1138761510791
 20
1976.599999999996
 30
0.0
 11
859.6172082507582
 21
1980.935898384858
 31
0.0
1001
REVIT
1002
{
1070
     3
1000
790271
1002
}
  0
LINE
  5
10B
330
8A
100
AcDbEntity
  8
P-PIPE
370
    18
100
AcDbLine
 10
859.6172082507582
 20
2019.064101615134
 30
0.0
 11
857.1138761510791
 21
2023.399999999996
 31
0.0
1001
REVIT
1002
{
1070
     3
1000
790271
1002
}
  0
LINE
  5
10C
330
8A
100
AcDbEntity
  8
P-PIPE
370
    18
100
AcDbLine
 10
856.2478507472945
 20
2023.899999999996
 30
0.0
 11
845.4151356565418
 21
2023.899999999996
 31
0.0
1001
REVIT
1002
{
1070
     3
1000
790271
1002
}
  0
LINE
  5
10D
330
8A
100
AcDbEntity
  8
P-PIPE
370
    18
100
AcDbLine
 10
845.4151356565418
 20
1976.099999999996
 30
0.0
 11
856.2478507472945
 21
1976.099999999996
 31
0.0
1001
REVIT
1002
{
1070
     3
1000
790271
1002
}
  0
LINE
  5
10E
330
8A
100
AcDbEntity
  8
P-PIPE
370
    18
100
AcDbLine
 10
843.8851574431891
 20
1978.749999999996
 30
0.0
 11
845.3797680575735
 21
1976.16125847835
 31
0.0
1001
REVIT
1002
{
1070
     3
1000
790271
1002
}
  0
LINE
  5
10F
330
8A
100
AcDbEntity
  8
P-PIPE
370
    18
100
AcDbLine
 10
845.3840446769151
 20
1976.153851156366
 30
0.0
 11
845.4151356565418
 21
1976.099999999996
 31
0.0
1001
REVIT
1002
{
1070
     3
1000
790271
1002
}
  0
LINE
  5
110
330
8A
100
AcDbEntity
  8
P-PIPE
370
    18
100
AcDbLine
 10
845.4151356565418
 20
2023.899999999996
 30
0.0
 11
845.3840446769151
 21
2023.846148843626
 31
0.0
1001
REVIT
1002
{
1070
     3
1000
790271
1002
}
  0
LINE
  5
111
330
8A
100
AcDbEntity
  8
P-PIPE
370
    18
100
AcDbLine
 10
845.3797680575735
 20
2023.838741521641
 30
0.0
 11
843.8851574431891
 21
2021.249999999996
 31
0.0
1001
REVIT
1002
{
1070
     3
1000
790271
1002
}
  0
LINE
  5
112
330
8A
100
AcDbEntity
  8
P-PIPE
370
    18
100
AcDbLine
 10
787.4476574431878
 20
2021.249999999995
 30
0.0
 11
787.4476574431878
 21
1978.749999999995
 31
0.0
1001
REVIT
1002
{
1070
     3
1000
790271
1002
}
  0
LINE
  5
113
330
8A
100
AcDbEntity
  8
P-PIPE
370
    18
100
AcDbLine
 10
821.9476574431878
 20
1964.999999999995
 30
0.0
 11
796.9476574431878
 21
1964.999999999995
 31
0.0
1001
REVIT
1002
{
1070
     3
1000
790271
1002
}
  0
SPLINE
  5
114
330
8A
100
AcDbEntity
  8
P-PIPE
370
    18
100
AcDbSpline
210
0.0
220
0.0
230
1.0
 70
     8
 71
     3
 72
    13
 73
     9
 74
     0
 42
0.000000001
 43
0.0000000001
 40
0.0
 40
0.0
 40
0.0
 40
0.0
 40
0.25
 40
0.375
 40
0.4375
 40
0.5
 40
0.75
 40
1.0
 40
1.0
 40
1.0
 40
1.0
 10
796.4476574431878
 20
1983.749999999995
 30
0.0
 10
796.4609646842944
 20
1983.749999999995
 30
0.0
 10
796.6626819957176
 20
1983.925355194994
 30
0.0
 10
797.2524360430249
 20
1984.387311686297
 30
0.0
 10
797.6794220018927
 20
1984.715252921335
 30
0.0
 10
798.3811451088885
 20
1985.258716777044
 30
0.0
 10
799.7329503780246
 20
1986.259011387297
 30
0.0
 10
801.2118514891087
 20
1987.252891320224
 30
0.0
 10
802.032981299132
 20
1987.750921572569
 30
0.0
1001
REVIT
1002
{
1070
     3
1000
790271
1002
}
  0
SPLINE
  5
115
330
8A
100
AcDbEntity
  8
P-PIPE
370
    18
100
AcDbSpline
210
0.0
220
0.0
230
1.0
 70
     8
 71
     3
 72
    17
 73
    13
 74
     0
 42
0.000000001
 43
0.0000000001
 40
-1.0
 40
-1.0
 40
-1.0
 40
-1.0
 40
-0.85
 40
-0.75
 40
-0.65
 40
-0.575
 40
-0.5
 40
-0.4
 40
-0.3
 40
-0.2
 40
-0.1
 40
0.0
 40
0.0
 40
0.0
 40
0.0
 10
802.032981299132
 20
1987.750921572569
 30
0.0
 10
802.1337346912742
 20
1987.816959609013
 30
0.0
 10
802.3074308408819
 20
1987.903699086764
 30
0.0
 10
802.56443624076
 20
1987.971220992233
 30
0.0
 10
802.7821183207404
 20
1987.998202677653
 30
0.0
 10
802.9709217952181
 20
1987.976992938625
 30
0.0
 10
803.1653736351815
 20
1987.917567986827
 30
0.0
 10
803.3647952770522
 20
1987.814405256484
 30
0.0
 10
803.5492999226963
 20
1987.641909664827
 30
0.0
 10
803.7076410635641
 20
1987.430472419718
 30
0.0
 10
803.8301861024095
 20
1987.204537837729
 30
0.0
 10
803.8907179442809
 20
1987.033576392159
 30
0.0
 10
803.9153770050534
 20
1986.943900529951
 30
0.0
1001
REVIT
1002
{
1070
     3
1000
790271
1002
}
  0
LINE
  5
116
330
8A
100
AcDbEntity
  8
P-PIPE
370
    18
100
AcDbLine
 10
803.9153770050534
 20
1986.943900529951
 30
0.0
 11
803.9153770050534
 21
2017.574288222439
 31
0.0
1001
REVIT
1002
{
1070
     3
1000
790271
1002
}
  0
SPLINE
  5
117
330
8A
100
AcDbEntity
  8
P-PIPE
370
    18
100
AcDbSpline
210
0.0
220
0.0
230
1.0
 70
     8
 71
     3
 72
    12
 73
     8
 74
     0
 42
0.000000001
 43
0.0000000001
 40
-1.0
 40
-1.0
 40
-1.0
 40
-1.0
 40
-0.75
 40
-0.625
 40
-0.5
 40
-0.25
 40
0.0
 40
0.0
 40
0.0
 40
0.0
 10
803.9153770050534
 20
1986.943900529951
 30
0.0
 10
804.003533386078
 20
1986.794409596841
 30
0.0
 10
804.1577672521777
 20
1986.604728887531
 30
0.0
 10
804.4233715918382
 20
1986.413124161748
 30
0.0
 10
804.7135970042948
 20
1986.270069640471
 30
0.0
 10
805.1182361456433
 20
1986.198589357413
 30
0.0
 10
805.4389219447282
 20
1986.2404123055
 30
0.0
 10
805.602357981567
 20
1986.28736611917
 30
0.0
1001
REVIT
1002
{
1070
     3
1000
790271
1002
}
  0
SPLINE
  5
118
330
8A
100
AcDbEntity
  8
P-PIPE
370
    18
100
AcDbSpline
210
0.0
220
0.0
230
1.0
 70
     8
 71
     3
 72
    18
 73
    14
 74
     0
 42
0.000000001
 43
0.0000000001
 40
0.0
 40
0.0
 40
0.0
 40
0.0
 40
0.2
 40
0.3
 40
0.35
 40
0.4
 40
0.55
 40
0.5875
 40
0.625
 40
0.7
 40
0.775
 40
0.85
 40
1.0
 40
1.0
 40
1.0
 40
1.0
 10
805.602357981567
 20
1986.28736611917
 30
0.0
 10
806.5142878524198
 20
1986.548461048564
 30
0.0
 10
807.8941502038615
 20
1986.809136274833
 30
0.0
 10
809.5805689519286
 20
1986.846977448772
 30
0.0
 10
810.5486843938999
 20
1986.793808685916
 30
0.0
 10
811.7270528950527
 20
1986.672445251731
 30
0.0
 10
812.8227709123942
 20
1986.426668716245
 30
0.0
 10
813.8107189649186
 20
1986.134303931797
 30
0.0
 10
814.4502897404453
 20
1985.928157091079
 30
0.0
 10
815.2281892737722
 20
1985.633080988151
 30
0.0
 10
816.1170254144533
 20
1985.248698548154
 30
0.0
 10
817.2344983382343
 20
1984.724698640768
 30
0.0
 10
818.0027939348304
 20
1984.310136910024
 30
0.0
 10
818.48355582805
 20
1984.034491563946
 30
0.0
1001
REVIT
1002
{
1070
     3
1000
790271
1002
}
  0
SPLINE
  5
119
330
8A
100
AcDbEntity
  8
P-PIPE
370
    18
100
AcDbSpline
210
0.0
220
0.0
230
1.0
 70
     8
 71
     3
 72
    15
 73
    11
 74
     0
 42
0.000000001
 43
0.0000000001
 40
-1.0
 40
-1.0
 40
-1.0
 40
-1.0
 40
-0.85
 40
-0.775
 40
-0.7
 40
-0.625
 40
-0.55
 40
-0.4
 40
-0.2
 40
0.0
 40
0.0
 40
0.0
 40
0.0
 10
818.48355582805
 20
1984.034491563946
 30
0.0
 10
818.5990278626613
 20
1983.966591673065
 30
0.0
 10
818.7651075871075
 20
1983.854841720889
 30
0.0
 10
818.972957347761
 20
1983.686561880901
 30
0.0
 10
819.1221293847718
 20
1983.54899928505
 30
0.0
 10
819.2648676087125
 20
1983.402806365436
 30
0.0
 10
819.4472273647743
 20
1983.199758146317
 30
0.0
 10
819.6881749500084
 20
1982.889723316905
 30
0.0
 10
819.9677832100054
 20
1982.453020861632
 30
0.0
 10
820.137548347836
 20
1982.09774147112
 30
0.0
 10
820.2156066356188
 20
1981.911364622754
 30
0.0
1001
REVIT
1002
{
1070
     3
1000
790271
1002
}
  0
SPLINE
  5
11A
330
8A
100
AcDbEntity
  8
P-PIPE
370
    18
100
AcDbSpline
210
0.0
220
0.0
230
1.0
 70
     8
 71
     3
 72
     9
 73
     5
 74
     0
 42
0.000000001
 43
0.0000000001
 40
-1.0
 40
-1.0
 40
-1.0
 40
-1.0
 40
-0.5
 40
0.0
 40
0.0
 40
0.0
 40
0.0
 10
820.2156066356188
 20
1981.911364622754
 30
0.0
 10
820.4154982252621
 20
1981.410989793864
 30
0.0
 10
820.8154821161512
 20
1980.447682439225
 30
0.0
 10
821.193426252792
 20
1979.559259690867
 30
0.0
 10
821.3703071739981
 20
1979.133769468258
 30
0.0
1001
REVIT
1002
{
1070
     3
1000
790271
1002
}
  0
SPLINE
  5
11B
330
8A
100
AcDbEntity
  8
P-PIPE
370
    18
100
AcDbSpline
210
0.0
220
0.0
230
1.0
 70
     8
 71
     3
 72
    19
 73
    15
 74
     0
 42
0.000000001
 43
0.0000000001
 40
-1.0
 40
-1.0
 40
-1.0
 40
-1.0
 40
-0.875
 40
-0.8125
 40
-0.75
 40
-0.6875
 40
-0.625
 40
-0.5625
 40
-0.53125
 40
-0.5
 40
-0.4375
 40
-0.375
 40
-0.25
 40
0.0
 40
0.0
 40
0.0
 40
0.0
 10
821.3703071739981
 20
1979.133769468258
 30
0.0
 10
821.4437261659544
 20
1978.980427497873
 30
0.0
 10
821.5523352487576
 20
1978.769869772456
 30
0.0
 10
821.6916648424096
 20
1978.528513293386
 30
0.0
 10
821.7924199678625
 20
1978.366236122498
 30
0.0
 10
821.8899409916931
 20
1978.226512696004
 30
0.0
 10
821.9830086195868
 20
1978.108674075714
 30
0.0
 10
822.0548585799715
 20
1978.023977756643
 30
0.0
 10
822.1082181764741
 20
1977.962388330053
 30
0.0
 10
822.1585031199836
 20
1977.903482556499
 30
0.0
 10
822.2162383570044
 20
1977.838348732807
 30
0.0
 10
822.297755345378
 20
1977.754567629209
 30
0.0
 10
822.4088067110903
 20
1977.646198750635
 30
0.0
 10
822.4476574431879
 20
1977.607416325334
 30
0.0
 10
822.4476574431879
 20
1977.610193871037
 30
0.0
1001
REVIT
1002
{
1070
     3
1000
790271
1002
}
  0
LINE
  5
11C
330
8A
100
AcDbEntity
  8
P-PIPE
370
    18
100
AcDbLine
 10
796.4476574431879
 20
1965.499999999995
 30
0.0
 11
822.4476574431879
 21
1965.499999999995
 31
0.0
1001
REVIT
1002
{
1070
     3
1000
790271
1002
}
  0
SPLINE
  5
11D
330
8A
100
AcDbEntity
  8
P-PIPE
370
    18
100
AcDbSpline
210
0.0
220
0.0
230
1.0
 70
     8
 71
     3
 72
     9
 73
     5
 74
     0
 42
0.000000001
 43
0.0000000001
 40
0.0
 40
0.0
 40
0.0
 40
0.0
 40
0.5
 40
1.0
 40
1.0
 40
1.0
 40
1.0
 10
774.218938735298
 20
1985.998624452116
 30
0.0
 10
773.4876778739086
 20
1984.484017167299
 30
0.0
 10
772.7564170125194
 20
1981.430019671321
 30
0.0
 10
773.4876778739086
 20
1978.32645632265
 30
0.0
 10
774.218938735298
 20
1976.762283185142
 30
0.0
1001
REVIT
1002
{
1070
     3
1000
790271
1002
}
  0
SPLINE
  5
11E
330
8A
100
AcDbEntity
  8
P-PIPE
370
    18
100
AcDbSpline
210
0.0
220
0.0
230
1.0
 70
     8
 71
     3
 72
     9
 73
     5
 74
     0
 42
0.000000001
 43
0.0000000001
 40
0.0
 40
0.0
 40
0.0
 40
0.0
 40
0.5
 40
1.0
 40
1.0
 40
1.0
 40
1.0
 10
774.218938735298
 20
2009.236341266969
 30
0.0
 10
773.4876778739086
 20
2006.207126697335
 30
0.0
 10
772.7564170125194
 20
2000.099131705377
 30
0.0
 10
773.4876778739086
 20
1993.892005008037
 30
0.0
 10
774.218938735298
 20
1990.763658733021
 30
0.0
1001
REVIT
1002
{
1070
     3
1000
790271
1002
}
  0
SPLINE
  5
11F
330
8A
100
AcDbEntity
  8
P-PIPE
370
    18
100
AcDbSpline
210
0.0
220
0.0
230
1.0
 70
     8
 71
     3
 72
     9
 73
     5
 74
     0
 42
0.000000001
 43
0.0000000001
 40
0.0
 40
0.0
 40
0.0
 40
0.0
 40
0.5
 40
1.0
 40
1.0
 40
1.0
 40
1.0
 10
774.218938735298
 20
2023.237716814847
 30
0.0
 10
773.4876778739087
 20
2021.72310953003
 30
0.0
 10
772.7564170125194
 20
2018.669112034052
 30
0.0
 10
773.4876778739086
 20
2015.565548685382
 30
0.0
 10
774.218938735298
 20
2014.001375547874
 30
0.0
1001
REVIT
1002
{
1070
     3
1000
790271
1002
}
  0
SPLINE
  5
120
330
8A
100
AcDbEntity
  8
P-PIPE
370
    18
100
AcDbSpline
210
0.0
220
0.0
230
1.0
 70
     8
 71
     3
 72
    15
 73
    11
 74
     0
 42
0.000000001
 43
0.0000000001
 40
0.0
 40
0.0
 40
0.0
 40
0.0
 40
0.125
 40
0.234375
 40
0.375
 40
0.484375
 40
0.625
 40
0.75
 40
0.875
 40
1.0
 40
1.0
 40
1.0
 40
1.0
 10
775.0849641390824
 20
1986.599649158909
 30
0.0
 10
775.0157270565567
 20
1986.593619927049
 30
0.0
 10
774.8951721706739
 20
1986.575817193116
 30
0.0
 10
774.7284535700755
 20
1986.530300601232
 30
0.0
 10
774.6006520512817
 20
1986.461361588868
 30
0.0
 10
774.4879041062457
 20
1986.371241073275
 30
0.0
 10
774.3982399146367
 20
1986.285079619146
 30
0.0
 10
774.3253806581211
 20
1986.187952575789
 30
0.0
 10
774.2639954644004
 20
1986.095011422544
 30
0.0
 10
774.2325837576063
 20
1986.030973136459
 30
0.0
 10
774.218938735298
 20
1985.998624452116
 30
0.0
1001
REVIT
1002
{
1070
     3
1000
790271
1002
}
  0
SPLINE
  5
121
330
8A
100
AcDbEntity
  8
P-PIPE
370
    18
100
AcDbSpline
210
0.0
220
0.0
230
1.0
 70
     8
 71
     3
 72
    15
 73
    11
 74
     0
 42
0.000000001
 43
0.0000000001
 40
0.0
 40
0.0
 40
0.0
 40
0.0
 40
0.125
 40
0.25
 40
0.375
 40
0.5
 40
0.625
 40
0.75
 40
0.875
 40
1.0
 40
1.0
 40
1.0
 40
1.0
 10
774.218938735298
 20
1990.763658733021
 30
0.0
 10
774.2325837576063
 20
1990.698961364337
 30
0.0
 10
774.2640038021644
 20
1990.570896600557
 30
0.0
 10
774.3253514759467
 20
1990.384961156305
 30
0.0
 10
774.3954339353098
 20
1990.198672071523
 30
0.0
 10
774.4834253952859
 20
1990.024789946292
 30
0.0
 10
774.5909002070207
 20
1989.852174683409
 30
0.0
 10
774.721999631444
 20
1989.704458377698
 30
0.0
 10
774.8871813384798
 20
1989.61178772525
 30
0.0
 10
775.0157270565567
 20
1989.573667783156
 30
0.0
 10
775.0849641390824
 20
1989.561609319435
 30
0.0
1001
REVIT
1002
{
1070
     3
1000
790271
1002
}
  0
SPLINE
  5
122
330
8A
100
AcDbEntity
  8
P-PIPE
370
    18
100
AcDbSpline
210
0.0
220
0.0
230
1.0
 70
     8
 71
     3
 72
    15
 73
    11
 74
     0
 42
0.000000001
 43
0.0000000001
 40
0.0
 40
0.0
 40
0.0
 40
0.0
 40
0.125
 40
0.234375
 40
0.375
 40
0.484375
 40
0.625
 40
0.75
 40
0.875
 40
1.0
 40
1.0
 40
1.0
 40
1.0
 10
775.0849641390824
 20
2010.438390680555
 30
0.0
 10
775.0157270565567
 20
2010.426332216834
 30
0.0
 10
774.8951721706739
 20
2010.390726748968
 30
0.0
 10
774.7284535700755
 20
2010.299693565201
 30
0.0
 10
774.6006520512818
 20
2010.161815540473
 30
0.0
 10
774.4879041062457
 20
2009.981574509287
 30
0.0
 10
774.3982399146367
 20
2009.809251601028
 30
0.0
 10
774.3253806581211
 20
2009.614997514314
 30
0.0
 10
774.2639954644004
 20
2009.429115207825
 30
0.0
 10
774.2325837576063
 20
2009.301038635653
 30
0.0
 10
774.218938735298
 20
2009.236341266969
 30
0.0
1001
REVIT
1002
{
1070
     3
1000
790271
1002
}
  0
SPLINE
  5
123
330
8A
100
AcDbEntity
  8
P-PIPE
370
    18
100
AcDbSpline
210
0.0
220
0.0
230
1.0
 70
     8
 71
     3
 72
    15
 73
    11
 74
     0
 42
0.000000001
 43
0.0000000001
 40
0.0
 40
0.0
 40
0.0
 40
0.0
 40
0.125
 40
0.25
 40
0.375
 40
0.5
 40
0.625
 40
0.75
 40
0.875
 40
1.0
 40
1.0
 40
1.0
 40
1.0
 10
774.218938735298
 20
2014.001375547874
 30
0.0
 10
774.2325837576063
 20
2013.969026863531
 30
0.0
 10
774.2640038021644
 20
2013.904994481642
 30
0.0
 10
774.3253514759467
 20
2013.812026759515
 30
0.0
 10
774.3954339353098
 20
2013.718882217125
 30
0.0
 10
774.4834253952859
 20
2013.631941154509
 30
0.0
 10
774.5909002070207
 20
2013.545633523068
 30
0.0
 10
774.721999631444
 20
2013.471775370212
 30
0.0
 10
774.8871813384798
 20
2013.425440043988
 30
0.0
 10
775.0157270565567
 20
2013.406380072941
 30
0.0
 10
775.0849641390824
 20
2013.400350841081
 30
0.0
1001
REVIT
1002
{
1070
     3
1000
790271
1002
}
  0
SPLINE
  5
124
330
8A
100
AcDbEntity
  8
P-PIPE
370
    18
100
AcDbSpline
210
0.0
220
0.0
230
1.0
 70
     8
 71
     3
 72
    12
 73
     8
 74
     0
 42
0.000000001
 43
0.0000000001
 40
0.0
 40
0.0
 40
0.0
 40
0.0
 40
0.125
 40
0.234375
 40
0.375
 40
0.484375
 40
0.5
 40
0.5
 40
0.5
 40
0.5
 10
775.0849641390824
 20
2023.838741521641
 30
0.0
 10
775.0157270565567
 20
2023.83271228978
 30
0.0
 10
774.8951721706739
 20
2023.814909555847
 30
0.0
 10
774.7284535700755
 20
2023.769392963964
 30
0.0
 10
774.6006520512817
 20
2023.700453951599
 30
0.0
 10
774.5239834486572
 20
2023.639172000996
 30
0.0
 10
774.4909997455167
 20
2023.610392476147
 30
0.0
 10
774.4869251477951
 20
2023.606793927299
 30
0.0
1001
REVIT
1002
{
1070
     3
1000
790271
1002
}
  0
SPLINE
  5
125
330
8A
100
AcDbEntity
  8
P-PIPE
370
    18
100
AcDbSpline
210
0.0
220
0.0
230
1.0
 70
     8
 71
     3
 72
     9
 73
     5
 74
     0
 42
0.000000001
 43
0.0000000001
 40
0.75
 40
0.75
 40
0.75
 40
0.75
 40
0.875
 40
1.0
 40
1.0
 40
1.0
 40
1.0
 10
774.3268072735435
 20
2023.42709507325
 30
0.0
 10
774.3049189268808
 20
2023.396064554106
 30
0.0
 10
774.2639954644004
 20
2023.334103785275
 30
0.0
 10
774.2325837576063
 20
2023.27006549919
 30
0.0
 10
774.218938735298
 20
2023.237716814847
 30
0.0
1001
REVIT
1002
{
1070
     3
1000
790271
1002
}
  0
SPLINE
  5
126
330
8A
100
AcDbEntity
  8
P-PIPE
370
    18
100
AcDbSpline
210
0.0
220
0.0
230
1.0
 70
     8
 71
     3
 72
     9
 73
     5
 74
     0
 42
0.000000001
 43
0.0000000001
 40
0.0
 40
0.0
 40
0.0
 40
0.0
 40
0.125
 40
0.25
 40
0.25
 40
0.25
 40
0.25
 10
774.218938735298
 20
1976.762283185142
 30
0.0
 10
774.2325837576063
 20
1976.7299345008
 30
0.0
 10
774.2640038021644
 20
1976.66590211891
 30
0.0
 10
774.3049022513526
 20
1976.603923637493
 30
0.0
 10
774.3268072735435
 20
1976.57290492674
 30
0.0
1001
REVIT
1002
{
1070
     3
1000
790271
1002
}
  0
SPLINE
  5
127
330
8A
100
AcDbEntity
  8
P-PIPE
370
    18
100
AcDbSpline
210
0.0
220
0.0
230
1.0
 70
     8
 71
     3
 72
    11
 73
     7
 74
     0
 42
0.000000001
 43
0.0000000001
 40
0.5
 40
0.5
 40
0.5
 40
0.5
 40
0.625
 40
0.75
 40
0.875
 40
1.0
 40
1.0
 40
1.0
 40
1.0
 10
774.486672620579
 20
1976.39295436364
 30
0.0
 10
774.5192503325307
 20
1976.364079581297
 30
0.0
 10
774.5909002070207
 20
1976.306541160337
 30
0.0
 10
774.721999631444
 20
1976.232683007481
 30
0.0
 10
774.8871813384798
 20
1976.186347681257
 30
0.0
 10
775.0157270565567
 20
1976.16728771021
 30
0.0
 10
775.0849641390824
 20
1976.161258478349
 30
0.0
1001
REVIT
1002
{
1070
     3
1000
790271
1002
}
  0
LINE
  5
128
330
8A
100
AcDbEntity
  8
P-PIPE
370
    18
100
AcDbLine
 10
785.9176792298352
 20
2010.438390680555
 30
0.0
 11
775.0849641390824
 21
2010.438390680555
 31
0.0
1001
REVIT
1002
{
1070
     3
1000
790271
1002
}
  0
LINE
  5
129
330
8A
100
AcDbEntity
  8
P-PIPE
370
    18
100
AcDbLine
 10
775.0849641390824
 20
2013.400350841081
 30
0.0
 11
785.9176792298352
 21
2013.400350841081
 31
0.0
1001
REVIT
1002
{
1070
     3
1000
790271
1002
}
  0
LINE
  5
12A
330
8A
100
AcDbEntity
  8
P-PIPE
370
    18
100
AcDbLine
 10
785.9176792298352
 20
1986.599649158909
 30
0.0
 11
775.0849641390824
 21
1986.599649158909
 31
0.0
1001
REVIT
1002
{
1070
     3
1000
790271
1002
}
  0
LINE
  5
12B
330
8A
100
AcDbEntity
  8
P-PIPE
370
    18
100
AcDbLine
 10
775.0849641390824
 20
1989.561609319435
 30
0.0
 11
785.9176792298352
 21
1989.561609319435
 31
0.0
1001
REVIT
1002
{
1070
     3
1000
790271
1002
}
  0
LINE
  5
12C
330
8A
100
AcDbEntity
  8
P-PIPE
370
    18
100
AcDbLine
 10
785.9176792298352
 20
2023.838741521641
 30
0.0
 11
775.0849641390824
 21
2023.838741521641
 31
0.0
1001
REVIT
1002
{
1070
     3
1000
790271
1002
}
  0
LINE
  5
12D
330
8A
100
AcDbEntity
  8
P-PIPE
370
    18
100
AcDbLine
 10
775.0849641390824
 20
1976.161258478349
 30
0.0
 11
785.9176792298352
 21
1976.161258478349
 31
0.0
1001
REVIT
1002
{
1070
     3
1000
790271
1002
}
  0
LINE
  5
12E
330
8A
100
AcDbEntity
  8
P-PIPE
370
    18
100
AcDbLine
 10
785.9176792298352
 20
2023.838741521641
 30
0.0
 11
785.9176792298352
 21
2023.899999999995
 31
0.0
1001
REVIT
1002
{
1070
     3
1000
790271
1002
}
  0
SPLINE
  5
12F
330
8A
100
AcDbEntity
  8
P-PIPE
370
    18
100
AcDbSpline
210
0.0
220
0.0
230
1.0
 70
     8
 71
     3
 72
     9
 73
     5
 74
     0
 42
0.000000001
 43
0.0000000001
 40
0.0
 40
0.0
 40
0.0
 40
0.0
 40
0.5
 40
1.0
 40
1.0
 40
1.0
 40
1.0
 10
785.9176792298352
 20
2013.400350841081
 30
0.0
 10
786.8413964845699
 20
2015.163233129337
 30
0.0
 10
787.7651137393045
 20
2018.665847197688
 30
0.0
 10
786.8413964845699
 20
2022.122160249711
 30
0.0
 10
785.9176792298352
 20
2023.838741521641
 30
0.0
1001
REVIT
1002
{
1070
     3
1000
790271
1002
}
  0
LINE
  5
130
330
8A
100
AcDbEntity
  8
P-PIPE
370
    18
100
AcDbLine
 10
785.9176792298352
 20
2010.438390680555
 30
0.0
 11
785.9176792298352
 21
2013.40035084108
 31
0.0
1001
REVIT
1002
{
1070
     3
1000
790271
1002
}
  0
SPLINE
  5
131
330
8A
100
AcDbEntity
  8
P-PIPE
370
    18
100
AcDbSpline
210
0.0
220
0.0
230
1.0
 70
     8
 71
     3
 72
     9
 73
     5
 74
     0
 42
0.000000001
 43
0.0000000001
 40
0.0
 40
0.0
 40
0.0
 40
0.0
 40
0.5
 40
1.0
 40
1.0
 40
1.0
 40
1.0
 10
785.9176792298352
 20
1989.561609319435
 30
0.0
 10
786.8413964845698
 20
1993.087373895949
 30
0.0
 10
787.7651137393045
 20
2000.092602032649
 30
0.0
 10
786.8413964845699
 20
2007.005228136696
 30
0.0
 10
785.9176792298352
 20
2010.438390680555
 30
0.0
1001
REVIT
1002
{
1070
     3
1000
790271
1002
}
  0
LINE
  5
132
330
8A
100
AcDbEntity
  8
P-PIPE
370
    18
100
AcDbLine
 10
785.9176792298352
 20
1986.599649158909
 30
0.0
 11
785.9176792298352
 21
1989.561609319435
 31
0.0
1001
REVIT
1002
{
1070
     3
1000
790271
1002
}
  0
SPLINE
  5
133
330
8A
100
AcDbEntity
  8
P-PIPE
370
    18
100
AcDbSpline
210
0.0
220
0.0
230
1.0
 70
     8
 71
     3
 72
     9
 73
     5
 74
     0
 42
0.000000001
 43
0.0000000001
 40
0.0
 40
0.0
 40
0.0
 40
0.0
 40
0.5
 40
1.0
 40
1.0
 40
1.0
 40
1.0
 10
785.9176792298352
 20
1976.161258478349
 30
0.0
 10
786.8413964845699
 20
1977.924140766607
 30
0.0
 10
787.7651137393045
 20
1981.426754834956
 30
0.0
 10
786.8413964845698
 20
1984.88306788698
 30
0.0
 10
785.9176792298352
 20
1986.599649158909
 30
0.0
1001
REVIT
1002
{
1070
     3
1000
790271
1002
}
  0
LINE
  5
134
330
8A
100
AcDbEntity
  8
P-PIPE
370
    18
100
AcDbLine
 10
785.9176792298352
 20
1976.099999999995
 30
0.0
 11
785.9176792298352
 21
1976.161258478349
 31
0.0
1001
REVIT
1002
{
1070
     3
1000
790271
1002
}
  0
LINE
  5
135
330
8A
100
AcDbEntity
  8
P-PIPE
370
    18
100
AcDbLine
 10
823.9476574431877
 20
1976.999999999995
 30
0.0
 11
823.9476574431877
 21
2022.999999999995
 31
0.0
1001
REVIT
1002
{
1070
     3
1000
790271
1002
}
  0
LINE
  5
136
330
8A
100
AcDbEntity
  8
P-PIPE
370
    18
100
AcDbLine
 10
824.4476574431878
 20
2023.499999999995
 30
0.0
 11
824.447657443188
 21
1976.499999999995
 31
0.0
1001
REVIT
1002
{
1070
     3
1000
790271
1002
}
  0
SPLINE
  5
137
330
8A
100
AcDbEntity
  8
P-PIPE
370
    18
100
AcDbSpline
210
0.0
220
0.0
230
1.0
 70
     8
 71
     3
 72
     9
 73
     5
 74
     0
 42
0.000000001
 43
0.0000000001
 40
-1.0
 40
-1.0
 40
-1.0
 40
-1.0
 40
-0.5
 40
0.0
 40
0.0
 40
0.0
 40
0.0
 10
857.1138761510777
 20
2023.237716814847
 30
0.0
 10
857.8451370124669
 20
2021.673543677339
 30
0.0
 10
858.5763978738564
 20
2018.569980328669
 30
0.0
 10
857.8451370124669
 20
2015.51598283269
 30
0.0
 10
857.1138761510777
 20
2014.001375547874
 30
0.0
1001
REVIT
1002
{
1070
     3
1000
790271
1002
}
  0
SPLINE
  5
138
330
8A
100
AcDbEntity
  8
P-PIPE
370
    18
100
AcDbSpline
210
0.0
220
0.0
230
1.0
 70
     8
 71
     3
 72
     9
 73
     5
 74
     0
 42
0.000000001
 43
0.0000000001
 40
-1.0
 40
-1.0
 40
-1.0
 40
-1.0
 40
-0.5
 40
0.0
 40
0.0
 40
0.0
 40
0.0
 10
857.1138761510777
 20
2009.236341266969
 30
0.0
 10
857.8451370124669
 20
2006.107994991953
 30
0.0
 10
858.5763978738564
 20
1999.900868294612
 30
0.0
 10
857.8451370124669
 20
1993.792873302655
 30
0.0
 10
857.1138761510777
 20
1990.763658733021
 30
0.0
1001
REVIT
1002
{
1070
     3
1000
790271
1002
}
  0
SPLINE
  5
139
330
8A
100
AcDbEntity
  8
P-PIPE
370
    18
100
AcDbSpline
210
0.0
220
0.0
230
1.0
 70
     8
 71
     3
 72
     9
 73
     5
 74
     0
 42
0.000000001
 43
0.0000000001
 40
-1.0
 40
-1.0
 40
-1.0
 40
-1.0
 40
-0.5
 40
0.0
 40
0.0
 40
0.0
 40
0.0
 10
857.1138761510777
 20
1985.998624452116
 30
0.0
 10
857.8451370124669
 20
1984.434451314608
 30
0.0
 10
858.5763978738564
 20
1981.330887965938
 30
0.0
 10
857.8451370124669
 20
1978.276890469959
 30
0.0
 10
857.1138761510777
 20
1976.762283185142
 30
0.0
1001
REVIT
1002
{
1070
     3
1000
790271
1002
}
  0
SPLINE
  5
13A
330
8A
100
AcDbEntity
  8
P-PIPE
370
    18
100
AcDbSpline
210
0.0
220
0.0
230
1.0
 70
     8
 71
     3
 72
     9
 73
     5
 74
     0
 42
0.000000001
 43
0.0000000001
 40
-1.0
 40
-1.0
 40
-1.0
 40
-1.0
 40
-0.875
 40
-0.75
 40
-0.75
 40
-0.75
 40
-0.75
 10
857.1138761510777
 20
1976.762283185142
 30
0.0
 10
857.1002311287694
 20
1976.7299345008
 30
0.0
 10
857.0688194219753
 20
1976.665896214715
 30
0.0
 10
857.0278959594947
 20
1976.603935445885
 30
0.0
 10
857.0060076128321
 20
1976.57290492674
 30
0.0
1001
REVIT
1002
{
1070
     3
1000
790271
1002
}
  0
SPLINE
  5
13B
330
8A
100
AcDbEntity
  8
P-PIPE
370
    18
100
AcDbSpline
210
0.0
220
0.0
230
1.0
 70
     8
 71
     3
 72
    12
 73
     8
 74
     0
 42
0.000000001
 43
0.0000000001
 40
-0.5
 40
-0.5
 40
-0.5
 40
-0.5
 40
-0.484375
 40
-0.375
 40
-0.234375
 40
-0.125
 40
0.0
 40
0.0
 40
0.0
 40
0.0
 10
856.8458897385804
 20
1976.39320607269
 30
0.0
 10
856.8418151408589
 20
1976.389607523843
 30
0.0
 10
856.8088314377183
 20
1976.360827998994
 30
0.0
 10
856.7321628350942
 20
1976.299546048391
 30
0.0
 10
856.6043613163001
 20
1976.230607036027
 30
0.0
 10
856.4376427157016
 20
1976.185090444143
 30
0.0
 10
856.3170878298189
 20
1976.16728771021
 30
0.0
 10
856.2478507472931
 20
1976.161258478349
 30
0.0
1001
REVIT
1002
{
1070
     3
1000
790271
1002
}
  0
SPLINE
  5
13C
330
8A
100
AcDbEntity
  8
P-PIPE
370
    18
100
AcDbSpline
210
0.0
220
0.0
230
1.0
 70
     8
 71
     3
 72
    11
 73
     7
 74
     0
 42
0.000000001
 43
0.0000000001
 40
-1.0
 40
-1.0
 40
-1.0
 40
-1.0
 40
-0.875
 40
-0.75
 40
-0.625
 40
-0.5
 40
-0.5
 40
-0.5
 40
-0.5
 10
856.2478507472931
 20
2023.838741521641
 30
0.0
 10
856.3170878298189
 20
2023.83271228978
 30
0.0
 10
856.4456245834676
 20
2023.813639073406
 30
0.0
 10
856.6108466304298
 20
2023.767363351156
 30
0.0
 10
856.7417981417904
 20
2023.693286650394
 30
0.0
 10
856.8138155578298
 20
2023.636291287866
 30
0.0
 10
856.8463987805904
 20
2023.607352395666
 30
0.0
1001
REVIT
1002
{
1070
     3
1000
790271
1002
}
  0
SPLINE
  5
13D
330
8A
100
AcDbEntity
  8
P-PIPE
370
    18
100
AcDbSpline
210
0.0
220
0.0
230
1.0
 70
     8
 71
     3
 72
     9
 73
     5
 74
     0
 42
0.000000001
 43
0.0000000001
 40
-0.25
 40
-0.25
 40
-0.25
 40
-0.25
 40
-0.125
 40
0.0
 40
0.0
 40
0.0
 40
0.0
 10
857.0060076128321
 20
2023.42709507325
 30
0.0
 10
857.0279315387642
 20
2023.39609151185
 30
0.0
 10
857.0688016323407
 20
2023.334090306402
 30
0.0
 10
857.1002311287694
 20
2023.27006549919
 30
0.0
 10
857.1138761510777
 20
2023.237716814847
 30
0.0
1001
REVIT
1002
{
1070
     3
1000
790271
1002
}
  0
SPLINE
  5
13E
330
8A
100
AcDbEntity
  8
P-PIPE
370
    18
100
AcDbSpline
210
0.0
220
0.0
230
1.0
 70
     8
 71
     3
 72
    15
 73
    11
 74
     0
 42
0.000000001
 43
0.0000000001
 40
-1.0
 40
-1.0
 40
-1.0
 40
-1.0
 40
-0.875
 40
-0.75
 40
-0.625
 40
-0.484375
 40
-0.375
 40
-0.234375
 40
-0.125
 40
0.0
 40
0.0
 40
0.0
 40
0.0
 10
857.1138761510777
 20
2014.001375547874
 30
0.0
 10
857.1002311287694
 20
2013.969026863531
 30
0.0
 10
857.0688194219753
 20
2013.904988577446
 30
0.0
 10
857.0074342282545
 20
2013.812047424201
 30
0.0
 10
856.9345749717388
 20
2013.714920380844
 30
0.0
 10
856.8449107801299
 20
2013.628758926714
 30
0.0
 10
856.7321628350939
 20
2013.538638411122
 30
0.0
 10
856.6043613163001
 20
2013.469699398758
 30
0.0
 10
856.4376427157016
 20
2013.424182806874
 30
0.0
 10
856.3170878298189
 20
2013.406380072941
 30
0.0
 10
856.2478507472931
 20
2013.400350841081
 30
0.0
1001
REVIT
1002
{
1070
     3
1000
790271
1002
}
  0
SPLINE
  5
13F
330
8A
100
AcDbEntity
  8
P-PIPE
370
    18
100
AcDbSpline
210
0.0
220
0.0
230
1.0
 70
     8
 71
     3
 72
    15
 73
    11
 74
     0
 42
0.000000001
 43
0.0000000001
 40
-1.0
 40
-1.0
 40
-1.0
 40
-1.0
 40
-0.875
 40
-0.75
 40
-0.625
 40
-0.484375
 40
-0.375
 40
-0.25
 40
-0.125
 40
0.0
 40
0.0
 40
0.0
 40
0.0
 10
856.2478507472931
 20
2010.438390680555
 30
0.0
 10
856.3170878298189
 20
2010.426332216834
 30
0.0
 10
856.4456245834676
 20
2010.388185784085
 30
0.0
 10
856.6108466304298
 20
2010.295634339585
 30
0.0
 10
856.7472544547637
 20
2010.141307879665
 30
0.0
 10
856.8538477421165
 20
2009.968894749204
 30
0.0
 10
856.9401846773827
 20
2009.793379356851
 30
0.0
 10
857.007496491976
 20
2009.615091866423
 30
0.0
 10
857.0688016323407
 20
2009.429088250079
 30
0.0
 10
857.1002311287694
 20
2009.301038635653
 30
0.0
 10
857.1138761510777
 20
2009.236341266969
 30
0.0
1001
REVIT
1002
{
1070
     3
1000
790271
1002
}
  0
SPLINE
  5
140
330
8A
100
AcDbEntity
  8
P-PIPE
370
    18
100
AcDbSpline
210
0.0
220
0.0
230
1.0
 70
     8
 71
     3
 72
    15
 73
    11
 74
     0
 42
0.000000001
 43
0.0000000001
 40
-1.0
 40
-1.0
 40
-1.0
 40
-1.0
 40
-0.875
 40
-0.75
 40
-0.625
 40
-0.484375
 40
-0.375
 40
-0.234375
 40
-0.125
 40
0.0
 40
0.0
 40
0.0
 40
0.0
 10
857.1138761510777
 20
1990.763658733021
 30
0.0
 10
857.1002311287694
 20
1990.698961364337
 30
0.0
 10
857.0688194219753
 20
1990.570884792165
 30
0.0
 10
857.0074342282545
 20
1990.385002485675
 30
0.0
 10
856.9345749717388
 20
1990.190748398962
 30
0.0
 10
856.8449107801299
 20
1990.018425490702
 30
0.0
 10
856.7321628350937
 20
1989.838184459517
 30
0.0
 10
856.6043613163001
 20
1989.700306434789
 30
0.0
 10
856.4376427157016
 20
1989.609273251022
 30
0.0
 10
856.3170878298189
 20
1989.573667783156
 30
0.0
 10
856.2478507472931
 20
1989.561609319435
 30
0.0
1001
REVIT
1002
{
1070
     3
1000
790271
1002
}
  0
SPLINE
  5
141
330
8A
100
AcDbEntity
  8
P-PIPE
370
    18
100
AcDbSpline
210
0.0
220
0.0
230
1.0
 70
     8
 71
     3
 72
    15
 73
    11
 74
     0
 42
0.000000001
 43
0.0000000001
 40
-1.0
 40
-1.0
 40
-1.0
 40
-1.0
 40
-0.875
 40
-0.75
 40
-0.625
 40
-0.484375
 40
-0.375
 40
-0.25
 40
-0.125
 40
0.0
 40
0.0
 40
0.0
 40
0.0
 10
856.2478507472931
 20
1986.599649158909
 30
0.0
 10
856.3170878298189
 20
1986.593619927049
 30
0.0
 10
856.4456245834676
 20
1986.574546710674
 30
0.0
 10
856.6108466304298
 20
1986.528270988424
 30
0.0
 10
856.7472544547639
 20
1986.451107758464
 30
0.0
 10
856.8538477421165
 20
1986.364901193234
 30
0.0
 10
856.9401846773827
 20
1986.277143497057
 30
0.0
 10
857.007496491976
 20
1986.187999751843
 30
0.0
 10
857.0688016323407
 20
1986.094997943672
 30
0.0
 10
857.1002311287694
 20
1986.030973136459
 30
0.0
 10
857.1138761510777
 20
1985.998624452116
 30
0.0
1001
REVIT
1002
{
1070
     3
1000
790271
1002
}
  0
LINE
  5
142
330
8A
100
AcDbEntity
  8
P-PIPE
370
    18
100
AcDbLine
 10
845.4151356565404
 20
2023.899999999995
 30
0.0
 11
845.4151356565404
 21
2023.838741521641
 31
0.0
1001
REVIT
1002
{
1070
     3
1000
790271
1002
}
  0
LINE
  5
143
330
8A
100
AcDbEntity
  8
P-PIPE
370
    18
100
AcDbLine
 10
845.4151356565404
 20
2023.838741521641
 30
0.0
 11
856.2478507472931
 21
2023.838741521641
 31
0.0
1001
REVIT
1002
{
1070
     3
1000
790271
1002
}
  0
LINE
  5
144
330
8A
100
AcDbEntity
  8
P-PIPE
370
    18
100
AcDbLine
 10
856.2478507472931
 20
2013.400350841081
 30
0.0
 11
845.4151356565404
 21
2013.400350841081
 31
0.0
1001
REVIT
1002
{
1070
     3
1000
790271
1002
}
  0
LINE
  5
145
330
8A
100
AcDbEntity
  8
P-PIPE
370
    18
100
AcDbLine
 10
845.4151356565404
 20
2013.400350841081
 30
0.0
 11
845.4151356565404
 21
2010.438390680555
 31
0.0
1001
REVIT
1002
{
1070
     3
1000
790271
1002
}
  0
LINE
  5
146
330
8A
100
AcDbEntity
  8
P-PIPE
370
    18
100
AcDbLine
 10
845.4151356565404
 20
2010.438390680555
 30
0.0
 11
856.2478507472931
 21
2010.438390680555
 31
0.0
1001
REVIT
1002
{
1070
     3
1000
790271
1002
}
  0
LINE
  5
147
330
8A
100
AcDbEntity
  8
P-PIPE
370
    18
100
AcDbLine
 10
856.2478507472931
 20
1989.561609319435
 30
0.0
 11
845.4151356565404
 21
1989.561609319435
 31
0.0
1001
REVIT
1002
{
1070
     3
1000
790271
1002
}
  0
LINE
  5
148
330
8A
100
AcDbEntity
  8
P-PIPE
370
    18
100
AcDbLine
 10
845.4151356565404
 20
1989.561609319435
 30
0.0
 11
845.4151356565404
 21
1986.599649158909
 31
0.0
1001
REVIT
1002
{
1070
     3
1000
790271
1002
}
  0
LINE
  5
149
330
8A
100
AcDbEntity
  8
P-PIPE
370
    18
100
AcDbLine
 10
845.4151356565404
 20
1986.599649158909
 30
0.0
 11
856.2478507472931
 21
1986.599649158909
 31
0.0
1001
REVIT
1002
{
1070
     3
1000
790271
1002
}
  0
LINE
  5
14A
330
8A
100
AcDbEntity
  8
P-PIPE
370
    18
100
AcDbLine
 10
856.2478507472931
 20
1976.161258478349
 30
0.0
 11
845.4151356565404
 21
1976.161258478349
 31
0.0
1001
REVIT
1002
{
1070
     3
1000
790271
1002
}
  0
LINE
  5
14B
330
8A
100
AcDbEntity
  8
P-PIPE
370
    18
100
AcDbLine
 10
845.4151356565404
 20
1976.161258478349
 30
0.0
 11
845.4151356565404
 21
1976.099999999995
 31
0.0
1001
REVIT
1002
{
1070
     3
1000
790271
1002
}
  0
LINE
  5
14C
330
8A
100
AcDbEntity
  8
P-PIPE
370
    18
100
AcDbLine
 10
843.8851574431877
 20
1978.749999999995
 30
0.0
 11
843.8851574431877
 21
2021.249999999995
 31
0.0
1001
REVIT
1002
{
1070
     3
1000
790271
1002
}
  0
SPLINE
  5
14D
330
8A
100
AcDbEntity
  8
P-PIPE
370
    18
100
AcDbSpline
210
0.0
220
0.0
230
1.0
 70
     8
 71
     3
 72
     9
 73
     5
 74
     0
 42
0.000000001
 43
0.0000000001
 40
-1.0
 40
-1.0
 40
-1.0
 40
-1.0
 40
-0.5
 40
0.0
 40
0.0
 40
0.0
 40
0.0
 10
845.4151356565404
 20
1976.161258478349
 30
0.0
 10
844.4914184018058
 20
1977.877839750279
 30
0.0
 10
843.5677011470712
 20
1981.334152802302
 30
0.0
 10
844.4914184018058
 20
1984.836766870652
 30
0.0
 10
845.4151356565404
 20
1986.599649158909
 30
0.0
1001
REVIT
1002
{
1070
     3
1000
790271
1002
}
  0
SPLINE
  5
14E
330
8A
100
AcDbEntity
  8
P-PIPE
370
    18
100
AcDbSpline
210
0.0
220
0.0
230
1.0
 70
     8
 71
     3
 72
     9
 73
     5
 74
     0
 42
0.000000001
 43
0.0000000001
 40
-1.0
 40
-1.0
 40
-1.0
 40
-1.0
 40
-0.5
 40
0.0
 40
0.0
 40
0.0
 40
0.0
 10
845.4151356565404
 20
1989.561609319435
 30
0.0
 10
844.4914184018058
 20
1992.994771863294
 30
0.0
 10
843.5677011470712
 20
1999.90739796734
 30
0.0
 10
844.4914184018056
 20
2006.912626104041
 30
0.0
 10
845.4151356565404
 20
2010.438390680555
 30
0.0
1001
REVIT
1002
{
1070
     3
1000
790271
1002
}
  0
SPLINE
  5
14F
330
8A
100
AcDbEntity
  8
P-PIPE
370
    18
100
AcDbSpline
210
0.0
220
0.0
230
1.0
 70
     8
 71
     3
 72
     9
 73
     5
 74
     0
 42
0.000000001
 43
0.0000000001
 40
-1.0
 40
-1.0
 40
-1.0
 40
-1.0
 40
-0.5
 40
0.0
 40
0.0
 40
0.0
 40
0.0
 10
845.4151356565404
 20
2013.400350841081
 30
0.0
 10
844.4914184018058
 20
2015.11693211301
 30
0.0
 10
843.5677011470712
 20
2018.573245165033
 30
0.0
 10
844.4914184018058
 20
2022.075859233384
 30
0.0
 10
845.4151356565404
 20
2023.838741521641
 30
0.0
1001
REVIT
1002
{
1070
     3
1000
790271
1002
}
  0
ENDBLK
  5
151
330
8A
100
AcDbEntity
  8
0
100
AcDbBlockEnd
  0
BLOCK
  5
1FB
330
153
100
AcDbEntity
  8
0
100
AcDbBlockBegin
  2
Automatic flow rate regulator valve_Caleffi_121 DN15 - 1_2__-V1-Est - Idraulica
 70
     0
 10
0.0
 20
0.0
 30
0.0
  3
Automatic flow rate regulator valve_Caleffi_121 DN15 - 1_2__-V1-Est - Idraulica
  1

  0
LINE
  5
154
330
153
100
AcDbEntity
  8
P-PIPE
370
    18
100
AcDbLine
 10
859.8851574431893
 20
1844.769604873616
 30
0.0
 11
860.4133595082851
 21
1845.297806938711
 31
0.0
1001
REVIT
1002
{
1070
     3
1000
790271
1002
}
  0
LINE
  5
155
330
153
100
AcDbEntity
  8
P-PIPE
370
    18
100
AcDbLine
 10
860.4133595082851
 20
1877.193950521393
 30
0.0
 11
859.8851574431893
 21
1877.722152586488
 31
0.0
1001
REVIT
1002
{
1070
     3
1000
790271
1002
}
  0
LINE
  5
156
330
153
100
AcDbEntity
  8
P-PIPE
370
    18
100
AcDbLine
 10
872.0503820394032
 20
1861.245878730052
 30
0.0
 11
872.0503820394032
 21
1860.382230651314
 31
0.0
1001
REVIT
1002
{
1070
     3
1000
790271
1002
}
  0
SPLINE
  5
157
330
153
100
AcDbEntity
  8
P-PIPE
370
    18
100
AcDbSpline
210
0.0
220
0.0
230
1.0
 70
     8
 71
     3
 72
     9
 73
     5
 74
     0
 42
0.000000001
 43
0.0000000001
 40
-1.0
 40
-1.0
 40
-1.0
 40
-1.0
 40
-0.5
 40
0.0
 40
0.0
 40
0.0
 40
0.0
 10
872.0503820394032
 20
1860.382230651314
 30
0.0
 10
872.6277012938426
 20
1858.518942349158
 30
0.0
 10
873.2050205482824
 20
1854.818536739914
 30
0.0
 10
872.6277012938426
 20
1851.170473120808
 30
0.0
 10
872.0503820394032
 20
1849.35952680879
 30
0.0
1001
REVIT
1002
{
1070
     3
1000
790271
1002
}
  0
LINE
  5
158
330
153
100
AcDbEntity
  8
P-PIPE
370
    18
100
AcDbLine
 10
872.0503820394032
 20
1849.359526808789
 30
0.0
 11
872.0503820394032
 21
1848.495878730052
 31
0.0
1001
REVIT
1002
{
1070
     3
1000
790271
1002
}
  0
SPLINE
  5
159
330
153
100
AcDbEntity
  8
P-PIPE
370
    18
100
AcDbSpline
210
0.0
220
0.0
230
1.0
 70
    24
 71
     3
 72
     9
 73
     5
 74
     0
 42
0.000000001
 43
0.0000000001
 40
-1.0
 40
-1.0
 40
-1.0
 40
-1.0
 40
-0.5
 40
0.0
 40
0.0
 40
0.0
 40
0.0
 10
872.0503820394032
 20
1848.495878730052
 30
0.0
 10
872.3303777005853
 20
1848.495878730052
 30
0.0
 10
872.7547109290648
 20
1848.495878730052
 30
0.0
 10
872.9077279697749
 20
1848.495878730052
 30
0.0
 10
872.9164074431878
 20
1848.495878730052
 30
0.0
1001
REVIT
1002
{
1070
     3
1000
790271
1002
}
  0
SPLINE
  5
15A
330
153
100
AcDbEntity
  8
P-PIPE
370
    18
100
AcDbSpline
210
0.0
220
0.0
230
1.0
 70
     8
 71
     3
 72
     8
 73
     4
 74
     0
 42
0.000000001
 43
0.0000000001
 40
-0.5075864779655022
 40
-0.5075864779655022
 40
-0.5075864779655022
 40
-0.5075864779655022
 40
-0.5
 40
-0.5
 40
-0.5
 40
-0.5
 10
872.9161615566241
 20
1854.826502685259
 30
0.0
 10
872.9162944662498
 20
1854.854383210249
 30
0.0
 10
872.91642638263
 20
1854.882263690213
 30
0.0
 10
872.9163609210626
 20
1854.910135222655
 30
0.0
1001
REVIT
1002
{
1070
     3
1000
790271
1002
}
  0
SPLINE
  5
15B
330
153
100
AcDbEntity
  8
P-PIPE
370
    18
100
AcDbSpline
210
0.0
220
0.0
230
1.0
 70
    24
 71
     3
 72
     9
 73
     5
 74
     0
 42
0.000000001
 43
0.0000000001
 40
-1.0
 40
-1.0
 40
-1.0
 40
-1.0
 40
-0.5
 40
0.0
 40
0.0
 40
0.0
 40
0.0
 10
872.9164074431878
 20
1873.995878730052
 30
0.0
 10
872.9077279697749
 20
1873.995878730052
 30
0.0
 10
872.7547109290648
 20
1873.995878730052
 30
0.0
 10
872.3303777005853
 20
1873.995878730052
 30
0.0
 10
872.0503820394032
 20
1873.995878730052
 30
0.0
1001
REVIT
1002
{
1070
     3
1000
790271
1002
}
  0
LINE
  5
15C
330
153
100
AcDbEntity
  8
P-PIPE
370
    18
100
AcDbLine
 10
872.0503820394032
 20
1873.995878730052
 30
0.0
 11
872.0503820394032
 21
1873.132230651314
 31
0.0
1001
REVIT
1002
{
1070
     3
1000
790271
1002
}
  0
SPLINE
  5
15D
330
153
100
AcDbEntity
  8
P-PIPE
370
    18
100
AcDbSpline
210
0.0
220
0.0
230
1.0
 70
     8
 71
     3
 72
     8
 73
     4
 74
     0
 42
0.000000001
 43
0.0000000001
 40
-1.0
 40
-1.0
 40
-1.0
 40
-1.0
 40
-0.6041666666667507
 40
-0.6041666666667507
 40
-0.6041666666667507
 40
-0.6041666666667507
 10
872.0503820394032
 20
1873.132230651314
 30
0.0
 10
872.5074264491679
 20
1871.657127412107
 30
0.0
 10
872.7835574467338
 20
1870.190225326737
 30
0.0
 10
872.8787750321016
 20
1868.731524395204
 30
0.0
1001
REVIT
1002
{
1070
     3
1000
790271
1002
}
  0
SPLINE
  5
15E
330
153
100
AcDbEntity
  8
P-PIPE
370
    18
100
AcDbSpline
210
0.0
220
0.0
230
1.0
 70
     8
 71
     3
 72
     9
 73
     5
 74
     0
 42
0.000000001
 43
0.0000000001
 40
-0.5965328787456582
 40
-0.5965328787456582
 40
-0.5965328787456582
 40
-0.5965328787456582
 40
-0.5
 40
0.0
 40
0.0
 40
0.0
 40
0.0
 10
872.8840820893401
 20
1868.647138832615
 30
0.0
 10
872.9056013104884
 20
1868.29147888033
 30
0.0
 10
872.972091210649
 20
1866.096663013361
 30
0.0
 10
872.6277012938426
 20
1863.920473120808
 30
0.0
 10
872.0503820394032
 20
1862.109526808789
 30
0.0
1001
REVIT
1002
{
1070
     3
1000
790271
1002
}
  0
LINE
  5
15F
330
153
100
AcDbEntity
  8
P-PIPE
370
    18
100
AcDbLine
 10
872.0503820394032
 20
1862.109526808789
 30
0.0
 11
872.0503820394032
 21
1861.245878730052
 31
0.0
1001
REVIT
1002
{
1070
     3
1000
790271
1002
}
  0
SPLINE
  5
160
330
153
100
AcDbEntity
  8
P-PIPE
370
    18
100
AcDbSpline
210
0.0
220
0.0
230
1.0
 70
    24
 71
     3
 72
     8
 73
     4
 74
     0
 42
0.000000001
 43
0.0000000001
 40
-0.1974077152237292
 40
-0.1974077152237292
 40
-0.1974077152237292
 40
-0.1974077152237292
 40
0.0
 40
0.0
 40
0.0
 40
0.0
 10
872.8744076554628
 20
1873.995878730052
 30
0.0
 10
872.8989807239146
 20
1873.995878730052
 30
0.0
 10
872.9129806531561
 20
1873.995878730052
 30
0.0
 10
872.9164074431878
 20
1873.995878730052
 30
0.0
1001
REVIT
1002
{
1070
     3
1000
790271
1002
}
  0
LINE
  5
161
330
153
100
AcDbEntity
  8
P-PIPE
370
    18
100
AcDbLine
 10
872.0503820394032
 20
1849.359526808789
 30
0.0
 11
860.4133595082837
 21
1849.359526808789
 31
0.0
1001
REVIT
1002
{
1070
     3
1000
790271
1002
}
  0
LINE
  5
162
330
153
100
AcDbEntity
  8
P-PIPE
370
    18
100
AcDbLine
 10
860.4133595082837
 20
1848.495878730052
 30
0.0
 11
872.0503820394032
 21
1848.495878730052
 31
0.0
1001
REVIT
1002
{
1070
     3
1000
790271
1002
}
  0
LINE
  5
163
330
153
100
AcDbEntity
  8
P-PIPE
370
    18
100
AcDbLine
 10
860.4133595082837
 20
1860.382230651314
 30
0.0
 11
872.0503820394032
 21
1860.382230651314
 31
0.0
1001
REVIT
1002
{
1070
     3
1000
790271
1002
}
  0
LINE
  5
164
330
153
100
AcDbEntity
  8
P-PIPE
370
    18
100
AcDbLine
 10
872.0503820394032
 20
1873.995878730052
 30
0.0
 11
860.4133595082837
 21
1873.995878730052
 31
0.0
1001
REVIT
1002
{
1070
     3
1000
790271
1002
}
  0
LINE
  5
165
330
153
100
AcDbEntity
  8
P-PIPE
370
    18
100
AcDbLine
 10
860.4133595082837
 20
1873.132230651314
 30
0.0
 11
872.0503820394032
 21
1873.132230651314
 31
0.0
1001
REVIT
1002
{
1070
     3
1000
790271
1002
}
  0
LINE
  5
166
330
153
100
AcDbEntity
  8
P-PIPE
370
    18
100
AcDbLine
 10
872.0503820394032
 20
1862.10952680879
 30
0.0
 11
860.4133595082837
 21
1862.10952680879
 31
0.0
1001
REVIT
1002
{
1070
     3
1000
790271
1002
}
  0
LINE
  5
167
330
153
100
AcDbEntity
  8
P-PIPE
370
    18
100
AcDbLine
 10
860.4133595082837
 20
1861.245878730052
 30
0.0
 11
860.4133595082837
 21
1845.297806938711
 31
0.0
1001
REVIT
1002
{
1070
     3
1000
790271
1002
}
  0
LINE
  5
168
330
153
100
AcDbEntity
  8
P-PIPE
370
    18
100
AcDbLine
 10
860.4133595082837
 20
1877.193950521392
 30
0.0
 11
860.4133595082837
 21
1861.245878730052
 31
0.0
1001
REVIT
1002
{
1070
     3
1000
790271
1002
}
  0
LINE
  5
169
330
153
100
AcDbEntity
  8
P-PIPE
370
    18
100
AcDbLine
 10
872.9164074431878
 20
1848.495878730052
 30
0.0
 11
872.9164074431878
 21
1861.245878730052
 31
0.0
1001
REVIT
1002
{
1070
     3
1000
790271
1002
}
  0
LINE
  5
16A
330
153
100
AcDbEntity
  8
P-PIPE
370
    18
100
AcDbLine
 10
872.9164074431878
 20
1861.245878730052
 30
0.0
 11
872.9164074431878
 21
1868.447679612869
 31
0.0
1001
REVIT
1002
{
1070
     3
1000
790271
1002
}
  0
LINE
  5
16B
330
153
100
AcDbEntity
  8
P-PIPE
370
    18
100
AcDbLine
 10
872.9164074431878
 20
1868.587433170629
 30
0.0
 11
872.9164074431878
 21
1873.995878730052
 31
0.0
1001
REVIT
1002
{
1070
     3
1000
790271
1002
}
  0
LINE
  5
16C
330
153
100
AcDbEntity
  8
P-PIPE
370
    18
100
AcDbLine
 10
872.9164074431878
 20
1855.68622408501
 30
0.0
 11
872.9164074431878
 21
1853.96257799973
 31
0.0
1001
REVIT
1002
{
1070
     3
1000
790271
1002
}
  0
LINE
  5
16D
330
153
100
AcDbEntity
  8
P-PIPE
370
    18
100
AcDbLine
 10
872.9164074431878
 20
1853.96257799973
 30
0.0
 11
872.9164074431878
 21
1855.68622408501
 31
0.0
1001
REVIT
1002
{
1070
     3
1000
790271
1002
}
  0
LINE
  5
16E
330
153
100
AcDbEntity
  8
P-PIPE
370
    18
100
AcDbLine
 10
872.9164074431878
 20
1866.729572718281
 30
0.0
 11
872.9164074431878
 21
1868.457193667497
 31
0.0
1001
REVIT
1002
{
1070
     3
1000
790271
1002
}
  0
LINE
  5
16F
330
153
100
AcDbEntity
  8
P-PIPE
370
    18
100
AcDbLine
 10
872.9164074431878
 20
1868.457193667498
 30
0.0
 11
872.9164074431878
 21
1866.729572718281
 31
0.0
1001
REVIT
1002
{
1070
     3
1000
790271
1002
}
  0
LINE
  5
170
330
153
100
AcDbEntity
  8
P-PIPE
370
    18
100
AcDbLine
 10
770.9194553780933
 20
1845.297806938711
 30
0.0
 11
771.447657443189
 21
1844.769604873616
 31
0.0
1001
REVIT
1002
{
1070
     3
1000
790271
1002
}
  0
LINE
  5
171
330
153
100
AcDbEntity
  8
P-PIPE
370
    18
100
AcDbLine
 10
771.447657443189
 20
1877.722152586488
 30
0.0
 11
770.9194553780933
 21
1877.193950521393
 31
0.0
1001
REVIT
1002
{
1070
     3
1000
790271
1002
}
  0
LINE
  5
172
330
153
100
AcDbEntity
  8
P-PIPE
370
    18
100
AcDbLine
 10
758.4164074431878
 20
1861.245878730052
 30
0.0
 11
758.4164074431878
 21
1854.044077847234
 31
0.0
1001
REVIT
1002
{
1070
     3
1000
790271
1002
}
  0
LINE
  5
173
330
153
100
AcDbEntity
  8
P-PIPE
370
    18
100
AcDbLine
 10
758.4164074431878
 20
1853.904324289474
 30
0.0
 11
758.4164074431878
 21
1848.495878730052
 31
0.0
1001
REVIT
1002
{
1070
     3
1000
790271
1002
}
  0
SPLINE
  5
174
330
153
100
AcDbEntity
  8
P-PIPE
370
    18
100
AcDbSpline
210
0.0
220
0.0
230
1.0
 70
    24
 71
     3
 72
     9
 73
     5
 74
     0
 42
0.000000001
 43
0.0000000001
 40
-1.0
 40
-1.0
 40
-1.0
 40
-1.0
 40
-0.5
 40
0.0
 40
0.0
 40
0.0
 40
0.0
 10
758.4164074431878
 20
1848.495878730052
 30
0.0
 10
758.4250869166006
 20
1848.495878730052
 30
0.0
 10
758.5781039573109
 20
1848.495878730052
 30
0.0
 10
759.0024371857903
 20
1848.495878730052
 30
0.0
 10
759.2824328469723
 20
1848.495878730052
 30
0.0
1001
REVIT
1002
{
1070
     3
1000
790271
1002
}
  0
SPLINE
  5
175
330
153
100
AcDbEntity
  8
P-PIPE
370
    18
100
AcDbSpline
210
0.0
220
0.0
230
1.0
 70
     8
 71
     3
 72
     9
 73
     5
 74
     0
 42
0.000000001
 43
0.0000000001
 40
-1.0
 40
-1.0
 40
-1.0
 40
-1.0
 40
-0.5
 40
0.0
 40
0.0
 40
0.0
 40
0.0
 10
759.2824328469723
 20
1849.359526808789
 30
0.0
 10
758.7051135925328
 20
1851.222815110945
 30
0.0
 10
758.1277943380932
 20
1854.923220720189
 30
0.0
 10
758.7051135925327
 20
1858.571284339295
 30
0.0
 10
759.2824328469723
 20
1860.382230651314
 30
0.0
1001
REVIT
1002
{
1070
     3
1000
790271
1002
}
  0
SPLINE
  5
176
330
153
100
AcDbEntity
  8
P-PIPE
370
    18
100
AcDbSpline
210
0.0
220
0.0
230
1.0
 70
    24
 71
     3
 72
     8
 73
     4
 74
     0
 42
0.000000001
 43
0.0000000001
 40
-0.1974077152873844
 40
-0.1974077152873844
 40
-0.1974077152873844
 40
-0.1974077152873844
 40
0.0
 40
0.0
 40
0.0
 40
0.0
 10
758.4584072309366
 20
1848.495878730052
 30
0.0
 10
758.4338341624701
 20
1848.495878730052
 30
0.0
 10
758.4198342332205
 20
1848.495878730052
 30
0.0
 10
758.4164074431878
 20
1848.495878730052
 30
0.0
1001
REVIT
1002
{
1070
     3
1000
790271
1002
}
  0
SPLINE
  5
177
330
153
100
AcDbEntity
  8
P-PIPE
370
    18
100
AcDbSpline
210
0.0
220
0.0
230
1.0
 70
     8
 71
     3
 72
     9
 73
     5
 74
     0
 42
0.000000001
 43
0.0000000001
 40
-1.0
 40
-1.0
 40
-1.0
 40
-1.0
 40
-0.5
 40
0.0
 40
0.0
 40
0.0
 40
0.0
 10
759.2824328469723
 20
1862.109526808789
 30
0.0
 10
758.7051135925328
 20
1863.972815110946
 30
0.0
 10
758.1277943380932
 20
1867.673220720189
 30
0.0
 10
758.7051135925327
 20
1871.321284339295
 30
0.0
 10
759.2824328469723
 20
1873.132230651314
 30
0.0
1001
REVIT
1002
{
1070
     3
1000
790271
1002
}
  0
SPLINE
  5
178
330
153
100
AcDbEntity
  8
P-PIPE
370
    18
100
AcDbSpline
210
0.0
220
0.0
230
1.0
 70
    24
 71
     3
 72
     9
 73
     5
 74
     0
 42
0.000000001
 43
0.0000000001
 40
-1.0
 40
-1.0
 40
-1.0
 40
-1.0
 40
-0.5
 40
0.0
 40
0.0
 40
0.0
 40
0.0
 10
759.2824328469723
 20
1873.995878730052
 30
0.0
 10
759.0024371857903
 20
1873.995878730052
 30
0.0
 10
758.5781039573109
 20
1873.995878730052
 30
0.0
 10
758.4250869166006
 20
1873.995878730052
 30
0.0
 10
758.4164074431878
 20
1873.995878730052
 30
0.0
1001
REVIT
1002
{
1070
     3
1000
790271
1002
}
  0
LINE
  5
179
330
153
100
AcDbEntity
  8
P-PIPE
370
    18
100
AcDbLine
 10
758.4164074431878
 20
1873.995878730052
 30
0.0
 11
758.4164074431878
 21
1861.245878730052
 31
0.0
1001
REVIT
1002
{
1070
     3
1000
790271
1002
}
  0
SPLINE
  5
17A
330
153
100
AcDbEntity
  8
P-PIPE
370
    18
100
AcDbSpline
210
0.0
220
0.0
230
1.0
 70
     8
 71
     3
 72
     8
 73
     4
 74
     0
 42
0.000000001
 43
0.0000000001
 40
-0.5075864779654942
 40
-0.5075864779654942
 40
-0.5075864779654942
 40
-0.5075864779654942
 40
-0.5
 40
-0.5
 40
-0.5
 40
-0.5
 10
758.4166533297516
 20
1867.665254774844
 30
0.0
 10
758.4165204201258
 20
1867.637374249854
 30
0.0
 10
758.4163885037456
 20
1867.60949376989
 30
0.0
 10
758.4164539653129
 20
1867.581622237449
 30
0.0
1001
REVIT
1002
{
1070
     3
1000
790271
1002
}
  0
LINE
  5
17B
330
153
100
AcDbEntity
  8
P-PIPE
370
    18
100
AcDbLine
 10
759.2824328469723
 20
1848.495878730052
 30
0.0
 11
759.2824328469723
 21
1849.359526808789
 31
0.0
1001
REVIT
1002
{
1070
     3
1000
790271
1002
}
  0
LINE
  5
17C
330
153
100
AcDbEntity
  8
P-PIPE
370
    18
100
AcDbLine
 10
759.2824328469723
 20
1848.495878730052
 30
0.0
 11
770.9194553780919
 21
1848.495878730052
 31
0.0
1001
REVIT
1002
{
1070
     3
1000
790271
1002
}
  0
LINE
  5
17D
330
153
100
AcDbEntity
  8
P-PIPE
370
    18
100
AcDbLine
 10
770.9194553780919
 20
1849.359526808789
 30
0.0
 11
759.2824328469723
 21
1849.359526808789
 31
0.0
1001
REVIT
1002
{
1070
     3
1000
790271
1002
}
  0
LINE
  5
17E
330
153
100
AcDbEntity
  8
P-PIPE
370
    18
100
AcDbLine
 10
759.2824328469723
 20
1860.382230651314
 30
0.0
 11
759.2824328469723
 21
1861.245878730052
 31
0.0
1001
REVIT
1002
{
1070
     3
1000
790271
1002
}
  0
LINE
  5
17F
330
153
100
AcDbEntity
  8
P-PIPE
370
    18
100
AcDbLine
 10
759.2824328469723
 20
1860.382230651314
 30
0.0
 11
770.9194553780919
 21
1860.382230651314
 31
0.0
1001
REVIT
1002
{
1070
     3
1000
790271
1002
}
  0
LINE
  5
180
330
153
100
AcDbEntity
  8
P-PIPE
370
    18
100
AcDbLine
 10
759.2824328469723
 20
1873.132230651314
 30
0.0
 11
759.2824328469723
 21
1873.995878730052
 31
0.0
1001
REVIT
1002
{
1070
     3
1000
790271
1002
}
  0
LINE
  5
181
330
153
100
AcDbEntity
  8
P-PIPE
370
    18
100
AcDbLine
 10
759.2824328469723
 20
1873.132230651314
 30
0.0
 11
770.9194553780919
 21
1873.132230651314
 31
0.0
1001
REVIT
1002
{
1070
     3
1000
790271
1002
}
  0
LINE
  5
182
330
153
100
AcDbEntity
  8
P-PIPE
370
    18
100
AcDbLine
 10
770.9194553780919
 20
1873.995878730052
 30
0.0
 11
759.2824328469723
 21
1873.995878730052
 31
0.0
1001
REVIT
1002
{
1070
     3
1000
790271
1002
}
  0
LINE
  5
183
330
153
100
AcDbEntity
  8
P-PIPE
370
    18
100
AcDbLine
 10
770.9194553780919
 20
1862.109526808789
 30
0.0
 11
759.2824328469723
 21
1862.109526808789
 31
0.0
1001
REVIT
1002
{
1070
     3
1000
790271
1002
}
  0
LINE
  5
184
330
153
100
AcDbEntity
  8
P-PIPE
370
    18
100
AcDbLine
 10
759.2824328469723
 20
1861.245878730052
 30
0.0
 11
759.2824328469723
 21
1862.109526808789
 31
0.0
1001
REVIT
1002
{
1070
     3
1000
790271
1002
}
  0
LINE
  5
185
330
153
100
AcDbEntity
  8
P-PIPE
370
    18
100
AcDbLine
 10
770.9194553780919
 20
1845.297806938711
 30
0.0
 11
770.9194553780919
 21
1861.245878730052
 31
0.0
1001
REVIT
1002
{
1070
     3
1000
790271
1002
}
  0
LINE
  5
186
330
153
100
AcDbEntity
  8
P-PIPE
370
    18
100
AcDbLine
 10
770.9194553780919
 20
1861.245878730052
 30
0.0
 11
770.9194553780919
 21
1877.193950521392
 31
0.0
1001
REVIT
1002
{
1070
     3
1000
790271
1002
}
  0
LINE
  5
187
330
153
100
AcDbEntity
  8
P-PIPE
370
    18
100
AcDbLine
 10
758.4164074431878
 20
1855.762184741822
 30
0.0
 11
758.4164074431878
 21
1854.034563792606
 31
0.0
1001
REVIT
1002
{
1070
     3
1000
790271
1002
}
  0
LINE
  5
188
330
153
100
AcDbEntity
  8
P-PIPE
370
    18
100
AcDbLine
 10
758.4164074431878
 20
1854.034563792606
 30
0.0
 11
758.4164074431878
 21
1855.762184741822
 31
0.0
1001
REVIT
1002
{
1070
     3
1000
790271
1002
}
  0
LINE
  5
189
330
153
100
AcDbEntity
  8
P-PIPE
370
    18
100
AcDbLine
 10
758.4164074431878
 20
1866.805533375094
 30
0.0
 11
758.4164074431878
 21
1868.529179460373
 31
0.0
1001
REVIT
1002
{
1070
     3
1000
790271
1002
}
  0
LINE
  5
18A
330
153
100
AcDbEntity
  8
P-PIPE
370
    18
100
AcDbLine
 10
758.4164074431878
 20
1868.529179460373
 30
0.0
 11
758.4164074431878
 21
1866.805533375094
 31
0.0
1001
REVIT
1002
{
1070
     3
1000
790271
1002
}
  0
LWPOLYLINE
  5
18B
330
153
100
AcDbEntity
  8
P-PIPE
370
    18
100
AcDbPolyline
 90
       15
 70
   128
 43
0.0
 10
859.6172082507582
 20
1880.30998034519
 10
859.6558121290408
 20
1880.239916893279
 10
859.691583337546
 20
1880.168365741267
 10
859.7244646499701
 20
1880.095441355733
 10
859.7544034632282
 20
1880.021260400139
 10
859.7813518816055
 20
1879.945941548188
 10
859.8052667933812
 20
1879.869605293978
 10
859.826109939798
 20
1879.792373759229
 10
859.8438479762679
 20
1879.714370497923
 10
859.8584525257168
 20
1879.635720298638
 10
859.8699002239809
 20
1879.556548984915
 10
859.8781727571847
 20
1879.476983213967
 10
859.8832568910401
 20
1879.397150274054
 10
859.8851444920175
 20
1879.317177880851
 10
859.8851574431893
 20
1879.30998034519
1001
REVIT
1002
{
1070
     3
1000
790271
1002
}
  0
LWPOLYLINE
  5
18C
330
153
100
AcDbEntity
  8
P-PIPE
370
    18
100
AcDbPolyline
 90
       41
 70
   128
 43
0.0
 10
859.8851574431893
 20
1861.245878730052
 10
859.8851574431893
 20
1861.968250126321
 10
859.8851574431893
 20
1862.689465882454
 10
859.8851574431893
 20
1863.408372207091
 10
859.8851574431893
 20
1864.123819003473
 10
859.8851574431893
 20
1864.834661709346
 10
859.8851574431893
 20
1865.539763128017
 10
859.8851574431893
 20
1866.237995247631
 10
859.8851574431893
 20
1866.928241045746
 10
859.8851574431893
 20
1867.609396276328
 10
859.8851574431893
 20
1868.280371236314
 10
859.8851574431893
 20
1868.940092508902
 10
859.8851574431893
 20
1869.587504680788
 10
859.8851574431893
 20
1870.221572030605
 10
859.8851574431893
 20
1870.841280185854
 10
859.8851574431893
 20
1871.445637745683
 10
859.8851574431893
 20
1872.033677866919
 10
859.8851574431893
 20
1872.604459810812
 10
859.8851574431893
 20
1873.157070448009
 10
859.8851574431893
 20
1873.690625719377
 10
859.8851574431893
 20
1874.204272050299
 10
859.8851574431893
 20
1874.697187716219
 10
859.8851574431893
 20
1875.16858415722
 10
859.8851574431893
 20
1875.617707239557
 10
859.8851574431893
 20
1876.043838462105
 10
859.8851574431893
 20
1876.446296105812
 10
859.8851574431893
 20
1876.824436324301
 10
859.8851574431893
 20
1877.177654173886
 10
859.8851574431893
 20
1877.505384581359
 10
859.8851574431893
 20
1877.807103247979
 10
859.8851574431893
 20
1878.082327488244
 10
859.8851574431893
 20
1878.33061700208
 10
859.8851574431893
 20
1878.55157457923
 10
859.8851574431893
 20
1878.744846734707
 10
859.8851574431893
 20
1878.91012427429
 10
859.8851574431893
 20
1879.047142789174
 10
859.8851574431893
 20
1879.155683078964
 10
859.8851574431893
 20
1879.235571502349
 10
859.8851574431893
 20
1879.286680254896
 10
859.8851574431893
 20
1879.308927573502
 10
859.8851574431893
 20
1879.30998034519
1001
REVIT
1002
{
1070
     3
1000
790271
1002
}
  0
LWPOLYLINE
  5
18D
330
153
100
AcDbEntity
  8
P-PIPE
370
    18
100
AcDbPolyline
 90
       12
 70
   128
 43
0.0
 10
859.8851574431893
 20
1879.30998034519
 10
859.8851574431893
 20
1879.295530990632
 10
859.8851574431893
 20
1879.252206042846
 10
859.8851574431893
 20
1879.180074812502
 10
859.8851574431893
 20
1879.079252694186
 10
859.8851574431893
 20
1878.949900981776
 10
859.8851574431893
 20
1878.792226610421
 10
859.8851574431893
 20
1878.606481825479
 10
859.8851574431893
 20
1878.392963778981
 10
859.8851574431893
 20
1878.152014054255
 10
859.8851574431893
 20
1877.88401811946
 10
859.8851574431893
 20
1877.745878730052
1001
REVIT
1002
{
1070
     3
1000
790271
1002
}
  0
LINE
  5
18E
330
153
100
AcDbEntity
  8
P-PIPE
370
    18
100
AcDbLine
 10
844.0296305396941
 20
1882.746113473525
 30
0.0
 11
843.8851574431891
 21
1882.495878730052
 31
0.0
1001
REVIT
1002
{
1070
     3
1000
790271
1002
}
  0
LINE
  5
18F
330
153
100
AcDbEntity
  8
P-PIPE
370
    18
100
AcDbLine
 10
787.4858268552574
 20
1842.311990091049
 30
0.0
 11
788.458020414271
 21
1843.995878730052
 31
0.0
1001
REVIT
1002
{
1070
     3
1000
790271
1002
}
  0
LINE
  5
190
330
153
100
AcDbEntity
  8
P-PIPE
370
    18
100
AcDbLine
 10
788.458020414271
 20
1878.495878730052
 30
0.0
 11
787.4858268552574
 21
1880.179767369055
 31
0.0
1001
REVIT
1002
{
1070
     3
1000
790271
1002
}
  0
LWPOLYLINE
  5
191
330
153
100
AcDbEntity
  8
P-PIPE
370
    18
100
AcDbPolyline
 90
       28
 70
   128
 43
0.0
 10
790.19007122184
 20
1844.995878730052
 10
790.1100925534666
 20
1844.994278943374
 10
790.0302418339015
 20
1844.989482142657
 10
789.950646807262
 20
1844.98149600176
 10
789.8714348086114
 20
1844.970333296803
 10
789.7927325602498
 20
1844.956011885734
 10
789.7146659689854
 20
1844.938554679756
 10
789.6373599247117
 20
1844.917989606674
 10
789.5609381006078
 20
1844.894349566217
 10
789.4855227552898
 20
1844.867672377408
 10
789.4112345372227
 20
1844.838000718058
 10
789.338192291708
 20
1844.805382056492
 10
789.266512870757
 20
1844.769868575611
 10
789.1963109461523
 20
1844.731517089407
 10
789.1276988259982
 20
1844.690388952079
 10
789.0607862750498
 20
1844.646549959871
 10
788.9956803391151
 20
1844.600070245821
 10
788.932485173803
 20
1844.551024167554
 10
788.8713018778969
 20
1844.499490188334
 10
788.8122283316188
 20
1844.445550751534
 10
788.7553590400409
 20
1844.389292148746
 10
788.7007849818981
 20
1844.330804381735
 10
788.648593464042
 20
1844.270181018449
 10
788.5988679817671
 20
1844.207519043339
 10
788.5516880852379
 20
1844.142918702197
 10
788.5071292522241
 20
1844.076483341789
 10
788.4652627673533
 20
1844.008319244517
 10
788.458020414271
 20
1843.995878730052
1001
REVIT
1002
{
1070
     3
1000
790271
1002
}
  0
LWPOLYLINE
  5
192
330
153
100
AcDbEntity
  8
P-PIPE
370
    18
100
AcDbPolyline
 90
       28
 70
   128
 43
0.0
 10
788.458020414271
 20
1878.495878730052
 10
788.4993952043615
 20
1878.427415064819
 10
788.5434747154216
 20
1878.360660713523
 10
788.5901884296369
 20
1878.295722468887
 10
788.6394616150294
 20
1878.23270421825
 10
788.6912154450137
 20
1878.171706777368
 10
788.7453671245022
 20
1878.112827729136
 10
788.8018300223593
 20
1878.056161267469
 10
788.8605138099934
 20
1878.00179804662
 10
788.9213246058625
 20
1877.949825036144
 10
788.9841651256658
 20
1877.900325381771
 10
789.0489348379766
 20
1877.853378272389
 10
789.115530125072
 20
1877.809058813357
 10
789.1838444486993
 20
1877.767437906357
 10
789.2537685205131
 20
1877.72858213596
 10
789.3251904769154
 20
1877.692553663111
 10
789.3979960580111
 20
1877.65941012568
 10
789.4720687904023
 20
1877.629204546256
 10
789.5472901735181
 20
1877.601985247325
 10
789.6235398691916
 20
1877.577795773956
 10
789.7006958941761
 20
1877.556674824148
 10
789.77863481529
 20
1877.538656186914
 10
789.8572319468863
 20
1877.523768688232
 10
789.9363615503204
 20
1877.512036144922
 10
790.0158970351072
 20
1877.50347732655
 10
790.0957111614376
 20
1877.498105925402
 10
790.1756762437356
 20
1877.495930534571
 10
790.19007122184
 20
1877.495878730052
1001
REVIT
1002
{
1070
     3
1000
790271
1002
}
  0
LINE
  5
193
330
153
100
AcDbEntity
  8
P-PIPE
370
    18
100
AcDbLine
 10
790.19007122184
 20
1844.995878730052
 30
0.0
 11
802.0329812991334
 21
1844.995878730052
 31
0.0
1001
REVIT
1002
{
1070
     3
1000
790271
1002
}
  0
LINE
  5
194
330
153
100
AcDbEntity
  8
P-PIPE
370
    18
100
AcDbLine
 10
802.0329812991334
 20
1877.495878730053
 30
0.0
 11
790.19007122184
 21
1877.495878730053
 31
0.0
1001
REVIT
1002
{
1070
     3
1000
790271
1002
}
  0
LWPOLYLINE
  5
195
330
153
100
AcDbEntity
  8
P-PIPE
370
    18
100
AcDbPolyline
 90
       32
 70
   128
 43
0.0
 10
803.9153770050548
 20
1843.671590507609
 10
803.8868500251815
 20
1843.746325761214
 10
803.8553572508178
 20
1843.819860459657
 10
803.8209490636839
 20
1843.892076963105
 10
803.7836805095395
 20
1843.96285974056
 10
803.7436112101213
 20
1844.032095554676
 10
803.7008052677602
 20
1844.09967364292
 10
803.6553311628329
 20
1844.165485894768
 10
803.6072616442066
 20
1844.229427024654
 10
803.5566736128565
 20
1844.291394740413
 10
803.5036479988416
 20
1844.351289906916
 10
803.4482696318328
 20
1844.409016704676
 10
803.3906271054034
 20
1844.46448278313
 10
803.3308126352999
 20
1844.517599408385
 10
803.2689219119143
 20
1844.56828160517
 10
803.2050539472017
 20
1844.616448292783
 10
803.1393109162809
 20
1844.662022414799
 10
803.0717979939771
 20
1844.704931062344
 10
803.0026231865639
 20
1844.745105590737
 10
802.9318971589768
 20
1844.7824817293
 10
802.8597330577722
 20
1844.816999684186
 10
802.7862463301184
 20
1844.848604234031
 10
802.711554539103
 20
1844.877244818297
 10
802.6357771756581
 20
1844.902875618158
 10
802.5590354674003
 20
1844.925455629802
 10
802.4814521846922
 20
1844.944948730028
 10
802.4031514442359
 20
1844.961323734033
 10
802.3242585105128
 20
1844.974554445305
 10
802.2448995953876
 20
1844.984619697527
 10
802.1652016561949
 20
1844.991503388443
 10
802.0852921926364
 20
1844.995194505617
 10
802.0329812991334
 20
1844.995878730052
1001
REVIT
1002
{
1070
     3
1000
790271
1002
}
  0
LWPOLYLINE
  5
196
330
153
100
AcDbEntity
  8
P-PIPE
370
    18
100
AcDbPolyline
 90
       32
 70
   128
 43
0.0
 10
802.0329812991334
 20
1877.495878730052
 10
802.1129599675065
 20
1877.49747851673
 10
802.1928106870715
 20
1877.502275317447
 10
802.2724057137111
 20
1877.510261458344
 10
802.3516177123617
 20
1877.521424163301
 10
802.4303199607235
 20
1877.53574557437
 10
802.5083865519876
 20
1877.553202780348
 10
802.5856925962616
 20
1877.57376785343
 10
802.6621144203655
 20
1877.597407893887
 10
802.7375297656835
 20
1877.624085082696
 10
802.8118179837507
 20
1877.653756742046
 10
802.8848602292651
 20
1877.686375403612
 10
802.9565396502162
 20
1877.721888884494
 10
803.0267415748207
 20
1877.760240370697
 10
803.095353694975
 20
1877.801368508025
 10
803.1622662459234
 20
1877.845207500232
 10
803.227372181858
 20
1877.891687214283
 10
803.2905673471702
 20
1877.94073329255
 10
803.3517506430762
 20
1877.99226727177
 10
803.4108241893543
 20
1878.04620670857
 10
803.4676934809322
 20
1878.102465311358
 10
803.522267539075
 20
1878.16095307837
 10
803.5744590569313
 20
1878.221576441655
 10
803.624184539206
 20
1878.284238416765
 10
803.6713644357353
 20
1878.348838757907
 10
803.7159232687493
 20
1878.415274118316
 10
803.7577897536198
 20
1878.483438215587
 10
803.7968969129032
 20
1878.553222001705
 10
803.8331821834862
 20
1878.624513837499
 10
803.8665875166767
 20
1878.69719967124
 10
803.8970594710679
 20
1878.771163221099
 10
803.9153770050548
 20
1878.820166952495
1001
REVIT
1002
{
1070
     3
1000
790271
1002
}
  0
LWPOLYLINE
  5
197
330
153
100
AcDbEntity
  8
P-PIPE
370
    18
100
AcDbPolyline
 90
       27
 70
   128
 43
0.0
 10
805.6023579815684
 20
1842.745878730052
 10
805.5223793131951
 20
1842.74747851673
 10
805.44252859363
 20
1842.752275317447
 10
805.3629335669906
 20
1842.760261458344
 10
805.28372156834
 20
1842.771424163301
 10
805.2050193199782
 20
1842.78574557437
 10
805.1269527287141
 20
1842.803202780348
 10
805.0496466844403
 20
1842.82376785343
 10
804.9732248603362
 20
1842.847407893887
 10
804.8978095150184
 20
1842.874085082696
 10
804.823521296951
 20
1842.903756742046
 10
804.7504790514365
 20
1842.936375403612
 10
804.6787996304853
 20
1842.971888884494
 10
804.6085977058808
 20
1843.010240370697
 10
804.5399855857265
 20
1843.051368508025
 10
804.4730730347783
 20
1843.095207500233
 10
804.4079670988436
 20
1843.141687214284
 10
804.3447719335315
 20
1843.19073329255
 10
804.2835886376256
 20
1843.24226727177
 10
804.2245150913473
 20
1843.29620670857
 10
804.1676457997695
 20
1843.352465311358
 10
804.1130717416267
 20
1843.410953078369
 10
804.0608802237704
 20
1843.471576441655
 10
804.0111547414957
 20
1843.534238416765
 10
803.9639748449664
 20
1843.598838757907
 10
803.9194160119528
 20
1843.665274118316
 10
803.9153770050548
 20
1843.671590507609
1001
REVIT
1002
{
1070
     3
1000
790271
1002
}
  0
LWPOLYLINE
  5
198
330
153
100
AcDbEntity
  8
P-PIPE
370
    18
100
AcDbPolyline
 90
       27
 70
   128
 43
0.0
 10
803.9153770050548
 20
1878.820166952495
 10
803.959686480641
 20
1878.886768882539
 10
804.0066238802108
 20
1878.951545631714
 10
804.0561141139376
 20
1879.014393571043
 10
804.1080780080049
 20
1879.075212157228
 10
804.1624324312673
 20
1879.133904093505
 10
804.2190904282422
 20
1879.190375485298
 10
804.2779613582213
 20
1879.244535990424
 10
804.3389510402748
 20
1879.296298963631
 10
804.401961903922
 20
1879.345581595202
 10
804.4668931452225
 20
1879.392305043442
 10
804.5336408880414
 20
1879.436394560798
 10
804.6020983502295
 20
1879.47777961345
 10
804.6721560144503
 20
1879.51639399414
 10
804.7437018033857
 20
1879.552175928098
 10
804.8166212590361
 20
1879.585068171862
 10
804.8907977258277
 20
1879.615018104858
 10
804.9661125372372
 20
1879.641977813583
 10
805.0424452056327
 20
1879.665904168254
 10
805.1196736150275
 20
1879.686758891808
 10
805.1976742164418
 20
1879.704508621135
 10
805.2763222255522
 20
1879.719124960455
 10
805.355491822322
 20
1879.730584526743
 10
805.4350563522843
 20
1879.738868987138
 10
805.5148885291647
 20
1879.74396508827
 10
805.5948606385095
 20
1879.745864677464
 10
805.6023579815684
 20
1879.745878730052
1001
REVIT
1002
{
1070
     3
1000
790271
1002
}
  0
LINE
  5
199
330
153
100
AcDbEntity
  8
P-PIPE
370
    18
100
AcDbLine
 10
805.6023579815684
 20
1842.745878730052
 30
0.0
 11
818.4835558280514
 21
1842.745878730052
 31
0.0
1001
REVIT
1002
{
1070
     3
1000
790271
1002
}
  0
LINE
  5
19A
330
153
100
AcDbEntity
  8
P-PIPE
370
    18
100
AcDbLine
 10
818.4835558280514
 20
1879.745878730052
 30
0.0
 11
805.6023579815684
 21
1879.745878730052
 31
0.0
1001
REVIT
1002
{
1070
     3
1000
790271
1002
}
  0
LWPOLYLINE
  5
19B
330
153
100
AcDbEntity
  8
P-PIPE
370
    18
100
AcDbPolyline
 90
       28
 70
   128
 43
0.0
 10
820.2156066356204
 20
1841.745878730052
 10
820.1742318455298
 20
1841.814342395285
 10
820.1301523344698
 20
1841.88109674658
 10
820.0834386202545
 20
1841.946034991217
 10
820.0341654348619
 20
1842.009053241854
 10
819.9824116048775
 20
1842.070050682736
 10
819.9282599253891
 20
1842.128929730969
 10
819.8717970275319
 20
1842.185596192635
 10
819.8131132398978
 20
1842.239959413484
 10
819.752302444029
 20
1842.291932423959
 10
819.6894619242257
 20
1842.341432078333
 10
819.6246922119147
 20
1842.388379187715
 10
819.5580969248194
 20
1842.432698646746
 10
819.4897826011921
 20
1842.474319553747
 10
819.4198585293781
 20
1842.513175324144
 10
819.3484365729759
 20
1842.549203796993
 10
819.2756309918802
 20
1842.582347334425
 10
819.2015582594891
 20
1842.612552913848
 10
819.1263368763731
 20
1842.63977221278
 10
819.0500871806998
 20
1842.663961686148
 10
818.9729311557155
 20
1842.685082635956
 10
818.8949922346013
 20
1842.70310127319
 10
818.816395103005
 20
1842.717988771872
 10
818.7372654995709
 20
1842.729721315183
 10
818.657730014784
 20
1842.738280133554
 10
818.5779158884539
 20
1842.743651534702
 10
818.4979508061557
 20
1842.745826925532
 10
818.4835558280514
 20
1842.745878730052
1001
REVIT
1002
{
1070
     3
1000
790271
1002
}
  0
LWPOLYLINE
  5
19C
330
153
100
AcDbEntity
  8
P-PIPE
370
    18
100
AcDbPolyline
 90
       28
 70
   128
 43
0.0
 10
818.4835558280514
 20
1879.745878730052
 10
818.5635344964246
 20
1879.74747851673
 10
818.6433852159899
 20
1879.752275317447
 10
818.7229802426292
 20
1879.760261458344
 10
818.8021922412799
 20
1879.771424163301
 10
818.8808944896415
 20
1879.785745574369
 10
818.9589610809058
 20
1879.803202780348
 10
819.0362671251795
 20
1879.82376785343
 10
819.1126889492837
 20
1879.847407893887
 10
819.1881042946015
 20
1879.874085082696
 10
819.2623925126685
 20
1879.903756742046
 10
819.3354347581834
 20
1879.936375403612
 10
819.4071141791344
 20
1879.971888884493
 10
819.4773161037389
 20
1880.010240370697
 10
819.5459282238932
 20
1880.051368508025
 10
819.6128407748416
 20
1880.095207500233
 10
819.6779467107763
 20
1880.141687214283
 10
819.7411418760884
 20
1880.19073329255
 10
819.8023251719943
 20
1880.24226727177
 10
819.8613987182724
 20
1880.29620670857
 10
819.9182680098504
 20
1880.352465311358
 10
819.9728420679932
 20
1880.410953078369
 10
820.0250335858493
 20
1880.471576441655
 10
820.0747590681242
 20
1880.534238416765
 10
820.1219389646535
 20
1880.598838757907
 10
820.1664977976671
 20
1880.665274118316
 10
820.208364282538
 20
1880.733438215586
 10
820.2156066356204
 20
1880.745878730052
1001
REVIT
1002
{
1070
     3
1000
790271
1002
}
  0
LINE
  5
19D
330
153
100
AcDbEntity
  8
P-PIPE
370
    18
100
AcDbLine
 10
820.2156066356204
 20
1841.745878730052
 30
0.0
 11
821.3703071739995
 21
1839.745878730052
 31
0.0
1001
REVIT
1002
{
1070
     3
1000
790271
1002
}
  0
LINE
  5
19E
330
153
100
AcDbEntity
  8
P-PIPE
370
    18
100
AcDbLine
 10
821.3703071739995
 20
1882.745878730052
 30
0.0
 11
820.2156066356204
 21
1880.745878730052
 31
0.0
1001
REVIT
1002
{
1070
     3
1000
790271
1002
}
  0
LWPOLYLINE
  5
19F
330
153
100
AcDbEntity
  8
P-PIPE
370
    18
100
AcDbPolyline
 90
       28
 70
   128
 43
0.0
 10
823.1023579815683
 20
1838.745878730052
 10
823.0223793131951
 20
1838.74747851673
 10
822.9425285936301
 20
1838.752275317447
 10
822.8629335669905
 20
1838.760261458345
 10
822.7837215683399
 20
1838.771424163301
 10
822.7050193199783
 20
1838.785745574369
 10
822.6269527287142
 20
1838.803202780348
 10
822.5496466844401
 20
1838.823767853431
 10
822.4732248603363
 20
1838.847407893887
 10
822.3978095150183
 20
1838.874085082696
 10
822.3235212969511
 20
1838.903756742046
 10
822.2504790514364
 20
1838.936375403612
 10
822.1787996304856
 20
1838.971888884493
 10
822.1085977058809
 20
1839.010240370697
 10
822.0399855857268
 20
1839.051368508025
 10
821.9730730347784
 20
1839.095207500233
 10
821.9079670988437
 20
1839.141687214284
 10
821.8447719335316
 20
1839.19073329255
 10
821.7835886376256
 20
1839.242267271771
 10
821.7245150913475
 20
1839.29620670857
 10
821.6676457997694
 20
1839.352465311358
 10
821.6130717416268
 20
1839.41095307837
 10
821.5608802237705
 20
1839.471576441655
 10
821.5111547414956
 20
1839.534238416765
 10
821.4639748449664
 20
1839.598838757907
 10
821.4194160119527
 20
1839.665274118316
 10
821.3775495270818
 20
1839.733438215586
 10
821.3703071739995
 20
1839.745878730052
1001
REVIT
1002
{
1070
     3
1000
790271
1002
}
  0
LWPOLYLINE
  5
1A0
330
153
100
AcDbEntity
  8
P-PIPE
370
    18
100
AcDbPolyline
 90
       28
 70
   128
 43
0.0
 10
821.3703071739995
 20
1882.745878730052
 10
821.4116819640899
 20
1882.814342395285
 10
821.4557614751502
 20
1882.881096746581
 10
821.5024751893652
 20
1882.946034991217
 10
821.5517483747579
 20
1883.009053241854
 10
821.6035022047421
 20
1883.070050682736
 10
821.6576538842307
 20
1883.128929730968
 10
821.7141167820878
 20
1883.185596192635
 10
821.7728005697219
 20
1883.239959413484
 10
821.833611365591
 20
1883.29193242396
 10
821.8964518853942
 20
1883.341432078333
 10
821.9612215977049
 20
1883.388379187715
 10
822.0278168848006
 20
1883.432698646746
 10
822.0961312084277
 20
1883.474319553747
 10
822.1660552802415
 20
1883.513175324144
 10
822.2374772366437
 20
1883.549203796993
 10
822.3102828177397
 20
1883.582347334425
 10
822.3843555501307
 20
1883.612552913848
 10
822.4595769332465
 20
1883.639772212779
 10
822.5358266289202
 20
1883.663961686148
 10
822.6129826539045
 20
1883.685082635956
 10
822.6909215750186
 20
1883.703101273189
 10
822.7695187066149
 20
1883.717988771872
 10
822.8486483100491
 20
1883.729721315183
 10
822.9281837948359
 20
1883.738280133554
 10
823.0079979211659
 20
1883.743651534702
 10
823.0879630034639
 20
1883.745826925532
 10
823.1023579815683
 20
1883.745878730052
1001
REVIT
1002
{
1070
     3
1000
790271
1002
}
  0
LINE
  5
1A1
330
153
100
AcDbEntity
  8
P-PIPE
370
    18
100
AcDbLine
 10
823.1023579815683
 20
1838.745878730052
 30
0.0
 11
823.947657443189
 21
1838.745878730052
 31
0.0
1001
REVIT
1002
{
1070
     3
1000
790271
1002
}
  0
LINE
  5
1A2
330
153
100
AcDbEntity
  8
P-PIPE
370
    18
100
AcDbLine
 10
823.947657443189
 20
1883.745878730052
 30
0.0
 11
823.1023579815683
 21
1883.745878730052
 31
0.0
1001
REVIT
1002
{
1070
     3
1000
790271
1002
}
  0
LWPOLYLINE
  5
1A3
330
153
100
AcDbEntity
  8
P-PIPE
370
    18
100
AcDbPolyline
 90
       15
 70
   128
 43
0.0
 10
771.7156066356202
 20
1842.181777114914
 10
771.6770027573374
 20
1842.251840566825
 10
771.6412315488325
 20
1842.323391718838
 10
771.6083502364081
 20
1842.396316104371
 10
771.57841142315
 20
1842.470497059965
 10
771.5514630047729
 20
1842.545815911916
 10
771.5275480929971
 20
1842.622152166126
 10
771.5067049465804
 20
1842.699383700875
 10
771.4889669101104
 20
1842.777386962181
 10
771.4743623606615
 20
1842.856037161466
 10
771.4629146623975
 20
1842.935208475189
 10
771.4546421291937
 20
1843.014774246137
 10
771.4495579953383
 20
1843.09460718605
 10
771.447670394361
 20
1843.174579579254
 10
771.447657443189
 20
1843.181777114914
1001
REVIT
1002
{
1070
     3
1000
790271
1002
}
  0
LWPOLYLINE
  5
1A4
330
153
100
AcDbEntity
  8
P-PIPE
370
    18
100
AcDbPolyline
 90
       41
 70
   128
 43
0.0
 10
771.447657443189
 20
1861.245878730052
 10
771.447657443189
 20
1860.523507333783
 10
771.447657443189
 20
1859.80229157765
 10
771.447657443189
 20
1859.083385253013
 10
771.447657443189
 20
1858.367938456631
 10
771.447657443189
 20
1857.657095750758
 10
771.447657443189
 20
1856.951994332087
 10
771.447657443189
 20
1856.253762212473
 10
771.447657443189
 20
1855.563516414358
 10
771.447657443189
 20
1854.882361183776
 10
771.447657443189
 20
1854.21138622379
 10
771.447657443189
 20
1853.551664951202
 10
771.447657443189
 20
1852.904252779316
 10
771.447657443189
 20
1852.270185429499
 10
771.447657443189
 20
1851.65047727425
 10
771.447657443189
 20
1851.046119714421
 10
771.447657443189
 20
1850.458079593185
 10
771.447657443189
 20
1849.887297649293
 10
771.447657443189
 20
1849.334687012095
 10
771.447657443189
 20
1848.801131740728
 10
771.447657443189
 20
1848.287485409805
 10
771.447657443189
 20
1847.794569743885
 10
771.447657443189
 20
1847.323173302884
 10
771.447657443189
 20
1846.874050220547
 10
771.447657443189
 20
1846.447918997999
 10
771.447657443189
 20
1846.045461354292
 10
771.447657443189
 20
1845.667321135804
 10
771.447657443189
 20
1845.314103286218
 10
771.447657443189
 20
1844.986372878745
 10
771.447657443189
 20
1844.684654212124
 10
771.447657443189
 20
1844.40942997186
 10
771.447657443189
 20
1844.161140458024
 10
771.447657443189
 20
1843.940182880874
 10
771.447657443189
 20
1843.746910725397
 10
771.447657443189
 20
1843.581633185814
 10
771.447657443189
 20
1843.44461467093
 10
771.447657443189
 20
1843.336074381141
 10
771.447657443189
 20
1843.256185957755
 10
771.447657443189
 20
1843.205077205208
 10
771.447657443189
 20
1843.182829886602
 10
771.447657443189
 20
1843.181777114914
1001
REVIT
1002
{
1070
     3
1000
790271
1002
}
  0
LWPOLYLINE
  5
1A5
330
153
100
AcDbEntity
  8
P-PIPE
370
    18
100
AcDbPolyline
 90
       12
 70
   128
 43
0.0
 10
771.447657443189
 20
1843.181777114914
 10
771.447657443189
 20
1843.196226469472
 10
771.447657443189
 20
1843.239551417259
 10
771.447657443189
 20
1843.311682647602
 10
771.447657443189
 20
1843.412504765918
 10
771.447657443189
 20
1843.541856478328
 10
771.447657443189
 20
1843.699530849683
 10
771.447657443189
 20
1843.885275634625
 10
771.447657443189
 20
1844.098793681123
 10
771.447657443189
 20
1844.339743405849
 10
771.447657443189
 20
1844.607739340644
 10
771.447657443189
 20
1844.745878730052
1001
REVIT
1002
{
1070
     3
1000
790271
1002
}
  0
LWPOLYLINE
  5
1A6
330
153
100
AcDbEntity
  8
P-PIPE
370
    18
100
AcDbPolyline
 90
       15
 70
   128
 43
0.0
 10
771.447657443189
 20
1879.30998034519
 10
771.4492572298673
 20
1879.389959013563
 10
771.4540540305839
 20
1879.469809733128
 10
771.4620401714815
 20
1879.549404759768
 10
771.4732028764379
 20
1879.628616758418
 10
771.4875242875066
 20
1879.70731900678
 10
771.5049814934851
 20
1879.785385598044
 10
771.5255465665676
 20
1879.862691642318
 10
771.5491866070244
 20
1879.939113466422
 10
771.5758637958332
 20
1880.01452881174
 10
771.6055354551834
 20
1880.088817029807
 10
771.6381541167492
 20
1880.161859275322
 10
771.6736675976305
 20
1880.233538696273
 10
771.7120190838337
 20
1880.303740620878
 10
771.7156066356202
 20
1880.30998034519
1001
REVIT
1002
{
1070
     3
1000
790271
1002
}
  0
LWPOLYLINE
  5
1A7
330
153
100
AcDbEntity
  8
P-PIPE
370
    18
100
AcDbPolyline
 90
       13
 70
   128
 43
0.0
 10
771.447657443189
 20
1877.745878730052
 10
771.447657443189
 20
1877.807103247979
 10
771.447657443189
 20
1878.082327488244
 10
771.447657443189
 20
1878.33061700208
 10
771.447657443189
 20
1878.55157457923
 10
771.447657443189
 20
1878.744846734707
 10
771.447657443189
 20
1878.91012427429
 10
771.447657443189
 20
1879.047142789174
 10
771.447657443189
 20
1879.155683078964
 10
771.447657443189
 20
1879.235571502349
 10
771.447657443189
 20
1879.286680254896
 10
771.447657443189
 20
1879.308927573502
 10
771.447657443189
 20
1879.30998034519
1001
REVIT
1002
{
1070
     3
1000
790271
1002
}
  0
LWPOLYLINE
  5
1A8
330
153
100
AcDbEntity
  8
P-PIPE
370
    18
100
AcDbPolyline
 90
       41
 70
   128
 43
0.0
 10
771.447657443189
 20
1879.30998034519
 10
771.447657443189
 20
1879.295530990632
 10
771.447657443189
 20
1879.252206042845
 10
771.447657443189
 20
1879.180074812502
 10
771.447657443189
 20
1879.079252694186
 10
771.447657443189
 20
1878.949900981776
 10
771.447657443189
 20
1878.792226610421
 10
771.447657443189
 20
1878.606481825479
 10
771.447657443189
 20
1878.392963778981
 10
771.447657443189
 20
1878.152014054255
 10
771.447657443189
 20
1877.88401811946
 10
771.447657443189
 20
1877.589404710922
 10
771.447657443189
 20
1877.268645147248
 10
771.447657443189
 20
1876.922252575315
 10
771.447657443189
 20
1876.550781149343
 10
771.447657443189
 20
1876.154825144373
 10
771.447657443189
 20
1875.735018005545
 10
771.447657443189
 20
1875.292031334728
 10
771.447657443189
 20
1874.826573816096
 10
771.447657443189
 20
1874.339390082387
 10
771.447657443189
 20
1873.831259523647
 10
771.447657443189
 20
1873.302995040376
 10
771.447657443189
 20
1872.755441743057
 10
771.447657443189
 20
1872.189475600158
 10
771.447657443189
 20
1871.606002036777
 10
771.447657443189
 20
1871.005954486147
 10
771.447657443189
 20
1870.390292896346
 10
771.447657443189
 20
1869.760002194583
 10
771.447657443189
 20
1869.116090711526
 10
771.447657443189
 20
1868.459588568189
 10
771.447657443189
 20
1867.791546027952
 10
771.447657443189
 20
1867.113031816373
 10
771.447657443189
 20
1866.425131411449
 10
771.447657443189
 20
1865.728945307083
 10
771.447657443189
 20
1865.025587252531
 10
771.447657443189
 20
1864.316182470637
 10
771.447657443189
 20
1863.601865857721
 10
771.447657443189
 20
1862.883780167985
 10
771.447657443189
 20
1862.163074185349
 10
771.447657443189
 20
1861.440900885641
 10
771.447657443189
 20
1861.245878730052
1001
REVIT
1002
{
1070
     3
1000
790271
1002
}
  0
LINE
  5
1A9
330
153
100
AcDbEntity
  8
P-PIPE
370
    18
100
AcDbLine
 10
771.7156066356202
 20
1842.181777114914
 30
0.0
 11
773.1221271019426
 21
1839.745612205358
 31
0.0
1001
REVIT
1002
{
1070
     3
1000
790271
1002
}
  0
LINE
  5
1AA
330
153
100
AcDbEntity
  8
P-PIPE
370
    18
100
AcDbLine
 10
773.1221271019426
 20
1882.746145254746
 30
0.0
 11
771.7156066356202
 21
1880.30998034519
 31
0.0
1001
REVIT
1002
{
1070
     3
1000
790271
1002
}
  0
LINE
  5
1AB
330
153
100
AcDbEntity
  8
P-PIPE
370
    18
100
AcDbLine
 10
787.3031843466841
 20
1839.745643986579
 30
0.0
 11
787.447657443189
 21
1839.995878730052
 31
0.0
1001
REVIT
1002
{
1070
     3
1000
790271
1002
}
  0
LINE
  5
1AC
330
153
100
AcDbEntity
  8
P-PIPE
370
    18
100
AcDbLine
 10
787.447657443189
 20
1882.495878730052
 30
0.0
 11
787.3031843466841
 21
1882.746113473525
 31
0.0
1001
REVIT
1002
{
1070
     3
1000
790271
1002
}
  0
LINE
  5
1AD
330
153
100
AcDbEntity
  8
P-PIPE
370
    18
100
AcDbLine
 10
842.4476574431892
 20
1841.495878730052
 30
0.0
 11
843.885157443189
 21
1841.495878730052
 31
0.0
1001
REVIT
1002
{
1070
     3
1000
790271
1002
}
  0
LINE
  5
1AE
330
153
100
AcDbEntity
  8
P-PIPE
370
    18
100
AcDbLine
 10
843.8851574431891
 20
1880.995878730052
 30
0.0
 11
842.4476574431892
 21
1880.995878730052
 31
0.0
1001
REVIT
1002
{
1070
     3
1000
790271
1002
}
  0
LINE
  5
1AF
330
153
100
AcDbEntity
  8
P-PIPE
370
    18
100
AcDbLine
 10
841.2674214910294
 20
1841.495878730052
 30
0.0
 11
842.4476574431892
 21
1841.495878730052
 31
0.0
1001
REVIT
1002
{
1070
     3
1000
790271
1002
}
  0
LINE
  5
1B0
330
153
100
AcDbEntity
  8
P-PIPE
370
    18
100
AcDbLine
 10
842.4476574431892
 20
1880.995878730052
 30
0.0
 11
841.2674214910294
 21
1880.995878730052
 31
0.0
1001
REVIT
1002
{
1070
     3
1000
790271
1002
}
  0
LWPOLYLINE
  5
1B1
330
153
100
AcDbEntity
  8
P-PIPE
370
    18
100
AcDbPolyline
 90
       28
 70
   128
 43
0.0
 10
841.2674214910294
 20
1841.495878730052
 10
841.1874428226562
 20
1841.494278943374
 10
841.1075921030912
 20
1841.489482142657
 10
841.0279970764516
 20
1841.48149600176
 10
840.9487850778011
 20
1841.470333296803
 10
840.8700828294394
 20
1841.456011885734
 10
840.7920162381753
 20
1841.438554679756
 10
840.7147101939013
 20
1841.417989606673
 10
840.6382883697974
 20
1841.394349566217
 10
840.5628730244794
 20
1841.367672377408
 10
840.4885848064122
 20
1841.338000718058
 10
840.4155425608976
 20
1841.305382056492
 10
840.3438631399465
 20
1841.269868575611
 10
840.2736612153422
 20
1841.231517089407
 10
840.2050490951877
 20
1841.190388952079
 10
840.1381365442395
 20
1841.146549959871
 10
840.0730306083048
 20
1841.10007024582
 10
840.0098354429927
 20
1841.051024167554
 10
839.9486521470866
 20
1840.999490188334
 10
839.8895786008083
 20
1840.945550751534
 10
839.8327093092305
 20
1840.889292148746
 10
839.7781352510879
 20
1840.830804381735
 10
839.7259437332317
 20
1840.770181018449
 10
839.6762182509569
 20
1840.707519043339
 10
839.6290383544275
 20
1840.642918702197
 10
839.5844795214136
 20
1840.576483341789
 10
839.5426130365427
 20
1840.508319244517
 10
839.5353706834606
 20
1840.495878730052
1001
REVIT
1002
{
1070
     3
1000
790271
1002
}
  0
LWPOLYLINE
  5
1B2
330
153
100
AcDbEntity
  8
P-PIPE
370
    18
100
AcDbPolyline
 90
       28
 70
   128
 43
0.0
 10
839.5353706834606
 20
1881.995878730052
 10
839.576745473551
 20
1881.927415064819
 10
839.6208249846111
 20
1881.860660713524
 10
839.6675386988263
 20
1881.795722468887
 10
839.716811884219
 20
1881.73270421825
 10
839.7685657142034
 20
1881.671706777368
 10
839.822717393692
 20
1881.612827729136
 10
839.8791802915489
 20
1881.556161267469
 10
839.937864079183
 20
1881.50179804662
 10
839.9986748750521
 20
1881.449825036144
 10
840.0615153948553
 20
1881.400325381771
 10
840.1262851071662
 20
1881.353378272389
 10
840.1928803942617
 20
1881.309058813358
 10
840.261194717889
 20
1881.267437906357
 10
840.3311187897028
 20
1881.22858213596
 10
840.4025407461048
 20
1881.192553663111
 10
840.4753463272008
 20
1881.15941012568
 10
840.549419059592
 20
1881.129204546256
 10
840.6246404427076
 20
1881.101985247324
 10
840.7008901383813
 20
1881.077795773956
 10
840.7780461633656
 20
1881.056674824148
 10
840.8559850844797
 20
1881.038656186915
 10
840.9345822160759
 20
1881.023768688232
 10
841.01371181951
 20
1881.012036144922
 10
841.0932473042969
 20
1881.00347732655
 10
841.1730614306272
 20
1880.998105925401
 10
841.253026512925
 20
1880.995930534572
 10
841.2674214910294
 20
1880.995878730052
1001
REVIT
1002
{
1070
     3
1000
790271
1002
}
  0
LINE
  5
1B3
330
153
100
AcDbEntity
  8
P-PIPE
370
    18
100
AcDbLine
 10
838.5250077123787
 20
1838.745878730052
 30
0.0
 11
839.5353706834606
 21
1840.495878730052
 31
0.0
1001
REVIT
1002
{
1070
     3
1000
790271
1002
}
  0
LINE
  5
1B4
330
153
100
AcDbEntity
  8
P-PIPE
370
    18
100
AcDbLine
 10
839.5353706834606
 20
1881.995878730052
 30
0.0
 11
838.5250077123787
 21
1883.745878730052
 31
0.0
1001
REVIT
1002
{
1070
     3
1000
790271
1002
}
  0
LWPOLYLINE
  5
1B5
330
153
100
AcDbEntity
  8
P-PIPE
370
    18
100
AcDbPolyline
 90
       28
 70
   128
 43
0.0
 10
838.5250077123787
 20
1838.745878730052
 10
838.4836329222883
 20
1838.677415064819
 10
838.4395534112281
 20
1838.610660713523
 10
838.392839697013
 20
1838.545722468888
 10
838.3435665116204
 20
1838.48270421825
 10
838.291812681636
 20
1838.421706777368
 10
838.2376610021477
 20
1838.362827729136
 10
838.1811981042904
 20
1838.306161267469
 10
838.1225143166563
 20
1838.25179804662
 10
838.0617035207873
 20
1838.199825036144
 10
837.9988630009842
 20
1838.150325381771
 10
837.9340932886734
 20
1838.103378272389
 10
837.8674980015778
 20
1838.059058813358
 10
837.7991836779505
 20
1838.017437906357
 10
837.7292596061366
 20
1837.97858213596
 10
837.6578376497345
 20
1837.942553663111
 10
837.5850320686385
 20
1837.90941012568
 10
837.5109593362475
 20
1837.879204546256
 10
837.4357379531316
 20
1837.851985247325
 10
837.3594882574582
 20
1837.827795773956
 10
837.2823322324739
 20
1837.806674824148
 10
837.2043933113596
 20
1837.788656186915
 10
837.1257961797633
 20
1837.773768688232
 10
837.0466665763292
 20
1837.762036144922
 10
836.9671310915425
 20
1837.75347732655
 10
836.8873169652124
 20
1837.748105925402
 10
836.8073518829143
 20
1837.745930534572
 10
836.7929569048099
 20
1837.745878730052
1001
REVIT
1002
{
1070
     3
1000
790271
1002
}
  0
LWPOLYLINE
  5
1B6
330
153
100
AcDbEntity
  8
P-PIPE
370
    18
100
AcDbPolyline
 90
       28
 70
   128
 43
0.0
 10
836.7929569048099
 20
1884.745878730052
 10
836.8729355731831
 20
1884.744278943374
 10
836.9527862927482
 20
1884.739482142657
 10
837.0323813193877
 20
1884.73149600176
 10
837.1115933180384
 20
1884.720333296803
 10
837.1902955663999
 20
1884.706011885734
 10
837.2683621576642
 20
1884.688554679756
 10
837.345668201938
 20
1884.667989606674
 10
837.4220900260421
 20
1884.644349566217
 10
837.4975053713599
 20
1884.617672377408
 10
837.571793589427
 20
1884.588000718058
 10
837.6448358349419
 20
1884.555382056492
 10
837.7165152558928
 20
1884.519868575611
 10
837.7867171804975
 20
1884.481517089407
 10
837.8553293006516
 20
1884.440388952079
 10
837.9222418515999
 20
1884.396549959871
 10
837.9873477875346
 20
1884.350070245821
 10
838.0505429528467
 20
1884.301024167554
 10
838.1117262487528
 20
1884.249490188334
 10
838.1707997950309
 20
1884.195550751534
 10
838.2276690866088
 20
1884.139292148746
 10
838.2822431447516
 20
1884.080804381735
 10
838.3344346626078
 20
1884.020181018449
 10
838.3841601448827
 20
1883.957519043339
 10
838.431340041412
 20
1883.892918702197
 10
838.4758988744255
 20
1883.826483341788
 10
838.5177653592965
 20
1883.758319244518
 10
838.5250077123787
 20
1883.745878730052
1001
REVIT
1002
{
1070
     3
1000
790271
1002
}
  0
LINE
  5
1B7
330
153
100
AcDbEntity
  8
P-PIPE
370
    18
100
AcDbLine
 10
824.4476574431892
 20
1837.745878730052
 30
0.0
 11
836.7929569048099
 21
1837.745878730052
 31
0.0
1001
REVIT
1002
{
1070
     3
1000
790271
1002
}
  0
LINE
  5
1B8
330
153
100
AcDbEntity
  8
P-PIPE
370
    18
100
AcDbLine
 10
836.7929569048099
 20
1884.745878730052
 30
0.0
 11
824.4476574431892
 21
1884.745878730052
 31
0.0
1001
REVIT
1002
{
1070
     3
1000
790271
1002
}
  0
LINE
  5
1B9
330
153
100
AcDbEntity
  8
P-PIPE
370
    18
100
AcDbLine
 10
823.947657443189
 20
1838.245878730052
 30
0.0
 11
824.4476574431892
 21
1837.745878730052
 31
0.0
1001
REVIT
1002
{
1070
     3
1000
790271
1002
}
  0
LINE
  5
1BA
330
153
100
AcDbEntity
  8
P-PIPE
370
    18
100
AcDbLine
 10
824.4476574431892
 20
1884.745878730052
 30
0.0
 11
823.947657443189
 21
1884.245878730052
 31
0.0
1001
REVIT
1002
{
1070
     3
1000
790271
1002
}
  0
LWPOLYLINE
  5
1BB
330
153
100
AcDbEntity
  8
P-PIPE
370
    18
100
AcDbPolyline
 90
       15
 70
   128
 43
0.0
 10
859.8851574431893
 20
1843.181777114914
 10
859.8835576565111
 20
1843.101798446541
 10
859.8787608557945
 20
1843.021947726976
 10
859.8707747148967
 20
1842.942352700336
 10
859.8596120099404
 20
1842.863140701686
 10
859.8452905988716
 20
1842.784438453324
 10
859.8278333928933
 20
1842.70637186206
 10
859.8072683198106
 20
1842.629065817786
 10
859.783628279354
 20
1842.552643993682
 10
859.7569510905451
 20
1842.477228648364
 10
859.7272794311949
 20
1842.402940430297
 10
859.694660769629
 20
1842.329898184782
 10
859.6591472887478
 20
1842.258218763831
 10
859.6207958025447
 20
1842.188016839227
 10
859.6172082507582
 20
1842.181777114914
1001
REVIT
1002
{
1070
     3
1000
790271
1002
}
  0
LWPOLYLINE
  5
1BC
330
153
100
AcDbEntity
  8
P-PIPE
370
    18
100
AcDbPolyline
 90
       13
 70
   128
 43
0.0
 10
859.8851574431893
 20
1844.745878730052
 10
859.8851574431893
 20
1844.684654212124
 10
859.8851574431893
 20
1844.40942997186
 10
859.8851574431893
 20
1844.161140458024
 10
859.8851574431893
 20
1843.940182880874
 10
859.8851574431893
 20
1843.746910725397
 10
859.8851574431893
 20
1843.581633185814
 10
859.8851574431893
 20
1843.44461467093
 10
859.8851574431893
 20
1843.33607438114
 10
859.8851574431893
 20
1843.256185957755
 10
859.8851574431893
 20
1843.205077205208
 10
859.8851574431893
 20
1843.182829886602
 10
859.8851574431893
 20
1843.181777114914
1001
REVIT
1002
{
1070
     3
1000
790271
1002
}
  0
LWPOLYLINE
  5
1BD
330
153
100
AcDbEntity
  8
P-PIPE
370
    18
100
AcDbPolyline
 90
       41
 70
   128
 43
0.0
 10
859.8851574431893
 20
1843.181777114914
 10
859.8851574431893
 20
1843.196226469472
 10
859.8851574431893
 20
1843.239551417259
 10
859.8851574431893
 20
1843.311682647602
 10
859.8851574431893
 20
1843.412504765918
 10
859.8851574431893
 20
1843.541856478328
 10
859.8851574431893
 20
1843.699530849683
 10
859.8851574431893
 20
1843.885275634625
 10
859.8851574431893
 20
1844.098793681123
 10
859.8851574431893
 20
1844.339743405849
 10
859.8851574431893
 20
1844.607739340644
 10
859.8851574431893
 20
1844.902352749182
 10
859.8851574431893
 20
1845.223112312856
 10
859.8851574431893
 20
1845.56950488479
 10
859.8851574431893
 20
1845.940976310761
 10
859.8851574431893
 20
1846.336932315731
 10
859.8851574431893
 20
1846.756739454559
 10
859.8851574431893
 20
1847.199726125376
 10
859.8851574431893
 20
1847.665183644008
 10
859.8851574431893
 20
1848.152367377717
 10
859.8851574431893
 20
1848.660497936457
 10
859.8851574431893
 20
1849.188762419728
 10
859.8851574431893
 20
1849.736315717047
 10
859.8851574431893
 20
1850.302281859946
 10
859.8851574431893
 20
1850.885755423327
 10
859.8851574431893
 20
1851.485802973957
 10
859.8851574431893
 20
1852.101464563758
 10
859.8851574431893
 20
1852.731755265521
 10
859.8851574431893
 20
1853.375666748578
 10
859.8851574431893
 20
1854.032168891916
 10
859.8851574431893
 20
1854.700211432152
 10
859.8851574431893
 20
1855.378725643731
 10
859.8851574431893
 20
1856.066626048655
 10
859.8851574431893
 20
1856.762812153021
 10
859.8851574431893
 20
1857.466170207574
 10
859.8851574431893
 20
1858.175574989467
 10
859.8851574431893
 20
1858.889891602383
 10
859.8851574431893
 20
1859.607977292119
 10
859.8851574431893
 20
1860.328683274756
 10
859.8851574431893
 20
1861.050856574463
 10
859.8851574431893
 20
1861.245878730052
1001
REVIT
1002
{
1070
     3
1000
790271
1002
}
  0
LINE
  5
1BE
330
153
100
AcDbEntity
  8
P-PIPE
370
    18
100
AcDbLine
 10
858.2106877844358
 20
1839.745612205358
 30
0.0
 11
859.6172082507582
 21
1842.181777114914
 31
0.0
1001
REVIT
1002
{
1070
     3
1000
790271
1002
}
  0
LINE
  5
1BF
330
153
100
AcDbEntity
  8
P-PIPE
370
    18
100
AcDbLine
 10
859.6172082507582
 20
1880.30998034519
 30
0.0
 11
858.2106877844358
 21
1882.746145254746
 31
0.0
1001
REVIT
1002
{
1070
     3
1000
790271
1002
}
  0
LINE
  5
1C0
330
153
100
AcDbEntity
  8
P-PIPE
370
    18
100
AcDbLine
 10
843.8851574431891
 20
1839.995878730052
 30
0.0
 11
844.0296305396941
 21
1839.745643986579
 31
0.0
1001
REVIT
1002
{
1070
     3
1000
790271
1002
}
  0
LINE
  5
1C1
330
153
100
AcDbEntity
  8
P-PIPE
370
    18
100
AcDbLine
 10
787.4476574431878
 20
1861.245878730052
 30
0.0
 11
787.4476574431878
 21
1839.995878730052
 31
0.0
1001
REVIT
1002
{
1070
     3
1000
790271
1002
}
  0
LINE
  5
1C2
330
153
100
AcDbEntity
  8
P-PIPE
370
    18
100
AcDbLine
 10
787.4476574431878
 20
1882.495878730052
 30
0.0
 11
787.4476574431878
 21
1861.245878730052
 31
0.0
1001
REVIT
1002
{
1070
     3
1000
790271
1002
}
  0
SPLINE
  5
1C3
330
153
100
AcDbEntity
  8
P-PIPE
370
    18
100
AcDbSpline
210
0.0
220
0.0
230
1.0
 70
     8
 71
     3
 72
    15
 73
    11
 74
     0
 42
0.000000001
 43
0.0000000001
 40
-1.0
 40
-1.0
 40
-1.0
 40
-1.0
 40
-0.875
 40
-0.75
 40
-0.625
 40
-0.484375
 40
-0.375
 40
-0.234375
 40
-0.125
 40
0.0
 40
0.0
 40
0.0
 40
0.0
 10
857.1138761510777
 20
1863.99697255483
 30
0.0
 10
857.1002311287694
 20
1863.940942989991
 30
0.0
 10
857.0688194219753
 20
1863.830025424861
 30
0.0
 10
857.0074342282545
 20
1863.669046625327
 30
0.0
 10
856.9345749717388
 20
1863.500817651444
 30
0.0
 10
856.8449107801299
 20
1863.351581635237
 30
0.0
 10
856.7321628350937
 20
1863.195488323426
 30
0.0
 10
856.6043613163001
 20
1863.076082451388
 30
0.0
 10
856.4376427157016
 20
1862.997245401659
 30
0.0
 10
856.3170878298189
 20
1862.966410161973
 30
0.0
 10
856.2478507472931
 20
1862.95596722606
 30
0.0
1001
REVIT
1002
{
1070
     3
1000
790271
1002
}
  0
SPLINE
  5
1C4
330
153
100
AcDbEntity
  8
P-PIPE
370
    18
100
AcDbSpline
210
0.0
220
0.0
230
1.0
 70
    24
 71
     3
 72
    15
 73
    11
 74
     0
 42
0.000000001
 43
0.0000000001
 40
-1.0
 40
-1.0
 40
-1.0
 40
-1.0
 40
-0.875
 40
-0.75
 40
-0.625
 40
-0.484375
 40
-0.375
 40
-0.234375
 40
-0.125
 40
0.0
 40
0.0
 40
0.0
 40
0.0
 10
857.1138761510777
 20
1882.745878730052
 30
0.0
 10
857.1002311287694
 20
1882.745878730052
 30
0.0
 10
857.0688194219753
 20
1882.745878730052
 30
0.0
 10
857.0074342282545
 20
1882.745878730052
 30
0.0
 10
856.9345749717388
 20
1882.745878730052
 30
0.0
 10
856.8449107801299
 20
1882.745878730052
 30
0.0
 10
856.7321628350937
 20
1882.745878730052
 30
0.0
 10
856.6043613163001
 20
1882.745878730052
 30
0.0
 10
856.4376427157016
 20
1882.745878730052
 30
0.0
 10
856.3170878298189
 20
1882.745878730052
 30
0.0
 10
856.2478507472931
 20
1882.745878730052
 30
0.0
1001
REVIT
1002
{
1070
     3
1000
790271
1002
}
  0
SPLINE
  5
1C5
330
153
100
AcDbEntity
  8
P-PIPE
370
    18
100
AcDbSpline
210
0.0
220
0.0
230
1.0
 70
     8
 71
     3
 72
    15
 73
    11
 74
     0
 42
0.000000001
 43
0.0000000001
 40
-1.0
 40
-1.0
 40
-1.0
 40
-1.0
 40
-0.875
 40
-0.75
 40
-0.625
 40
-0.484375
 40
-0.375
 40
-0.25
 40
-0.125
 40
0.0
 40
0.0
 40
0.0
 40
0.0
 10
856.2478507472931
 20
1881.035790234043
 30
0.0
 10
856.3170878298189
 20
1881.025347298131
 30
0.0
 10
856.4456245834676
 20
1880.992311518306
 30
0.0
 10
856.6108466304298
 20
1880.912159616212
 30
0.0
 10
856.7472544547637
 20
1880.778508981445
 30
0.0
 10
856.8538477421165
 20
1880.62919483052
 30
0.0
 10
856.9401846773827
 20
1880.477194041987
 30
0.0
 10
857.007496491976
 20
1880.322792546099
 30
0.0
 10
857.0688016323407
 20
1880.16170868915
 30
0.0
 10
857.1002311287694
 20
1880.050814470112
 30
0.0
 10
857.1138761510777
 20
1879.994784905273
 30
0.0
1001
REVIT
1002
{
1070
     3
1000
790271
1002
}
  0
LINE
  5
1C6
330
153
100
AcDbEntity
  8
P-PIPE
370
    18
100
AcDbLine
 10
843.8851574431877
 20
1861.245878730052
 30
0.0
 11
843.8851574431877
 21
1882.495878730052
 31
0.0
1001
REVIT
1002
{
1070
     3
1000
790271
1002
}
  0
SPLINE
  5
1C7
330
153
100
AcDbEntity
  8
P-PIPE
370
    18
100
AcDbSpline
210
0.0
220
0.0
230
1.0
 70
     8
 71
     3
 72
     9
 73
     5
 74
     0
 42
0.000000001
 43
0.0000000001
 40
-1.0
 40
-1.0
 40
-1.0
 40
-1.0
 40
-0.5
 40
0.0
 40
0.0
 40
0.0
 40
0.0
 10
845.4151356565404
 20
1862.95596722606
 30
0.0
 10
844.4914184018058
 20
1865.929173204363
 30
0.0
 10
843.5677011470712
 20
1871.915683017331
 30
0.0
 10
844.4914184018056
 20
1877.982388543019
 30
0.0
 10
845.4151356565404
 20
1881.035790234043
 30
0.0
1001
REVIT
1002
{
1070
     3
1000
790271
1002
}
  0
SPLINE
  5
1C8
330
153
100
AcDbEntity
  8
P-PIPE
370
    18
100
AcDbSpline
210
0.0
220
0.0
230
1.0
 70
    24
 71
     3
 72
     9
 73
     5
 74
     0
 42
0.000000001
 43
0.0000000001
 40
-1.0
 40
-1.0
 40
-1.0
 40
-1.0
 40
-0.5
 40
-0.4964267378233697
 40
-0.4964267378233697
 40
-0.4964267378233697
 40
-0.4964267378233697
 10
845.4151356565404
 20
1882.745878730052
 30
0.0
 10
844.4914184018058
 20
1882.745878730052
 30
0.0
 10
844.0262590905099
 20
1882.745878730052
 30
0.0
 10
844.0295833628566
 20
1882.745878730052
 30
0.0
 10
844.0296305396927
 20
1882.745878730052
 30
0.0
1001
REVIT
1002
{
1070
     3
1000
790271
1002
}
  0
LINE
  5
1C9
330
153
100
AcDbEntity
  8
P-PIPE
370
    18
100
AcDbLine
 10
803.9153770050534
 20
1843.682152783923
 30
0.0
 11
803.9153770050534
 21
1861.245878730052
 31
0.0
1001
REVIT
1002
{
1070
     3
1000
790271
1002
}
  0
LINE
  5
1CA
330
153
100
AcDbEntity
  8
P-PIPE
370
    18
100
AcDbLine
 10
803.9153770050534
 20
1861.245878730052
 30
0.0
 11
803.9153770050534
 21
1878.80960467618
 31
0.0
1001
REVIT
1002
{
1070
     3
1000
790271
1002
}
  0
SPLINE
  5
1CB
330
153
100
AcDbEntity
  8
P-PIPE
370
    18
100
AcDbSpline
210
0.0
220
0.0
230
1.0
 70
    24
 71
     3
 72
     9
 73
     5
 74
     0
 42
0.000000001
 43
0.0000000001
 40
0.0
 40
0.0
 40
0.0
 40
0.0
 40
0.5
 40
0.5042609348303526
 40
0.5042609348303526
 40
0.5042609348303526
 40
0.5042609348303526
 10
774.218938735298
 20
1839.745878730052
 30
0.0
 10
773.4876778739086
 20
1839.745878730052
 30
0.0
 10
773.1189315883401
 20
1839.745878730052
 30
0.0
 10
773.1220739961231
 20
1839.745878730052
 30
0.0
 10
773.1221271019413
 20
1839.745878730052
 30
0.0
1001
REVIT
1002
{
1070
     3
1000
790271
1002
}
  0
SPLINE
  5
1CC
330
153
100
AcDbEntity
  8
P-PIPE
370
    18
100
AcDbSpline
210
0.0
220
0.0
230
1.0
 70
     8
 71
     3
 72
     9
 73
     5
 74
     0
 42
0.000000001
 43
0.0000000001
 40
0.0
 40
0.0
 40
0.0
 40
0.0
 40
0.5
 40
1.0
 40
1.0
 40
1.0
 40
1.0
 10
774.218938735298
 20
1858.494784905273
 30
0.0
 10
773.4876778739087
 20
1855.871408134457
 30
0.0
 10
772.7564170125194
 20
1850.581729305233
 30
0.0
 10
773.4876778739086
 20
1845.206199900828
 30
0.0
 10
774.218938735298
 20
1842.49697255483
 30
0.0
1001
REVIT
1002
{
1070
     3
1000
790271
1002
}
  0
SPLINE
  5
1CD
330
153
100
AcDbEntity
  8
P-PIPE
370
    18
100
AcDbSpline
210
0.0
220
0.0
230
1.0
 70
     8
 71
     3
 72
     9
 73
     5
 74
     0
 42
0.000000001
 43
0.0000000001
 40
0.0
 40
0.0
 40
0.0
 40
0.0
 40
0.5
 40
1.0
 40
1.0
 40
1.0
 40
1.0
 10
774.218938735298
 20
1879.994784905273
 30
0.0
 10
773.4876778739087
 20
1877.371408134457
 30
0.0
 10
772.7564170125194
 20
1872.081729305233
 30
0.0
 10
773.4876778739086
 20
1866.706199900828
 30
0.0
 10
774.218938735298
 20
1863.99697255483
 30
0.0
1001
REVIT
1002
{
1070
     3
1000
790271
1002
}
  0
SPLINE
  5
1CE
330
153
100
AcDbEntity
  8
P-PIPE
370
    18
100
AcDbSpline
210
0.0
220
0.0
230
1.0
 70
    24
 71
     3
 72
     8
 73
     4
 74
     0
 42
0.000000001
 43
0.0000000001
 40
0.5
 40
0.5
 40
0.5
 40
0.5
 40
1.0
 40
1.0
 40
1.0
 40
1.0
 10
773.122047443214
 20
1882.745878730052
 30
0.0
 10
773.122047443214
 20
1882.745878730052
 30
0.0
 10
773.4876778739087
 20
1882.745878730052
 30
0.0
 10
774.218938735298
 20
1882.745878730052
 30
0.0
1001
REVIT
1002
{
1070
     3
1000
790271
1002
}
  0
SPLINE
  5
1CF
330
153
100
AcDbEntity
  8
P-PIPE
370
    18
100
AcDbSpline
210
0.0
220
0.0
230
1.0
 70
    24
 71
     3
 72
    15
 73
    11
 74
     0
 42
0.000000001
 43
0.0000000001
 40
0.0
 40
0.0
 40
0.0
 40
0.0
 40
0.125
 40
0.234375
 40
0.375
 40
0.484375
 40
0.625
 40
0.75
 40
0.875
 40
1.0
 40
1.0
 40
1.0
 40
1.0
 10
775.0849641390824
 20
1839.745878730052
 30
0.0
 10
775.0157270565567
 20
1839.745878730052
 30
0.0
 10
774.8951721706739
 20
1839.745878730052
 30
0.0
 10
774.7284535700755
 20
1839.745878730052
 30
0.0
 10
774.6006520512818
 20
1839.745878730052
 30
0.0
 10
774.4879041062457
 20
1839.745878730052
 30
0.0
 10
774.3982399146367
 20
1839.745878730052
 30
0.0
 10
774.3253806581211
 20
1839.745878730052
 30
0.0
 10
774.2639954644004
 20
1839.745878730052
 30
0.0
 10
774.2325837576063
 20
1839.745878730052
 30
0.0
 10
774.218938735298
 20
1839.745878730052
 30
0.0
1001
REVIT
1002
{
1070
     3
1000
790271
1002
}
  0
SPLINE
  5
1D0
330
153
100
AcDbEntity
  8
P-PIPE
370
    18
100
AcDbSpline
210
0.0
220
0.0
230
1.0
 70
     8
 71
     3
 72
    15
 73
    11
 74
     0
 42
0.000000001
 43
0.0000000001
 40
0.0
 40
0.0
 40
0.0
 40
0.0
 40
0.125
 40
0.25
 40
0.375
 40
0.5
 40
0.625
 40
0.75
 40
0.875
 40
1.0
 40
1.0
 40
1.0
 40
1.0
 10
774.218938735298
 20
1842.49697255483
 30
0.0
 10
774.2325837576063
 20
1842.440942989991
 30
0.0
 10
774.2640038021644
 20
1842.330035651228
 30
0.0
 10
774.3253514759467
 20
1842.169010833042
 30
0.0
 10
774.3954339353098
 20
1842.007679753173
 30
0.0
 10
774.4834253952859
 20
1841.857093415459
 30
0.0
 10
774.5909002070207
 20
1841.707604212722
 30
0.0
 10
774.721999631444
 20
1841.579678139423
 30
0.0
 10
774.8871813384798
 20
1841.499423000217
 30
0.0
 10
775.0157270565567
 20
1841.466410161973
 30
0.0
 10
775.0849641390824
 20
1841.45596722606
 30
0.0
1001
REVIT
1002
{
1070
     3
1000
790271
1002
}
  0
SPLINE
  5
1D1
330
153
100
AcDbEntity
  8
P-PIPE
370
    18
100
AcDbSpline
210
0.0
220
0.0
230
1.0
 70
     8
 71
     3
 72
    15
 73
    11
 74
     0
 42
0.000000001
 43
0.0000000001
 40
0.0
 40
0.0
 40
0.0
 40
0.0
 40
0.125
 40
0.234375
 40
0.375
 40
0.484375
 40
0.625
 40
0.75
 40
0.875
 40
1.0
 40
1.0
 40
1.0
 40
1.0
 10
775.0849641390824
 20
1859.535790234043
 30
0.0
 10
775.0157270565567
 20
1859.525347298131
 30
0.0
 10
774.8951721706739
 20
1859.494512058444
 30
0.0
 10
774.7284535700755
 20
1859.415675008715
 30
0.0
 10
774.6006520512817
 20
1859.296269136677
 30
0.0
 10
774.4879041062457
 20
1859.140175824866
 30
0.0
 10
774.3982399146367
 20
1858.990939808659
 30
0.0
 10
774.3253806581211
 20
1858.822710834776
 30
0.0
 10
774.2639954644004
 20
1858.661732035242
 30
0.0
 10
774.2325837576063
 20
1858.550814470112
 30
0.0
 10
774.218938735298
 20
1858.494784905273
 30
0.0
1001
REVIT
1002
{
1070
     3
1000
790271
1002
}
  0
SPLINE
  5
1D2
330
153
100
AcDbEntity
  8
P-PIPE
370
    18
100
AcDbSpline
210
0.0
220
0.0
230
1.0
 70
     8
 71
     3
 72
    15
 73
    11
 74
     0
 42
0.000000001
 43
0.0000000001
 40
0.0
 40
0.0
 40
0.0
 40
0.0
 40
0.125
 40
0.234375
 40
0.375
 40
0.484375
 40
0.625
 40
0.75
 40
0.875
 40
1.0
 40
1.0
 40
1.0
 40
1.0
 10
775.0849641390824
 20
1881.035790234043
 30
0.0
 10
775.0157270565567
 20
1881.025347298131
 30
0.0
 10
774.8951721706739
 20
1880.994512058444
 30
0.0
 10
774.7284535700755
 20
1880.915675008715
 30
0.0
 10
774.6006520512817
 20
1880.796269136677
 30
0.0
 10
774.4879041062457
 20
1880.640175824866
 30
0.0
 10
774.3982399146367
 20
1880.490939808659
 30
0.0
 10
774.3253806581211
 20
1880.322710834776
 30
0.0
 10
774.2639954644004
 20
1880.161732035242
 30
0.0
 10
774.2325837576063
 20
1880.050814470112
 30
0.0
 10
774.218938735298
 20
1879.994784905273
 30
0.0
1001
REVIT
1002
{
1070
     3
1000
790271
1002
}
  0
SPLINE
  5
1D3
330
153
100
AcDbEntity
  8
P-PIPE
370
    18
100
AcDbSpline
210
0.0
220
0.0
230
1.0
 70
    24
 71
     3
 72
    15
 73
    11
 74
     0
 42
0.000000001
 43
0.0000000001
 40
0.0
 40
0.0
 40
0.0
 40
0.0
 40
0.125
 40
0.25
 40
0.375
 40
0.5
 40
0.625
 40
0.75
 40
0.875
 40
1.0
 40
1.0
 40
1.0
 40
1.0
 10
774.218938735298
 20
1882.745878730052
 30
0.0
 10
774.2325837576063
 20
1882.745878730052
 30
0.0
 10
774.2640038021644
 20
1882.745878730052
 30
0.0
 10
774.3253514759467
 20
1882.745878730052
 30
0.0
 10
774.3954339353098
 20
1882.745878730052
 30
0.0
 10
774.4834253952859
 20
1882.745878730052
 30
0.0
 10
774.5909002070207
 20
1882.745878730052
 30
0.0
 10
774.721999631444
 20
1882.745878730052
 30
0.0
 10
774.8871813384798
 20
1882.745878730052
 30
0.0
 10
775.0157270565567
 20
1882.745878730052
 30
0.0
 10
775.0849641390824
 20
1882.745878730052
 30
0.0
1001
REVIT
1002
{
1070
     3
1000
790271
1002
}
  0
SPLINE
  5
1D4
330
153
100
AcDbEntity
  8
P-PIPE
370
    18
100
AcDbSpline
210
0.0
220
0.0
230
1.0
 70
     8
 71
     3
 72
    15
 73
    11
 74
     0
 42
0.000000001
 43
0.0000000001
 40
0.0
 40
0.0
 40
0.0
 40
0.0
 40
0.125
 40
0.25
 40
0.375
 40
0.5
 40
0.625
 40
0.75
 40
0.875
 40
1.0
 40
1.0
 40
1.0
 40
1.0
 10
774.218938735298
 20
1863.99697255483
 30
0.0
 10
774.2325837576063
 20
1863.940942989991
 30
0.0
 10
774.2640038021644
 20
1863.830035651228
 30
0.0
 10
774.3253514759467
 20
1863.669010833041
 30
0.0
 10
774.3954339353098
 20
1863.507679753173
 30
0.0
 10
774.4834253952859
 20
1863.357093415459
 30
0.0
 10
774.5909002070207
 20
1863.207604212722
 30
0.0
 10
774.721999631444
 20
1863.079678139422
 30
0.0
 10
774.8871813384798
 20
1862.999423000217
 30
0.0
 10
775.0157270565567
 20
1862.966410161973
 30
0.0
 10
775.0849641390824
 20
1862.95596722606
 30
0.0
1001
REVIT
1002
{
1070
     3
1000
790271
1002
}
  0
LINE
  5
1D5
330
153
100
AcDbEntity
  8
P-PIPE
370
    18
100
AcDbLine
 10
785.9176792298352
 20
1839.745878730052
 30
0.0
 11
775.0849641390824
 21
1839.745878730052
 31
0.0
1001
REVIT
1002
{
1070
     3
1000
790271
1002
}
  0
LINE
  5
1D6
330
153
100
AcDbEntity
  8
P-PIPE
370
    18
100
AcDbLine
 10
775.0849641390824
 20
1841.45596722606
 30
0.0
 11
785.9176792298352
 21
1841.45596722606
 31
0.0
1001
REVIT
1002
{
1070
     3
1000
790271
1002
}
  0
LINE
  5
1D7
330
153
100
AcDbEntity
  8
P-PIPE
370
    18
100
AcDbLine
 10
785.9176792298352
 20
1859.535790234043
 30
0.0
 11
775.0849641390824
 21
1859.535790234043
 31
0.0
1001
REVIT
1002
{
1070
     3
1000
790271
1002
}
  0
LINE
  5
1D8
330
153
100
AcDbEntity
  8
P-PIPE
370
    18
100
AcDbLine
 10
785.9176792298352
 20
1881.035790234043
 30
0.0
 11
775.0849641390824
 21
1881.035790234043
 31
0.0
1001
REVIT
1002
{
1070
     3
1000
790271
1002
}
  0
LINE
  5
1D9
330
153
100
AcDbEntity
  8
P-PIPE
370
    18
100
AcDbLine
 10
775.0849641390824
 20
1882.745878730052
 30
0.0
 11
785.9176792298352
 21
1882.745878730052
 31
0.0
1001
REVIT
1002
{
1070
     3
1000
790271
1002
}
  0
LINE
  5
1DA
330
153
100
AcDbEntity
  8
P-PIPE
370
    18
100
AcDbLine
 10
775.0849641390824
 20
1862.95596722606
 30
0.0
 11
785.9176792298352
 21
1862.95596722606
 31
0.0
1001
REVIT
1002
{
1070
     3
1000
790271
1002
}
  0
LINE
  5
1DB
330
153
100
AcDbEntity
  8
P-PIPE
370
    18
100
AcDbLine
 10
785.9176792298352
 20
1859.535790234043
 30
0.0
 11
785.9176792298352
 21
1861.245878730051
 31
0.0
1001
REVIT
1002
{
1070
     3
1000
790271
1002
}
  0
SPLINE
  5
1DC
330
153
100
AcDbEntity
  8
P-PIPE
370
    18
100
AcDbSpline
210
0.0
220
0.0
230
1.0
 70
     8
 71
     3
 72
     9
 73
     5
 74
     0
 42
0.000000001
 43
0.0000000001
 40
0.0
 40
0.0
 40
0.0
 40
0.0
 40
0.5
 40
1.0
 40
1.0
 40
1.0
 40
1.0
 10
785.9176792298352
 20
1841.45596722606
 30
0.0
 10
786.8413964845699
 20
1844.509368917084
 30
0.0
 10
787.7651137393045
 20
1850.576074442773
 30
0.0
 10
786.8413964845699
 20
1856.56258425574
 30
0.0
 10
785.9176792298352
 20
1859.535790234043
 30
0.0
1001
REVIT
1002
{
1070
     3
1000
790271
1002
}
  0
LINE
  5
1DD
330
153
100
AcDbEntity
  8
P-PIPE
370
    18
100
AcDbLine
 10
785.9176792298352
 20
1839.745878730051
 30
0.0
 11
785.9176792298352
 21
1841.45596722606
 31
0.0
1001
REVIT
1002
{
1070
     3
1000
790271
1002
}
  0
SPLINE
  5
1DE
330
153
100
AcDbEntity
  8
P-PIPE
370
    18
100
AcDbSpline
210
0.0
220
0.0
230
1.0
 70
    24
 71
     3
 72
     9
 73
     5
 74
     0
 42
0.000000001
 43
0.0000000001
 40
0.496426737823377
 40
0.496426737823377
 40
0.496426737823377
 40
0.496426737823377
 40
0.5
 40
1.0
 40
1.0
 40
1.0
 40
1.0
 10
787.3031843466829
 20
1839.745878730052
 30
0.0
 10
787.303231523519
 20
1839.745878730052
 30
0.0
 10
787.3065557958648
 20
1839.745878730052
 30
0.0
 10
786.8413964846634
 20
1839.745878729959
 30
0.0
 10
785.9176792298352
 20
1839.745878730052
 30
0.0
1001
REVIT
1002
{
1070
     3
1000
790271
1002
}
  0
SPLINE
  5
1DF
330
153
100
AcDbEntity
  8
P-PIPE
370
    18
100
AcDbSpline
210
0.0
220
0.0
230
1.0
 70
    24
 71
     3
 72
     8
 73
     4
 74
     0
 42
0.000000001
 43
0.0000000001
 40
0.0
 40
0.0
 40
0.0
 40
0.0
 40
0.5
 40
0.5
 40
0.5
 40
0.5
 10
785.9176792298352
 20
1882.745878730052
 30
0.0
 10
786.8413964845698
 20
1882.745878730052
 30
0.0
 10
787.3032551119372
 20
1882.745878730052
 30
0.0
 10
787.3032551119372
 20
1882.745878730052
 30
0.0
1001
REVIT
1002
{
1070
     3
1000
790271
1002
}
  0
LINE
  5
1E0
330
153
100
AcDbEntity
  8
P-PIPE
370
    18
100
AcDbLine
 10
785.9176792298352
 20
1881.035790234043
 30
0.0
 11
785.9176792298352
 21
1882.745878730052
 31
0.0
1001
REVIT
1002
{
1070
     3
1000
790271
1002
}
  0
SPLINE
  5
1E1
330
153
100
AcDbEntity
  8
P-PIPE
370
    18
100
AcDbSpline
210
0.0
220
0.0
230
1.0
 70
     8
 71
     3
 72
     9
 73
     5
 74
     0
 42
0.000000001
 43
0.0000000001
 40
0.0
 40
0.0
 40
0.0
 40
0.0
 40
0.5
 40
1.0
 40
1.0
 40
1.0
 40
1.0
 10
785.9176792298352
 20
1862.95596722606
 30
0.0
 10
786.8413964845698
 20
1866.009368917084
 30
0.0
 10
787.7651137393045
 20
1872.076074442773
 30
0.0
 10
786.8413964845698
 20
1878.06258425574
 30
0.0
 10
785.9176792298352
 20
1881.035790234043
 30
0.0
1001
REVIT
1002
{
1070
     3
1000
790271
1002
}
  0
LINE
  5
1E2
330
153
100
AcDbEntity
  8
P-PIPE
370
    18
100
AcDbLine
 10
785.9176792298352
 20
1861.245878730052
 30
0.0
 11
785.9176792298352
 21
1862.95596722606
 31
0.0
1001
REVIT
1002
{
1070
     3
1000
790271
1002
}
  0
LINE
  5
1E3
330
153
100
AcDbEntity
  8
P-PIPE
370
    18
100
AcDbLine
 10
823.9476574431877
 20
1838.245878730052
 30
0.0
 11
823.9476574431877
 21
1861.245878730051
 31
0.0
1001
REVIT
1002
{
1070
     3
1000
790271
1002
}
  0
LINE
  5
1E4
330
153
100
AcDbEntity
  8
P-PIPE
370
    18
100
AcDbLine
 10
823.9476574431877
 20
1861.245878730052
 30
0.0
 11
823.9476574431877
 21
1884.245878730051
 31
0.0
1001
REVIT
1002
{
1070
     3
1000
790271
1002
}
  0
LINE
  5
1E5
330
153
100
AcDbEntity
  8
P-PIPE
370
    18
100
AcDbLine
 10
824.4476574431878
 20
1861.245878730052
 30
0.0
 11
824.447657443188
 21
1837.745878730051
 31
0.0
1001
REVIT
1002
{
1070
     3
1000
790271
1002
}
  0
LINE
  5
1E6
330
153
100
AcDbEntity
  8
P-PIPE
370
    18
100
AcDbLine
 10
824.447657443188
 20
1884.745878730052
 30
0.0
 11
824.4476574431878
 21
1861.245878730052
 31
0.0
1001
REVIT
1002
{
1070
     3
1000
790271
1002
}
  0
SPLINE
  5
1E7
330
153
100
AcDbEntity
  8
P-PIPE
370
    18
100
AcDbSpline
210
0.0
220
0.0
230
1.0
 70
     8
 71
     3
 72
     9
 73
     5
 74
     0
 42
0.000000001
 43
0.0000000001
 40
-1.0
 40
-1.0
 40
-1.0
 40
-1.0
 40
-0.5
 40
0.0
 40
0.0
 40
0.0
 40
0.0
 10
857.1138761510777
 20
1858.494784905273
 30
0.0
 10
857.8451370124669
 20
1855.785557559275
 30
0.0
 10
858.5763978738564
 20
1850.41002815487
 30
0.0
 10
857.8451370124669
 20
1845.120349325646
 30
0.0
 10
857.1138761510777
 20
1842.49697255483
 30
0.0
1001
REVIT
1002
{
1070
     3
1000
790271
1002
}
  0
SPLINE
  5
1E8
330
153
100
AcDbEntity
  8
P-PIPE
370
    18
100
AcDbSpline
210
0.0
220
0.0
230
1.0
 70
    24
 71
     3
 72
     8
 73
     4
 74
     0
 42
0.000000001
 43
0.0000000001
 40
-1.0
 40
-1.0
 40
-1.0
 40
-1.0
 40
-0.5
 40
-0.5
 40
-0.5
 40
-0.5
 10
857.1138761510777
 20
1839.745878730052
 30
0.0
 10
857.8451370124669
 20
1839.745878730052
 30
0.0
 10
858.2107674431615
 20
1839.745878730052
 30
0.0
 10
858.2107674431615
 20
1839.745878730052
 30
0.0
1001
REVIT
1002
{
1070
     3
1000
790271
1002
}
  0
SPLINE
  5
1E9
330
153
100
AcDbEntity
  8
P-PIPE
370
    18
100
AcDbSpline
210
0.0
220
0.0
230
1.0
 70
    24
 71
     3
 72
     9
 73
     5
 74
     0
 42
0.000000001
 43
0.0000000001
 40
-0.5042609348303661
 40
-0.5042609348303661
 40
-0.5042609348303661
 40
-0.5042609348303661
 40
-0.5
 40
0.0
 40
0.0
 40
0.0
 40
0.0
 10
858.2106877844342
 20
1882.745878730052
 30
0.0
 10
858.2107408902524
 20
1882.745878730052
 30
0.0
 10
858.2138832980366
 20
1882.745878730052
 30
0.0
 10
857.8451370123437
 20
1882.745878730052
 30
0.0
 10
857.1138761510777
 20
1882.745878730052
 30
0.0
1001
REVIT
1002
{
1070
     3
1000
790271
1002
}
  0
SPLINE
  5
1EA
330
153
100
AcDbEntity
  8
P-PIPE
370
    18
100
AcDbSpline
210
0.0
220
0.0
230
1.0
 70
     8
 71
     3
 72
     9
 73
     5
 74
     0
 42
0.000000001
 43
0.0000000001
 40
-1.0
 40
-1.0
 40
-1.0
 40
-1.0
 40
-0.5
 40
0.0
 40
0.0
 40
0.0
 40
0.0
 10
857.1138761510777
 20
1879.994784905273
 30
0.0
 10
857.8451370124669
 20
1877.285557559275
 30
0.0
 10
858.5763978738564
 20
1871.91002815487
 30
0.0
 10
857.8451370124669
 20
1866.620349325646
 30
0.0
 10
857.1138761510777
 20
1863.99697255483
 30
0.0
1001
REVIT
1002
{
1070
     3
1000
790271
1002
}
  0
SPLINE
  5
1EB
330
153
100
AcDbEntity
  8
P-PIPE
370
    18
100
AcDbSpline
210
0.0
220
0.0
230
1.0
 70
     8
 71
     3
 72
    15
 73
    11
 74
     0
 42
0.000000001
 43
0.0000000001
 40
-1.0
 40
-1.0
 40
-1.0
 40
-1.0
 40
-0.875
 40
-0.75
 40
-0.625
 40
-0.484375
 40
-0.375
 40
-0.25
 40
-0.125
 40
0.0
 40
0.0
 40
0.0
 40
0.0
 10
856.2478507472931
 20
1859.535790234043
 30
0.0
 10
856.3170878298189
 20
1859.525347298131
 30
0.0
 10
856.4456245834676
 20
1859.492311518306
 30
0.0
 10
856.6108466304298
 20
1859.412159616212
 30
0.0
 10
856.7472544547637
 20
1859.278508981445
 30
0.0
 10
856.8538477421165
 20
1859.12919483052
 30
0.0
 10
856.9401846773827
 20
1858.977194041987
 30
0.0
 10
857.007496491976
 20
1858.822792546099
 30
0.0
 10
857.0688016323407
 20
1858.66170868915
 30
0.0
 10
857.1002311287694
 20
1858.550814470112
 30
0.0
 10
857.1138761510777
 20
1858.494784905273
 30
0.0
1001
REVIT
1002
{
1070
     3
1000
790271
1002
}
  0
SPLINE
  5
1EC
330
153
100
AcDbEntity
  8
P-PIPE
370
    18
100
AcDbSpline
210
0.0
220
0.0
230
1.0
 70
     8
 71
     3
 72
    15
 73
    11
 74
     0
 42
0.000000001
 43
0.0000000001
 40
-1.0
 40
-1.0
 40
-1.0
 40
-1.0
 40
-0.875
 40
-0.75
 40
-0.625
 40
-0.484375
 40
-0.375
 40
-0.234375
 40
-0.125
 40
0.0
 40
0.0
 40
0.0
 40
0.0
 10
857.1138761510777
 20
1842.49697255483
 30
0.0
 10
857.1002311287694
 20
1842.440942989991
 30
0.0
 10
857.0688194219753
 20
1842.330025424861
 30
0.0
 10
857.0074342282545
 20
1842.169046625327
 30
0.0
 10
856.9345749717388
 20
1842.000817651444
 30
0.0
 10
856.8449107801299
 20
1841.851581635237
 30
0.0
 10
856.7321628350939
 20
1841.695488323426
 30
0.0
 10
856.6043613163001
 20
1841.576082451388
 30
0.0
 10
856.4376427157016
 20
1841.497245401659
 30
0.0
 10
856.3170878298189
 20
1841.466410161973
 30
0.0
 10
856.2478507472931
 20
1841.45596722606
 30
0.0
1001
REVIT
1002
{
1070
     3
1000
790271
1002
}
  0
SPLINE
  5
1ED
330
153
100
AcDbEntity
  8
P-PIPE
370
    18
100
AcDbSpline
210
0.0
220
0.0
230
1.0
 70
    24
 71
     3
 72
    15
 73
    11
 74
     0
 42
0.000000001
 43
0.0000000001
 40
-1.0
 40
-1.0
 40
-1.0
 40
-1.0
 40
-0.875
 40
-0.75
 40
-0.625
 40
-0.484375
 40
-0.375
 40
-0.25
 40
-0.125
 40
0.0
 40
0.0
 40
0.0
 40
0.0
 10
856.2478507472931
 20
1839.745878730052
 30
0.0
 10
856.3170878298189
 20
1839.745878730052
 30
0.0
 10
856.4456245834676
 20
1839.745878730052
 30
0.0
 10
856.6108466304298
 20
1839.745878730052
 30
0.0
 10
856.7472544547637
 20
1839.745878730052
 30
0.0
 10
856.8538477421165
 20
1839.745878730052
 30
0.0
 10
856.9401846773827
 20
1839.745878730052
 30
0.0
 10
857.007496491976
 20
1839.745878730052
 30
0.0
 10
857.0688016323407
 20
1839.745878730052
 30
0.0
 10
857.1002311287694
 20
1839.745878730052
 30
0.0
 10
857.1138761510777
 20
1839.745878730052
 30
0.0
1001
REVIT
1002
{
1070
     3
1000
790271
1002
}
  0
LINE
  5
1EE
330
153
100
AcDbEntity
  8
P-PIPE
370
    18
100
AcDbLine
 10
845.4151356565404
 20
1861.245878730052
 30
0.0
 11
845.4151356565404
 21
1859.535790234043
 31
0.0
1001
REVIT
1002
{
1070
     3
1000
790271
1002
}
  0
LINE
  5
1EF
330
153
100
AcDbEntity
  8
P-PIPE
370
    18
100
AcDbLine
 10
845.4151356565404
 20
1859.535790234043
 30
0.0
 11
856.2478507472931
 21
1859.535790234043
 31
0.0
1001
REVIT
1002
{
1070
     3
1000
790271
1002
}
  0
LINE
  5
1F0
330
153
100
AcDbEntity
  8
P-PIPE
370
    18
100
AcDbLine
 10
856.2478507472931
 20
1841.45596722606
 30
0.0
 11
845.4151356565404
 21
1841.45596722606
 31
0.0
1001
REVIT
1002
{
1070
     3
1000
790271
1002
}
  0
LINE
  5
1F1
330
153
100
AcDbEntity
  8
P-PIPE
370
    18
100
AcDbLine
 10
845.4151356565404
 20
1841.45596722606
 30
0.0
 11
845.4151356565404
 21
1839.745878730052
 31
0.0
1001
REVIT
1002
{
1070
     3
1000
790271
1002
}
  0
LINE
  5
1F2
330
153
100
AcDbEntity
  8
P-PIPE
370
    18
100
AcDbLine
 10
845.4151356565404
 20
1839.745878730052
 30
0.0
 11
856.2478507472931
 21
1839.745878730052
 31
0.0
1001
REVIT
1002
{
1070
     3
1000
790271
1002
}
  0
LINE
  5
1F3
330
153
100
AcDbEntity
  8
P-PIPE
370
    18
100
AcDbLine
 10
856.2478507472931
 20
1862.95596722606
 30
0.0
 11
845.4151356565404
 21
1862.95596722606
 31
0.0
1001
REVIT
1002
{
1070
     3
1000
790271
1002
}
  0
LINE
  5
1F4
330
153
100
AcDbEntity
  8
P-PIPE
370
    18
100
AcDbLine
 10
845.4151356565404
 20
1861.245878730052
 30
0.0
 11
845.4151356565404
 21
1862.95596722606
 31
0.0
1001
REVIT
1002
{
1070
     3
1000
790271
1002
}
  0
LINE
  5
1F5
330
153
100
AcDbEntity
  8
P-PIPE
370
    18
100
AcDbLine
 10
856.2478507472931
 20
1882.745878730052
 30
0.0
 11
845.4151356565404
 21
1882.745878730052
 31
0.0
1001
REVIT
1002
{
1070
     3
1000
790271
1002
}
  0
LINE
  5
1F6
330
153
100
AcDbEntity
  8
P-PIPE
370
    18
100
AcDbLine
 10
845.4151356565404
 20
1881.035790234043
 30
0.0
 11
845.4151356565404
 21
1882.745878730052
 31
0.0
1001
REVIT
1002
{
1070
     3
1000
790271
1002
}
  0
LINE
  5
1F7
330
153
100
AcDbEntity
  8
P-PIPE
370
    18
100
AcDbLine
 10
845.4151356565404
 20
1881.035790234043
 30
0.0
 11
856.2478507472931
 21
1881.035790234043
 31
0.0
1001
REVIT
1002
{
1070
     3
1000
790271
1002
}
  0
LINE
  5
1F8
330
153
100
AcDbEntity
  8
P-PIPE
370
    18
100
AcDbLine
 10
843.8851574431877
 20
1839.995878730052
 30
0.0
 11
843.8851574431877
 21
1861.245878730051
 31
0.0
1001
REVIT
1002
{
1070
     3
1000
790271
1002
}
  0
SPLINE
  5
1F9
330
153
100
AcDbEntity
  8
P-PIPE
370
    18
100
AcDbSpline
210
0.0
220
0.0
230
1.0
 70
    24
 71
     3
 72
     8
 73
     4
 74
     0
 42
0.000000001
 43
0.0000000001
 40
-0.5
 40
-0.5
 40
-0.5
 40
-0.5
 40
0.0
 40
0.0
 40
0.0
 40
0.0
 10
844.0295597744384
 20
1839.745878730052
 30
0.0
 10
844.0295597744384
 20
1839.745878730052
 30
0.0
 10
844.4914184018056
 20
1839.745878730052
 30
0.0
 10
845.4151356565404
 20
1839.745878730052
 30
0.0
1001
REVIT
1002
{
1070
     3
1000
790271
1002
}
  0
SPLINE
  5
1FA
330
153
100
AcDbEntity
  8
P-PIPE
370
    18
100
AcDbSpline
210
0.0
220
0.0
230
1.0
 70
     8
 71
     3
 72
     9
 73
     5
 74
     0
 42
0.000000001
 43
0.0000000001
 40
-1.0
 40
-1.0
 40
-1.0
 40
-1.0
 40
-0.5
 40
0.0
 40
0.0
 40
0.0
 40
0.0
 10
845.4151356565404
 20
1841.45596722606
 30
0.0
 10
844.4914184018058
 20
1844.429173204363
 30
0.0
 10
843.5677011470712
 20
1850.415683017331
 30
0.0
 10
844.4914184018058
 20
1856.482388543019
 30
0.0
 10
845.4151356565404
 20
1859.535790234043
 30
0.0
1001
REVIT
1002
{
1070
     3
1000
790271
1002
}
  0
ENDBLK
  5
1FC
330
153
100
AcDbEntity
  8
0
100
AcDbBlockEnd
  0
BLOCK
  5
279
330
1FE
100
AcDbEntity
  8
0
100
AcDbBlockBegin
  2
Automatic flow rate regulator valve_Caleffi_121 DN15 - 1_2__-V2-Est - Idraulica
 70
     0
 10
0.0
 20
0.0
 30
0.0
  3
Automatic flow rate regulator valve_Caleffi_121 DN15 - 1_2__-V2-Est - Idraulica
  1

  0
ARC
  5
1FF
330
1FE
100
AcDbEntity
  8
P-PIPE
370
    18
100
AcDbCircle
 10
1019.614353943097
 20
1999.982558850011
 30
0.0
 40
12.75000000000011
100
AcDbArc
 50
0.0
 51
90.0
1001
REVIT
1002
{
1070
     3
1000
790271
1002
}
  0
SPLINE
  5
200
330
1FE
100
AcDbEntity
  8
P-PIPE
370
    18
100
AcDbSpline
210
0.0
220
0.0
230
1.0
 70
    24
 71
     3
 72
     9
 73
     5
 74
     0
 42
0.000000001
 43
0.0000000001
 40
-1.0
 40
-1.0
 40
-1.0
 40
-1.0
 40
-0.5
 40
0.0
 40
0.0
 40
0.0
 40
0.0
 10
1032.364353943097
 20
1999.982558850011
 30
0.0
 10
1032.364353943097
 20
2001.061012643432
 30
0.0
 10
1032.364353943097
 20
2003.200126608634
 30
0.0
 10
1032.364353943097
 20
2005.303653330551
 30
0.0
 10
1032.364353943097
 20
2006.34651988069
 30
0.0
1001
REVIT
1002
{
1070
     3
1000
790271
1002
}
  0
SPLINE
  5
201
330
1FE
100
AcDbEntity
  8
P-PIPE
370
    18
100
AcDbSpline
210
0.0
220
0.0
230
1.0
 70
    24
 71
     3
 72
     8
 73
     4
 74
     0
 42
0.000000001
 43
0.0000000001
 40
-1.0
 40
-1.0
 40
-1.0
 40
-1.0
 40
-0.5722554803204398
 40
-0.5722554803204398
 40
-0.5722554803204398
 40
-0.5722554803204398
 10
1031.500705864359
 20
2007.842402232923
 30
0.0
 10
1029.906683144699
 20
2008.762711679213
 30
0.0
 10
1028.322237196845
 20
2009.677491973723
 30
0.0
 10
1026.7473680208
 20
2010.586743116451
 30
0.0
1001
REVIT
1002
{
1070
     3
1000
790271
1002
}
  0
SPLINE
  5
202
330
1FE
100
AcDbEntity
  8
P-PIPE
370
    18
100
AcDbSpline
210
0.0
220
0.0
230
1.0
 70
    24
 71
     3
 72
     8
 73
     4
 74
     0
 42
0.000000001
 43
0.0000000001
 40
-0.5064715430827098
 40
-0.5064715430827098
 40
-0.5064715430827098
 40
-0.5064715430827098
 40
-0.5
 40
-0.5
 40
-0.5
 40
-0.5
 10
1026.021437929683
 20
2011.00585904997
 30
0.0
 10
1025.997655577825
 20
2011.019589797217
 30
0.0
 10
1025.973873253978
 20
2011.033320528293
 30
0.0
 10
1025.950097450494
 20
2011.047047494834
 30
0.0
1001
REVIT
1002
{
1070
     3
1000
790271
1002
}
  0
SPLINE
  5
203
330
1FE
100
AcDbEntity
  8
P-PIPE
370
    18
100
AcDbSpline
210
0.0
220
0.0
230
1.0
 70
    24
 71
     3
 72
     8
 73
     4
 74
     0
 42
0.000000001
 43
0.0000000001
 40
-0.4683817239039801
 40
-0.4683817239039801
 40
-0.4683817239039801
 40
-0.4683817239039801
 40
0.0
 40
0.0
 40
0.0
 40
0.0
 10
1025.601735538354
 20
2011.248174338583
 30
0.0
 10
1023.88234150505
 20
2012.240866946555
 30
0.0
 10
1022.174430332876
 20
2013.226929921561
 30
0.0
 10
1020.478002021835
 20
2014.206363263602
 30
0.0
1001
REVIT
1002
{
1070
     3
1000
790271
1002
}
  0
SPLINE
  5
204
330
1FE
100
AcDbEntity
  8
P-PIPE
370
    18
100
AcDbSpline
210
0.0
220
0.0
230
1.0
 70
    24
 71
     3
 72
     9
 73
     5
 74
     0
 42
0.000000001
 43
0.0000000001
 40
-1.0
 40
-1.0
 40
-1.0
 40
-1.0
 40
-0.5
 40
0.0
 40
0.0
 40
0.0
 40
0.0
 10
1020.478002021835
 20
1985.758754436419
 30
0.0
 10
1022.341290323991
 20
1986.834524439247
 30
0.0
 10
1026.041695933234
 20
1988.970954613855
 30
0.0
 10
1029.689759552341
 20
1991.077165126366
 30
0.0
 10
1031.500705864359
 20
1992.122715467098
 30
0.0
1001
REVIT
1002
{
1070
     3
1000
790271
1002
}
  0
SPLINE
  5
205
330
1FE
100
AcDbEntity
  8
P-PIPE
370
    18
100
AcDbSpline
210
0.0
220
0.0
230
1.0
 70
    24
 71
     3
 72
     9
 73
     5
 74
     0
 42
0.000000001
 43
0.0000000001
 40
-1.0
 40
-1.0
 40
-1.0
 40
-1.0
 40
-0.5
 40
0.0
 40
0.0
 40
0.0
 40
0.0
 10
1032.364353943097
 20
1993.618597819332
 30
0.0
 10
1032.364353943097
 20
1994.661464369469
 30
0.0
 10
1032.364353943097
 20
1996.764991091387
 30
0.0
 10
1032.364353943097
 20
1998.904105056589
 30
0.0
 10
1032.364353943097
 20
1999.982558850011
 30
0.0
1001
REVIT
1002
{
1070
     3
1000
790271
1002
}
  0
ARC
  5
206
330
1FE
100
AcDbEntity
  8
P-PIPE
370
    18
100
AcDbCircle
 10
1019.614353943097
 20
1999.982558850011
 30
0.0
 40
12.75000000000004
100
AcDbArc
 50
269.9999999999992
 51
0.0000000000005152
1001
REVIT
1002
{
1070
     3
1000
790271
1002
}
  0
SPLINE
  5
207
330
1FE
100
AcDbEntity
  8
P-PIPE
370
    18
100
AcDbSpline
210
0.0
220
0.0
230
1.0
 70
    24
 71
     3
 72
     9
 73
     5
 74
     0
 42
0.000000001
 43
0.0000000001
 40
-1.0
 40
-1.0
 40
-1.0
 40
-1.0
 40
-0.5
 40
0.0
 40
0.0
 40
0.0
 40
0.0
 10
1018.750705864359
 20
2014.206363263602
 30
0.0
 10
1016.887417562203
 20
2013.130593260774
 30
0.0
 10
1013.187011952959
 20
2010.994163086166
 30
0.0
 10
1009.538948333853
 20
2008.887952573655
 30
0.0
 10
1007.728002021835
 20
2007.842402232923
 30
0.0
1001
REVIT
1002
{
1070
     3
1000
790271
1002
}
  0
SPLINE
  5
208
330
1FE
100
AcDbEntity
  8
P-PIPE
370
    18
100
AcDbSpline
210
0.0
220
0.0
230
1.0
 70
    24
 71
     3
 72
     9
 73
     5
 74
     0
 42
0.000000001
 43
0.0000000001
 40
-1.0
 40
-1.0
 40
-1.0
 40
-1.0
 40
-0.5
 40
0.0
 40
0.0
 40
0.0
 40
0.0
 10
1006.864353943097
 20
2006.34651988069
 30
0.0
 10
1006.864353943097
 20
2005.303653330551
 30
0.0
 10
1006.864353943097
 20
2003.200126608634
 30
0.0
 10
1006.864353943097
 20
2001.061012643432
 30
0.0
 10
1006.864353943097
 20
1999.982558850011
 30
0.0
1001
REVIT
1002
{
1070
     3
1000
790271
1002
}
  0
ARC
  5
209
330
1FE
100
AcDbEntity
  8
P-PIPE
370
    18
100
AcDbCircle
 10
1019.614353943097
 20
1999.982558850011
 30
0.0
 40
12.74999999999994
100
AcDbArc
 50
90.00000000000026
 51
180.0000000000002
1001
REVIT
1002
{
1070
     3
1000
790271
1002
}
  0
ARC
  5
20A
330
1FE
100
AcDbEntity
  8
P-PIPE
370
    18
100
AcDbCircle
 10
1019.614353943097
 20
1999.982558850011
 30
0.0
 40
12.75
100
AcDbArc
 50
180.0
 51
269.9999999999997
1001
REVIT
1002
{
1070
     3
1000
790271
1002
}
  0
SPLINE
  5
20B
330
1FE
100
AcDbEntity
  8
P-PIPE
370
    18
100
AcDbSpline
210
0.0
220
0.0
230
1.0
 70
    24
 71
     3
 72
     9
 73
     5
 74
     0
 42
0.000000001
 43
0.0000000001
 40
-1.0
 40
-1.0
 40
-1.0
 40
-1.0
 40
-0.5
 40
0.0
 40
0.0
 40
0.0
 40
0.0
 10
1006.864353943097
 20
1999.982558850011
 30
0.0
 10
1006.864353943097
 20
1998.904105056589
 30
0.0
 10
1006.864353943097
 20
1996.764991091387
 30
0.0
 10
1006.864353943097
 20
1994.661464369469
 30
0.0
 10
1006.864353943097
 20
1993.618597819332
 30
0.0
1001
REVIT
1002
{
1070
     3
1000
790271
1002
}
  0
SPLINE
  5
20C
330
1FE
100
AcDbEntity
  8
P-PIPE
370
    18
100
AcDbSpline
210
0.0
220
0.0
230
1.0
 70
    24
 71
     3
 72
     8
 73
     4
 74
     0
 42
0.000000001
 43
0.0000000001
 40
-1.0
 40
-1.0
 40
-1.0
 40
-1.0
 40
-0.5722554803204327
 40
-0.5722554803204327
 40
-0.5722554803204327
 40
-0.5722554803204327
 10
1007.728002021835
 20
1992.122715467098
 30
0.0
 10
1009.322024741496
 20
1991.202406020808
 30
0.0
 10
1010.906470689349
 20
1990.287625726298
 30
0.0
 10
1012.481339865394
 20
1989.37837458357
 30
0.0
1001
REVIT
1002
{
1070
     3
1000
790271
1002
}
  0
SPLINE
  5
20D
330
1FE
100
AcDbEntity
  8
P-PIPE
370
    18
100
AcDbSpline
210
0.0
220
0.0
230
1.0
 70
    24
 71
     3
 72
     8
 73
     4
 74
     0
 42
0.000000001
 43
0.0000000001
 40
-0.5
 40
-0.5
 40
-0.5
 40
-0.5
 40
-0.4856331272280264
 40
-0.4856331272280264
 40
-0.4856331272280264
 40
-0.4856331272280264
 10
1013.2786104357
 20
1988.918070205187
 30
0.0
 10
1013.331397696936
 20
1988.887593465702
 30
0.0
 10
1013.384153167773
 20
1988.857135080414
 30
0.0
 10
1013.436878657284
 20
1988.826694004852
 30
0.0
1001
REVIT
1002
{
1070
     3
1000
790271
1002
}
  0
SPLINE
  5
20E
330
1FE
100
AcDbEntity
  8
P-PIPE
370
    18
100
AcDbSpline
210
0.0
220
0.0
230
1.0
 70
    24
 71
     3
 72
     8
 73
     4
 74
     0
 42
0.000000001
 43
0.0000000001
 40
-0.4683817239039769
 40
-0.4683817239039769
 40
-0.4683817239039769
 40
-0.4683817239039769
 40
0.0
 40
0.0
 40
0.0
 40
0.0
 10
1013.62697234784
 20
1988.716943361438
 30
0.0
 10
1015.346366381144
 20
1987.724250753467
 30
0.0
 10
1017.054277553318
 20
1986.73818777846
 30
0.0
 10
1018.750705864359
 20
1985.758754436419
 30
0.0
1001
REVIT
1002
{
1070
     3
1000
790271
1002
}
  0
ARC
  5
20F
330
1FE
100
AcDbEntity
  8
P-PIPE
370
    18
100
AcDbCircle
 10
1019.614353943097
 20
1999.982558850011
 30
0.0
 40
14.25000000000002
100
AcDbArc
 50
26.52535201660869
 51
33.47464798339009
1001
REVIT
1002
{
1070
     3
1000
790271
1002
}
  0
ARC
  5
210
330
1FE
100
AcDbEntity
  8
P-PIPE
370
    18
100
AcDbCircle
 10
1019.614353943097
 20
1999.982558850011
 30
0.0
 40
14.25000000000015
100
AcDbArc
 50
326.5253520166082
 51
333.4746479833891
1001
REVIT
1002
{
1070
     3
1000
790271
1002
}
  0
ARC
  5
211
330
1FE
100
AcDbEntity
  8
P-PIPE
370
    18
100
AcDbCircle
 10
1019.614353943097
 20
1999.982558850011
 30
0.0
 40
14.25000000000004
100
AcDbArc
 50
86.5253520166094
 51
89.99999999999909
1001
REVIT
1002
{
1070
     3
1000
790271
1002
}
  0
ARC
  5
212
330
1FE
100
AcDbEntity
  8
P-PIPE
370
    18
100
AcDbCircle
 10
1019.614353943097
 20
1999.982558850011
 30
0.0
 40
14.25000000000011
100
AcDbArc
 50
269.9999999999997
 51
273.4746479833888
1001
REVIT
1002
{
1070
     3
1000
790271
1002
}
  0
ARC
  5
213
330
1FE
100
AcDbEntity
  8
P-PIPE
370
    18
100
AcDbCircle
 10
1019.614353943097
 20
1999.982558850011
 30
0.0
 40
14.24999999999999
100
AcDbArc
 50
146.52535201661
 51
153.4746479833896
1001
REVIT
1002
{
1070
     3
1000
790271
1002
}
  0
ARC
  5
214
330
1FE
100
AcDbEntity
  8
P-PIPE
370
    18
100
AcDbCircle
 10
1019.614353943097
 20
1999.982558850011
 30
0.0
 40
14.24999999999992
100
AcDbArc
 50
206.5253520166087
 51
213.4746479833895
1001
REVIT
1002
{
1070
     3
1000
790271
1002
}
  0
ARC
  5
215
330
1FE
100
AcDbEntity
  8
P-PIPE
370
    18
100
AcDbCircle
 10
1019.614353943097
 20
1999.982558850011
 30
0.0
 40
14.25
100
AcDbArc
 50
90.0
 51
93.47464798338968
1001
REVIT
1002
{
1070
     3
1000
790271
1002
}
  0
ARC
  5
216
330
1FE
100
AcDbEntity
  8
P-PIPE
370
    18
100
AcDbCircle
 10
1019.614353943097
 20
1999.982558850011
 30
0.0
 40
14.24999999999993
100
AcDbArc
 50
266.525352016609
 51
269.9999999999997
1001
REVIT
1002
{
1070
     3
1000
790271
1002
}
  0
LINE
  5
217
330
1FE
100
AcDbEntity
  8
P-PIPE
370
    18
100
AcDbLine
 10
1012.606616255914
 20
2010.659071474241
 30
0.0
 11
1013.846914273494
 21
2011.375157868566
 31
0.0
1001
REVIT
1002
{
1070
     3
1000
790271
1002
}
  0
LINE
  5
218
330
1FE
100
AcDbEntity
  8
P-PIPE
370
    18
100
AcDbLine
 10
1025.341888679659
 20
2011.398196992399
 30
0.0
 11
1025.624662337628
 21
2011.234937544851
 31
0.0
1001
REVIT
1002
{
1070
     3
1000
790271
1002
}
  0
LINE
  5
219
330
1FE
100
AcDbEntity
  8
P-PIPE
370
    18
100
AcDbLine
 10
1026.697874414097
 20
2010.615318263604
 30
0.0
 11
1026.81251988116
 21
2010.549127672334
 31
0.0
1001
REVIT
1002
{
1070
     3
1000
790271
1002
}
  0
ARC
  5
21A
330
1FE
100
AcDbEntity
  8
P-PIPE
370
    18
100
AcDbCircle
 10
1019.614353943097
 20
1999.982558850011
 30
0.0
 40
14.25000000000007
100
AcDbArc
 50
29.99999999999955
 51
30.13449919607722
1001
REVIT
1002
{
1070
     3
1000
790271
1002
}
  0
LINE
  5
21B
330
1FE
100
AcDbEntity
  8
P-PIPE
370
    18
100
AcDbLine
 10
1032.364353943097
 20
2000.843690496283
 30
0.0
 11
1032.364353943097
 21
1999.982558850011
 31
0.0
1001
REVIT
1002
{
1070
     3
1000
790271
1002
}
  0
LINE
  5
21C
330
1FE
100
AcDbEntity
  8
P-PIPE
370
    18
100
AcDbLine
 10
1026.62209163028
 20
1989.306046225781
 30
0.0
 11
1025.3817936127
 21
1988.589959831455
 31
0.0
1001
REVIT
1002
{
1070
     3
1000
790271
1002
}
  0
LINE
  5
21D
330
1FE
100
AcDbEntity
  8
P-PIPE
370
    18
100
AcDbLine
 10
1013.886819206535
 20
1988.566920707622
 30
0.0
 11
1013.604045548565
 21
1988.730180155171
 31
0.0
1001
REVIT
1002
{
1070
     3
1000
790271
1002
}
  0
LINE
  5
21E
330
1FE
100
AcDbEntity
  8
P-PIPE
370
    18
100
AcDbLine
 10
1012.530833472097
 20
1989.349799436417
 30
0.0
 11
1012.416188005033
 21
1989.415990027687
 31
0.0
1001
REVIT
1002
{
1070
     3
1000
790271
1002
}
  0
ARC
  5
21F
330
1FE
100
AcDbEntity
  8
P-PIPE
370
    18
100
AcDbCircle
 10
1019.614353943097
 20
1999.982558850011
 30
0.0
 40
14.25000000000003
100
AcDbArc
 50
209.9999999999993
 51
210.1344991960778
1001
REVIT
1002
{
1070
     3
1000
790271
1002
}
  0
LINE
  5
220
330
1FE
100
AcDbEntity
  8
P-PIPE
370
    18
100
AcDbLine
 10
1006.864353943097
 20
1999.121427203738
 30
0.0
 11
1006.864353943097
 21
1999.982558850011
 31
0.0
1001
REVIT
1002
{
1070
     3
1000
790271
1002
}
  0
ARC
  5
221
330
1FE
100
AcDbEntity
  8
P-PIPE
370
    18
100
AcDbCircle
 10
1019.614353943097
 20
1999.982558850011
 30
0.0
 40
15.94807179134057
100
AcDbArc
 50
269.9999999999997
 51
89.9999999999992
1001
REVIT
1002
{
1070
     3
1000
790271
1002
}
  0
ARC
  5
222
330
1FE
100
AcDbEntity
  8
P-PIPE
370
    18
100
AcDbCircle
 10
1019.614353943097
 20
1999.982558850011
 30
0.0
 40
15.94807179134045
100
AcDbArc
 50
90.0
 51
269.9999999999997
1001
REVIT
1002
{
1070
     3
1000
790271
1002
}
  0
ARC
  5
223
330
1FE
100
AcDbEntity
  8
P-PIPE
370
    18
100
AcDbCircle
 10
1019.614353943097
 20
1999.982558850011
 30
0.0
 40
16.50000000000011
100
AcDbArc
 50
269.9999999999997
 51
89.9999999999992
1001
REVIT
1002
{
1070
     3
1000
790271
1002
}
  0
ARC
  5
224
330
1FE
100
AcDbEntity
  8
P-PIPE
370
    18
100
AcDbCircle
 10
1019.614353943097
 20
1999.982558850011
 30
0.0
 40
16.5
100
AcDbArc
 50
90.0
 51
269.9999999999997
1001
REVIT
1002
{
1070
     3
1000
790271
1002
}
  0
ARC
  5
225
330
1FE
100
AcDbEntity
  8
P-PIPE
370
    18
100
AcDbCircle
 10
1019.614353943097
 20
1999.982558850011
 30
0.0
 40
10.64999999999997
100
AcDbArc
 50
269.9999999999997
 51
90.0
1001
REVIT
1002
{
1070
     3
1000
790271
1002
}
  0
ARC
  5
226
330
1FE
100
AcDbEntity
  8
P-PIPE
370
    18
100
AcDbCircle
 10
1019.614353943097
 20
1999.982558850011
 30
0.0
 40
10.64999999999997
100
AcDbArc
 50
90.00000000000062
 51
269.9999999999997
1001
REVIT
1002
{
1070
     3
1000
790271
1002
}
  0
LINE
  5
227
330
1FE
100
AcDbEntity
  8
P-PIPE
370
    18
100
AcDbLine
 10
1006.614353943098
 20
1982.662050774323
 30
0.0
 11
1006.614353943098
 21
1965.482558850011
 31
0.0
1001
REVIT
1002
{
1070
     3
1000
790271
1002
}
  0
LWPOLYLINE
  5
228
330
1FE
100
AcDbEntity
  8
P-PIPE
370
    18
100
AcDbPolyline
 90
        7
 70
   128
 43
0.0
 10
1032.614012864447
 20
1981.623255787764
 10
1033.051251373753
 20
1981.935404297615
 10
1033.762196983514
 20
1982.487172678115
 10
1034.450509062457
 20
1983.066929944341
 10
1035.115086458086
 20
1983.673748608341
 10
1035.754865988338
 20
1984.3066578897
 10
1036.095846613337
 20
1984.672091504666
1001
REVIT
1002
{
1070
     3
1000
790271
1002
}
  0
LWPOLYLINE
  5
229
330
1FE
100
AcDbEntity
  8
P-PIPE
370
    18
100
AcDbPolyline
 90
       17
 70
   128
 43
0.0
 10
1041.114353943098
 20
1993.359125840557
 10
1041.169710799606
 20
1993.531466633292
 10
1041.41044369576
 20
1994.398611187833
 10
1041.616307497893
 20
1995.274688867455
 10
1041.786972867839
 20
1996.158298134756
 10
1041.922166777411
 20
1997.048025403403
 10
1042.021672945196
 20
1997.942447299564
 10
1042.085332182549
 20
1998.840132939006
 10
1042.113042648273
 20
1999.7396462162
 10
1042.104760011532
 20
2000.639548101791
 10
1042.06049752278
 20
2001.538398944728
 10
1041.980325992555
 20
2002.434760775408
 10
1041.864373678204
 20
2003.327199606117
 10
1041.712826078695
 20
2004.214287725102
 10
1041.525925637858
 20
2005.094605980606
 10
1041.303971356529
 20
2005.966746051214
 10
1041.114353943098
 20
2006.604017502038
1001
REVIT
1002
{
1070
     3
1000
790271
1002
}
  0
LWPOLYLINE
  5
22A
330
1FE
100
AcDbEntity
  8
P-PIPE
370
    18
100
AcDbPolyline
 90
       17
 70
   128
 43
0.0
 10
1036.107391049963
 20
2015.286361011763
 10
1036.089561433779
 20
2015.306316161423
 10
1035.463596172927
 20
2015.95289136816
 10
1034.812275505499
 20
2016.57391744969
 10
1034.136641405622
 20
2017.168400896761
 10
1033.437774743727
 20
2017.735390662676
 10
1032.71679355739
 20
2018.273979684759
 10
1031.974851262709
 20
2018.783306335468
 10
1031.213134809082
 20
2019.262555800813
 10
1030.432862780343
 20
2019.710961383883
 10
1029.635283445291
 20
2020.1278057314
 10
1028.821672760719
 20
2020.512421981331
 10
1027.993332330162
 20
2020.864194829722
 10
1027.151587321607
 20
2021.182561515056
 10
1026.297784347502
 20
2021.467012718553
 10
1025.433289310473
 20
2021.717093378966
 10
1024.623375410537
 20
2021.916660532563
1001
REVIT
1002
{
1070
     3
1000
790271
1002
}
  0
LWPOLYLINE
  5
22B
330
1FE
100
AcDbEntity
  8
P-PIPE
370
    18
100
AcDbPolyline
 90
       17
 70
   128
 43
0.0
 10
1014.596495402261
 20
2021.911558445857
 10
1014.266044848488
 20
2021.837663284182
 10
1013.396351850406
 20
2021.606306212003
 10
1012.536606329236
 20
2021.340355756866
 10
1011.688183694409
 20
2021.040237382765
 10
1010.852441241154
 20
2020.706431215077
 10
1010.030715979113
 20
2020.339471272461
 10
1009.224322493415
 20
2019.939944612545
 10
1008.434550841615
 20
2019.508490392759
 10
1007.662664489878
 20
2019.045798847813
 10
1006.90989829171
 20
2018.552610185479
 10
1006.177456512445
 20
2018.029713402408
 10
1005.466510902683
 20
2017.477945021907
 10
1004.77819882374
 20
2016.898187755681
 10
1004.113621428111
 20
2016.291369091682
 10
1003.473841897859
 20
2015.658459810323
 10
1003.13286127286
 20
2015.293026195357
1001
REVIT
1002
{
1070
     3
1000
790271
1002
}
  0
LWPOLYLINE
  5
22C
330
1FE
100
AcDbEntity
  8
P-PIPE
370
    18
100
AcDbPolyline
 90
       17
 70
   128
 43
0.0
 10
998.1143539430988
 20
2006.605991859465
 10
998.0589970865912
 20
2006.43365106673
 10
997.8182641904377
 20
2005.56650651219
 10
997.6124003883041
 20
2004.690428832569
 10
997.4417350183584
 20
2003.806819565267
 10
997.3065411087857
 20
2002.91709229662
 10
997.2070349410019
 20
2002.022670400458
 10
997.143375703648
 20
2001.124984761017
 10
997.1156652379246
 20
2000.225471483823
 10
997.123947874665
 20
1999.325569598232
 10
997.1682103634174
 20
1998.426718755295
 10
997.2483818936421
 20
1997.530356924614
 10
997.3643342079929
 20
1996.637918093905
 10
997.5158818075025
 20
1995.750829974921
 10
997.7027822483394
 20
1994.870511719417
 10
997.9247365296686
 20
1993.998371648809
 10
998.1143539430986
 20
1993.361100197985
1001
REVIT
1002
{
1070
     3
1000
790271
1002
}
  0
LWPOLYLINE
  5
22D
330
1FE
100
AcDbEntity
  8
P-PIPE
370
    18
100
AcDbPolyline
 90
        8
 70
   128
 43
0.0
 10
1003.121316836234
 20
1984.67875668826
 10
1003.139146452418
 20
1984.6588015386
 10
1003.76511171327
 20
1984.012226331864
 10
1004.416432380698
 20
1983.391200250333
 10
1005.092066480576
 20
1982.796716803261
 10
1005.79093314247
 20
1982.229727037347
 10
1006.511914328807
 20
1981.691138015264
 10
1006.614694965236
 20
1981.620581426583
1001
REVIT
1002
{
1070
     3
1000
790271
1002
}
  0
LINE
  5
22E
330
1FE
100
AcDbEntity
  8
P-PIPE
370
    18
100
AcDbLine
 10
1032.614353943099
 20
1965.482558850011
 30
0.0
 11
1032.614353943099
 21
1982.662050774323
 31
0.0
1001
REVIT
1002
{
1070
     3
1000
790271
1002
}
  0
LINE
  5
22F
330
1FE
100
AcDbEntity
  8
P-PIPE
370
    18
100
AcDbLine
 10
1032.114353943098
 20
1964.982558850012
 30
0.0
 11
1032.564885018291
 21
1965.433089925204
 31
0.0
1001
REVIT
1002
{
1070
     3
1000
790271
1002
}
  0
LINE
  5
230
330
1FE
100
AcDbEntity
  8
P-PIPE
370
    18
100
AcDbLine
 10
1032.571792316987
 20
1965.4399972239
 30
0.0
 11
1032.614353943099
 21
1965.482558850011
 31
0.0
1001
REVIT
1002
{
1070
     3
1000
790271
1002
}
  0
LINE
  5
231
330
1FE
100
AcDbEntity
  8
P-PIPE
370
    18
100
AcDbLine
 10
1006.614353943098
 20
1965.482558850011
 30
0.0
 11
1006.65691556921
 21
1965.4399972239
 31
0.0
1001
REVIT
1002
{
1070
     3
1000
790271
1002
}
  0
LINE
  5
232
330
1FE
100
AcDbEntity
  8
P-PIPE
370
    18
100
AcDbLine
 10
1006.663822867906
 20
1965.433089925204
 30
0.0
 11
1007.114353943099
 21
1964.982558850012
 31
0.0
1001
REVIT
1002
{
1070
     3
1000
790271
1002
}
  0
LWPOLYLINE
  5
233
330
1FE
100
AcDbEntity
  8
P-PIPE
370
    18
100
AcDbPolyline
 90
        3
 70
   128
 43
0.0
 10
1021.324442439107
 20
2023.821300371657
 10
1020.369779149412
 20
2023.870617221459
 10
1019.614353943098
 20
2023.882558850012
1001
REVIT
1002
{
1070
     3
1000
790271
1002
}
  0
LWPOLYLINE
  5
234
330
1FE
100
AcDbEntity
  8
P-PIPE
370
    18
100
AcDbPolyline
 90
        5
 70
   128
 43
0.0
 10
1041.114353943098
 20
2010.420949530571
 10
1040.679731943014
 20
2011.272370616409
 10
1040.211409831837
 20
2012.105730411784
 10
1039.710136825043
 20
2012.9196957188
 10
1039.40426544709
 20
2013.382909691097
1001
REVIT
1002
{
1070
     3
1000
790271
1002
}
  0
LWPOLYLINE
  5
235
330
1FE
100
AcDbEntity
  8
P-PIPE
370
    18
100
AcDbPolyline
 90
        5
 70
   128
 43
0.0
 10
1039.40426544709
 20
1986.582208008926
 10
1039.9243067367
 20
1987.384312244961
 10
1040.4118564344
 20
1988.206570988082
 10
1040.866134564677
 20
1989.047668799705
 10
1041.114353943098
 20
1989.544168169451
1001
REVIT
1002
{
1070
     3
1000
790271
1002
}
  0
LWPOLYLINE
  5
236
330
1FE
100
AcDbEntity
  8
P-PIPE
370
    18
100
AcDbPolyline
 90
        3
 70
   128
 43
0.0
 10
1019.614353943098
 20
1976.082558850011
 10
1020.570099030159
 20
1976.101676300814
 10
1021.324442439107
 20
1976.143817328366
1001
REVIT
1002
{
1070
     3
1000
790271
1002
}
  0
LWPOLYLINE
  5
237
330
1FE
100
AcDbEntity
  8
P-PIPE
370
    18
100
AcDbPolyline
 90
        3
 70
   128
 43
0.0
 10
1017.90426544709
 20
1976.143817328366
 10
1018.858928736785
 20
1976.094500478564
 10
1019.614353943098
 20
1976.082558850011
1001
REVIT
1002
{
1070
     3
1000
790271
1002
}
  0
LWPOLYLINE
  5
238
330
1FE
100
AcDbEntity
  8
P-PIPE
370
    18
100
AcDbPolyline
 90
        5
 70
   128
 43
0.0
 10
998.1143539430986
 20
1989.544168169451
 10
998.548975943183
 20
1988.692747083614
 10
999.0172980543599
 20
1987.859387288239
 10
999.5185710611542
 20
1987.045421981223
 10
999.8244424391069
 20
1986.582208008926
1001
REVIT
1002
{
1070
     3
1000
790271
1002
}
  0
LWPOLYLINE
  5
239
330
1FE
100
AcDbEntity
  8
P-PIPE
370
    18
100
AcDbPolyline
 90
        5
 70
   128
 43
0.0
 10
999.8244424391069
 20
2013.382909691097
 10
999.3044011494966
 20
2012.580805455062
 10
998.8168514517971
 20
2011.758546711941
 10
998.3625733215195
 20
2010.917448900318
 10
998.1143539430986
 20
2010.420949530571
1001
REVIT
1002
{
1070
     3
1000
790271
1002
}
  0
LWPOLYLINE
  5
23A
330
1FE
100
AcDbEntity
  8
P-PIPE
370
    18
100
AcDbPolyline
 90
        3
 70
   128
 43
0.0
 10
1019.614353943098
 20
2023.882558850012
 10
1018.658608856038
 20
2023.863441399209
 10
1017.90426544709
 20
2023.821300371657
1001
REVIT
1002
{
1070
     3
1000
790271
1002
}
  0
LINE
  5
23B
330
1FE
100
AcDbEntity
  8
P-PIPE
370
    18
100
AcDbLine
 10
1032.114353943097
 20
1964.98255885001
 30
0.0
 11
1019.614353943097
 21
1964.98255885001
 31
0.0
1001
REVIT
1002
{
1070
     3
1000
790271
1002
}
  0
LINE
  5
23C
330
1FE
100
AcDbEntity
  8
P-PIPE
370
    18
100
AcDbLine
 10
1019.614353943097
 20
1964.98255885001
 30
0.0
 11
1007.114353943097
 21
1964.98255885001
 31
0.0
1001
REVIT
1002
{
1070
     3
1000
790271
1002
}
  0
LINE
  5
23D
330
1FE
100
AcDbEntity
  8
P-PIPE
370
    18
100
AcDbLine
 10
1006.614353943097
 20
1965.48255885001
 30
0.0
 11
1019.614353943097
 21
1965.48255885001
 31
0.0
1001
REVIT
1002
{
1070
     3
1000
790271
1002
}
  0
ARC
  5
23E
330
1FE
100
AcDbEntity
  8
P-PIPE
370
    18
100
AcDbCircle
 10
1019.614353943097
 20
1999.982558850011
 30
0.0
 40
22.49999999999982
100
AcDbArc
 50
305.3024209501015
 51
306.026482810264
1001
REVIT
1002
{
1070
     3
1000
790271
1002
}
  0
ARC
  5
23F
330
1FE
100
AcDbEntity
  8
P-PIPE
370
    18
100
AcDbCircle
 10
1019.614353943097
 20
1999.982558850011
 30
0.0
 40
22.49999999999988
100
AcDbArc
 50
309.9999999999994
 51
310.5177646484167
1001
REVIT
1002
{
1070
     3
1000
790271
1002
}
  0
ARC
  5
240
330
1FE
100
AcDbEntity
  8
P-PIPE
370
    18
100
AcDbCircle
 10
1019.614353943097
 20
1999.982558850011
 30
0.0
 40
22.50000000000003
100
AcDbArc
 50
344.9999999999992
 51
346.4895751335272
1001
REVIT
1002
{
1070
     3
1000
790271
1002
}
  0
ARC
  5
241
330
1FE
100
AcDbEntity
  8
P-PIPE
370
    18
100
AcDbCircle
 10
1019.614353943097
 20
1999.982558850011
 30
0.0
 40
22.4999999999999
100
AcDbArc
 50
349.9999999999992
 51
350.9950993195392
1001
REVIT
1002
{
1070
     3
1000
790271
1002
}
  0
ARC
  5
242
330
1FE
100
AcDbEntity
  8
P-PIPE
370
    18
100
AcDbCircle
 10
1019.614353943097
 20
1999.982558850011
 30
0.0
 40
22.49999999999992
100
AcDbArc
 50
354.9999999999993
 51
355.4989141705199
1001
REVIT
1002
{
1070
     3
1000
790271
1002
}
  0
ARC
  5
243
330
1FE
100
AcDbEntity
  8
P-PIPE
370
    18
100
AcDbCircle
 10
1019.614353943097
 20
1999.982558850011
 30
0.0
 40
22.49999999999998
100
AcDbArc
 50
4.501085829478609
 51
4.999999999999265
1001
REVIT
1002
{
1070
     3
1000
790271
1002
}
  0
ARC
  5
244
330
1FE
100
AcDbEntity
  8
P-PIPE
370
    18
100
AcDbCircle
 10
1019.614353943097
 20
1999.982558850011
 30
0.0
 40
22.50000000000007
100
AcDbArc
 50
9.004900680459465
 51
9.999999999999507
1001
REVIT
1002
{
1070
     3
1000
790271
1002
}
  0
ARC
  5
245
330
1FE
100
AcDbEntity
  8
P-PIPE
370
    18
100
AcDbCircle
 10
1019.614353943097
 20
1999.982558850011
 30
0.0
 40
22.49999999999989
100
AcDbArc
 50
13.51042486647171
 51
14.99999999999979
1001
REVIT
1002
{
1070
     3
1000
790271
1002
}
  0
ARC
  5
246
330
1FE
100
AcDbEntity
  8
P-PIPE
370
    18
100
AcDbCircle
 10
1019.614353943097
 20
1999.982558850011
 30
0.0
 40
22.50000000000003
100
AcDbArc
 50
49.48223535158247
 51
49.99999999999972
1001
REVIT
1002
{
1070
     3
1000
790271
1002
}
  0
ARC
  5
247
330
1FE
100
AcDbEntity
  8
P-PIPE
370
    18
100
AcDbCircle
 10
1019.614353943097
 20
1999.982558850011
 30
0.0
 40
22.50000000000012
100
AcDbArc
 50
53.97351718973517
 51
55.00000000000021
1001
REVIT
1002
{
1070
     3
1000
790271
1002
}
  0
ARC
  5
248
330
1FE
100
AcDbEntity
  8
P-PIPE
370
    18
100
AcDbCircle
 10
1019.614353943097
 20
1999.982558850011
 30
0.0
 40
22.49999999999996
100
AcDbArc
 50
58.47107539915321
 51
59.99999999999961
1001
REVIT
1002
{
1070
     3
1000
790271
1002
}
  0
ARC
  5
249
330
1FE
100
AcDbEntity
  8
P-PIPE
370
    18
100
AcDbCircle
 10
1019.614353943097
 20
1999.982558850011
 30
0.0
 40
22.49999999999999
100
AcDbArc
 50
62.97289136270594
 51
65.00000000000014
1001
REVIT
1002
{
1070
     3
1000
790271
1002
}
  0
ARC
  5
24A
330
1FE
100
AcDbEntity
  8
P-PIPE
370
    18
100
AcDbCircle
 10
1019.614353943097
 20
1999.982558850011
 30
0.0
 40
22.50000000000008
100
AcDbArc
 50
69.9999999999996
 51
71.98333613711437
1001
REVIT
1002
{
1070
     3
1000
790271
1002
}
  0
ARC
  5
24B
330
1FE
100
AcDbEntity
  8
P-PIPE
370
    18
100
AcDbCircle
 10
1019.614353943097
 20
1999.982558850011
 30
0.0
 40
22.50000000000003
100
AcDbArc
 50
74.99999999999987
 51
76.48957513352809
1001
REVIT
1002
{
1070
     3
1000
790271
1002
}
  0
ARC
  5
24C
330
1FE
100
AcDbEntity
  8
P-PIPE
370
    18
100
AcDbCircle
 10
1019.614353943097
 20
1999.982558850011
 30
0.0
 40
22.50000000000003
100
AcDbArc
 50
103.510424866472
 51
105.0000000000005
1001
REVIT
1002
{
1070
     3
1000
790271
1002
}
  0
ARC
  5
24D
330
1FE
100
AcDbEntity
  8
P-PIPE
370
    18
100
AcDbCircle
 10
1019.614353943097
 20
1999.982558850011
 30
0.0
 40
22.50000000000015
100
AcDbArc
 50
108.0166638628851
 51
110.0000000000004
1001
REVIT
1002
{
1070
     3
1000
790271
1002
}
  0
ARC
  5
24E
330
1FE
100
AcDbEntity
  8
P-PIPE
370
    18
100
AcDbCircle
 10
1019.614353943097
 20
1999.982558850011
 30
0.0
 40
22.50000000000011
100
AcDbArc
 50
115.0000000000004
 51
117.027108637294
1001
REVIT
1002
{
1070
     3
1000
790271
1002
}
  0
ARC
  5
24F
330
1FE
100
AcDbEntity
  8
P-PIPE
370
    18
100
AcDbCircle
 10
1019.614353943097
 20
1999.982558850011
 30
0.0
 40
22.50000000000009
100
AcDbArc
 50
120.0000000000006
 51
121.5289246008472
1001
REVIT
1002
{
1070
     3
1000
790271
1002
}
  0
ARC
  5
250
330
1FE
100
AcDbEntity
  8
P-PIPE
370
    18
100
AcDbCircle
 10
1019.614353943097
 20
1999.982558850011
 30
0.0
 40
22.50000000000012
100
AcDbArc
 50
125.0000000000004
 51
126.0264828102649
1001
REVIT
1002
{
1070
     3
1000
790271
1002
}
  0
ARC
  5
251
330
1FE
100
AcDbEntity
  8
P-PIPE
370
    18
100
AcDbCircle
 10
1019.614353943097
 20
1999.982558850011
 30
0.0
 40
22.50000000000002
100
AcDbArc
 50
130.0000000000004
 51
130.5177646484178
1001
REVIT
1002
{
1070
     3
1000
790271
1002
}
  0
ARC
  5
252
330
1FE
100
AcDbEntity
  8
P-PIPE
370
    18
100
AcDbCircle
 10
1019.614353943097
 20
1999.982558850011
 30
0.0
 40
22.50000000000003
100
AcDbArc
 50
165.0000000000002
 51
166.4895751335283
1001
REVIT
1002
{
1070
     3
1000
790271
1002
}
  0
ARC
  5
253
330
1FE
100
AcDbEntity
  8
P-PIPE
370
    18
100
AcDbCircle
 10
1019.614353943097
 20
1999.982558850011
 30
0.0
 40
22.50000000000012
100
AcDbArc
 50
170.0000000000007
 51
170.9950993195394
1001
REVIT
1002
{
1070
     3
1000
790271
1002
}
  0
ARC
  5
254
330
1FE
100
AcDbEntity
  8
P-PIPE
370
    18
100
AcDbCircle
 10
1019.614353943097
 20
1999.982558850011
 30
0.0
 40
22.50000000000004
100
AcDbArc
 50
175.0000000000008
 51
175.4989141705208
1001
REVIT
1002
{
1070
     3
1000
790271
1002
}
  0
ARC
  5
255
330
1FE
100
AcDbEntity
  8
P-PIPE
370
    18
100
AcDbCircle
 10
1019.614353943097
 20
1999.982558850011
 30
0.0
 40
22.5000000000001
100
AcDbArc
 50
184.5010858294788
 51
185.0
1001
REVIT
1002
{
1070
     3
1000
790271
1002
}
  0
ARC
  5
256
330
1FE
100
AcDbEntity
  8
P-PIPE
370
    18
100
AcDbCircle
 10
1019.614353943097
 20
1999.982558850011
 30
0.0
 40
22.50000000000007
100
AcDbArc
 50
189.0049006804601
 51
190.0000000000001
1001
REVIT
1002
{
1070
     3
1000
790271
1002
}
  0
ARC
  5
257
330
1FE
100
AcDbEntity
  8
P-PIPE
370
    18
100
AcDbCircle
 10
1019.614353943097
 20
1999.982558850011
 30
0.0
 40
22.49999999999998
100
AcDbArc
 50
193.5104248664718
 51
195.0
1001
REVIT
1002
{
1070
     3
1000
790271
1002
}
  0
ARC
  5
258
330
1FE
100
AcDbEntity
  8
P-PIPE
370
    18
100
AcDbCircle
 10
1019.614353943097
 20
1999.982558850011
 30
0.0
 40
22.49999999999992
100
AcDbArc
 50
229.482235351581
 51
229.9999999999994
1001
REVIT
1002
{
1070
     3
1000
790271
1002
}
  0
ARC
  5
259
330
1FE
100
AcDbEntity
  8
P-PIPE
370
    18
100
AcDbCircle
 10
1019.614353943097
 20
1999.982558850011
 30
0.0
 40
22.49999999999991
100
AcDbArc
 50
233.9735171897343
 51
234.697579049896
1001
REVIT
1002
{
1070
     3
1000
790271
1002
}
  0
LINE
  5
25A
330
1FE
100
AcDbEntity
  8
P-PIPE
370
    18
100
AcDbLine
 10
1019.614353943097
 20
1965.48255885001
 30
0.0
 11
1032.614353943097
 21
1965.48255885001
 31
0.0
1001
REVIT
1002
{
1070
     3
1000
790271
1002
}
  0
SPLINE
  5
25B
330
1FE
100
AcDbEntity
  8
P-PIPE
370
    18
100
AcDbSpline
210
0.0
220
0.0
230
1.0
 70
    24
 71
     3
 72
     9
 73
     5
 74
     0
 42
0.000000001
 43
0.0000000001
 40
0.0
 40
0.0
 40
0.0
 40
0.0
 40
0.5
 40
1.0
 40
1.0
 40
1.0
 40
1.0
 10
1038.363260118319
 20
1985.981183302132
 30
0.0
 10
1035.739883347502
 20
1984.466576017315
 30
0.0
 10
1030.450204518278
 20
1981.412578521336
 30
0.0
 10
1025.074675113873
 20
1978.309015172666
 30
0.0
 10
1022.365447767875
 20
1976.744842035158
 30
0.0
1001
REVIT
1002
{
1070
     3
1000
790271
1002
}
  0
SPLINE
  5
25C
330
1FE
100
AcDbEntity
  8
P-PIPE
370
    18
100
AcDbSpline
210
0.0
220
0.0
230
1.0
 70
    24
 71
     3
 72
     9
 73
     5
 74
     0
 42
0.000000001
 43
0.0000000001
 40
0.0
 40
0.0
 40
0.0
 40
0.0
 40
0.5
 40
1.0
 40
1.0
 40
1.0
 40
1.0
 10
1041.114353943097
 20
2009.218900116984
 30
0.0
 10
1041.114353943097
 20
2006.189685547351
 30
0.0
 10
1041.114353943097
 20
2000.081690555393
 30
0.0
 10
1041.114353943097
 20
1993.874563858053
 30
0.0
 10
1041.114353943097
 20
1990.746217583037
 30
0.0
1001
REVIT
1002
{
1070
     3
1000
790271
1002
}
  0
SPLINE
  5
25D
330
1FE
100
AcDbEntity
  8
P-PIPE
370
    18
100
AcDbSpline
210
0.0
220
0.0
230
1.0
 70
    24
 71
     3
 72
     9
 73
     5
 74
     0
 42
0.000000001
 43
0.0000000001
 40
0.0
 40
0.0
 40
0.0
 40
0.0
 40
0.5
 40
1.0
 40
1.0
 40
1.0
 40
1.0
 10
1022.365447767875
 20
2023.220275664863
 30
0.0
 10
1024.988824538692
 20
2021.705668380047
 30
0.0
 10
1030.278503367915
 20
2018.651670884068
 30
0.0
 10
1035.654032772321
 20
2015.548107535397
 30
0.0
 10
1038.363260118319
 20
2013.983934397889
 30
0.0
1001
REVIT
1002
{
1070
     3
1000
790271
1002
}
  0
SPLINE
  5
25E
330
1FE
100
AcDbEntity
  8
P-PIPE
370
    18
100
AcDbSpline
210
0.0
220
0.0
230
1.0
 70
    24
 71
     3
 72
     9
 73
     5
 74
     0
 42
0.000000001
 43
0.0000000001
 40
0.0
 40
0.0
 40
0.0
 40
0.0
 40
0.5
 40
1.0
 40
1.0
 40
1.0
 40
1.0
 10
1000.865447767875
 20
2013.983934397889
 30
0.0
 10
1003.488824538692
 20
2015.498541682706
 30
0.0
 10
1008.778503367915
 20
2018.552539178685
 30
0.0
 10
1014.154032772321
 20
2021.656102527355
 30
0.0
 10
1016.863260118319
 20
2023.220275664863
 30
0.0
1001
REVIT
1002
{
1070
     3
1000
790271
1002
}
  0
SPLINE
  5
25F
330
1FE
100
AcDbEntity
  8
P-PIPE
370
    18
100
AcDbSpline
210
0.0
220
0.0
230
1.0
 70
    24
 71
     3
 72
     9
 73
     5
 74
     0
 42
0.000000001
 43
0.0000000001
 40
0.0
 40
0.0
 40
0.0
 40
0.0
 40
0.5
 40
1.0
 40
1.0
 40
1.0
 40
1.0
 10
998.1143539430972
 20
1990.746217583037
 30
0.0
 10
998.1143539430972
 20
1993.77543215267
 30
0.0
 10
998.1143539430972
 20
1999.883427144628
 30
0.0
 10
998.1143539430972
 20
2006.090553841969
 30
0.0
 10
998.1143539430972
 20
2009.218900116984
 30
0.0
1001
REVIT
1002
{
1070
     3
1000
790271
1002
}
  0
SPLINE
  5
260
330
1FE
100
AcDbEntity
  8
P-PIPE
370
    18
100
AcDbSpline
210
0.0
220
0.0
230
1.0
 70
    24
 71
     3
 72
     9
 73
     5
 74
     0
 42
0.000000001
 43
0.0000000001
 40
0.0
 40
0.0
 40
0.0
 40
0.0
 40
0.5
 40
1.0
 40
1.0
 40
1.0
 40
1.0
 10
1016.863260118319
 20
1976.744842035158
 30
0.0
 10
1014.239883347502
 20
1978.259449319975
 30
0.0
 10
1008.950204518278
 20
1981.313446815954
 30
0.0
 10
1003.574675113873
 20
1984.417010164624
 30
0.0
 10
1000.865447767875
 20
1985.981183302132
 30
0.0
1001
REVIT
1002
{
1070
     3
1000
790271
1002
}
  0
SPLINE
  5
261
330
1FE
100
AcDbEntity
  8
P-PIPE
370
    18
100
AcDbSpline
210
0.0
220
0.0
230
1.0
 70
    24
 71
     3
 72
    15
 73
    11
 74
     0
 42
0.000000001
 43
0.0000000001
 40
0.0
 40
0.0
 40
0.0
 40
0.0
 40
0.125
 40
0.234375
 40
0.375
 40
0.484375
 40
0.625
 40
0.75
 40
0.875
 40
1.0
 40
1.0
 40
1.0
 40
1.0
 10
1039.404265447089
 20
1986.582208008925
 30
0.0
 10
1039.393822511176
 20
1986.576178777065
 30
0.0
 10
1039.36298727149
 20
1986.558376043132
 30
0.0
 10
1039.28415022176
 20
1986.512859451248
 30
0.0
 10
1039.164744349722
 20
1986.443920438884
 30
0.0
 10
1039.008651037911
 20
1986.353799923291
 30
0.0
 10
1038.859415021704
 20
1986.267638469161
 30
0.0
 10
1038.691186047822
 20
1986.170511425805
 30
0.0
 10
1038.530207248288
 20
1986.07757027256
 30
0.0
 10
1038.419289683158
 20
1986.013531986474
 30
0.0
 10
1038.363260118319
 20
1985.981183302132
 30
0.0
1001
REVIT
1002
{
1070
     3
1000
790271
1002
}
  0
SPLINE
  5
262
330
1FE
100
AcDbEntity
  8
P-PIPE
370
    18
100
AcDbSpline
210
0.0
220
0.0
230
1.0
 70
    24
 71
     3
 72
    15
 73
    11
 74
     0
 42
0.000000001
 43
0.0000000001
 40
0.0
 40
0.0
 40
0.0
 40
0.0
 40
0.125
 40
0.25
 40
0.375
 40
0.5
 40
0.625
 40
0.75
 40
0.875
 40
1.0
 40
1.0
 40
1.0
 40
1.0
 10
1041.114353943097
 20
1990.746217583037
 30
0.0
 10
1041.114353943097
 20
1990.681520214352
 30
0.0
 10
1041.114353943097
 20
1990.553455450572
 30
0.0
 10
1041.114353943097
 20
1990.36752000632
 30
0.0
 10
1041.114353943097
 20
1990.181230921538
 30
0.0
 10
1041.114353943097
 20
1990.007348796307
 30
0.0
 10
1041.114353943097
 20
1989.834733533425
 30
0.0
 10
1041.114353943097
 20
1989.687017227714
 30
0.0
 10
1041.114353943097
 20
1989.594346575265
 30
0.0
 10
1041.114353943097
 20
1989.556226633171
 30
0.0
 10
1041.114353943097
 20
1989.544168169451
 30
0.0
1001
REVIT
1002
{
1070
     3
1000
790271
1002
}
  0
SPLINE
  5
263
330
1FE
100
AcDbEntity
  8
P-PIPE
370
    18
100
AcDbSpline
210
0.0
220
0.0
230
1.0
 70
    24
 71
     3
 72
    15
 73
    11
 74
     0
 42
0.000000001
 43
0.0000000001
 40
0.0
 40
0.0
 40
0.0
 40
0.0
 40
0.125
 40
0.234375
 40
0.375
 40
0.484375
 40
0.625
 40
0.75
 40
0.875
 40
1.0
 40
1.0
 40
1.0
 40
1.0
 10
1041.114353943097
 20
2010.42094953057
 30
0.0
 10
1041.114353943097
 20
2010.40889106685
 30
0.0
 10
1041.114353943097
 20
2010.373285598983
 30
0.0
 10
1041.114353943097
 20
2010.282252415216
 30
0.0
 10
1041.114353943097
 20
2010.144374390488
 30
0.0
 10
1041.114353943097
 20
2009.964133359303
 30
0.0
 10
1041.114353943097
 20
2009.791810451043
 30
0.0
 10
1041.114353943097
 20
2009.59755636433
 30
0.0
 10
1041.114353943097
 20
2009.41167405784
 30
0.0
 10
1041.114353943097
 20
2009.283597485669
 30
0.0
 10
1041.114353943097
 20
2009.218900116984
 30
0.0
1001
REVIT
1002
{
1070
     3
1000
790271
1002
}
  0
SPLINE
  5
264
330
1FE
100
AcDbEntity
  8
P-PIPE
370
    18
100
AcDbSpline
210
0.0
220
0.0
230
1.0
 70
    24
 71
     3
 72
    15
 73
    11
 74
     0
 42
0.000000001
 43
0.0000000001
 40
0.0
 40
0.0
 40
0.0
 40
0.0
 40
0.125
 40
0.25
 40
0.375
 40
0.5
 40
0.625
 40
0.75
 40
0.875
 40
1.0
 40
1.0
 40
1.0
 40
1.0
 10
1038.363260118319
 20
2013.983934397889
 30
0.0
 10
1038.419289683158
 20
2013.951585713547
 30
0.0
 10
1038.53019702192
 20
2013.887553331657
 30
0.0
 10
1038.691221840107
 20
2013.794585609531
 30
0.0
 10
1038.852552919976
 20
2013.70144106714
 30
0.0
 10
1039.00313925769
 20
2013.614500004524
 30
0.0
 10
1039.152628460427
 20
2013.528192373083
 30
0.0
 10
1039.280554533726
 20
2013.454334220228
 30
0.0
 10
1039.360809672932
 20
2013.407998894003
 30
0.0
 10
1039.393822511176
 20
2013.388938922956
 30
0.0
 10
1039.404265447089
 20
2013.382909691096
 30
0.0
1001
REVIT
1002
{
1070
     3
1000
790271
1002
}
  0
SPLINE
  5
265
330
1FE
100
AcDbEntity
  8
P-PIPE
370
    18
100
AcDbSpline
210
0.0
220
0.0
230
1.0
 70
    24
 71
     3
 72
    15
 73
    11
 74
     0
 42
0.000000001
 43
0.0000000001
 40
0.0
 40
0.0
 40
0.0
 40
0.0
 40
0.125
 40
0.234375
 40
0.375
 40
0.484375
 40
0.625
 40
0.75
 40
0.875
 40
1.0
 40
1.0
 40
1.0
 40
1.0
 10
1021.324442439105
 20
2023.821300371656
 30
0.0
 10
1021.334885375018
 20
2023.815271139795
 30
0.0
 10
1021.365720614704
 20
2023.797468405863
 30
0.0
 10
1021.444557664433
 20
2023.751951813979
 30
0.0
 10
1021.563963536472
 20
2023.683012801615
 30
0.0
 10
1021.720056848282
 20
2023.592892286022
 30
0.0
 10
1021.869292864489
 20
2023.506730831893
 30
0.0
 10
1022.037521838372
 20
2023.409603788536
 30
0.0
 10
1022.198500637906
 20
2023.316662635291
 30
0.0
 10
1022.309418203037
 20
2023.252624349205
 30
0.0
 10
1022.365447767875
 20
2023.220275664863
 30
0.0
1001
REVIT
1002
{
1070
     3
1000
790271
1002
}
  0
SPLINE
  5
266
330
1FE
100
AcDbEntity
  8
P-PIPE
370
    18
100
AcDbSpline
210
0.0
220
0.0
230
1.0
 70
    24
 71
     3
 72
    15
 73
    11
 74
     0
 42
0.000000001
 43
0.0000000001
 40
0.0
 40
0.0
 40
0.0
 40
0.0
 40
0.125
 40
0.25
 40
0.375
 40
0.5
 40
0.625
 40
0.75
 40
0.875
 40
1.0
 40
1.0
 40
1.0
 40
1.0
 10
1022.365447767875
 20
1976.744842035158
 30
0.0
 10
1022.309418203036
 20
1976.712493350816
 30
0.0
 10
1022.198510864273
 20
1976.648460968926
 30
0.0
 10
1022.037486046087
 20
1976.5554932468
 30
0.0
 10
1021.876154966218
 20
1976.462348704409
 30
0.0
 10
1021.725568628504
 20
1976.375407641794
 30
0.0
 10
1021.576079425767
 20
1976.289100010352
 30
0.0
 10
1021.448153352468
 20
1976.215241857497
 30
0.0
 10
1021.367898213262
 20
1976.168906531272
 30
0.0
 10
1021.334885375018
 20
1976.149846560225
 30
0.0
 10
1021.324442439105
 20
1976.143817328365
 30
0.0
1001
REVIT
1002
{
1070
     3
1000
790271
1002
}
  0
SPLINE
  5
267
330
1FE
100
AcDbEntity
  8
P-PIPE
370
    18
100
AcDbSpline
210
0.0
220
0.0
230
1.0
 70
    24
 71
     3
 72
    15
 73
    11
 74
     0
 42
0.000000001
 43
0.0000000001
 40
0.0
 40
0.0
 40
0.0
 40
0.0
 40
0.125
 40
0.234375
 40
0.375
 40
0.484375
 40
0.625
 40
0.75
 40
0.875
 40
1.0
 40
1.0
 40
1.0
 40
1.0
 10
999.8244424391057
 20
2013.382909691096
 30
0.0
 10
999.8348853750183
 20
2013.388938922957
 30
0.0
 10
999.8657206147044
 20
2013.40674165689
 30
0.0
 10
999.9445576644337
 20
2013.452258248773
 30
0.0
 10
1000.063963536472
 20
2013.521197261137
 30
0.0
 10
1000.220056848283
 20
2013.61131777673
 30
0.0
 10
1000.369292864489
 20
2013.697479230859
 30
0.0
 10
1000.537521838372
 20
2013.794606274217
 30
0.0
 10
1000.698500637906
 20
2013.887547427462
 30
0.0
 10
1000.809418203036
 20
2013.951585713547
 30
0.0
 10
1000.865447767875
 20
2013.983934397889
 30
0.0
1001
REVIT
1002
{
1070
     3
1000
790271
1002
}
  0
SPLINE
  5
268
330
1FE
100
AcDbEntity
  8
P-PIPE
370
    18
100
AcDbSpline
210
0.0
220
0.0
230
1.0
 70
    24
 71
     3
 72
    15
 73
    11
 74
     0
 42
0.000000001
 43
0.0000000001
 40
0.0
 40
0.0
 40
0.0
 40
0.0
 40
0.125
 40
0.25
 40
0.375
 40
0.5
 40
0.625
 40
0.75
 40
0.875
 40
1.0
 40
1.0
 40
1.0
 40
1.0
 10
998.1143539430972
 20
2009.218900116984
 30
0.0
 10
998.1143539430972
 20
2009.283597485669
 30
0.0
 10
998.1143539430972
 20
2009.411662249449
 30
0.0
 10
998.1143539430972
 20
2009.597597693701
 30
0.0
 10
998.1143539430972
 20
2009.783886778483
 30
0.0
 10
998.1143539430972
 20
2009.957768903714
 30
0.0
 10
998.1143539430972
 20
2010.130384166596
 30
0.0
 10
998.1143539430972
 20
2010.278100472307
 30
0.0
 10
998.1143539430972
 20
2010.370771124756
 30
0.0
 10
998.1143539430972
 20
2010.40889106685
 30
0.0
 10
998.1143539430972
 20
2010.420949530571
 30
0.0
1001
REVIT
1002
{
1070
     3
1000
790271
1002
}
  0
SPLINE
  5
269
330
1FE
100
AcDbEntity
  8
P-PIPE
370
    18
100
AcDbSpline
210
0.0
220
0.0
230
1.0
 70
    24
 71
     3
 72
    15
 73
    11
 74
     0
 42
0.000000001
 43
0.0000000001
 40
0.0
 40
0.0
 40
0.0
 40
0.0
 40
0.125
 40
0.234375
 40
0.375
 40
0.484375
 40
0.625
 40
0.75
 40
0.875
 40
1.0
 40
1.0
 40
1.0
 40
1.0
 10
998.1143539430972
 20
1989.544168169451
 30
0.0
 10
998.1143539430972
 20
1989.556226633171
 30
0.0
 10
998.1143539430972
 20
1989.591832101038
 30
0.0
 10
998.1143539430972
 20
1989.682865284805
 30
0.0
 10
998.1143539430972
 20
1989.820743309533
 30
0.0
 10
998.1143539430972
 20
1990.000984340718
 30
0.0
 10
998.1143539430972
 20
1990.173307248978
 30
0.0
 10
998.1143539430972
 20
1990.367561335691
 30
0.0
 10
998.1143539430972
 20
1990.553443642181
 30
0.0
 10
998.1143539430972
 20
1990.681520214352
 30
0.0
 10
998.1143539430972
 20
1990.746217583037
 30
0.0
1001
REVIT
1002
{
1070
     3
1000
790271
1002
}
  0
SPLINE
  5
26A
330
1FE
100
AcDbEntity
  8
P-PIPE
370
    18
100
AcDbSpline
210
0.0
220
0.0
230
1.0
 70
    24
 71
     3
 72
    15
 73
    11
 74
     0
 42
0.000000001
 43
0.0000000001
 40
0.0
 40
0.0
 40
0.0
 40
0.0
 40
0.125
 40
0.25
 40
0.375
 40
0.5
 40
0.625
 40
0.75
 40
0.875
 40
1.0
 40
1.0
 40
1.0
 40
1.0
 10
1000.865447767875
 20
1985.981183302132
 30
0.0
 10
1000.809418203036
 20
1986.013531986474
 30
0.0
 10
1000.698510864274
 20
1986.077564368364
 30
0.0
 10
1000.537486046087
 20
1986.170532090491
 30
0.0
 10
1000.376154966218
 20
1986.263676632881
 30
0.0
 10
1000.225568628504
 20
1986.350617695497
 30
0.0
 10
1000.076079425767
 20
1986.436925326938
 30
0.0
 10
999.9481533524683
 20
1986.510783479793
 30
0.0
 10
999.8678982132624
 20
1986.557118806018
 30
0.0
 10
999.8348853750181
 20
1986.576178777065
 30
0.0
 10
999.8244424391055
 20
1986.582208008925
 30
0.0
1001
REVIT
1002
{
1070
     3
1000
790271
1002
}
  0
SPLINE
  5
26B
330
1FE
100
AcDbEntity
  8
P-PIPE
370
    18
100
AcDbSpline
210
0.0
220
0.0
230
1.0
 70
    24
 71
     3
 72
    15
 73
    11
 74
     0
 42
0.000000001
 43
0.0000000001
 40
0.0
 40
0.0
 40
0.0
 40
0.0
 40
0.125
 40
0.25
 40
0.375
 40
0.5
 40
0.625
 40
0.75
 40
0.875
 40
1.0
 40
1.0
 40
1.0
 40
1.0
 10
1016.863260118319
 20
2023.220275664863
 30
0.0
 10
1016.919289683158
 20
2023.252624349205
 30
0.0
 10
1017.03019702192
 20
2023.316656731095
 30
0.0
 10
1017.191221840107
 20
2023.409624453222
 30
0.0
 10
1017.352552919976
 20
2023.502768995612
 30
0.0
 10
1017.50313925769
 20
2023.589710058228
 30
0.0
 10
1017.652628460427
 20
2023.676017689669
 30
0.0
 10
1017.780554533726
 20
2023.749875842525
 30
0.0
 10
1017.860809672932
 20
2023.796211168749
 30
0.0
 10
1017.893822511176
 20
2023.815271139795
 30
0.0
 10
1017.904265447089
 20
2023.821300371656
 30
0.0
1001
REVIT
1002
{
1070
     3
1000
790271
1002
}
  0
SPLINE
  5
26C
330
1FE
100
AcDbEntity
  8
P-PIPE
370
    18
100
AcDbSpline
210
0.0
220
0.0
230
1.0
 70
    24
 71
     3
 72
    15
 73
    11
 74
     0
 42
0.000000001
 43
0.0000000001
 40
0.0
 40
0.0
 40
0.0
 40
0.0
 40
0.125
 40
0.234375
 40
0.375
 40
0.484375
 40
0.625
 40
0.75
 40
0.875
 40
1.0
 40
1.0
 40
1.0
 40
1.0
 10
1017.904265447088
 20
1976.143817328365
 30
0.0
 10
1017.893822511176
 20
1976.149846560225
 30
0.0
 10
1017.86298727149
 20
1976.167649294159
 30
0.0
 10
1017.784150221761
 20
1976.213165886042
 30
0.0
 10
1017.664744349722
 20
1976.282104898406
 30
0.0
 10
1017.508651037911
 20
1976.372225413999
 30
0.0
 10
1017.359415021704
 20
1976.458386868129
 30
0.0
 10
1017.191186047821
 20
1976.555513911485
 30
0.0
 10
1017.030207248287
 20
1976.64845506473
 30
0.0
 10
1016.919289683158
 20
1976.712493350816
 30
0.0
 10
1016.863260118319
 20
1976.744842035158
 30
0.0
1001
REVIT
1002
{
1070
     3
1000
790271
1002
}
  0
ARC
  5
26D
330
1FE
100
AcDbEntity
  8
P-PIPE
370
    18
100
AcDbCircle
 10
1019.614353943097
 20
1999.982558850011
 30
0.0
 40
22.9999999999998
100
AcDbArc
 50
304.4309781677276
 51
320.7353656644098
1001
REVIT
1002
{
1070
     3
1000
790271
1002
}
  0
ARC
  5
26E
330
1FE
100
AcDbEntity
  8
P-PIPE
370
    18
100
AcDbCircle
 10
1019.614353943097
 20
1999.982558850011
 30
0.0
 40
22.99999999999977
100
AcDbArc
 50
339.264634335587
 51
20.73536566441034
1001
REVIT
1002
{
1070
     3
1000
790271
1002
}
  0
ARC
  5
26F
330
1FE
100
AcDbEntity
  8
P-PIPE
370
    18
100
AcDbCircle
 10
1019.614353943097
 20
1999.982558850011
 30
0.0
 40
22.99999999999986
100
AcDbArc
 50
39.26463433558826
 51
80.73536566441042
1001
REVIT
1002
{
1070
     3
1000
790271
1002
}
  0
ARC
  5
270
330
1FE
100
AcDbEntity
  8
P-PIPE
370
    18
100
AcDbCircle
 10
1019.614353943097
 20
1999.982558850011
 30
0.0
 40
22.99999999999996
100
AcDbArc
 50
99.26463433558961
 51
140.7353656644094
1001
REVIT
1002
{
1070
     3
1000
790271
1002
}
  0
ARC
  5
271
330
1FE
100
AcDbEntity
  8
P-PIPE
370
    18
100
AcDbCircle
 10
1019.614353943097
 20
1999.982558850011
 30
0.0
 40
22.99999999999998
100
AcDbArc
 50
159.2646343355903
 51
200.7353656644087
1001
REVIT
1002
{
1070
     3
1000
790271
1002
}
  0
ARC
  5
272
330
1FE
100
AcDbEntity
  8
P-PIPE
370
    18
100
AcDbCircle
 10
1019.614353943097
 20
1999.982558850011
 30
0.0
 40
22.99999999999981
100
AcDbArc
 50
219.2646343355892
 51
235.5690218322701
1001
REVIT
1002
{
1070
     3
1000
790271
1002
}
  0
ARC
  5
273
330
1FE
100
AcDbEntity
  8
P-PIPE
370
    18
100
AcDbCircle
 10
1019.614353943097
 20
1999.982558850011
 30
0.0
 40
23.49999999999989
100
AcDbArc
 50
36.28588778502147
 51
83.71411221497966
1001
REVIT
1002
{
1070
     3
1000
790271
1002
}
  0
ARC
  5
274
330
1FE
100
AcDbEntity
  8
P-PIPE
370
    18
100
AcDbCircle
 10
1019.614353943097
 20
1999.982558850011
 30
0.0
 40
23.49999999999995
100
AcDbArc
 50
336.2858877850205
 51
23.71411221497911
1001
REVIT
1002
{
1070
     3
1000
790271
1002
}
  0
ARC
  5
275
330
1FE
100
AcDbEntity
  8
P-PIPE
370
    18
100
AcDbCircle
 10
1019.614353943097
 20
1999.982558850011
 30
0.0
 40
23.50000000000006
100
AcDbArc
 50
303.6137963197551
 51
323.7141122149799
1001
REVIT
1002
{
1070
     3
1000
790271
1002
}
  0
ARC
  5
276
330
1FE
100
AcDbEntity
  8
P-PIPE
370
    18
100
AcDbCircle
 10
1019.614353943097
 20
1999.982558850011
 30
0.0
 40
23.50000000000011
100
AcDbArc
 50
216.2858877850218
 51
236.3862036802446
1001
REVIT
1002
{
1070
     3
1000
790271
1002
}
  0
ARC
  5
277
330
1FE
100
AcDbEntity
  8
P-PIPE
370
    18
100
AcDbCircle
 10
1019.614353943097
 20
1999.982558850011
 30
0.0
 40
23.50000000000005
100
AcDbArc
 50
156.2858877850234
 51
203.7141122149791
1001
REVIT
1002
{
1070
     3
1000
790271
1002
}
  0
ARC
  5
278
330
1FE
100
AcDbEntity
  8
P-PIPE
370
    18
100
AcDbCircle
 10
1019.614353943097
 20
1999.982558850011
 30
0.0
 40
23.50000000000005
100
AcDbArc
 50
96.28588778502251
 51
143.7141122149788
1001
REVIT
1002
{
1070
     3
1000
790271
1002
}
  0
ENDBLK
  5
27A
330
1FE
100
AcDbEntity
  8
0
100
AcDbBlockEnd
  0
ENDSEC
  0
SECTION
  2
ENTITIES
  0
INSERT
  5
152
330
70
100
AcDbEntity
  8
P-PIPE
100
AcDbBlockReference
  2
Automatic flow rate regulator valve_Caleffi_121 DN15 - 1_2__-859151-Est - Idraulica
 10
0.0
 20
0.0
 30
0.0
1001
REVIT
1002
{
1070
     1
1000
863131
1002
}
1002
{
1070
     5
1000
859151
1002
}
1002
{
1070
     2
1000
-2008055
1002
}
  0
INSERT
  5
1FD
330
70
100
AcDbEntity
  8
P-PIPE
100
AcDbBlockReference
  2
Automatic flow rate regulator valve_Caleffi_121 DN15 - 1_2__-V1-Est - Idraulica
 10
0.0
 20
0.0
 30
0.0
1001
REVIT
1002
{
1070
     1
1000
863152
1002
}
1002
{
1070
     5
1000
859151
1002
}
1002
{
1070
     2
1000
-2008055
1002
}
  0
INSERT
  5
27B
330
70
100
AcDbEntity
  8
P-PIPE
100
AcDbBlockReference
  2
Automatic flow rate regulator valve_Caleffi_121 DN15 - 1_2__-V2-Est - Idraulica
 10
0.0
 20
0.0
 30
0.0
1001
REVIT
1002
{
1070
     1
1000
863172
1002
}
1002
{
1070
     5
1000
859151
1002
}
1002
{
1070
     2
1000
-2008055
1002
}
  0
ENDSEC
  0
SECTION
  2
OBJECTS
  0
DICTIONARY
  5
C
330
0
100
AcDbDictionary
281
     1
  3
ACAD_CIP_PREVIOUS_PRODUCT_INFO
350
79
  3
ACAD_COLOR
350
63
  3
ACAD_DETAILVIEWSTYLE
350
6A
  3
ACAD_GROUP
350
D
  3
ACAD_IMAGE_VARS
350
7A
  3
ACAD_LAYOUT
350
62
  3
ACAD_MATERIAL
350
10
  3
ACAD_MLEADERSTYLE
350
66
  3
ACAD_MLINESTYLE
350
5F
  3
ACAD_PLOTSETTINGS
350
61
  3
ACAD_PLOTSTYLENAME
350
E
  3
ACAD_SCALELIST
350
42
  3
ACAD_SECTIONVIEWSTYLE
350
68
  3
ACAD_TABLESTYLE
350
64
  3
ACAD_VISUALSTYLE
350
29
  3
ACDB_RECOMPOSE_DATA
350
28A
  3
AcDbVariableDictionary
350
7B
  3
REVIT_DICTIONARY
350
27D
  0
DICTIONARY
  5
282
330
70
100
AcDbDictionary
280
     1
281
     1
  3
ACAD_SORTENTS
360
283
  0
XRECORD
  5
79
102
{ACAD_REACTORS
330
C
102
}
330
C
100
AcDbXrecord
280
     1
300
RVT
300
2014
300
RVT2014
  0
DICTIONARY
  5
63
102
{ACAD_REACTORS
330
C
102
}
330
C
100
AcDbDictionary
281
     1
  0
DICTIONARY
  5
6A
102
{ACAD_REACTORS
330
C
102
}
330
C
100
AcDbDictionary
281
     1
  3
Imperial24
350
6B
  0
DICTIONARY
  5
D
102
{ACAD_REACTORS
330
C
102
}
330
C
100
AcDbDictionary
281
     1
  0
RASTERVARIABLES
  5
7A
102
{ACAD_REACTORS
330
C
102
}
330
C
100
AcDbRasterVariables
 90
        0
 70
     0
 71
     1
 72
     1
  0
DICTIONARY
  5
62
102
{ACAD_REACTORS
330
C
102
}
330
C
100
AcDbDictionary
281
     1
  3
Layout1
350
6F
  3
Layout2
350
77
  3
Model
350
73
  0
DICTIONARY
  5
10
102
{ACAD_REACTORS
330
C
102
}
330
C
100
AcDbDictionary
281
     1
  3
ByBlock
350
19
  3
ByLayer
350
11
  3
Global
350
21
  0
DICTIONARY
  5
66
102
{ACAD_REACTORS
330
C
102
}
330
C
100
AcDbDictionary
281
     1
  3
Standard
350
67
  0
DICTIONARY
  5
5F
102
{ACAD_REACTORS
330
C
102
}
330
C
100
AcDbDictionary
281
     1
  3
Standard
350
60
  0
DICTIONARY
  5
61
102
{ACAD_REACTORS
330
C
102
}
330
C
100
AcDbDictionary
281
     1
  0
ACDBDICTIONARYWDFLT
  5
E
102
{ACAD_REACTORS
330
C
102
}
330
C
100
AcDbDictionary
281
     1
  3
Normal
350
F
100
AcDbDictionaryWithDefault
340
F
  0
DICTIONARY
  5
42
102
{ACAD_REACTORS
330
C
102
}
330
C
100
AcDbDictionary
281
     1
  3
A0
350
43
  3
A1
350
44
  3
A2
350
45
  3
A3
350
46
  3
A4
350
47
  3
A5
350
48
  3
A6
350
49
  3
A7
350
4A
  3
A8
350
4B
  3
A9
350
4C
  3
B0
350
4D
  3
B1
350
4E
  3
B2
350
4F
  3
B3
350
50
  3
B4
350
51
  3
B5
350
52
  3
B6
350
53
  0
DICTIONARY
  5
68
102
{ACAD_REACTORS
330
C
102
}
330
C
100
AcDbDictionary
281
     1
  3
Imperial24
350
69
  0
DICTIONARY
  5
64
102
{ACAD_REACTORS
330
C
102
}
330
C
100
AcDbDictionary
281
     1
  3
Standard
350
65
  0
DICTIONARY
  5
29
102
{ACAD_REACTORS
330
C
102
}
330
C
100
AcDbDictionary
281
     1
  3
2dWireframe
350
2F
  3
Basic
350
2E
  3
Brighten
350
35
  3
ColorChange
350
39
  3
Conceptual
350
32
  3
Dim
350
34
  3
EdgeColorOff
350
41
  3
Facepattern
350
38
  3
Flat
350
2A
  3
FlatWithEdges
350
2B
  3
Gouraud
350
2C
  3
GouraudWithEdges
350
2D
  3
Hidden
350
31
  3
JitterOff
350
3F
  3
Linepattern
350
37
  3
OverhangOff
350
40
  3
Realistic
350
33
  3
Shaded
350
3E
  3
Shaded with edges
350
3D
  3
Shades of Gray
350
3A
  3
Sketchy
350
3B
  3
Thicken
350
36
  3
Wireframe
350
30
  3
X-Ray
350
3C
  0
XRECORD
  5
28A
102
{ACAD_REACTORS
330
C
102
}
330
C
100
AcDbXrecord
280
     1
 90
        1
330
65
330
69
330
6B
  0
DICTIONARY
  5
7B
102
{ACAD_REACTORS
330
C
102
}
330
C
100
AcDbDictionary
281
     1
  3
CANNOSCALE
350
80
  3
CMLEADERSTYLE
350
7D
  3
CTABLESTYLE
350
7C
  3
CVIEWDETAILSTYLE
350
7E
  3
CVIEWSECTIONSTYLE
350
7F
  0
DICTIONARY
  5
27D
102
{ACAD_REACTORS
330
C
102
}
330
C
100
AcDbDictionary
281
     1
  3
DRAWING_TOOL
350
281
  3
REVIT_CATEGORY_MAPPING
350
27F
  3
REVIT_SUB_CATEGORY_MAPPING
350
280
  3
REVIT_TYPE_MAPPING
350
27E
  0
SORTENTSTABLE
  5
283
102
{ACAD_REACTORS
330
282
102
}
330
282
100
AcDbSortentsTable
330
70
  0
ACDBDETAILVIEWSTYLE
  5
6B
102
{ACAD_XDICTIONARY
360
288
102
}
102
{ACAD_REACTORS
330
6A
102
}
330
6A
100
AcDbModelDocViewStyle
 70
     0
  3
Imperial24
290
     0
100
AcDbDetailViewStyle
 70
     0
 71
     0
 90
        3
 71
     1
340
55
 62
   256
 40
0.24
340
0
 62
   256
 40
0.24
300

 40
0.36
280
     3
 71
     2
340
5D
 90
       25
 62
   256
 71
     3
340
55
 62
   256
 40
0.24
 90
        1
 40
0.75
 90
        1
300
%<\AcVar ViewType \f "%tc1">% %<\AcVar ViewDetailId>%\PSCALE %<\AcVar ViewScale \f "%sn">%
 71
     4
340
5D
 90
       25
 62
   256
340
5D
 90
       25
 62
   256
280
     0
  0
LAYOUT
  5
6F
102
{ACAD_REACTORS
330
62
102
}
330
62
100
AcDbPlotSettings
  1

  2

  4

  6

 40
0.0
 41
0.0
 42
0.0
 43
0.0
 44
0.0
 45
0.0
 46
0.0
 47
0.0
 48
0.0
 49
0.0
140
0.0
141
0.0
142
1.0
143
1.0
 70
   688
 72
     0
 73
     0
 74
     5
  7

 75
    16
147
1.0
 76
     0
 77
     2
 78
   300
148
0.0
149
0.0
100
AcDbLayout
  1
Layout1
 70
     1
 71
     1
 10
0.0
 20
0.0
 11
12.0
 21
9.0
 12
0.0
 22
0.0
 32
0.0
 14
0.0
 24
0.0
 34
0.0
 15
0.0
 25
0.0
 35
0.0
146
0.0
 13
0.0
 23
0.0
 33
0.0
 16
1.0
 26
0.0
 36
0.0
 17
0.0
 27
1.0
 37
0.0
 76
     0
330
6C
  0
LAYOUT
  5
77
102
{ACAD_REACTORS
330
62
102
}
330
62
100
AcDbPlotSettings
  1

  2

  4

  6

 40
0.0
 41
0.0
 42
0.0
 43
0.0
 44
0.0
 45
0.0
 46
0.0
 47
0.0
 48
0.0
 49
0.0
140
0.0
141
0.0
142
1.0
143
1.0
 70
   688
 72
     0
 73
     0
 74
     5
  7

 75
    16
147
1.0
 76
     0
 77
     2
 78
   300
148
0.0
149
0.0
100
AcDbLayout
  1
Layout2
 70
     1
 71
     2
 10
0.0
 20
0.0
 11
12.0
 21
9.0
 12
0.0
 22
0.0
 32
0.0
 14
0.0
 24
0.0
 34
0.0
 15
0.0
 25
0.0
 35
0.0
146
0.0
 13
0.0
 23
0.0
 33
0.0
 16
1.0
 26
0.0
 36
0.0
 17
0.0
 27
1.0
 37
0.0
 76
     0
330
74
  0
LAYOUT
  5
73
102
{ACAD_REACTORS
330
62
102
}
330
62
100
AcDbPlotSettings
  1

  2

  4

  6

 40
0.0
 41
0.0
 42
0.0
 43
0.0
 44
0.0
 45
0.0
 46
0.0
 47
0.0
 48
0.0
 49
0.0
140
0.0
141
0.0
142
1.0
143
1.0
 70
  1712
 72
     0
 73
     0
 74
     0
  7

 75
     0
147
1.0
 76
     0
 77
     2
 78
   300
148
0.0
149
0.0
100
AcDbLayout
  1
Model
 70
     1
 71
     0
 10
0.0
 20
0.0
 11
12.0
 21
9.0
 12
0.0
 22
0.0
 32
0.0
 14
0.0
 24
0.0
 34
0.0
 15
0.0
 25
0.0
 35
0.0
146
0.0
 13
0.0
 23
0.0
 33
0.0
 16
1.0
 26
0.0
 36
0.0
 17
0.0
 27
1.0
 37
0.0
 76
     0
330
70
  0
MATERIAL
  5
19
102
{ACAD_XDICTIONARY
360
1A
102
}
102
{ACAD_REACTORS
330
10
102
}
330
10
100
AcDbMaterial
  1
ByBlock
 72
     0
 43
0.0208333333333333
 43
0.0
 43
0.0
 43
0.0
 43
0.0
 43
0.0208333333333333
 43
0.0
 43
0.0
 43
0.0
 43
0.0
 43
1.0
 43
0.0
 43
0.0
 43
0.0
 43
0.0
 43
1.0
 77
     0
 47
0.0208333333333333
 47
0.0
 47
0.0
 47
0.0
 47
0.0
 47
0.0208333333333333
 47
0.0
 47
0.0
 47
0.0
 47
0.0
 47
1.0
 47
0.0
 47
0.0
 47
0.0
 47
0.0
 47
1.0
171
     0
 49
0.0208333333333333
 49
0.0
 49
0.0
 49
0.0
 49
0.0
 49
0.0208333333333333
 49
0.0
 49
0.0
 49
0.0
 49
0.0
 49
1.0
 49
0.0
 49
0.0
 49
0.0
 49
0.0
 49
1.0
175
     0
142
0.0208333333333333
142
0.0
142
0.0
142
0.0
142
0.0
142
0.0208333333333333
142
0.0
142
0.0
142
0.0
142
0.0
142
1.0
142
0.0
142
0.0
142
0.0
142
0.0
142
1.0
179
     0
144
0.0208333333333333
144
0.0
144
0.0
144
0.0
144
0.0
144
0.0208333333333333
144
0.0
144
0.0
144
0.0
144
0.0
144
1.0
144
0.0
144
0.0
144
0.0
144
0.0
144
1.0
147
0.0208333333333333
147
0.0
147
0.0
147
0.0
147
0.0
147
0.0208333333333333
147
0.0
147
0.0
147
0.0
147
0.0
147
1.0
147
0.0
147
0.0
147
0.0
147
0.0
147
1.0
  0
MATERIAL
  5
11
102
{ACAD_XDICTIONARY
360
12
102
}
102
{ACAD_REACTORS
330
10
102
}
330
10
100
AcDbMaterial
  1
ByLayer
 72
     0
 43
0.0208333333333333
 43
0.0
 43
0.0
 43
0.0
 43
0.0
 43
0.0208333333333333
 43
0.0
 43
0.0
 43
0.0
 43
0.0
 43
1.0
 43
0.0
 43
0.0
 43
0.0
 43
0.0
 43
1.0
 77
     0
 47
0.0208333333333333
 47
0.0
 47
0.0
 47
0.0
 47
0.0
 47
0.0208333333333333
 47
0.0
 47
0.0
 47
0.0
 47
0.0
 47
1.0
 47
0.0
 47
0.0
 47
0.0
 47
0.0
 47
1.0
171
     0
 49
0.0208333333333333
 49
0.0
 49
0.0
 49
0.0
 49
0.0
 49
0.0208333333333333
 49
0.0
 49
0.0
 49
0.0
 49
0.0
 49
1.0
 49
0.0
 49
0.0
 49
0.0
 49
0.0
 49
1.0
175
     0
142
0.0208333333333333
142
0.0
142
0.0
142
0.0
142
0.0
142
0.0208333333333333
142
0.0
142
0.0
142
0.0
142
0.0
142
1.0
142
0.0
142
0.0
142
0.0
142
0.0
142
1.0
179
     0
144
0.0208333333333333
144
0.0
144
0.0
144
0.0
144
0.0
144
0.0208333333333333
144
0.0
144
0.0
144
0.0
144
0.0
144
1.0
144
0.0
144
0.0
144
0.0
144
0.0
144
1.0
147
0.0208333333333333
147
0.0
147
0.0
147
0.0
147
0.0
147
0.0208333333333333
147
0.0
147
0.0
147
0.0
147
0.0
147
1.0
147
0.0
147
0.0
147
0.0
147
0.0
147
1.0
  0
MATERIAL
  5
21
102
{ACAD_XDICTIONARY
360
22
102
}
102
{ACAD_REACTORS
330
10
102
}
330
10
100
AcDbMaterial
  1
Global
 72
     0
 43
0.0208333333333333
 43
0.0
 43
0.0
 43
0.0
 43
0.0
 43
0.0208333333333333
 43
0.0
 43
0.0
 43
0.0
 43
0.0
 43
1.0
 43
0.0
 43
0.0
 43
0.0
 43
0.0
 43
1.0
 77
     0
 47
0.0208333333333333
 47
0.0
 47
0.0
 47
0.0
 47
0.0
 47
0.0208333333333333
 47
0.0
 47
0.0
 47
0.0
 47
0.0
 47
1.0
 47
0.0
 47
0.0
 47
0.0
 47
0.0
 47
1.0
171
     0
 49
0.0208333333333333
 49
0.0
 49
0.0
 49
0.0
 49
0.0
 49
0.0208333333333333
 49
0.0
 49
0.0
 49
0.0
 49
0.0
 49
1.0
 49
0.0
 49
0.0
 49
0.0
 49
0.0
 49
1.0
175
     0
142
0.0208333333333333
142
0.0
142
0.0
142
0.0
142
0.0
142
0.0208333333333333
142
0.0
142
0.0
142
0.0
142
0.0
142
1.0
142
0.0
142
0.0
142
0.0
142
0.0
142
1.0
179
     0
144
0.0208333333333333
144
0.0
144
0.0
144
0.0
144
0.0
144
0.0208333333333333
144
0.0
144
0.0
144
0.0
144
0.0
144
1.0
144
0.0
144
0.0
144
0.0
144
0.0
144
1.0
147
0.0208333333333333
147
0.0
147
0.0
147
0.0
147
0.0
147
0.0208333333333333
147
0.0
147
0.0
147
0.0
147
0.0
147
1.0
147
0.0
147
0.0
147
0.0
147
0.0
147
1.0
  0
MLEADERSTYLE
  5
67
102
{ACAD_REACTORS
330
66
102
}
330
66
100
AcDbMLeaderStyle
179
     2
170
     2
171
     1
172
     0
 90
        2
 40
0.0
 41
0.0
173
     1
 91
-1056964608
340
5B
 92
       -2
290
     1
 42
0.09
291
     1
 43
0.36
  3
Standard
 44
0.18
300

342
55
174
     1
178
     6
175
     1
176
     0
 93
-1056964608
 45
0.18
292
     0
297
     0
 46
0.18
 94
-1056964608
 47
1.0
 49
1.0
140
1.0
293
     1
141
0.0
294
     1
177
     0
142
1.0
295
     1
296
     0
143
0.125
271
     0
272
     9
273
     9
298
     1
  0
MLINESTYLE
  5
60
102
{ACAD_REACTORS
330
5F
102
}
330
5F
100
AcDbMlineStyle
  2
STANDARD
 70
     0
  3

 62
   256
 51
90.0
 52
90.0
 71
     2
 49
0.5
 62
   256
  6
BYLAYER
 49
-0.5
 62
   256
  6
BYLAYER
  0
ACDBPLACEHOLDER
  5
F
102
{ACAD_REACTORS
330
E
102
}
330
E
  0
SCALE
  5
43
102
{ACAD_REACTORS
330
42
102
}
330
42
100
AcDbScale
 70
     0
300
1:1
140
1.0
141
1.0
290
     1
  0
SCALE
  5
44
102
{ACAD_REACTORS
330
42
102
}
330
42
100
AcDbScale
 70
     0
300
1/128" = 1'-0"
140
0.0078125
141
12.0
290
     0
  0
SCALE
  5
45
102
{ACAD_REACTORS
330
42
102
}
330
42
100
AcDbScale
 70
     0
300
1/64" = 1'-0"
140
0.015625
141
12.0
290
     0
  0
SCALE
  5
46
102
{ACAD_REACTORS
330
42
102
}
330
42
100
AcDbScale
 70
     0
300
1/32" = 1'-0"
140
0.03125
141
12.0
290
     0
  0
SCALE
  5
47
102
{ACAD_REACTORS
330
42
102
}
330
42
100
AcDbScale
 70
     0
300
1/16" = 1'-0"
140
0.0625
141
12.0
290
     0
  0
SCALE
  5
48
102
{ACAD_REACTORS
330
42
102
}
330
42
100
AcDbScale
 70
     0
300
3/32" = 1'-0"
140
0.09375
141
12.0
290
     0
  0
SCALE
  5
49
102
{ACAD_REACTORS
330
42
102
}
330
42
100
AcDbScale
 70
     0
300
1/8" = 1'-0"
140
0.125
141
12.0
290
     0
  0
SCALE
  5
4A
102
{ACAD_REACTORS
330
42
102
}
330
42
100
AcDbScale
 70
     0
300
3/16" = 1'-0"
140
0.1875
141
12.0
290
     0
  0
SCALE
  5
4B
102
{ACAD_REACTORS
330
42
102
}
330
42
100
AcDbScale
 70
     0
300
1/4" = 1'-0"
140
0.25
141
12.0
290
     0
  0
SCALE
  5
4C
102
{ACAD_REACTORS
330
42
102
}
330
42
100
AcDbScale
 70
     0
300
3/8" = 1'-0"
140
0.375
141
12.0
290
     0
  0
SCALE
  5
4D
102
{ACAD_REACTORS
330
42
102
}
330
42
100
AcDbScale
 70
     0
300
1/2" = 1'-0"
140
0.5
141
12.0
290
     0
  0
SCALE
  5
4E
102
{ACAD_REACTORS
330
42
102
}
330
42
100
AcDbScale
 70
     0
300
3/4" = 1'-0"
140
0.75
141
12.0
290
     0
  0
SCALE
  5
4F
102
{ACAD_REACTORS
330
42
102
}
330
42
100
AcDbScale
 70
     0
300
1" = 1'-0"
140
1.0
141
12.0
290
     0
  0
SCALE
  5
50
102
{ACAD_REACTORS
330
42
102
}
330
42
100
AcDbScale
 70
     0
300
1-1/2" = 1'-0"
140
1.5
141
12.0
290
     0
  0
SCALE
  5
51
102
{ACAD_REACTORS
330
42
102
}
330
42
100
AcDbScale
 70
     0
300
3" = 1'-0"
140
3.0
141
12.0
290
     0
  0
SCALE
  5
52
102
{ACAD_REACTORS
330
42
102
}
330
42
100
AcDbScale
 70
     0
300
6" = 1'-0"
140
6.0
141
12.0
290
     0
  0
SCALE
  5
53
102
{ACAD_REACTORS
330
42
102
}
330
42
100
AcDbScale
 70
     0
300
1'-0" = 1'-0"
140
12.0
141
12.0
290
     0
  0
ACDBSECTIONVIEWSTYLE
  5
69
102
{ACAD_XDICTIONARY
360
286
102
}
102
{ACAD_REACTORS
330
68
102
}
330
68
100
AcDbModelDocViewStyle
 70
     0
  3
Imperial24
290
     0
100
AcDbSectionViewStyle
 70
     0
 71
     0
 90
       78
 71
     1
340
55
 62
   256
 40
0.24
340
0
340
0
 62
   256
 40
0.24
300
I, O, Q, S, X, Z
 40
0.48
 90
        3
 40
0.18
 90
        1
 71
     2
340
5D
 90
       25
 62
   256
340
5D
 90
       50
 62
   256
 40
0.24
 40
0.0
 40
0.24
 71
     3
340
55
 62
   256
 40
0.24
 90
        1
 40
0.75
 90
        1
300
%<\AcVar ViewType \f "%tc1">% %<\AcVar ViewSectionStartId>%-%<\AcVar ViewSectionEndId>%\PSCALE %<\AcVar ViewScale \f "%sn">%
 71
     4
 62
   256
 62
   257
300
ANSI31
 40
1.0
 90
        0
290
     0
290
     0
 90
        6
 40
0.0
 40
1.570796326794896
 40
0.2617993877991494
 40
1.308996938995747
 40
-0.2617993877991494
 40
1.832595714594046
  0
TABLESTYLE
  5
65
102
{ACAD_XDICTIONARY
360
284
102
}
102
{ACAD_REACTORS
330
64
102
}
330
64
100
AcDbTableStyle
280
     0
  3
Standard
 70
     0
 71
     0
 40
0.06
 41
0.06
280
     0
281
     0
  7
Standard
140
0.18
170
     2
 62
     0
 63
     7
283
     0
 90
      512
 91
        0
  1

274
    -2
284
     1
 64
     0
275
    -2
285
     1
 65
     0
276
    -2
286
     1
 66
     0
277
    -2
287
     1
 67
     0
278
    -2
288
     1
 68
     0
279
    -2
289
     1
 69
     0
  7
Standard
140
0.25
170
     5
 62
     0
 63
     7
283
     0
 90
      512
 91
        0
  1

274
    -2
284
     1
 64
     0
275
    -2
285
     1
 65
     0
276
    -2
286
     1
 66
     0
277
    -2
287
     1
 67
     0
278
    -2
288
     1
 68
     0
279
    -2
289
     1
 69
     0
  7
Standard
140
0.18
170
     5
 62
     0
 63
     7
283
     0
 90
      512
 91
        0
  1

274
    -2
284
     1
 64
     0
275
    -2
285
     1
 65
     0
276
    -2
286
     1
 66
     0
277
    -2
287
     1
 67
     0
278
    -2
288
     1
 68
     0
279
    -2
289
     1
 69
     0
  0
VISUALSTYLE
  5
2F
102
{ACAD_REACTORS
330
29
102
}
330
29
100
AcDbVisualStyle
  2
2dWireframe
 70
     4
177
     3
291
     0
 70
    58
 90
        0
176
     1
 90
        2
176
     1
 90
        0
176
     1
 90
        0
176
     1
 40
0.6
176
     1
 40
30.0
176
     1
 62
     7
420
 16777215
176
     1
 90
        1
176
     1
 90
        4
176
     1
 62
     7
176
     1
 62
   257
176
     1
 90
        1
176
     1
 90
        1
176
     1
 40
1.0
176
     1
 90
        0
176
     1
 62
   257
176
     1
 40
1.0
176
     1
 90
        1
176
     1
 90
        6
176
     1
 90
        2
176
     1
 62
     7
176
     1
 90
        5
176
     1
 90
        0
176
     1
 90
        0
176
     1
290
     0
176
     1
 90
        1
176
     1
 40
0.0
176
     1
 90
        0
176
     1
290
     1
176
     1
290
     1
176
     1
290
     0
176
     1
290
     0
176
     1
290
     0
176
     1
290
     0
176
     1
290
     0
176
     1
290
     0
176
     1
290
     0
176
     1
 90
       50
176
     1
 40
0.0
176
     1
 40
1.0
176
     1
 90
        0
176
     1
 62
    18
420
        0
176
     1
 90
       50
176
     1
 90
        3
176
     1
 62
     5
420
      255
176
     1
290
     0
176
     1
 90
       50
176
     1
 90
       50
176
     1
 90
       50
176
     1
290
     0
176
     1
 90
       50
176
     1
 62
   256
176
     0
 40
1.0
176
     0
 90
        2
176
     1
  1
strokes_ogs.tif
176
     1
290
     0
176
     1
 40
1.0
176
     1
 40
1.0
176
     1
  0
VISUALSTYLE
  5
2E
102
{ACAD_REACTORS
330
29
102
}
330
29
100
AcDbVisualStyle
  2
Basic
 70
     7
177
     3
291
     1
 70
    58
 90
        1
176
     1
 90
        0
176
     1
 90
        1
176
     1
 90
        0
176
     1
 40
0.6
176
     1
 40
30.0
176
     1
 62
     7
420
 16777215
176
     1
 90
        0
176
     1
 90
        4
176
     1
 62
     7
176
     1
 62
   257
176
     1
 90
        1
176
     1
 90
        1
176
     1
 40
1.0
176
     1
 90
        8
176
     1
 62
     7
176
     1
 40
1.0
176
     1
 90
        1
176
     1
 90
        6
176
     1
 90
        2
176
     1
 62
     7
176
     1
 90
        5
176
     1
 90
        0
176
     1
 90
        0
176
     1
290
     0
176
     1
 90
        1
176
     1
 40
0.0
176
     1
 90
        0
176
     1
290
     0
176
     1
290
     1
176
     1
290
     1
176
     1
290
     0
176
     1
290
     0
176
     1
290
     0
176
     1
290
     0
176
     1
290
     0
176
     1
290
     0
176
     1
 90
       50
176
     1
 40
0.0
176
     1
 40
1.0
176
     1
 90
        0
176
     1
 62
    18
420
        0
176
     1
 90
       50
176
     1
 90
        3
176
     1
 62
     5
420
      255
176
     1
290
     0
176
     1
 90
       50
176
     1
 90
       50
176
     1
 90
       50
176
     1
290
     0
176
     1
 90
       50
176
     1
 62
   256
176
     0
 40
1.0
176
     0
 90
        2
176
     1
  1
strokes_ogs.tif
176
     1
290
     0
176
     1
 40
1.0
176
     1
 40
1.0
176
     1
  0
VISUALSTYLE
  5
35
102
{ACAD_REACTORS
330
29
102
}
330
29
100
AcDbVisualStyle
  2
Brighten
 70
    12
177
     3
291
     1
 70
    58
 90
        2
176
     1
 90
        2
176
     1
 90
        0
176
     1
 90
        0
176
     1
 40
0.6
176
     1
 40
30.0
176
     1
 62
     7
420
 16777215
176
     1
 90
        1
176
     1
 90
        4
176
     1
 62
     7
176
     1
 62
   257
176
     1
 90
        1
176
     1
 90
        1
176
     1
 40
1.0
176
     1
 90
        8
176
     1
 62
     7
176
     1
 40
1.0
176
     1
 90
        1
176
     1
 90
        6
176
     1
 90
        2
176
     1
 62
     7
176
     1
 90
        5
176
     1
 90
        0
176
     1
 90
        0
176
     1
290
     0
176
     1
 90
        1
176
     1
 40
50.0
176
     1
 90
        0
176
     1
290
     0
176
     1
290
     1
176
     1
290
     1
176
     1
290
     0
176
     1
290
     0
176
     1
290
     0
176
     1
290
     0
176
     1
290
     0
176
     1
290
     0
176
     1
 90
       50
176
     1
 40
0.0
176
     1
 40
1.0
176
     1
 90
        0
176
     1
 62
    18
420
        0
176
     1
 90
       50
176
     1
 90
        3
176
     1
 62
     5
420
      255
176
     1
290
     0
176
     1
 90
       50
176
     1
 90
       50
176
     1
 90
       50
176
     1
290
     0
176
     1
 90
       50
176
     1
 62
   256
176
     0
 40
1.0
176
     0
 90
        2
176
     1
  1
strokes_ogs.tif
176
     1
290
     0
176
     1
 40
1.0
176
     1
 40
1.0
176
     1
  0
VISUALSTYLE
  5
39
102
{ACAD_REACTORS
330
29
102
}
330
29
100
AcDbVisualStyle
  2
ColorChange
 70
    16
177
     3
291
     1
 70
    58
 90
        2
176
     1
 90
        2
176
     1
 90
        3
176
     1
 90
        0
176
     1
 40
0.6
176
     1
 40
30.0
176
     1
 62
     8
420
  8421504
176
     1
 90
        1
176
     1
 90
        4
176
     1
 62
     7
176
     1
 62
   257
176
     1
 90
        1
176
     1
 90
        1
176
     1
 40
1.0
176
     1
 90
        8
176
     1
 62
     8
420
  8421504
176
     1
 40
1.0
176
     1
 90
        1
176
     1
 90
        6
176
     1
 90
        2
176
     1
 62
     7
176
     1
 90
        5
176
     1
 90
        0
176
     1
 90
        0
176
     1
290
     0
176
     1
 90
        1
176
     1
 40
0.0
176
     1
 90
        0
176
     1
290
     0
176
     1
290
     1
176
     1
290
     1
176
     1
290
     0
176
     1
290
     0
176
     1
290
     0
176
     1
290
     0
176
     1
290
     0
176
     1
290
     0
176
     1
 90
       50
176
     1
 40
0.0
176
     1
 40
1.0
176
     1
 90
        0
176
     1
 62
    18
420
        0
176
     1
 90
       50
176
     1
 90
        3
176
     1
 62
     5
420
      255
176
     1
290
     0
176
     1
 90
       50
176
     1
 90
       50
176
     1
 90
       50
176
     1
290
     0
176
     1
 90
       50
176
     1
 62
   256
176
     0
 40
1.0
176
     0
 90
        2
176
     1
  1
strokes_ogs.tif
176
     1
290
     0
176
     1
 40
1.0
176
     1
 40
1.0
176
     1
  0
VISUALSTYLE
  5
32
102
{ACAD_REACTORS
330
29
102
}
330
29
100
AcDbVisualStyle
  2
Conceptual
 70
     9
177
     3
291
     0
 70
    58
 90
        3
176
     1
 90
        2
176
     1
 90
        0
176
     1
 90
        0
176
     1
 40
0.6
176
     1
 40
30.0
176
     1
 62
     7
420
 16777215
176
     1
 90
        2
176
     1
 90
        2
176
     1
 62
     7
176
     1
 62
   257
176
     1
 90
        1
176
     1
 90
        1
176
     1
 40
179.0
176
     1
 90
        8
176
     1
 62
     7
176
     1
 40
1.0
176
     1
 90
        1
176
     1
 90
        6
176
     1
 90
        2
176
     1
 62
     7
176
     1
 90
        3
176
     1
 90
        0
176
     1
 90
        0
176
     1
290
     0
176
     1
 90
        1
176
     1
 40
0.0
176
     1
 90
        0
176
     1
290
     0
176
     1
290
     1
176
     1
290
     1
176
     1
290
     0
176
     1
290
     0
176
     1
290
     0
176
     1
290
     0
176
     1
290
     0
176
     1
290
     0
176
     1
 90
       50
176
     1
 40
0.0
176
     1
 40
1.0
176
     1
 90
        0
176
     1
 62
    18
420
        0
176
     1
 90
       50
176
     1
 90
        3
176
     1
 62
     5
420
      255
176
     1
290
     0
176
     1
 90
       50
176
     1
 90
       50
176
     1
 90
       50
176
     1
290
     0
176
     1
 90
       50
176
     1
 62
   256
176
     0
 40
1.0
176
     0
 90
        2
176
     1
  1
strokes_ogs.tif
176
     1
290
     0
176
     1
 40
1.0
176
     1
 40
1.0
176
     1
  0
VISUALSTYLE
  5
34
102
{ACAD_REACTORS
330
29
102
}
330
29
100
AcDbVisualStyle
  2
Dim
 70
    11
177
     3
291
     1
 70
    58
 90
        2
176
     1
 90
        2
176
     1
 90
        0
176
     1
 90
        0
176
     1
 40
0.6
176
     1
 40
30.0
176
     1
 62
     7
420
 16777215
176
     1
 90
        1
176
     1
 90
        4
176
     1
 62
     7
176
     1
 62
   257
176
     1
 90
        1
176
     1
 90
        1
176
     1
 40
1.0
176
     1
 90
        8
176
     1
 62
     7
176
     1
 40
1.0
176
     1
 90
        1
176
     1
 90
        6
176
     1
 90
        2
176
     1
 62
     7
176
     1
 90
        5
176
     1
 90
        0
176
     1
 90
        0
176
     1
290
     0
176
     1
 90
        1
176
     1
 40
-50.0
176
     1
 90
        0
176
     1
290
     0
176
     1
290
     1
176
     1
290
     1
176
     1
290
     0
176
     1
290
     0
176
     1
290
     0
176
     1
290
     0
176
     1
290
     0
176
     1
290
     0
176
     1
 90
       50
176
     1
 40
0.0
176
     1
 40
1.0
176
     1
 90
        0
176
     1
 62
    18
420
        0
176
     1
 90
       50
176
     1
 90
        3
176
     1
 62
     5
420
      255
176
     1
290
     0
176
     1
 90
       50
176
     1
 90
       50
176
     1
 90
       50
176
     1
290
     0
176
     1
 90
       50
176
     1
 62
   256
176
     0
 40
1.0
176
     0
 90
        2
176
     1
  1
strokes_ogs.tif
176
     1
290
     0
176
     1
 40
1.0
176
     1
 40
1.0
176
     1
  0
VISUALSTYLE
  5
41
102
{ACAD_REACTORS
330
29
102
}
330
29
100
AcDbVisualStyle
  2
EdgeColorOff
 70
    22
177
     3
291
     1
 70
    58
 90
        2
176
     0
 90
        2
176
     0
 90
        0
176
     0
 90
        0
176
     0
 40
0.6
176
     0
 40
30.0
176
     0
 62
     7
420
 16777215
176
     0
 90
        1
176
     0
 90
        4
176
     0
 62
     7
176
     0
 62
   257
176
     0
 90
        1
176
     0
 90
        1
176
     0
 40
1.0
176
     0
 90
        8
176
     2
 62
     7
176
     0
 40
1.0
176
     0
 90
        1
176
     0
 90
        6
176
     0
 90
        2
176
     0
 62
     7
176
     0
 90
        5
176
     0
 90
        0
176
     0
 90
        0
176
     0
290
     0
176
     0
 90
        1
176
     0
 40
0.0
176
     0
 90
        0
176
     0
290
     0
176
     0
290
     1
176
     0
290
     1
176
     0
290
     0
176
     0
290
     0
176
     0
290
     0
176
     0
290
     0
176
     0
290
     0
176
     0
290
     0
176
     0
 90
       50
176
     0
 40
0.0
176
     0
 40
1.0
176
     0
 90
        0
176
     0
 62
    18
420
        0
176
     0
 90
       50
176
     0
 90
        3
176
     0
 62
     5
420
      255
176
     0
290
     0
176
     0
 90
       50
176
     0
 90
       50
176
     0
 90
       50
176
     0
290
     0
176
     0
 90
       50
176
     0
 62
   256
176
     0
 40
1.0
176
     0
 90
        2
176
     0
  1
strokes_ogs.tif
176
     0
290
     0
176
     0
 40
1.0
176
     0
 40
1.0
176
     0
  0
VISUALSTYLE
  5
38
102
{ACAD_REACTORS
330
29
102
}
330
29
100
AcDbVisualStyle
  2
Facepattern
 70
    15
177
     3
291
     1
 70
    58
 90
        2
176
     1
 90
        2
176
     1
 90
        0
176
     1
 90
        0
176
     1
 40
0.6
176
     1
 40
30.0
176
     1
 62
     7
420
 16777215
176
     1
 90
        1
176
     1
 90
        4
176
     1
 62
     7
176
     1
 62
   257
176
     1
 90
        1
176
     1
 90
        1
176
     1
 40
1.0
176
     1
 90
        8
176
     1
 62
     7
176
     1
 40
1.0
176
     1
 90
        1
176
     1
 90
        6
176
     1
 90
        2
176
     1
 62
     7
176
     1
 90
        5
176
     1
 90
        0
176
     1
 90
        0
176
     1
290
     0
176
     1
 90
        1
176
     1
 40
0.0
176
     1
 90
        0
176
     1
290
     0
176
     1
290
     1
176
     1
290
     1
176
     1
290
     0
176
     1
290
     0
176
     1
290
     0
176
     1
290
     0
176
     1
290
     0
176
     1
290
     0
176
     1
 90
       50
176
     1
 40
0.0
176
     1
 40
1.0
176
     1
 90
        0
176
     1
 62
    18
420
        0
176
     1
 90
       50
176
     1
 90
        3
176
     1
 62
     5
420
      255
176
     1
290
     0
176
     1
 90
       50
176
     1
 90
       50
176
     1
 90
       50
176
     1
290
     0
176
     1
 90
       50
176
     1
 62
   256
176
     0
 40
1.0
176
     0
 90
        2
176
     1
  1
strokes_ogs.tif
176
     1
290
     0
176
     1
 40
1.0
176
     1
 40
1.0
176
     1
  0
VISUALSTYLE
  5
2A
102
{ACAD_REACTORS
330
29
102
}
330
29
100
AcDbVisualStyle
  2
Flat
 70
     0
177
     3
291
     1
 70
    58
 90
        2
176
     1
 90
        1
176
     1
 90
        1
176
     1
 90
        2
176
     1
 40
0.6
176
     1
 40
30.0
176
     1
 62
     7
420
 16777215
176
     1
 90
        0
176
     1
 90
        0
176
     1
 62
     7
176
     1
 62
   257
176
     1
 90
        1
176
     1
 90
        1
176
     1
 40
1.0
176
     1
 90
        8
176
     1
 62
     7
176
     1
 40
1.0
176
     1
 90
        1
176
     1
 90
        6
176
     1
 90
        2
176
     1
 62
     7
176
     1
 90
        5
176
     1
 90
        0
176
     1
 90
        0
176
     1
290
     0
176
     1
 90
       13
176
     1
 40
0.0
176
     1
 90
        0
176
     1
290
     0
176
     1
290
     1
176
     1
290
     1
176
     1
290
     0
176
     1
290
     0
176
     1
290
     0
176
     1
290
     0
176
     1
290
     0
176
     1
290
     0
176
     1
 90
       50
176
     1
 40
0.0
176
     1
 40
1.0
176
     1
 90
        0
176
     1
 62
    18
420
        0
176
     1
 90
       50
176
     1
 90
        3
176
     1
 62
     5
420
      255
176
     1
290
     0
176
     1
 90
       50
176
     1
 90
       50
176
     1
 90
       50
176
     1
290
     0
176
     1
 90
       50
176
     1
 62
   256
176
     0
 40
1.0
176
     0
 90
        2
176
     1
  1
strokes_ogs.tif
176
     1
290
     0
176
     1
 40
1.0
176
     1
 40
1.0
176
     1
  0
VISUALSTYLE
  5
2B
102
{ACAD_REACTORS
330
29
102
}
330
29
100
AcDbVisualStyle
  2
FlatWithEdges
 70
     1
177
     3
291
     1
 70
    58
 90
        2
176
     1
 90
        1
176
     1
 90
        1
176
     1
 90
        2
176
     1
 40
0.6
176
     1
 40
30.0
176
     1
 62
     7
420
 16777215
176
     1
 90
        1
176
     1
 90
        0
176
     1
 62
     7
176
     1
 62
   257
176
     1
 90
        1
176
     1
 90
        1
176
     1
 40
1.0
176
     1
 90
        0
176
     1
 62
   257
176
     1
 40
1.0
176
     1
 90
        1
176
     1
 90
        6
176
     1
 90
        2
176
     1
 62
     7
176
     1
 90
        5
176
     1
 90
        0
176
     1
 90
        0
176
     1
290
     0
176
     1
 90
       13
176
     1
 40
0.0
176
     1
 90
        0
176
     1
290
     0
176
     1
290
     1
176
     1
290
     1
176
     1
290
     0
176
     1
290
     0
176
     1
290
     0
176
     1
290
     0
176
     1
290
     0
176
     1
290
     0
176
     1
 90
       50
176
     1
 40
0.0
176
     1
 40
1.0
176
     1
 90
        0
176
     1
 62
    18
420
        0
176
     1
 90
       50
176
     1
 90
        3
176
     1
 62
     5
420
      255
176
     1
290
     0
176
     1
 90
       50
176
     1
 90
       50
176
     1
 90
       50
176
     1
290
     0
176
     1
 90
       50
176
     1
 62
   256
176
     0
 40
1.0
176
     0
 90
        2
176
     1
  1
strokes_ogs.tif
176
     1
290
     0
176
     1
 40
1.0
176
     1
 40
1.0
176
     1
  0
VISUALSTYLE
  5
2C
102
{ACAD_REACTORS
330
29
102
}
330
29
100
AcDbVisualStyle
  2
Gouraud
 70
     2
177
     3
291
     1
 70
    58
 90
        2
176
     1
 90
        2
176
     1
 90
        1
176
     1
 90
        2
176
     1
 40
0.6
176
     1
 40
30.0
176
     1
 62
     7
420
 16777215
176
     1
 90
        0
176
     1
 90
        0
176
     1
 62
     7
176
     1
 62
   257
176
     1
 90
        1
176
     1
 90
        1
176
     1
 40
1.0
176
     1
 90
        0
176
     1
 62
     7
176
     1
 40
1.0
176
     1
 90
        1
176
     1
 90
        6
176
     1
 90
        2
176
     1
 62
     7
176
     1
 90
        5
176
     1
 90
        0
176
     1
 90
        0
176
     1
290
     0
176
     1
 90
       13
176
     1
 40
0.0
176
     1
 90
        0
176
     1
290
     0
176
     1
290
     1
176
     1
290
     1
176
     1
290
     0
176
     1
290
     0
176
     1
290
     0
176
     1
290
     0
176
     1
290
     0
176
     1
290
     0
176
     1
 90
       50
176
     1
 40
0.0
176
     1
 40
1.0
176
     1
 90
        0
176
     1
 62
    18
420
        0
176
     1
 90
       50
176
     1
 90
        3
176
     1
 62
     5
420
      255
176
     1
290
     0
176
     1
 90
       50
176
     1
 90
       50
176
     1
 90
       50
176
     1
290
     0
176
     1
 90
       50
176
     1
 62
   256
176
     0
 40
1.0
176
     0
 90
        2
176
     1
  1
strokes_ogs.tif
176
     1
290
     0
176
     1
 40
1.0
176
     1
 40
1.0
176
     1
  0
VISUALSTYLE
  5
2D
102
{ACAD_REACTORS
330
29
102
}
330
29
100
AcDbVisualStyle
  2
GouraudWithEdges
 70
     3
177
     3
291
     1
 70
    58
 90
        2
176
     1
 90
        2
176
     1
 90
        1
176
     1
 90
        2
176
     1
 40
0.6
176
     1
 40
30.0
176
     1
 62
     7
420
 16777215
176
     1
 90
        1
176
     1
 90
        0
176
     1
 62
     7
176
     1
 62
   257
176
     1
 90
        1
176
     1
 90
        1
176
     1
 40
1.0
176
     1
 90
        0
176
     1
 62
   257
176
     1
 40
1.0
176
     1
 90
        1
176
     1
 90
        6
176
     1
 90
        2
176
     1
 62
     7
176
     1
 90
        5
176
     1
 90
        0
176
     1
 90
        0
176
     1
290
     0
176
     1
 90
       13
176
     1
 40
0.0
176
     1
 90
        0
176
     1
290
     0
176
     1
290
     1
176
     1
290
     1
176
     1
290
     0
176
     1
290
     0
176
     1
290
     0
176
     1
290
     0
176
     1
290
     0
176
     1
290
     0
176
     1
 90
       50
176
     1
 40
0.0
176
     1
 40
1.0
176
     1
 90
        0
176
     1
 62
    18
420
        0
176
     1
 90
       50
176
     1
 90
        3
176
     1
 62
     5
420
      255
176
     1
290
     0
176
     1
 90
       50
176
     1
 90
       50
176
     1
 90
       50
176
     1
290
     0
176
     1
 90
       50
176
     1
 62
   256
176
     0
 40
1.0
176
     0
 90
        2
176
     1
  1
strokes_ogs.tif
176
     1
290
     0
176
     1
 40
1.0
176
     1
 40
1.0
176
     1
  0
VISUALSTYLE
  5
31
102
{ACAD_REACTORS
330
29
102
}
330
29
100
AcDbVisualStyle
  2
Hidden
 70
     6
177
     3
291
     0
 70
    58
 90
        1
176
     1
 90
        2
176
     1
 90
        2
176
     1
 90
        0
176
     1
 40
0.6
176
     1
 40
30.0
176
     1
 62
     7
420
 16777215
176
     1
 90
        2
176
     1
 90
        2
176
     1
 62
     7
176
     1
 62
   257
176
     1
 90
        2
176
     1
 90
        1
176
     1
 40
40.0
176
     1
 90
        0
176
     1
 62
   257
176
     1
 40
1.0
176
     1
 90
        1
176
     1
 90
        6
176
     1
 90
        2
176
     1
 62
     7
176
     1
 90
        3
176
     1
 90
        0
176
     1
 90
        0
176
     1
290
     0
176
     1
 90
        1
176
     1
 40
0.0
176
     1
 90
        0
176
     1
290
     0
176
     1
290
     1
176
     1
290
     1
176
     1
290
     0
176
     1
290
     0
176
     1
290
     0
176
     1
290
     0
176
     1
290
     0
176
     1
290
     0
176
     1
 90
       50
176
     1
 40
0.0
176
     1
 40
1.0
176
     1
 90
        0
176
     1
 62
    18
420
        0
176
     1
 90
       50
176
     1
 90
        3
176
     1
 62
     5
420
      255
176
     1
290
     0
176
     1
 90
       50
176
     1
 90
       50
176
     1
 90
       50
176
     1
290
     0
176
     1
 90
       50
176
     1
 62
   256
176
     0
 40
1.0
176
     0
 90
        2
176
     1
  1
strokes_ogs.tif
176
     1
290
     0
176
     1
 40
1.0
176
     1
 40
1.0
176
     1
  0
VISUALSTYLE
  5
3F
102
{ACAD_REACTORS
330
29
102
}
330
29
100
AcDbVisualStyle
  2
JitterOff
 70
    20
177
     3
291
     1
 70
    58
 90
        2
176
     0
 90
        2
176
     0
 90
        0
176
     0
 90
        0
176
     0
 40
0.6
176
     0
 40
30.0
176
     0
 62
     7
420
 16777215
176
     0
 90
        1
176
     0
 90
        4
176
     0
 62
     7
176
     0
 62
   257
176
     0
 90
        1
176
     0
 90
        1
176
     0
 40
1.0
176
     0
 90
       10
176
     2
 62
     7
176
     0
 40
1.0
176
     0
 90
        1
176
     0
 90
        6
176
     0
 90
        2
176
     0
 62
     7
176
     0
 90
        5
176
     0
 90
        0
176
     0
 90
        0
176
     0
290
     0
176
     0
 90
        1
176
     0
 40
0.0
176
     0
 90
        0
176
     0
290
     0
176
     0
290
     1
176
     0
290
     1
176
     0
290
     0
176
     0
290
     0
176
     0
290
     0
176
     0
290
     0
176
     0
290
     0
176
     0
290
     0
176
     0
 90
       50
176
     0
 40
0.0
176
     0
 40
1.0
176
     0
 90
        0
176
     0
 62
    18
420
        0
176
     0
 90
       50
176
     0
 90
        3
176
     0
 62
     5
420
      255
176
     0
290
     0
176
     0
 90
       50
176
     0
 90
       50
176
     0
 90
       50
176
     0
290
     0
176
     0
 90
       50
176
     0
 62
   256
176
     0
 40
1.0
176
     0
 90
        2
176
     0
  1
strokes_ogs.tif
176
     0
290
     0
176
     0
 40
1.0
176
     0
 40
1.0
176
     0
  0
VISUALSTYLE
  5
37
102
{ACAD_REACTORS
330
29
102
}
330
29
100
AcDbVisualStyle
  2
Linepattern
 70
    14
177
     3
291
     1
 70
    58
 90
        2
176
     1
 90
        2
176
     1
 90
        0
176
     1
 90
        0
176
     1
 40
0.6
176
     1
 40
30.0
176
     1
 62
     7
420
 16777215
176
     1
 90
        1
176
     1
 90
        4
176
     1
 62
     7
176
     1
 62
   257
176
     1
 90
        7
176
     1
 90
        7
176
     1
 40
1.0
176
     1
 90
        8
176
     1
 62
     7
176
     1
 40
1.0
176
     1
 90
        1
176
     1
 90
        6
176
     1
 90
        2
176
     1
 62
     7
176
     1
 90
        5
176
     1
 90
        0
176
     1
 90
        0
176
     1
290
     0
176
     1
 90
        1
176
     1
 40
0.0
176
     1
 90
        0
176
     1
290
     0
176
     1
290
     1
176
     1
290
     1
176
     1
290
     0
176
     1
290
     0
176
     1
290
     0
176
     1
290
     0
176
     1
290
     0
176
     1
290
     0
176
     1
 90
       50
176
     1
 40
0.0
176
     1
 40
1.0
176
     1
 90
        0
176
     1
 62
    18
420
        0
176
     1
 90
       50
176
     1
 90
        3
176
     1
 62
     5
420
      255
176
     1
290
     0
176
     1
 90
       50
176
     1
 90
       50
176
     1
 90
       50
176
     1
290
     0
176
     1
 90
       50
176
     1
 62
   256
176
     0
 40
1.0
176
     0
 90
        2
176
     1
  1
strokes_ogs.tif
176
     1
290
     0
176
     1
 40
1.0
176
     1
 40
1.0
176
     1
  0
VISUALSTYLE
  5
40
102
{ACAD_REACTORS
330
29
102
}
330
29
100
AcDbVisualStyle
  2
OverhangOff
 70
    21
177
     3
291
     1
 70
    58
 90
        2
176
     0
 90
        2
176
     0
 90
        0
176
     0
 90
        0
176
     0
 40
0.6
176
     0
 40
30.0
176
     0
 62
     7
420
 16777215
176
     0
 90
        1
176
     0
 90
        4
176
     0
 62
     7
176
     0
 62
   257
176
     0
 90
        1
176
     0
 90
        1
176
     0
 40
1.0
176
     0
 90
        9
176
     2
 62
     7
176
     0
 40
1.0
176
     0
 90
        1
176
     0
 90
        6
176
     0
 90
        2
176
     0
 62
     7
176
     0
 90
        5
176
     0
 90
        0
176
     0
 90
        0
176
     0
290
     0
176
     0
 90
        1
176
     0
 40
0.0
176
     0
 90
        0
176
     0
290
     0
176
     0
290
     1
176
     0
290
     1
176
     0
290
     0
176
     0
290
     0
176
     0
290
     0
176
     0
290
     0
176
     0
290
     0
176
     0
290
     0
176
     0
 90
       50
176
     0
 40
0.0
176
     0
 40
1.0
176
     0
 90
        0
176
     0
 62
    18
420
        0
176
     0
 90
       50
176
     0
 90
        3
176
     0
 62
     5
420
      255
176
     0
290
     0
176
     0
 90
       50
176
     0
 90
       50
176
     0
 90
       50
176
     0
290
     0
176
     0
 90
       50
176
     0
 62
   256
176
     0
 40
1.0
176
     0
 90
        2
176
     0
  1
strokes_ogs.tif
176
     0
290
     0
176
     0
 40
1.0
176
     0
 40
1.0
176
     0
  0
VISUALSTYLE
  5
33
102
{ACAD_REACTORS
330
29
102
}
330
29
100
AcDbVisualStyle
  2
Realistic
 70
     8
177
     3
291
     0
 70
    58
 90
        2
176
     1
 90
        3
176
     1
 90
        0
176
     1
 90
        2
176
     1
 40
0.6
176
     1
 40
30.0
176
     1
 62
     7
420
 16777215
176
     1
 90
        0
176
     1
 90
        0
176
     1
 62
     7
176
     1
 62
   257
176
     1
 90
        1
176
     1
 90
        1
176
     1
 40
1.0
176
     1
 90
        8
176
     1
 62
   257
176
     1
 40
1.0
176
     1
 90
        1
176
     1
 90
        6
176
     1
 90
        2
176
     1
 62
     7
176
     1
 90
        3
176
     1
 90
        0
176
     1
 90
        0
176
     1
290
     0
176
     1
 90
       13
176
     1
 40
0.0
176
     1
 90
        0
176
     1
290
     0
176
     1
290
     1
176
     1
290
     1
176
     1
290
     0
176
     1
290
     0
176
     1
290
     0
176
     1
290
     0
176
     1
290
     0
176
     1
290
     0
176
     1
 90
       50
176
     1
 40
0.0
176
     1
 40
1.0
176
     1
 90
        0
176
     1
 62
    18
420
        0
176
     1
 90
       50
176
     1
 90
        3
176
     1
 62
     5
420
      255
176
     1
290
     0
176
     1
 90
       50
176
     1
 90
       50
176
     1
 90
       50
176
     1
290
     0
176
     1
 90
       50
176
     1
 62
   256
176
     0
 40
1.0
176
     0
 90
        2
176
     1
  1
strokes_ogs.tif
176
     1
290
     0
176
     1
 40
1.0
176
     1
 40
1.0
176
     1
  0
VISUALSTYLE
  5
3E
102
{ACAD_REACTORS
330
29
102
}
330
29
100
AcDbVisualStyle
  2
Shaded
 70
    27
177
     3
291
     0
 70
    58
 90
        2
176
     1
 90
        2
176
     1
 90
        1
176
     1
 90
        2
176
     1
 40
0.6
176
     1
 40
30.0
176
     1
 62
     7
420
 16777215
176
     1
 90
        0
176
     1
 90
        4
176
     1
 62
     7
176
     1
 62
   257
176
     1
 90
        1
176
     1
 90
        1
176
     1
 40
1.0
176
     1
 90
        8
176
     1
 62
   257
176
     1
 40
1.0
176
     1
 90
        1
176
     1
 90
        6
176
     1
 90
        2
176
     1
 62
     8
420
  7895160
176
     1
 90
        3
176
     1
 90
        0
176
     1
 90
        0
176
     1
290
     0
176
     1
 90
        5
176
     1
 40
0.0
176
     1
 90
        0
176
     1
290
     0
176
     1
290
     1
176
     1
290
     1
176
     1
290
     0
176
     1
290
     0
176
     1
290
     0
176
     1
290
     0
176
     1
290
     0
176
     1
290
     0
176
     1
 90
       50
176
     1
 40
0.0
176
     1
 40
1.0
176
     1
 90
        0
176
     1
 62
    18
420
        0
176
     1
 90
       50
176
     1
 90
        3
176
     1
 62
     5
420
      255
176
     1
290
     0
176
     1
 90
       50
176
     1
 90
       50
176
     1
 90
       50
176
     1
290
     0
176
     1
 90
       50
176
     1
 62
   256
176
     0
 40
1.0
176
     0
 90
        2
176
     1
  1
strokes_ogs.tif
176
     1
290
     0
176
     1
 40
1.0
176
     1
 40
1.0
176
     1
  0
VISUALSTYLE
  5
3D
102
{ACAD_REACTORS
330
29
102
}
330
29
100
AcDbVisualStyle
  2
Shaded with edges
 70
    26
177
     3
291
     0
 70
    58
 90
        2
176
     1
 90
        2
176
     1
 90
        1
176
     1
 90
        2
176
     1
 40
0.6
176
     1
 40
30.0
176
     1
 62
     7
420
 16777215
176
     1
 90
        1
176
     1
 90
       10
176
     1
 62
     7
176
     1
 62
   257
176
     1
 90
        2
176
     1
 90
        1
176
     1
 40
1.0
176
     1
 90
        8
176
     1
 62
   257
176
     1
 40
1.0
176
     1
 90
        1
176
     1
 90
        6
176
     1
 90
        2
176
     1
 62
     7
176
     1
 90
        3
176
     1
 90
        0
176
     1
 90
        0
176
     1
290
     0
176
     1
 90
        5
176
     1
 40
0.0
176
     1
 90
        0
176
     1
290
     0
176
     1
290
     1
176
     1
290
     1
176
     1
290
     0
176
     1
290
     0
176
     1
290
     0
176
     1
290
     0
176
     1
290
     0
176
     1
290
     0
176
     1
 90
       50
176
     1
 40
0.0
176
     1
 40
1.0
176
     1
 90
        0
176
     1
 62
    18
420
        0
176
     1
 90
       50
176
     1
 90
        3
176
     1
 62
     5
420
      255
176
     1
290
     0
176
     1
 90
       50
176
     1
 90
       50
176
     1
 90
       50
176
     1
290
     0
176
     1
 90
       50
176
     1
 62
   256
176
     0
 40
1.0
176
     0
 90
        2
176
     1
  1
strokes_ogs.tif
176
     1
290
     0
176
     1
 40
1.0
176
     1
 40
1.0
176
     1
  0
VISUALSTYLE
  5
3A
102
{ACAD_REACTORS
330
29
102
}
330
29
100
AcDbVisualStyle
  2
Shades of Gray
 70
    23
177
     3
291
     0
 70
    58
 90
        2
176
     1
 90
        2
176
     1
 90
        3
176
     1
 90
        0
176
     1
 40
0.6
176
     1
 40
30.0
176
     1
 62
     7
420
 16777215
176
     1
 90
        2
176
     1
 90
        2
176
     1
 62
     7
176
     1
 62
     7
176
     1
 90
        1
176
     1
 90
        1
176
     1
 40
40.0
176
     1
 90
        8
176
     1
 62
     7
176
     1
 40
1.0
176
     1
 90
        1
176
     1
 90
        6
176
     1
 90
        2
176
     1
 62
     7
176
     1
 90
        3
176
     1
 90
        0
176
     1
 90
        0
176
     1
290
     0
176
     1
 90
        1
176
     1
 40
0.0
176
     1
 90
        0
176
     1
290
     0
176
     1
290
     1
176
     1
290
     1
176
     1
290
     0
176
     1
290
     0
176
     1
290
     0
176
     1
290
     0
176
     1
290
     0
176
     1
290
     0
176
     1
 90
       50
176
     1
 40
0.0
176
     1
 40
1.0
176
     1
 90
        0
176
     1
 62
    18
420
        0
176
     1
 90
       50
176
     1
 90
        3
176
     1
 62
     5
420
      255
176
     1
290
     0
176
     1
 90
       50
176
     1
 90
       50
176
     1
 90
       50
176
     1
290
     0
176
     1
 90
       50
176
     1
 62
   256
176
     0
 40
1.0
176
     0
 90
        2
176
     1
  1
strokes_ogs.tif
176
     1
290
     0
176
     1
 40
1.0
176
     1
 40
1.0
176
     1
  0
VISUALSTYLE
  5
3B
102
{ACAD_REACTORS
330
29
102
}
330
29
100
AcDbVisualStyle
  2
Sketchy
 70
    24
177
     3
291
     0
 70
    58
 90
        1
176
     1
 90
        2
176
     1
 90
        2
176
     1
 90
        0
176
     1
 40
0.6
176
     1
 40
30.0
176
     1
 62
     7
420
 16777215
176
     1
 90
        2
176
     1
 90
        2
176
     1
 62
     7
176
     1
 62
     7
176
     1
 90
        1
176
     1
 90
        1
176
     1
 40
40.0
176
     1
 90
       11
176
     1
 62
     7
176
     1
 40
1.0
176
     1
 90
        1
176
     1
 90
        6
176
     1
 90
        2
176
     1
 62
     7
176
     1
 90
        6
176
     1
 90
        0
176
     1
 90
        0
176
     1
290
     0
176
     1
 90
        1
176
     1
 40
0.0
176
     1
 90
        0
176
     1
290
     0
176
     1
290
     1
176
     1
290
     1
176
     1
290
     0
176
     1
290
     0
176
     1
290
     0
176
     1
290
     0
176
     1
290
     0
176
     1
290
     0
176
     1
 90
       50
176
     1
 40
0.0
176
     1
 40
1.0
176
     1
 90
        0
176
     1
 62
    18
420
        0
176
     1
 90
       50
176
     1
 90
        3
176
     1
 62
     5
420
      255
176
     1
290
     0
176
     1
 90
       50
176
     1
 90
       50
176
     1
 90
       50
176
     1
290
     0
176
     1
 90
       50
176
     1
 62
   256
176
     0
 40
1.0
176
     0
 90
        2
176
     1
  1
strokes_ogs.tif
176
     1
290
     0
176
     1
 40
1.0
176
     1
 40
1.0
176
     1
  0
VISUALSTYLE
  5
36
102
{ACAD_REACTORS
330
29
102
}
330
29
100
AcDbVisualStyle
  2
Thicken
 70
    13
177
     3
291
     1
 70
    58
 90
        2
176
     1
 90
        2
176
     1
 90
        0
176
     1
 90
        0
176
     1
 40
0.6
176
     1
 40
30.0
176
     1
 62
     7
420
 16777215
176
     1
 90
        1
176
     1
 90
        4
176
     1
 62
     7
176
     1
 62
   257
176
     1
 90
        1
176
     1
 90
        1
176
     1
 40
1.0
176
     1
 90
       12
176
     1
 62
     7
176
     1
 40
1.0
176
     1
 90
        1
176
     1
 90
        6
176
     1
 90
        2
176
     1
 62
     7
176
     1
 90
        5
176
     1
 90
        0
176
     1
 90
        0
176
     1
290
     0
176
     1
 90
        1
176
     1
 40
0.0
176
     1
 90
        0
176
     1
290
     0
176
     1
290
     1
176
     1
290
     1
176
     1
290
     0
176
     1
290
     0
176
     1
290
     0
176
     1
290
     0
176
     1
290
     0
176
     1
290
     0
176
     1
 90
       50
176
     1
 40
0.0
176
     1
 40
1.0
176
     1
 90
        0
176
     1
 62
    18
420
        0
176
     1
 90
       50
176
     1
 90
        3
176
     1
 62
     5
420
      255
176
     1
290
     0
176
     1
 90
       50
176
     1
 90
       50
176
     1
 90
       50
176
     1
290
     0
176
     1
 90
       50
176
     1
 62
   256
176
     0
 40
1.0
176
     0
 90
        2
176
     1
  1
strokes_ogs.tif
176
     1
290
     0
176
     1
 40
1.0
176
     1
 40
1.0
176
     1
  0
VISUALSTYLE
  5
30
102
{ACAD_REACTORS
330
29
102
}
330
29
100
AcDbVisualStyle
  2
Wireframe
 70
     5
177
     3
291
     0
 70
    58
 90
        0
176
     1
 90
        2
176
     1
 90
        0
176
     1
 90
        0
176
     1
 40
0.6
176
     1
 40
30.0
176
     1
 62
     7
420
 16777215
176
     1
 90
        1
176
     1
 90
        4
176
     1
 62
     7
176
     1
 62
   257
176
     1
 90
        1
176
     1
 90
        1
176
     1
 40
1.0
176
     1
 90
        0
176
     1
 62
   257
176
     1
 40
1.0
176
     1
 90
        1
176
     1
 90
        6
176
     1
 90
        2
176
     1
 62
     7
176
     1
 90
        3
176
     1
 90
        0
176
     1
 90
        0
176
     1
290
     0
176
     1
 90
        1
176
     1
 40
0.0
176
     1
 90
        0
176
     1
290
     0
176
     1
290
     1
176
     1
290
     1
176
     1
290
     0
176
     1
290
     0
176
     1
290
     0
176
     1
290
     0
176
     1
290
     0
176
     1
290
     0
176
     1
 90
       50
176
     1
 40
0.0
176
     1
 40
1.0
176
     1
 90
        0
176
     1
 62
    18
420
        0
176
     1
 90
       50
176
     1
 90
        3
176
     1
 62
     5
420
      255
176
     1
290
     0
176
     1
 90
       50
176
     1
 90
       50
176
     1
 90
       50
176
     1
290
     0
176
     1
 90
       50
176
     1
 62
   256
176
     0
 40
1.0
176
     0
 90
        2
176
     1
  1
strokes_ogs.tif
176
     1
290
     0
176
     1
 40
1.0
176
     1
 40
1.0
176
     1
  0
VISUALSTYLE
  5
3C
102
{ACAD_REACTORS
330
29
102
}
330
29
100
AcDbVisualStyle
  2
X-Ray
 70
    25
177
     3
291
     0
 70
    58
 90
        2
176
     1
 90
        2
176
     1
 90
        1
176
     1
 90
        1
176
     1
 40
0.5
176
     1
 40
30.0
176
     1
 62
     7
420
 16777215
176
     1
 90
        1
176
     1
 90
        0
176
     1
 62
     7
176
     1
 62
   257
176
     1
 90
        1
176
     1
 90
        1
176
     1
 40
1.0
176
     1
 90
        8
176
     1
 62
     7
176
     1
 40
1.0
176
     1
 90
        1
176
     1
 90
        6
176
     1
 90
        2
176
     1
 62
     7
176
     1
 90
        3
176
     1
 90
        0
176
     1
 90
        0
176
     1
290
     0
176
     1
 90
       13
176
     1
 40
0.0
176
     1
 90
        0
176
     1
290
     0
176
     1
290
     1
176
     1
290
     1
176
     1
290
     0
176
     1
290
     0
176
     1
290
     0
176
     1
290
     0
176
     1
290
     0
176
     1
290
     0
176
     1
 90
       50
176
     1
 40
0.0
176
     1
 40
1.0
176
     1
 90
        0
176
     1
 62
    18
420
        0
176
     1
 90
       50
176
     1
 90
        3
176
     1
 62
     5
420
      255
176
     1
290
     0
176
     1
 90
       50
176
     1
 90
       50
176
     1
 90
       50
176
     1
290
     0
176
     1
 90
       50
176
     1
 62
   256
176
     0
 40
1.0
176
     0
 90
        2
176
     1
  1
strokes_ogs.tif
176
     1
290
     0
176
     1
 40
1.0
176
     1
 40
1.0
176
     1
  0
DICTIONARYVAR
  5
80
102
{ACAD_REACTORS
330
7B
102
}
330
7B
100
DictionaryVariables
280
     0
  1
1:1
  0
DICTIONARYVAR
  5
7D
102
{ACAD_REACTORS
330
7B
102
}
330
7B
100
DictionaryVariables
280
     0
  1
STANDARD
  0
DICTIONARYVAR
  5
7C
102
{ACAD_REACTORS
330
7B
102
}
330
7B
100
DictionaryVariables
280
     0
  1
STANDARD
  0
DICTIONARYVAR
  5
7E
102
{ACAD_REACTORS
330
7B
102
}
330
7B
100
DictionaryVariables
280
     0
  1
Imperial24
  0
DICTIONARYVAR
  5
7F
102
{ACAD_REACTORS
330
7B
102
}
330
7B
100
DictionaryVariables
280
     0
  1
Imperial24
  0
XRECORD
  5
281
102
{ACAD_REACTORS
330
27D
102
}
330
27D
100
AcDbXrecord
280
     1
  1
BUILDING_ID
  1
Progetto per messa in tavola DXF, DWG
  1
FLOOR_ID
  1
694395
  0
XRECORD
  5
27F
102
{ACAD_REACTORS
330
27D
102
}
330
27D
100
AcDbXrecord
280
     1
  1
-2008055
  1
Pipe Accessories
  0
XRECORD
  5
280
102
{ACAD_REACTORS
330
27D
102
}
330
27D
100
AcDbXrecord
280
     1
  1
790271
  1
Body
  0
XRECORD
  5
27E
102
{ACAD_REACTORS
330
27D
102
}
330
27D
100
AcDbXrecord
280
     1
  1
859151
  1
Automatic flow rate regulator valve_Caleffi_121 DN15 : 1/2''
  0
DICTIONARY
  5
288
330
6B
100
AcDbDictionary
280
     1
281
     1
  3
ACAD_XREC_ROUNDTRIP
360
289
  0
DICTIONARY
  5
1A
330
19
100
AcDbDictionary
280
     1
281
     1
  3
BUMPTILE
360
1C
  3
DIFFUSETILE
360
1B
  3
OPACITYTILE
360
1F
  3
REFLECTIONTILE
360
1E
  3
REFRACTIONTILE
360
20
  3
SPECULARTILE
360
1D
  0
DICTIONARY
  5
12
330
11
100
AcDbDictionary
280
     1
281
     1
  3
BUMPTILE
360
14
  3
DIFFUSETILE
360
13
  3
OPACITYTILE
360
17
  3
REFLECTIONTILE
360
16
  3
REFRACTIONTILE
360
18
  3
SPECULARTILE
360
15
  0
DICTIONARY
  5
22
330
21
100
AcDbDictionary
280
     1
281
     1
  3
BUMPTILE
360
24
  3
DIFFUSETILE
360
23
  3
OPACITYTILE
360
27
  3
REFLECTIONTILE
360
26
  3
REFRACTIONTILE
360
28
  3
SPECULARTILE
360
25
  0
DICTIONARY
  5
286
330
69
100
AcDbDictionary
280
     1
281
     1
  3
ACAD_XREC_ROUNDTRIP
360
287
  0
DICTIONARY
  5
284
330
65
100
AcDbDictionary
280
     1
281
     1
  3
ACAD_ROUNDTRIP_2008_TABLESTYLE_CELLSTYLEMAP
360
285
  0
XRECORD
  5
289
102
{ACAD_REACTORS
330
288
102
}
330
288
100
AcDbXrecord
280
     1
102
DISPLAYNAME
  1
Imperial24
102
FLAGS
 90
        0
  0
XRECORD
  5
1C
102
{ACAD_REACTORS
330
1A
102
}
330
1A
100
AcDbXrecord
280
     1
270
     1
271
     1
  0
XRECORD
  5
1B
102
{ACAD_REACTORS
330
1A
102
}
330
1A
100
AcDbXrecord
280
     1
270
     1
271
     1
  0
XRECORD
  5
1F
102
{ACAD_REACTORS
330
1A
102
}
330
1A
100
AcDbXrecord
280
     1
270
     1
271
     1
  0
XRECORD
  5
1E
102
{ACAD_REACTORS
330
1A
102
}
330
1A
100
AcDbXrecord
280
     1
270
     1
271
     1
  0
XRECORD
  5
20
102
{ACAD_REACTORS
330
1A
102
}
330
1A
100
AcDbXrecord
280
     1
270
     1
271
     1
  0
XRECORD
  5
1D
102
{ACAD_REACTORS
330
1A
102
}
330
1A
100
AcDbXrecord
280
     1
270
     1
271
     1
  0
XRECORD
  5
14
102
{ACAD_REACTORS
330
12
102
}
330
12
100
AcDbXrecord
280
     1
270
     1
271
     1
  0
XRECORD
  5
13
102
{ACAD_REACTORS
330
12
102
}
330
12
100
AcDbXrecord
280
     1
270
     1
271
     1
  0
XRECORD
  5
17
102
{ACAD_REACTORS
330
12
102
}
330
12
100
AcDbXrecord
280
     1
270
     1
271
     1
  0
XRECORD
  5
16
102
{ACAD_REACTORS
330
12
102
}
330
12
100
AcDbXrecord
280
     1
270
     1
271
     1
  0
XRECORD
  5
18
102
{ACAD_REACTORS
330
12
102
}
330
12
100
AcDbXrecord
280
     1
270
     1
271
     1
  0
XRECORD
  5
15
102
{ACAD_REACTORS
330
12
102
}
330
12
100
AcDbXrecord
280
     1
270
     1
271
     1
  0
XRECORD
  5
24
102
{ACAD_REACTORS
330
22
102
}
330
22
100
AcDbXrecord
280
     1
270
     1
271
     1
  0
XRECORD
  5
23
102
{ACAD_REACTORS
330
22
102
}
330
22
100
AcDbXrecord
280
     1
270
     1
271
     1
  0
XRECORD
  5
27
102
{ACAD_REACTORS
330
22
102
}
330
22
100
AcDbXrecord
280
     1
270
     1
271
     1
  0
XRECORD
  5
26
102
{ACAD_REACTORS
330
22
102
}
330
22
100
AcDbXrecord
280
     1
270
     1
271
     1
  0
XRECORD
  5
28
102
{ACAD_REACTORS
330
22
102
}
330
22
100
AcDbXrecord
280
     1
270
     1
271
     1
  0
XRECORD
  5
25
102
{ACAD_REACTORS
330
22
102
}
330
22
100
AcDbXrecord
280
     1
270
     1
271
     1
  0
XRECORD
  5
287
102
{ACAD_REACTORS
330
286
102
}
330
286
100
AcDbXrecord
280
     1
102
DISPLAYNAME
  1
Imperial24
102
FLAGS
 90
        0
  0
CELLSTYLEMAP
  5
285
102
{ACAD_REACTORS
330
284
102
}
330
284
100
AcDbCellStyleMap
 90
        3
300
CELLSTYLE
  1
TABLEFORMAT_BEGIN
 90
        5
170
     1
 91
        0
 92
    32768
 62
   257
 93
        1
300
CONTENTFORMAT
  1
CONTENTFORMAT_BEGIN
 90
        0
 91
        0
 92
      512
 93
        0
300

 40
0.0
140
1.0
 94
        5
 62
     0
340
55
144
0.25
309
CONTENTFORMAT_END
171
     0
 94
        0
309
TABLEFORMAT_END
  1
CELLSTYLE_BEGIN
 90
        1
 91
        1
300
_TITLE
309
CELLSTYLE_END
300
CELLSTYLE
  1
TABLEFORMAT_BEGIN
 90
        5
170
     1
 91
        0
 92
        0
 62
   257
 93
        1
300
CONTENTFORMAT
  1
CONTENTFORMAT_BEGIN
 90
        0
 91
        0
 92
      512
 93
        0
300

 40
0.0
140
1.0
 94
        5
 62
     0
340
55
144
0.18
309
CONTENTFORMAT_END
171
     0
 94
        0
309
TABLEFORMAT_END
  1
CELLSTYLE_BEGIN
 90
        2
 91
        1
300
_HEADER
309
CELLSTYLE_END
300
CELLSTYLE
  1
TABLEFORMAT_BEGIN
 90
        5
170
     1
 91
        0
 92
        0
 62
   257
 93
        1
300
CONTENTFORMAT
  1
CONTENTFORMAT_BEGIN
 90
        0
 91
        0
 92
      512
 93
        0
300

 40
0.0
140
1.0
 94
        2
 62
     0
340
55
144
0.18
309
CONTENTFORMAT_END
171
     0
 94
        0
309
TABLEFORMAT_END
  1
CELLSTYLE_BEGIN
 90
        3
 91
        2
300
_DATA
309
CELLSTYLE_END
  0
ENDSEC
  0
EOF
