ISO-10303-21;
HEADER;
FILE_DESCRIPTION(('CATIA V5 STEP Exchange','CAx-IF Rec.Pracs.--- Model Styling and Organization---1.5--- 2016-08-15','CAx-IF Rec.Pracs.---Supplemental Geometry---1.0---2011-11-01','CAx-IF Rec.Pracs.--- Composite Materials ---3.4---2017-06-13','CAx-IF Rec.Pracs.---Tessellated 3D Geometry---1.0---2015-12-17'),'2;1');

FILE_NAME('C:\\PTC\\Shared\\w2i1j17\\STEP_568012_-_TST.stp','2023-07-13T06:23:25+00:00',('none'),('none'),'CATIA Version 5-6 Release 2020 SP5','CATIA V5 STEP AP242 v2','none');

FILE_SCHEMA(('AP242_MANAGED_MODEL_BASED_3D_ENGINEERING_MIM_LF  {1 0 10303 442 1 1 4}'));

ENDSEC;
DATA;
#5=PRODUCT('568012 - TST','','',(#2)) ;
#2=PRODUCT_CONTEXT(' ',#1,'mechanical') ;
#1=APPLICATION_CONTEXT('managed model based 3d engineering') ;
#10=PRODUCT_DEFINITION('',' ',#6,#3) ;
#3=PRODUCT_DEFINITION_CONTEXT('part definition',#1,' ') ;
#11=PRODUCT_DEFINITION_SHAPE(' ',' ',#10) ;
#500=MECHANICAL_DESIGN_GEOMETRIC_PRESENTATION_REPRESENTATION(' ',(#29),#16) ;
#7=PRODUCT_CATEGORY('part','specification') ;
#19=SHAPE_REPRESENTATION(' ',(#18),#16) ;
#17=CARTESIAN_POINT(' ',(0.,0.,0.)) ;
#31=CARTESIAN_POINT('Axis2P3D Location',(0.,145.,0.)) ;
#36=CARTESIAN_POINT('Axis2P3D Location',(0.,155.,0.)) ;
#40=CARTESIAN_POINT('Vertex',(-13.4787763939,155.,7.36348910404)) ;
#42=CARTESIAN_POINT('Vertex',(13.4787763939,155.,-7.36348910404)) ;
#45=CARTESIAN_POINT('Axis2P3D Location',(-13.4787763939,145.,7.36348910404)) ;
#49=CARTESIAN_POINT('Vertex',(-21.0788643191,150.,11.5154360606)) ;
#52=CARTESIAN_POINT('Axis2P3D Location',(0.,150.,0.)) ;
#56=CARTESIAN_POINT('Vertex',(21.0788643191,150.,-11.5154360606)) ;
#59=CARTESIAN_POINT('Axis2P3D Location',(13.4787763939,145.,-7.36348910404)) ;
#71=CARTESIAN_POINT('Axis2P3D Location',(-15.3589838486,155.,0.)) ;
#76=CARTESIAN_POINT('Axis2P3D Location',(0.,155.,0.)) ;
#86=CARTESIAN_POINT('Axis2P3D Location',(0.,150.,0.)) ;
#98=CARTESIAN_POINT('Axis2P3D Location',(0.,150.,0.)) ;
#103=CARTESIAN_POINT('Line Origine',(32.4789962068,127.5,-17.7433564954)) ;
#107=CARTESIAN_POINT('Vertex',(34.5708960122,123.371298149,-18.8861665676)) ;
#110=CARTESIAN_POINT('Line Origine',(-32.4789962068,127.5,17.7433564954)) ;
#114=CARTESIAN_POINT('Vertex',(-34.5708960122,123.371298149,18.8861665676)) ;
#117=CARTESIAN_POINT('Axis2P3D Location',(0.,123.371298149,0.)) ;
#129=CARTESIAN_POINT('Axis2P3D Location',(0.,123.371298149,0.)) ;
#141=CARTESIAN_POINT('Axis2P3D Location',(0.,-136.,0.)) ;
#146=CARTESIAN_POINT('Axis2P3D Location',(0.,-136.,0.)) ;
#150=CARTESIAN_POINT('Vertex',(37.5,-136.,4.5924254968E-15)) ;
#152=CARTESIAN_POINT('Vertex',(-37.5,-136.,0.)) ;
#155=CARTESIAN_POINT('Axis2P3D Location',(0.,-136.,0.)) ;
#164=CARTESIAN_POINT('Axis2P3D Location',(0.,-136.,0.)) ;
#168=CARTESIAN_POINT('Vertex',(13.15,-136.,1.61041054088E-15)) ;
#170=CARTESIAN_POINT('Vertex',(-13.15,-136.,0.)) ;
#173=CARTESIAN_POINT('Axis2P3D Location',(0.,-136.,0.)) ;
#183=CARTESIAN_POINT('Axis2P3D Location',(0.,-68.,0.)) ;
#188=CARTESIAN_POINT('Line Origine',(-37.5,-68.,0.)) ;
#192=CARTESIAN_POINT('Vertex',(-37.5,-123.530218443,0.)) ;
#195=CARTESIAN_POINT('Line Origine',(37.5,-68.,4.5924254968E-15)) ;
#199=CARTESIAN_POINT('Vertex',(37.5,-123.530218443,4.5924254968E-15)) ;
#202=CARTESIAN_POINT('Axis2P3D Location',(0.,-123.530218443,0.)) ;
#206=CARTESIAN_POINT('Vertex',(-32.9093460709,-123.530218443,17.9784576977)) ;
#209=CARTESIAN_POINT('Axis2P3D Location',(0.,-123.530218443,0.)) ;
#222=CARTESIAN_POINT('Axis2P3D Location',(0.,-123.530218443,0.)) ;
#226=CARTESIAN_POINT('Vertex',(32.9093460709,-123.530218443,-17.9784576977)) ;
#229=CARTESIAN_POINT('Axis2P3D Location',(0.,-123.530218443,0.)) ;
#242=CARTESIAN_POINT('Axis2P3D Location',(0.,-77.5,0.)) ;
#247=CARTESIAN_POINT('Line Origine',(-13.15,-77.5,0.)) ;
#251=CARTESIAN_POINT('Vertex',(-13.15,-155.,0.)) ;
#254=CARTESIAN_POINT('Axis2P3D Location',(0.,-155.,0.)) ;
#258=CARTESIAN_POINT('Vertex',(13.15,-155.,1.61041054088E-15)) ;
#261=CARTESIAN_POINT('Line Origine',(13.15,-77.5,1.61041054088E-15)) ;
#273=CARTESIAN_POINT('Axis2P3D Location',(0.,-155.,0.)) ;
#285=CARTESIAN_POINT('Axis2P3D Location',(0.,317.481124701,0.)) ;
#290=CARTESIAN_POINT('Axis2P3D Location',(1.26031462859,317.481124701,-0.688513019585)) ;
#294=CARTESIAN_POINT('Vertex',(116.694513036,-104.999335693,-63.7505030227)) ;
#297=CARTESIAN_POINT('Axis2P3D Location',(0.,-104.999335693,0.)) ;
#301=CARTESIAN_POINT('Vertex',(-116.694513036,-104.999335693,63.7505030227)) ;
#304=CARTESIAN_POINT('Axis2P3D Location',(-1.26031462859,317.481124701,0.688513019585)) ;
#317=CARTESIAN_POINT('Axis2P3D Location',(0.,-104.999335693,0.)) ;
#330=CARTESIAN_POINT('Axis2P3D Location',(0.,-155.,0.)) ;
#340=CARTESIAN_POINT('Axis2P3D Location',(0.,-95.4513976765,0.)) ;
#345=CARTESIAN_POINT('Axis2P3D Location',(0.,-95.4513976765,0.)) ;
#349=CARTESIAN_POINT('Vertex',(-122.861558665,-95.4513976765,67.1195754046)) ;
#351=CARTESIAN_POINT('Vertex',(122.861558665,-95.4513976765,-67.1195754046)) ;
#354=CARTESIAN_POINT('Axis2P3D Location',(-114.085733046,-95.4513976765,62.3253200185)) ;
#359=CARTESIAN_POINT('Axis2P3D Location',(114.085733046,-95.4513976765,-62.3253200185)) ;
#371=CARTESIAN_POINT('Axis2P3D Location',(0.,-95.4513976765,0.)) ;
#383=CARTESIAN_POINT('Axis2P3D Location',(0.,0.,0.)) ;
#388=CARTESIAN_POINT('Axis2P3D Location',(0.,95.4513976765,0.)) ;
#392=CARTESIAN_POINT('Vertex',(-122.861558665,95.4513976765,67.1195754046)) ;
#394=CARTESIAN_POINT('Vertex',(122.861558665,95.4513976765,-67.1195754046)) ;
#397=CARTESIAN_POINT('Line Origine',(-122.861558665,0.,67.1195754046)) ;
#402=CARTESIAN_POINT('Line Origine',(122.861558665,0.,-67.1195754046)) ;
#414=CARTESIAN_POINT('Axis2P3D Location',(0.,95.4513976765,0.)) ;
#426=CARTESIAN_POINT('Axis2P3D Location',(0.,95.4513976765,0.)) ;
#431=CARTESIAN_POINT('Axis2P3D Location',(0.,104.999335693,0.)) ;
#435=CARTESIAN_POINT('Vertex',(-116.694513036,104.999335693,63.7505030227)) ;
#437=CARTESIAN_POINT('Vertex',(116.694513036,104.999335693,-63.7505030227)) ;
#440=CARTESIAN_POINT('Axis2P3D Location',(-114.085733046,95.4513976765,62.3253200185)) ;
#445=CARTESIAN_POINT('Axis2P3D Location',(114.085733046,95.4513976765,-62.3253200185)) ;
#457=CARTESIAN_POINT('Axis2P3D Location',(0.,104.999335693,0.)) ;
#469=CARTESIAN_POINT('Axis2P3D Location',(0.,-317.481124701,0.)) ;
#474=CARTESIAN_POINT('Axis2P3D Location',(-1.26031462859,-317.481124701,0.688513019585)) ;
#479=CARTESIAN_POINT('Axis2P3D Location',(1.26031462859,-317.481124701,-0.688513019585)) ;
#8=PRODUCT_RELATED_PRODUCT_CATEGORY('part',$,(#5)) ;
#15=UNCERTAINTY_MEASURE_WITH_UNIT(LENGTH_MEASURE(0.005),#12,'distance_accuracy_value','CONFUSED CURVE UNCERTAINTY') ;
#29=STYLED_ITEM(' ',(#28),#21) ;
#28=PRESENTATION_STYLE_ASSIGNMENT((#27)) ;
#27=SURFACE_STYLE_USAGE(.BOTH.,#26) ;
#26=SURFACE_SIDE_STYLE(' ',(#25)) ;
#25=SURFACE_STYLE_FILL_AREA(#24) ;
#24=FILL_AREA_STYLE(' ',(#23)) ;
#23=FILL_AREA_STYLE_COLOUR(' ',#22) ;
#105=VECTOR('Line Direction',#104,1.) ;
#112=VECTOR('Line Direction',#111,1.) ;
#190=VECTOR('Line Direction',#189,1.) ;
#197=VECTOR('Line Direction',#196,1.) ;
#249=VECTOR('Line Direction',#248,1.) ;
#263=VECTOR('Line Direction',#262,1.) ;
#399=VECTOR('Line Direction',#398,1.) ;
#404=VECTOR('Line Direction',#403,1.) ;
#32=DIRECTION('Axis2P3D Direction',(0.,1.,0.)) ;
#33=DIRECTION('Axis2P3D XDirection',(-0.87758256189,0.,0.479425538604)) ;
#37=DIRECTION('Axis2P3D Direction',(0.,1.,0.)) ;
#46=DIRECTION('Axis2P3D Direction',(-0.479425538604,0.,-0.87758256189)) ;
#53=DIRECTION('Axis2P3D Direction',(0.,1.,0.)) ;
#60=DIRECTION('Axis2P3D Direction',(0.479425538604,-0.,0.87758256189)) ;
#72=DIRECTION('Axis2P3D Direction',(-0.,1.,0.)) ;
#73=DIRECTION('Axis2P3D XDirection',(1.,0.,0.)) ;
#77=DIRECTION('Axis2P3D Direction',(-0.,1.,0.)) ;
#87=DIRECTION('Axis2P3D Direction',(0.,1.,0.)) ;
#99=DIRECTION('Axis2P3D Direction',(-0.,-1.,-0.)) ;
#100=DIRECTION('Axis2P3D XDirection',(-0.87758256189,0.,0.479425538604)) ;
#104=DIRECTION('Vector Direction',(0.438791280945,-0.866025403784,-0.239712769302)) ;
#111=DIRECTION('Vector Direction',(-0.438791280945,-0.866025403784,0.239712769302)) ;
#118=DIRECTION('Axis2P3D Direction',(0.,-1.,-0.)) ;
#130=DIRECTION('Axis2P3D Direction',(0.,-1.,-0.)) ;
#142=DIRECTION('Axis2P3D Direction',(0.,1.,-0.)) ;
#143=DIRECTION('Axis2P3D XDirection',(-1.,0.,0.)) ;
#147=DIRECTION('Axis2P3D Direction',(0.,1.,-0.)) ;
#156=DIRECTION('Axis2P3D Direction',(0.,1.,-0.)) ;
#165=DIRECTION('Axis2P3D Direction',(0.,1.,-0.)) ;
#174=DIRECTION('Axis2P3D Direction',(0.,1.,-0.)) ;
#184=DIRECTION('Axis2P3D Direction',(0.,1.,0.)) ;
#185=DIRECTION('Axis2P3D XDirection',(-1.,0.,0.)) ;
#189=DIRECTION('Vector Direction',(0.,1.,0.)) ;
#196=DIRECTION('Vector Direction',(0.,1.,0.)) ;
#203=DIRECTION('Axis2P3D Direction',(0.,1.,0.)) ;
#210=DIRECTION('Axis2P3D Direction',(0.,1.,0.)) ;
#223=DIRECTION('Axis2P3D Direction',(0.,1.,0.)) ;
#230=DIRECTION('Axis2P3D Direction',(0.,1.,0.)) ;
#243=DIRECTION('Axis2P3D Direction',(0.,1.,0.)) ;
#244=DIRECTION('Axis2P3D XDirection',(-1.,0.,0.)) ;
#248=DIRECTION('Vector Direction',(0.,1.,0.)) ;
#255=DIRECTION('Axis2P3D Direction',(0.,1.,0.)) ;
#262=DIRECTION('Vector Direction',(0.,1.,0.)) ;
#274=DIRECTION('Axis2P3D Direction',(0.,1.,0.)) ;
#286=DIRECTION('Axis2P3D Direction',(0.,1.,0.)) ;
#287=DIRECTION('Axis2P3D XDirection',(-0.87758256189,0.,0.479425538604)) ;
#291=DIRECTION('Axis2P3D Direction',(0.479425538604,-0.,0.87758256189)) ;
#298=DIRECTION('Axis2P3D Direction',(0.,1.,0.)) ;
#305=DIRECTION('Axis2P3D Direction',(-0.479425538604,0.,-0.87758256189)) ;
#318=DIRECTION('Axis2P3D Direction',(0.,1.,0.)) ;
#331=DIRECTION('Axis2P3D Direction',(0.,1.,-0.)) ;
#332=DIRECTION('Axis2P3D XDirection',(-1.,0.,0.)) ;
#341=DIRECTION('Axis2P3D Direction',(0.,1.,0.)) ;
#342=DIRECTION('Axis2P3D XDirection',(-0.87758256189,0.,0.479425538604)) ;
#346=DIRECTION('Axis2P3D Direction',(0.,1.,0.)) ;
#355=DIRECTION('Axis2P3D Direction',(-0.479425538604,0.,-0.87758256189)) ;
#360=DIRECTION('Axis2P3D Direction',(0.479425538604,-0.,0.87758256189)) ;
#372=DIRECTION('Axis2P3D Direction',(0.,1.,0.)) ;
#384=DIRECTION('Axis2P3D Direction',(0.,1.,0.)) ;
#385=DIRECTION('Axis2P3D XDirection',(-0.87758256189,0.,0.479425538604)) ;
#389=DIRECTION('Axis2P3D Direction',(0.,1.,0.)) ;
#398=DIRECTION('Vector Direction',(0.,1.,0.)) ;
#403=DIRECTION('Vector Direction',(0.,1.,0.)) ;
#415=DIRECTION('Axis2P3D Direction',(0.,1.,0.)) ;
#427=DIRECTION('Axis2P3D Direction',(0.,1.,0.)) ;
#428=DIRECTION('Axis2P3D XDirection',(-0.87758256189,0.,0.479425538604)) ;
#432=DIRECTION('Axis2P3D Direction',(0.,1.,0.)) ;
#441=DIRECTION('Axis2P3D Direction',(-0.479425538604,0.,-0.87758256189)) ;
#446=DIRECTION('Axis2P3D Direction',(0.479425538604,-0.,0.87758256189)) ;
#458=DIRECTION('Axis2P3D Direction',(0.,1.,0.)) ;
#470=DIRECTION('Axis2P3D Direction',(0.,1.,0.)) ;
#471=DIRECTION('Axis2P3D XDirection',(-0.87758256189,0.,0.479425538604)) ;
#475=DIRECTION('Axis2P3D Direction',(-0.479425538604,0.,-0.87758256189)) ;
#480=DIRECTION('Axis2P3D Direction',(0.479425538604,-0.,0.87758256189)) ;
#499=SHAPE_REPRESENTATION_RELATIONSHIP(' ',' ',#19,#498) ;
#18=AXIS2_PLACEMENT_3D(' ',#17,$,$) ;
#34=AXIS2_PLACEMENT_3D('Torus Axis2P3D',#31,#32,#33) ;
#38=AXIS2_PLACEMENT_3D('Circle Axis2P3D',#36,#37,$) ;
#47=AXIS2_PLACEMENT_3D('Circle Axis2P3D',#45,#46,$) ;
#54=AXIS2_PLACEMENT_3D('Circle Axis2P3D',#52,#53,$) ;
#61=AXIS2_PLACEMENT_3D('Circle Axis2P3D',#59,#60,$) ;
#74=AXIS2_PLACEMENT_3D('Plane Axis2P3D',#71,#72,#73) ;
#78=AXIS2_PLACEMENT_3D('Circle Axis2P3D',#76,#77,$) ;
#88=AXIS2_PLACEMENT_3D('Circle Axis2P3D',#86,#87,$) ;
#101=AXIS2_PLACEMENT_3D('Cone Axis2P3D',#98,#99,#100) ;
#119=AXIS2_PLACEMENT_3D('Circle Axis2P3D',#117,#118,$) ;
#131=AXIS2_PLACEMENT_3D('Circle Axis2P3D',#129,#130,$) ;
#144=AXIS2_PLACEMENT_3D('Plane Axis2P3D',#141,#142,#143) ;
#148=AXIS2_PLACEMENT_3D('Circle Axis2P3D',#146,#147,$) ;
#157=AXIS2_PLACEMENT_3D('Circle Axis2P3D',#155,#156,$) ;
#166=AXIS2_PLACEMENT_3D('Circle Axis2P3D',#164,#165,$) ;
#175=AXIS2_PLACEMENT_3D('Circle Axis2P3D',#173,#174,$) ;
#186=AXIS2_PLACEMENT_3D('Cylinder Axis2P3D',#183,#184,#185) ;
#204=AXIS2_PLACEMENT_3D('Circle Axis2P3D',#202,#203,$) ;
#211=AXIS2_PLACEMENT_3D('Circle Axis2P3D',#209,#210,$) ;
#224=AXIS2_PLACEMENT_3D('Circle Axis2P3D',#222,#223,$) ;
#231=AXIS2_PLACEMENT_3D('Circle Axis2P3D',#229,#230,$) ;
#245=AXIS2_PLACEMENT_3D('Cylinder Axis2P3D',#242,#243,#244) ;
#256=AXIS2_PLACEMENT_3D('Circle Axis2P3D',#254,#255,$) ;
#275=AXIS2_PLACEMENT_3D('Circle Axis2P3D',#273,#274,$) ;
#288=AXIS2_PLACEMENT_3D('Torus Axis2P3D',#285,#286,#287) ;
#292=AXIS2_PLACEMENT_3D('Circle Axis2P3D',#290,#291,$) ;
#299=AXIS2_PLACEMENT_3D('Circle Axis2P3D',#297,#298,$) ;
#306=AXIS2_PLACEMENT_3D('Circle Axis2P3D',#304,#305,$) ;
#319=AXIS2_PLACEMENT_3D('Circle Axis2P3D',#317,#318,$) ;
#333=AXIS2_PLACEMENT_3D('Plane Axis2P3D',#330,#331,#332) ;
#343=AXIS2_PLACEMENT_3D('Torus Axis2P3D',#340,#341,#342) ;
#347=AXIS2_PLACEMENT_3D('Circle Axis2P3D',#345,#346,$) ;
#356=AXIS2_PLACEMENT_3D('Circle Axis2P3D',#354,#355,$) ;
#361=AXIS2_PLACEMENT_3D('Circle Axis2P3D',#359,#360,$) ;
#373=AXIS2_PLACEMENT_3D('Circle Axis2P3D',#371,#372,$) ;
#386=AXIS2_PLACEMENT_3D('Cylinder Axis2P3D',#383,#384,#385) ;
#390=AXIS2_PLACEMENT_3D('Circle Axis2P3D',#388,#389,$) ;
#416=AXIS2_PLACEMENT_3D('Circle Axis2P3D',#414,#415,$) ;
#429=AXIS2_PLACEMENT_3D('Torus Axis2P3D',#426,#427,#428) ;
#433=AXIS2_PLACEMENT_3D('Circle Axis2P3D',#431,#432,$) ;
#442=AXIS2_PLACEMENT_3D('Circle Axis2P3D',#440,#441,$) ;
#447=AXIS2_PLACEMENT_3D('Circle Axis2P3D',#445,#446,$) ;
#459=AXIS2_PLACEMENT_3D('Circle Axis2P3D',#457,#458,$) ;
#472=AXIS2_PLACEMENT_3D('Torus Axis2P3D',#469,#470,#471) ;
#476=AXIS2_PLACEMENT_3D('Circle Axis2P3D',#474,#475,$) ;
#481=AXIS2_PLACEMENT_3D('Circle Axis2P3D',#479,#480,$) ;
#106=LINE('Line',#103,#105) ;
#113=LINE('Line',#110,#112) ;
#191=LINE('Line',#188,#190) ;
#198=LINE('Line',#195,#197) ;
#250=LINE('Line',#247,#249) ;
#264=LINE('Line',#261,#263) ;
#400=LINE('Line',#397,#399) ;
#405=LINE('Line',#402,#404) ;
#39=CIRCLE('generated circle',#38,15.3589838486) ;
#48=CIRCLE('generated circle',#47,10.) ;
#55=CIRCLE('generated circle',#54,24.0192378865) ;
#62=CIRCLE('generated circle',#61,10.) ;
#79=CIRCLE('generated circle',#78,15.3589838486) ;
#89=CIRCLE('generated circle',#88,24.0192378865) ;
#120=CIRCLE('generated circle',#119,39.3933260681) ;
#132=CIRCLE('generated circle',#131,39.3933260681) ;
#149=CIRCLE('generated circle',#148,37.5) ;
#158=CIRCLE('generated circle',#157,37.5) ;
#167=CIRCLE('generated circle',#166,13.15) ;
#176=CIRCLE('generated circle',#175,13.15) ;
#205=CIRCLE('generated circle',#204,37.5) ;
#212=CIRCLE('generated circle',#211,37.5) ;
#225=CIRCLE('generated circle',#224,37.5) ;
#232=CIRCLE('generated circle',#231,37.5) ;
#257=CIRCLE('generated circle',#256,13.15) ;
#276=CIRCLE('generated circle',#275,13.15) ;
#293=CIRCLE('generated circle',#292,442.483455239) ;
#300=CIRCLE('generated circle',#299,132.972688957) ;
#307=CIRCLE('generated circle',#306,442.483455239) ;
#320=CIRCLE('generated circle',#319,132.972688957) ;
#348=CIRCLE('generated circle',#347,140.) ;
#357=CIRCLE('generated circle',#356,10.) ;
#362=CIRCLE('generated circle',#361,10.) ;
#374=CIRCLE('generated circle',#373,140.) ;
#391=CIRCLE('generated circle',#390,140.) ;
#417=CIRCLE('generated circle',#416,140.) ;
#434=CIRCLE('generated circle',#433,132.972688957) ;
#443=CIRCLE('generated circle',#442,10.) ;
#448=CIRCLE('generated circle',#447,10.) ;
#460=CIRCLE('generated circle',#459,132.972688957) ;
#477=CIRCLE('generated circle',#476,442.483455239) ;
#482=CIRCLE('generated circle',#481,442.483455239) ;
#75=PLANE('',#74) ;
#145=PLANE('',#144) ;
#334=PLANE('',#333) ;
#187=CYLINDRICAL_SURFACE('generated cylinder',#186,37.5) ;
#246=CYLINDRICAL_SURFACE('generated cylinder',#245,13.15) ;
#387=CYLINDRICAL_SURFACE('generated cylinder',#386,140.) ;
#102=CONICAL_SURFACE('Cone',#101,24.0192378865,0.523598775598) ;
#35=TOROIDAL_SURFACE('homeo Torus',#34,15.3589838486,10.) ;
#344=TOROIDAL_SURFACE('homeo Torus',#343,130.,10.) ;
#430=TOROIDAL_SURFACE('homeo Torus',#429,130.,10.) ;
#181=FACE_BOUND('',#178,.T.) ;
#44=EDGE_CURVE('',#41,#43,#39,.T.) ;
#51=EDGE_CURVE('',#41,#50,#48,.F.) ;
#58=EDGE_CURVE('',#50,#57,#55,.T.) ;
#63=EDGE_CURVE('',#43,#57,#62,.F.) ;
#80=EDGE_CURVE('',#43,#41,#79,.T.) ;
#90=EDGE_CURVE('',#57,#50,#89,.T.) ;
#109=EDGE_CURVE('',#57,#108,#106,.T.) ;
#116=EDGE_CURVE('',#50,#115,#113,.T.) ;
#121=EDGE_CURVE('',#115,#108,#120,.F.) ;
#133=EDGE_CURVE('',#108,#115,#132,.F.) ;
#154=EDGE_CURVE('',#151,#153,#149,.T.) ;
#159=EDGE_CURVE('',#153,#151,#158,.T.) ;
#172=EDGE_CURVE('',#169,#171,#167,.T.) ;
#177=EDGE_CURVE('',#171,#169,#176,.T.) ;
#194=EDGE_CURVE('',#193,#153,#191,.F.) ;
#201=EDGE_CURVE('',#200,#151,#198,.F.) ;
#208=EDGE_CURVE('',#207,#200,#205,.T.) ;
#213=EDGE_CURVE('',#207,#193,#212,.F.) ;
#228=EDGE_CURVE('',#227,#193,#225,.T.) ;
#233=EDGE_CURVE('',#200,#227,#232,.T.) ;
#253=EDGE_CURVE('',#171,#252,#250,.F.) ;
#260=EDGE_CURVE('',#252,#259,#257,.T.) ;
#265=EDGE_CURVE('',#169,#259,#264,.F.) ;
#277=EDGE_CURVE('',#259,#252,#276,.T.) ;
#296=EDGE_CURVE('',#295,#227,#293,.F.) ;
#303=EDGE_CURVE('',#302,#295,#300,.T.) ;
#308=EDGE_CURVE('',#302,#207,#307,.F.) ;
#321=EDGE_CURVE('',#295,#302,#320,.T.) ;
#353=EDGE_CURVE('',#350,#352,#348,.T.) ;
#358=EDGE_CURVE('',#350,#302,#357,.F.) ;
#363=EDGE_CURVE('',#352,#295,#362,.F.) ;
#375=EDGE_CURVE('',#352,#350,#374,.T.) ;
#396=EDGE_CURVE('',#393,#395,#391,.T.) ;
#401=EDGE_CURVE('',#393,#350,#400,.F.) ;
#406=EDGE_CURVE('',#395,#352,#405,.F.) ;
#418=EDGE_CURVE('',#395,#393,#417,.T.) ;
#439=EDGE_CURVE('',#436,#438,#434,.T.) ;
#444=EDGE_CURVE('',#436,#393,#443,.F.) ;
#449=EDGE_CURVE('',#438,#395,#448,.F.) ;
#461=EDGE_CURVE('',#438,#436,#460,.T.) ;
#478=EDGE_CURVE('',#115,#436,#477,.F.) ;
#483=EDGE_CURVE('',#108,#438,#482,.F.) ;
#30=CLOSED_SHELL('Closed Shell',(#70,#85,#97,#128,#140,#182,#221,#241,#272,#284,#316,#329,#339,#370,#382,#413,#425,#456,#468,#490,#497)) ;
#65=ORIENTED_EDGE('',*,*,#44,.F.) ;
#66=ORIENTED_EDGE('',*,*,#51,.T.) ;
#67=ORIENTED_EDGE('',*,*,#58,.T.) ;
#68=ORIENTED_EDGE('',*,*,#63,.F.) ;
#82=ORIENTED_EDGE('',*,*,#44,.T.) ;
#83=ORIENTED_EDGE('',*,*,#80,.T.) ;
#92=ORIENTED_EDGE('',*,*,#80,.F.) ;
#93=ORIENTED_EDGE('',*,*,#63,.T.) ;
#94=ORIENTED_EDGE('',*,*,#90,.T.) ;
#95=ORIENTED_EDGE('',*,*,#51,.F.) ;
#123=ORIENTED_EDGE('',*,*,#109,.F.) ;
#124=ORIENTED_EDGE('',*,*,#58,.F.) ;
#125=ORIENTED_EDGE('',*,*,#116,.T.) ;
#126=ORIENTED_EDGE('',*,*,#121,.T.) ;
#135=ORIENTED_EDGE('',*,*,#116,.F.) ;
#136=ORIENTED_EDGE('',*,*,#90,.F.) ;
#137=ORIENTED_EDGE('',*,*,#109,.T.) ;
#138=ORIENTED_EDGE('',*,*,#133,.T.) ;
#161=ORIENTED_EDGE('',*,*,#154,.F.) ;
#162=ORIENTED_EDGE('',*,*,#159,.F.) ;
#179=ORIENTED_EDGE('',*,*,#172,.T.) ;
#180=ORIENTED_EDGE('',*,*,#177,.T.) ;
#215=ORIENTED_EDGE('',*,*,#194,.T.) ;
#216=ORIENTED_EDGE('',*,*,#159,.T.) ;
#217=ORIENTED_EDGE('',*,*,#201,.F.) ;
#218=ORIENTED_EDGE('',*,*,#208,.F.) ;
#219=ORIENTED_EDGE('',*,*,#213,.T.) ;
#235=ORIENTED_EDGE('',*,*,#201,.T.) ;
#236=ORIENTED_EDGE('',*,*,#154,.T.) ;
#237=ORIENTED_EDGE('',*,*,#194,.F.) ;
#238=ORIENTED_EDGE('',*,*,#228,.F.) ;
#239=ORIENTED_EDGE('',*,*,#233,.F.) ;
#267=ORIENTED_EDGE('',*,*,#253,.T.) ;
#268=ORIENTED_EDGE('',*,*,#260,.T.) ;
#269=ORIENTED_EDGE('',*,*,#265,.F.) ;
#270=ORIENTED_EDGE('',*,*,#177,.F.) ;
#279=ORIENTED_EDGE('',*,*,#265,.T.) ;
#280=ORIENTED_EDGE('',*,*,#277,.T.) ;
#281=ORIENTED_EDGE('',*,*,#253,.F.) ;
#282=ORIENTED_EDGE('',*,*,#172,.F.) ;
#310=ORIENTED_EDGE('',*,*,#296,.F.) ;
#311=ORIENTED_EDGE('',*,*,#303,.F.) ;
#312=ORIENTED_EDGE('',*,*,#308,.T.) ;
#313=ORIENTED_EDGE('',*,*,#208,.T.) ;
#314=ORIENTED_EDGE('',*,*,#233,.T.) ;
#323=ORIENTED_EDGE('',*,*,#308,.F.) ;
#324=ORIENTED_EDGE('',*,*,#321,.F.) ;
#325=ORIENTED_EDGE('',*,*,#296,.T.) ;
#326=ORIENTED_EDGE('',*,*,#228,.T.) ;
#327=ORIENTED_EDGE('',*,*,#213,.F.) ;
#336=ORIENTED_EDGE('',*,*,#277,.F.) ;
#337=ORIENTED_EDGE('',*,*,#260,.F.) ;
#365=ORIENTED_EDGE('',*,*,#353,.F.) ;
#366=ORIENTED_EDGE('',*,*,#358,.T.) ;
#367=ORIENTED_EDGE('',*,*,#303,.T.) ;
#368=ORIENTED_EDGE('',*,*,#363,.F.) ;
#377=ORIENTED_EDGE('',*,*,#375,.F.) ;
#378=ORIENTED_EDGE('',*,*,#363,.T.) ;
#379=ORIENTED_EDGE('',*,*,#321,.T.) ;
#380=ORIENTED_EDGE('',*,*,#358,.F.) ;
#408=ORIENTED_EDGE('',*,*,#396,.F.) ;
#409=ORIENTED_EDGE('',*,*,#401,.T.) ;
#410=ORIENTED_EDGE('',*,*,#353,.T.) ;
#411=ORIENTED_EDGE('',*,*,#406,.F.) ;
#420=ORIENTED_EDGE('',*,*,#418,.F.) ;
#421=ORIENTED_EDGE('',*,*,#406,.T.) ;
#422=ORIENTED_EDGE('',*,*,#375,.T.) ;
#423=ORIENTED_EDGE('',*,*,#401,.F.) ;
#451=ORIENTED_EDGE('',*,*,#439,.F.) ;
#452=ORIENTED_EDGE('',*,*,#444,.T.) ;
#453=ORIENTED_EDGE('',*,*,#396,.T.) ;
#454=ORIENTED_EDGE('',*,*,#449,.F.) ;
#463=ORIENTED_EDGE('',*,*,#461,.F.) ;
#464=ORIENTED_EDGE('',*,*,#449,.T.) ;
#465=ORIENTED_EDGE('',*,*,#418,.T.) ;
#466=ORIENTED_EDGE('',*,*,#444,.F.) ;
#485=ORIENTED_EDGE('',*,*,#478,.T.) ;
#486=ORIENTED_EDGE('',*,*,#439,.T.) ;
#487=ORIENTED_EDGE('',*,*,#483,.F.) ;
#488=ORIENTED_EDGE('',*,*,#121,.F.) ;
#492=ORIENTED_EDGE('',*,*,#483,.T.) ;
#493=ORIENTED_EDGE('',*,*,#461,.T.) ;
#494=ORIENTED_EDGE('',*,*,#478,.F.) ;
#495=ORIENTED_EDGE('',*,*,#133,.F.) ;
#64=EDGE_LOOP('',(#65,#66,#67,#68)) ;
#81=EDGE_LOOP('',(#82,#83)) ;
#91=EDGE_LOOP('',(#92,#93,#94,#95)) ;
#122=EDGE_LOOP('',(#123,#124,#125,#126)) ;
#134=EDGE_LOOP('',(#135,#136,#137,#138)) ;
#160=EDGE_LOOP('',(#161,#162)) ;
#178=EDGE_LOOP('',(#179,#180)) ;
#214=EDGE_LOOP('',(#215,#216,#217,#218,#219)) ;
#234=EDGE_LOOP('',(#235,#236,#237,#238,#239)) ;
#266=EDGE_LOOP('',(#267,#268,#269,#270)) ;
#278=EDGE_LOOP('',(#279,#280,#281,#282)) ;
#309=EDGE_LOOP('',(#310,#311,#312,#313,#314)) ;
#322=EDGE_LOOP('',(#323,#324,#325,#326,#327)) ;
#335=EDGE_LOOP('',(#336,#337)) ;
#364=EDGE_LOOP('',(#365,#366,#367,#368)) ;
#376=EDGE_LOOP('',(#377,#378,#379,#380)) ;
#407=EDGE_LOOP('',(#408,#409,#410,#411)) ;
#419=EDGE_LOOP('',(#420,#421,#422,#423)) ;
#450=EDGE_LOOP('',(#451,#452,#453,#454)) ;
#462=EDGE_LOOP('',(#463,#464,#465,#466)) ;
#484=EDGE_LOOP('',(#485,#486,#487,#488)) ;
#491=EDGE_LOOP('',(#492,#493,#494,#495)) ;
#21=MANIFOLD_SOLID_BREP('PartBody',#30) ;
#41=VERTEX_POINT('',#40) ;
#43=VERTEX_POINT('',#42) ;
#50=VERTEX_POINT('',#49) ;
#57=VERTEX_POINT('',#56) ;
#108=VERTEX_POINT('',#107) ;
#115=VERTEX_POINT('',#114) ;
#151=VERTEX_POINT('',#150) ;
#153=VERTEX_POINT('',#152) ;
#169=VERTEX_POINT('',#168) ;
#171=VERTEX_POINT('',#170) ;
#193=VERTEX_POINT('',#192) ;
#200=VERTEX_POINT('',#199) ;
#207=VERTEX_POINT('',#206) ;
#227=VERTEX_POINT('',#226) ;
#252=VERTEX_POINT('',#251) ;
#259=VERTEX_POINT('',#258) ;
#295=VERTEX_POINT('',#294) ;
#302=VERTEX_POINT('',#301) ;
#350=VERTEX_POINT('',#349) ;
#352=VERTEX_POINT('',#351) ;
#393=VERTEX_POINT('',#392) ;
#395=VERTEX_POINT('',#394) ;
#436=VERTEX_POINT('',#435) ;
#438=VERTEX_POINT('',#437) ;
#498=ADVANCED_BREP_SHAPE_REPRESENTATION('NONE',(#21),#16) ;
#70=ADVANCED_FACE('PartBody',(#69),#35,.T.) ;
#85=ADVANCED_FACE('PartBody',(#84),#75,.T.) ;
#97=ADVANCED_FACE('PartBody',(#96),#35,.T.) ;
#128=ADVANCED_FACE('PartBody',(#127),#102,.T.) ;
#140=ADVANCED_FACE('PartBody',(#139),#102,.T.) ;
#182=ADVANCED_FACE('PartBody',(#163,#181),#145,.F.) ;
#221=ADVANCED_FACE('PartBody',(#220),#187,.T.) ;
#241=ADVANCED_FACE('PartBody',(#240),#187,.T.) ;
#272=ADVANCED_FACE('PartBody',(#271),#246,.T.) ;
#284=ADVANCED_FACE('PartBody',(#283),#246,.T.) ;
#316=ADVANCED_FACE('PartBody',(#315),#289,.T.) ;
#329=ADVANCED_FACE('PartBody',(#328),#289,.T.) ;
#339=ADVANCED_FACE('PartBody',(#338),#334,.F.) ;
#370=ADVANCED_FACE('PartBody',(#369),#344,.T.) ;
#382=ADVANCED_FACE('PartBody',(#381),#344,.T.) ;
#413=ADVANCED_FACE('PartBody',(#412),#387,.T.) ;
#425=ADVANCED_FACE('PartBody',(#424),#387,.T.) ;
#456=ADVANCED_FACE('PartBody',(#455),#430,.T.) ;
#468=ADVANCED_FACE('PartBody',(#467),#430,.T.) ;
#490=ADVANCED_FACE('PartBody',(#489),#473,.T.) ;
#497=ADVANCED_FACE('PartBody',(#496),#473,.T.) ;
#4=APPLICATION_PROTOCOL_DEFINITION('international standard','ap242_managed_model_based_3d_engineering',2014,#1) ;
#22=COLOUR_RGB('Colour',0.823529411765,0.823529411765,1.) ;
#289=DEGENERATE_TOROIDAL_SURFACE('homeo Torus',#288,1.4361208658,442.483455239,.T.) ;
#473=DEGENERATE_TOROIDAL_SURFACE('homeo Torus',#472,1.4361208658,442.483455239,.T.) ;
#69=FACE_OUTER_BOUND('',#64,.T.) ;
#84=FACE_OUTER_BOUND('',#81,.T.) ;
#96=FACE_OUTER_BOUND('',#91,.T.) ;
#127=FACE_OUTER_BOUND('',#122,.T.) ;
#139=FACE_OUTER_BOUND('',#134,.T.) ;
#163=FACE_OUTER_BOUND('',#160,.T.) ;
#220=FACE_OUTER_BOUND('',#214,.T.) ;
#240=FACE_OUTER_BOUND('',#234,.T.) ;
#271=FACE_OUTER_BOUND('',#266,.T.) ;
#283=FACE_OUTER_BOUND('',#278,.T.) ;
#315=FACE_OUTER_BOUND('',#309,.T.) ;
#328=FACE_OUTER_BOUND('',#322,.T.) ;
#338=FACE_OUTER_BOUND('',#335,.T.) ;
#369=FACE_OUTER_BOUND('',#364,.T.) ;
#381=FACE_OUTER_BOUND('',#376,.T.) ;
#412=FACE_OUTER_BOUND('',#407,.T.) ;
#424=FACE_OUTER_BOUND('',#419,.T.) ;
#455=FACE_OUTER_BOUND('',#450,.T.) ;
#467=FACE_OUTER_BOUND('',#462,.T.) ;
#489=FACE_OUTER_BOUND('',#484,.T.) ;
#496=FACE_OUTER_BOUND('',#491,.T.) ;
#9=PRODUCT_CATEGORY_RELATIONSHIP(' ',' ',#7,#8) ;
#6=PRODUCT_DEFINITION_FORMATION_WITH_SPECIFIED_SOURCE('',' ',#5,.NOT_KNOWN.) ;
#20=SHAPE_DEFINITION_REPRESENTATION(#11,#19) ;
#12=(LENGTH_UNIT()NAMED_UNIT(*)SI_UNIT(.MILLI.,.METRE.)) ;
#13=(NAMED_UNIT(*)PLANE_ANGLE_UNIT()SI_UNIT($,.RADIAN.)) ;
#14=(NAMED_UNIT(*)SI_UNIT($,.STERADIAN.)SOLID_ANGLE_UNIT()) ;
#16=(GEOMETRIC_REPRESENTATION_CONTEXT(3)GLOBAL_UNCERTAINTY_ASSIGNED_CONTEXT((#15))GLOBAL_UNIT_ASSIGNED_CONTEXT((#12,#13,#14))REPRESENTATION_CONTEXT(' ',' ')) ;
ENDSEC;
END-ISO-10303-21;
