ISO-10303-21;
HEADER;
FILE_DESCRIPTION(('CATIA V5 STEP Exchange','CAx-IF Rec.Pracs.--- Model Styling and Organization---1.5--- 2016-08-15','CAx-IF Rec.Pracs.---Supplemental Geometry---1.0---2011-11-01','CAx-IF Rec.Pracs.--- Composite Materials ---3.4---2017-06-13','CAx-IF Rec.Pracs.---Tessellated 3D Geometry---1.0---2015-12-17'),'2;1');

FILE_NAME('C:\\PTC\\Shared\\w2i1j180\\STEP_557304_-_TST.stp','2022-12-15T10:11:30+00:00',('none'),('none'),'CATIA Version 5-6 Release 2020 SP5','CATIA V5 STEP AP242 v2','none');

FILE_SCHEMA(('AP242_MANAGED_MODEL_BASED_3D_ENGINEERING_MIM_LF  {1 0 10303 442 1 1 4}'));

ENDSEC;
DATA;
#5=PRODUCT('557304 - TST','','',(#2)) ;
#2=PRODUCT_CONTEXT(' ',#1,'mechanical') ;
#1=APPLICATION_CONTEXT('managed model based 3d engineering') ;
#10=PRODUCT_DEFINITION('',' ',#6,#3) ;
#3=PRODUCT_DEFINITION_CONTEXT('part definition',#1,' ') ;
#11=PRODUCT_DEFINITION_SHAPE(' ',' ',#10) ;
#462=MECHANICAL_DESIGN_GEOMETRIC_PRESENTATION_REPRESENTATION(' ',(#29),#16) ;
#7=PRODUCT_CATEGORY('part','specification') ;
#19=SHAPE_REPRESENTATION(' ',(#18),#16) ;
#17=CARTESIAN_POINT(' ',(0.,0.,0.)) ;
#31=CARTESIAN_POINT('Axis2P3D Location',(0.,0.,-43.9)) ;
#36=CARTESIAN_POINT('Line Origine',(2.87655323163,5.26549537134,-43.4)) ;
#40=CARTESIAN_POINT('Vertex',(3.11626600093,5.70428665229,-42.9)) ;
#42=CARTESIAN_POINT('Vertex',(2.63684046232,4.8267040904,-43.9)) ;
#45=CARTESIAN_POINT('Axis2P3D Location',(0.,0.,-43.9)) ;
#49=CARTESIAN_POINT('Vertex',(-2.63684046232,-4.8267040904,-43.9)) ;
#52=CARTESIAN_POINT('Line Origine',(-2.87655323163,-5.26549537134,-43.4)) ;
#56=CARTESIAN_POINT('Vertex',(-3.11626600093,-5.70428665229,-42.9)) ;
#59=CARTESIAN_POINT('Axis2P3D Location',(0.,0.,-42.9)) ;
#71=CARTESIAN_POINT('Axis2P3D Location',(0.,0.,-21.95)) ;
#76=CARTESIAN_POINT('Line Origine',(3.11626600093,5.70428665229,-21.45)) ;
#80=CARTESIAN_POINT('Vertex',(3.11626600093,5.70428665229,-31.9)) ;
#83=CARTESIAN_POINT('Line Origine',(-3.11626600093,-5.70428665229,-21.45)) ;
#87=CARTESIAN_POINT('Vertex',(-3.11626600093,-5.70428665229,-31.9)) ;
#90=CARTESIAN_POINT('Axis2P3D Location',(0.,0.,-31.9)) ;
#102=CARTESIAN_POINT('Axis2P3D Location',(0.,0.,-43.9)) ;
#107=CARTESIAN_POINT('Axis2P3D Location',(0.,0.,-42.9)) ;
#119=CARTESIAN_POINT('Axis2P3D Location',(0.,-5.5,-43.9)) ;
#129=CARTESIAN_POINT('Axis2P3D Location',(0.,0.,-31.9)) ;
#141=CARTESIAN_POINT('Axis2P3D Location',(0.,0.,-31.9)) ;
#146=CARTESIAN_POINT('Line Origine',(0.,7.,-31.9)) ;
#150=CARTESIAN_POINT('Vertex',(7.,7.,-31.9)) ;
#152=CARTESIAN_POINT('Vertex',(-7.,7.,-31.9)) ;
#155=CARTESIAN_POINT('Line Origine',(7.,0.,-31.9)) ;
#159=CARTESIAN_POINT('Vertex',(7.,-7.,-31.9)) ;
#162=CARTESIAN_POINT('Line Origine',(0.,-7.,-31.9)) ;
#166=CARTESIAN_POINT('Vertex',(-7.,-7.,-31.9)) ;
#169=CARTESIAN_POINT('Line Origine',(-7.,0.,-31.9)) ;
#185=CARTESIAN_POINT('Axis2P3D Location',(-4.,0.,0.)) ;
#190=CARTESIAN_POINT('Line Origine',(-4.,24.5,0.)) ;
#194=CARTESIAN_POINT('Vertex',(-16.,24.5,-4.95215118811E-14)) ;
#196=CARTESIAN_POINT('Vertex',(8.,24.5,-4.95215118811E-14)) ;
#199=CARTESIAN_POINT('Axis2P3D Location',(-16.,0.,0.)) ;
#203=CARTESIAN_POINT('Vertex',(-16.,-24.5,3.00038465791E-15)) ;
#206=CARTESIAN_POINT('Line Origine',(-4.,-24.5,3.00038465791E-15)) ;
#210=CARTESIAN_POINT('Vertex',(8.,-24.5,3.00038465791E-15)) ;
#213=CARTESIAN_POINT('Axis2P3D Location',(8.,0.,0.)) ;
#225=CARTESIAN_POINT('Axis2P3D Location',(-16.,-8.881784197E-16,-3.5527136788E-15)) ;
#230=CARTESIAN_POINT('Axis2P3D Location',(-16.,22.5,1.44328993201E-15)) ;
#234=CARTESIAN_POINT('Vertex',(-18.,22.5,1.30823243814E-14)) ;
#237=CARTESIAN_POINT('Axis2P3D Location',(-18.,-8.881784197E-16,-3.5527136788E-15)) ;
#241=CARTESIAN_POINT('Vertex',(-18.,-22.5,-1.86193386108E-14)) ;
#244=CARTESIAN_POINT('Axis2P3D Location',(-16.,-22.5,-2.35367281221E-14)) ;
#256=CARTESIAN_POINT('Axis2P3D Location',(8.,-8.881784197E-16,-3.5527136788E-15)) ;
#261=CARTESIAN_POINT('Axis2P3D Location',(8.,22.5,1.44328993201E-15)) ;
#265=CARTESIAN_POINT('Vertex',(10.,22.5,1.30823243814E-14)) ;
#268=CARTESIAN_POINT('Axis2P3D Location',(8.,-22.5,6.43929354283E-15)) ;
#272=CARTESIAN_POINT('Vertex',(10.,-22.5,-1.86193386108E-14)) ;
#275=CARTESIAN_POINT('Axis2P3D Location',(10.,-8.881784197E-16,-3.5527136788E-15)) ;
#287=CARTESIAN_POINT('Axis2P3D Location',(-16.,0.,5.3290705182E-15)) ;
#292=CARTESIAN_POINT('Axis2P3D Location',(-18.,0.,5.3290705182E-15)) ;
#297=CARTESIAN_POINT('Axis2P3D Location',(-16.,0.,5.3290705182E-15)) ;
#309=CARTESIAN_POINT('Axis2P3D Location',(8.,0.,5.3290705182E-15)) ;
#314=CARTESIAN_POINT('Axis2P3D Location',(8.,0.,5.3290705182E-15)) ;
#319=CARTESIAN_POINT('Axis2P3D Location',(10.,0.,5.3290705182E-15)) ;
#331=CARTESIAN_POINT('Axis2P3D Location',(-18.,0.,0.)) ;
#341=CARTESIAN_POINT('Axis2P3D Location',(10.,0.,0.)) ;
#357=CARTESIAN_POINT('Line Origine',(-4.,7.,-23.4787137637)) ;
#361=CARTESIAN_POINT('Vertex',(-7.,7.,-23.4787137637)) ;
#363=CARTESIAN_POINT('Vertex',(7.,7.,-23.4787137637)) ;
#366=CARTESIAN_POINT('Axis2P3D Location',(-7.,0.,0.)) ;
#370=CARTESIAN_POINT('Vertex',(-7.,-7.,-23.4787137637)) ;
#373=CARTESIAN_POINT('Line Origine',(-4.,-7.,-23.4787137637)) ;
#377=CARTESIAN_POINT('Vertex',(7.,-7.,-23.4787137637)) ;
#380=CARTESIAN_POINT('Axis2P3D Location',(7.,0.,0.)) ;
#392=CARTESIAN_POINT('Axis2P3D Location',(-7.,7.,0.)) ;
#397=CARTESIAN_POINT('Line Origine',(7.,7.,-27.6893568819)) ;
#402=CARTESIAN_POINT('Line Origine',(-7.,7.,-27.6893568819)) ;
#414=CARTESIAN_POINT('Axis2P3D Location',(7.,-7.,0.)) ;
#419=CARTESIAN_POINT('Line Origine',(7.,-7.,-27.6893568819)) ;
#431=CARTESIAN_POINT('Axis2P3D Location',(7.,-7.,0.)) ;
#436=CARTESIAN_POINT('Line Origine',(-7.,-7.,-27.6893568819)) ;
#448=CARTESIAN_POINT('Axis2P3D Location',(-7.,7.,0.)) ;
#8=PRODUCT_RELATED_PRODUCT_CATEGORY('part',$,(#5)) ;
#15=UNCERTAINTY_MEASURE_WITH_UNIT(LENGTH_MEASURE(0.005),#12,'distance_accuracy_value','CONFUSED CURVE UNCERTAINTY') ;
#29=STYLED_ITEM(' ',(#28),#21) ;
#28=PRESENTATION_STYLE_ASSIGNMENT((#27)) ;
#27=SURFACE_STYLE_USAGE(.BOTH.,#26) ;
#26=SURFACE_SIDE_STYLE(' ',(#25)) ;
#25=SURFACE_STYLE_FILL_AREA(#24) ;
#24=FILL_AREA_STYLE(' ',(#23)) ;
#23=FILL_AREA_STYLE_COLOUR(' ',#22) ;
#38=VECTOR('Line Direction',#37,1.) ;
#54=VECTOR('Line Direction',#53,1.) ;
#78=VECTOR('Line Direction',#77,1.) ;
#85=VECTOR('Line Direction',#84,1.) ;
#148=VECTOR('Line Direction',#147,1.) ;
#157=VECTOR('Line Direction',#156,1.) ;
#164=VECTOR('Line Direction',#163,1.) ;
#171=VECTOR('Line Direction',#170,1.) ;
#192=VECTOR('Line Direction',#191,1.) ;
#208=VECTOR('Line Direction',#207,1.) ;
#359=VECTOR('Line Direction',#358,1.) ;
#375=VECTOR('Line Direction',#374,1.) ;
#399=VECTOR('Line Direction',#398,1.) ;
#404=VECTOR('Line Direction',#403,1.) ;
#421=VECTOR('Line Direction',#420,1.) ;
#438=VECTOR('Line Direction',#437,1.) ;
#32=DIRECTION('Axis2P3D Direction',(-0.,-0.,1.)) ;
#33=DIRECTION('Axis2P3D XDirection',(-0.479425538604,-0.87758256189,0.)) ;
#37=DIRECTION('Vector Direction',(0.339005049421,0.620544580564,0.707106781187)) ;
#46=DIRECTION('Axis2P3D Direction',(-0.,0.,1.)) ;
#53=DIRECTION('Vector Direction',(-0.339005049421,-0.620544580564,0.707106781187)) ;
#60=DIRECTION('Axis2P3D Direction',(-0.,0.,1.)) ;
#72=DIRECTION('Axis2P3D Direction',(0.,0.,-1.)) ;
#73=DIRECTION('Axis2P3D XDirection',(-0.479425538604,-0.87758256189,0.)) ;
#77=DIRECTION('Vector Direction',(0.,0.,-1.)) ;
#84=DIRECTION('Vector Direction',(0.,0.,-1.)) ;
#91=DIRECTION('Axis2P3D Direction',(0.,0.,-1.)) ;
#103=DIRECTION('Axis2P3D Direction',(-0.,0.,1.)) ;
#108=DIRECTION('Axis2P3D Direction',(-0.,0.,1.)) ;
#120=DIRECTION('Axis2P3D Direction',(0.,0.,-1.)) ;
#121=DIRECTION('Axis2P3D XDirection',(1.,0.,0.)) ;
#130=DIRECTION('Axis2P3D Direction',(0.,0.,-1.)) ;
#142=DIRECTION('Axis2P3D Direction',(0.,0.,1.)) ;
#143=DIRECTION('Axis2P3D XDirection',(1.,0.,0.)) ;
#147=DIRECTION('Vector Direction',(1.,0.,0.)) ;
#156=DIRECTION('Vector Direction',(0.,1.,0.)) ;
#163=DIRECTION('Vector Direction',(-1.,0.,0.)) ;
#170=DIRECTION('Vector Direction',(0.,-1.,0.)) ;
#186=DIRECTION('Axis2P3D Direction',(1.,0.,0.)) ;
#187=DIRECTION('Axis2P3D XDirection',(0.,1.,0.)) ;
#191=DIRECTION('Vector Direction',(1.,0.,0.)) ;
#200=DIRECTION('Axis2P3D Direction',(1.,0.,0.)) ;
#207=DIRECTION('Vector Direction',(1.,0.,0.)) ;
#214=DIRECTION('Axis2P3D Direction',(1.,0.,0.)) ;
#226=DIRECTION('Axis2P3D Direction',(1.,-0.,0.)) ;
#227=DIRECTION('Axis2P3D XDirection',(0.,1.,2.36847578587E-16)) ;
#231=DIRECTION('Axis2P3D Direction',(0.,2.22044604925E-16,-1.)) ;
#238=DIRECTION('Axis2P3D Direction',(1.,-0.,0.)) ;
#245=DIRECTION('Axis2P3D Direction',(-0.,-8.881784197E-16,1.)) ;
#257=DIRECTION('Axis2P3D Direction',(1.,-0.,0.)) ;
#258=DIRECTION('Axis2P3D XDirection',(0.,1.,2.90017443167E-16)) ;
#262=DIRECTION('Axis2P3D Direction',(0.,2.22044604925E-16,-1.)) ;
#269=DIRECTION('Axis2P3D Direction',(0.,4.4408920985E-16,1.)) ;
#276=DIRECTION('Axis2P3D Direction',(1.,-0.,0.)) ;
#288=DIRECTION('Axis2P3D Direction',(1.,0.,-0.)) ;
#289=DIRECTION('Axis2P3D XDirection',(0.,-1.,-8.68441121485E-16)) ;
#293=DIRECTION('Axis2P3D Direction',(1.,0.,-0.)) ;
#298=DIRECTION('Axis2P3D Direction',(1.,0.,-0.)) ;
#310=DIRECTION('Axis2P3D Direction',(1.,0.,-0.)) ;
#311=DIRECTION('Axis2P3D XDirection',(0.,-1.,-8.70052329502E-16)) ;
#315=DIRECTION('Axis2P3D Direction',(1.,0.,-0.)) ;
#320=DIRECTION('Axis2P3D Direction',(1.,0.,-0.)) ;
#332=DIRECTION('Axis2P3D Direction',(1.,0.,0.)) ;
#333=DIRECTION('Axis2P3D XDirection',(0.,1.,0.)) ;
#342=DIRECTION('Axis2P3D Direction',(1.,0.,0.)) ;
#343=DIRECTION('Axis2P3D XDirection',(0.,1.,0.)) ;
#358=DIRECTION('Vector Direction',(1.,0.,0.)) ;
#367=DIRECTION('Axis2P3D Direction',(1.,0.,0.)) ;
#374=DIRECTION('Vector Direction',(1.,0.,0.)) ;
#381=DIRECTION('Axis2P3D Direction',(1.,0.,0.)) ;
#393=DIRECTION('Axis2P3D Direction',(-0.,1.,0.)) ;
#394=DIRECTION('Axis2P3D XDirection',(1.,0.,0.)) ;
#398=DIRECTION('Vector Direction',(0.,0.,-1.)) ;
#403=DIRECTION('Vector Direction',(0.,0.,-1.)) ;
#415=DIRECTION('Axis2P3D Direction',(-1.,0.,0.)) ;
#416=DIRECTION('Axis2P3D XDirection',(0.,1.,0.)) ;
#420=DIRECTION('Vector Direction',(0.,0.,-1.)) ;
#432=DIRECTION('Axis2P3D Direction',(-0.,-1.,-0.)) ;
#433=DIRECTION('Axis2P3D XDirection',(-1.,0.,0.)) ;
#437=DIRECTION('Vector Direction',(0.,0.,-1.)) ;
#449=DIRECTION('Axis2P3D Direction',(1.,0.,0.)) ;
#450=DIRECTION('Axis2P3D XDirection',(0.,-1.,0.)) ;
#461=SHAPE_REPRESENTATION_RELATIONSHIP(' ',' ',#19,#460) ;
#18=AXIS2_PLACEMENT_3D(' ',#17,$,$) ;
#34=AXIS2_PLACEMENT_3D('Cone Axis2P3D',#31,#32,#33) ;
#47=AXIS2_PLACEMENT_3D('Circle Axis2P3D',#45,#46,$) ;
#61=AXIS2_PLACEMENT_3D('Circle Axis2P3D',#59,#60,$) ;
#74=AXIS2_PLACEMENT_3D('Cylinder Axis2P3D',#71,#72,#73) ;
#92=AXIS2_PLACEMENT_3D('Circle Axis2P3D',#90,#91,$) ;
#104=AXIS2_PLACEMENT_3D('Circle Axis2P3D',#102,#103,$) ;
#109=AXIS2_PLACEMENT_3D('Circle Axis2P3D',#107,#108,$) ;
#122=AXIS2_PLACEMENT_3D('Plane Axis2P3D',#119,#120,#121) ;
#131=AXIS2_PLACEMENT_3D('Circle Axis2P3D',#129,#130,$) ;
#144=AXIS2_PLACEMENT_3D('Plane Axis2P3D',#141,#142,#143) ;
#188=AXIS2_PLACEMENT_3D('Cylinder Axis2P3D',#185,#186,#187) ;
#201=AXIS2_PLACEMENT_3D('Circle Axis2P3D',#199,#200,$) ;
#215=AXIS2_PLACEMENT_3D('Circle Axis2P3D',#213,#214,$) ;
#228=AXIS2_PLACEMENT_3D('Torus Axis2P3D',#225,#226,#227) ;
#232=AXIS2_PLACEMENT_3D('Circle Axis2P3D',#230,#231,$) ;
#239=AXIS2_PLACEMENT_3D('Circle Axis2P3D',#237,#238,$) ;
#246=AXIS2_PLACEMENT_3D('Circle Axis2P3D',#244,#245,$) ;
#259=AXIS2_PLACEMENT_3D('Torus Axis2P3D',#256,#257,#258) ;
#263=AXIS2_PLACEMENT_3D('Circle Axis2P3D',#261,#262,$) ;
#270=AXIS2_PLACEMENT_3D('Circle Axis2P3D',#268,#269,$) ;
#277=AXIS2_PLACEMENT_3D('Circle Axis2P3D',#275,#276,$) ;
#290=AXIS2_PLACEMENT_3D('Torus Axis2P3D',#287,#288,#289) ;
#294=AXIS2_PLACEMENT_3D('Circle Axis2P3D',#292,#293,$) ;
#299=AXIS2_PLACEMENT_3D('Circle Axis2P3D',#297,#298,$) ;
#312=AXIS2_PLACEMENT_3D('Torus Axis2P3D',#309,#310,#311) ;
#316=AXIS2_PLACEMENT_3D('Circle Axis2P3D',#314,#315,$) ;
#321=AXIS2_PLACEMENT_3D('Circle Axis2P3D',#319,#320,$) ;
#334=AXIS2_PLACEMENT_3D('Plane Axis2P3D',#331,#332,#333) ;
#344=AXIS2_PLACEMENT_3D('Plane Axis2P3D',#341,#342,#343) ;
#368=AXIS2_PLACEMENT_3D('Circle Axis2P3D',#366,#367,$) ;
#382=AXIS2_PLACEMENT_3D('Circle Axis2P3D',#380,#381,$) ;
#395=AXIS2_PLACEMENT_3D('Plane Axis2P3D',#392,#393,#394) ;
#417=AXIS2_PLACEMENT_3D('Plane Axis2P3D',#414,#415,#416) ;
#434=AXIS2_PLACEMENT_3D('Plane Axis2P3D',#431,#432,#433) ;
#451=AXIS2_PLACEMENT_3D('Plane Axis2P3D',#448,#449,#450) ;
#39=LINE('Line',#36,#38) ;
#55=LINE('Line',#52,#54) ;
#79=LINE('Line',#76,#78) ;
#86=LINE('Line',#83,#85) ;
#149=LINE('Line',#146,#148) ;
#158=LINE('Line',#155,#157) ;
#165=LINE('Line',#162,#164) ;
#172=LINE('Line',#169,#171) ;
#193=LINE('Line',#190,#192) ;
#209=LINE('Line',#206,#208) ;
#360=LINE('Line',#357,#359) ;
#376=LINE('Line',#373,#375) ;
#400=LINE('Line',#397,#399) ;
#405=LINE('Line',#402,#404) ;
#422=LINE('Line',#419,#421) ;
#439=LINE('Line',#436,#438) ;
#48=CIRCLE('generated circle',#47,5.5) ;
#62=CIRCLE('generated circle',#61,6.5) ;
#93=CIRCLE('generated circle',#92,6.5) ;
#105=CIRCLE('generated circle',#104,5.5) ;
#110=CIRCLE('generated circle',#109,6.5) ;
#132=CIRCLE('generated circle',#131,6.5) ;
#202=CIRCLE('generated circle',#201,24.5) ;
#216=CIRCLE('generated circle',#215,24.5) ;
#233=CIRCLE('generated circle',#232,2.) ;
#240=CIRCLE('generated circle',#239,22.5) ;
#247=CIRCLE('generated circle',#246,2.) ;
#264=CIRCLE('generated circle',#263,2.) ;
#271=CIRCLE('generated circle',#270,2.) ;
#278=CIRCLE('generated circle',#277,22.5) ;
#295=CIRCLE('generated circle',#294,22.5) ;
#300=CIRCLE('generated circle',#299,24.5) ;
#317=CIRCLE('generated circle',#316,24.5) ;
#322=CIRCLE('generated circle',#321,22.5) ;
#369=CIRCLE('generated circle',#368,24.5) ;
#383=CIRCLE('generated circle',#382,24.5) ;
#123=PLANE('',#122) ;
#145=PLANE('',#144) ;
#335=PLANE('',#334) ;
#345=PLANE('',#344) ;
#396=PLANE('',#395) ;
#418=PLANE('',#417) ;
#435=PLANE('',#434) ;
#452=PLANE('',#451) ;
#75=CYLINDRICAL_SURFACE('generated cylinder',#74,6.5) ;
#189=CYLINDRICAL_SURFACE('generated cylinder',#188,24.5) ;
#35=CONICAL_SURFACE('Cone',#34,5.5,0.785398163397) ;
#229=TOROIDAL_SURFACE('homeo Torus',#228,22.5,2.) ;
#260=TOROIDAL_SURFACE('homeo Torus',#259,22.5,2.) ;
#291=TOROIDAL_SURFACE('homeo Torus',#290,22.5,2.) ;
#313=TOROIDAL_SURFACE('homeo Torus',#312,22.5,2.) ;
#183=FACE_BOUND('',#180,.T.) ;
#390=FACE_BOUND('',#385,.T.) ;
#44=EDGE_CURVE('',#41,#43,#39,.F.) ;
#51=EDGE_CURVE('',#50,#43,#48,.F.) ;
#58=EDGE_CURVE('',#57,#50,#55,.F.) ;
#63=EDGE_CURVE('',#57,#41,#62,.F.) ;
#82=EDGE_CURVE('',#81,#41,#79,.T.) ;
#89=EDGE_CURVE('',#88,#57,#86,.T.) ;
#94=EDGE_CURVE('',#81,#88,#93,.F.) ;
#106=EDGE_CURVE('',#43,#50,#105,.F.) ;
#111=EDGE_CURVE('',#41,#57,#110,.F.) ;
#133=EDGE_CURVE('',#88,#81,#132,.F.) ;
#154=EDGE_CURVE('',#151,#153,#149,.F.) ;
#161=EDGE_CURVE('',#160,#151,#158,.T.) ;
#168=EDGE_CURVE('',#167,#160,#165,.F.) ;
#173=EDGE_CURVE('',#153,#167,#172,.T.) ;
#198=EDGE_CURVE('',#195,#197,#193,.T.) ;
#205=EDGE_CURVE('',#195,#204,#202,.T.) ;
#212=EDGE_CURVE('',#204,#211,#209,.T.) ;
#217=EDGE_CURVE('',#197,#211,#216,.T.) ;
#236=EDGE_CURVE('',#195,#235,#233,.F.) ;
#243=EDGE_CURVE('',#235,#242,#240,.T.) ;
#248=EDGE_CURVE('',#204,#242,#247,.F.) ;
#267=EDGE_CURVE('',#266,#197,#264,.F.) ;
#274=EDGE_CURVE('',#273,#211,#271,.F.) ;
#279=EDGE_CURVE('',#266,#273,#278,.T.) ;
#296=EDGE_CURVE('',#242,#235,#295,.T.) ;
#301=EDGE_CURVE('',#204,#195,#300,.T.) ;
#318=EDGE_CURVE('',#211,#197,#317,.T.) ;
#323=EDGE_CURVE('',#273,#266,#322,.T.) ;
#365=EDGE_CURVE('',#362,#364,#360,.T.) ;
#372=EDGE_CURVE('',#371,#362,#369,.T.) ;
#379=EDGE_CURVE('',#378,#371,#376,.F.) ;
#384=EDGE_CURVE('',#364,#378,#383,.F.) ;
#401=EDGE_CURVE('',#364,#151,#400,.T.) ;
#406=EDGE_CURVE('',#362,#153,#405,.T.) ;
#423=EDGE_CURVE('',#378,#160,#422,.T.) ;
#440=EDGE_CURVE('',#371,#167,#439,.T.) ;
#30=CLOSED_SHELL('Closed Shell',(#70,#101,#118,#128,#140,#184,#224,#255,#286,#308,#330,#340,#350,#391,#413,#430,#447,#459)) ;
#65=ORIENTED_EDGE('',*,*,#44,.T.) ;
#66=ORIENTED_EDGE('',*,*,#51,.F.) ;
#67=ORIENTED_EDGE('',*,*,#58,.F.) ;
#68=ORIENTED_EDGE('',*,*,#63,.T.) ;
#96=ORIENTED_EDGE('',*,*,#82,.T.) ;
#97=ORIENTED_EDGE('',*,*,#63,.F.) ;
#98=ORIENTED_EDGE('',*,*,#89,.F.) ;
#99=ORIENTED_EDGE('',*,*,#94,.F.) ;
#113=ORIENTED_EDGE('',*,*,#58,.T.) ;
#114=ORIENTED_EDGE('',*,*,#106,.F.) ;
#115=ORIENTED_EDGE('',*,*,#44,.F.) ;
#116=ORIENTED_EDGE('',*,*,#111,.T.) ;
#125=ORIENTED_EDGE('',*,*,#106,.T.) ;
#126=ORIENTED_EDGE('',*,*,#51,.T.) ;
#135=ORIENTED_EDGE('',*,*,#89,.T.) ;
#136=ORIENTED_EDGE('',*,*,#111,.F.) ;
#137=ORIENTED_EDGE('',*,*,#82,.F.) ;
#138=ORIENTED_EDGE('',*,*,#133,.F.) ;
#175=ORIENTED_EDGE('',*,*,#154,.F.) ;
#176=ORIENTED_EDGE('',*,*,#161,.F.) ;
#177=ORIENTED_EDGE('',*,*,#168,.F.) ;
#178=ORIENTED_EDGE('',*,*,#173,.F.) ;
#181=ORIENTED_EDGE('',*,*,#133,.T.) ;
#182=ORIENTED_EDGE('',*,*,#94,.T.) ;
#219=ORIENTED_EDGE('',*,*,#198,.F.) ;
#220=ORIENTED_EDGE('',*,*,#205,.T.) ;
#221=ORIENTED_EDGE('',*,*,#212,.T.) ;
#222=ORIENTED_EDGE('',*,*,#217,.F.) ;
#250=ORIENTED_EDGE('',*,*,#236,.T.) ;
#251=ORIENTED_EDGE('',*,*,#243,.T.) ;
#252=ORIENTED_EDGE('',*,*,#248,.F.) ;
#253=ORIENTED_EDGE('',*,*,#205,.F.) ;
#281=ORIENTED_EDGE('',*,*,#267,.T.) ;
#282=ORIENTED_EDGE('',*,*,#217,.T.) ;
#283=ORIENTED_EDGE('',*,*,#274,.F.) ;
#284=ORIENTED_EDGE('',*,*,#279,.F.) ;
#303=ORIENTED_EDGE('',*,*,#248,.T.) ;
#304=ORIENTED_EDGE('',*,*,#296,.T.) ;
#305=ORIENTED_EDGE('',*,*,#236,.F.) ;
#306=ORIENTED_EDGE('',*,*,#301,.F.) ;
#325=ORIENTED_EDGE('',*,*,#274,.T.) ;
#326=ORIENTED_EDGE('',*,*,#318,.T.) ;
#327=ORIENTED_EDGE('',*,*,#267,.F.) ;
#328=ORIENTED_EDGE('',*,*,#323,.F.) ;
#337=ORIENTED_EDGE('',*,*,#243,.F.) ;
#338=ORIENTED_EDGE('',*,*,#296,.F.) ;
#347=ORIENTED_EDGE('',*,*,#323,.T.) ;
#348=ORIENTED_EDGE('',*,*,#279,.T.) ;
#352=ORIENTED_EDGE('',*,*,#212,.F.) ;
#353=ORIENTED_EDGE('',*,*,#301,.T.) ;
#354=ORIENTED_EDGE('',*,*,#198,.T.) ;
#355=ORIENTED_EDGE('',*,*,#318,.F.) ;
#386=ORIENTED_EDGE('',*,*,#365,.F.) ;
#387=ORIENTED_EDGE('',*,*,#372,.F.) ;
#388=ORIENTED_EDGE('',*,*,#379,.F.) ;
#389=ORIENTED_EDGE('',*,*,#384,.F.) ;
#408=ORIENTED_EDGE('',*,*,#401,.T.) ;
#409=ORIENTED_EDGE('',*,*,#154,.T.) ;
#410=ORIENTED_EDGE('',*,*,#406,.F.) ;
#411=ORIENTED_EDGE('',*,*,#365,.T.) ;
#425=ORIENTED_EDGE('',*,*,#384,.T.) ;
#426=ORIENTED_EDGE('',*,*,#423,.T.) ;
#427=ORIENTED_EDGE('',*,*,#161,.T.) ;
#428=ORIENTED_EDGE('',*,*,#401,.F.) ;
#442=ORIENTED_EDGE('',*,*,#440,.T.) ;
#443=ORIENTED_EDGE('',*,*,#168,.T.) ;
#444=ORIENTED_EDGE('',*,*,#423,.F.) ;
#445=ORIENTED_EDGE('',*,*,#379,.T.) ;
#454=ORIENTED_EDGE('',*,*,#372,.T.) ;
#455=ORIENTED_EDGE('',*,*,#406,.T.) ;
#456=ORIENTED_EDGE('',*,*,#173,.T.) ;
#457=ORIENTED_EDGE('',*,*,#440,.F.) ;
#64=EDGE_LOOP('',(#65,#66,#67,#68)) ;
#95=EDGE_LOOP('',(#96,#97,#98,#99)) ;
#112=EDGE_LOOP('',(#113,#114,#115,#116)) ;
#124=EDGE_LOOP('',(#125,#126)) ;
#134=EDGE_LOOP('',(#135,#136,#137,#138)) ;
#174=EDGE_LOOP('',(#175,#176,#177,#178)) ;
#180=EDGE_LOOP('',(#181,#182)) ;
#218=EDGE_LOOP('',(#219,#220,#221,#222)) ;
#249=EDGE_LOOP('',(#250,#251,#252,#253)) ;
#280=EDGE_LOOP('',(#281,#282,#283,#284)) ;
#302=EDGE_LOOP('',(#303,#304,#305,#306)) ;
#324=EDGE_LOOP('',(#325,#326,#327,#328)) ;
#336=EDGE_LOOP('',(#337,#338)) ;
#346=EDGE_LOOP('',(#347,#348)) ;
#351=EDGE_LOOP('',(#352,#353,#354,#355)) ;
#385=EDGE_LOOP('',(#386,#387,#388,#389)) ;
#407=EDGE_LOOP('',(#408,#409,#410,#411)) ;
#424=EDGE_LOOP('',(#425,#426,#427,#428)) ;
#441=EDGE_LOOP('',(#442,#443,#444,#445)) ;
#453=EDGE_LOOP('',(#454,#455,#456,#457)) ;
#21=MANIFOLD_SOLID_BREP('PartBody',#30) ;
#41=VERTEX_POINT('',#40) ;
#43=VERTEX_POINT('',#42) ;
#50=VERTEX_POINT('',#49) ;
#57=VERTEX_POINT('',#56) ;
#81=VERTEX_POINT('',#80) ;
#88=VERTEX_POINT('',#87) ;
#151=VERTEX_POINT('',#150) ;
#153=VERTEX_POINT('',#152) ;
#160=VERTEX_POINT('',#159) ;
#167=VERTEX_POINT('',#166) ;
#195=VERTEX_POINT('',#194) ;
#197=VERTEX_POINT('',#196) ;
#204=VERTEX_POINT('',#203) ;
#211=VERTEX_POINT('',#210) ;
#235=VERTEX_POINT('',#234) ;
#242=VERTEX_POINT('',#241) ;
#266=VERTEX_POINT('',#265) ;
#273=VERTEX_POINT('',#272) ;
#362=VERTEX_POINT('',#361) ;
#364=VERTEX_POINT('',#363) ;
#371=VERTEX_POINT('',#370) ;
#378=VERTEX_POINT('',#377) ;
#460=ADVANCED_BREP_SHAPE_REPRESENTATION('NONE',(#21),#16) ;
#70=ADVANCED_FACE('PartBody',(#69),#35,.T.) ;
#101=ADVANCED_FACE('PartBody',(#100),#75,.T.) ;
#118=ADVANCED_FACE('PartBody',(#117),#35,.T.) ;
#128=ADVANCED_FACE('PartBody',(#127),#123,.T.) ;
#140=ADVANCED_FACE('PartBody',(#139),#75,.T.) ;
#184=ADVANCED_FACE('PartBody',(#179,#183),#145,.F.) ;
#224=ADVANCED_FACE('PartBody',(#223),#189,.T.) ;
#255=ADVANCED_FACE('PartBody',(#254),#229,.T.) ;
#286=ADVANCED_FACE('PartBody',(#285),#260,.T.) ;
#308=ADVANCED_FACE('PartBody',(#307),#291,.T.) ;
#330=ADVANCED_FACE('PartBody',(#329),#313,.T.) ;
#340=ADVANCED_FACE('PartBody',(#339),#335,.F.) ;
#350=ADVANCED_FACE('PartBody',(#349),#345,.T.) ;
#391=ADVANCED_FACE('PartBody',(#356,#390),#189,.T.) ;
#413=ADVANCED_FACE('PartBody',(#412),#396,.T.) ;
#430=ADVANCED_FACE('PartBody',(#429),#418,.F.) ;
#447=ADVANCED_FACE('PartBody',(#446),#435,.T.) ;
#459=ADVANCED_FACE('PartBody',(#458),#452,.F.) ;
#4=APPLICATION_PROTOCOL_DEFINITION('international standard','ap242_managed_model_based_3d_engineering',2014,#1) ;
#22=COLOUR_RGB('Colour',0.823529411765,0.823529411765,1.) ;
#69=FACE_OUTER_BOUND('',#64,.T.) ;
#100=FACE_OUTER_BOUND('',#95,.T.) ;
#117=FACE_OUTER_BOUND('',#112,.T.) ;
#127=FACE_OUTER_BOUND('',#124,.T.) ;
#139=FACE_OUTER_BOUND('',#134,.T.) ;
#179=FACE_OUTER_BOUND('',#174,.T.) ;
#223=FACE_OUTER_BOUND('',#218,.T.) ;
#254=FACE_OUTER_BOUND('',#249,.T.) ;
#285=FACE_OUTER_BOUND('',#280,.T.) ;
#307=FACE_OUTER_BOUND('',#302,.T.) ;
#329=FACE_OUTER_BOUND('',#324,.T.) ;
#339=FACE_OUTER_BOUND('',#336,.T.) ;
#349=FACE_OUTER_BOUND('',#346,.T.) ;
#356=FACE_OUTER_BOUND('',#351,.T.) ;
#412=FACE_OUTER_BOUND('',#407,.T.) ;
#429=FACE_OUTER_BOUND('',#424,.T.) ;
#446=FACE_OUTER_BOUND('',#441,.T.) ;
#458=FACE_OUTER_BOUND('',#453,.T.) ;
#9=PRODUCT_CATEGORY_RELATIONSHIP(' ',' ',#7,#8) ;
#6=PRODUCT_DEFINITION_FORMATION_WITH_SPECIFIED_SOURCE('',' ',#5,.NOT_KNOWN.) ;
#20=SHAPE_DEFINITION_REPRESENTATION(#11,#19) ;
#12=(LENGTH_UNIT()NAMED_UNIT(*)SI_UNIT(.MILLI.,.METRE.)) ;
#13=(NAMED_UNIT(*)PLANE_ANGLE_UNIT()SI_UNIT($,.RADIAN.)) ;
#14=(NAMED_UNIT(*)SI_UNIT($,.STERADIAN.)SOLID_ANGLE_UNIT()) ;
#16=(GEOMETRIC_REPRESENTATION_CONTEXT(3)GLOBAL_UNCERTAINTY_ASSIGNED_CONTEXT((#15))GLOBAL_UNIT_ASSIGNED_CONTEXT((#12,#13,#14))REPRESENTATION_CONTEXT(' ',' ')) ;
ENDSEC;
END-ISO-10303-21;
