  0
SECTION
  2
HEADER
  9
$ACADVER
  1
AC1027
  9
$ACADMAINTVER
 70
    20
  9
$DWGCODEPAGE
  3
ANSI_1252
  9
$REQUIREDVERSIONS
160
                 0
  9
$INSBASE
 10
0.0
 20
0.0
 30
0.0
  9
$EXTMIN
 10
754.6664074431848
 20
1636.747075834258
 30
-0.00000001
  9
$EXTMAX
 10
1287.863156828899
 20
2121.504798417071
 30
0.00000001
  9
$LIMMIN
 10
0.0
 20
0.0
  9
$LIMMAX
 10
12.0
 20
9.0
  9
$ORTHOMODE
 70
     0
  9
$REGENMODE
 70
     1
  9
$FILLMODE
 70
     1
  9
$QTEXTMODE
 70
     0
  9
$MIRRTEXT
 70
     0
  9
$LTSCALE
 40
1.0
  9
$ATTMODE
 70
     1
  9
$TEXTSIZE
 40
0.2
  9
$TRACEWID
 40
0.05
  9
$TEXTSTYLE
  7
Standard
  9
$CLAYER
  8
0
  9
$CELTYPE
  6
ByLayer
  9
$CECOLOR
 62
   256
  9
$CELTSCALE
 40
1.0
  9
$DISPSILH
 70
     0
  9
$DIMSCALE
 40
1.0
  9
$DIMASZ
 40
0.18
  9
$DIMEXO
 40
0.0625
  9
$DIMDLI
 40
0.38
  9
$DIMRND
 40
0.0
  9
$DIMDLE
 40
0.0
  9
$DIMEXE
 40
0.18
  9
$DIMTP
 40
0.0
  9
$DIMTM
 40
0.0
  9
$DIMTXT
 40
0.18
  9
$DIMCEN
 40
0.09
  9
$DIMTSZ
 40
0.0
  9
$DIMTOL
 70
     0
  9
$DIMLIM
 70
     0
  9
$DIMTIH
 70
     1
  9
$DIMTOH
 70
     1
  9
$DIMSE1
 70
     0
  9
$DIMSE2
 70
     0
  9
$DIMTAD
 70
     0
  9
$DIMZIN
 70
     0
  9
$DIMBLK
  1

  9
$DIMASO
 70
     1
  9
$DIMSHO
 70
     1
  9
$DIMPOST
  1

  9
$DIMAPOST
  1

  9
$DIMALT
 70
     0
  9
$DIMALTD
 70
     2
  9
$DIMALTF
 40
25.4
  9
$DIMLFAC
 40
1.0
  9
$DIMTOFL
 70
     0
  9
$DIMTVP
 40
0.0
  9
$DIMTIX
 70
     0
  9
$DIMSOXD
 70
     0
  9
$DIMSAH
 70
     0
  9
$DIMBLK1
  1

  9
$DIMBLK2
  1

  9
$DIMSTYLE
  2
Standard
  9
$DIMCLRD
 70
     0
  9
$DIMCLRE
 70
     0
  9
$DIMCLRT
 70
     0
  9
$DIMTFAC
 40
1.0
  9
$DIMGAP
 40
0.09
  9
$DIMJUST
 70
     0
  9
$DIMSD1
 70
     0
  9
$DIMSD2
 70
     0
  9
$DIMTOLJ
 70
     1
  9
$DIMTZIN
 70
     0
  9
$DIMALTZ
 70
     0
  9
$DIMALTTZ
 70
     0
  9
$DIMUPT
 70
     0
  9
$DIMDEC
 70
     4
  9
$DIMTDEC
 70
     4
  9
$DIMALTU
 70
     2
  9
$DIMALTTD
 70
     2
  9
$DIMTXSTY
  7
Standard
  9
$DIMAUNIT
 70
     0
  9
$DIMADEC
 70
     0
  9
$DIMALTRND
 40
0.0
  9
$DIMAZIN
 70
     0
  9
$DIMDSEP
 70
    46
  9
$DIMATFIT
 70
     3
  9
$DIMFRAC
 70
     0
  9
$DIMLDRBLK
  1

  9
$DIMLUNIT
 70
     2
  9
$DIMLWD
 70
    -2
  9
$DIMLWE
 70
    -2
  9
$DIMTMOVE
 70
     0
  9
$DIMFXL
 40
1.0
  9
$DIMFXLON
 70
     0
  9
$DIMJOGANG
 40
0.7853981633974483
  9
$DIMTFILL
 70
     0
  9
$DIMTFILLCLR
 70
     0
  9
$DIMARCSYM
 70
     0
  9
$DIMLTYPE
  6

  9
$DIMLTEX1
  6

  9
$DIMLTEX2
  6

  9
$DIMTXTDIRECTION
 70
     0
  9
$LUNITS
 70
     2
  9
$LUPREC
 70
     4
  9
$SKETCHINC
 40
0.1
  9
$FILLETRAD
 40
0.0
  9
$AUNITS
 70
     0
  9
$AUPREC
 70
     0
  9
$MENU
  1
.
  9
$ELEVATION
 40
0.0
  9
$PELEVATION
 40
0.0
  9
$THICKNESS
 40
0.0
  9
$LIMCHECK
 70
     0
  9
$CHAMFERA
 40
0.0
  9
$CHAMFERB
 40
0.0
  9
$CHAMFERC
 40
0.0
  9
$CHAMFERD
 40
0.0
  9
$SKPOLY
 70
     0
  9
$TDCREATE
 40
2457569.642020938
  9
$TDUCREATE
 40
2457569.558687604
  9
$TDUPDATE
 40
2457569.642020938
  9
$TDUUPDATE
 40
2457569.558687604
  9
$TDINDWG
 40
0.0000194907
  9
$TDUSRTIMER
 40
0.0000194907
  9
$USRTIMER
 70
     1
  9
$ANGBASE
 50
0.0
  9
$ANGDIR
 70
     0
  9
$PDMODE
 70
     0
  9
$PDSIZE
 40
0.0
  9
$PLINEWID
 40
0.0
  9
$SPLFRAME
 70
     0
  9
$SPLINETYPE
 70
     6
  9
$SPLINESEGS
 70
     8
  9
$HANDSEED
  5
26E
  9
$SURFTAB1
 70
     6
  9
$SURFTAB2
 70
     6
  9
$SURFTYPE
 70
     6
  9
$SURFU
 70
     6
  9
$SURFV
 70
     6
  9
$UCSBASE
  2

  9
$UCSNAME
  2

  9
$UCSORG
 10
0.0
 20
0.0
 30
0.0
  9
$UCSXDIR
 10
1.0
 20
0.0
 30
0.0
  9
$UCSYDIR
 10
0.0
 20
1.0
 30
0.0
  9
$UCSORTHOREF
  2

  9
$UCSORTHOVIEW
 70
     0
  9
$UCSORGTOP
 10
0.0
 20
0.0
 30
0.0
  9
$UCSORGBOTTOM
 10
0.0
 20
0.0
 30
0.0
  9
$UCSORGLEFT
 10
0.0
 20
0.0
 30
0.0
  9
$UCSORGRIGHT
 10
0.0
 20
0.0
 30
0.0
  9
$UCSORGFRONT
 10
0.0
 20
0.0
 30
0.0
  9
$UCSORGBACK
 10
0.0
 20
0.0
 30
0.0
  9
$PUCSBASE
  2

  9
$PUCSNAME
  2

  9
$PUCSORG
 10
0.0
 20
0.0
 30
0.0
  9
$PUCSXDIR
 10
1.0
 20
0.0
 30
0.0
  9
$PUCSYDIR
 10
0.0
 20
1.0
 30
0.0
  9
$PUCSORTHOREF
  2

  9
$PUCSORTHOVIEW
 70
     0
  9
$PUCSORGTOP
 10
0.0
 20
0.0
 30
0.0
  9
$PUCSORGBOTTOM
 10
0.0
 20
0.0
 30
0.0
  9
$PUCSORGLEFT
 10
0.0
 20
0.0
 30
0.0
  9
$PUCSORGRIGHT
 10
0.0
 20
0.0
 30
0.0
  9
$PUCSORGFRONT
 10
0.0
 20
0.0
 30
0.0
  9
$PUCSORGBACK
 10
0.0
 20
0.0
 30
0.0
  9
$USERI1
 70
     0
  9
$USERI2
 70
     0
  9
$USERI3
 70
     0
  9
$USERI4
 70
     0
  9
$USERI5
 70
     0
  9
$USERR1
 40
0.0
  9
$USERR2
 40
0.0
  9
$USERR3
 40
0.0
  9
$USERR4
 40
0.0
  9
$USERR5
 40
0.0
  9
$WORLDVIEW
 70
     1
  9
$SHADEDGE
 70
     3
  9
$SHADEDIF
 70
    70
  9
$TILEMODE
 70
     1
  9
$MAXACTVP
 70
    64
  9
$PINSBASE
 10
0.0
 20
0.0
 30
0.0
  9
$PLIMCHECK
 70
     0
  9
$PEXTMIN
 10
1.000000000000000E+20
 20
1.000000000000000E+20
 30
1.000000000000000E+20
  9
$PEXTMAX
 10
-1.000000000000000E+20
 20
-1.000000000000000E+20
 30
-1.000000000000000E+20
  9
$PLIMMIN
 10
0.0
 20
0.0
  9
$PLIMMAX
 10
12.0
 20
9.0
  9
$UNITMODE
 70
     0
  9
$VISRETAIN
 70
     1
  9
$PLINEGEN
 70
     0
  9
$PSLTSCALE
 70
     1
  9
$TREEDEPTH
 70
  3020
  9
$CMLSTYLE
  2
Standard
  9
$CMLJUST
 70
     0
  9
$CMLSCALE
 40
1.0
  9
$PROXYGRAPHICS
 70
     1
  9
$MEASUREMENT
 70
     1
  9
$CELWEIGHT
370
    -1
  9
$ENDCAPS
280
     0
  9
$JOINSTYLE
280
     0
  9
$LWDISPLAY
290
     0
  9
$INSUNITS
 70
     4
  9
$HYPERLINKBASE
  1

  9
$STYLESHEET
  1

  9
$XEDIT
290
     1
  9
$CEPSNTYPE
380
     0
  9
$PSTYLEMODE
290
     1
  9
$FINGERPRINTGUID
  2
{175B8A38-4D3A-4427-B121-152A77FAE1F7}
  9
$VERSIONGUID
  2
{889E707A-76D8-4533-A3F8-09E38B879769}
  9
$EXTNAMES
290
     1
  9
$PSVPSCALE
 40
0.0
  9
$OLESTARTUP
290
     0
  9
$SORTENTS
280
   127
  9
$INDEXCTL
280
     0
  9
$HIDETEXT
280
     1
  9
$XCLIPFRAME
280
     2
  9
$HALOGAP
280
     0
  9
$OBSCOLOR
 70
   257
  9
$OBSLTYPE
280
     0
  9
$INTERSECTIONDISPLAY
280
     0
  9
$INTERSECTIONCOLOR
 70
   257
  9
$DIMASSOC
280
     2
  9
$PROJECTNAME
  1

  9
$CAMERADISPLAY
290
     0
  9
$LENSLENGTH
 40
50.0
  9
$CAMERAHEIGHT
 40
0.0
  9
$STEPSPERSEC
 40
2.0
  9
$STEPSIZE
 40
6.0
  9
$3DDWFPREC
 40
2.0
  9
$PSOLWIDTH
 40
0.25
  9
$PSOLHEIGHT
 40
4.0
  9
$LOFTANG1
 40
1.570796326794896
  9
$LOFTANG2
 40
1.570796326794896
  9
$LOFTMAG1
 40
0.0
  9
$LOFTMAG2
 40
0.0
  9
$LOFTPARAM
 70
     7
  9
$LOFTNORMALS
280
     1
  9
$LATITUDE
 40
37.795
  9
$LONGITUDE
 40
-122.394
  9
$NORTHDIRECTION
 40
0.0
  9
$TIMEZONE
 70
 -8000
  9
$LIGHTGLYPHDISPLAY
280
     1
  9
$TILEMODELIGHTSYNCH
280
     1
  9
$CMATERIAL
347
11
  9
$SOLIDHIST
280
     0
  9
$SHOWHIST
280
     1
  9
$DWFFRAME
280
     2
  9
$DGNFRAME
280
     0
  9
$REALWORLDSCALE
290
     1
  9
$INTERFERECOLOR
 62
     1
  9
$INTERFEREOBJVS
345
33
  9
$INTERFEREVPVS
346
30
  9
$CSHADOW
280
     0
  9
$SHADOWPLANELOCATION
 40
0.0
  0
ENDSEC
  0
SECTION
  2
CLASSES
  0
CLASS
  1
ACDBDICTIONARYWDFLT
  2
AcDbDictionaryWithDefault
  3
ObjectDBX Classes
 90
        0
 91
        1
280
     0
281
     0
  0
CLASS
  1
MATERIAL
  2
AcDbMaterial
  3
ObjectDBX Classes
 90
     1153
 91
        3
280
     0
281
     0
  0
CLASS
  1
VISUALSTYLE
  2
AcDbVisualStyle
  3
ObjectDBX Classes
 90
     4095
 91
       24
280
     0
281
     0
  0
CLASS
  1
SCALE
  2
AcDbScale
  3
ObjectDBX Classes
 90
     1153
 91
       17
280
     0
281
     0
  0
CLASS
  1
TABLESTYLE
  2
AcDbTableStyle
  3
ObjectDBX Classes
 90
     4095
 91
        1
280
     0
281
     0
  0
CLASS
  1
MLEADERSTYLE
  2
AcDbMLeaderStyle
  3
ACDB_MLEADERSTYLE_CLASS
 90
     4095
 91
        1
280
     0
281
     0
  0
CLASS
  1
ACDBSECTIONVIEWSTYLE
  2
AcDbSectionViewStyle
  3
ObjectDBX Classes
 90
     1025
 91
        1
280
     0
281
     0
  0
CLASS
  1
ACDBDETAILVIEWSTYLE
  2
AcDbDetailViewStyle
  3
ObjectDBX Classes
 90
     1025
 91
        1
280
     0
281
     0
  0
CLASS
  1
RASTERVARIABLES
  2
AcDbRasterVariables
  3
ISM
 90
        0
 91
        1
280
     0
281
     0
  0
CLASS
  1
DICTIONARYVAR
  2
AcDbDictionaryVar
  3
ObjectDBX Classes
 90
        0
 91
        5
280
     0
281
     0
  0
CLASS
  1
CELLSTYLEMAP
  2
AcDbCellStyleMap
  3
ObjectDBX Classes
 90
     1152
 91
        2
280
     0
281
     0
  0
CLASS
  1
SORTENTSTABLE
  2
AcDbSortentsTable
  3
ObjectDBX Classes
 90
        0
 91
        1
280
     0
281
     0
  0
ENDSEC
  0
SECTION
  2
TABLES
  0
TABLE
  2
VPORT
  5
8
330
0
100
AcDbSymbolTable
 70
     1
  0
VPORT
  5
57
330
8
100
AcDbSymbolTableRecord
100
AcDbViewportTableRecord
  2
*Active
 70
     0
 10
0.0
 20
0.0
 11
1.0
 21
1.0
 12
1021.264782136042
 22
1879.125937125665
 13
0.0
 23
0.0
 14
1.0
 24
1.0
 15
0.0
 25
0.0
 16
0.0
 26
0.0
 36
1.0
 17
0.0
 27
0.0
 37
0.0
 40
484.7577225828124
 41
1.099924198308417
 42
50.0
 43
0.0
 44
0.0
 50
0.0
 51
0.0
 71
     0
 72
  1000
 73
     1
 74
     1
 75
     0
 76
     0
 77
     0
 78
     0
281
     0
 65
     1
110
0.0
120
0.0
130
0.0
111
1.0
121
0.0
131
0.0
112
0.0
122
1.0
132
0.0
 79
     0
146
0.0
 60
     3
 61
     5
292
     1
282
     1
141
0.0
142
0.0
 63
   250
421
  3355443
  0
ENDTAB
  0
TABLE
  2
LTYPE
  5
5
330
0
100
AcDbSymbolTable
 70
     3
  0
LTYPE
  5
5B
330
5
100
AcDbSymbolTableRecord
100
AcDbLinetypeTableRecord
  2
ByBlock
 70
     0
  3

 72
    65
 73
     0
 40
0.0
  0
LTYPE
  5
5C
330
5
100
AcDbSymbolTableRecord
100
AcDbLinetypeTableRecord
  2
ByLayer
 70
     0
  3

 72
    65
 73
     0
 40
0.0
  0
LTYPE
  5
5D
330
5
100
AcDbSymbolTableRecord
100
AcDbLinetypeTableRecord
  2
Continuous
 70
     0
  3
Solid line
 72
    65
 73
     0
 40
0.0
  0
LTYPE
  5
69
330
5
100
AcDbSymbolTableRecord
100
AcDbLinetypeTableRecord
  2
PHANTOM2
 70
     0
  3
___ _ _ ___ _ _ ___ _ _ ___ _ _
 72
    65
 73
     6
 40
1.25
 49
0.625
 74
     0
 49
-0.125
 74
     0
 49
0.125
 74
     0
 49
-0.125
 74
     0
 49
0.125
 74
     0
 49
-0.125
 74
     0
  0
LTYPE
  5
86
330
5
100
AcDbSymbolTableRecord
100
AcDbLinetypeTableRecord
  2
Nascosto 1_5 mm
 70
     0
  3

 72
    65
 73
     2
 40
2.2
 49
1.5
 74
     0
 49
-0.7000000000000001
 74
     0
  0
ENDTAB
  0
TABLE
  2
LAYER
  5
2
330
0
100
AcDbSymbolTable
 70
     3
  0
LAYER
  5
54
330
2
100
AcDbSymbolTableRecord
100
AcDbLayerTableRecord
  2
0
 70
     0
 62
     7
  6
Continuous
370
    -3
390
F
347
21
348
0
  0
LAYER
  5
85
330
2
100
AcDbSymbolTableRecord
100
AcDbLayerTableRecord
  2
P-SANR-FIXT
 70
     0
 62
     6
  6
Continuous
370
    18
390
F
347
21
348
0
  0
ENDTAB
  0
TABLE
  2
STYLE
  5
3
330
0
100
AcDbSymbolTable
 70
     2
  0
STYLE
  5
55
330
3
100
AcDbSymbolTableRecord
100
AcDbTextStyleTableRecord
  2
Standard
 70
     0
 40
0.0
 41
1.0
 50
0.0
 71
     0
 42
0.2
  3
txt
  4

  0
STYLE
  5
5A
330
3
100
AcDbSymbolTableRecord
100
AcDbTextStyleTableRecord
  2
Annotative
 70
     0
 40
0.0
 41
1.0
 50
0.0
 71
     0
 42
0.2
  3
txt
  4

1001
AcadAnnotative
1000
AnnotativeData
1002
{
1070
     1
1070
     1
1002
}
  0
ENDTAB
  0
TABLE
  2
VIEW
  5
6
330
0
100
AcDbSymbolTable
 70
     0
  0
ENDTAB
  0
TABLE
  2
UCS
  5
7
330
0
100
AcDbSymbolTable
 70
     0
  0
ENDTAB
  0
TABLE
  2
APPID
  5
9
330
0
100
AcDbSymbolTable
 70
     3
  0
APPID
  5
56
330
9
100
AcDbSymbolTableRecord
100
AcDbRegAppTableRecord
  2
ACAD
 70
     0
  0
APPID
  5
5E
330
9
100
AcDbSymbolTableRecord
100
AcDbRegAppTableRecord
  2
AcadAnnotative
 70
     0
  0
APPID
  5
79
330
9
100
AcDbSymbolTableRecord
100
AcDbRegAppTableRecord
  2
REVIT
 70
     0
  0
ENDTAB
  0
TABLE
  2
DIMSTYLE
  5
A
330
0
100
AcDbSymbolTable
 70
     2
100
AcDbDimStyleTable
 71
     0
  0
DIMSTYLE
105
58
330
A
100
AcDbSymbolTableRecord
100
AcDbDimStyleTableRecord
  2
Standard
 70
     0
340
55
  0
DIMSTYLE
105
59
330
A
100
AcDbSymbolTableRecord
100
AcDbDimStyleTableRecord
  2
Annotative
 70
     0
340
55
1001
AcadAnnotative
1000
AnnotativeData
1002
{
1070
     1
1070
     1
1002
}
  0
ENDTAB
  0
TABLE
  2
BLOCK_RECORD
  5
1
330
0
100
AcDbSymbolTable
 70
     4
  0
BLOCK_RECORD
  5
71
102
{ACAD_XDICTIONARY
360
269
102
}
330
1
100
AcDbSymbolTableRecord
100
AcDbBlockTableRecord
  2
*Model_Space
340
74
 70
     0
280
     1
281
     0
  0
BLOCK_RECORD
  5
6D
330
1
100
AcDbSymbolTableRecord
100
AcDbBlockTableRecord
  2
*Paper_Space
340
70
 70
     0
280
     1
281
     0
  0
BLOCK_RECORD
  5
75
330
1
100
AcDbSymbolTableRecord
100
AcDbBlockTableRecord
  2
*Paper_Space0
340
78
 70
     0
280
     1
281
     0
  0
BLOCK_RECORD
  5
87
330
1
100
AcDbSymbolTableRecord
100
AcDbBlockTableRecord
  2
Automatic flow rate regulator valve_Caleffi_121 DN15 - 1_2__-859151-Est - Idraulica
340
0
102
{BLKREFS
331
F4
102
}
 70
     0
280
     1
281
     0
  0
BLOCK_RECORD
  5
F5
330
1
100
AcDbSymbolTableRecord
100
AcDbBlockTableRecord
  2
Automatic flow rate regulator valve_Caleffi_121 DN15 - 1_2__-V1-Est - Idraulica
340
0
102
{BLKREFS
331
190
102
}
 70
     0
280
     1
281
     0
  0
BLOCK_RECORD
  5
191
330
1
100
AcDbSymbolTableRecord
100
AcDbBlockTableRecord
  2
Automatic flow rate regulator valve_Caleffi_121 DN15 - 1_2__-V2-Est - Idraulica
340
0
102
{BLKREFS
331
263
102
}
 70
     0
280
     1
281
     0
  0
ENDTAB
  0
ENDSEC
  0
SECTION
  2
BLOCKS
  0
BLOCK
  5
72
330
71
100
AcDbEntity
  8
0
100
AcDbBlockBegin
  2
*Model_Space
 70
     0
 10
0.0
 20
0.0
 30
0.0
  3
*Model_Space
  1

  0
ENDBLK
  5
73
330
71
100
AcDbEntity
  8
0
100
AcDbBlockEnd
  0
BLOCK
  5
6E
330
6D
100
AcDbEntity
 67
     1
  8
0
100
AcDbBlockBegin
  2
*Paper_Space
 70
     0
 10
0.0
 20
0.0
 30
0.0
  3
*Paper_Space
  1

  0
ENDBLK
  5
6F
330
6D
100
AcDbEntity
 67
     1
  8
0
100
AcDbBlockEnd
  0
BLOCK
  5
76
330
75
100
AcDbEntity
 67
     1
  8
0
100
AcDbBlockBegin
  2
*Paper_Space0
 70
     0
 10
0.0
 20
0.0
 30
0.0
  3
*Paper_Space0
  1

  0
ENDBLK
  5
77
330
75
100
AcDbEntity
 67
     1
  8
0
100
AcDbBlockEnd
  0
BLOCK
  5
F2
330
87
100
AcDbEntity
  8
0
100
AcDbBlockBegin
  2
Automatic flow rate regulator valve_Caleffi_121 DN15 - 1_2__-859151-Est - Idraulica
 70
     0
 10
0.0
 20
0.0
 30
0.0
  3
Automatic flow rate regulator valve_Caleffi_121 DN15 - 1_2__-859151-Est - Idraulica
  1

  0
LINE
  5
88
330
87
100
AcDbEntity
  8
P-SANR-FIXT
100
AcDbLine
 10
839.6664074431674
 20
1921.937499999919
 30
0.0
 11
837.2040973782524
 21
1921.937499999919
 31
0.0
  0
LINE
  5
89
330
87
100
AcDbEntity
  8
P-SANR-FIXT
100
AcDbLine
 10
837.2040973782524
 20
1921.937499999919
 30
0.0
 11
818.1287175081029
 21
1921.937499999919
 31
0.0
  0
LINE
  5
8A
330
87
100
AcDbEntity
  8
P-SANR-FIXT
100
AcDbLine
 10
818.1287175081029
 20
1921.937499999919
 30
0.0
 11
813.2040973782732
 21
1921.937499999919
 31
0.0
  0
LINE
  5
8B
330
87
100
AcDbEntity
  8
P-SANR-FIXT
100
AcDbLine
 10
813.2040973782732
 20
1921.937499999919
 30
0.0
 11
794.1287175081239
 21
1921.937499999919
 31
0.0
  0
LINE
  5
8C
330
87
100
AcDbEntity
  8
P-SANR-FIXT
100
AcDbLine
 10
794.1287175081239
 20
1921.937499999919
 30
0.0
 11
791.6664074432089
 21
1921.937499999919
 31
0.0
  0
LINE
  5
8D
330
87
100
AcDbEntity
  8
P-SANR-FIXT
100
AcDbLine
 10
791.6664074432089
 20
1921.937499999919
 30
0.0
 11
791.6664074432089
 21
1937.937499999998
 31
0.0
  0
LINE
  5
8E
330
87
100
AcDbEntity
  8
P-SANR-FIXT
100
AcDbLine
 10
794.1287175081239
 20
1921.937499999919
 30
0.0
 11
794.1287175081239
 21
1937.937499999998
 31
0.0
  0
LINE
  5
8F
330
87
100
AcDbEntity
  8
P-SANR-FIXT
100
AcDbLine
 10
813.2040973782729
 20
1921.937499999919
 30
0.0
 11
813.2040973782729
 21
1937.937499999998
 31
0.0
  0
LINE
  5
90
330
87
100
AcDbEntity
  8
P-SANR-FIXT
100
AcDbLine
 10
818.1287175081029
 20
1921.937499999919
 30
0.0
 11
818.1287175081029
 21
1937.937499999998
 31
0.0
  0
LINE
  5
91
330
87
100
AcDbEntity
  8
P-SANR-FIXT
100
AcDbLine
 10
837.2040973782524
 20
1921.937499999919
 30
0.0
 11
837.2040973782524
 21
1937.937499999998
 31
0.0
  0
LINE
  5
92
330
87
100
AcDbEntity
  8
P-SANR-FIXT
100
AcDbLine
 10
839.6664074431674
 20
1921.937499999919
 30
0.0
 11
839.6664074431674
 21
1937.937499999998
 31
0.0
  0
LINE
  5
93
330
87
100
AcDbEntity
  8
P-SANR-FIXT
100
AcDbLine
 10
796.3164074431902
 20
2036.701107639217
 30
0.0
 11
796.3164074431902
 21
2034.437059673791
 31
0.0
  0
LINE
  5
94
330
87
100
AcDbEntity
  8
P-SANR-FIXT
100
AcDbLine
 10
835.0164074431885
 20
2034.437059673791
 30
0.0
 11
835.0164074431885
 21
2036.701107639217
 31
0.0
  0
LWPOLYLINE
  5
95
330
87
100
AcDbEntity
  8
P-SANR-FIXT
100
AcDbPolyline
 90
       80
 70
   128
 43
0.0
 10
835.0164012229923
 20
2034.437059673809
 10
834.9726950617162
 20
2034.436185434016
 10
834.9290588209747
 20
2034.43356411323
 10
834.8855623094442
 20
2034.429199905009
 10
834.8422751122646
 20
2034.423099791154
 10
834.7992664797173
 20
2034.415273530544
 10
834.7566052164397
 20
2034.405733643529
 10
834.7143595713523
 20
2034.394495391891
 10
834.6725971284753
 20
2034.381576754437
 10
834.6313846988088
 20
2034.366998398231
 10
834.5907882134483
 20
2034.350783645532
 10
834.5508726181105
 20
2034.332958436485
 10
834.5117017692333
 20
2034.313551287624
 10
834.4733383318184
 20
2034.292593246245
 10
834.4358436791821
 20
2034.270117840744
 10
834.3992777947702
 20
2034.246161026977
 10
834.3636991761977
 20
2034.220761130733
 10
834.3291647416643
 20
2034.193958786429
 10
834.2957297388982
 20
2034.165796872099
 10
834.263447656772
 20
2034.136320440797
 10
834.2323701397301
 20
2034.105576648526
 10
834.2025469051703
 20
2034.073614678794
 10
834.1740256639059
 20
2034.040485663937
 10
834.146852043839
 20
2034.006242603309
 10
834.1210695169648
 20
2033.970940278503
 10
834.0967193298261
 20
2033.934635165708
 10
834.0738404375285
 20
2033.897385345361
 10
834.0524694414183
 20
2033.859250409226
 10
834.0326405305312
 20
2033.820291365067
 10
834.0143854268941
 20
2033.780570539045
 10
833.9977333347787
 20
2033.740151476006
 10
833.9827108939806
 20
2033.699098837831
 10
833.9693421371997
 20
2033.657478299982
 10
833.9576484515955
 20
2033.615356446441
 10
833.9476485445704
 20
2033.572800663189
 10
833.9393584138422
 20
2033.529879030401
 10
833.9327913218516
 20
2033.486660213532
 10
833.9279577745454
 20
2033.443213353471
 10
833.9248655045677
 20
2033.399607955926
 10
833.9235194588908
 20
2033.35591378023
 10
833.9239217909012
 20
2033.312200727744
 10
833.9260718569526
 20
2033.268538730026
 10
833.9299662173988
 20
2033.22499763696
 10
833.9355986420935
 20
2033.181647105005
 10
833.9429601203587
 20
2033.138556485765
 10
833.9520388753994
 20
2033.095794715039
 10
833.9628203831445
 20
2033.053430202538
 10
833.9752873954815
 20
2033.011530722444
 10
833.9894199678498
 20
2032.970163304988
 10
834.0051954911491
 20
2032.929394129213
 10
834.0225887279066
 20
2032.889288417104
 10
834.0415718526545
 20
2032.849910329244
 10
834.0621144964421
 20
2032.811322862173
 10
834.084183795422
 20
2032.773587747608
 10
834.1077444434237
 20
2032.736765353682
 10
834.1327587484363
 20
2032.70091458837
 10
834.1591866929077
 20
2032.666092805249
 10
834.1869859977645
 20
2032.632355711744
 10
834.2161121900494
 20
2032.599757280006
 10
834.2465186740676
 20
2032.568349660575
 10
834.2781568059313
 20
2032.53818309894
 10
834.3109759713787
 20
2032.509305855164
 10
834.3449236667456
 20
2032.481764126679
 10
834.379945582962
 20
2032.455601974373
 10
834.4159856924321
 20
2032.430861252111
 10
834.4529863386695
 20
2032.407581539768
 10
834.4908883285331
 20
2032.385800079921
 10
834.5296310269246
 20
2032.365551718257
 10
834.5691524537905
 20
2032.346868847835
 10
834.6093893832794
 20
2032.329781357264
 10
834.6502774448875
 20
2032.314316582883
 10
834.6917512264379
 20
2032.300499265032
 10
834.7337443787282
 20
2032.288351508471
 10
834.7761897216722
 20
2032.277892747021
 10
834.8190193517758
 20
2032.269139712468
 10
834.8621647507679
 20
2032.2621064078
 10
834.9055568952131
 20
2032.256804084805
 10
834.9491263669374
 20
2032.253241226067
 10
834.99280346408
 20
2032.251423531402
 10
835.0164012229923
 20
2032.251168752386
  0
LWPOLYLINE
  5
96
330
87
100
AcDbEntity
  8
P-SANR-FIXT
100
AcDbPolyline
 90
       80
 70
   128
 43
0.0
 10
796.3164136633864
 20
2032.251168752386
 10
796.3601198246625
 20
2032.25204299218
 10
796.4037560654039
 20
2032.254664312965
 10
796.4472525769345
 20
2032.259028521187
 10
796.4905397741142
 20
2032.265128635042
 10
796.5335484066613
 20
2032.272954895651
 10
796.5762096699389
 20
2032.282494782667
 10
796.6184553150264
 20
2032.293733034304
 10
796.6602177579033
 20
2032.306651671758
 10
796.7014301875699
 20
2032.321230027965
 10
796.7420266729304
 20
2032.337444780664
 10
796.7819422682681
 20
2032.35526998971
 10
796.8211131171455
 20
2032.374677138572
 10
796.8594765545603
 20
2032.395635179951
 10
796.8969712071965
 20
2032.418110585451
 10
796.9335370916082
 20
2032.442067399219
 10
796.9691157101809
 20
2032.467467295462
 10
797.0036501447143
 20
2032.494269639766
 10
797.0370851474803
 20
2032.522431554096
 10
797.0693672296066
 20
2032.551907985398
 10
797.1004447466486
 20
2032.582651777669
 10
797.1302679812083
 20
2032.614613747401
 10
797.1587892224727
 20
2032.647742762259
 10
797.1859628425398
 20
2032.681985822887
 10
797.2117453694139
 20
2032.717288147693
 10
797.2360955565522
 20
2032.753593260487
 10
797.2589744488502
 20
2032.790843080835
 10
797.2803454449603
 20
2032.82897801697
 10
797.3001743558474
 20
2032.867937061128
 10
797.3184294594846
 20
2032.90765788715
 10
797.3350815515997
 20
2032.948076950189
 10
797.3501039923981
 20
2032.989129588365
 10
797.363472749179
 20
2033.030750126213
 10
797.3751664347832
 20
2033.072871979754
 10
797.3851663418082
 20
2033.115427763007
 10
797.3934564725364
 20
2033.158349395795
 10
797.400023564527
 20
2033.201568212664
 10
797.4048571118331
 20
2033.245015072724
 10
797.407949381811
 20
2033.28862047027
 10
797.4092954274876
 20
2033.332314645965
 10
797.4088930954774
 20
2033.376027698452
 10
797.4067430294259
 20
2033.419689696169
 10
797.4028486689797
 20
2033.463230789235
 10
797.3972162442852
 20
2033.506581321191
 10
797.38985476602
 20
2033.549671940431
 10
797.3807760109791
 20
2033.592433711157
 10
797.3699945032342
 20
2033.634798223658
 10
797.3575274908971
 20
2033.676697703751
 10
797.3433949185286
 20
2033.718065121207
 10
797.3276193952297
 20
2033.758834296982
 10
797.310226158472
 20
2033.798940009091
 10
797.2912430337242
 20
2033.838318096951
 10
797.2707003899365
 20
2033.876905564022
 10
797.2486310909565
 20
2033.914640678587
 10
797.225070442955
 20
2033.951463072513
 10
797.2000561379424
 20
2033.987313837826
 10
797.1736281934711
 20
2034.022135620947
 10
797.145828888614
 20
2034.055872714452
 10
797.1167026963293
 20
2034.088471146189
 10
797.0862962123111
 20
2034.11987876562
 10
797.0546580804474
 20
2034.150045327256
 10
797.0218389150001
 20
2034.178922571031
 10
796.987891219633
 20
2034.206464299517
 10
796.9528693034167
 20
2034.232626451822
 10
796.9168291939464
 20
2034.257367174085
 10
796.879828547709
 20
2034.280646886427
 10
796.8419265578456
 20
2034.302428346275
 10
796.8031838594542
 20
2034.322676707938
 10
796.7636624325883
 20
2034.34135957836
 10
796.7234255030993
 20
2034.358447068931
 10
796.6825374414912
 20
2034.373911843312
 10
796.6410636599406
 20
2034.387729161164
 10
796.5990705076505
 20
2034.399876917724
 10
796.5566251647065
 20
2034.410335679174
 10
796.5137955346029
 20
2034.419088713728
 10
796.4706501356109
 20
2034.426122018396
 10
796.4272579911655
 20
2034.431424341391
 10
796.3836885194411
 20
2034.434987200128
 10
796.3400114222985
 20
2034.436804894793
 10
796.3164136633864
 20
2034.437059673809
  0
LINE
  5
97
330
87
100
AcDbEntity
  8
P-SANR-FIXT
100
AcDbLine
 10
756.6664074431267
 20
2116.64411456706
 30
0.0
 11
754.6664074431868
 21
2114.64411456712
 31
0.0
  0
LINE
  5
98
330
87
100
AcDbEntity
  8
P-SANR-FIXT
100
AcDbLine
 10
754.6664074431868
 20
2076.244114566994
 30
0.0
 11
756.6010549182689
 21
2074.309467091911
 31
0.0
  0
LINE
  5
99
330
87
100
AcDbEntity
  8
P-SANR-FIXT
100
AcDbLine
 10
756.619329971973
 20
2074.291192038207
 30
0.0
 11
756.6664074431265
 21
2074.244114567054
 31
0.0
  0
LINE
  5
9A
330
87
100
AcDbEntity
  8
P-SANR-FIXT
100
AcDbLine
 10
775.6664074431864
 20
2005.437499999998
 30
0.0
 11
775.6664074431872
 21
1970.937499999998
 31
0.0
  0
LINE
  5
9B
330
87
100
AcDbEntity
  8
P-SANR-FIXT
100
AcDbLine
 10
855.6664074431877
 20
1970.9375
 30
0.0
 11
855.6664074431866
 21
2005.437500000001
 31
0.0
  0
LINE
  5
9C
330
87
100
AcDbEntity
  8
P-SANR-FIXT
100
AcDbLine
 10
790.6664074431827
 20
2042.529414260618
 30
0.0
 11
788.3243920682352
 21
2041.676990375943
 31
0.0
  0
LINE
  5
9D
330
87
100
AcDbEntity
  8
P-SANR-FIXT
100
AcDbLine
 10
843.0084228181359
 20
2041.676990375945
 30
0.0
 11
840.6664074431883
 21
2042.529414260619
 31
0.0
  0
LWPOLYLINE
  5
9E
330
87
100
AcDbEntity
  8
P-SANR-FIXT
100
AcDbPolyline
 90
       32
 70
   128
 43
0.0
 10
843.0084228181359
 20
2041.676990375945
 10
843.0457269207469
 20
2041.662561564267
 10
843.0824241854823
 20
2041.646652527873
 10
843.1184559045473
 20
2041.629288717828
 10
843.1537644348775
 20
2041.610497912525
 10
843.1882932903569
 20
2041.590310173242
 10
843.2219872321818
 20
2041.568757796057
 10
843.2547923572334
 20
2041.545875260175
 10
843.2866561843095
 20
2041.521699172772
 10
843.3175277380843
 20
2041.496268210432
 10
843.3473576306569
 20
2041.469623057267
 10
843.376098140563
 20
2041.44180633984
 10
843.4037032891172
 20
2041.412862558965
 10
843.4301289139712
 20
2041.382838018517
 10
843.4553327397621
 20
2041.351780751356
 10
843.479274445745
 20
2041.319740442483
 10
843.501915730298
 20
2041.286768349558
 10
843.5232203721955
 20
2041.252917220897
 10
843.5431542885551
 20
2041.218241211082
 10
843.5616855893631
 20
2041.182795794335
 10
843.5787846284911
 20
2041.146637675759
 10
843.5944240511245
 20
2041.109824700632
 10
843.6085788375235
 20
2041.07241576186
 10
843.6212263430485
 20
2041.034470705765
 10
843.6323463343892
 20
2040.996050236343
 10
843.641921021932
 20
2040.957215818148
 10
843.6499350882185
 20
2040.918029577966
 10
843.6563757124527
 20
2040.878554205422
 10
843.6612325910099
 20
2040.83885285269
 10
843.6644979539197
 20
2040.798989033467
 10
843.6661665772989
 20
2040.759026521357
 10
843.6664026748102
 20
2040.737297755159
  0
LWPOLYLINE
  5
9F
330
87
100
AcDbEntity
  8
P-SANR-FIXT
100
AcDbPolyline
 90
       32
 70
   128
 43
0.0
 10
787.6664122115609
 20
2040.737297755157
 10
787.6672121048999
 20
2040.777287089344
 10
787.6696105052583
 20
2040.817212449127
 10
787.673603575707
 20
2040.857009962446
 10
787.6791849281852
 20
2040.896615961772
 10
787.6863456337197
 20
2040.935967085952
 10
787.6950742367088
 20
2040.975000381584
 10
787.7053567732501
 20
2041.013653403721
 10
787.7171767934783
 20
2041.051864315774
 10
787.7305153878831
 20
2041.089571988432
 10
787.7453512175581
 20
2041.126716097466
 10
787.761660548341
 20
2041.163237220223
 10
787.7794172887814
 20
2041.199076930699
 10
787.7985930318832
 20
2041.234177893001
 10
787.8191571005474
 20
2041.268483953078
 10
787.8410765966512
 20
2041.301940228553
 10
787.8643164536765
 20
2041.33449319652
 10
787.8888394928099
 20
2041.366090779176
 10
787.9146064824198
 20
2041.396682427129
 10
787.94157620082
 20
2041.426219200268
 10
787.9697055022136
 20
2041.454653846057
 10
787.9989493857196
 20
2041.481940875128
 10
788.0292610673623
 20
2041.508036634056
 10
788.0605920549173
 20
2041.532899375194
 10
788.0928922254883
 20
2041.556489323458
 10
788.1261099056927
 20
2041.578768739965
 10
788.160191954328
 20
2041.5997019824
 10
788.195083847387
 20
2041.619255562042
 10
788.2307297652841
 20
2041.637398197334
 10
788.2670726821547
 20
2041.654100863929
 10
788.3040544570841
 20
2041.669336841124
 10
788.3243920682352
 20
2041.676990375943
  0
LINE
  5
A0
330
87
100
AcDbEntity
  8
P-SANR-FIXT
100
AcDbLine
 10
787.6664122115568
 20
2040.737297755157
 30
0.0
 11
787.6664122115568
 21
2038.535881723403
 31
0.0
  0
LINE
  5
A1
330
87
100
AcDbEntity
  8
P-SANR-FIXT
100
AcDbLine
 10
843.6664026748143
 20
2038.535881723401
 30
0.0
 11
843.6664026748143
 21
2040.737297755159
 31
0.0
  0
LINE
  5
A2
330
87
100
AcDbEntity
  8
P-SANR-FIXT
100
AcDbLine
 10
775.6664074431893
 20
1970.937499999998
 30
0.0
 11
789.1664074431895
 21
1937.937499999998
 31
0.0
  0
LINE
  5
A3
330
87
100
AcDbEntity
  8
P-SANR-FIXT
100
AcDbLine
 10
842.1664074431872
 20
1937.937499999999
 30
0.0
 11
855.6664074431857
 21
1970.9375
 31
0.0
  0
LINE
  5
A4
330
87
100
AcDbEntity
  8
P-SANR-FIXT
100
AcDbLine
 10
775.6664074431864
 20
2006.437499999997
 30
0.0
 11
775.6664074431864
 21
2005.437499999998
 31
0.0
  0
LINE
  5
A5
330
87
100
AcDbEntity
  8
P-SANR-FIXT
100
AcDbLine
 10
855.6664074431864
 20
2005.437500000001
 30
0.0
 11
855.6664074431864
 21
2006.437499999998
 31
0.0
  0
LINE
  5
A6
330
87
100
AcDbEntity
  8
P-SANR-FIXT
100
AcDbLine
 10
772.6664074431896
 20
2116.64411456706
 30
0.0
 11
756.6664074431267
 21
2116.64411456706
 31
0.0
  0
LINE
  5
A7
330
87
100
AcDbEntity
  8
P-SANR-FIXT
100
AcDbLine
 10
756.6664074431265
 20
2074.244114567054
 30
0.0
 11
772.6664074431896
 21
2074.244114567054
 31
0.0
  0
LINE
  5
A8
330
87
100
AcDbEntity
  8
P-SANR-FIXT
100
AcDbLine
 10
773.6664074431894
 20
2119.436651464834
 30
0.0
 11
772.6664074431896
 21
2119.444114567057
 31
0.0
  0
LWPOLYLINE
  5
A9
330
87
100
AcDbEntity
  8
P-SANR-FIXT
100
AcDbPolyline
 90
       34
 70
   128
 43
0.0
 10
839.0591781339761
 20
2061.444114567095
 10
838.6461669912602
 20
2064.091918221774
 10
838.1276023081987
 20
2066.721087875338
 10
837.5043136776632
 20
2069.3274174172
 10
836.7772982285016
 20
2071.906737276082
 10
835.947719030344
 20
2074.454921090434
 10
835.0169032329402
 20
2076.967892309736
 10
833.9863399430024
 20
2079.441630716111
 10
832.8576778419531
 20
2081.87217885581
 10
831.6327225483849
 20
2084.255648370299
 10
830.3134337294583
 20
2086.588226216802
 10
828.90192196585
 20
2088.866180768354
 10
827.4004453752755
 20
2091.08586778361
 10
825.8114059999817
 20
2093.243736236854
 10
824.137345963992
 20
2095.336333998881
 10
822.3809434062502
 20
2097.36031335967
 10
820.5450081961696
 20
2099.312436384002
 10
818.6324774384413
 20
2101.189580091469
 10
816.6464107742921
 20
2102.988741452575
 10
814.5899854867137
 20
2104.707042192943
 10
812.4664914174852
 20
2106.341733397939
 10
810.2793257041296
 20
2107.890199910351
 10
808.0319873452179
 20
2109.349964514081
 10
805.7280716027175
 20
2110.718691897163
 10
803.3712642503409
 20
2111.994192387765
 10
800.9653356770929
 20
2113.174425457192
 10
798.5141348554533
 20
2114.257502984302
 10
796.0215831838419
 20
2115.2416922761
 10
793.4916682132173
 20
2116.125418839664
 10
790.9284372678459
 20
2116.907268901012
 10
788.335990970447
 20
2117.585991666832
 10
785.7184766820705
 20
2118.160501325486
 10
783.0800818672051
 20
2118.629878784074
 10
781.66640744319
 20
2118.836885257848
  0
LINE
  5
AA
330
87
100
AcDbEntity
  8
P-SANR-FIXT
100
AcDbLine
 10
839.6664074431901
 20
2052.444114567057
 30
0.0
 11
839.658944340967
 21
2053.444114567056
 31
0.0
  0
LWPOLYLINE
  5
AB
330
87
100
AcDbEntity
  8
P-SANR-FIXT
100
AcDbPolyline
 90
       41
 70
   128
 43
0.0
 10
772.6664074431897
 20
2071.444114567057
 10
773.4262047927358
 20
2071.428916593615
 10
774.1847866286041
 20
2071.383346986806
 10
774.9409393816793
 20
2071.30747864828
 10
775.6934533688604
 20
2071.201432951193
 10
776.4411247282959
 20
2071.06537954604
 10
777.1827573453053
 20
2070.899536089245
 10
777.9171647659079
 20
2070.704167894962
 10
778.6431720948962
 20
2070.479587510623
 10
779.3596178754166
 20
2070.226154216937
 10
780.065355947054
 20
2069.944273453112
 10
780.7592572794439
 20
2069.634396168236
 10
781.4402117784781
 20
2069.297018099863
 10
782.1071300622207
 20
2068.932678980932
 10
782.7589452036866
 20
2068.541961676312
 10
783.3946144376956
 20
2068.125491250341
 10
784.0131208290753
 20
2067.683933966858
 10
784.6134748995408
 20
2067.217996223324
 10
785.1947162106479
 20
2066.728423420734
 10
785.7559149002906
 20
2066.215998771134
 10
786.296173170281
 20
2065.681542044653
 10
786.8146267226363
 20
2065.125908258041
 10
787.3104461422705
 20
2064.549986306829
 10
787.7828382238809
 20
2063.954697543282
 10
788.2310472409089
 20
2063.340994302433
 10
788.65435615454
 20
2062.709858378552
 10
789.0520877608134
 20
2062.062299454479
 10
789.4236057740041
 20
2061.399353486358
 10
789.7683158445437
 20
2060.722081046314
 10
790.0856665098536
 20
2060.031565625775
 10
790.3751500765674
 20
2059.328911902113
 10
790.6363034327313
 20
2058.615243971393
 10
790.8687087886853
 20
2057.891703550064
 10
791.0719943454371
 20
2057.159448148452
 10
791.245834889461
 20
2056.419649218993
 10
791.3899523129708
 20
2055.673490282161
 10
791.504116058832
 20
2054.922165033081
 10
791.5881434894052
 20
2054.166875431878
 10
791.6419001787262
 20
2053.408829780794
 10
791.6653001275594
 20
2052.649240791163
 10
791.66640744319
 20
2052.444114567056
  0
LWPOLYLINE
  5
AC
330
87
100
AcDbEntity
  8
P-SANR-FIXT
100
AcDbPolyline
 90
       41
 70
   128
 43
0.0
 10
835.0164012229923
 20
2032.251168752386
 10
835.0131960070404
 20
2032.090929323463
 10
835.0035854868462
 20
2031.930946243444
 10
834.9875850371921
 20
2031.771475451128
 10
834.9652202553839
 20
2031.612772065766
 10
834.9365269203021
 20
2031.455089978918
 10
834.9015509351616
 20
2031.298681448286
 10
834.8603482540779
 20
2031.143796694155
 10
834.8129847925505
 20
2030.99068349909
 10
834.759536322015
 20
2030.839586811541
 10
834.700088348622
 20
2030.690748353976
 10
834.6347359764477
 20
2030.544406236176
 10
834.5635837553464
 20
2030.400794574313
 10
834.4867455136931
 20
2030.260143116409
 10
834.4043441762838
 20
2030.122676874793
 10
834.31651156768
 20
2029.988615766127
 10
834.2233882013188
 20
2029.858174259587
 10
834.1251230547213
 20
2029.731561033758
 10
834.0218733311598
 20
2029.608978642789
 10
833.9138042081668
 20
2029.49062319236
 10
833.8010885732852
 20
2029.376684025942
 10
833.6839067474866
 20
2029.267343421895
 10
833.5624461966942
 20
2029.162776301861
 10
833.4369012318795
 20
2029.063149950927
 10
833.3074726982045
 20
2028.96862375
 10
833.1743676537133
 20
2028.879348920839
 10
833.0377990380828
 20
2028.795468284124
 10
832.8979853319648
 20
2028.717116030982
 10
832.7551502074639
 20
2028.644417508303
 10
832.6095221703095
 20
2028.577489018216
 10
832.4613341942951
 20
2028.516437632026
 10
832.3108233485708
 20
2028.46136101893
 10
832.1582304183827
 20
2028.412347289757
 10
832.0037995198671
 20
2028.36947485602
 10
831.8477777095186
 20
2028.332812304466
 10
831.6904145889505
 20
2028.302418287358
 10
831.5319619055873
 20
2028.278341428638
 10
831.3726731499203
 20
2028.260620246145
 10
831.2128031499792
 20
2028.249283089991
 10
831.05260766366
 20
2028.244348097206
 10
831.0093470376157
 20
2028.24411456701
  0
LWPOLYLINE
  5
AD
330
87
100
AcDbEntity
  8
P-SANR-FIXT
100
AcDbPolyline
 90
       41
 70
   128
 43
0.0
 10
800.3234678487629
 20
2028.24411456701
 10
800.1632284198398
 20
2028.247319782962
 10
800.0032453398205
 20
2028.256930303156
 10
799.8437745475052
 20
2028.27293075281
 10
799.6850711621426
 20
2028.295295534618
 10
799.5273890752947
 20
2028.3239888697
 10
799.3709805446631
 20
2028.35896485484
 10
799.2160957905316
 20
2028.400167535924
 10
799.0629825954665
 20
2028.447530997451
 10
798.9118859079177
 20
2028.500979467987
 10
798.7630474503527
 20
2028.56042744138
 10
798.6167053325532
 20
2028.625779813554
 10
798.4730936706896
 20
2028.696932034656
 10
798.3324422127856
 20
2028.773770276309
 10
798.1949759711697
 20
2028.856171613718
 10
798.0609148625038
 20
2028.944004222322
 10
797.9304733559638
 20
2029.037127588683
 10
797.8038601301342
 20
2029.135392735281
 10
797.6812777391665
 20
2029.238642458842
 10
797.562922288737
 20
2029.346711581835
 10
797.4489831223186
 20
2029.459427216717
 10
797.3396425182718
 20
2029.576609042516
 10
797.2350753982383
 20
2029.698069593308
 10
797.1354490473038
 20
2029.823614558122
 10
797.0409228463771
 20
2029.953043091798
 10
796.9516480172154
 20
2030.086148136289
 10
796.867767380501
 20
2030.222716751919
 10
796.789415127359
 20
2030.362530458037
 10
796.7167166046801
 20
2030.505365582538
 10
796.6497881145926
 20
2030.650993619692
 10
796.5887367284033
 20
2030.799181595707
 10
796.5336601153064
 20
2030.949692441431
 10
796.4846463861338
 20
2031.102285371619
 10
796.4417739523964
 20
2031.256716270135
 10
796.4051114008428
 20
2031.412738080483
 10
796.3747173837345
 20
2031.570101201051
 10
796.3506405250149
 20
2031.728553884414
 10
796.3329193425218
 20
2031.887842640082
 10
796.3215821863674
 20
2032.047712640023
 10
796.3166471935827
 20
2032.207908126342
 10
796.3164136633864
 20
2032.251168752386
  0
LWPOLYLINE
  5
AE
330
87
100
AcDbEntity
  8
P-SANR-FIXT
100
AcDbPolyline
 90
        4
 70
   128
 43
0.0
 10
831.0093470376157
 20
2028.24411456701
 10
830.9970743224329
 20
2028.24411456701
 10
830.9602758106114
 20
2028.24411456701
 10
830.8990103719201
 20
2028.24411456701
  0
LWPOLYLINE
  5
AF
330
87
100
AcDbEntity
  8
P-SANR-FIXT
100
AcDbPolyline
 90
        5
 70
   128
 43
0.0
 10
800.4464110522059
 20
2028.24411456701
 10
800.4025775280618
 20
2028.24411456701
 10
800.3525615589644
 20
2028.24411456701
 10
800.3270444765025
 20
2028.24411456701
 10
800.3234678487629
 20
2028.24411456701
  0
LWPOLYLINE
  5
B0
330
87
100
AcDbEntity
  8
P-SANR-FIXT
100
AcDbPolyline
 90
       21
 70
   128
 43
0.0
 10
800.3234678487629
 20
2028.24411456701
 10
800.3357405639455
 20
2028.24411456701
 10
800.372539075767
 20
2028.24411456701
 10
800.4338045144587
 20
2028.24411456701
 10
800.5194388683875
 20
2028.24411456701
 10
800.6293051408549
 20
2028.24411456701
 10
800.7632275692621
 20
2028.24411456701
 10
800.9209919062922
 20
2028.24411456701
 10
801.1023457626603
 20
2028.24411456701
 10
801.3069990108832
 20
2028.24411456701
 10
801.5346242494208
 20
2028.24411456701
 10
801.7848573264485
 20
2028.24411456701
 10
802.0572979224239
 20
2028.24411456701
 10
802.3515101905104
 20
2028.24411456701
 10
802.6670234538416
 20
2028.24411456701
 10
803.0033329585014
 20
2028.24411456701
 10
803.359900681025
 20
2028.24411456701
 10
803.73615618912
 20
2028.24411456701
 10
804.131497554237
 20
2028.24411456701
 10
804.5452923145267
 20
2028.24411456701
 10
804.6664074431893
 20
2028.24411456701
  0
LWPOLYLINE
  5
B1
330
87
100
AcDbEntity
  8
P-SANR-FIXT
100
AcDbPolyline
 90
       21
 70
   128
 43
0.0
 10
826.6664074431893
 20
2028.24411456701
 10
826.9801946780482
 20
2028.24411456701
 10
827.3855779499731
 20
2028.24411456701
 10
827.7722130490438
 20
2028.24411456701
 10
828.1394814415786
 20
2028.24411456701
 10
828.4867955764973
 20
2028.24411456701
 10
828.8135998252725
 20
2028.24411456701
 10
829.1193713708212
 20
2028.24411456701
 10
829.4036210438983
 20
2028.24411456701
 10
829.6658941056636
 20
2028.24411456701
 10
829.9057709751668
 20
2028.24411456701
 10
830.1228679005875
 20
2028.24411456701
 10
830.3168375731571
 20
2028.24411456701
 10
830.4873696827769
 20
2028.24411456701
 10
830.6341914144502
 20
2028.24411456701
 10
830.7570678847264
 20
2028.24411456701
 10
830.8558025174654
 20
2028.24411456701
 10
830.9302373583168
 20
2028.24411456701
 10
830.9802533274142
 20
2028.24411456701
 10
831.0057704098765
 20
2028.24411456701
 10
831.0093470376157
 20
2028.24411456701
  0
LINE
  5
B2
330
87
100
AcDbEntity
  8
P-SANR-FIXT
100
AcDbLine
 10
796.3164074431887
 20
2034.437059673791
 30
0.0
 11
804.1548084017074
 21
2034.437059673791
 31
0.0
  0
LINE
  5
B3
330
87
100
AcDbEntity
  8
P-SANR-FIXT
100
AcDbLine
 10
827.1779666209958
 20
2034.437059673791
 30
0.0
 11
835.0164074431869
 21
2034.437059673791
 31
0.0
  0
LINE
  5
B4
330
87
100
AcDbEntity
  8
P-SANR-FIXT
100
AcDbLine
 10
754.6664074431852
 20
2076.244114566992
 30
0.0
 11
754.6664074431853
 21
2114.644114567119
 31
0.0
  0
LINE
  5
B5
330
87
100
AcDbEntity
  8
P-SANR-FIXT
100
AcDbLine
 10
756.6664074431251
 20
2074.244114567053
 30
0.0
 11
756.6664074431251
 21
2116.644114567059
 31
0.0
  0
SPLINE
  5
B6
330
87
100
AcDbEntity
  8
P-SANR-FIXT
100
AcDbSpline
210
0.0
220
0.0
230
1.0
 70
     8
 71
     3
 72
     9
 73
     5
 74
     0
 42
0.000000001
 43
0.0000000001
 40
-1.0
 40
-1.0
 40
-1.0
 40
-1.0
 40
-0.5
 40
0.0
 40
0.0
 40
0.0
 40
0.0
 10
795.6811260689415
 20
2051.57147459621
 30
0.0
 10
796.4306230533155
 20
2051.767395107045
 30
0.0
 10
797.9064675877154
 20
2052.10875561302
 30
0.0
 10
799.3360132534176
 20
2052.349155087608
 30
0.0
 10
800.0392113690944
 20
2052.444114567055
 30
0.0
  0
SPLINE
  5
B7
330
87
100
AcDbEntity
  8
P-SANR-FIXT
100
AcDbSpline
210
0.0
220
0.0
230
1.0
 70
    24
 71
     3
 72
     9
 73
     5
 74
     0
 42
0.000000001
 43
0.0000000001
 40
-1.0
 40
-1.0
 40
-1.0
 40
-1.0
 40
-0.5
 40
0.0
 40
0.0
 40
0.0
 40
0.0
 10
792.6664074431877
 20
2052.437499999997
 30
0.0
 10
792.6664074431877
 20
2052.336627705191
 30
0.0
 10
792.6664074431877
 20
2052.091417843088
 30
0.0
 10
792.6664074431877
 20
2051.759277436
 30
0.0
 10
792.6664074431877
 20
2051.57147459621
 30
0.0
  0
SPLINE
  5
B8
330
87
100
AcDbEntity
  8
P-SANR-FIXT
100
AcDbSpline
210
0.0
220
0.0
230
1.0
 70
     8
 71
     3
 72
     9
 73
     5
 74
     0
 42
0.000000001
 43
0.0000000001
 40
-1.0
 40
-1.0
 40
-1.0
 40
-1.0
 40
-0.5
 40
0.0
 40
0.0
 40
0.0
 40
0.0
 10
818.6811260689493
 20
2051.571474596211
 30
0.0
 10
819.4306230533245
 20
2051.767395107045
 30
0.0
 10
820.9064675877261
 20
2052.10875561302
 30
0.0
 10
822.3360132534301
 20
2052.349155087608
 30
0.0
 10
823.0392113691078
 20
2052.444114567056
 30
0.0
  0
SPLINE
  5
B9
330
87
100
AcDbEntity
  8
P-SANR-FIXT
100
AcDbSpline
210
0.0
220
0.0
230
1.0
 70
     8
 71
     3
 72
     9
 73
     5
 74
     0
 42
0.000000001
 43
0.0000000001
 40
-1.0
 40
-1.0
 40
-1.0
 40
-1.0
 40
-0.5
 40
0.0
 40
0.0
 40
0.0
 40
0.0
 10
808.2936035172757
 20
2052.444114567055
 30
0.0
 10
809.0014533488259
 20
2052.348223271841
 30
0.0
 10
810.4356507304014
 20
2052.106891981485
 30
0.0
 10
811.9068435489273
 20
2051.766463291277
 30
0.0
 10
812.6516888174275
 20
2051.571474596211
 30
0.0
  0
SPLINE
  5
BA
330
87
100
AcDbEntity
  8
P-SANR-FIXT
100
AcDbSpline
210
0.0
220
0.0
230
1.0
 70
    24
 71
     3
 72
     9
 73
     5
 74
     0
 42
0.000000001
 43
0.0000000001
 40
-1.0
 40
-1.0
 40
-1.0
 40
-1.0
 40
-0.5
 40
0.0
 40
0.0
 40
0.0
 40
0.0
 10
838.6664074431877
 20
2051.571474596212
 30
0.0
 10
838.6664074431877
 20
2051.759277436002
 30
0.0
 10
838.6664074431877
 20
2052.09141784309
 30
0.0
 10
838.6664074431877
 20
2052.336627705193
 30
0.0
 10
838.6664074431877
 20
2052.437499999998
 30
0.0
  0
SPLINE
  5
BB
330
87
100
AcDbEntity
  8
P-SANR-FIXT
100
AcDbSpline
210
0.0
220
0.0
230
1.0
 70
     8
 71
     3
 72
     9
 73
     5
 74
     0
 42
0.000000001
 43
0.0000000001
 40
-1.0
 40
-1.0
 40
-1.0
 40
-1.0
 40
-0.5
 40
0.0
 40
0.0
 40
0.0
 40
0.0
 10
831.2936035172624
 20
2052.444114567056
 30
0.0
 10
832.0014533488134
 20
2052.348223271841
 30
0.0
 10
833.4356507303906
 20
2052.106891981486
 30
0.0
 10
834.9068435489185
 20
2051.766463291278
 30
0.0
 10
835.6516888174198
 20
2051.571474596212
 30
0.0
  0
LINE
  5
BC
330
87
100
AcDbEntity
  8
P-SANR-FIXT
100
AcDbLine
 10
792.6664074431876
 20
2051.57147459621
 30
0.0
 11
795.6811260689415
 21
2051.57147459621
 31
0.0
  0
LINE
  5
BD
330
87
100
AcDbEntity
  8
P-SANR-FIXT
100
AcDbLine
 10
792.6664074431837
 20
2051.57147459621
 30
0.0
 11
792.6664074431839
 21
2042.529414260618
 31
0.0
  0
LINE
  5
BE
330
87
100
AcDbEntity
  8
P-SANR-FIXT
100
AcDbLine
 10
795.6811260689449
 20
2042.529414260618
 30
0.0
 11
795.6811260689446
 21
2051.57147459621
 31
0.0
  0
LINE
  5
BF
330
87
100
AcDbEntity
  8
P-SANR-FIXT
100
AcDbLine
 10
812.6516888174275
 20
2051.571474596211
 30
0.0
 11
818.6811260689491
 21
2051.571474596211
 31
0.0
  0
LINE
  5
C0
330
87
100
AcDbEntity
  8
P-SANR-FIXT
100
AcDbLine
 10
812.6516888174228
 20
2051.571474596211
 30
0.0
 11
812.6516888174229
 21
2042.529414260618
 31
0.0
  0
LINE
  5
C1
330
87
100
AcDbEntity
  8
P-SANR-FIXT
100
AcDbLine
 10
818.6811260689447
 20
2042.529414260619
 30
0.0
 11
818.6811260689443
 21
2051.571474596211
 31
0.0
  0
LINE
  5
C2
330
87
100
AcDbEntity
  8
P-SANR-FIXT
100
AcDbLine
 10
835.6516888174196
 20
2051.571474596212
 30
0.0
 11
838.6664074431877
 21
2051.571474596212
 31
0.0
  0
LINE
  5
C3
330
87
100
AcDbEntity
  8
P-SANR-FIXT
100
AcDbLine
 10
835.651688817423
 20
2051.571474596212
 30
0.0
 11
835.651688817423
 21
2042.529414260619
 31
0.0
  0
LINE
  5
C4
330
87
100
AcDbEntity
  8
P-SANR-FIXT
100
AcDbLine
 10
838.6664074431839
 20
2042.529414260619
 30
0.0
 11
838.6664074431836
 21
2051.571474596212
 31
0.0
  0
LINE
  5
C5
330
87
100
AcDbEntity
  8
P-SANR-FIXT
100
AcDbLine
 10
840.6664074431867
 20
2042.529414260618
 30
0.0
 11
838.6664074431903
 21
2042.529414260618
 31
0.0
  0
LINE
  5
C6
330
87
100
AcDbEntity
  8
P-SANR-FIXT
100
AcDbLine
 10
835.65168881742
 20
2042.529414260619
 30
0.0
 11
838.6664074431875
 21
2042.529414260619
 31
0.0
  0
LINE
  5
C7
330
87
100
AcDbEntity
  8
P-SANR-FIXT
100
AcDbLine
 10
835.6516888174223
 20
2042.529414260618
 30
0.0
 11
818.6811260689498
 21
2042.529414260618
 31
0.0
  0
LINE
  5
C8
330
87
100
AcDbEntity
  8
P-SANR-FIXT
100
AcDbLine
 10
812.6516888174275
 20
2042.529414260618
 30
0.0
 11
818.6811260689491
 21
2042.529414260619
 31
0.0
  0
LINE
  5
C9
330
87
100
AcDbEntity
  8
P-SANR-FIXT
100
AcDbLine
 10
812.6516888174275
 20
2042.529414260618
 30
0.0
 11
795.6811260689399
 21
2042.529414260617
 31
0.0
  0
LINE
  5
CA
330
87
100
AcDbEntity
  8
P-SANR-FIXT
100
AcDbLine
 10
792.6664074431876
 20
2042.529414260618
 30
0.0
 11
795.6811260689418
 21
2042.529414260618
 31
0.0
  0
LINE
  5
CB
330
87
100
AcDbEntity
  8
P-SANR-FIXT
100
AcDbLine
 10
792.6664074431853
 20
2042.529414260617
 30
0.0
 11
790.6664074431811
 21
2042.529414260616
 31
0.0
  0
LWPOLYLINE
  5
CC
330
87
100
AcDbEntity
  8
P-SANR-FIXT
100
AcDbPolyline
 90
        4
 70
   128
 43
0.0
 10
787.6664122115553
 20
2038.535881723402
 10
788.2570663402811
 20
2038.410334312664
 10
790.0041092722302
 20
2038.038988873959
 10
792.8338339862206
 20
2037.43751231828
  0
LWPOLYLINE
  5
CD
330
87
100
AcDbEntity
  8
P-SANR-FIXT
100
AcDbPolyline
 90
        4
 70
   128
 43
0.0
 10
838.4989809001607
 20
2037.437512318282
 10
841.3287056141442
 20
2038.038988873958
 10
843.0757485460887
 20
2038.410334312663
 10
843.6664026748129
 20
2038.535881723401
  0
LINE
  5
CE
330
87
100
AcDbEntity
  8
P-SANR-FIXT
100
AcDbLine
 10
775.6664074431878
 20
1970.937499999997
 30
0.0
 11
855.6664074431839
 21
1970.937499999999
 31
0.0
  0
LINE
  5
CF
330
87
100
AcDbEntity
  8
P-SANR-FIXT
100
AcDbLine
 10
855.666407443185
 20
2006.437499999997
 30
0.0
 11
828.6664074431884
 21
2006.437499999996
 31
0.0
  0
LINE
  5
D0
330
87
100
AcDbEntity
  8
P-SANR-FIXT
100
AcDbLine
 10
828.6664074431879
 20
2006.437499999998
 30
0.0
 11
802.6664074431879
 21
2006.437499999998
 31
0.0
  0
LINE
  5
D1
330
87
100
AcDbEntity
  8
P-SANR-FIXT
100
AcDbLine
 10
802.6664074431881
 20
2006.437499999997
 30
0.0
 11
775.6664074431849
 21
2006.437499999996
 31
0.0
  0
LINE
  5
D2
330
87
100
AcDbEntity
  8
P-SANR-FIXT
100
AcDbLine
 10
789.166407443188
 20
1937.937499999997
 30
0.0
 11
842.1664074431856
 21
1937.937499999998
 31
0.0
  0
SPLINE
  5
D3
330
87
100
AcDbEntity
  8
P-SANR-FIXT
100
AcDbSpline
210
0.0
220
0.0
230
1.0
 70
     8
 71
     3
 72
     8
 73
     4
 74
     0
 42
0.000000001
 43
0.0000000001
 40
-1.0
 40
-1.0
 40
-1.0
 40
-1.0
 40
-0.8571428571428572
 40
-0.8571428571428572
 40
-0.8571428571428572
 40
-0.8571428571428572
 10
828.6664074431879
 20
2006.437499999997
 30
0.0
 10
828.5219045151233
 20
2006.437499999997
 30
0.0
 10
828.3750029074042
 20
2006.45328898212
 30
0.0
 10
828.2298052850117
 20
2006.485724583275
 30
0.0
  0
SPLINE
  5
D4
330
87
100
AcDbEntity
  8
P-SANR-FIXT
100
AcDbSpline
210
0.0
220
0.0
230
1.0
 70
     8
 71
     3
 72
     8
 73
     4
 74
     0
 42
0.000000001
 43
0.0000000001
 40
-0.1428571428571428
 40
-0.1428571428571428
 40
-0.1428571428571428
 40
-0.1428571428571428
 40
0.0
 40
0.0
 40
0.0
 40
0.0
 10
803.1020119889975
 20
2006.485514170215
 30
0.0
 10
802.9569237207796
 20
2006.453102474313
 30
0.0
 10
802.8106137787482
 20
2006.437499999997
 30
0.0
 10
802.6664074431879
 20
2006.437499999997
 30
0.0
  0
SPLINE
  5
D5
330
87
100
AcDbEntity
  8
P-SANR-FIXT
100
AcDbSpline
210
0.0
220
0.0
230
1.0
 70
     8
 71
     3
 72
     8
 73
     4
 74
     0
 42
0.000000001
 43
0.0000000001
 40
-1.0
 40
-1.0
 40
-1.0
 40
-1.0
 40
-0.8571428571428572
 40
-0.8571428571428572
 40
-0.8571428571428572
 40
-0.8571428571428572
 10
802.6664074431876
 20
2006.437499999997
 30
0.0
 10
802.810613778748
 20
2006.437499999997
 30
0.0
 10
802.9572995312854
 20
2006.453226616268
 30
0.0
 10
803.1023489893756
 20
2006.485577004556
 30
0.0
  0
SPLINE
  5
D6
330
87
100
AcDbEntity
  8
P-SANR-FIXT
100
AcDbSpline
210
0.0
220
0.0
230
1.0
 70
     8
 71
     3
 72
     8
 73
     4
 74
     0
 42
0.000000001
 43
0.0000000001
 40
-0.1428571428571428
 40
-0.1428571428571428
 40
-0.1428571428571428
 40
-0.1428571428571428
 40
0.0
 40
0.0
 40
0.0
 40
0.0
 10
828.2301249904701
 20
2006.485665575295
 30
0.0
 10
828.3753583272241
 20
2006.453170777442
 30
0.0
 10
828.5219045151231
 20
2006.437499999997
 30
0.0
 10
828.6664074431877
 20
2006.437499999997
 30
0.0
  0
LINE
  5
D7
330
87
100
AcDbEntity
  8
P-SANR-FIXT
100
AcDbLine
 10
804.6664074431877
 20
2032.529414260634
 30
0.0
 11
804.6664074431875
 21
2008.437500000011
 31
0.0
  0
SPLINE
  5
D8
330
87
100
AcDbEntity
  8
P-SANR-FIXT
100
AcDbSpline
210
0.0
220
0.0
230
1.0
 70
     8
 71
     3
 72
    15
 73
    11
 74
     0
 42
0.000000001
 43
0.0000000001
 40
-1.0
 40
-1.0
 40
-1.0
 40
-1.0
 40
-0.7857142857142857
 40
-0.7321428571428572
 40
-0.6785714285714287
 40
-0.5714285714285714
 40
-0.4285714285714286
 40
-0.2857142857142857
 40
-0.1428571428571428
 40
0.0
 40
0.0
 40
0.0
 40
0.0
 10
804.6664074431875
 20
2008.437499999997
 30
0.0
 10
804.6664074431875
 20
2008.224429950159
 30
0.0
 10
804.6233922972742
 20
2007.952760224944
 30
0.0
 10
804.5036881653187
 20
2007.641428470319
 30
0.0
 10
804.4060165453524
 20
2007.439543272049
 30
0.0
 10
804.2301024143437
 20
2007.169091696024
 30
0.0
 10
803.9325017746975
 20
2006.866282639998
 30
0.0
 10
803.5398404378467
 20
2006.618690487658
 30
0.0
 10
803.1069681913935
 20
2006.46933685652
 30
0.0
 10
802.8120532769943
 20
2006.437499999997
 30
0.0
 10
802.6664074431876
 20
2006.437499999997
 30
0.0
  0
SPLINE
  5
D9
330
87
100
AcDbEntity
  8
P-SANR-FIXT
100
AcDbSpline
210
0.0
220
0.0
230
1.0
 70
     8
 71
     3
 72
    13
 73
     9
 74
     0
 42
0.000000001
 43
0.0000000001
 40
-1.0
 40
-1.0
 40
-1.0
 40
-1.0
 40
-0.7857142857142857
 40
-0.5714285714285714
 40
-0.4285714285714286
 40
-0.2857142857142857
 40
-0.1428571428571428
 40
0.0
 40
0.0
 40
0.0
 40
0.0
 10
828.6664074431877
 20
2006.437499999997
 30
0.0
 10
828.4479386924781
 20
2006.437499999997
 30
0.0
 10
828.0012066233449
 20
2006.509720902374
 30
0.0
 10
827.45433656548
 20
2006.811045173202
 30
0.0
 10
827.0756516907106
 20
2007.196670223267
 30
0.0
 10
826.838308443583
 20
2007.585734064624
 30
0.0
 10
826.6967894081082
 20
2008.007709284124
 30
0.0
 10
826.6664074431878
 20
2008.295453300105
 30
0.0
 10
826.6664074431878
 20
2008.437499999997
 30
0.0
  0
LINE
  5
DA
330
87
100
AcDbEntity
  8
P-SANR-FIXT
100
AcDbLine
 10
826.6664074431878
 20
2008.437499999983
 30
0.0
 11
826.6664074431876
 21
2032.529414260605
 31
0.0
  0
SPLINE
  5
DB
330
87
100
AcDbEntity
  8
P-SANR-FIXT
100
AcDbSpline
210
0.0
220
0.0
230
1.0
 70
     8
 71
     3
 72
    14
 73
    10
 74
     0
 42
0.000000001
 43
0.0000000001
 40
-1.0
 40
-1.0
 40
-1.0
 40
-1.0
 40
-0.8571428571428571
 40
-0.7142857142857143
 40
-0.5714285714285714
 40
-0.4285714285714286
 40
-0.2857142857142857
 40
-0.1428571428571428
 40
0.0
 40
0.0
 40
0.0
 40
0.0
 10
826.6664074431876
 20
2032.529414260619
 30
0.0
 10
826.6664074431876
 20
2032.851034906547
 30
0.0
 10
826.7444682378085
 20
2033.484869880663
 30
0.0
 10
827.0680131510363
 20
2034.354074999665
 30
0.0
 10
827.5665046250887
 20
2035.10951250868
 30
0.0
 10
828.2071159338585
 20
2035.724770717027
 30
0.0
 10
828.9575175745758
 20
2036.180935525699
 30
0.0
 10
829.7854016501286
 20
2036.463932323755
 30
0.0
 10
830.372046608244
 20
2036.529414260619
 30
0.0
 10
830.6664074431875
 20
2036.529414260619
 30
0.0
  0
LINE
  5
DC
330
87
100
AcDbEntity
  8
P-SANR-FIXT
100
AcDbLine
 10
830.666407443188
 20
2036.529414260619
 30
0.0
 11
834.2267154357235
 21
2036.529414260619
 31
0.0
  0
SPLINE
  5
DD
330
87
100
AcDbEntity
  8
P-SANR-FIXT
100
AcDbSpline
210
0.0
220
0.0
230
1.0
 70
    24
 71
     3
 72
     9
 73
     5
 74
     0
 42
0.000000001
 43
0.0000000001
 40
-1.0
 40
-1.0
 40
-1.0
 40
-1.0
 40
-0.5
 40
0.0
 40
0.0
 40
0.0
 40
0.0
 10
834.2267154357234
 20
2036.529414260619
 30
0.0
 10
835.0352770937297
 20
2036.701279346543
 30
0.0
 10
836.5558829958088
 20
2037.024494108745
 30
0.0
 10
837.8834540700212
 20
2037.306678051652
 30
0.0
 10
838.4989809001606
 20
2037.437512318282
 30
0.0
  0
LINE
  5
DE
330
87
100
AcDbEntity
  8
P-SANR-FIXT
100
AcDbLine
 10
792.8338339862206
 20
2037.43751231828
 30
0.0
 11
838.4989809001604
 21
2037.437512318282
 31
0.0
  0
SPLINE
  5
DF
330
87
100
AcDbEntity
  8
P-SANR-FIXT
100
AcDbSpline
210
0.0
220
0.0
230
1.0
 70
    24
 71
     3
 72
     9
 73
     5
 74
     0
 42
0.000000001
 43
0.0000000001
 40
-1.0
 40
-1.0
 40
-1.0
 40
-1.0
 40
-0.5
 40
0.0
 40
0.0
 40
0.0
 40
0.0
 10
792.8338339862206
 20
2037.43751231828
 30
0.0
 10
793.4493608163596
 20
2037.30667805165
 30
0.0
 10
794.7769318905705
 20
2037.024494108743
 30
0.0
 10
796.2975377926473
 20
2036.701279346543
 30
0.0
 10
797.1060994506521
 20
2036.529414260619
 30
0.0
  0
LINE
  5
E0
330
87
100
AcDbEntity
  8
P-SANR-FIXT
100
AcDbLine
 10
797.1060994506523
 20
2036.529414260619
 30
0.0
 11
800.6664074431879
 21
2036.529414260619
 31
0.0
  0
SPLINE
  5
E1
330
87
100
AcDbEntity
  8
P-SANR-FIXT
100
AcDbSpline
210
0.0
220
0.0
230
1.0
 70
     8
 71
     3
 72
    14
 73
    10
 74
     0
 42
0.000000001
 43
0.0000000001
 40
-1.0
 40
-1.0
 40
-1.0
 40
-1.0
 40
-0.8571428571428571
 40
-0.7142857142857144
 40
-0.5714285714285714
 40
-0.4285714285714286
 40
-0.2857142857142857
 40
-0.1428571428571428
 40
0.0
 40
0.0
 40
0.0
 40
0.0
 10
800.6664074431878
 20
2036.529414260619
 30
0.0
 10
800.9612187727197
 20
2036.529414260619
 30
0.0
 10
801.5485252054208
 20
2036.463719190404
 30
0.0
 10
802.3763882948189
 20
2036.180416301004
 30
0.0
 10
803.1265401087472
 20
2035.724102250779
 30
0.0
 10
803.7667662003826
 20
2035.10892116844
 30
0.0
 10
804.2649846719227
 20
2034.353681700362
 30
0.0
 10
804.5884049751197
 20
2033.484571136382
 30
0.0
 10
804.6664074431877
 20
2032.850928906942
 30
0.0
 10
804.6664074431877
 20
2032.529414260619
 30
0.0
  0
LINE
  5
E2
330
87
100
AcDbEntity
  8
P-SANR-FIXT
100
AcDbLine
 10
772.6664074431883
 20
2071.444114567056
 30
0.0
 11
772.666407443188
 21
2119.444114567056
 31
0.0
  0
LINE
  5
E3
330
87
100
AcDbEntity
  8
P-SANR-FIXT
100
AcDbLine
 10
839.6664074431885
 20
2052.444114567056
 30
0.0
 11
791.6664074431886
 21
2052.444114567055
 31
0.0
  0
ARC
  5
E4
330
87
100
AcDbEntity
  8
P-SANR-FIXT
100
AcDbCircle
 10
772.6664074431883
 20
2052.444114567055
 30
0.0
 40
66.47338918861127
100
AcDbArc
 50
0.8619680978642547
 51
7.781318305946906
  0
ARC
  5
E5
330
87
100
AcDbEntity
  8
P-SANR-FIXT
100
AcDbCircle
 10
772.6664074431883
 20
2052.444114567055
 30
0.0
 40
66.47338918861116
100
AcDbArc
 50
82.21868169407796
 51
89.13803190213457
  0
ARC
  5
E6
330
87
100
AcDbEntity
  8
P-SANR-FIXT
100
AcDbCircle
 10
780.6664074431885
 20
2120.444114567056
 30
0.0
 40
1.0
100
AcDbArc
 50
0.0
 51
90.0
  0
LINE
  5
E7
330
87
100
AcDbEntity
  8
P-SANR-FIXT
100
AcDbLine
 10
780.6664074431885
 20
2121.444114567056
 30
0.0
 11
774.6664074431878
 21
2121.444114567056
 31
0.0
  0
ARC
  5
E8
330
87
100
AcDbEntity
  8
P-SANR-FIXT
100
AcDbCircle
 10
774.6664074431878
 20
2120.444114567056
 30
0.0
 40
1.0
100
AcDbArc
 50
90.0
 51
180.0
  0
LINE
  5
E9
330
87
100
AcDbEntity
  8
P-SANR-FIXT
100
AcDbLine
 10
773.6664074431878
 20
2120.444114567056
 30
0.0
 11
773.6664074431878
 21
2118.909981523114
 31
0.0
  0
LINE
  5
EA
330
87
100
AcDbEntity
  8
P-SANR-FIXT
100
AcDbLine
 10
781.6664074431884
 20
2118.305419369045
 30
0.0
 11
781.6664074431884
 21
2120.444114567056
 31
0.0
  0
ARC
  5
EB
330
87
100
AcDbEntity
  8
P-SANR-FIXT
100
AcDbCircle
 10
840.666407443188
 20
2054.444114567056
 30
0.0
 40
1.000000000000113
100
AcDbArc
 50
269.9999999999997
 51
0.0
  0
LINE
  5
EC
330
87
100
AcDbEntity
  8
P-SANR-FIXT
100
AcDbLine
 10
841.6664074431881
 20
2054.444114567056
 30
0.0
 11
841.6664074431881
 21
2060.444114567118
 31
0.0
  0
ARC
  5
ED
330
87
100
AcDbEntity
  8
P-SANR-FIXT
100
AcDbCircle
 10
840.666407443188
 20
2060.444114567118
 30
0.0
 40
1.000000000000113
100
AcDbArc
 50
0.0
 51
90.00000000088588
  0
LINE
  5
EE
330
87
100
AcDbEntity
  8
P-SANR-FIXT
100
AcDbLine
 10
840.6664074431725
 20
2061.444114567119
 30
0.0
 11
838.5277122451736
 21
2061.444114567086
 31
0.0
  0
LINE
  5
EF
330
87
100
AcDbEntity
  8
P-SANR-FIXT
100
AcDbLine
 10
839.132274399248
 20
2053.444114567055
 30
0.0
 11
840.666407443188
 21
2053.444114567055
 31
0.0
  0
LINE
  5
F0
330
87
100
AcDbEntity
  8
P-SANR-FIXT
100
AcDbLine
 10
796.3164136633849
 20
2032.251168752385
 30
0.0
 11
804.6589167026283
 21
2032.251168752385
 31
0.0
  0
LINE
  5
F1
330
87
100
AcDbEntity
  8
P-SANR-FIXT
100
AcDbLine
 10
826.6738981837473
 20
2032.251168752385
 30
0.0
 11
835.0164012229907
 21
2032.251168752385
 31
0.0
  0
ENDBLK
  5
F3
330
87
100
AcDbEntity
  8
0
100
AcDbBlockEnd
  0
BLOCK
  5
18E
330
F5
100
AcDbEntity
  8
0
100
AcDbBlockBegin
  2
Automatic flow rate regulator valve_Caleffi_121 DN15 - 1_2__-V1-Est - Idraulica
 70
     0
 10
0.0
 20
0.0
 30
0.0
  3
Automatic flow rate regulator valve_Caleffi_121 DN15 - 1_2__-V1-Est - Idraulica
  1

  0
LINE
  5
F6
330
F5
100
AcDbEntity
  8
P-SANR-FIXT
100
AcDbLine
 10
772.6664074431887
 20
1697.947075844262
 30
0.0
 11
756.6664074431259
 21
1697.947075844262
 31
0.0
  0
LINE
  5
F7
330
F5
100
AcDbEntity
  8
P-SANR-FIXT
100
AcDbLine
 10
754.666407443186
 20
1657.547075844196
 30
0.0
 11
756.6010549182681
 21
1655.612428369114
 31
0.0
  0
LINE
  5
F8
330
F5
100
AcDbEntity
  8
P-SANR-FIXT
100
AcDbLine
 10
756.6193299719722
 20
1655.59415331541
 30
0.0
 11
756.6664074431256
 21
1655.547075844256
 31
0.0
  0
LWPOLYLINE
  5
F9
330
F5
100
AcDbEntity
  8
P-SANR-FIXT
100
AcDbPolyline
 90
       54
 70
   128
 43
0.0
 10
843.6664026748093
 20
1676.747075844259
 10
843.644005665131
 20
1677.866777010801
 10
843.5768504665334
 20
1678.984686894332
 10
843.4650445130088
 20
1680.099017077516
 10
843.308766670232
 20
1681.207984869769
 10
843.1082669494143
 20
1682.309816159191
 10
842.8638661073376
 20
1683.402748250763
 10
842.5759551332134
 20
1684.485032686287
 10
842.2449946231825
 20
1685.554938041539
 10
841.8715140434596
 20
1686.610752696186
 10
841.4561108833012
 20
1687.650787572009
 10
840.9994496991483
 20
1688.673378835068
 10
840.5022610514802
 20
1689.676890557484
 10
839.9653403360716
 20
1690.659717334573
 10
839.3895465115303
 20
1691.620286853149
 10
838.7758007251459
 20
1692.557062406893
 10
838.1250848392514
 20
1693.468545354754
 10
837.4384398604522
 20
1694.353277518455
 10
836.7169642742378
 20
1695.209843515266
 10
835.9618122876401
 20
1696.036873022318
 10
835.1741919827464
 20
1696.833042968823
 10
834.3553633840281
 20
1697.597079652705
 10
833.5066364425692
 20
1698.327760778258
 10
832.6293689404238
 20
1699.02391741155
 10
831.7249643184551
 20
1699.684435850474
 10
830.7948694311285
 20
1700.308259406431
 10
829.8405722318545
 20
1700.894390094806
 10
828.863599392579
 20
1701.441890231532
 10
827.8655138614354
 20
1701.949883933185
 10
826.8479123623597
 20
1702.417558518207
 10
825.8124228406739
 20
1702.844165807029
 10
824.7607018587197
 20
1703.229023318993
 10
823.6944319457137
 20
1703.571515364178
 10
822.6153189060577
 20
1703.871094028373
 10
821.525089090416
 20
1704.127280049623
 10
820.4254866339244
 20
1704.339663584942
 10
819.3182706659436
 20
1704.50790486598
 10
818.2052124958291
 20
1704.631734742579
 10
817.0880927792131
 20
1704.71095511335
 10
815.9686986693362
 20
1704.745439242601
 10
814.8488209579829
 20
1704.735131963079
 10
813.7302512105968
 20
1704.680049764234
 10
812.6147789001581
 20
1704.580280765834
 10
811.5041885444089
 20
1704.435984576993
 10
810.400256851005
 20
1704.247392040832
 10
809.3047498751632
 20
1704.014804865177
 10
808.2194201943488
 20
1703.738595139895
 10
807.1460041045268
 20
1703.419204741623
 10
806.0862188424575
 20
1703.057144626865
 10
805.041759838485
 20
1702.652994014572
 10
804.0142980042091
 20
1702.207399459507
 10
803.0054770593849
 20
1701.721073817903
 10
802.0169109023203
 20
1701.194795107044
 10
801.2165681111721
 20
1700.726716381225
  0
LWPOLYLINE
  5
FA
330
F5
100
AcDbEntity
  8
P-SANR-FIXT
100
AcDbPolyline
 90
       55
 70
   128
 43
0.0
 10
801.2507653634804
 20
1652.748077287113
 10
801.4922426545151
 20
1652.599761593712
 10
802.4692154937905
 20
1652.052261456986
 10
803.4673010249342
 20
1651.544267755333
 10
804.4849025240099
 20
1651.076593170311
 10
805.5203920456959
 20
1650.649985881489
 10
806.5721130276497
 20
1650.265128369525
 10
807.6383829406557
 20
1649.92263632434
 10
808.7174959803121
 20
1649.623057660144
 10
809.8077257959534
 20
1649.366871638895
 10
810.9073282524452
 20
1649.154488103576
 10
812.0145442204259
 20
1648.986246822537
 10
813.1276023905405
 20
1648.862416945938
 10
814.2447221071565
 20
1648.783196575167
 10
815.3641162170332
 20
1648.748712445917
 10
816.4839939283865
 20
1648.759019725439
 10
817.6025636757728
 20
1648.814101924284
 10
818.7180359862116
 20
1648.913870922684
 10
819.8286263419607
 20
1649.058167111524
 10
820.9325580353644
 20
1649.246759647686
 10
822.0280650112062
 20
1649.47934682334
 10
823.1133946920207
 20
1649.755556548623
 10
824.1868107818428
 20
1650.074946946895
 10
825.2465960439121
 20
1650.437007061652
 10
826.2910550478846
 20
1650.841157673946
 10
827.3185168821605
 20
1651.286752229011
 10
828.3273378269846
 20
1651.773077870615
 10
829.3159039840494
 20
1652.299356581474
 10
830.2826338583859
 20
1652.864746427919
 10
831.2259808884201
 20
1653.468342906804
 10
832.1444359201404
 20
1654.109180392525
 10
833.036529621423
 20
1654.786233681808
 10
833.9008348326487
 20
1655.498419633821
 10
834.7359688498551
 20
1656.244598902966
 10
835.5405956367668
 20
1657.023577761589
 10
836.3134279621696
 20
1657.834110009689
 10
837.0532294592051
 20
1658.674898968573
 10
837.7588166032932
 20
1659.544599555266
 10
838.4290606055213
 20
1660.441820434356
 10
839.0628892184633
 20
1661.365126243832
 10
839.6592884515483
 20
1662.313039891362
 10
840.2173041932281
 20
1663.28404491732
 10
840.736043737353
 20
1664.2765879208
 10
841.2146772113114
 20
1665.289081044729
 10
841.6524389036474
 20
1666.319904516096
 10
842.0486284890376
 20
1667.367409237243
 10
842.4026121486615
 20
1668.429919424073
 10
842.7138235841763
 20
1669.505735286942
 10
842.981764923673
 20
1670.593135749966
 10
843.2060075181665
 20
1671.690381204371
 10
843.3861926273415
 20
1672.795716291496
 10
843.5220319934606
 20
1673.907372710993
 10
843.6133083025156
 20
1675.023572049733
 10
843.6598755318829
 20
1676.142528626882
 10
843.6664026748093
 20
1676.747075844259
  0
LINE
  5
FB
330
F5
100
AcDbEntity
  8
P-SANR-FIXT
100
AcDbLine
 10
756.6664074431256
 20
1655.547075844256
 30
0.0
 11
772.6664074431886
 21
1655.547075844256
 31
0.0
  0
LINE
  5
FC
330
F5
100
AcDbEntity
  8
P-SANR-FIXT
100
AcDbLine
 10
756.6664074431259
 20
1697.947075844262
 30
0.0
 11
756.6193299719725
 21
1697.899998373109
 31
0.0
  0
LINE
  5
FD
330
F5
100
AcDbEntity
  8
P-SANR-FIXT
100
AcDbLine
 10
756.6010549182683
 20
1697.881723319405
 30
0.0
 11
754.6664074431861
 21
1695.947075844323
 31
0.0
  0
LWPOLYLINE
  5
FE
330
F5
100
AcDbEntity
  8
P-SANR-FIXT
100
AcDbPolyline
 90
       41
 70
   128
 43
0.0
 10
772.6664074431886
 20
1652.747075844259
 10
774.3859488132141
 20
1652.747075844259
 10
776.1027392838632
 20
1652.747075844259
 10
777.8140323566121
 20
1652.747075844259
 10
779.5170903276014
 20
1652.747075844259
 10
781.2091886673764
 20
1652.747075844259
 10
782.8876203795555
 20
1652.747075844259
 10
784.5497003314457
 20
1652.747075844259
 10
786.1927695496818
 20
1652.747075844259
 10
787.8141994740177
 20
1652.747075844259
 10
789.4113961624608
 20
1652.747075844259
 10
790.9818044410268
 20
1652.747075844259
 10
792.5229119914726
 20
1652.747075844259
 10
794.0322533704695
 20
1652.747075844259
 10
795.507413953787
 20
1652.747075844259
 10
796.9460337991754
 20
1652.747075844259
 10
798.3458114217718
 20
1652.747075844259
 10
799.7045074759832
 20
1652.747075844259
 10
801.0199483379622
 20
1652.747075844259
 10
802.2900295829428
 20
1652.747075844259
 10
803.5127193518684
 20
1652.747075844259
 10
804.686061601936
 20
1652.747075844259
 10
805.8081792358446
 20
1652.747075844259
 10
806.8772771047528
 20
1652.747075844259
 10
807.8916448801319
 20
1652.747075844259
 10
808.8496597899288
 20
1652.747075844259
 10
809.7497892146527
 20
1652.747075844259
 10
810.5905931392419
 20
1652.747075844259
 10
811.3707264567787
 20
1652.747075844259
 10
812.0889411203751
 20
1652.747075844259
 10
812.7440881397799
 20
1652.747075844259
 10
813.3351194195196
 20
1652.747075844259
 10
813.8610894356258
 20
1652.747075844259
 10
814.3211567482747
 20
1652.747075844259
 10
814.7145853479077
 20
1652.747075844259
 10
815.0407458326931
 20
1652.747075844259
 10
815.2991164154316
 20
1652.747075844259
 10
815.4892837583076
 20
1652.747075844259
 10
815.6109436341392
 20
1652.747075844259
 10
815.6639014130776
 20
1652.747075844259
 10
815.6664074431892
 20
1652.747075844259
  0
LWPOLYLINE
  5
FF
330
F5
100
AcDbEntity
  8
P-SANR-FIXT
100
AcDbPolyline
 90
       41
 70
   128
 43
0.0
 10
815.6664074431896
 20
1700.747075844259
 10
815.6320120296115
 20
1700.747075844259
 10
815.5288808142021
 20
1700.747075844259
 10
815.3571787849056
 20
1700.747075844259
 10
815.1171806283413
 20
1700.747075844259
 10
814.8092702903628
 20
1700.747075844259
 10
814.4339403618266
 20
1700.747075844259
 10
813.9917912905525
 20
1700.747075844259
 10
813.4835304207342
 20
1700.747075844259
 10
812.9099708613406
 20
1700.747075844259
 10
812.2720301853135
 20
1700.747075844259
 10
811.5707289616477
 20
1700.747075844259
 10
810.8071891226986
 20
1700.747075844259
 10
809.9826321693283
 20
1700.747075844259
 10
809.098377216766
 20
1700.747075844259
 10
808.1558388843053
 20
1700.747075844259
 10
807.1565250322139
 20
1700.747075844259
 10
806.102034349479
 20
1700.747075844259
 10
804.9940537962477
 20
1700.747075844259
 10
803.8343559050479
 20
1700.747075844259
 10
802.6247959451172
 20
1700.747075844259
 10
801.3673089543654
 20
1700.747075844259
 10
800.063906643728
 20
1700.747075844259
 10
798.7166741788579
 20
1700.747075844259
 10
797.3277668443046
 20
1700.747075844259
 10
795.8994065955189
 20
1700.747075844259
 10
794.4338785041984
 20
1700.747075844259
 10
792.9335271026598
 20
1700.747075844259
 10
791.4007526330875
 20
1700.747075844259
 10
789.8380072076588
 20
1700.747075844259
 10
788.2477908856858
 20
1700.747075844259
 10
786.6326476740563
 20
1700.747075844259
 10
784.9951614573629
 20
1700.747075844259
 10
783.3379518642409
 20
1700.747075844259
 10
781.66367007652
 20
1700.747075844259
 10
779.9749945878991
 20
1700.747075844259
 10
778.2746269189291
 20
1700.747075844259
 10
776.5652872951541
 20
1700.747075844259
 10
774.8497102953327
 20
1700.747075844259
 10
773.1306404766943
 20
1700.747075844259
 10
772.6664074431889
 20
1700.747075844259
  0
LINE
  5
100
330
F5
100
AcDbEntity
  8
P-SANR-FIXT
100
AcDbLine
 10
781.6664074431892
 20
1671.747075844259
 30
0.0
 11
781.6664074431892
 21
1681.74707584426
 31
0.0
  0
LINE
  5
101
330
F5
100
AcDbEntity
  8
P-SANR-FIXT
100
AcDbLine
 10
773.6664074431885
 20
1681.74707584426
 30
0.0
 11
773.6664074431885
 21
1671.747075844259
 31
0.0
  0
LINE
  5
102
330
F5
100
AcDbEntity
  8
P-SANR-FIXT
100
AcDbLine
 10
841.6664074431889
 20
1671.747075844259
 30
0.0
 11
841.6664074431889
 21
1681.74707584426
 31
0.0
  0
LINE
  5
103
330
F5
100
AcDbEntity
  8
P-SANR-FIXT
100
AcDbLine
 10
754.6664074431848
 20
1657.547075844196
 30
0.0
 11
754.6664074431848
 21
1676.747075844259
 31
0.0
  0
LINE
  5
104
330
F5
100
AcDbEntity
  8
P-SANR-FIXT
100
AcDbLine
 10
756.6664074431246
 20
1655.547075844256
 30
0.0
 11
756.6664074431248
 21
1676.747075844259
 31
0.0
  0
SPLINE
  5
105
330
F5
100
AcDbEntity
  8
P-SANR-FIXT
100
AcDbSpline
210
0.0
220
0.0
230
1.0
 70
    24
 71
     3
 72
     8
 73
     4
 74
     0
 42
0.000000001
 43
0.0000000001
 40
-1.0
 40
-1.0
 40
-1.0
 40
-1.0
 40
-0.6720818067632575
 40
-0.6720818067632575
 40
-0.6720818067632575
 40
-0.6720818067632575
 10
812.6516888174281
 20
1701.564639616868
 30
0.0
 10
812.1601414235234
 20
1701.280844596677
 30
0.0
 10
811.6735725627789
 20
1700.999923933947
 30
0.0
 10
811.1919822351943
 20
1700.721877628677
 30
0.0
  0
SPLINE
  5
106
330
F5
100
AcDbEntity
  8
P-SANR-FIXT
100
AcDbSpline
210
0.0
220
0.0
230
1.0
 70
    24
 71
     3
 72
     9
 73
     5
 74
     0
 42
0.000000001
 43
0.0000000001
 40
-0.5926277533638755
 40
-0.5926277533638755
 40
-0.5926277533638755
 40
-0.5926277533638755
 40
-0.5
 40
0.0
 40
0.0
 40
0.0
 40
0.0
 10
821.2906426955379
 20
1700.058034490051
 30
0.0
 10
821.1567176464477
 20
1700.135356153194
 30
0.0
 10
820.2978410322605
 20
1700.631228797596
 30
0.0
 10
819.4259713374513
 20
1701.134603000592
 30
0.0
 10
818.6811260689497
 20
1701.564639616866
 30
0.0
  0
SPLINE
  5
107
330
F5
100
AcDbEntity
  8
P-SANR-FIXT
100
AcDbSpline
210
0.0
220
0.0
230
1.0
 70
    24
 71
     3
 72
     9
 73
     5
 74
     0
 42
0.000000001
 43
0.0000000001
 40
-1.0
 40
-1.0
 40
-1.0
 40
-1.0
 40
-0.5
 40
-0.4086978285981297
 40
-0.4086978285981297
 40
-0.4086978285981297
 40
-0.4086978285981297
 10
835.6516888174198
 20
1691.766680645738
 30
0.0
 10
834.9021918330446
 20
1692.199402931423
 30
0.0
 10
834.0295217552016
 20
1692.70323923578
 30
0.0
 10
833.1730395331531
 20
1693.197729477236
 30
0.0
 10
833.0411772188822
 20
1693.273860219876
 30
0.0
  0
SPLINE
  5
108
330
F5
100
AcDbEntity
  8
P-SANR-FIXT
100
AcDbSpline
210
0.0
220
0.0
230
1.0
 70
    24
 71
     3
 72
     9
 73
     5
 74
     0
 42
0.000000001
 43
0.0000000001
 40
-0.606332132348824
 40
-0.606332132348824
 40
-0.606332132348824
 40
-0.606332132348824
 40
-0.5
 40
0.0
 40
0.0
 40
0.0
 40
0.0
 10
838.6664074431875
 20
1683.538535088516
 30
0.0
 10
838.6664074431875
 20
1683.715246964521
 30
0.0
 10
838.6664074431875
 20
1684.721939336671
 30
0.0
 10
838.6664074431873
 20
1685.723143437102
 30
0.0
 10
838.6664074431875
 20
1686.545034815382
 30
0.0
  0
SPLINE
  5
109
330
F5
100
AcDbEntity
  8
P-SANR-FIXT
100
AcDbSpline
210
0.0
220
0.0
230
1.0
 70
    24
 71
     3
 72
     9
 73
     5
 74
     0
 42
0.000000001
 43
0.0000000001
 40
-1.0
 40
-1.0
 40
-1.0
 40
-1.0
 40
-0.5
 40
-0.4086978285966502
 40
-0.4086978285966502
 40
-0.4086978285966502
 40
-0.4086978285966502
 10
818.6811260689491
 20
1651.92951207165
 30
0.0
 10
819.4306230533241
 20
1652.362234357336
 30
0.0
 10
820.3032931311694
 20
1652.866070661693
 30
0.0
 10
821.1597753532204
 20
1653.360560903151
 30
0.0
 10
821.2916376674934
 20
1653.436691645792
 30
0.0
  0
SPLINE
  5
10A
330
F5
100
AcDbEntity
  8
P-SANR-FIXT
100
AcDbSpline
210
0.0
220
0.0
230
1.0
 70
    24
 71
     3
 72
     8
 73
     4
 74
     0
 42
0.000000001
 43
0.0000000001
 40
-0.3430791307196395
 40
-0.3430791307196395
 40
-0.3430791307196395
 40
-0.3430791307196395
 40
0.0
 40
0.0
 40
0.0
 40
0.0
 10
811.1315070679257
 20
1652.807189413941
 30
0.0
 10
811.6338798331179
 20
1652.517144362724
 30
0.0
 10
812.1406070829518
 20
1652.224585248626
 30
0.0
 10
812.6516888174272
 20
1651.929512071649
 30
0.0
  0
SPLINE
  5
10B
330
F5
100
AcDbEntity
  8
P-SANR-FIXT
100
AcDbSpline
210
0.0
220
0.0
230
1.0
 70
    24
 71
     3
 72
     9
 73
     5
 74
     0
 42
0.000000001
 43
0.0000000001
 40
-1.0
 40
-1.0
 40
-1.0
 40
-1.0
 40
-0.5
 40
-0.3936678676511216
 40
-0.3936678676511216
 40
-0.3936678676511216
 40
-0.3936678676511216
 10
838.6664074431873
 20
1666.949116873134
 30
0.0
 10
838.6664074431873
 20
1667.771008251413
 30
0.0
 10
838.6664074431873
 20
1668.772212351845
 30
0.0
 10
838.6664074431873
 20
1669.778904723995
 30
0.0
 10
838.6664074431873
 20
1669.9556166
 30
0.0
  0
SPLINE
  5
10C
330
F5
100
AcDbEntity
  8
P-SANR-FIXT
100
AcDbSpline
210
0.0
220
0.0
230
1.0
 70
    24
 71
     3
 72
     9
 73
     5
 74
     0
 42
0.000000001
 43
0.0000000001
 40
-0.5926277533622436
 40
-0.5926277533622436
 40
-0.5926277533622436
 40
-0.5926277533622436
 40
-0.5
 40
0.0
 40
0.0
 40
0.0
 40
0.0
 10
833.0421721908388
 20
1660.220865915967
 30
0.0
 10
833.1760972399266
 20
1660.29818757911
 30
0.0
 10
834.0349738541112
 20
1660.79406022351
 30
0.0
 10
834.9068435489179
 20
1661.297434426504
 30
0.0
 10
835.6516888174192
 20
1661.727471042778
 30
0.0
  0
ARC
  5
10D
330
F5
100
AcDbEntity
  8
P-SANR-FIXT
100
AcDbCircle
 10
815.6664074431834
 20
1676.747075844258
 30
0.0
 40
25.00000000000025
100
AcDbArc
 50
83.07391806561941
 51
96.92608193435463
  0
ARC
  5
10E
330
F5
100
AcDbEntity
  8
P-SANR-FIXT
100
AcDbCircle
 10
815.6664074431834
 20
1676.747075844258
 30
0.0
 40
25.00000000000023
100
AcDbArc
 50
23.07391806560813
 51
36.92608193437821
  0
ARC
  5
10F
330
F5
100
AcDbEntity
  8
P-SANR-FIXT
100
AcDbCircle
 10
815.6664074431834
 20
1676.747075844258
 30
0.0
 40
25.00000000000026
100
AcDbArc
 50
263.0739180656426
 51
276.9260819343776
  0
ARC
  5
110
330
F5
100
AcDbEntity
  8
P-SANR-FIXT
100
AcDbCircle
 10
815.6664074431834
 20
1676.747075844258
 30
0.0
 40
25.00000000000019
100
AcDbArc
 50
323.0739180656195
 51
336.9260819343898
  0
ARC
  5
111
330
F5
100
AcDbEntity
  8
P-SANR-FIXT
100
AcDbCircle
 10
815.6664074431835
 20
1676.747075844258
 30
0.0
 40
25.00000000000289
100
AcDbArc
 50
96.92608193435518
 51
106.1548076920635
  0
ARC
  5
112
330
F5
100
AcDbEntity
  8
P-SANR-FIXT
100
AcDbCircle
 10
815.6664074431835
 20
1676.747075844258
 30
0.0
 40
25.00000000000296
100
AcDbArc
 50
36.92608193437802
 51
83.07391806562014
  0
ARC
  5
113
330
F5
100
AcDbEntity
  8
P-SANR-FIXT
100
AcDbCircle
 10
815.6664074431835
 20
1676.747075844258
 30
0.0
 40
25.00000000000278
100
AcDbArc
 50
11.53695903281516
 51
23.07391806560968
  0
ARC
  5
114
330
F5
100
AcDbEntity
  8
P-SANR-FIXT
100
AcDbCircle
 10
815.6664074431835
 20
1676.747075844258
 30
0.0
 40
25.00000000000285
100
AcDbArc
 50
336.9260819343898
 51
348.4630409671839
  0
ARC
  5
115
330
F5
100
AcDbEntity
  8
P-SANR-FIXT
100
AcDbCircle
 10
815.6664074431835
 20
1676.747075844258
 30
0.0
 40
25.0000000000028
100
AcDbArc
 50
276.926081934378
 51
323.0739180656211
  0
ARC
  5
116
330
F5
100
AcDbEntity
  8
P-SANR-FIXT
100
AcDbCircle
 10
815.6664074431835
 20
1676.747075844258
 30
0.0
 40
25.00000000000277
100
AcDbArc
 50
253.7133682894276
 51
263.0739180656428
  0
ARC
  5
117
330
F5
100
AcDbEntity
  8
P-SANR-FIXT
100
AcDbCircle
 10
815.6664074431855
 20
1676.747075844258
 30
0.0
 40
39.9999999999981
100
AcDbArc
 50
4.736247486547791
 51
4.999999999999702
  0
ARC
  5
118
330
F5
100
AcDbEntity
  8
P-SANR-FIXT
100
AcDbCircle
 10
815.6664074431855
 20
1676.747075844258
 30
0.0
 40
39.99999999999806
100
AcDbArc
 50
9.474209605904928
 51
9.999999999999641
  0
ARC
  5
119
330
F5
100
AcDbEntity
  8
P-SANR-FIXT
100
AcDbCircle
 10
815.6664074431855
 20
1676.747075844258
 30
0.0
 40
39.99999999999793
100
AcDbArc
 50
14.21362978508414
 51
14.99999999999921
  0
ARC
  5
11A
330
F5
100
AcDbEntity
  8
P-SANR-FIXT
100
AcDbCircle
 10
815.6664074431855
 20
1676.747075844258
 30
0.0
 40
39.99999999999796
100
AcDbArc
 50
18.9542913749619
 51
19.99999999999922
  0
ARC
  5
11B
330
F5
100
AcDbEntity
  8
P-SANR-FIXT
100
AcDbCircle
 10
815.6664074431855
 20
1676.747075844258
 30
0.0
 40
39.99999999999809
100
AcDbArc
 50
23.69600929555998
 51
66.28112509833719
  0
ARC
  5
11C
330
F5
100
AcDbEntity
  8
P-SANR-FIXT
100
AcDbCircle
 10
815.6664074431855
 20
1676.747075844258
 30
0.0
 40
39.99999999999803
100
AcDbArc
 50
69.99999999999956
 51
71.02283165060805
  0
ARC
  5
11D
330
F5
100
AcDbEntity
  8
P-SANR-FIXT
100
AcDbCircle
 10
815.6664074431855
 20
1676.747075844258
 30
0.0
 40
39.9999999999981
100
AcDbArc
 50
74.99999999999956
 51
75.76919107130693
  0
ARC
  5
11E
330
F5
100
AcDbEntity
  8
P-SANR-FIXT
100
AcDbCircle
 10
815.6664074431855
 20
1676.747075844258
 30
0.0
 40
39.99999999999809
100
AcDbArc
 50
79.99999999999966
 51
80.51431516195512
  0
ARC
  5
11F
330
F5
100
AcDbEntity
  8
P-SANR-FIXT
100
AcDbCircle
 10
815.6664074431855
 20
1676.747075844258
 30
0.0
 40
39.99999999999816
100
AcDbArc
 50
84.99999999999964
 51
85.25799950683287
  0
ARC
  5
120
330
F5
100
AcDbEntity
  8
P-SANR-FIXT
100
AcDbCircle
 10
815.6664074431855
 20
1676.747075844258
 30
0.0
 40
39.99999999999814
100
AcDbArc
 50
94.74200049316044
 51
94.99999999999959
  0
ARC
  5
121
330
F5
100
AcDbEntity
  8
P-SANR-FIXT
100
AcDbCircle
 10
815.6664074431855
 20
1676.747075844258
 30
0.0
 40
39.99999999999817
100
AcDbArc
 50
99.48568483803795
 51
99.99999999999971
  0
ARC
  5
122
330
F5
100
AcDbEntity
  8
P-SANR-FIXT
100
AcDbCircle
 10
815.6664074431855
 20
1676.747075844258
 30
0.0
 40
39.99999999999809
100
AcDbArc
 50
104.2308089286863
 51
104.9999999999995
  0
ARC
  5
123
330
F5
100
AcDbEntity
  8
P-SANR-FIXT
100
AcDbCircle
 10
815.6664074431855
 20
1676.747075844258
 30
0.0
 40
39.99999999999824
100
AcDbArc
 50
108.9771683493852
 51
109.9999999999993
  0
ARC
  5
124
330
F5
100
AcDbEntity
  8
P-SANR-FIXT
100
AcDbCircle
 10
815.6664074431855
 20
1676.747075844258
 30
0.0
 40
39.9999999999983
100
AcDbArc
 50
113.7188749016563
 51
143.0913204581313
  0
ARC
  5
125
330
F5
100
AcDbEntity
  8
P-SANR-FIXT
100
AcDbCircle
 10
815.6664074431855
 20
1676.747075844258
 30
0.0
 40
39.99999999999806
100
AcDbArc
 50
216.8674005910347
 51
246.2811250983428
  0
ARC
  5
126
330
F5
100
AcDbEntity
  8
P-SANR-FIXT
100
AcDbCircle
 10
815.6664074431855
 20
1676.747075844258
 30
0.0
 40
39.99999999999793
100
AcDbArc
 50
249.9999999999992
 51
251.0228316506133
  0
ARC
  5
127
330
F5
100
AcDbEntity
  8
P-SANR-FIXT
100
AcDbCircle
 10
815.6664074431855
 20
1676.747075844258
 30
0.0
 40
39.99999999999807
100
AcDbArc
 50
254.9999999999994
 51
255.7691910713125
  0
ARC
  5
128
330
F5
100
AcDbEntity
  8
P-SANR-FIXT
100
AcDbCircle
 10
815.6664074431855
 20
1676.747075844258
 30
0.0
 40
39.99999999999797
100
AcDbArc
 50
259.9999999999992
 51
260.5143151619611
  0
ARC
  5
129
330
F5
100
AcDbEntity
  8
P-SANR-FIXT
100
AcDbCircle
 10
815.6664074431855
 20
1676.747075844258
 30
0.0
 40
39.99999999999793
100
AcDbArc
 50
264.9999999999993
 51
265.2579995068383
  0
ARC
  5
12A
330
F5
100
AcDbEntity
  8
P-SANR-FIXT
100
AcDbCircle
 10
815.6664074431855
 20
1676.747075844258
 30
0.0
 40
39.99999999999793
100
AcDbArc
 50
274.7420004931663
 51
274.9999999999994
  0
ARC
  5
12B
330
F5
100
AcDbEntity
  8
P-SANR-FIXT
100
AcDbCircle
 10
815.6664074431855
 20
1676.747075844258
 30
0.0
 40
39.99999999999791
100
AcDbArc
 50
279.4856848380433
 51
279.9999999999993
  0
ARC
  5
12C
330
F5
100
AcDbEntity
  8
P-SANR-FIXT
100
AcDbCircle
 10
815.6664074431855
 20
1676.747075844258
 30
0.0
 40
39.99999999999797
100
AcDbArc
 50
284.2308089286919
 51
284.9999999999992
  0
ARC
  5
12D
330
F5
100
AcDbEntity
  8
P-SANR-FIXT
100
AcDbCircle
 10
815.6664074431855
 20
1676.747075844258
 30
0.0
 40
39.99999999999803
100
AcDbArc
 50
288.9771683493905
 51
289.9999999999993
  0
ARC
  5
12E
330
F5
100
AcDbEntity
  8
P-SANR-FIXT
100
AcDbCircle
 10
815.6664074431855
 20
1676.747075844258
 30
0.0
 40
39.99999999999808
100
AcDbArc
 50
293.7188749016625
 51
336.3039907044389
  0
ARC
  5
12F
330
F5
100
AcDbEntity
  8
P-SANR-FIXT
100
AcDbCircle
 10
815.6664074431855
 20
1676.747075844258
 30
0.0
 40
39.99999999999788
100
AcDbArc
 50
339.9999999999994
 51
341.0457086250375
  0
ARC
  5
130
330
F5
100
AcDbEntity
  8
P-SANR-FIXT
100
AcDbCircle
 10
815.6664074431855
 20
1676.747075844258
 30
0.0
 40
39.9999999999981
100
AcDbArc
 50
344.9999999999994
 51
345.7863702149146
  0
ARC
  5
131
330
F5
100
AcDbEntity
  8
P-SANR-FIXT
100
AcDbCircle
 10
815.6664074431855
 20
1676.747075844258
 30
0.0
 40
39.99999999999797
100
AcDbArc
 50
349.999999999999
 51
350.5257903940944
  0
ARC
  5
132
330
F5
100
AcDbEntity
  8
P-SANR-FIXT
100
AcDbCircle
 10
815.6664074431855
 20
1676.747075844258
 30
0.0
 40
39.99999999999793
100
AcDbArc
 50
354.999999999999
 51
355.2637525134512
  0
ARC
  5
133
330
F5
100
AcDbEntity
  8
P-SANR-FIXT
100
AcDbCircle
 10
815.6664074431844
 20
1676.747075844258
 30
0.0
 40
39.99999999999988
100
AcDbArc
 50
108.9655749888443
 51
143.1065378035228
  0
ARC
  5
134
330
F5
100
AcDbEntity
  8
P-SANR-FIXT
100
AcDbCircle
 10
815.6664074431844
 20
1676.747075844258
 30
0.0
 40
39.99999999999993
100
AcDbArc
 50
72.33025401333019
 51
107.6697459866609
  0
ARC
  5
135
330
F5
100
AcDbEntity
  8
P-SANR-FIXT
100
AcDbCircle
 10
815.6664074431844
 20
1676.747075844258
 30
0.0
 40
40.00000000000007
100
AcDbArc
 50
359.9999999999993
 51
71.03442501114648
  0
ARC
  5
136
330
F5
100
AcDbEntity
  8
P-SANR-FIXT
100
AcDbCircle
 10
815.6664074431844
 20
1676.747075844258
 30
0.0
 40
39.99999999999972
100
AcDbArc
 50
288.9655749888532
 51
359.9999999999995
  0
ARC
  5
137
330
F5
100
AcDbEntity
  8
P-SANR-FIXT
100
AcDbCircle
 10
815.6664074431844
 20
1676.747075844258
 30
0.0
 40
39.99999999999984
100
AcDbArc
 50
252.3302540133386
 51
287.6697459866693
  0
ARC
  5
138
330
F5
100
AcDbEntity
  8
P-SANR-FIXT
100
AcDbCircle
 10
815.6664074431844
 20
1676.747075844258
 30
0.0
 40
39.99999999999998
100
AcDbArc
 50
216.8534136607347
 51
251.034425011156
  0
ARC
  5
139
330
F5
100
AcDbEntity
  8
P-SANR-FIXT
100
AcDbCircle
 10
815.6664074431844
 20
1676.747075844258
 30
0.0
 40
37.31923062280504
100
AcDbArc
 50
359.9999999999992
 51
69.61382530378398
  0
SPLINE
  5
13A
330
F5
100
AcDbEntity
  8
P-SANR-FIXT
100
AcDbSpline
210
0.0
220
0.0
230
1.0
 70
     8
 71
     3
 72
    13
 73
     9
 74
     0
 42
0.000000001
 43
0.0000000001
 40
-1.0
 40
-1.0
 40
-1.0
 40
-1.0
 40
-0.7857142857142857
 40
-0.5714285714285714
 40
-0.4285714285714286
 40
-0.2857142857142857
 40
-0.1428571428571428
 40
0.0
 40
0.0
 40
0.0
 40
0.0
 10
828.6664074431875
 20
1711.728856448996
 30
0.0
 10
828.4496530510907
 20
1711.810968812236
 30
0.0
 10
828.0053502084514
 20
1711.939421666607
 30
0.0
 10
827.4580102320728
 20
1712.004241974046
 30
0.0
 10
827.0775360189885
 20
1711.971403699195
 30
0.0
 10
826.8389144845352
 20
1711.889422532337
 30
0.0
 10
826.696813891521
 20
1711.761828641243
 30
0.0
 10
826.6664074431876
 20
1711.656139489704
 30
0.0
 10
826.6664074431876
 20
1711.59732311412
 30
0.0
  0
SPLINE
  5
13B
330
F5
100
AcDbEntity
  8
P-SANR-FIXT
100
AcDbSpline
210
0.0
220
0.0
230
1.0
 70
     8
 71
     3
 72
    15
 73
    11
 74
     0
 42
0.000000001
 43
0.0000000001
 40
-1.0
 40
-1.0
 40
-1.0
 40
-1.0
 40
-0.7857142857142857
 40
-0.7321428571428572
 40
-0.6785714285714287
 40
-0.5714285714285714
 40
-0.4285714285714286
 40
-0.2857142857142857
 40
-0.1428571428571428
 40
0.0
 40
0.0
 40
0.0
 40
0.0
 10
804.6664074431875
 20
1711.597323114122
 30
0.0
 10
804.6664074431875
 20
1711.685712289589
 30
0.0
 10
804.6231683947116
 20
1711.780473238107
 30
0.0
 10
804.5027157180513
 20
1711.869960660265
 30
0.0
 10
804.4044238889636
 20
1711.920108818729
 30
0.0
 10
804.2273634230888
 20
1711.974182049779
 30
0.0
 10
803.9281886378434
 20
1711.99919738196
 30
0.0
 10
803.5348334460222
 20
1711.967164476706
 30
0.0
 10
803.1032336628108
 20
1711.875752933397
 30
0.0
 10
802.8106137787476
 20
1711.783500227805
 30
0.0
 10
802.6664074431874
 20
1711.728856448998
 30
0.0
  0
ARC
  5
13C
330
F5
100
AcDbEntity
  8
P-SANR-FIXT
100
AcDbCircle
 10
815.6664074431844
 20
1676.747075844258
 30
0.0
 40
37.31923062280433
100
AcDbArc
 50
110.3861746962054
 51
139.97738852746
  0
ARC
  5
13D
330
F5
100
AcDbEntity
  8
P-SANR-FIXT
100
AcDbCircle
 10
815.6664074431844
 20
1676.747075844258
 30
0.0
 40
37.31923062280433
100
AcDbArc
 50
220.0377626656892
 51
249.6138253037938
  0
SPLINE
  5
13E
330
F5
100
AcDbEntity
  8
P-SANR-FIXT
100
AcDbSpline
210
0.0
220
0.0
230
1.0
 70
     8
 71
     3
 72
    13
 73
     9
 74
     0
 42
0.000000001
 43
0.0000000001
 40
-1.0
 40
-1.0
 40
-1.0
 40
-1.0
 40
-0.7857142857142857
 40
-0.5714285714285714
 40
-0.4285714285714286
 40
-0.2857142857142857
 40
-0.1428571428571428
 40
0.0
 40
0.0
 40
0.0
 40
0.0
 10
802.6664074431872
 20
1641.765295239518
 30
0.0
 10
802.8827169465277
 20
1641.683329571307
 30
0.0
 10
803.3264933296056
 20
1641.554969246331
 30
0.0
 10
803.8738653717979
 20
1641.489938274675
 30
0.0
 10
804.2545747106249
 20
1641.522604919845
 30
0.0
 10
804.493495777795
 20
1641.60449419952
 30
0.0
 10
804.6358696906773
 20
1641.732058792557
 30
0.0
 10
804.6664074431872
 20
1641.837902457417
 30
0.0
 10
804.6664074431872
 20
1641.896828574395
 30
0.0
  0
SPLINE
  5
13F
330
F5
100
AcDbEntity
  8
P-SANR-FIXT
100
AcDbSpline
210
0.0
220
0.0
230
1.0
 70
     8
 71
     3
 72
    15
 73
    11
 74
     0
 42
0.000000001
 43
0.0000000001
 40
-1.0
 40
-1.0
 40
-1.0
 40
-1.0
 40
-0.7857142857142857
 40
-0.7321428571428572
 40
-0.6785714285714287
 40
-0.5714285714285714
 40
-0.4285714285714286
 40
-0.2857142857142857
 40
-0.1428571428571428
 40
0.0
 40
0.0
 40
0.0
 40
0.0
 10
826.6664074431874
 20
1641.896828574396
 30
0.0
 10
826.6664074431874
 20
1641.80860401102
 30
0.0
 10
826.7094716977087
 20
1641.713942632799
 30
0.0
 10
826.8297276917646
 20
1641.624421268209
 30
0.0
 10
826.9278719652115
 20
1641.574248999589
 30
0.0
 10
827.1047330118896
 20
1641.520098852065
 30
0.0
 10
827.4037110367467
 20
1641.494946363477
 30
0.0
 10
827.7970506824985
 20
1641.526844342356
 30
0.0
 10
828.2288121393246
 20
1641.618172459455
 30
0.0
 10
828.5219045151228
 20
1641.710553664027
 30
0.0
 10
828.6664074431872
 20
1641.76529523952
 30
0.0
  0
ARC
  5
140
330
F5
100
AcDbEntity
  8
P-SANR-FIXT
100
AcDbCircle
 10
815.6664074431844
 20
1676.747075844258
 30
0.0
 40
37.31923062280489
100
AcDbArc
 50
290.3861746962154
 51
359.9999999999992
  0
LINE
  5
141
330
F5
100
AcDbEntity
  8
P-SANR-FIXT
100
AcDbLine
 10
756.6664074431248
 20
1697.947075844262
 30
0.0
 11
756.6664074431248
 21
1676.747075844259
 31
0.0
  0
LINE
  5
142
330
F5
100
AcDbEntity
  8
P-SANR-FIXT
100
AcDbLine
 10
804.6664074431875
 20
1714.398953510315
 30
0.0
 11
804.6664074431875
 21
1704.550030158659
 31
0.0
  0
SPLINE
  5
143
330
F5
100
AcDbEntity
  8
P-SANR-FIXT
100
AcDbSpline
210
0.0
220
0.0
230
1.0
 70
     8
 71
     3
 72
    14
 73
    10
 74
     0
 42
0.000000001
 43
0.0000000001
 40
-1.0
 40
-1.0
 40
-1.0
 40
-1.0
 40
-0.8571428571428571
 40
-0.7142857142857143
 40
-0.5714285714285714
 40
-0.4285714285714286
 40
-0.2857142857142857
 40
-0.1428571428571428
 40
0.0
 40
0.0
 40
0.0
 40
0.0
 10
804.6664074431875
 20
1704.550030158653
 30
0.0
 10
804.6664074431875
 20
1704.413547332819
 30
0.0
 10
804.5884049751196
 20
1704.122659564387
 30
0.0
 10
804.2649846719225
 20
1703.624134469374
 30
0.0
 10
803.7667662003824
 20
1703.088697208212
 30
0.0
 10
803.1265401087468
 20
1702.526624540471
 30
0.0
 10
802.3763882948188
 20
1701.950166689717
 30
0.0
 10
801.5485252054205
 20
1701.368751838043
 30
0.0
 10
800.9612187727196
 20
1700.992214290407
 30
0.0
 10
800.6664074431876
 20
1700.805515519896
 30
0.0
  0
ARC
  5
144
330
F5
100
AcDbEntity
  8
P-SANR-FIXT
100
AcDbCircle
 10
815.6664074431837
 20
1676.747075844258
 30
0.0
 40
28.35151706040091
100
AcDbArc
 50
121.9427897112919
 51
122.1929803428394
  0
ARC
  5
145
330
F5
100
AcDbEntity
  8
P-SANR-FIXT
100
AcDbCircle
 10
815.6664074431837
 20
1676.747075844258
 30
0.0
 40
27.99999523162874
100
AcDbArc
 50
35.3681988941133
 51
36.01646877931179
  0
ARC
  5
146
330
F5
100
AcDbEntity
  8
P-SANR-FIXT
100
AcDbCircle
 10
815.6664074431837
 20
1676.747075844258
 30
0.0
 40
27.9999952316288
100
AcDbArc
 50
39.92084898626855
 51
40.51801041371864
  0
ARC
  5
147
330
F5
100
AcDbEntity
  8
P-SANR-FIXT
100
AcDbCircle
 10
815.6664074431837
 20
1676.747075844258
 30
0.0
 40
27.99999523162875
100
AcDbArc
 50
44.47349907842362
 51
44.98240896932928
  0
ARC
  5
148
330
F5
100
AcDbEntity
  8
P-SANR-FIXT
100
AcDbCircle
 10
815.6664074431837
 20
1676.747075844258
 30
0.0
 40
27.99999523162871
100
AcDbArc
 50
49.02614917057903
 51
49.48631114024965
  0
ARC
  5
149
330
F5
100
AcDbEntity
  8
P-SANR-FIXT
100
AcDbCircle
 10
815.6664074431837
 20
1676.747075844258
 30
0.0
 40
27.99999523162869
100
AcDbArc
 50
53.57879926273447
 51
53.98953668295143
  0
ARC
  5
14A
330
F5
100
AcDbEntity
  8
P-SANR-FIXT
100
AcDbCircle
 10
815.6664074431837
 20
1676.747075844258
 30
0.0
 40
27.99999523162871
100
AcDbArc
 50
58.13144935488948
 51
58.49220812827287
  0
ARC
  5
14B
330
F5
100
AcDbEntity
  8
P-SANR-FIXT
100
AcDbCircle
 10
815.6664074431837
 20
1676.747075844258
 30
0.0
 40
27.99999523162875
100
AcDbArc
 50
62.68409944704502
 51
62.9944104438303
  0
ARC
  5
14C
330
F5
100
AcDbEntity
  8
P-SANR-FIXT
100
AcDbCircle
 10
815.6664074431837
 20
1676.747075844258
 30
0.0
 40
27.99999523162879
100
AcDbArc
 50
67.23674953920036
 51
67.49620277334003
  0
ARC
  5
14D
330
F5
100
AcDbEntity
  8
P-SANR-FIXT
100
AcDbCircle
 10
815.6664074431837
 20
1676.747075844258
 30
0.0
 40
27.99999523162871
100
AcDbArc
 50
71.78939963135554
 51
71.99762571677722
  0
ARC
  5
14E
330
F5
100
AcDbEntity
  8
P-SANR-FIXT
100
AcDbCircle
 10
815.6664074431837
 20
1676.747075844258
 30
0.0
 40
27.99999523162873
100
AcDbArc
 50
76.34204972351084
 51
76.49870592064314
  0
ARC
  5
14F
330
F5
100
AcDbEntity
  8
P-SANR-FIXT
100
AcDbCircle
 10
815.6664074431837
 20
1676.747075844258
 30
0.0
 40
27.99999523162871
100
AcDbArc
 50
80.89469981566614
 51
80.99945895931105
  0
LINE
  5
150
330
F5
100
AcDbEntity
  8
P-SANR-FIXT
100
AcDbLine
 10
817.888911186777
 20
1704.658725922334
 30
0.0
 11
817.8633148221599
 21
1704.660752258149
 31
0.0
  0
LINE
  5
151
330
F5
100
AcDbEntity
  8
P-SANR-FIXT
100
AcDbLine
 10
813.4695000642079
 20
1704.660752258149
 30
0.0
 11
813.4439036996131
 21
1704.658725922336
 31
0.0
  0
ARC
  5
152
330
F5
100
AcDbEntity
  8
P-SANR-FIXT
100
AcDbCircle
 10
815.6664074431837
 20
1676.747075844258
 30
0.0
 40
27.99999523162874
100
AcDbArc
 50
99.00054104068827
 51
99.10530018428726
  0
ARC
  5
153
330
F5
100
AcDbEntity
  8
P-SANR-FIXT
100
AcDbCircle
 10
815.6664074431837
 20
1676.747075844258
 30
0.0
 40
27.99999523162866
100
AcDbArc
 50
103.5012940793555
 51
103.6579502764427
  0
ARC
  5
154
330
F5
100
AcDbEntity
  8
P-SANR-FIXT
100
AcDbCircle
 10
815.6664074431837
 20
1676.747075844258
 30
0.0
 40
27.99999523162869
100
AcDbArc
 50
108.0023742832213
 51
108.2106003685982
  0
ARC
  5
155
330
F5
100
AcDbEntity
  8
P-SANR-FIXT
100
AcDbCircle
 10
815.6664074431837
 20
1676.747075844258
 30
0.0
 40
27.99999523162871
100
AcDbArc
 50
112.5037972266585
 51
112.763250460753
  0
ARC
  5
156
330
F5
100
AcDbEntity
  8
P-SANR-FIXT
100
AcDbCircle
 10
815.6664074431837
 20
1676.747075844258
 30
0.0
 40
27.99999523162863
100
AcDbArc
 50
117.0055895561682
 51
117.3159005529089
  0
SPLINE
  5
157
330
F5
100
AcDbEntity
  8
P-SANR-FIXT
100
AcDbSpline
210
0.0
220
0.0
230
1.0
 70
     8
 71
     3
 72
     9
 73
     5
 74
     0
 42
0.000000001
 43
0.0000000001
 40
-0.955125171409071
 40
-0.955125171409071
 40
-0.955125171409071
 40
-0.955125171409071
 40
-0.5
 40
0.0
 40
0.0
 40
0.0
 40
0.0
 10
838.3320847623931
 20
1693.209939262265
 30
0.0
 10
837.7639162972945
 20
1694.070893119471
 30
0.0
 10
836.4876460665984
 20
1695.805988056501
 30
0.0
 10
835.0352770937293
 20
1697.39060955797
 30
0.0
 10
834.226715435723
 20
1698.178909336713
 30
0.0
  0
ARC
  5
158
330
F5
100
AcDbEntity
  8
P-SANR-FIXT
100
AcDbCircle
 10
815.6664074431837
 20
1676.747075844258
 30
0.0
 40
28.35151706040119
100
AcDbArc
 50
49.10691739358107
 51
58.05721028868884
  0
SPLINE
  5
159
330
F5
100
AcDbEntity
  8
P-SANR-FIXT
100
AcDbSpline
210
0.0
220
0.0
230
1.0
 70
     8
 71
     3
 72
    14
 73
    10
 74
     0
 42
0.000000001
 43
0.0000000001
 40
-1.0
 40
-1.0
 40
-1.0
 40
-1.0
 40
-0.8571428571428571
 40
-0.7142857142857144
 40
-0.5714285714285714
 40
-0.4285714285714286
 40
-0.2857142857142857
 40
-0.1428571428571428
 40
0.0
 40
0.0
 40
0.0
 40
0.0
 10
830.6664074431875
 20
1700.805515519892
 30
0.0
 10
830.3720466082438
 20
1700.991919440495
 30
0.0
 10
829.7854016501284
 20
1701.368018171773
 30
0.0
 10
828.9575175745754
 20
1701.949365741384
 30
0.0
 10
828.2071159338583
 20
1702.525932376248
 30
0.0
 10
827.5665046250885
 20
1703.088244325182
 30
0.0
 10
827.068013151036
 20
1703.623892603755
 30
0.0
 10
826.7444682378084
 20
1704.122513646032
 30
0.0
 10
826.6664074431874
 20
1704.413499197632
 30
0.0
 10
826.6664074431874
 20
1704.550030158651
 30
0.0
  0
LINE
  5
15A
330
F5
100
AcDbEntity
  8
P-SANR-FIXT
100
AcDbLine
 10
826.6664074431874
 20
1704.550030158645
 30
0.0
 11
826.6664074431876
 21
1714.398953510302
 31
0.0
  0
SPLINE
  5
15B
330
F5
100
AcDbEntity
  8
P-SANR-FIXT
100
AcDbSpline
210
0.0
220
0.0
230
1.0
 70
     8
 71
     3
 72
    15
 73
    11
 74
     0
 42
0.000000001
 43
0.0000000001
 40
-1.0
 40
-1.0
 40
-1.0
 40
-1.0
 40
-0.7857142857142857
 40
-0.7321428571428572
 40
-0.6785714285714287
 40
-0.5714285714285714
 40
-0.4285714285714286
 40
-0.2857142857142857
 40
-0.1428571428571428
 40
0.0
 40
0.0
 40
0.0
 40
0.0
 10
826.6664074431876
 20
1714.398953510308
 30
0.0
 10
826.6664074431876
 20
1714.486515892839
 30
0.0
 10
826.709422589101
 20
1714.581372133595
 30
0.0
 10
826.8291267210564
 20
1714.672676565059
 30
0.0
 10
826.9267983410228
 20
1714.724576169143
 30
0.0
 10
827.1027124720317
 20
1714.782165744219
 30
0.0
 10
827.4003131116778
 20
1714.814074076635
 30
0.0
 10
827.7929744485286
 20
1714.79188428876
 30
0.0
 10
828.2258466949819
 20
1714.711657304851
 30
0.0
 10
828.520761609381
 20
1714.626630919355
 30
0.0
 10
828.6664074431875
 20
1714.575636483013
 30
0.0
  0
SPLINE
  5
15C
330
F5
100
AcDbEntity
  8
P-SANR-FIXT
100
AcDbSpline
210
0.0
220
0.0
230
1.0
 70
     8
 71
     3
 72
    13
 73
     9
 74
     0
 42
0.000000001
 43
0.0000000001
 40
-1.0
 40
-1.0
 40
-1.0
 40
-1.0
 40
-0.7857142857142857
 40
-0.5714285714285714
 40
-0.4285714285714286
 40
-0.2857142857142857
 40
-0.1428571428571428
 40
0.0
 40
0.0
 40
0.0
 40
0.0
 10
802.6664074431874
 20
1714.575636483015
 30
0.0
 10
802.8848761938972
 20
1714.652128137528
 30
0.0
 10
803.3316082630303
 20
1714.769353324383
 30
0.0
 10
803.8784783208953
 20
1714.820315480243
 30
0.0
 10
804.2571631956645
 20
1714.778918254194
 30
0.0
 10
804.4945064427921
 20
1714.69237949609
 30
0.0
 10
804.6360254782669
 20
1714.562892925272
 30
0.0
 10
804.6664074431875
 20
1714.457328431996
 30
0.0
 10
804.6664074431875
 20
1714.398953510309
 30
0.0
  0
LINE
  5
15D
330
F5
100
AcDbEntity
  8
P-SANR-FIXT
100
AcDbLine
 10
804.6664074431873
 20
1648.944121529869
 30
0.0
 11
804.6664074431872
 21
1639.095198178214
 31
0.0
  0
SPLINE
  5
15E
330
F5
100
AcDbEntity
  8
P-SANR-FIXT
100
AcDbSpline
210
0.0
220
0.0
230
1.0
 70
     8
 71
     3
 72
    15
 73
    11
 74
     0
 42
0.000000001
 43
0.0000000001
 40
-1.0
 40
-1.0
 40
-1.0
 40
-1.0
 40
-0.7857142857142857
 40
-0.7321428571428572
 40
-0.6785714285714287
 40
-0.5714285714285714
 40
-0.4285714285714286
 40
-0.2857142857142857
 40
-0.1428571428571428
 40
0.0
 40
0.0
 40
0.0
 40
0.0
 10
804.6664074431872
 20
1639.095198178207
 30
0.0
 10
804.6664074431872
 20
1639.007635795676
 30
0.0
 10
804.6233922972737
 20
1638.912779554919
 30
0.0
 10
804.5036881653183
 20
1638.821475123456
 30
0.0
 10
804.4060165453521
 20
1638.769575519372
 30
0.0
 10
804.2301024143432
 20
1638.711985944296
 30
0.0
 10
803.9325017746969
 20
1638.680077611879
 30
0.0
 10
803.5398404378463
 20
1638.702267399755
 30
0.0
 10
803.106968191393
 20
1638.782494383664
 30
0.0
 10
802.8120532769939
 20
1638.867520769159
 30
0.0
 10
802.6664074431872
 20
1638.918515205501
 30
0.0
  0
SPLINE
  5
15F
330
F5
100
AcDbEntity
  8
P-SANR-FIXT
100
AcDbSpline
210
0.0
220
0.0
230
1.0
 70
     8
 71
     3
 72
    13
 73
     9
 74
     0
 42
0.000000001
 43
0.0000000001
 40
-1.0
 40
-1.0
 40
-1.0
 40
-1.0
 40
-0.7857142857142857
 40
-0.5714285714285714
 40
-0.4285714285714286
 40
-0.2857142857142857
 40
-0.1428571428571428
 40
0.0
 40
0.0
 40
0.0
 40
0.0
 10
828.6664074431872
 20
1638.918515205504
 30
0.0
 10
828.4479386924777
 20
1638.84202355099
 30
0.0
 10
828.0012066233446
 20
1638.724798364135
 30
0.0
 10
827.4543365654796
 20
1638.673836208275
 30
0.0
 10
827.0756516907102
 20
1638.715233434324
 30
0.0
 10
826.8383084435825
 20
1638.801772192428
 30
0.0
 10
826.6967894081078
 20
1638.931258763246
 30
0.0
 10
826.6664074431874
 20
1639.036823256521
 30
0.0
 10
826.6664074431874
 20
1639.095198178209
 30
0.0
  0
LINE
  5
160
330
F5
100
AcDbEntity
  8
P-SANR-FIXT
100
AcDbLine
 10
826.6664074431874
 20
1639.095198178203
 30
0.0
 11
826.666407443187
 21
1648.94412152986
 31
0.0
  0
SPLINE
  5
161
330
F5
100
AcDbEntity
  8
P-SANR-FIXT
100
AcDbSpline
210
0.0
220
0.0
230
1.0
 70
     8
 71
     3
 72
    14
 73
    10
 74
     0
 42
0.000000001
 43
0.0000000001
 40
-1.0
 40
-1.0
 40
-1.0
 40
-1.0
 40
-0.8571428571428571
 40
-0.7142857142857143
 40
-0.5714285714285714
 40
-0.4285714285714286
 40
-0.2857142857142857
 40
-0.1428571428571428
 40
0.0
 40
0.0
 40
0.0
 40
0.0
 10
826.666407443187
 20
1648.944121529865
 30
0.0
 10
826.666407443187
 20
1649.080652490885
 30
0.0
 10
826.744468237808
 20
1649.371638042484
 30
0.0
 10
827.068013151036
 20
1649.87025908476
 30
0.0
 10
827.5665046250884
 20
1650.405907363334
 30
0.0
 10
828.2071159338581
 20
1650.968219312269
 30
0.0
 10
828.9575175745753
 20
1651.544785947132
 30
0.0
 10
829.7854016501281
 20
1652.126133516743
 30
0.0
 10
830.3720466082436
 20
1652.502232248021
 30
0.0
 10
830.6664074431873
 20
1652.688636168624
 30
0.0
  0
ARC
  5
162
330
F5
100
AcDbEntity
  8
P-SANR-FIXT
100
AcDbCircle
 10
815.6664074431837
 20
1676.747075844258
 30
0.0
 40
28.35151706040135
100
AcDbArc
 50
301.9427897113101
 51
310.8930826064183
  0
SPLINE
  5
163
330
F5
100
AcDbEntity
  8
P-SANR-FIXT
100
AcDbSpline
210
0.0
220
0.0
230
1.0
 70
     8
 71
     3
 72
     9
 73
     5
 74
     0
 42
0.000000001
 43
0.0000000001
 40
-1.0
 40
-1.0
 40
-1.0
 40
-1.0
 40
-0.5
 40
-0.0448748285909138
 40
-0.0448748285909138
 40
-0.0448748285909138
 40
-0.0448748285909138
 10
834.2267154357227
 20
1655.315242351803
 30
0.0
 10
835.0352770937291
 20
1656.103542130546
 30
0.0
 10
836.4876460665982
 20
1657.688163632015
 30
0.0
 10
837.7639162972945
 20
1659.423258569045
 30
0.0
 10
838.3320847623929
 20
1660.284212426251
 30
0.0
  0
ARC
  5
164
330
F5
100
AcDbEntity
  8
P-SANR-FIXT
100
AcDbCircle
 10
815.6664074431837
 20
1676.747075844258
 30
0.0
 40
27.99999523162887
100
AcDbArc
 50
242.68409944709
 51
242.9944104438305
  0
ARC
  5
165
330
F5
100
AcDbEntity
  8
P-SANR-FIXT
100
AcDbCircle
 10
815.6664074431837
 20
1676.747075844258
 30
0.0
 40
27.99999523162873
100
AcDbArc
 50
247.2367495392454
 51
247.4962027733401
  0
ARC
  5
166
330
F5
100
AcDbEntity
  8
P-SANR-FIXT
100
AcDbCircle
 10
815.6664074431837
 20
1676.747075844258
 30
0.0
 40
27.9999952316288
100
AcDbArc
 50
251.7893996314008
 51
251.9976257167773
  0
ARC
  5
167
330
F5
100
AcDbEntity
  8
P-SANR-FIXT
100
AcDbCircle
 10
815.6664074431837
 20
1676.747075844258
 30
0.0
 40
27.99999523162882
100
AcDbArc
 50
256.342049723556
 51
256.4987059206431
  0
ARC
  5
168
330
F5
100
AcDbEntity
  8
P-SANR-FIXT
100
AcDbCircle
 10
815.6664074431837
 20
1676.747075844258
 30
0.0
 40
27.99999523162882
100
AcDbArc
 50
260.8946998157113
 51
260.9994589593104
  0
LINE
  5
169
330
F5
100
AcDbEntity
  8
P-SANR-FIXT
100
AcDbLine
 10
813.4439036996125
 20
1648.835425766181
 30
0.0
 11
813.4695000642073
 21
1648.833399430367
 31
0.0
  0
LINE
  5
16A
330
F5
100
AcDbEntity
  8
P-SANR-FIXT
100
AcDbLine
 10
817.8633148221594
 20
1648.833399430367
 30
0.0
 11
817.8889111867766
 21
1648.835425766182
 31
0.0
  0
ARC
  5
16B
330
F5
100
AcDbEntity
  8
P-SANR-FIXT
100
AcDbCircle
 10
815.6664074431837
 20
1676.747075844258
 30
0.0
 40
27.99999523162874
100
AcDbArc
 50
279.0005410406879
 51
279.1053001843323
  0
ARC
  5
16C
330
F5
100
AcDbEntity
  8
P-SANR-FIXT
100
AcDbCircle
 10
815.6664074431837
 20
1676.747075844258
 30
0.0
 40
27.99999523162874
100
AcDbArc
 50
283.5012940793559
 51
283.6579502764878
  0
ARC
  5
16D
330
F5
100
AcDbEntity
  8
P-SANR-FIXT
100
AcDbCircle
 10
815.6664074431837
 20
1676.747075844258
 30
0.0
 40
27.99999523162865
100
AcDbArc
 50
288.0023742832216
 51
288.2106003686432
  0
ARC
  5
16E
330
F5
100
AcDbEntity
  8
P-SANR-FIXT
100
AcDbCircle
 10
815.6664074431837
 20
1676.747075844258
 30
0.0
 40
27.99999523162869
100
AcDbArc
 50
292.5037972266588
 51
292.7632504607985
  0
ARC
  5
16F
330
F5
100
AcDbEntity
  8
P-SANR-FIXT
100
AcDbCircle
 10
815.6664074431837
 20
1676.747075844258
 30
0.0
 40
27.99999523162869
100
AcDbArc
 50
297.0055895561687
 51
297.3159005529538
  0
ARC
  5
170
330
F5
100
AcDbEntity
  8
P-SANR-FIXT
100
AcDbCircle
 10
815.6664074431837
 20
1676.747075844258
 30
0.0
 40
27.99999523162887
100
AcDbArc
 50
301.507791871726
 51
301.8685506451087
  0
ARC
  5
171
330
F5
100
AcDbEntity
  8
P-SANR-FIXT
100
AcDbCircle
 10
815.6664074431837
 20
1676.747075844258
 30
0.0
 40
27.99999523162881
100
AcDbArc
 50
306.0104633170474
 51
306.4212007372645
  0
ARC
  5
172
330
F5
100
AcDbEntity
  8
P-SANR-FIXT
100
AcDbCircle
 10
815.6664074431837
 20
1676.747075844258
 30
0.0
 40
27.99999523162883
100
AcDbArc
 50
310.5136888597484
 51
310.9738508294194
  0
ARC
  5
173
330
F5
100
AcDbEntity
  8
P-SANR-FIXT
100
AcDbCircle
 10
815.6664074431837
 20
1676.747075844258
 30
0.0
 40
27.99999523162875
100
AcDbArc
 50
315.0175910306698
 51
315.5265009215753
  0
ARC
  5
174
330
F5
100
AcDbEntity
  8
P-SANR-FIXT
100
AcDbCircle
 10
815.6664074431837
 20
1676.747075844258
 30
0.0
 40
27.99999523162891
100
AcDbArc
 50
319.4819895862801
 51
320.0791510137305
  0
ARC
  5
175
330
F5
100
AcDbEntity
  8
P-SANR-FIXT
100
AcDbCircle
 10
815.6664074431837
 20
1676.747075844258
 30
0.0
 40
27.99999523162877
100
AcDbArc
 50
323.9835312206874
 51
324.6318011058858
  0
ARC
  5
176
330
F5
100
AcDbEntity
  8
P-SANR-FIXT
100
AcDbCircle
 10
815.6664074431837
 20
1676.747075844258
 30
0.0
 40
28.35151706040093
100
AcDbArc
 50
237.717028191616
 51
238.0572102887072
  0
SPLINE
  5
177
330
F5
100
AcDbEntity
  8
P-SANR-FIXT
100
AcDbSpline
210
0.0
220
0.0
230
1.0
 70
     8
 71
     3
 72
    14
 73
    10
 74
     0
 42
0.000000001
 43
0.0000000001
 40
-1.0
 40
-1.0
 40
-1.0
 40
-1.0
 40
-0.8571428571428571
 40
-0.7142857142857144
 40
-0.5714285714285714
 40
-0.4285714285714286
 40
-0.2857142857142857
 40
-0.1428571428571428
 40
0.0
 40
0.0
 40
0.0
 40
0.0
 10
800.6664074431872
 20
1652.68863616862
 30
0.0
 10
800.9612187727194
 20
1652.501937398109
 30
0.0
 10
801.5485252054205
 20
1652.125399850473
 30
0.0
 10
802.3763882948186
 20
1651.5439849988
 30
0.0
 10
803.1265401087468
 20
1650.967527148045
 30
0.0
 10
803.7667662003823
 20
1650.405454480304
 30
0.0
 10
804.2649846719223
 20
1649.870017219142
 30
0.0
 10
804.5884049751192
 20
1649.371492124129
 30
0.0
 10
804.6664074431873
 20
1649.080604355697
 30
0.0
 10
804.6664074431873
 20
1648.944121529863
 30
0.0
  0
LINE
  5
178
330
F5
100
AcDbEntity
  8
P-SANR-FIXT
100
AcDbLine
 10
772.6664074431877
 20
1652.747075844259
 30
0.0
 11
772.6664074431877
 21
1676.747075844259
 31
0.0
  0
LINE
  5
179
330
F5
100
AcDbEntity
  8
P-SANR-FIXT
100
AcDbLine
 10
772.6664074431877
 20
1676.747075844259
 30
0.0
 11
772.6664074431879
 21
1700.747075844259
 31
0.0
  0
LINE
  5
17A
330
F5
100
AcDbEntity
  8
P-SANR-FIXT
100
AcDbLine
 10
817.758145269132
 20
1700.65574859846
 30
0.0
 11
817.7627102389804
 21
1700.655348776203
 31
0.0
  0
ARC
  5
17B
330
F5
100
AcDbEntity
  8
P-SANR-FIXT
100
AcDbCircle
 10
815.6664074431882
 20
1676.747075844258
 30
0.0
 40
24.00000000000015
100
AcDbArc
 50
65.00000000000032
 51
70.00000000000021
  0
ARC
  5
17C
330
F5
100
AcDbEntity
  8
P-SANR-FIXT
100
AcDbCircle
 10
815.6664074431882
 20
1676.747075844258
 30
0.0
 40
24.00000000000011
100
AcDbArc
 50
15.0000000000002
 51
55.0000000000001
  0
ARC
  5
17D
330
F5
100
AcDbEntity
  8
P-SANR-FIXT
100
AcDbCircle
 10
815.6664074431882
 20
1676.747075844258
 30
0.0
 40
24.00000000000007
100
AcDbArc
 50
319.9999999999996
 51
344.9999999999995
  0
ARC
  5
17E
330
F5
100
AcDbEntity
  8
P-SANR-FIXT
100
AcDbCircle
 10
815.6664074431882
 20
1676.747075844258
 30
0.0
 40
24.00000000000001
100
AcDbArc
 50
304.9999999999992
 51
309.9999999999996
  0
ARC
  5
17F
330
F5
100
AcDbEntity
  8
P-SANR-FIXT
100
AcDbCircle
 10
815.6664074431882
 20
1676.747075844258
 30
0.0
 40
23.99999999999995
100
AcDbArc
 50
294.9999999999993
 51
299.9999999999996
  0
LINE
  5
180
330
F5
100
AcDbEntity
  8
P-SANR-FIXT
100
AcDbLine
 10
817.7627102389807
 20
1652.838802912314
 30
0.0
 11
817.758145269132
 21
1652.838403090056
 31
0.0
  0
SPLINE
  5
181
330
F5
100
AcDbEntity
  8
P-SANR-FIXT
100
AcDbSpline
210
0.0
220
0.0
230
1.0
 70
     8
 71
     3
 72
     9
 73
     5
 74
     0
 42
0.000000001
 43
0.0000000001
 40
-1.0
 40
-1.0
 40
-1.0
 40
-1.0
 40
-0.5
 40
0.0
 40
0.0
 40
0.0
 40
0.0
 10
838.5277122451734
 20
1671.747075844258
 30
0.0
 10
838.7046100859292
 20
1672.571021342707
 30
0.0
 10
838.9700855748186
 20
1674.22830017449
 30
0.0
 10
839.0589206784632
 20
1675.904354676041
 30
0.0
 10
839.0591781339743
 20
1676.747075844258
 30
0.0
  0
SPLINE
  5
182
330
F5
100
AcDbEntity
  8
P-SANR-FIXT
100
AcDbSpline
210
0.0
220
0.0
230
1.0
 70
     8
 71
     3
 72
     9
 73
     5
 74
     0
 42
0.000000001
 43
0.0000000001
 40
-1.0
 40
-1.0
 40
-1.0
 40
-1.0
 40
-0.5
 40
0.0
 40
0.0
 40
0.0
 40
0.0
 10
839.0591781339743
 20
1676.747075844258
 30
0.0
 10
839.0589206784632
 20
1677.589797012476
 30
0.0
 10
838.9700855748186
 20
1679.265851514027
 30
0.0
 10
838.7046100859292
 20
1680.92313034581
 30
0.0
 10
838.5277122451734
 20
1681.747075844259
 30
0.0
  0
LINE
  5
183
330
F5
100
AcDbEntity
  8
P-SANR-FIXT
100
AcDbLine
 10
781.666407443188
 20
1671.747075844258
 30
0.0
 11
780.666407443188
 21
1671.747075844258
 31
0.0
  0
LINE
  5
184
330
F5
100
AcDbEntity
  8
P-SANR-FIXT
100
AcDbLine
 10
780.666407443188
 20
1671.747075844258
 30
0.0
 11
774.6664074431873
 21
1671.747075844258
 31
0.0
  0
LINE
  5
185
330
F5
100
AcDbEntity
  8
P-SANR-FIXT
100
AcDbLine
 10
774.6664074431873
 20
1671.747075844258
 30
0.0
 11
773.6664074431875
 21
1671.747075844258
 31
0.0
  0
LINE
  5
186
330
F5
100
AcDbEntity
  8
P-SANR-FIXT
100
AcDbLine
 10
841.6664074431876
 20
1671.747075844258
 30
0.0
 11
840.6664074431722
 21
1671.747075844258
 31
0.0
  0
LINE
  5
187
330
F5
100
AcDbEntity
  8
P-SANR-FIXT
100
AcDbLine
 10
840.6664074431722
 20
1671.747075844258
 30
0.0
 11
838.5277122451734
 21
1671.747075844258
 31
0.0
  0
LINE
  5
188
330
F5
100
AcDbEntity
  8
P-SANR-FIXT
100
AcDbLine
 10
773.6664074431875
 20
1681.747075844259
 30
0.0
 11
774.6664074431873
 21
1681.747075844259
 31
0.0
  0
LINE
  5
189
330
F5
100
AcDbEntity
  8
P-SANR-FIXT
100
AcDbLine
 10
774.6664074431873
 20
1681.747075844259
 30
0.0
 11
780.666407443188
 21
1681.747075844259
 31
0.0
  0
LINE
  5
18A
330
F5
100
AcDbEntity
  8
P-SANR-FIXT
100
AcDbLine
 10
780.666407443188
 20
1681.747075844259
 30
0.0
 11
781.666407443188
 21
1681.747075844259
 31
0.0
  0
LINE
  5
18B
330
F5
100
AcDbEntity
  8
P-SANR-FIXT
100
AcDbLine
 10
840.6664074431722
 20
1681.747075844259
 30
0.0
 11
841.6664074431876
 21
1681.747075844259
 31
0.0
  0
LINE
  5
18C
330
F5
100
AcDbEntity
  8
P-SANR-FIXT
100
AcDbLine
 10
838.5277122451734
 20
1681.747075844259
 30
0.0
 11
840.6664074431722
 21
1681.747075844259
 31
0.0
  0
LINE
  5
18D
330
F5
100
AcDbEntity
  8
P-SANR-FIXT
100
AcDbLine
 10
754.6664074431849
 20
1695.947075844322
 30
0.0
 11
754.6664074431848
 21
1676.747075844259
 31
0.0
  0
ENDBLK
  5
18F
330
F5
100
AcDbEntity
  8
0
100
AcDbBlockEnd
  0
BLOCK
  5
261
330
191
100
AcDbEntity
  8
0
100
AcDbBlockBegin
  2
Automatic flow rate regulator valve_Caleffi_121 DN15 - 1_2__-V2-Est - Idraulica
 70
     0
 10
0.0
 20
0.0
 30
0.0
  3
Automatic flow rate regulator valve_Caleffi_121 DN15 - 1_2__-V2-Est - Idraulica
  1

  0
LINE
  5
192
330
191
100
AcDbEntity
  8
P-SANR-FIXT
100
AcDbLine
 10
1274.269406828899
 20
1921.998183849934
 30
0.0
 11
1274.269406828899
 21
1937.998183850013
 31
0.0
  0
LINE
  5
193
330
191
100
AcDbEntity
  8
P-SANR-FIXT
100
AcDbLine
 10
1221.456906828899
 20
1937.998183850013
 30
0.0
 11
1221.456906828899
 21
1921.998183849934
 31
0.0
  0
LINE
  5
194
330
191
100
AcDbEntity
  8
P-SANR-FIXT
100
AcDbLine
 10
1232.585134989551
 20
1921.998183849933
 30
0.0
 11
1221.571959286626
 21
1921.998183849933
 31
0.0
  0
LINE
  5
195
330
191
100
AcDbEntity
  8
P-SANR-FIXT
100
AcDbLine
 10
1221.571959286626
 20
1921.998183849933
 30
0.0
 11
1221.456906828897
 21
1921.998183849933
 31
0.0
  0
LINE
  5
196
330
191
100
AcDbEntity
  8
P-SANR-FIXT
100
AcDbLine
 10
1274.269406828897
 20
1921.998183849933
 30
0.0
 11
1274.154354371168
 21
1921.998183849933
 31
0.0
  0
LINE
  5
197
330
191
100
AcDbEntity
  8
P-SANR-FIXT
100
AcDbLine
 10
1274.154354371168
 20
1921.998183849933
 30
0.0
 11
1263.141178668243
 21
1921.998183849933
 31
0.0
  0
LINE
  5
198
330
191
100
AcDbEntity
  8
P-SANR-FIXT
100
AcDbLine
 10
1263.141178668243
 20
1921.998183849933
 30
0.0
 11
1258.876332531822
 21
1921.998183849933
 31
0.0
  0
LINE
  5
199
330
191
100
AcDbEntity
  8
P-SANR-FIXT
100
AcDbLine
 10
1258.876332531822
 20
1921.998183849933
 30
0.0
 11
1236.849981125972
 21
1921.998183849933
 31
0.0
  0
LINE
  5
19A
330
191
100
AcDbEntity
  8
P-SANR-FIXT
100
AcDbLine
 10
1236.849981125972
 20
1921.998183849933
 30
0.0
 11
1232.585134989551
 21
1921.998183849933
 31
0.0
  0
LINE
  5
19B
330
191
100
AcDbEntity
  8
P-SANR-FIXT
100
AcDbLine
 10
1232.585134989551
 20
1937.998183850012
 30
0.0
 11
1232.585134989551
 21
1921.998183849933
 31
0.0
  0
LINE
  5
19C
330
191
100
AcDbEntity
  8
P-SANR-FIXT
100
AcDbLine
 10
1236.849981125972
 20
1921.998183849933
 30
0.0
 11
1236.849981125972
 21
1937.998183850012
 31
0.0
  0
LINE
  5
19D
330
191
100
AcDbEntity
  8
P-SANR-FIXT
100
AcDbLine
 10
1258.876332531822
 20
1921.998183849933
 30
0.0
 11
1258.876332531822
 21
1937.998183850012
 31
0.0
  0
LINE
  5
19E
330
191
100
AcDbEntity
  8
P-SANR-FIXT
100
AcDbLine
 10
1263.141178668243
 20
1921.998183849933
 30
0.0
 11
1263.141178668243
 21
1937.998183850012
 31
0.0
  0
LINE
  5
19F
330
191
100
AcDbEntity
  8
P-SANR-FIXT
100
AcDbLine
 10
1274.154354371168
 20
1921.998183849933
 30
0.0
 11
1274.154354371168
 21
1937.998183850012
 31
0.0
  0
LINE
  5
1A0
330
191
100
AcDbEntity
  8
P-SANR-FIXT
100
AcDbLine
 10
1221.571959286626
 20
1921.998183849933
 30
0.0
 11
1221.571959286626
 21
1937.998183850012
 31
0.0
  0
LINE
  5
1A1
330
191
100
AcDbEntity
  8
P-SANR-FIXT
100
AcDbLine
 10
1228.513156828899
 20
2036.590098110634
 30
0.0
 11
1228.513156828899
 21
2034.497743523806
 31
0.0
  0
LINE
  5
1A2
330
191
100
AcDbEntity
  8
P-SANR-FIXT
100
AcDbLine
 10
1267.213156828898
 20
2034.497743523806
 30
0.0
 11
1267.213156828898
 21
2036.590098110634
 31
0.0
  0
LWPOLYLINE
  5
1A3
330
191
100
AcDbEntity
  8
P-SANR-FIXT
100
AcDbPolyline
 90
       80
 70
   128
 43
0.0
 10
1228.513163049096
 20
2032.311852602401
 10
1228.556869210372
 20
2032.312726842194
 10
1228.600505451113
 20
2032.315348162979
 10
1228.644001962644
 20
2032.3197123712
 10
1228.687289159823
 20
2032.325812485056
 10
1228.730297792371
 20
2032.333638745665
 10
1228.772959055648
 20
2032.343178632681
 10
1228.815204700735
 20
2032.354416884318
 10
1228.856967143613
 20
2032.367335521772
 10
1228.898179573279
 20
2032.381913877979
 10
1228.93877605864
 20
2032.398128630678
 10
1228.978691653977
 20
2032.415953839724
 10
1229.017862502854
 20
2032.435360988586
 10
1229.05622594027
 20
2032.456319029964
 10
1229.093720592906
 20
2032.478794435465
 10
1229.130286477318
 20
2032.502751249233
 10
1229.16586509589
 20
2032.528151145477
 10
1229.200399530424
 20
2032.55495348978
 10
1229.233834533189
 20
2032.58311540411
 10
1229.266116615316
 20
2032.612591835412
 10
1229.297194132358
 20
2032.643335627684
 10
1229.327017366918
 20
2032.675297597415
 10
1229.355538608182
 20
2032.708426612273
 10
1229.382712228249
 20
2032.742669672901
 10
1229.408494755123
 20
2032.777971997706
 10
1229.432844942262
 20
2032.814277110501
 10
1229.45572383456
 20
2032.85152693085
 10
1229.47709483067
 20
2032.889661866983
 10
1229.496923741557
 20
2032.928620911142
 10
1229.515178845194
 20
2032.968341737165
 10
1229.531830937309
 20
2033.008760800203
 10
1229.546853378107
 20
2033.049813438378
 10
1229.560222134888
 20
2033.091433976228
 10
1229.571915820492
 20
2033.133555829769
 10
1229.581915727518
 20
2033.17611161302
 10
1229.590205858246
 20
2033.219033245809
 10
1229.596772950236
 20
2033.262252062677
 10
1229.601606497542
 20
2033.305698922738
 10
1229.60469876752
 20
2033.349304320283
 10
1229.606044813197
 20
2033.39299849598
 10
1229.605642481186
 20
2033.436711548466
 10
1229.603492415135
 20
2033.480373546184
 10
1229.599598054689
 20
2033.52391463925
 10
1229.593965629994
 20
2033.567265171205
 10
1229.586604151729
 20
2033.610355790445
 10
1229.577525396688
 20
2033.653117561171
 10
1229.566743888943
 20
2033.695482073672
 10
1229.554276876607
 20
2033.737381553766
 10
1229.540144304238
 20
2033.778748971221
 10
1229.524368780939
 20
2033.819518146996
 10
1229.506975544181
 20
2033.859623859106
 10
1229.487992419434
 20
2033.899001946966
 10
1229.467449775646
 20
2033.937589414037
 10
1229.445380476666
 20
2033.975324528602
 10
1229.421819828664
 20
2034.012146922528
 10
1229.396805523651
 20
2034.04799768784
 10
1229.37037757918
 20
2034.082819470961
 10
1229.342578274323
 20
2034.116556564466
 10
1229.313452082039
 20
2034.149154996203
 10
1229.283045598021
 20
2034.180562615635
 10
1229.251407466157
 20
2034.21072917727
 10
1229.218588300709
 20
2034.239606421045
 10
1229.184640605342
 20
2034.267148149531
 10
1229.149618689126
 20
2034.293310301836
 10
1229.113578579656
 20
2034.318051024099
 10
1229.076577933418
 20
2034.341330736441
 10
1229.038675943555
 20
2034.363112196289
 10
1228.999933245163
 20
2034.383360557953
 10
1228.960411818297
 20
2034.402043428374
 10
1228.920174888809
 20
2034.419130918945
 10
1228.879286827201
 20
2034.434595693326
 10
1228.83781304565
 20
2034.448413011178
 10
1228.79581989336
 20
2034.460560767738
 10
1228.753374550416
 20
2034.471019529189
 10
1228.710544920312
 20
2034.479772563742
 10
1228.66739952132
 20
2034.48680586841
 10
1228.624007376875
 20
2034.492108191405
 10
1228.58043790515
 20
2034.495671050142
 10
1228.536760808008
 20
2034.497488744807
 10
1228.513163049096
 20
2034.497743523823
  0
LWPOLYLINE
  5
1A4
330
191
100
AcDbEntity
  8
P-SANR-FIXT
100
AcDbPolyline
 90
       80
 70
   128
 43
0.0
 10
1267.213150608702
 20
2034.497743523823
 10
1267.169444447426
 20
2034.496869284029
 10
1267.125808206684
 20
2034.494247963245
 10
1267.082311695153
 20
2034.489883755023
 10
1267.039024497974
 20
2034.483783641167
 10
1266.996015865426
 20
2034.475957380559
 10
1266.953354602149
 20
2034.466417493543
 10
1266.911108957062
 20
2034.455179241906
 10
1266.869346514185
 20
2034.442260604452
 10
1266.828134084518
 20
2034.427682248245
 10
1266.787537599158
 20
2034.411467495546
 10
1266.74762200382
 20
2034.393642286499
 10
1266.708451154942
 20
2034.374235137637
 10
1266.670087717528
 20
2034.353277096259
 10
1266.632593064892
 20
2034.330801690758
 10
1266.59602718048
 20
2034.306844876991
 10
1266.560448561907
 20
2034.281444980747
 10
1266.525914127374
 20
2034.254642636444
 10
1266.492479124608
 20
2034.226480722113
 10
1266.460197042481
 20
2034.197004290811
 10
1266.42911952544
 20
2034.16626049854
 10
1266.399296290879
 20
2034.134298528809
 10
1266.370775049615
 20
2034.101169513951
 10
1266.343601429548
 20
2034.066926453323
 10
1266.317818902674
 20
2034.031624128517
 10
1266.293468715536
 20
2033.995319015723
 10
1266.270589823238
 20
2033.958069195374
 10
1266.249218827128
 20
2033.91993425924
 10
1266.22938991624
 20
2033.880975215081
 10
1266.211134812603
 20
2033.841254389059
 10
1266.194482720488
 20
2033.800835326021
 10
1266.17946027969
 20
2033.759782687845
 10
1266.166091522909
 20
2033.718162149996
 10
1266.154397837305
 20
2033.676040296455
 10
1266.144397930279
 20
2033.633484513203
 10
1266.136107799552
 20
2033.590562880414
 10
1266.129540707561
 20
2033.547344063546
 10
1266.124707160255
 20
2033.503897203486
 10
1266.121614890277
 20
2033.46029180594
 10
1266.1202688446
 20
2033.416597630244
 10
1266.12067117661
 20
2033.372884577758
 10
1266.122821242662
 20
2033.32922258004
 10
1266.126715603108
 20
2033.285681486973
 10
1266.132348027803
 20
2033.242330955019
 10
1266.139709506068
 20
2033.199240335779
 10
1266.148788261109
 20
2033.156478565053
 10
1266.159569768854
 20
2033.114114052552
 10
1266.172036781191
 20
2033.072214572458
 10
1266.186169353559
 20
2033.030847155002
 10
1266.201944876858
 20
2032.990077979228
 10
1266.219338113616
 20
2032.949972267118
 10
1266.238321238364
 20
2032.910594179258
 10
1266.258863882152
 20
2032.872006712187
 10
1266.280933181131
 20
2032.834271597622
 10
1266.304493829133
 20
2032.797449203696
 10
1266.329508134146
 20
2032.761598438383
 10
1266.355936078617
 20
2032.726776655263
 10
1266.383735383474
 20
2032.693039561757
 10
1266.412861575759
 20
2032.660441130021
 10
1266.443268059777
 20
2032.629033510589
 10
1266.47490619164
 20
2032.598866948954
 10
1266.507725357088
 20
2032.569989705178
 10
1266.541673052455
 20
2032.542447976693
 10
1266.576694968671
 20
2032.516285824387
 10
1266.612735078141
 20
2032.491545102125
 10
1266.649735724379
 20
2032.468265389782
 10
1266.687637714242
 20
2032.446483929934
 10
1266.726380412634
 20
2032.426235568271
 10
1266.7659018395
 20
2032.407552697849
 10
1266.806138768989
 20
2032.390465207278
 10
1266.847026830596
 20
2032.375000432897
 10
1266.888500612147
 20
2032.361183115046
 10
1266.930493764437
 20
2032.349035358485
 10
1266.972939107381
 20
2032.338576597035
 10
1267.015768737485
 20
2032.329823562482
 10
1267.058914136477
 20
2032.322790257814
 10
1267.102306280922
 20
2032.317487934818
 10
1267.145875752647
 20
2032.313925076081
 10
1267.18955284979
 20
2032.312107381416
 10
1267.213150608702
 20
2032.311852602401
  0
LINE
  5
1A5
330
191
100
AcDbEntity
  8
P-SANR-FIXT
100
AcDbLine
 10
1224.374613595116
 20
2052.504798417071
 30
0.0
 11
1222.863156828898
 21
2051.632158446226
 31
0.0
  0
LINE
  5
1A6
330
191
100
AcDbEntity
  8
P-SANR-FIXT
100
AcDbLine
 10
1272.863156828899
 20
2051.632158446226
 30
0.0
 11
1271.351700062681
 21
2052.504798417071
 31
0.0
  0
LINE
  5
1A7
330
191
100
AcDbEntity
  8
P-SANR-FIXT
100
AcDbLine
 10
1207.863156828898
 20
2005.498183850013
 30
0.0
 11
1207.863156828898
 21
1970.998183850013
 31
0.0
  0
LINE
  5
1A8
330
191
100
AcDbEntity
  8
P-SANR-FIXT
100
AcDbLine
 10
1287.863156828899
 20
1970.998183850013
 30
0.0
 11
1287.863156828899
 21
2005.498183850013
 31
0.0
  0
LINE
  5
1A9
330
191
100
AcDbEntity
  8
P-SANR-FIXT
100
AcDbLine
 10
1222.863156828898
 20
2051.632158446226
 30
0.0
 11
1222.863156828898
 21
2042.590098110633
 31
0.0
  0
LINE
  5
1AA
330
191
100
AcDbEntity
  8
P-SANR-FIXT
100
AcDbLine
 10
1272.863156828899
 20
2042.590098110633
 30
0.0
 11
1272.863156828899
 21
2051.632158446226
 31
0.0
  0
LINE
  5
1AB
330
191
100
AcDbEntity
  8
P-SANR-FIXT
100
AcDbLine
 10
1222.863156828898
 20
2042.590098110633
 30
0.0
 11
1220.521141453948
 21
2041.737674225958
 31
0.0
  0
LINE
  5
1AC
330
191
100
AcDbEntity
  8
P-SANR-FIXT
100
AcDbLine
 10
1275.205172203849
 20
2041.737674225958
 30
0.0
 11
1272.863156828899
 21
2042.590098110633
 31
0.0
  0
LWPOLYLINE
  5
1AD
330
191
100
AcDbEntity
  8
P-SANR-FIXT
100
AcDbPolyline
 90
       32
 70
   128
 43
0.0
 10
1219.863161597274
 20
2040.797981605172
 10
1219.863961490613
 20
2040.837970939358
 10
1219.866359890971
 20
2040.877896299141
 10
1219.87035296142
 20
2040.917693812461
 10
1219.875934313898
 20
2040.957299811787
 10
1219.883095019433
 20
2040.996650935968
 10
1219.891823622422
 20
2041.035684231599
 10
1219.902106158963
 20
2041.074337253736
 10
1219.913926179192
 20
2041.112548165788
 10
1219.927264773596
 20
2041.150255838447
 10
1219.942100603271
 20
2041.187399947481
 10
1219.958409934054
 20
2041.223921070238
 10
1219.976166674494
 20
2041.259760780714
 10
1219.995342417596
 20
2041.294861743016
 10
1220.01590648626
 20
2041.329167803093
 10
1220.037825982364
 20
2041.362624078567
 10
1220.06106583939
 20
2041.395177046535
 10
1220.085588878523
 20
2041.42677462919
 10
1220.111355868133
 20
2041.457366277144
 10
1220.138325586533
 20
2041.486903050283
 10
1220.166454887927
 20
2041.515337696072
 10
1220.195698771433
 20
2041.542624725143
 10
1220.226010453075
 20
2041.568720484071
 10
1220.257341440631
 20
2041.593583225209
 10
1220.289641611201
 20
2041.617173173473
 10
1220.322859291406
 20
2041.63945258998
 10
1220.356941340041
 20
2041.660385832416
 10
1220.3918332331
 20
2041.679939412057
 10
1220.427479150997
 20
2041.698082047348
 10
1220.463822067868
 20
2041.714784713944
 10
1220.500803842797
 20
2041.730020691139
 10
1220.521141453948
 20
2041.737674225958
  0
LWPOLYLINE
  5
1AE
330
191
100
AcDbEntity
  8
P-SANR-FIXT
100
AcDbPolyline
 90
       32
 70
   128
 43
0.0
 10
1275.205172203849
 20
2041.737674225958
 10
1275.24247630646
 20
2041.72324541428
 10
1275.279173571195
 20
2041.707336377886
 10
1275.31520529026
 20
2041.689972567842
 10
1275.35051382059
 20
2041.671181762538
 10
1275.38504267607
 20
2041.650994023255
 10
1275.418736617895
 20
2041.62944164607
 10
1275.451541742947
 20
2041.606559110189
 10
1275.483405570022
 20
2041.582383022785
 10
1275.514277123797
 20
2041.556952060445
 10
1275.54410701637
 20
2041.53030690728
 10
1275.572847526276
 20
2041.502490189854
 10
1275.60045267483
 20
2041.473546408979
 10
1275.626878299684
 20
2041.443521868531
 10
1275.652082125475
 20
2041.412464601369
 10
1275.676023831458
 20
2041.380424292496
 10
1275.698665116011
 20
2041.347452199572
 10
1275.719969757909
 20
2041.31360107091
 10
1275.739903674268
 20
2041.278925061096
 10
1275.758434975076
 20
2041.243479644348
 10
1275.775534014204
 20
2041.207321525773
 10
1275.791173436838
 20
2041.170508550646
 10
1275.805328223236
 20
2041.133099611873
 10
1275.817975728761
 20
2041.095154555778
 10
1275.829095720102
 20
2041.056734086356
 10
1275.838670407645
 20
2041.017899668162
 10
1275.846684473932
 20
2040.97871342798
 10
1275.853125098166
 20
2040.939238055435
 10
1275.857981976723
 20
2040.899536702704
 10
1275.861247339633
 20
2040.85967288348
 10
1275.862915963012
 20
2040.819710371371
 10
1275.863152060523
 20
2040.797981605172
  0
LINE
  5
1AF
330
191
100
AcDbEntity
  8
P-SANR-FIXT
100
AcDbLine
 10
1219.86316159727
 20
2040.797981605172
 30
0.0
 11
1219.86316159727
 21
2037.498196168296
 31
0.0
  0
LINE
  5
1B0
330
191
100
AcDbEntity
  8
P-SANR-FIXT
100
AcDbLine
 10
1275.863152060527
 20
2037.498196168296
 30
0.0
 11
1275.863152060527
 21
2040.797981605172
 31
0.0
  0
LINE
  5
1B1
330
191
100
AcDbEntity
  8
P-SANR-FIXT
100
AcDbLine
 10
1207.8631568289
 20
1970.998183850013
 30
0.0
 11
1221.3631568289
 21
1937.998183850013
 31
0.0
  0
LINE
  5
1B2
330
191
100
AcDbEntity
  8
P-SANR-FIXT
100
AcDbLine
 10
1274.363156828898
 20
1937.998183850013
 30
0.0
 11
1287.863156828897
 21
1970.998183850013
 31
0.0
  0
LINE
  5
1B3
330
191
100
AcDbEntity
  8
P-SANR-FIXT
100
AcDbLine
 10
1207.863156828899
 20
2006.498183850014
 30
0.0
 11
1207.863156828899
 21
2005.498183850013
 31
0.0
  0
LINE
  5
1B4
330
191
100
AcDbEntity
  8
P-SANR-FIXT
100
AcDbLine
 10
1287.863156828898
 20
2005.498183850013
 30
0.0
 11
1287.863156828898
 21
2006.498183850013
 31
0.0
  0
LINE
  5
1B5
330
191
100
AcDbEntity
  8
P-SANR-FIXT
100
AcDbLine
 10
1219.86316159727
 20
2037.498196168296
 30
0.0
 11
1207.863156828901
 21
2006.498183850013
 31
0.0
  0
LINE
  5
1B6
330
191
100
AcDbEntity
  8
P-SANR-FIXT
100
AcDbLine
 10
1287.863156828896
 20
2006.498183850013
 30
0.0
 11
1275.863152060527
 21
2037.498196168296
 31
0.0
  0
LWPOLYLINE
  5
1B7
330
191
100
AcDbEntity
  8
P-SANR-FIXT
100
AcDbPolyline
 90
       41
 70
   128
 43
0.0
 10
1247.863156828899
 20
2119.504798417071
 10
1248.822900849378
 20
2119.485600976934
 10
1249.781109484159
 20
2119.428039368334
 10
1250.736249803833
 20
2119.332205677564
 10
1251.686793787641
 20
2119.198253218086
 10
1252.63122076798
 20
2119.02639628526
 10
1253.56801986315
 20
2118.816909813519
 10
1254.495692394437
 20
2118.570128936529
 10
1255.412754283686
 20
2118.286448451049
 10
1256.317738427501
 20
2117.966322185341
 10
1257.209197044306
 20
2117.61026227314
 10
1258.085703990483
 20
2117.21883833435
 10
1258.945857041894
 20
2116.792676563774
 10
1259.788280137148
 20
2116.332458729334
 10
1260.611625579
 20
2115.838921081393
 10
1261.41457619038
 20
2115.312853174903
 10
1262.195847421596
 20
2114.755096606294
 10
1262.954189405342
 20
2114.166543667093
 10
1263.688388956214
 20
2113.548135916452
 10
1264.397271511552
 20
2112.900862674852
 10
1265.079703010487
 20
2112.225759441403
 10
1265.734591708199
 20
2111.523906237262
 10
1266.360889922474
 20
2110.796425877837
 10
1266.957595709772
 20
2110.044482176514
 10
1267.523754468123
 20
2109.26927808281
 10
1268.058460464288
 20
2108.472053757906
 10
1268.560858282739
 20
2107.654084590658
 10
1269.030144194137
 20
2106.81667915724
 10
1269.465567441135
 20
2105.961177127712
 10
1269.866431439421
 20
2105.088947122821
 10
1270.232094892112
 20
2104.201384524511
 10
1270.561972815688
 20
2103.299909243601
 10
1270.85553747584
 20
2102.385963448238
 10
1271.112319231737
 20
2101.461009256727
 10
1271.331907287346
 20
2100.526526398465
 10
1271.513950348621
 20
2099.584009846676
 10
1271.658157185499
 20
2098.634967426786
 10
1271.764297097802
 20
2097.680917404214
 10
1271.832200284312
 20
2096.723386055477
 10
1271.861758114418
 20
2095.763905226469
 10
1271.863156828898
 20
2095.504798417071
  0
LWPOLYLINE
  5
1B8
330
191
100
AcDbEntity
  8
P-SANR-FIXT
100
AcDbPolyline
 90
       41
 70
   128
 43
0.0
 10
1271.863156828898
 20
2095.504798417071
 10
1271.863156828898
 20
2095.470403003493
 10
1271.863156828898
 20
2095.367271788083
 10
1271.863156828898
 20
2095.195569758787
 10
1271.863156828898
 20
2094.955571602223
 10
1271.863156828899
 20
2094.647661264244
 10
1271.863156828898
 20
2094.272331335708
 10
1271.863156828898
 20
2093.830182264434
 10
1271.863156828898
 20
2093.321921394616
 10
1271.863156828898
 20
2092.748361835222
 10
1271.863156828898
 20
2092.110421159195
 10
1271.863156828898
 20
2091.40911993553
 10
1271.863156828898
 20
2090.64558009658
 10
1271.863156828898
 20
2089.82102314321
 10
1271.863156828898
 20
2088.936768190648
 10
1271.863156828899
 20
2087.994229858187
 10
1271.863156828899
 20
2086.994916006095
 10
1271.863156828899
 20
2085.940425323361
 10
1271.863156828899
 20
2084.83244477013
 10
1271.863156828899
 20
2083.67274687893
 10
1271.863156828899
 20
2082.463186918999
 10
1271.863156828899
 20
2081.205699928247
 10
1271.863156828899
 20
2079.90229761761
 10
1271.863156828899
 20
2078.55506515274
 10
1271.863156828899
 20
2077.166157818186
 10
1271.863156828899
 20
2075.737797569401
 10
1271.863156828899
 20
2074.27226947808
 10
1271.863156828899
 20
2072.771918076542
 10
1271.863156828899
 20
2071.23914360697
 10
1271.863156828899
 20
2069.67639818154
 10
1271.863156828899
 20
2068.086181859568
 10
1271.863156828899
 20
2066.471038647938
 10
1271.863156828899
 20
2064.833552431245
 10
1271.863156828899
 20
2063.176342838123
 10
1271.863156828899
 20
2061.502061050402
 10
1271.863156828899
 20
2059.813385561781
 10
1271.863156828899
 20
2058.113017892811
 10
1271.863156828899
 20
2056.403678269036
 10
1271.863156828899
 20
2054.688101269214
 10
1271.863156828899
 20
2052.969031450576
 10
1271.863156828899
 20
2052.504798417071
  0
LWPOLYLINE
  5
1B9
330
191
100
AcDbEntity
  8
P-SANR-FIXT
100
AcDbPolyline
 90
       41
 70
   128
 43
0.0
 10
1223.863156828898
 20
2095.504798417071
 10
1223.882354269035
 20
2096.46454243755
 10
1223.939915877636
 20
2097.422751072331
 10
1224.035749568405
 20
2098.377891392005
 10
1224.169702027883
 20
2099.328435375813
 10
1224.341558960709
 20
2100.272862356152
 10
1224.55104543245
 20
2101.209661451322
 10
1224.79782630944
 20
2102.137333982609
 10
1225.08150679492
 20
2103.054395871858
 10
1225.401633060628
 20
2103.959380015673
 10
1225.757692972829
 20
2104.850838632478
 10
1226.149116911619
 20
2105.727345578654
 10
1226.575278682196
 20
2106.587498630066
 10
1227.035496516635
 20
2107.429921725321
 10
1227.529034164576
 20
2108.253267167172
 10
1228.055102071066
 20
2109.056217778552
 10
1228.612858639676
 20
2109.837489009768
 10
1229.201411578876
 20
2110.595830993514
 10
1229.819819329517
 20
2111.330030544386
 10
1230.467092571117
 20
2112.038913099724
 10
1231.142195804567
 20
2112.721344598659
 10
1231.844049008707
 20
2113.376233296372
 10
1232.571529368133
 20
2114.002531510646
 10
1233.323473069455
 20
2114.599237297944
 10
1234.098677163159
 20
2115.165396056295
 10
1234.895901488063
 20
2115.700102052461
 10
1235.713870655312
 20
2116.202499870911
 10
1236.551276088729
 20
2116.67178578231
 10
1237.406778118257
 20
2117.107209029307
 10
1238.279008123148
 20
2117.508073027593
 10
1239.166570721458
 20
2117.873736480284
 10
1240.068046002368
 20
2118.20361440386
 10
1240.981991797732
 20
2118.497179064012
 10
1241.906945989242
 20
2118.753960819909
 10
1242.841428847505
 20
2118.973548875518
 10
1243.783945399293
 20
2119.155591936794
 10
1244.732987819183
 20
2119.299798773671
 10
1245.687037841755
 20
2119.405938685974
 10
1246.644569190493
 20
2119.473841872485
 10
1247.6040500195
 20
2119.50339970259
 10
1247.863156828898
 20
2119.504798417071
  0
LWPOLYLINE
  5
1BA
330
191
100
AcDbEntity
  8
P-SANR-FIXT
100
AcDbPolyline
 90
       41
 70
   128
 43
0.0
 10
1223.863156828899
 20
2052.504798417071
 10
1223.863156828899
 20
2054.224339787096
 10
1223.863156828899
 20
2055.941130257745
 10
1223.863156828899
 20
2057.652423330494
 10
1223.863156828899
 20
2059.355481301483
 10
1223.863156828899
 20
2061.047579641258
 10
1223.863156828899
 20
2062.726011353438
 10
1223.863156828899
 20
2064.388091305328
 10
1223.863156828898
 20
2066.031160523564
 10
1223.863156828898
 20
2067.6525904479
 10
1223.863156828898
 20
2069.249787136342
 10
1223.863156828898
 20
2070.820195414909
 10
1223.863156828898
 20
2072.361302965355
 10
1223.863156828898
 20
2073.870644344351
 10
1223.863156828898
 20
2075.345804927669
 10
1223.863156828898
 20
2076.784424773057
 10
1223.863156828899
 20
2078.184202395654
 10
1223.863156828899
 20
2079.542898449865
 10
1223.863156828899
 20
2080.858339311844
 10
1223.863156828899
 20
2082.128420556824
 10
1223.863156828899
 20
2083.35111032575
 10
1223.863156828898
 20
2084.524452575818
 10
1223.863156828898
 20
2085.646570209727
 10
1223.863156828898
 20
2086.715668078635
 10
1223.863156828898
 20
2087.730035854014
 10
1223.863156828898
 20
2088.68805076381
 10
1223.863156828898
 20
2089.588180188535
 10
1223.863156828898
 20
2090.428984113124
 10
1223.863156828898
 20
2091.209117430661
 10
1223.863156828898
 20
2091.927332094257
 10
1223.863156828898
 20
2092.582479113662
 10
1223.863156828898
 20
2093.173510393401
 10
1223.863156828898
 20
2093.699480409508
 10
1223.863156828898
 20
2094.159547722156
 10
1223.863156828898
 20
2094.552976321789
 10
1223.863156828898
 20
2094.879136806575
 10
1223.863156828898
 20
2095.137507389313
 10
1223.863156828898
 20
2095.327674732189
 10
1223.863156828898
 20
2095.449334608021
 10
1223.863156828898
 20
2095.502292386959
 10
1223.863156828898
 20
2095.504798417071
  0
LINE
  5
1BB
330
191
100
AcDbEntity
  8
P-SANR-FIXT
100
AcDbLine
 10
1252.863156828899
 20
2121.504798417071
 30
0.0
 11
1242.863156828898
 21
2121.504798417071
 31
0.0
  0
LWPOLYLINE
  5
1BC
330
191
100
AcDbEntity
  8
P-SANR-FIXT
100
AcDbPolyline
 90
       41
 70
   128
 43
0.0
 10
1232.520217234472
 20
2028.304798417024
 10
1232.359977805549
 20
2028.308003632976
 10
1232.19999472553
 20
2028.31761415317
 10
1232.040523933214
 20
2028.333614602824
 10
1231.881820547852
 20
2028.355979384632
 10
1231.724138461004
 20
2028.384672719714
 10
1231.567729930372
 20
2028.419648704854
 10
1231.412845176241
 20
2028.460851385938
 10
1231.259731981176
 20
2028.508214847466
 10
1231.108635293627
 20
2028.561663318001
 10
1230.959796836062
 20
2028.621111291394
 10
1230.813454718262
 20
2028.686463663568
 10
1230.669843056399
 20
2028.75761588467
 10
1230.529191598495
 20
2028.834454126323
 10
1230.391725356879
 20
2028.916855463732
 10
1230.257664248213
 20
2029.004688072336
 10
1230.127222741673
 20
2029.097811438697
 10
1230.000609515843
 20
2029.196076585295
 10
1229.878027124876
 20
2029.299326308856
 10
1229.759671674446
 20
2029.407395431849
 10
1229.645732508028
 20
2029.520111066731
 10
1229.536391903981
 20
2029.63729289253
 10
1229.431824783947
 20
2029.758753443322
 10
1229.332198433013
 20
2029.884298408137
 10
1229.237672232086
 20
2030.013726941811
 10
1229.148397402925
 20
2030.146831986303
 10
1229.06451676621
 20
2030.283400601934
 10
1228.986164513068
 20
2030.423214308051
 10
1228.913465990389
 20
2030.566049432552
 10
1228.846537500302
 20
2030.711677469707
 10
1228.785486114112
 20
2030.859865445721
 10
1228.730409501016
 20
2031.010376291445
 10
1228.681395771843
 20
2031.162969221634
 10
1228.638523338106
 20
2031.317400120149
 10
1228.601860786552
 20
2031.473421930498
 10
1228.571466769444
 20
2031.630785051065
 10
1228.547389910724
 20
2031.789237734429
 10
1228.529668728231
 20
2031.948526490096
 10
1228.518331572077
 20
2032.108396490037
 10
1228.513396579292
 20
2032.268591976356
 10
1228.513163049096
 20
2032.311852602401
  0
LWPOLYLINE
  5
1BD
330
191
100
AcDbEntity
  8
P-SANR-FIXT
100
AcDbPolyline
 90
       41
 70
   128
 43
0.0
 10
1247.863156828899
 20
2028.304798417024
 10
1247.249602890052
 20
2028.304798417024
 10
1246.637030506623
 20
2028.304798417024
 10
1246.026419663749
 20
2028.304798417024
 10
1245.418747208524
 20
2028.304798417024
 10
1244.814985287245
 20
2028.304798417024
 10
1244.216099790191
 20
2028.304798417024
 10
1243.623048806401
 20
2028.304798417024
 10
1243.036781090939
 20
2028.304798417024
 10
1242.458234547086
 20
2028.304798417024
 10
1241.888334725895
 20
2028.304798417024
 10
1241.327993345509
 20
2028.304798417024
 10
1240.778106832602
 20
2028.304798417024
 10
1240.239554888292
 20
2028.304798417024
 10
1239.713199080806
 20
2028.304798417024
 10
1239.199881467151
 20
2028.304798417024
 10
1238.700423246009
 20
2028.304798417024
 10
1238.215623443987
 20
2028.304798417024
 10
1237.74625763735
 20
2028.304798417024
 10
1237.293076711262
 20
2028.304798417024
 10
1236.856805658534
 20
2028.304798417024
 10
1236.438142419781
 20
2028.304798417024
 10
1236.037756766876
 20
2028.304798417024
 10
1235.656289231453
 20
2028.304798417024
 10
1235.294350080193
 20
2028.304798417024
 10
1234.952518338529
 20
2028.304798417024
 10
1234.631340864326
 20
2028.304798417024
 10
1234.33133147303
 20
2028.304798417024
 10
1234.052970115668
 20
2028.304798417024
 10
1233.796702111031
 20
2028.304798417024
 10
1233.562937433259
 20
2028.304798417024
 10
1233.352050055969
 20
2028.304798417024
 10
1233.164377353979
 20
2028.304798417024
 10
1233.000219563575
 20
2028.304798417024
 10
1232.859839302206
 20
2028.304798417024
 10
1232.743461148342
 20
2028.304798417024
 10
1232.651271282204
 20
2028.304798417024
 10
1232.583417187911
 20
2028.304798417024
 10
1232.54000741754
 20
2028.304798417024
 10
1232.521111417463
 20
2028.304798417024
 10
1232.520217234472
 20
2028.304798417024
  0
LWPOLYLINE
  5
1BE
330
191
100
AcDbEntity
  8
P-SANR-FIXT
100
AcDbPolyline
 90
       41
 70
   128
 43
0.0
 10
1232.520217234472
 20
2028.304798417024
 10
1232.532489949655
 20
2028.304798417024
 10
1232.569288461476
 20
2028.304798417024
 10
1232.630553900168
 20
2028.304798417024
 10
1232.716188254097
 20
2028.304798417024
 10
1232.826054526564
 20
2028.304798417024
 10
1232.959976954971
 20
2028.304798417024
 10
1233.117741292001
 20
2028.304798417024
 10
1233.299095148369
 20
2028.304798417024
 10
1233.503748396593
 20
2028.304798417024
 10
1233.73137363513
 20
2028.304798417024
 10
1233.981606712158
 20
2028.304798417024
 10
1234.254047308133
 20
2028.304798417024
 10
1234.54825957622
 20
2028.304798417024
 10
1234.863772839551
 20
2028.304798417024
 10
1235.200082344211
 20
2028.304798417024
 10
1235.556650066734
 20
2028.304798417024
 10
1235.932905574829
 20
2028.304798417024
 10
1236.328246939946
 20
2028.304798417024
 10
1236.742041700236
 20
2028.304798417024
 10
1237.173627872354
 20
2028.304798417024
 10
1237.62231501049
 20
2028.304798417024
 10
1238.08738531094
 20
2028.304798417024
 10
1238.568094760432
 20
2028.304798417024
 10
1239.063674326393
 20
2028.304798417024
 10
1239.573331187235
 20
2028.304798417024
 10
1240.096250000701
 20
2028.304798417024
 10
1240.631594208241
 20
2028.304798417024
 10
1241.178507373323
 20
2028.304798417024
 10
1241.736114551552
 20
2028.304798417024
 10
1242.303523690391
 20
2028.304798417024
 10
1242.879827056261
 20
2028.304798417024
 10
1243.464102686713
 20
2028.304798417024
 10
1244.055415865377
 20
2028.304798417024
 10
1244.652820617308
 20
2028.304798417024
 10
1245.255361222343
 20
2028.304798417024
 10
1245.862073744048
 20
2028.304798417024
 10
1246.471987571814
 20
2028.304798417024
 10
1247.084126973625
 20
2028.304798417024
 10
1247.69751265702
 20
2028.304798417024
 10
1247.863156828899
 20
2028.304798417024
  0
LWPOLYLINE
  5
1BF
330
191
100
AcDbEntity
  8
P-SANR-FIXT
100
AcDbPolyline
 90
       41
 70
   128
 43
0.0
 10
1267.213150608702
 20
2032.311852602401
 10
1267.20994539275
 20
2032.151613173478
 10
1267.200334872556
 20
2031.991630093458
 10
1267.184334422901
 20
2031.832159301143
 10
1267.161969641093
 20
2031.67345591578
 10
1267.133276306012
 20
2031.515773828932
 10
1267.098300320871
 20
2031.359365298301
 10
1267.057097639787
 20
2031.204480544169
 10
1267.00973417826
 20
2031.051367349104
 10
1266.956285707724
 20
2030.900270661555
 10
1266.896837734331
 20
2030.75143220399
 10
1266.831485362157
 20
2030.60509008619
 10
1266.760333141055
 20
2030.461478424327
 10
1266.683494899403
 20
2030.320826966423
 10
1266.601093561993
 20
2030.183360724807
 10
1266.513260953389
 20
2030.049299616141
 10
1266.420137587028
 20
2029.918858109601
 10
1266.321872440431
 20
2029.792244883771
 10
1266.218622716869
 20
2029.669662492804
 10
1266.110553593876
 20
2029.551307042375
 10
1265.997837958995
 20
2029.437367875956
 10
1265.880656133196
 20
2029.328027271909
 10
1265.759195582403
 20
2029.223460151876
 10
1265.633650617589
 20
2029.123833800941
 10
1265.504222083914
 20
2029.029307600015
 10
1265.371117039422
 20
2028.940032770853
 10
1265.234548423792
 20
2028.856152134138
 10
1265.094734717674
 20
2028.777799880996
 10
1264.951899593173
 20
2028.705101358318
 10
1264.806271556019
 20
2028.63817286823
 10
1264.658083580005
 20
2028.577121482041
 10
1264.50757273428
 20
2028.522044868944
 10
1264.354979804092
 20
2028.473031139771
 10
1264.200548905576
 20
2028.430158706034
 10
1264.044527095228
 20
2028.39349615448
 10
1263.88716397466
 20
2028.363102137372
 10
1263.728711291297
 20
2028.339025278652
 10
1263.56942253563
 20
2028.321304096159
 10
1263.409552535688
 20
2028.309966940005
 10
1263.249357049369
 20
2028.30503194722
 10
1263.206096423325
 20
2028.304798417024
  0
LWPOLYLINE
  5
1C0
330
191
100
AcDbEntity
  8
P-SANR-FIXT
100
AcDbPolyline
 90
       41
 70
   128
 43
0.0
 10
1247.863156828899
 20
2028.304798417024
 10
1248.476710767746
 20
2028.304798417024
 10
1249.089283151175
 20
2028.304798417024
 10
1249.699893994048
 20
2028.304798417024
 10
1250.307566449273
 20
2028.304798417024
 10
1250.911328370553
 20
2028.304798417024
 10
1251.510213867607
 20
2028.304798417024
 10
1252.103264851397
 20
2028.304798417024
 10
1252.689532566858
 20
2028.304798417024
 10
1253.268079110712
 20
2028.304798417024
 10
1253.837978931902
 20
2028.304798417024
 10
1254.398320312289
 20
2028.304798417024
 10
1254.948206825196
 20
2028.304798417024
 10
1255.486758769505
 20
2028.304798417024
 10
1256.013114576992
 20
2028.304798417024
 10
1256.526432190647
 20
2028.304798417024
 10
1257.025890411789
 20
2028.304798417024
 10
1257.510690213811
 20
2028.304798417024
 10
1257.980056020448
 20
2028.304798417024
 10
1258.433236946535
 20
2028.304798417024
 10
1258.869507999264
 20
2028.304798417024
 10
1259.288171238017
 20
2028.304798417024
 10
1259.688556890921
 20
2028.304798417024
 10
1260.070024426344
 20
2028.304798417024
 10
1260.431963577604
 20
2028.304798417024
 10
1260.773795319269
 20
2028.304798417024
 10
1261.094972793471
 20
2028.304798417024
 10
1261.394982184767
 20
2028.304798417024
 10
1261.673343542129
 20
2028.304798417024
 10
1261.929611546766
 20
2028.304798417024
 10
1262.163376224538
 20
2028.304798417024
 10
1262.374263601828
 20
2028.304798417024
 10
1262.561936303819
 20
2028.304798417024
 10
1262.726094094222
 20
2028.304798417024
 10
1262.866474355591
 20
2028.304798417024
 10
1262.982852509455
 20
2028.304798417024
 10
1263.075042375594
 20
2028.304798417024
 10
1263.142896469886
 20
2028.304798417024
 10
1263.186306240257
 20
2028.304798417024
 10
1263.205202240334
 20
2028.304798417024
 10
1263.206096423325
 20
2028.304798417024
  0
LWPOLYLINE
  5
1C1
330
191
100
AcDbEntity
  8
P-SANR-FIXT
100
AcDbPolyline
 90
       41
 70
   128
 43
0.0
 10
1263.206096423325
 20
2028.304798417024
 10
1263.193823708143
 20
2028.304798417024
 10
1263.157025196321
 20
2028.304798417024
 10
1263.095759757629
 20
2028.304798417024
 10
1263.0101254037
 20
2028.304798417024
 10
1262.900259131233
 20
2028.304798417024
 10
1262.766336702826
 20
2028.304798417024
 10
1262.608572365796
 20
2028.304798417024
 10
1262.427218509428
 20
2028.304798417024
 10
1262.222565261205
 20
2028.304798417024
 10
1261.994940022667
 20
2028.304798417024
 10
1261.744706945639
 20
2028.304798417024
 10
1261.472266349664
 20
2028.304798417024
 10
1261.178054081577
 20
2028.304798417024
 10
1260.862540818246
 20
2028.304798417024
 10
1260.526231313586
 20
2028.304798417024
 10
1260.169663591063
 20
2028.304798417024
 10
1259.793408082968
 20
2028.304798417024
 10
1259.398066717851
 20
2028.304798417024
 10
1258.984271957561
 20
2028.304798417024
 10
1258.552685785443
 20
2028.304798417024
 10
1258.103998647307
 20
2028.304798417024
 10
1257.638928346857
 20
2028.304798417024
 10
1257.158218897365
 20
2028.304798417024
 10
1256.662639331404
 20
2028.304798417024
 10
1256.152982470563
 20
2028.304798417024
 10
1255.630063657096
 20
2028.304798417024
 10
1255.094719449556
 20
2028.304798417024
 10
1254.547806284474
 20
2028.304798417024
 10
1253.990199106246
 20
2028.304798417024
 10
1253.422789967406
 20
2028.304798417024
 10
1252.846486601536
 20
2028.304798417024
 10
1252.262210971085
 20
2028.304798417024
 10
1251.67089779242
 20
2028.304798417024
 10
1251.073493040489
 20
2028.304798417024
 10
1250.470952435454
 20
2028.304798417024
 10
1249.864239913749
 20
2028.304798417024
 10
1249.254326085983
 20
2028.304798417024
 10
1248.642186684173
 20
2028.304798417024
 10
1248.028801000778
 20
2028.304798417024
 10
1247.863156828899
 20
2028.304798417024
  0
LINE
  5
1C2
330
191
100
AcDbEntity
  8
P-SANR-FIXT
100
AcDbLine
 10
1247.863156828897
 20
2037.498196168305
 30
0.0
 11
1236.5293452429
 21
2037.498196168305
 31
0.0
  0
LINE
  5
1C3
330
191
100
AcDbEntity
  8
P-SANR-FIXT
100
AcDbLine
 10
1259.192413922292
 20
2037.498196168305
 30
0.0
 11
1247.863156828897
 21
2037.498196168305
 31
0.0
  0
LINE
  5
1C4
330
191
100
AcDbEntity
  8
P-SANR-FIXT
100
AcDbLine
 10
1228.513156828898
 20
2034.497743523805
 30
0.0
 11
1247.863156828897
 21
2034.497743523805
 31
0.0
  0
LINE
  5
1C5
330
191
100
AcDbEntity
  8
P-SANR-FIXT
100
AcDbLine
 10
1247.863156828897
 20
2034.497743523805
 30
0.0
 11
1267.213156828896
 21
2034.497743523805
 31
0.0
  0
ARC
  5
1C6
330
191
100
AcDbEntity
  8
P-SANR-FIXT
100
AcDbCircle
 10
1247.863156828896
 20
2095.50479841707
 30
0.0
 40
19.20000000006303
100
AcDbArc
 50
269.9999999999997
 51
90.0
  0
ARC
  5
1C7
330
191
100
AcDbEntity
  8
P-SANR-FIXT
100
AcDbCircle
 10
1247.863156828896
 20
2095.50479841707
 30
0.0
 40
21.20000000000286
100
AcDbArc
 50
269.999999999999
 51
89.99999999999817
  0
SPLINE
  5
1C8
330
191
100
AcDbEntity
  8
P-SANR-FIXT
100
AcDbSpline
210
0.0
220
0.0
230
1.0
 70
     8
 71
     3
 72
     9
 73
     5
 74
     0
 42
0.000000001
 43
0.0000000001
 40
-1.0
 40
-1.0
 40
-1.0
 40
-1.0
 40
-0.5
 40
0.0
 40
0.0
 40
0.0
 40
0.0
 10
1238.065197857753
 20
2051.632158446224
 30
0.0
 10
1238.88708923603
 20
2051.819961286014
 30
0.0
 10
1240.538336212746
 20
2052.152101693101
 30
0.0
 10
1242.204511629791
 20
2052.397311555205
 30
0.0
 10
1243.041331448395
 20
2052.498183850011
 30
0.0
  0
SPLINE
  5
1C9
330
191
100
AcDbEntity
  8
P-SANR-FIXT
100
AcDbSpline
210
0.0
220
0.0
230
1.0
 70
     8
 71
     3
 72
     9
 73
     5
 74
     0
 42
0.000000001
 43
0.0000000001
 40
-1.0
 40
-1.0
 40
-1.0
 40
-1.0
 40
-0.5
 40
0.0
 40
0.0
 40
0.0
 40
0.0
 10
1230.327410306231
 20
2052.50479841707
 30
0.0
 10
1230.736087597022
 20
2052.408907121855
 30
0.0
 10
1231.564121841346
 20
2052.167575831499
 30
0.0
 10
1232.413515411151
 20
2051.827147141291
 30
0.0
 10
1232.843552027425
 20
2051.632158446224
 30
0.0
  0
SPLINE
  5
1CA
330
191
100
AcDbEntity
  8
P-SANR-FIXT
100
AcDbSpline
210
0.0
220
0.0
230
1.0
 70
     8
 71
     3
 72
     9
 73
     5
 74
     0
 42
0.000000001
 43
0.0000000001
 40
-1.0
 40
-1.0
 40
-1.0
 40
-1.0
 40
-0.5
 40
0.0
 40
0.0
 40
0.0
 40
0.0
 10
1223.045593056287
 20
2051.632158446226
 30
0.0
 10
1223.478315341973
 20
2051.828078957059
 30
0.0
 10
1224.33039458119
 20
2052.169439463034
 30
0.0
 10
1225.155743156102
 20
2052.409838937622
 30
0.0
 10
1225.561734777481
 20
2052.50479841707
 30
0.0
  0
SPLINE
  5
1CB
330
191
100
AcDbEntity
  8
P-SANR-FIXT
100
AcDbSpline
210
0.0
220
0.0
230
1.0
 70
     8
 71
     3
 72
     9
 73
     5
 74
     0
 42
0.000000001
 43
0.0000000001
 40
-1.0
 40
-1.0
 40
-1.0
 40
-1.0
 40
-0.5
 40
0.0
 40
0.0
 40
0.0
 40
0.0
 10
1262.882761630368
 20
2051.632158446224
 30
0.0
 10
1263.315483916053
 20
2051.828078957059
 30
0.0
 10
1264.167563155271
 20
2052.169439463034
 30
0.0
 10
1264.992911730183
 20
2052.409838937622
 30
0.0
 10
1265.398903351562
 20
2052.50479841707
 30
0.0
  0
SPLINE
  5
1CC
330
191
100
AcDbEntity
  8
P-SANR-FIXT
100
AcDbSpline
210
0.0
220
0.0
230
1.0
 70
     8
 71
     3
 72
     9
 73
     5
 74
     0
 42
0.000000001
 43
0.0000000001
 40
-1.0
 40
-1.0
 40
-1.0
 40
-1.0
 40
-0.5
 40
0.0
 40
0.0
 40
0.0
 40
0.0
 10
1252.684982209397
 20
2052.498183850011
 30
0.0
 10
1253.521802028002
 20
2052.397311555205
 30
0.0
 10
1255.187977445046
 20
2052.152101693101
 30
0.0
 10
1256.839224421763
 20
2051.819961286014
 30
0.0
 10
1257.661115800039
 20
2051.632158446224
 30
0.0
  0
SPLINE
  5
1CD
330
191
100
AcDbEntity
  8
P-SANR-FIXT
100
AcDbSpline
210
0.0
220
0.0
230
1.0
 70
     8
 71
     3
 72
     9
 73
     5
 74
     0
 42
0.000000001
 43
0.0000000001
 40
-1.0
 40
-1.0
 40
-1.0
 40
-1.0
 40
-0.5
 40
0.0
 40
0.0
 40
0.0
 40
0.0
 10
1270.164578880312
 20
2052.50479841707
 30
0.0
 10
1270.573256171103
 20
2052.408907121855
 30
0.0
 10
1271.401290415427
 20
2052.167575831499
 30
0.0
 10
1272.250683985233
 20
2051.827147141292
 30
0.0
 10
1272.680720601506
 20
2051.632158446226
 30
0.0
  0
LINE
  5
1CE
330
191
100
AcDbEntity
  8
P-SANR-FIXT
100
AcDbLine
 10
1232.843552027425
 20
2051.632158446224
 30
0.0
 11
1238.065197857753
 21
2051.632158446224
 31
0.0
  0
LINE
  5
1CF
330
191
100
AcDbEntity
  8
P-SANR-FIXT
100
AcDbLine
 10
1232.843552027421
 20
2051.632158446224
 30
0.0
 11
1232.843552027421
 21
2042.590098110632
 31
0.0
  0
LINE
  5
1D0
330
191
100
AcDbEntity
  8
P-SANR-FIXT
100
AcDbLine
 10
1238.065197857763
 20
2042.590098110632
 30
0.0
 11
1238.065197857763
 21
2051.632158446224
 31
0.0
  0
LINE
  5
1D1
330
191
100
AcDbEntity
  8
P-SANR-FIXT
100
AcDbLine
 10
1222.863156828897
 20
2051.632158446226
 30
0.0
 11
1223.045593056287
 21
2051.632158446226
 31
0.0
  0
LINE
  5
1D2
330
191
100
AcDbEntity
  8
P-SANR-FIXT
100
AcDbLine
 10
1223.045593056288
 20
2042.590098110633
 30
0.0
 11
1223.045593056288
 21
2051.632158446226
 31
0.0
  0
LINE
  5
1D3
330
191
100
AcDbEntity
  8
P-SANR-FIXT
100
AcDbLine
 10
1257.661115800039
 20
2051.632158446224
 30
0.0
 11
1262.882761630368
 21
2051.632158446224
 31
0.0
  0
LINE
  5
1D4
330
191
100
AcDbEntity
  8
P-SANR-FIXT
100
AcDbLine
 10
1257.66111580003
 20
2051.632158446224
 30
0.0
 11
1257.66111580003
 21
2042.590098110632
 31
0.0
  0
LINE
  5
1D5
330
191
100
AcDbEntity
  8
P-SANR-FIXT
100
AcDbLine
 10
1262.882761630372
 20
2042.590098110632
 30
0.0
 11
1262.882761630372
 21
2051.632158446224
 31
0.0
  0
LINE
  5
1D6
330
191
100
AcDbEntity
  8
P-SANR-FIXT
100
AcDbLine
 10
1272.680720601506
 20
2051.632158446226
 30
0.0
 11
1272.863156828897
 21
2051.632158446226
 31
0.0
  0
LINE
  5
1D7
330
191
100
AcDbEntity
  8
P-SANR-FIXT
100
AcDbLine
 10
1272.680720601506
 20
2051.632158446226
 30
0.0
 11
1272.680720601506
 21
2042.590098110633
 31
0.0
  0
LINE
  5
1D8
330
191
100
AcDbEntity
  8
P-SANR-FIXT
100
AcDbLine
 10
1247.863156828897
 20
2042.590098110631
 30
0.0
 11
1238.065197857753
 21
2042.590098110631
 31
0.0
  0
LINE
  5
1D9
330
191
100
AcDbEntity
  8
P-SANR-FIXT
100
AcDbLine
 10
1232.843552027425
 20
2042.590098110632
 30
0.0
 11
1238.065197857754
 21
2042.590098110632
 31
0.0
  0
LINE
  5
1DA
330
191
100
AcDbEntity
  8
P-SANR-FIXT
100
AcDbLine
 10
1232.843552027423
 20
2042.590098110631
 30
0.0
 11
1223.045593056285
 21
2042.590098110632
 31
0.0
  0
LINE
  5
1DB
330
191
100
AcDbEntity
  8
P-SANR-FIXT
100
AcDbLine
 10
1222.863156828897
 20
2042.590098110633
 30
0.0
 11
1223.045593056287
 21
2042.590098110633
 31
0.0
  0
LINE
  5
1DC
330
191
100
AcDbEntity
  8
P-SANR-FIXT
100
AcDbLine
 10
1272.680720601506
 20
2042.590098110633
 30
0.0
 11
1272.863156828897
 21
2042.590098110633
 31
0.0
  0
LINE
  5
1DD
330
191
100
AcDbEntity
  8
P-SANR-FIXT
100
AcDbLine
 10
1272.680720601509
 20
2042.590098110632
 30
0.0
 11
1262.882761630369
 21
2042.590098110631
 31
0.0
  0
LINE
  5
1DE
330
191
100
AcDbEntity
  8
P-SANR-FIXT
100
AcDbLine
 10
1257.661115800038
 20
2042.590098110632
 30
0.0
 11
1262.882761630368
 21
2042.590098110632
 31
0.0
  0
LINE
  5
1DF
330
191
100
AcDbEntity
  8
P-SANR-FIXT
100
AcDbLine
 10
1257.66111580004
 20
2042.590098110631
 30
0.0
 11
1247.863156828897
 21
2042.590098110631
 31
0.0
  0
LWPOLYLINE
  5
1E0
330
191
100
AcDbEntity
  8
P-SANR-FIXT
100
AcDbPolyline
 90
        4
 70
   128
 43
0.0
 10
1231.6559571231
 20
2037.498196168295
 10
1236.662880691395
 20
2038.099672723973
 10
1242.142339293269
 20
2038.471018162678
 10
1247.863156828897
 20
2038.596565573416
  0
LWPOLYLINE
  5
1E1
330
191
100
AcDbEntity
  8
P-SANR-FIXT
100
AcDbPolyline
 90
        4
 70
   128
 43
0.0
 10
1247.863156828897
 20
2038.596565573416
 10
1253.583974364524
 20
2038.471018162678
 10
1259.063432966398
 20
2038.099672723973
 10
1264.070356534694
 20
2037.498196168295
  0
LINE
  5
1E2
330
191
100
AcDbEntity
  8
P-SANR-FIXT
100
AcDbLine
 10
1207.863156828899
 20
1970.998183850012
 30
0.0
 11
1247.863156828896
 21
1970.998183850011
 31
0.0
  0
LINE
  5
1E3
330
191
100
AcDbEntity
  8
P-SANR-FIXT
100
AcDbLine
 10
1247.863156828897
 20
1970.998183850011
 30
0.0
 11
1287.863156828895
 21
1970.998183850012
 31
0.0
  0
LINE
  5
1E4
330
191
100
AcDbEntity
  8
P-SANR-FIXT
100
AcDbLine
 10
1247.863156828897
 20
2006.498183850011
 30
0.0
 11
1210.03459619014
 21
2006.498183850012
 31
0.0
  0
LINE
  5
1E5
330
191
100
AcDbEntity
  8
P-SANR-FIXT
100
AcDbLine
 10
1210.03459619014
 20
2006.498183850013
 30
0.0
 11
1209.934393658691
 21
2006.498183850013
 31
0.0
  0
LINE
  5
1E6
330
191
100
AcDbEntity
  8
P-SANR-FIXT
100
AcDbLine
 10
1209.891127504608
 20
2006.498183850013
 30
0.0
 11
1207.863156828897
 21
2006.498183850013
 31
0.0
  0
LINE
  5
1E7
330
191
100
AcDbEntity
  8
P-SANR-FIXT
100
AcDbLine
 10
1287.863156828897
 20
2006.498183850012
 30
0.0
 11
1285.835186153186
 21
2006.498183850012
 31
0.0
  0
LINE
  5
1E8
330
191
100
AcDbEntity
  8
P-SANR-FIXT
100
AcDbLine
 10
1285.791919999103
 20
2006.498183850012
 30
0.0
 11
1285.691717467653
 21
2006.498183850012
 31
0.0
  0
LINE
  5
1E9
330
191
100
AcDbEntity
  8
P-SANR-FIXT
100
AcDbLine
 10
1285.691717467653
 20
2006.498183850011
 30
0.0
 11
1247.863156828897
 21
2006.498183850011
 31
0.0
  0
LINE
  5
1EA
330
191
100
AcDbEntity
  8
P-SANR-FIXT
100
AcDbLine
 10
1221.363156828898
 20
1937.998183850012
 30
0.0
 11
1247.863156828896
 21
1937.998183850011
 31
0.0
  0
LINE
  5
1EB
330
191
100
AcDbEntity
  8
P-SANR-FIXT
100
AcDbLine
 10
1247.863156828897
 20
1937.998183850011
 30
0.0
 11
1274.363156828896
 21
1937.998183850012
 31
0.0
  0
SPLINE
  5
1EC
330
191
100
AcDbEntity
  8
P-SANR-FIXT
100
AcDbSpline
210
0.0
220
0.0
230
1.0
 70
     8
 71
     3
 72
     9
 73
     5
 74
     0
 42
0.000000001
 43
0.0000000001
 40
-1.0
 40
-1.0
 40
-1.0
 40
-1.0
 40
-0.5
 40
0.0
 40
0.0
 40
0.0
 40
0.0
 10
1232.882401886385
 20
2037.031208610547
 30
0.0
 10
1232.401008848124
 20
2036.963757422451
 30
0.0
 10
1231.460706400952
 20
2036.822787817702
 30
0.0
 10
1230.565371212479
 20
2036.669683755842
 30
0.0
 10
1230.128945432917
 20
2036.590098110633
 30
0.0
  0
SPLINE
  5
1ED
330
191
100
AcDbEntity
  8
P-SANR-FIXT
100
AcDbSpline
210
0.0
220
0.0
230
1.0
 70
     8
 71
     3
 72
    15
 73
    11
 74
     0
 42
0.000000001
 43
0.0000000001
 40
-1.0
 40
-1.0
 40
-1.0
 40
-1.0
 40
-0.7857142857142857
 40
-0.7321428571428572
 40
-0.6785714285714287
 40
-0.5714285714285714
 40
-0.4285714285714286
 40
-0.2857142857142857
 40
-0.1428571428571428
 40
0.0
 40
0.0
 40
0.0
 40
0.0
 10
1227.030795306135
 20
2036.590098110633
 30
0.0
 10
1226.714664932834
 20
2036.590098110633
 30
0.0
 10
1226.317062299175
 20
2036.501484632199
 30
0.0
 10
1225.837146433628
 20
2036.272044885844
 30
0.0
 10
1225.520661777106
 20
2036.086119418795
 30
0.0
 10
1225.07540978029
 20
2035.755752373453
 30
0.0
 10
1224.517929193729
 20
2035.197692470715
 30
0.0
 10
1223.942987678445
 20
2034.442277515053
 30
0.0
 10
1223.412822843411
 20
2033.564236803716
 30
0.0
 10
1223.107737061283
 20
2032.918665002464
 30
0.0
 10
1222.965741337105
 20
2032.590098110633
 30
0.0
  0
ARC
  5
1EE
330
191
100
AcDbEntity
  8
P-SANR-FIXT
100
AcDbCircle
 10
2352.203878032976
 20
1554.82061822758
 30
0.0
 40
1226.149438394884
100
AcDbArc
 50
157.0672590447997
 51
157.3164343860386
  0
LINE
  5
1EF
330
191
100
AcDbEntity
  8
P-SANR-FIXT
100
AcDbLine
 10
1213.608260865405
 20
2009.963696913599
 30
0.0
 11
1213.01290955904
 21
2008.498183850028
 31
0.0
  0
SPLINE
  5
1F0
330
191
100
AcDbEntity
  8
P-SANR-FIXT
100
AcDbSpline
210
0.0
220
0.0
230
1.0
 70
     8
 71
     3
 72
    15
 73
    11
 74
     0
 42
0.000000001
 43
0.0000000001
 40
-1.0
 40
-1.0
 40
-1.0
 40
-1.0
 40
-0.7857142857142857
 40
-0.7321428571428572
 40
-0.6785714285714287
 40
-0.5714285714285714
 40
-0.4285714285714286
 40
-0.2857142857142857
 40
-0.1428571428571428
 40
0.0
 40
0.0
 40
0.0
 40
0.0
 10
1213.012909559033
 20
2008.498183850011
 30
0.0
 10
1212.924520383566
 20
2008.284571568934
 30
0.0
 10
1212.829759435048
 20
2008.012089995144
 30
0.0
 10
1212.74027201289
 20
2007.699831711169
 30
0.0
 10
1212.690123854426
 20
2007.497376139522
 30
0.0
 10
1212.636050623376
 20
2007.226257364943
 30
0.0
 10
1212.611035291195
 20
2006.923433729094
 30
0.0
 10
1212.643068196448
 20
2006.677051551112
 30
0.0
 10
1212.734479739758
 20
2006.529388798642
 30
0.0
 10
1212.826732445349
 20
2006.498183850011
 30
0.0
 10
1212.881376224157
 20
2006.498183850011
 30
0.0
  0
SPLINE
  5
1F1
330
191
100
AcDbEntity
  8
P-SANR-FIXT
100
AcDbSpline
210
0.0
220
0.0
230
1.0
 70
     8
 71
     3
 72
    13
 73
     9
 74
     0
 42
0.000000001
 43
0.0000000001
 40
-1.0
 40
-1.0
 40
-1.0
 40
-1.0
 40
-0.7857142857142857
 40
-0.5714285714285714
 40
-0.4285714285714286
 40
-0.2857142857142857
 40
-0.1428571428571428
 40
0.0
 40
0.0
 40
0.0
 40
0.0
 10
1282.844937433637
 20
2006.498183850011
 30
0.0
 10
1282.926903101848
 20
2006.498183850011
 30
0.0
 10
1283.055263426824
 20
2006.568953623228
 30
0.0
 10
1283.12029439848
 20
2006.868181519543
 30
0.0
 10
1283.087627753309
 20
2007.253843197397
 30
0.0
 10
1283.005738473635
 20
2007.643960866351
 30
0.0
 10
1282.878173880598
 20
2008.067224705751
 30
0.0
 10
1282.772330215738
 20
2008.355775662626
 30
0.0
 10
1282.71340409876
 20
2008.498183850011
 30
0.0
  0
LINE
  5
1F2
330
191
100
AcDbEntity
  8
P-SANR-FIXT
100
AcDbLine
 10
1282.713404098766
 20
2008.498183849996
 30
0.0
 11
1282.119001177865
 21
2009.961364236326
 31
0.0
  0
ARC
  5
1F3
330
191
100
AcDbEntity
  8
P-SANR-FIXT
100
AcDbCircle
 10
143.4616656080216
 20
1554.79501153827
 30
0.0
 40
1226.215382979318
100
AcDbArc
 50
22.68345678920813
 51
22.93273645814337
  0
SPLINE
  5
1F4
330
191
100
AcDbEntity
  8
P-SANR-FIXT
100
AcDbSpline
210
0.0
220
0.0
230
1.0
 70
     8
 71
     3
 72
    14
 73
    10
 74
     0
 42
0.000000001
 43
0.0000000001
 40
-1.0
 40
-1.0
 40
-1.0
 40
-1.0
 40
-0.8571428571428571
 40
-0.7142857142857143
 40
-0.5714285714285714
 40
-0.4285714285714286
 40
-0.2857142857142857
 40
-0.1428571428571428
 40
0.0
 40
0.0
 40
0.0
 40
0.0
 10
1272.760572320689
 20
2032.590098110633
 30
0.0
 10
1272.61857659651
 20
2032.918665002464
 30
0.0
 10
1272.313498167894
 20
2033.564238684083
 30
0.0
 10
1271.783300242059
 20
2034.442270933767
 30
0.0
 10
1271.20848005971
 20
2035.197716915491
 30
0.0
 10
1270.599867178887
 20
2035.806393894066
 30
0.0
 10
1269.970045124742
 20
2036.252884246326
 30
0.0
 10
1269.328361143447
 20
2036.527144616692
 30
0.0
 10
1268.906271933859
 20
2036.590098110633
 30
0.0
 10
1268.695518351659
 20
2036.590098110633
 30
0.0
  0
SPLINE
  5
1F5
330
191
100
AcDbEntity
  8
P-SANR-FIXT
100
AcDbSpline
210
0.0
220
0.0
230
1.0
 70
     8
 71
     3
 72
     9
 73
     5
 74
     0
 42
0.000000001
 43
0.0000000001
 40
-1.0
 40
-1.0
 40
-1.0
 40
-1.0
 40
-0.5
 40
0.0
 40
0.0
 40
0.0
 40
0.0
 10
1265.597368224876
 20
2036.590098110633
 30
0.0
 10
1265.160942445314
 20
2036.669683755842
 30
0.0
 10
1264.265607256841
 20
2036.822787817702
 30
0.0
 10
1263.325304809669
 20
2036.963757422451
 30
0.0
 10
1262.843911771408
 20
2037.031208610547
 30
0.0
  0
ARC
  5
1F6
330
191
100
AcDbEntity
  8
P-SANR-FIXT
100
AcDbCircle
 10
1247.863156828896
 20
2095.50479841707
 30
0.0
 40
21.20000000000323
100
AcDbArc
 50
90.00000000000124
 51
270.0000000000002
  0
ARC
  5
1F7
330
191
100
AcDbEntity
  8
P-SANR-FIXT
100
AcDbCircle
 10
3426.695758110392
 20
1116.444746383984
 30
0.0
 40
2389.259881367099
100
AcDbArc
 50
157.45287650333
 51
158.0770292942085
  0
SPLINE
  5
1F8
330
191
100
AcDbEntity
  8
P-SANR-FIXT
100
AcDbSpline
210
0.0
220
0.0
230
1.0
 70
     8
 71
     3
 72
    14
 73
    10
 74
     0
 42
0.000000001
 43
0.0000000001
 40
-1.0
 40
-1.0
 40
-1.0
 40
-1.0
 40
-0.8571428571428571
 40
-0.7142857142857143
 40
-0.5714285714285714
 40
-0.4285714285714286
 40
-0.2857142857142857
 40
-0.1428571428571428
 40
0.0
 40
0.0
 40
0.0
 40
0.0
 10
1220.060202514501
 20
2032.590098110633
 30
0.0
 10
1220.196685340336
 20
2032.911612756956
 30
0.0
 10
1220.487573108768
 20
2033.545254986396
 30
0.0
 10
1220.986098203781
 20
2034.414365550377
 30
0.0
 10
1221.521535464942
 20
2035.169605018454
 30
0.0
 10
1222.083608132684
 20
2035.784786100792
 30
0.0
 10
1222.660065983438
 20
2036.241100151018
 30
0.0
 10
1223.241480835112
 20
2036.524403040418
 30
0.0
 10
1223.618018382748
 20
2036.590098110633
 30
0.0
 10
1223.804717153259
 20
2036.590098110633
 30
0.0
  0
LINE
  5
1F9
330
191
100
AcDbEntity
  8
P-SANR-FIXT
100
AcDbLine
 10
1223.804717153258
 20
2036.590098110633
 30
0.0
 11
1226.431323336436
 21
2036.590098110633
 31
0.0
  0
SPLINE
  5
1FA
330
191
100
AcDbEntity
  8
P-SANR-FIXT
100
AcDbSpline
210
0.0
220
0.0
230
1.0
 70
     8
 71
     3
 72
     9
 73
     5
 74
     0
 42
0.000000001
 43
0.0000000001
 40
-1.0
 40
-1.0
 40
-1.0
 40
-1.0
 40
-0.5
 40
0.0
 40
0.0
 40
0.0
 40
0.0
 10
1226.431323336436
 20
2036.590098110633
 30
0.0
 10
1227.219623115177
 20
2036.761963196557
 30
0.0
 10
1228.878695191696
 20
2037.085177958758
 30
0.0
 10
1230.702712306286
 20
2037.367361901664
 30
0.0
 10
1231.655957123099
 20
2037.498196168295
 30
0.0
  0
LINE
  5
1FB
330
191
100
AcDbEntity
  8
P-SANR-FIXT
100
AcDbLine
 10
1219.863161597268
 20
2037.498196168295
 30
0.0
 11
1231.655957123099
 21
2037.498196168295
 31
0.0
  0
SPLINE
  5
1FC
330
191
100
AcDbEntity
  8
P-SANR-FIXT
100
AcDbSpline
210
0.0
220
0.0
230
1.0
 70
     8
 71
     3
 72
     8
 73
     4
 74
     0
 42
0.000000001
 43
0.0000000001
 40
-1.0
 40
-1.0
 40
-1.0
 40
-1.0
 40
-0.8571428571428572
 40
-0.8571428571428572
 40
-0.8571428571428572
 40
-0.8571428571428572
 10
1210.03459619014
 20
2006.498183850011
 30
0.0
 10
1209.983601753798
 20
2006.498183850011
 30
0.0
 10
1209.940553566827
 20
2006.514232939428
 30
0.0
 10
1209.906006245941
 20
2006.547022266114
 30
0.0
  0
SPLINE
  5
1FD
330
191
100
AcDbEntity
  8
P-SANR-FIXT
100
AcDbSpline
210
0.0
220
0.0
230
1.0
 70
     8
 71
     3
 72
    13
 73
     9
 74
     0
 42
0.000000001
 43
0.0000000001
 40
-0.8214285714285713
 40
-0.8214285714285713
 40
-0.8214285714285713
 40
-0.8214285714285713
 40
-0.7857142857142857
 40
-0.5714285714285714
 40
-0.4285714285714286
 40
-0.2857142857142857
 40
-0.1428571428571428
 40
0.0
 40
0.0
 40
0.0
 40
0.0
 10
1209.881698333552
 20
2006.574763854801
 30
0.0
 10
1209.874132777477
 20
2006.585064515316
 30
0.0
 10
1209.824953675066
 20
2006.664568587022
 30
0.0
 10
1209.789917192913
 20
2006.871729023217
 30
0.0
 10
1209.831314418962
 20
2007.257354073281
 30
0.0
 10
1209.917853177065
 20
2007.646417914638
 30
0.0
 10
1210.047339747883
 20
2008.068393134138
 30
0.0
 10
1210.152904241158
 20
2008.356137150119
 30
0.0
 10
1210.211279162846
 20
2008.498183850011
 30
0.0
  0
ARC
  5
1FE
330
191
100
AcDbEntity
  8
P-SANR-FIXT
100
AcDbCircle
 10
-930.9694444527842
 20
1116.444746383908
 30
0.0
 40
2389.259881367303
100
AcDbArc
 50
21.9229707057923
 51
22.5471234966708
  0
SPLINE
  5
1FF
330
191
100
AcDbEntity
  8
P-SANR-FIXT
100
AcDbSpline
210
0.0
220
0.0
230
1.0
 70
     8
 71
     3
 72
    14
 73
    10
 74
     0
 42
0.000000001
 43
0.0000000001
 40
-1.0
 40
-1.0
 40
-1.0
 40
-1.0
 40
-0.7857142857142857
 40
-0.7321428571428572
 40
-0.6785714285714287
 40
-0.5714285714285714
 40
-0.4285714285714286
 40
-0.2857142857142857
 40
-0.178571428571449
 40
-0.178571428571449
 40
-0.178571428571449
 40
-0.178571428571449
 10
1285.515034494947
 20
2008.498183850011
 30
0.0
 10
1285.602596877479
 20
2008.285113800173
 30
0.0
 10
1285.697453118235
 20
2008.013444074958
 30
0.0
 10
1285.788757549699
 20
2007.702112320333
 30
0.0
 10
1285.840657153783
 20
2007.500227122063
 30
0.0
 10
1285.898246728859
 20
2007.229775546038
 30
0.0
 10
1285.930155061275
 20
2006.926966490012
 30
0.0
 10
1285.909814422389
 20
2006.700007017033
 30
0.0
 10
1285.86724722732
 20
2006.605720840032
 30
0.0
 10
1285.844317230148
 20
2006.574758577528
 30
0.0
  0
SPLINE
  5
200
330
191
100
AcDbEntity
  8
P-SANR-FIXT
100
AcDbSpline
210
0.0
220
0.0
230
1.0
 70
     8
 71
     3
 72
     8
 73
     4
 74
     0
 42
0.000000001
 43
0.0000000001
 40
-0.1428571428571428
 40
-0.1428571428571428
 40
-0.1428571428571428
 40
-0.1428571428571428
 40
0.0
 40
0.0
 40
0.0
 40
0.0
 10
1285.819852857102
 20
2006.546953764259
 30
0.0
 10
1285.785225096743
 20
2006.514102278272
 30
0.0
 10
1285.742711903996
 20
2006.498183850011
 30
0.0
 10
1285.691717467653
 20
2006.498183850011
 30
0.0
  0
LINE
  5
201
330
191
100
AcDbEntity
  8
P-SANR-FIXT
100
AcDbLine
 10
1264.070356534694
 20
2037.498196168295
 30
0.0
 11
1275.863152060526
 21
2037.498196168295
 31
0.0
  0
SPLINE
  5
202
330
191
100
AcDbEntity
  8
P-SANR-FIXT
100
AcDbSpline
210
0.0
220
0.0
230
1.0
 70
     8
 71
     3
 72
     9
 73
     5
 74
     0
 42
0.000000001
 43
0.0000000001
 40
-1.0
 40
-1.0
 40
-1.0
 40
-1.0
 40
-0.5
 40
0.0
 40
0.0
 40
0.0
 40
0.0
 10
1264.070356534694
 20
2037.498196168295
 30
0.0
 10
1265.023601351507
 20
2037.367361901664
 30
0.0
 10
1266.847618466098
 20
2037.085177958758
 30
0.0
 10
1268.506690542616
 20
2036.761963196557
 30
0.0
 10
1269.294990321357
 20
2036.590098110633
 30
0.0
  0
LINE
  5
203
330
191
100
AcDbEntity
  8
P-SANR-FIXT
100
AcDbLine
 10
1269.294990321357
 20
2036.590098110633
 30
0.0
 11
1271.921596504535
 21
2036.590098110633
 31
0.0
  0
SPLINE
  5
204
330
191
100
AcDbEntity
  8
P-SANR-FIXT
100
AcDbSpline
210
0.0
220
0.0
230
1.0
 70
     8
 71
     3
 72
    14
 73
    10
 74
     0
 42
0.000000001
 43
0.0000000001
 40
-1.0
 40
-1.0
 40
-1.0
 40
-1.0
 40
-0.8571428571428571
 40
-0.7142857142857144
 40
-0.5714285714285714
 40
-0.4285714285714286
 40
-0.2857142857142857
 40
-0.1428571428571428
 40
0.0
 40
0.0
 40
0.0
 40
0.0
 10
1271.921596504535
 20
2036.590098110633
 30
0.0
 10
1272.108295275046
 20
2036.590098110633
 30
0.0
 10
1272.484832822682
 20
2036.524403040418
 30
0.0
 10
1273.066247674355
 20
2036.241100151018
 30
0.0
 10
1273.64270552511
 20
2035.784786100792
 30
0.0
 10
1274.204778192851
 20
2035.169605018454
 30
0.0
 10
1274.740215454013
 20
2034.414365550377
 30
0.0
 10
1275.238740549026
 20
2033.545254986396
 30
0.0
 10
1275.529628317458
 20
2032.911612756956
 30
0.0
 10
1275.666111143292
 20
2032.590098110633
 30
0.0
  0
ARC
  5
205
330
191
100
AcDbEntity
  8
P-SANR-FIXT
100
AcDbCircle
 10
1215.426842892865
 20
2010.796018611831
 30
0.0
 40
1.999999999999761
100
AcDbArc
 50
158.077029294221
 51
204.5924419763793
  0
LINE
  5
206
330
191
100
AcDbEntity
  8
P-SANR-FIXT
100
AcDbLine
 10
1213.571469606574
 20
2011.54273808293
 30
0.0
 11
1219.182407992665
 21
2025.484232306003
 31
0.0
  0
ARC
  5
207
330
191
100
AcDbEntity
  8
P-SANR-FIXT
100
AcDbCircle
 10
1223.820841208392
 20
2023.617433628257
 30
0.0
 40
4.999999999999841
100
AcDbArc
 50
125.7634478902563
 51
158.0770292942163
  0
ARC
  5
208
330
191
100
AcDbEntity
  8
P-SANR-FIXT
100
AcDbCircle
 10
1271.903219527465
 20
2023.617433628256
 30
0.0
 40
4.9999999999999
100
AcDbArc
 50
21.93807360732097
 51
54.19099889799799
  0
LINE
  5
209
330
191
100
AcDbEntity
  8
P-SANR-FIXT
100
AcDbLine
 10
1276.541160502587
 20
2025.4854549106
 30
0.0
 11
1282.156664961767
 21
2011.543227124768
 31
0.0
  0
ARC
  5
20A
330
191
100
AcDbEntity
  8
P-SANR-FIXT
100
AcDbCircle
 10
1280.301488571718
 20
2010.796018611831
 30
0.0
 40
1.999999999999973
100
AcDbArc
 50
335.3340436870039
 51
21.93807360731952
  0
LINE
  5
20B
330
191
100
AcDbEntity
  8
P-SANR-FIXT
100
AcDbLine
 10
1230.128945432917
 20
2036.590098110633
 30
0.0
 11
1226.582775138304
 21
2036.590098110633
 31
0.0
  0
LINE
  5
20C
330
191
100
AcDbEntity
  8
P-SANR-FIXT
100
AcDbLine
 10
1269.143538519489
 20
2036.590098110633
 30
0.0
 11
1265.597368224876
 21
2036.590098110633
 31
0.0
  0
LWPOLYLINE
  5
20D
330
191
100
AcDbEntity
  8
P-SANR-FIXT
100
AcDbPolyline
 90
        4
 70
   128
 43
0.0
 10
1232.882401886385
 20
2037.031208610547
 10
1237.497220305897
 20
2037.597127060954
 10
1242.564539239525
 20
2037.94687133435
 10
1247.863156828897
 20
2038.065174169241
  0
LWPOLYLINE
  5
20E
330
191
100
AcDbEntity
  8
P-SANR-FIXT
100
AcDbPolyline
 90
        4
 70
   128
 43
0.0
 10
1247.863156828897
 20
2038.065174169241
 10
1253.161774418268
 20
2037.94687133435
 10
1258.229093351896
 20
2037.597127060954
 10
1262.843911771408
 20
2037.031208610547
  0
ARC
  5
20F
330
191
100
AcDbEntity
  8
P-SANR-FIXT
100
AcDbCircle
 10
1247.863156828897
 20
2095.50479841707
 30
0.0
 40
21.20000000000317
100
AcDbArc
 50
94.50108582948001
 51
94.99999999999918
  0
ARC
  5
210
330
191
100
AcDbEntity
  8
P-SANR-FIXT
100
AcDbCircle
 10
1247.863156828897
 20
2095.50479841707
 30
0.0
 40
21.20000000000319
100
AcDbArc
 50
99.00490068046083
 51
99.99999999999884
  0
ARC
  5
211
330
191
100
AcDbEntity
  8
P-SANR-FIXT
100
AcDbCircle
 10
1247.863156828897
 20
2095.50479841707
 30
0.0
 40
21.20000000000322
100
AcDbArc
 50
103.5104248664724
 51
104.9999999999991
  0
ARC
  5
212
330
191
100
AcDbEntity
  8
P-SANR-FIXT
100
AcDbCircle
 10
1247.863156828897
 20
2095.50479841707
 30
0.0
 40
21.20000000000336
100
AcDbArc
 50
108.0166638628856
 51
109.9999999999994
  0
ARC
  5
213
330
191
100
AcDbEntity
  8
P-SANR-FIXT
100
AcDbCircle
 10
1247.863156828897
 20
2095.50479841707
 30
0.0
 40
21.20000000000311
100
AcDbArc
 50
114.9999999999991
 51
117.0271086372946
  0
ARC
  5
214
330
191
100
AcDbEntity
  8
P-SANR-FIXT
100
AcDbCircle
 10
1247.863156828897
 20
2095.50479841707
 30
0.0
 40
21.2000000000034
100
AcDbArc
 50
119.9999999999993
 51
121.528924600847
  0
ARC
  5
215
330
191
100
AcDbEntity
  8
P-SANR-FIXT
100
AcDbCircle
 10
1247.863156828897
 20
2095.50479841707
 30
0.0
 40
21.20000000000318
100
AcDbArc
 50
124.9999999999992
 51
126.0264828102653
  0
ARC
  5
216
330
191
100
AcDbEntity
  8
P-SANR-FIXT
100
AcDbCircle
 10
1247.863156828897
 20
2095.50479841707
 30
0.0
 40
21.20000000000339
100
AcDbArc
 50
129.999999999999
 51
130.5177646484179
  0
ARC
  5
217
330
191
100
AcDbEntity
  8
P-SANR-FIXT
100
AcDbCircle
 10
1247.863156828897
 20
2095.50479841707
 30
0.0
 40
21.20000000000339
100
AcDbArc
 50
139.4822353515824
 51
139.9999999999986
  0
ARC
  5
218
330
191
100
AcDbEntity
  8
P-SANR-FIXT
100
AcDbCircle
 10
1247.863156828897
 20
2095.50479841707
 30
0.0
 40
21.20000000000333
100
AcDbArc
 50
143.9735171897358
 51
144.9999999999997
  0
ARC
  5
219
330
191
100
AcDbEntity
  8
P-SANR-FIXT
100
AcDbCircle
 10
1247.863156828897
 20
2095.50479841707
 30
0.0
 40
21.20000000000294
100
AcDbArc
 50
148.4710753991537
 51
150.0
  0
ARC
  5
21A
330
191
100
AcDbEntity
  8
P-SANR-FIXT
100
AcDbCircle
 10
1247.863156828897
 20
2095.50479841707
 30
0.0
 40
21.20000000000317
100
AcDbArc
 50
152.9728913627066
 51
154.9999999999991
  0
ARC
  5
21B
330
191
100
AcDbEntity
  8
P-SANR-FIXT
100
AcDbCircle
 10
1247.863156828897
 20
2095.50479841707
 30
0.0
 40
21.20000000000327
100
AcDbArc
 50
159.999999999999
 51
161.9833361371147
  0
ARC
  5
21C
330
191
100
AcDbEntity
  8
P-SANR-FIXT
100
AcDbCircle
 10
1247.863156828897
 20
2095.50479841707
 30
0.0
 40
21.20000000000322
100
AcDbArc
 50
164.9999999999989
 51
166.4895751335293
  0
ARC
  5
21D
330
191
100
AcDbEntity
  8
P-SANR-FIXT
100
AcDbCircle
 10
1247.863156828897
 20
2095.50479841707
 30
0.0
 40
21.20000000000318
100
AcDbArc
 50
169.9999999999998
 51
170.9950993195397
  0
ARC
  5
21E
330
191
100
AcDbEntity
  8
P-SANR-FIXT
100
AcDbCircle
 10
1247.863156828897
 20
2095.50479841707
 30
0.0
 40
21.20000000000315
100
AcDbArc
 50
174.999999999999
 51
175.4989141705207
  0
ARC
  5
21F
330
191
100
AcDbEntity
  8
P-SANR-FIXT
100
AcDbCircle
 10
1247.863156828897
 20
2095.50479841707
 30
0.0
 40
21.20000000000315
100
AcDbArc
 50
184.5010858294789
 51
184.9999999999993
  0
ARC
  5
220
330
191
100
AcDbEntity
  8
P-SANR-FIXT
100
AcDbCircle
 10
1247.863156828897
 20
2095.50479841707
 30
0.0
 40
21.20000000000316
100
AcDbArc
 50
189.0049006804599
 51
189.9999999999999
  0
ARC
  5
221
330
191
100
AcDbEntity
  8
P-SANR-FIXT
100
AcDbCircle
 10
1247.863156828897
 20
2095.50479841707
 30
0.0
 40
21.20000000000312
100
AcDbArc
 50
193.5104248664716
 51
194.9999999999995
  0
ARC
  5
222
330
191
100
AcDbEntity
  8
P-SANR-FIXT
100
AcDbCircle
 10
1247.863156828897
 20
2095.50479841707
 30
0.0
 40
21.20000000000329
100
AcDbArc
 50
198.0166638628847
 51
199.9999999999991
  0
ARC
  5
223
330
191
100
AcDbEntity
  8
P-SANR-FIXT
100
AcDbCircle
 10
1247.863156828897
 20
2095.50479841707
 30
0.0
 40
21.20000000000311
100
AcDbArc
 50
204.999999999999
 51
207.0271086372939
  0
ARC
  5
224
330
191
100
AcDbEntity
  8
P-SANR-FIXT
100
AcDbCircle
 10
1247.863156828897
 20
2095.50479841707
 30
0.0
 40
21.20000000000328
100
AcDbArc
 50
209.9999999999988
 51
211.5289246008468
  0
ARC
  5
225
330
191
100
AcDbEntity
  8
P-SANR-FIXT
100
AcDbCircle
 10
1247.863156828897
 20
2095.50479841707
 30
0.0
 40
21.20000000000318
100
AcDbArc
 50
214.9999999999988
 51
216.0264828102654
  0
ARC
  5
226
330
191
100
AcDbEntity
  8
P-SANR-FIXT
100
AcDbCircle
 10
1247.863156828897
 20
2095.50479841707
 30
0.0
 40
21.20000000000307
100
AcDbArc
 50
219.9999999999992
 51
220.5177646484171
  0
ARC
  5
227
330
191
100
AcDbEntity
  8
P-SANR-FIXT
100
AcDbCircle
 10
1247.863156828897
 20
2095.50479841707
 30
0.0
 40
21.20000000000305
100
AcDbArc
 50
229.4822353515811
 51
229.9999999999987
  0
ARC
  5
228
330
191
100
AcDbEntity
  8
P-SANR-FIXT
100
AcDbCircle
 10
1247.863156828897
 20
2095.50479841707
 30
0.0
 40
21.20000000000296
100
AcDbArc
 50
233.9735171897345
 51
234.9999999999983
  0
ARC
  5
229
330
191
100
AcDbEntity
  8
P-SANR-FIXT
100
AcDbCircle
 10
1247.863156828897
 20
2095.50479841707
 30
0.0
 40
21.20000000000317
100
AcDbArc
 50
238.4710753991523
 51
239.9999999999989
  0
ARC
  5
22A
330
191
100
AcDbEntity
  8
P-SANR-FIXT
100
AcDbCircle
 10
1247.863156828897
 20
2095.50479841707
 30
0.0
 40
21.20000000000307
100
AcDbArc
 50
242.9728913627053
 51
244.9999999999985
  0
ARC
  5
22B
330
191
100
AcDbEntity
  8
P-SANR-FIXT
100
AcDbCircle
 10
1247.863156828897
 20
2095.50479841707
 30
0.0
 40
21.20000000000306
100
AcDbArc
 50
249.9999999999986
 51
251.983336137114
  0
ARC
  5
22C
330
191
100
AcDbEntity
  8
P-SANR-FIXT
100
AcDbCircle
 10
1247.863156828897
 20
2095.50479841707
 30
0.0
 40
21.200000000003
100
AcDbArc
 50
254.9999999999986
 51
256.4895751335276
  0
ARC
  5
22D
330
191
100
AcDbEntity
  8
P-SANR-FIXT
100
AcDbCircle
 10
1247.863156828897
 20
2095.50479841707
 30
0.0
 40
21.20000000000295
100
AcDbArc
 50
259.9999999999988
 51
260.9950993195386
  0
ARC
  5
22E
330
191
100
AcDbEntity
  8
P-SANR-FIXT
100
AcDbCircle
 10
1247.863156828897
 20
2095.50479841707
 30
0.0
 40
21.20000000000293
100
AcDbArc
 50
264.9999999999986
 51
265.4989141705196
  0
ARC
  5
22F
330
191
100
AcDbEntity
  8
P-SANR-FIXT
100
AcDbCircle
 10
1247.863156828897
 20
2095.50479841707
 30
0.0
 40
21.2000000000029
100
AcDbArc
 50
274.5010858294784
 51
274.9999999999995
  0
ARC
  5
230
330
191
100
AcDbEntity
  8
P-SANR-FIXT
100
AcDbCircle
 10
1247.863156828897
 20
2095.50479841707
 30
0.0
 40
21.20000000000312
100
AcDbArc
 50
279.0049006804592
 51
279.9999999999991
  0
ARC
  5
231
330
191
100
AcDbEntity
  8
P-SANR-FIXT
100
AcDbCircle
 10
1247.863156828897
 20
2095.50479841707
 30
0.0
 40
21.20000000000285
100
AcDbArc
 50
283.5104248664705
 51
284.9999999999995
  0
ARC
  5
232
330
191
100
AcDbEntity
  8
P-SANR-FIXT
100
AcDbCircle
 10
1247.863156828897
 20
2095.50479841707
 30
0.0
 40
21.200000000003
100
AcDbArc
 50
288.0166638628844
 51
289.9999999999993
  0
ARC
  5
233
330
191
100
AcDbEntity
  8
P-SANR-FIXT
100
AcDbCircle
 10
1247.863156828897
 20
2095.50479841707
 30
0.0
 40
21.20000000000321
100
AcDbArc
 50
294.9999999999993
 51
297.0271086372914
  0
ARC
  5
234
330
191
100
AcDbEntity
  8
P-SANR-FIXT
100
AcDbCircle
 10
1247.863156828897
 20
2095.50479841707
 30
0.0
 40
21.20000000000309
100
AcDbArc
 50
299.9999999999988
 51
301.5289246008454
  0
ARC
  5
235
330
191
100
AcDbEntity
  8
P-SANR-FIXT
100
AcDbCircle
 10
1247.863156828897
 20
2095.50479841707
 30
0.0
 40
21.200000000003
100
AcDbArc
 50
304.9999999999994
 51
306.0264828102633
  0
ARC
  5
236
330
191
100
AcDbEntity
  8
P-SANR-FIXT
100
AcDbCircle
 10
1247.863156828897
 20
2095.50479841707
 30
0.0
 40
21.20000000000304
100
AcDbArc
 50
309.9999999999994
 51
310.5177646484166
  0
ARC
  5
237
330
191
100
AcDbEntity
  8
P-SANR-FIXT
100
AcDbCircle
 10
1247.863156828897
 20
2095.50479841707
 30
0.0
 40
21.2000000000029
100
AcDbArc
 50
319.4822353515813
 51
319.9999999999997
  0
ARC
  5
238
330
191
100
AcDbEntity
  8
P-SANR-FIXT
100
AcDbCircle
 10
1247.863156828897
 20
2095.50479841707
 30
0.0
 40
21.20000000000296
100
AcDbArc
 50
323.9735171897341
 51
324.9999999999993
  0
ARC
  5
239
330
191
100
AcDbEntity
  8
P-SANR-FIXT
100
AcDbCircle
 10
1247.863156828897
 20
2095.50479841707
 30
0.0
 40
21.20000000000306
100
AcDbArc
 50
328.4710753991528
 51
329.9999999999991
  0
ARC
  5
23A
330
191
100
AcDbEntity
  8
P-SANR-FIXT
100
AcDbCircle
 10
1247.863156828897
 20
2095.50479841707
 30
0.0
 40
21.20000000000307
100
AcDbArc
 50
332.9728913627053
 51
334.9999999999988
  0
ARC
  5
23B
330
191
100
AcDbEntity
  8
P-SANR-FIXT
100
AcDbCircle
 10
1247.863156828897
 20
2095.50479841707
 30
0.0
 40
21.20000000000298
100
AcDbArc
 50
339.9999999999987
 51
341.9833361371133
  0
ARC
  5
23C
330
191
100
AcDbEntity
  8
P-SANR-FIXT
100
AcDbCircle
 10
1247.863156828897
 20
2095.50479841707
 30
0.0
 40
21.20000000000294
100
AcDbArc
 50
344.9999999999997
 51
346.4895751335277
  0
ARC
  5
23D
330
191
100
AcDbEntity
  8
P-SANR-FIXT
100
AcDbCircle
 10
1247.863156828897
 20
2095.50479841707
 30
0.0
 40
21.20000000000292
100
AcDbArc
 50
349.9999999999995
 51
350.9950993195383
  0
ARC
  5
23E
330
191
100
AcDbEntity
  8
P-SANR-FIXT
100
AcDbCircle
 10
1247.863156828897
 20
2095.50479841707
 30
0.0
 40
21.20000000000291
100
AcDbArc
 50
354.9999999999986
 51
355.498914170519
  0
ARC
  5
23F
330
191
100
AcDbEntity
  8
P-SANR-FIXT
100
AcDbCircle
 10
1247.863156828897
 20
2095.50479841707
 30
0.0
 40
21.20000000000292
100
AcDbArc
 50
4.501085829478203
 51
4.999999999999858
  0
ARC
  5
240
330
191
100
AcDbEntity
  8
P-SANR-FIXT
100
AcDbCircle
 10
1247.863156828897
 20
2095.50479841707
 30
0.0
 40
21.20000000000316
100
AcDbArc
 50
9.00490068046013
 51
9.999999999998953
  0
ARC
  5
241
330
191
100
AcDbEntity
  8
P-SANR-FIXT
100
AcDbCircle
 10
1247.863156828897
 20
2095.50479841707
 30
0.0
 40
21.2000000000029
100
AcDbArc
 50
13.51042486647086
 51
14.99999999999886
  0
ARC
  5
242
330
191
100
AcDbEntity
  8
P-SANR-FIXT
100
AcDbCircle
 10
1247.863156828897
 20
2095.50479841707
 30
0.0
 40
21.200000000003
100
AcDbArc
 50
18.01666386288505
 51
19.99999999999941
  0
ARC
  5
243
330
191
100
AcDbEntity
  8
P-SANR-FIXT
100
AcDbCircle
 10
1247.863156828897
 20
2095.50479841707
 30
0.0
 40
21.20000000000311
100
AcDbArc
 50
24.9999999999994
 51
27.02710863729349
  0
ARC
  5
244
330
191
100
AcDbEntity
  8
P-SANR-FIXT
100
AcDbCircle
 10
1247.863156828897
 20
2095.50479841707
 30
0.0
 40
21.2000000000032
100
AcDbArc
 50
29.99999999999929
 51
31.52892460084671
  0
ARC
  5
245
330
191
100
AcDbEntity
  8
P-SANR-FIXT
100
AcDbCircle
 10
1247.863156828897
 20
2095.50479841707
 30
0.0
 40
21.200000000003
100
AcDbArc
 50
35.0
 51
36.02648281026417
  0
ARC
  5
246
330
191
100
AcDbEntity
  8
P-SANR-FIXT
100
AcDbCircle
 10
1247.863156828897
 20
2095.50479841707
 30
0.0
 40
21.20000000000304
100
AcDbArc
 50
39.99999999999934
 51
40.51776464841732
  0
ARC
  5
247
330
191
100
AcDbEntity
  8
P-SANR-FIXT
100
AcDbCircle
 10
1247.863156828897
 20
2095.50479841707
 30
0.0
 40
21.20000000000307
100
AcDbArc
 50
49.48223535158197
 51
49.99999999999909
  0
ARC
  5
248
330
191
100
AcDbEntity
  8
P-SANR-FIXT
100
AcDbCircle
 10
1247.863156828897
 20
2095.50479841707
 30
0.0
 40
21.20000000000301
100
AcDbArc
 50
53.97351718973554
 51
54.99999999999936
  0
ARC
  5
249
330
191
100
AcDbEntity
  8
P-SANR-FIXT
100
AcDbCircle
 10
1247.863156828897
 20
2095.50479841707
 30
0.0
 40
21.20000000000306
100
AcDbArc
 50
58.47107539915311
 51
60.00000000000031
  0
ARC
  5
24A
330
191
100
AcDbEntity
  8
P-SANR-FIXT
100
AcDbCircle
 10
1247.863156828897
 20
2095.50479841707
 30
0.0
 40
21.20000000000328
100
AcDbArc
 50
62.97289136270609
 51
64.99999999999987
  0
ARC
  5
24B
330
191
100
AcDbEntity
  8
P-SANR-FIXT
100
AcDbCircle
 10
1247.863156828897
 20
2095.50479841707
 30
0.0
 40
21.20000000000319
100
AcDbArc
 50
69.99999999999968
 51
71.98333613711463
  0
ARC
  5
24C
330
191
100
AcDbEntity
  8
P-SANR-FIXT
100
AcDbCircle
 10
1247.863156828897
 20
2095.50479841707
 30
0.0
 40
21.20000000000316
100
AcDbArc
 50
74.99999999999952
 51
76.48957513352854
  0
ARC
  5
24D
330
191
100
AcDbEntity
  8
P-SANR-FIXT
100
AcDbCircle
 10
1247.863156828897
 20
2095.50479841707
 30
0.0
 40
21.20000000000314
100
AcDbArc
 50
79.99999999999984
 51
80.99509931954047
  0
ARC
  5
24E
330
191
100
AcDbEntity
  8
P-SANR-FIXT
100
AcDbCircle
 10
1247.863156828897
 20
2095.50479841707
 30
0.0
 40
21.20000000000313
100
AcDbArc
 50
84.99999999999959
 51
85.49891417052123
  0
ARC
  5
24F
330
191
100
AcDbEntity
  8
P-SANR-FIXT
100
AcDbCircle
 10
1247.863156828897
 20
2095.50479841707
 30
0.0
 40
23.99999999999963
100
AcDbArc
 50
269.9999999999991
 51
344.7881919014729
  0
ARC
  5
250
330
191
100
AcDbEntity
  8
P-SANR-FIXT
100
AcDbCircle
 10
1247.863156828897
 20
2095.50479841707
 30
0.0
 40
23.99999999999995
100
AcDbArc
 50
344.9999999999994
 51
90.0
  0
ARC
  5
251
330
191
100
AcDbEntity
  8
P-SANR-FIXT
100
AcDbCircle
 10
1247.863156828897
 20
2095.50479841707
 30
0.0
 40
24.0
100
AcDbArc
 50
90.0
 51
184.426236852344
  0
ARC
  5
252
330
191
100
AcDbEntity
  8
P-SANR-FIXT
100
AcDbCircle
 10
1247.863156828897
 20
2095.50479841707
 30
0.0
 40
24.0
100
AcDbArc
 50
184.9999999999994
 51
189.9999999999993
  0
ARC
  5
253
330
191
100
AcDbEntity
  8
P-SANR-FIXT
100
AcDbCircle
 10
1247.863156828897
 20
2095.50479841707
 30
0.0
 40
24.00000000000006
100
AcDbArc
 50
190.4076599005182
 51
199.9999999999996
  0
ARC
  5
254
330
191
100
AcDbEntity
  8
P-SANR-FIXT
100
AcDbCircle
 10
1247.863156828897
 20
2095.50479841707
 30
0.0
 40
23.99999999999989
100
AcDbArc
 50
200.2267487716645
 51
204.9999999999991
  0
ARC
  5
255
330
191
100
AcDbEntity
  8
P-SANR-FIXT
100
AcDbCircle
 10
1247.863156828897
 20
2095.50479841707
 30
0.0
 40
23.99999999999998
100
AcDbArc
 50
205.6311385455838
 51
269.9999999999997
  0
LINE
  5
256
330
191
100
AcDbEntity
  8
P-SANR-FIXT
100
AcDbLine
 10
1247.863156828897
 20
2052.50479841707
 30
0.0
 11
1223.863156828897
 21
2052.50479841707
 31
0.0
  0
LINE
  5
257
330
191
100
AcDbEntity
  8
P-SANR-FIXT
100
AcDbLine
 10
1271.863156828897
 20
2052.50479841707
 30
0.0
 11
1247.863156828897
 21
2052.50479841707
 31
0.0
  0
SPLINE
  5
258
330
191
100
AcDbEntity
  8
P-SANR-FIXT
100
AcDbSpline
210
0.0
220
0.0
230
1.0
 70
     8
 71
     3
 72
     8
 73
     4
 74
     0
 42
0.000000001
 43
0.0000000001
 40
-1.0
 40
-1.0
 40
-1.0
 40
-1.0
 40
-0.8325850606721566
 40
-0.8325850606721566
 40
-0.8325850606721566
 40
-0.8325850606721566
 10
1252.863156828897
 20
2118.970665373129
 30
0.0
 10
1252.587219237109
 20
2119.029365873731
 30
0.0
 10
1252.310764783992
 20
2119.083159493496
 30
0.0
 10
1252.033793469545
 20
2119.132046232426
 30
0.0
  0
SPLINE
  5
259
330
191
100
AcDbEntity
  8
P-SANR-FIXT
100
AcDbSpline
210
0.0
220
0.0
230
1.0
 70
     8
 71
     3
 72
     8
 73
     4
 74
     0
 42
0.000000001
 43
0.0000000001
 40
-0.1674149393278094
 40
-0.1674149393278094
 40
-0.1674149393278094
 40
-0.1674149393278094
 40
0.0
 40
0.0
 40
0.0
 40
0.0
 10
1243.692520188248
 20
2119.132046232426
 30
0.0
 10
1243.415548873801
 20
2119.083159493496
 30
0.0
 10
1243.139094420684
 20
2119.029365873731
 30
0.0
 10
1242.863156828896
 20
2118.970665373129
 30
0.0
  0
LINE
  5
25A
330
191
100
AcDbEntity
  8
P-SANR-FIXT
100
AcDbLine
 10
1252.863156828897
 20
2121.50479841707
 30
0.0
 11
1252.863156828897
 21
2120.50479841707
 31
0.0
  0
LINE
  5
25B
330
191
100
AcDbEntity
  8
P-SANR-FIXT
100
AcDbLine
 10
1252.863156828897
 20
2120.50479841707
 30
0.0
 11
1252.863156828897
 21
2118.970665373129
 31
0.0
  0
LINE
  5
25C
330
191
100
AcDbEntity
  8
P-SANR-FIXT
100
AcDbLine
 10
1242.863156828896
 20
2120.50479841707
 30
0.0
 11
1242.863156828896
 21
2121.50479841707
 31
0.0
  0
LINE
  5
25D
330
191
100
AcDbEntity
  8
P-SANR-FIXT
100
AcDbLine
 10
1242.863156828896
 20
2118.970665373129
 30
0.0
 11
1242.863156828896
 21
2120.50479841707
 31
0.0
  0
ARC
  5
25E
330
191
100
AcDbEntity
  8
P-SANR-FIXT
100
AcDbCircle
 10
1247.863156828896
 20
2095.50479841707
 30
0.0
 40
19.20000000006303
100
AcDbArc
 50
90.0
 51
269.9999999999997
  0
LINE
  5
25F
330
191
100
AcDbEntity
  8
P-SANR-FIXT
100
AcDbLine
 10
1228.513163049094
 20
2032.311852602399
 30
0.0
 11
1247.863156828897
 21
2032.311852602399
 31
0.0
  0
LINE
  5
260
330
191
100
AcDbEntity
  8
P-SANR-FIXT
100
AcDbLine
 10
1247.863156828897
 20
2032.311852602399
 30
0.0
 11
1267.2131506087
 21
2032.311852602399
 31
0.0
  0
ENDBLK
  5
262
330
191
100
AcDbEntity
  8
0
100
AcDbBlockEnd
  0
ENDSEC
  0
SECTION
  2
ENTITIES
  0
INSERT
  5
F4
330
71
100
AcDbEntity
  8
P-SANR-FIXT
100
AcDbBlockReference
  2
Automatic flow rate regulator valve_Caleffi_121 DN15 - 1_2__-859151-Est - Idraulica
 10
0.0
 20
0.0
 30
0.0
1001
REVIT
1002
{
1070
     1
1000
863131
1002
}
1002
{
1070
     5
1000
859151
1002
}
1002
{
1070
     2
1000
-2001160
1002
}
  0
INSERT
  5
190
330
71
100
AcDbEntity
  8
P-SANR-FIXT
100
AcDbBlockReference
  2
Automatic flow rate regulator valve_Caleffi_121 DN15 - 1_2__-V1-Est - Idraulica
 10
0.0
 20
0.0
 30
0.0
1001
REVIT
1002
{
1070
     1
1000
863152
1002
}
1002
{
1070
     5
1000
859151
1002
}
1002
{
1070
     2
1000
-2001160
1002
}
  0
INSERT
  5
263
330
71
100
AcDbEntity
  8
P-SANR-FIXT
100
AcDbBlockReference
  2
Automatic flow rate regulator valve_Caleffi_121 DN15 - 1_2__-V2-Est - Idraulica
 10
0.0
 20
0.0
 30
0.0
1001
REVIT
1002
{
1070
     1
1000
863172
1002
}
1002
{
1070
     5
1000
859151
1002
}
1002
{
1070
     2
1000
-2001160
1002
}
  0
ENDSEC
  0
SECTION
  2
OBJECTS
  0
DICTIONARY
  5
C
330
0
100
AcDbDictionary
281
     1
  3
ACAD_CIP_PREVIOUS_PRODUCT_INFO
350
7A
  3
ACAD_COLOR
350
63
  3
ACAD_DETAILVIEWSTYLE
350
6B
  3
ACAD_GROUP
350
D
  3
ACAD_IMAGE_VARS
350
7B
  3
ACAD_LAYOUT
350
62
  3
ACAD_MATERIAL
350
10
  3
ACAD_MLEADERSTYLE
350
66
  3
ACAD_MLINESTYLE
350
5F
  3
ACAD_PLOTSETTINGS
350
61
  3
ACAD_PLOTSTYLENAME
350
E
  3
ACAD_SCALELIST
350
42
  3
ACAD_SECTIONVIEWSTYLE
350
68
  3
ACAD_TABLESTYLE
350
64
  3
ACAD_VISUALSTYLE
350
29
  3
ACDB_RECOMPOSE_DATA
350
26D
  3
AcDbVariableDictionary
350
7C
  3
REVIT_DICTIONARY
350
265
  0
DICTIONARY
  5
269
330
71
100
AcDbDictionary
280
     1
281
     1
  3
ACAD_SORTENTS
360
26A
  0
XRECORD
  5
7A
102
{ACAD_REACTORS
330
C
102
}
330
C
100
AcDbXrecord
280
     1
300
RVT
300
2013
300
RVT2013
  0
DICTIONARY
  5
63
102
{ACAD_REACTORS
330
C
102
}
330
C
100
AcDbDictionary
281
     1
  0
DICTIONARY
  5
6B
102
{ACAD_REACTORS
330
C
102
}
330
C
100
AcDbDictionary
281
     1
  3
Imperial24
350
6C
  0
DICTIONARY
  5
D
102
{ACAD_REACTORS
330
C
102
}
330
C
100
AcDbDictionary
281
     1
  0
RASTERVARIABLES
  5
7B
102
{ACAD_REACTORS
330
C
102
}
330
C
100
AcDbRasterVariables
 90
        0
 70
     0
 71
     1
 72
     1
  0
DICTIONARY
  5
62
102
{ACAD_REACTORS
330
C
102
}
330
C
100
AcDbDictionary
281
     1
  3
Layout1
350
70
  3
Layout2
350
78
  3
Model
350
74
  0
DICTIONARY
  5
10
102
{ACAD_REACTORS
330
C
102
}
330
C
100
AcDbDictionary
281
     1
  3
ByBlock
350
19
  3
ByLayer
350
11
  3
Global
350
21
  0
DICTIONARY
  5
66
102
{ACAD_REACTORS
330
C
102
}
330
C
100
AcDbDictionary
281
     1
  3
Standard
350
67
  0
DICTIONARY
  5
5F
102
{ACAD_REACTORS
330
C
102
}
330
C
100
AcDbDictionary
281
     1
  3
Standard
350
60
  0
DICTIONARY
  5
61
102
{ACAD_REACTORS
330
C
102
}
330
C
100
AcDbDictionary
281
     1
  0
ACDBDICTIONARYWDFLT
  5
E
102
{ACAD_REACTORS
330
C
102
}
330
C
100
AcDbDictionary
281
     1
  3
Normal
350
F
100
AcDbDictionaryWithDefault
340
F
  0
DICTIONARY
  5
42
102
{ACAD_REACTORS
330
C
102
}
330
C
100
AcDbDictionary
281
     1
  3
A0
350
43
  3
A1
350
44
  3
A2
350
45
  3
A3
350
46
  3
A4
350
47
  3
A5
350
48
  3
A6
350
49
  3
A7
350
4A
  3
A8
350
4B
  3
A9
350
4C
  3
B0
350
4D
  3
B1
350
4E
  3
B2
350
4F
  3
B3
350
50
  3
B4
350
51
  3
B5
350
52
  3
B6
350
53
  0
DICTIONARY
  5
68
102
{ACAD_REACTORS
330
C
102
}
330
C
100
AcDbDictionary
281
     1
  3
Imperial24
350
6A
  0
DICTIONARY
  5
64
102
{ACAD_REACTORS
330
C
102
}
330
C
100
AcDbDictionary
281
     1
  3
Standard
350
65
  0
DICTIONARY
  5
29
102
{ACAD_REACTORS
330
C
102
}
330
C
100
AcDbDictionary
281
     1
  3
2dWireframe
350
2F
  3
Basic
350
2E
  3
Brighten
350
35
  3
ColorChange
350
39
  3
Conceptual
350
32
  3
Dim
350
34
  3
EdgeColorOff
350
41
  3
Facepattern
350
38
  3
Flat
350
2A
  3
FlatWithEdges
350
2B
  3
Gouraud
350
2C
  3
GouraudWithEdges
350
2D
  3
Hidden
350
31
  3
JitterOff
350
3F
  3
Linepattern
350
37
  3
OverhangOff
350
40
  3
Realistic
350
33
  3
Shaded
350
3E
  3
Shaded with edges
350
3D
  3
Shades of Gray
350
3A
  3
Sketchy
350
3B
  3
Thicken
350
36
  3
Wireframe
350
30
  3
X-Ray
350
3C
  0
XRECORD
  5
26D
102
{ACAD_REACTORS
330
C
102
}
330
C
100
AcDbXrecord
280
     1
 90
        1
330
65
  0
DICTIONARY
  5
7C
102
{ACAD_REACTORS
330
C
102
}
330
C
100
AcDbDictionary
281
     1
  3
CANNOSCALE
350
81
  3
CMLEADERSTYLE
350
7E
  3
CTABLESTYLE
350
7D
  3
CVIEWDETAILSTYLE
350
7F
  3
CVIEWSECTIONSTYLE
350
80
  0
DICTIONARY
  5
265
102
{ACAD_REACTORS
330
C
102
}
330
C
100
AcDbDictionary
281
     1
  3
DRAWING_TOOL
350
268
  3
REVIT_CATEGORY_MAPPING
350
267
  3
REVIT_TYPE_MAPPING
350
266
  0
SORTENTSTABLE
  5
26A
102
{ACAD_REACTORS
330
269
102
}
330
269
100
AcDbSortentsTable
330
71
  0
ACDBDETAILVIEWSTYLE
  5
6C
102
{ACAD_REACTORS
330
6B
102
}
330
6B
100
AcDbModelDocViewStyle
 70
     0
  3
Imperial24
290
     1
100
AcDbDetailViewStyle
 70
     0
 71
     0
 90
        3
 71
     1
340
55
 62
   256
 40
0.24
340
0
 62
   256
 40
0.24
300

 40
0.36
280
     3
 71
     2
340
5D
 90
       25
 62
   256
 71
     3
340
55
 62
   256
 40
0.24
 90
        1
 40
0.75
 90
        1
300
%<\AcVar ViewType \f "%tc1">% %<\AcVar ViewDetailId>%\PSCALA %<\AcVar ViewScale \f "%sn">%
 71
     4
340
5D
 90
       25
 62
   256
340
5D
 90
       25
 62
   256
280
     0
  0
LAYOUT
  5
70
102
{ACAD_REACTORS
330
62
102
}
330
62
100
AcDbPlotSettings
  1

  2

  4

  6

 40
0.0
 41
0.0
 42
0.0
 43
0.0
 44
0.0
 45
0.0
 46
0.0
 47
0.0
 48
0.0
 49
0.0
140
0.0
141
0.0
142
1.0
143
1.0
 70
   688
 72
     0
 73
     0
 74
     5
  7

 75
    16
147
1.0
 76
     0
 77
     2
 78
   300
148
0.0
149
0.0
100
AcDbLayout
  1
Layout1
 70
     1
 71
     1
 10
0.0
 20
0.0
 11
12.0
 21
9.0
 12
0.0
 22
0.0
 32
0.0
 14
0.0
 24
0.0
 34
0.0
 15
0.0
 25
0.0
 35
0.0
146
0.0
 13
0.0
 23
0.0
 33
0.0
 16
1.0
 26
0.0
 36
0.0
 17
0.0
 27
1.0
 37
0.0
 76
     0
330
6D
  0
LAYOUT
  5
78
102
{ACAD_REACTORS
330
62
102
}
330
62
100
AcDbPlotSettings
  1

  2

  4

  6

 40
0.0
 41
0.0
 42
0.0
 43
0.0
 44
0.0
 45
0.0
 46
0.0
 47
0.0
 48
0.0
 49
0.0
140
0.0
141
0.0
142
1.0
143
1.0
 70
   688
 72
     0
 73
     0
 74
     5
  7

 75
    16
147
1.0
 76
     0
 77
     2
 78
   300
148
0.0
149
0.0
100
AcDbLayout
  1
Layout2
 70
     1
 71
     2
 10
0.0
 20
0.0
 11
12.0
 21
9.0
 12
0.0
 22
0.0
 32
0.0
 14
0.0
 24
0.0
 34
0.0
 15
0.0
 25
0.0
 35
0.0
146
0.0
 13
0.0
 23
0.0
 33
0.0
 16
1.0
 26
0.0
 36
0.0
 17
0.0
 27
1.0
 37
0.0
 76
     0
330
75
  0
LAYOUT
  5
74
102
{ACAD_REACTORS
330
62
102
}
330
62
100
AcDbPlotSettings
  1

  2

  4

  6

 40
0.0
 41
0.0
 42
0.0
 43
0.0
 44
0.0
 45
0.0
 46
0.0
 47
0.0
 48
0.0
 49
0.0
140
0.0
141
0.0
142
1.0
143
1.0
 70
  1712
 72
     0
 73
     0
 74
     0
  7

 75
     0
147
1.0
 76
     0
 77
     2
 78
   300
148
0.0
149
0.0
100
AcDbLayout
  1
Model
 70
     1
 71
     0
 10
0.0
 20
0.0
 11
12.0
 21
9.0
 12
0.0
 22
0.0
 32
0.0
 14
0.0
 24
0.0
 34
0.0
 15
0.0
 25
0.0
 35
0.0
146
0.0
 13
0.0
 23
0.0
 33
0.0
 16
1.0
 26
0.0
 36
0.0
 17
0.0
 27
1.0
 37
0.0
 76
     0
330
71
  0
MATERIAL
  5
19
102
{ACAD_XDICTIONARY
360
1A
102
}
102
{ACAD_REACTORS
330
10
102
}
330
10
100
AcDbMaterial
  1
ByBlock
 72
     0
 43
0.0208333333333333
 43
0.0
 43
0.0
 43
0.0
 43
0.0
 43
0.0208333333333333
 43
0.0
 43
0.0
 43
0.0
 43
0.0
 43
1.0
 43
0.0
 43
0.0
 43
0.0
 43
0.0
 43
1.0
 77
     0
 47
0.0208333333333333
 47
0.0
 47
0.0
 47
0.0
 47
0.0
 47
0.0208333333333333
 47
0.0
 47
0.0
 47
0.0
 47
0.0
 47
1.0
 47
0.0
 47
0.0
 47
0.0
 47
0.0
 47
1.0
171
     0
 49
0.0208333333333333
 49
0.0
 49
0.0
 49
0.0
 49
0.0
 49
0.0208333333333333
 49
0.0
 49
0.0
 49
0.0
 49
0.0
 49
1.0
 49
0.0
 49
0.0
 49
0.0
 49
0.0
 49
1.0
175
     0
142
0.0208333333333333
142
0.0
142
0.0
142
0.0
142
0.0
142
0.0208333333333333
142
0.0
142
0.0
142
0.0
142
0.0
142
1.0
142
0.0
142
0.0
142
0.0
142
0.0
142
1.0
179
     0
144
0.0208333333333333
144
0.0
144
0.0
144
0.0
144
0.0
144
0.0208333333333333
144
0.0
144
0.0
144
0.0
144
0.0
144
1.0
144
0.0
144
0.0
144
0.0
144
0.0
144
1.0
147
0.0208333333333333
147
0.0
147
0.0
147
0.0
147
0.0
147
0.0208333333333333
147
0.0
147
0.0
147
0.0
147
0.0
147
1.0
147
0.0
147
0.0
147
0.0
147
0.0
147
1.0
  0
MATERIAL
  5
11
102
{ACAD_XDICTIONARY
360
12
102
}
102
{ACAD_REACTORS
330
10
102
}
330
10
100
AcDbMaterial
  1
ByLayer
 72
     0
 43
0.0208333333333333
 43
0.0
 43
0.0
 43
0.0
 43
0.0
 43
0.0208333333333333
 43
0.0
 43
0.0
 43
0.0
 43
0.0
 43
1.0
 43
0.0
 43
0.0
 43
0.0
 43
0.0
 43
1.0
 77
     0
 47
0.0208333333333333
 47
0.0
 47
0.0
 47
0.0
 47
0.0
 47
0.0208333333333333
 47
0.0
 47
0.0
 47
0.0
 47
0.0
 47
1.0
 47
0.0
 47
0.0
 47
0.0
 47
0.0
 47
1.0
171
     0
 49
0.0208333333333333
 49
0.0
 49
0.0
 49
0.0
 49
0.0
 49
0.0208333333333333
 49
0.0
 49
0.0
 49
0.0
 49
0.0
 49
1.0
 49
0.0
 49
0.0
 49
0.0
 49
0.0
 49
1.0
175
     0
142
0.0208333333333333
142
0.0
142
0.0
142
0.0
142
0.0
142
0.0208333333333333
142
0.0
142
0.0
142
0.0
142
0.0
142
1.0
142
0.0
142
0.0
142
0.0
142
0.0
142
1.0
179
     0
144
0.0208333333333333
144
0.0
144
0.0
144
0.0
144
0.0
144
0.0208333333333333
144
0.0
144
0.0
144
0.0
144
0.0
144
1.0
144
0.0
144
0.0
144
0.0
144
0.0
144
1.0
147
0.0208333333333333
147
0.0
147
0.0
147
0.0
147
0.0
147
0.0208333333333333
147
0.0
147
0.0
147
0.0
147
0.0
147
1.0
147
0.0
147
0.0
147
0.0
147
0.0
147
1.0
  0
MATERIAL
  5
21
102
{ACAD_XDICTIONARY
360
22
102
}
102
{ACAD_REACTORS
330
10
102
}
330
10
100
AcDbMaterial
  1
Global
 72
     0
 43
0.0208333333333333
 43
0.0
 43
0.0
 43
0.0
 43
0.0
 43
0.0208333333333333
 43
0.0
 43
0.0
 43
0.0
 43
0.0
 43
1.0
 43
0.0
 43
0.0
 43
0.0
 43
0.0
 43
1.0
 77
     0
 47
0.0208333333333333
 47
0.0
 47
0.0
 47
0.0
 47
0.0
 47
0.0208333333333333
 47
0.0
 47
0.0
 47
0.0
 47
0.0
 47
1.0
 47
0.0
 47
0.0
 47
0.0
 47
0.0
 47
1.0
171
     0
 49
0.0208333333333333
 49
0.0
 49
0.0
 49
0.0
 49
0.0
 49
0.0208333333333333
 49
0.0
 49
0.0
 49
0.0
 49
0.0
 49
1.0
 49
0.0
 49
0.0
 49
0.0
 49
0.0
 49
1.0
175
     0
142
0.0208333333333333
142
0.0
142
0.0
142
0.0
142
0.0
142
0.0208333333333333
142
0.0
142
0.0
142
0.0
142
0.0
142
1.0
142
0.0
142
0.0
142
0.0
142
0.0
142
1.0
179
     0
144
0.0208333333333333
144
0.0
144
0.0
144
0.0
144
0.0
144
0.0208333333333333
144
0.0
144
0.0
144
0.0
144
0.0
144
1.0
144
0.0
144
0.0
144
0.0
144
0.0
144
1.0
147
0.0208333333333333
147
0.0
147
0.0
147
0.0
147
0.0
147
0.0208333333333333
147
0.0
147
0.0
147
0.0
147
0.0
147
1.0
147
0.0
147
0.0
147
0.0
147
0.0
147
1.0
  0
MLEADERSTYLE
  5
67
102
{ACAD_REACTORS
330
66
102
}
330
66
100
AcDbMLeaderStyle
179
     2
170
     2
171
     1
172
     0
 90
        2
 40
0.0
 41
0.0
173
     1
 91
-1056964608
340
5B
 92
       -2
290
     1
 42
0.09
291
     1
 43
0.36
  3
Standard
 44
0.18
300

342
55
174
     1
178
     6
175
     1
176
     0
 93
-1056964608
 45
0.18
292
     0
297
     0
 46
0.18
 94
-1056964608
 47
1.0
 49
1.0
140
1.0
293
     1
141
0.0
294
     1
177
     0
142
1.0
295
     1
296
     0
143
0.125
271
     0
272
     9
273
     9
298
     1
  0
MLINESTYLE
  5
60
102
{ACAD_REACTORS
330
5F
102
}
330
5F
100
AcDbMlineStyle
  2
STANDARD
 70
     0
  3

 62
   256
 51
90.0
 52
90.0
 71
     2
 49
0.5
 62
   256
  6
BYLAYER
 49
-0.5
 62
   256
  6
BYLAYER
  0
ACDBPLACEHOLDER
  5
F
102
{ACAD_REACTORS
330
E
102
}
330
E
  0
SCALE
  5
43
102
{ACAD_REACTORS
330
42
102
}
330
42
100
AcDbScale
 70
     0
300
1:1
140
1.0
141
1.0
290
     1
  0
SCALE
  5
44
102
{ACAD_REACTORS
330
42
102
}
330
42
100
AcDbScale
 70
     0
300
1/128" = 1'-0"
140
0.0078125
141
12.0
290
     0
  0
SCALE
  5
45
102
{ACAD_REACTORS
330
42
102
}
330
42
100
AcDbScale
 70
     0
300
1/64" = 1'-0"
140
0.015625
141
12.0
290
     0
  0
SCALE
  5
46
102
{ACAD_REACTORS
330
42
102
}
330
42
100
AcDbScale
 70
     0
300
1/32" = 1'-0"
140
0.03125
141
12.0
290
     0
  0
SCALE
  5
47
102
{ACAD_REACTORS
330
42
102
}
330
42
100
AcDbScale
 70
     0
300
1/16" = 1'-0"
140
0.0625
141
12.0
290
     0
  0
SCALE
  5
48
102
{ACAD_REACTORS
330
42
102
}
330
42
100
AcDbScale
 70
     0
300
3/32" = 1'-0"
140
0.09375
141
12.0
290
     0
  0
SCALE
  5
49
102
{ACAD_REACTORS
330
42
102
}
330
42
100
AcDbScale
 70
     0
300
1/8" = 1'-0"
140
0.125
141
12.0
290
     0
  0
SCALE
  5
4A
102
{ACAD_REACTORS
330
42
102
}
330
42
100
AcDbScale
 70
     0
300
3/16" = 1'-0"
140
0.1875
141
12.0
290
     0
  0
SCALE
  5
4B
102
{ACAD_REACTORS
330
42
102
}
330
42
100
AcDbScale
 70
     0
300
1/4" = 1'-0"
140
0.25
141
12.0
290
     0
  0
SCALE
  5
4C
102
{ACAD_REACTORS
330
42
102
}
330
42
100
AcDbScale
 70
     0
300
3/8" = 1'-0"
140
0.375
141
12.0
290
     0
  0
SCALE
  5
4D
102
{ACAD_REACTORS
330
42
102
}
330
42
100
AcDbScale
 70
     0
300
1/2" = 1'-0"
140
0.5
141
12.0
290
     0
  0
SCALE
  5
4E
102
{ACAD_REACTORS
330
42
102
}
330
42
100
AcDbScale
 70
     0
300
3/4" = 1'-0"
140
0.75
141
12.0
290
     0
  0
SCALE
  5
4F
102
{ACAD_REACTORS
330
42
102
}
330
42
100
AcDbScale
 70
     0
300
1" = 1'-0"
140
1.0
141
12.0
290
     0
  0
SCALE
  5
50
102
{ACAD_REACTORS
330
42
102
}
330
42
100
AcDbScale
 70
     0
300
1-1/2" = 1'-0"
140
1.5
141
12.0
290
     0
  0
SCALE
  5
51
102
{ACAD_REACTORS
330
42
102
}
330
42
100
AcDbScale
 70
     0
300
3" = 1'-0"
140
3.0
141
12.0
290
     0
  0
SCALE
  5
52
102
{ACAD_REACTORS
330
42
102
}
330
42
100
AcDbScale
 70
     0
300
6" = 1'-0"
140
6.0
141
12.0
290
     0
  0
SCALE
  5
53
102
{ACAD_REACTORS
330
42
102
}
330
42
100
AcDbScale
 70
     0
300
1'-0" = 1'-0"
140
12.0
141
12.0
290
     0
  0
ACDBSECTIONVIEWSTYLE
  5
6A
102
{ACAD_REACTORS
330
68
102
}
330
68
100
AcDbModelDocViewStyle
 70
     0
  3
Imperial24
290
     1
100
AcDbSectionViewStyle
 70
     0
 71
     0
 90
       78
 71
     1
340
55
 62
   256
 40
0.24
340
0
340
0
 62
   256
 40
0.24
300
I, O, Q, S, X, Z
 40
0.48
 90
        3
 40
0.18
 90
        1
 71
     2
340
69
 90
       25
 62
   256
340
5D
 90
       50
 62
   256
 40
0.24
 40
0.0
 40
0.24
 71
     3
340
55
 62
   256
 40
0.24
 90
        1
 40
0.75
 90
        1
300
%<\AcVar ViewType \f "%tc1">% %<\AcVar ViewSectionStartId>%-%<\AcVar ViewSectionEndId>%\PSCALA %<\AcVar ViewScale \f "%sn">%
 71
     4
 62
   256
 62
   257
300
ANSI31
 40
1.0
 90
        0
290
     0
290
     0
 90
        6
 40
0.0
 40
1.570796326794896
 40
0.2617993877991494
 40
1.308996938995747
 40
-0.2617993877991494
 40
1.832595714594046
  0
TABLESTYLE
  5
65
102
{ACAD_XDICTIONARY
360
26B
102
}
102
{ACAD_REACTORS
330
64
102
}
330
64
100
AcDbTableStyle
280
     0
  3
Standard
 70
     0
 71
     0
 40
0.06
 41
0.06
280
     0
281
     0
  7
Standard
140
0.18
170
     2
 62
     0
 63
     7
283
     0
 90
      512
 91
        0
  1

274
    -2
284
     1
 64
     0
275
    -2
285
     1
 65
     0
276
    -2
286
     1
 66
     0
277
    -2
287
     1
 67
     0
278
    -2
288
     1
 68
     0
279
    -2
289
     1
 69
     0
  7
Standard
140
0.25
170
     5
 62
     0
 63
     7
283
     0
 90
      512
 91
        0
  1

274
    -2
284
     1
 64
     0
275
    -2
285
     1
 65
     0
276
    -2
286
     1
 66
     0
277
    -2
287
     1
 67
     0
278
    -2
288
     1
 68
     0
279
    -2
289
     1
 69
     0
  7
Standard
140
0.18
170
     5
 62
     0
 63
     7
283
     0
 90
      512
 91
        0
  1

274
    -2
284
     1
 64
     0
275
    -2
285
     1
 65
     0
276
    -2
286
     1
 66
     0
277
    -2
287
     1
 67
     0
278
    -2
288
     1
 68
     0
279
    -2
289
     1
 69
     0
  0
VISUALSTYLE
  5
2F
102
{ACAD_REACTORS
330
29
102
}
330
29
100
AcDbVisualStyle
  2
2dWireframe
 70
     4
177
     3
291
     0
 70
    58
 90
        0
176
     1
 90
        2
176
     1
 90
        0
176
     1
 90
        0
176
     1
 40
0.6
176
     1
 40
30.0
176
     1
 62
     7
420
 16777215
176
     1
 90
        1
176
     1
 90
        4
176
     1
 62
     7
176
     1
 62
   257
176
     1
 90
        1
176
     1
 90
        1
176
     1
 40
1.0
176
     1
 90
        0
176
     1
 62
   257
176
     1
 40
1.0
176
     1
 90
        1
176
     1
 90
        6
176
     1
 90
        2
176
     1
 62
     7
176
     1
 90
        5
176
     1
 90
        0
176
     1
 90
        0
176
     1
290
     0
176
     1
 90
        1
176
     1
 40
0.0
176
     1
 90
        0
176
     1
290
     1
176
     1
290
     1
176
     1
290
     0
176
     1
290
     0
176
     1
290
     0
176
     1
290
     0
176
     1
290
     0
176
     1
290
     0
176
     1
290
     0
176
     1
 90
       50
176
     1
 40
0.0
176
     1
 40
1.0
176
     1
 90
        0
176
     1
 62
    18
420
        0
176
     1
 90
       50
176
     1
 90
        3
176
     1
 62
     5
420
      255
176
     1
290
     0
176
     1
 90
       50
176
     1
 90
       50
176
     1
 90
       50
176
     1
290
     0
176
     1
 90
       50
176
     1
 62
   256
176
     0
 40
1.0
176
     0
 90
        2
176
     1
  1
strokes_ogs.tif
176
     1
290
     0
176
     1
 40
1.0
176
     1
 40
1.0
176
     1
  0
VISUALSTYLE
  5
2E
102
{ACAD_REACTORS
330
29
102
}
330
29
100
AcDbVisualStyle
  2
Basic
 70
     7
177
     3
291
     1
 70
    58
 90
        1
176
     1
 90
        0
176
     1
 90
        1
176
     1
 90
        0
176
     1
 40
0.6
176
     1
 40
30.0
176
     1
 62
     7
420
 16777215
176
     1
 90
        0
176
     1
 90
        4
176
     1
 62
     7
176
     1
 62
   257
176
     1
 90
        1
176
     1
 90
        1
176
     1
 40
1.0
176
     1
 90
        8
176
     1
 62
     7
176
     1
 40
1.0
176
     1
 90
        1
176
     1
 90
        6
176
     1
 90
        2
176
     1
 62
     7
176
     1
 90
        5
176
     1
 90
        0
176
     1
 90
        0
176
     1
290
     0
176
     1
 90
        1
176
     1
 40
0.0
176
     1
 90
        0
176
     1
290
     0
176
     1
290
     1
176
     1
290
     1
176
     1
290
     0
176
     1
290
     0
176
     1
290
     0
176
     1
290
     0
176
     1
290
     0
176
     1
290
     0
176
     1
 90
       50
176
     1
 40
0.0
176
     1
 40
1.0
176
     1
 90
        0
176
     1
 62
    18
420
        0
176
     1
 90
       50
176
     1
 90
        3
176
     1
 62
     5
420
      255
176
     1
290
     0
176
     1
 90
       50
176
     1
 90
       50
176
     1
 90
       50
176
     1
290
     0
176
     1
 90
       50
176
     1
 62
   256
176
     0
 40
1.0
176
     0
 90
        2
176
     1
  1
strokes_ogs.tif
176
     1
290
     0
176
     1
 40
1.0
176
     1
 40
1.0
176
     1
  0
VISUALSTYLE
  5
35
102
{ACAD_REACTORS
330
29
102
}
330
29
100
AcDbVisualStyle
  2
Brighten
 70
    12
177
     3
291
     1
 70
    58
 90
        2
176
     1
 90
        2
176
     1
 90
        0
176
     1
 90
        0
176
     1
 40
0.6
176
     1
 40
30.0
176
     1
 62
     7
420
 16777215
176
     1
 90
        1
176
     1
 90
        4
176
     1
 62
     7
176
     1
 62
   257
176
     1
 90
        1
176
     1
 90
        1
176
     1
 40
1.0
176
     1
 90
        8
176
     1
 62
     7
176
     1
 40
1.0
176
     1
 90
        1
176
     1
 90
        6
176
     1
 90
        2
176
     1
 62
     7
176
     1
 90
        5
176
     1
 90
        0
176
     1
 90
        0
176
     1
290
     0
176
     1
 90
        1
176
     1
 40
50.0
176
     1
 90
        0
176
     1
290
     0
176
     1
290
     1
176
     1
290
     1
176
     1
290
     0
176
     1
290
     0
176
     1
290
     0
176
     1
290
     0
176
     1
290
     0
176
     1
290
     0
176
     1
 90
       50
176
     1
 40
0.0
176
     1
 40
1.0
176
     1
 90
        0
176
     1
 62
    18
420
        0
176
     1
 90
       50
176
     1
 90
        3
176
     1
 62
     5
420
      255
176
     1
290
     0
176
     1
 90
       50
176
     1
 90
       50
176
     1
 90
       50
176
     1
290
     0
176
     1
 90
       50
176
     1
 62
   256
176
     0
 40
1.0
176
     0
 90
        2
176
     1
  1
strokes_ogs.tif
176
     1
290
     0
176
     1
 40
1.0
176
     1
 40
1.0
176
     1
  0
VISUALSTYLE
  5
39
102
{ACAD_REACTORS
330
29
102
}
330
29
100
AcDbVisualStyle
  2
ColorChange
 70
    16
177
     3
291
     1
 70
    58
 90
        2
176
     1
 90
        2
176
     1
 90
        3
176
     1
 90
        0
176
     1
 40
0.6
176
     1
 40
30.0
176
     1
 62
     8
420
  8421504
176
     1
 90
        1
176
     1
 90
        4
176
     1
 62
     7
176
     1
 62
   257
176
     1
 90
        1
176
     1
 90
        1
176
     1
 40
1.0
176
     1
 90
        8
176
     1
 62
     8
420
  8421504
176
     1
 40
1.0
176
     1
 90
        1
176
     1
 90
        6
176
     1
 90
        2
176
     1
 62
     7
176
     1
 90
        5
176
     1
 90
        0
176
     1
 90
        0
176
     1
290
     0
176
     1
 90
        1
176
     1
 40
0.0
176
     1
 90
        0
176
     1
290
     0
176
     1
290
     1
176
     1
290
     1
176
     1
290
     0
176
     1
290
     0
176
     1
290
     0
176
     1
290
     0
176
     1
290
     0
176
     1
290
     0
176
     1
 90
       50
176
     1
 40
0.0
176
     1
 40
1.0
176
     1
 90
        0
176
     1
 62
    18
420
        0
176
     1
 90
       50
176
     1
 90
        3
176
     1
 62
     5
420
      255
176
     1
290
     0
176
     1
 90
       50
176
     1
 90
       50
176
     1
 90
       50
176
     1
290
     0
176
     1
 90
       50
176
     1
 62
   256
176
     0
 40
1.0
176
     0
 90
        2
176
     1
  1
strokes_ogs.tif
176
     1
290
     0
176
     1
 40
1.0
176
     1
 40
1.0
176
     1
  0
VISUALSTYLE
  5
32
102
{ACAD_REACTORS
330
29
102
}
330
29
100
AcDbVisualStyle
  2
Conceptual
 70
     9
177
     3
291
     0
 70
    58
 90
        3
176
     1
 90
        2
176
     1
 90
        0
176
     1
 90
        0
176
     1
 40
0.6
176
     1
 40
30.0
176
     1
 62
     7
420
 16777215
176
     1
 90
        2
176
     1
 90
        2
176
     1
 62
     7
176
     1
 62
   257
176
     1
 90
        1
176
     1
 90
        1
176
     1
 40
179.0
176
     1
 90
        8
176
     1
 62
     7
176
     1
 40
1.0
176
     1
 90
        1
176
     1
 90
        6
176
     1
 90
        2
176
     1
 62
     7
176
     1
 90
        3
176
     1
 90
        0
176
     1
 90
        0
176
     1
290
     0
176
     1
 90
        1
176
     1
 40
0.0
176
     1
 90
        0
176
     1
290
     0
176
     1
290
     1
176
     1
290
     1
176
     1
290
     0
176
     1
290
     0
176
     1
290
     0
176
     1
290
     0
176
     1
290
     0
176
     1
290
     0
176
     1
 90
       50
176
     1
 40
0.0
176
     1
 40
1.0
176
     1
 90
        0
176
     1
 62
    18
420
        0
176
     1
 90
       50
176
     1
 90
        3
176
     1
 62
     5
420
      255
176
     1
290
     0
176
     1
 90
       50
176
     1
 90
       50
176
     1
 90
       50
176
     1
290
     0
176
     1
 90
       50
176
     1
 62
   256
176
     0
 40
1.0
176
     0
 90
        2
176
     1
  1
strokes_ogs.tif
176
     1
290
     0
176
     1
 40
1.0
176
     1
 40
1.0
176
     1
  0
VISUALSTYLE
  5
34
102
{ACAD_REACTORS
330
29
102
}
330
29
100
AcDbVisualStyle
  2
Dim
 70
    11
177
     3
291
     1
 70
    58
 90
        2
176
     1
 90
        2
176
     1
 90
        0
176
     1
 90
        0
176
     1
 40
0.6
176
     1
 40
30.0
176
     1
 62
     7
420
 16777215
176
     1
 90
        1
176
     1
 90
        4
176
     1
 62
     7
176
     1
 62
   257
176
     1
 90
        1
176
     1
 90
        1
176
     1
 40
1.0
176
     1
 90
        8
176
     1
 62
     7
176
     1
 40
1.0
176
     1
 90
        1
176
     1
 90
        6
176
     1
 90
        2
176
     1
 62
     7
176
     1
 90
        5
176
     1
 90
        0
176
     1
 90
        0
176
     1
290
     0
176
     1
 90
        1
176
     1
 40
-50.0
176
     1
 90
        0
176
     1
290
     0
176
     1
290
     1
176
     1
290
     1
176
     1
290
     0
176
     1
290
     0
176
     1
290
     0
176
     1
290
     0
176
     1
290
     0
176
     1
290
     0
176
     1
 90
       50
176
     1
 40
0.0
176
     1
 40
1.0
176
     1
 90
        0
176
     1
 62
    18
420
        0
176
     1
 90
       50
176
     1
 90
        3
176
     1
 62
     5
420
      255
176
     1
290
     0
176
     1
 90
       50
176
     1
 90
       50
176
     1
 90
       50
176
     1
290
     0
176
     1
 90
       50
176
     1
 62
   256
176
     0
 40
1.0
176
     0
 90
        2
176
     1
  1
strokes_ogs.tif
176
     1
290
     0
176
     1
 40
1.0
176
     1
 40
1.0
176
     1
  0
VISUALSTYLE
  5
41
102
{ACAD_REACTORS
330
29
102
}
330
29
100
AcDbVisualStyle
  2
EdgeColorOff
 70
    22
177
     3
291
     1
 70
    58
 90
        2
176
     0
 90
        2
176
     0
 90
        0
176
     0
 90
        0
176
     0
 40
0.6
176
     0
 40
30.0
176
     0
 62
     7
420
 16777215
176
     0
 90
        1
176
     0
 90
        4
176
     0
 62
     7
176
     0
 62
   257
176
     0
 90
        1
176
     0
 90
        1
176
     0
 40
1.0
176
     0
 90
        8
176
     2
 62
     7
176
     0
 40
1.0
176
     0
 90
        1
176
     0
 90
        6
176
     0
 90
        2
176
     0
 62
     7
176
     0
 90
        5
176
     0
 90
        0
176
     0
 90
        0
176
     0
290
     0
176
     0
 90
        1
176
     0
 40
0.0
176
     0
 90
        0
176
     0
290
     0
176
     0
290
     1
176
     0
290
     1
176
     0
290
     0
176
     0
290
     0
176
     0
290
     0
176
     0
290
     0
176
     0
290
     0
176
     0
290
     0
176
     0
 90
       50
176
     0
 40
0.0
176
     0
 40
1.0
176
     0
 90
        0
176
     0
 62
    18
420
        0
176
     0
 90
       50
176
     0
 90
        3
176
     0
 62
     5
420
      255
176
     0
290
     0
176
     0
 90
       50
176
     0
 90
       50
176
     0
 90
       50
176
     0
290
     0
176
     0
 90
       50
176
     0
 62
   256
176
     0
 40
1.0
176
     0
 90
        2
176
     0
  1
strokes_ogs.tif
176
     0
290
     0
176
     0
 40
1.0
176
     0
 40
1.0
176
     0
  0
VISUALSTYLE
  5
38
102
{ACAD_REACTORS
330
29
102
}
330
29
100
AcDbVisualStyle
  2
Facepattern
 70
    15
177
     3
291
     1
 70
    58
 90
        2
176
     1
 90
        2
176
     1
 90
        0
176
     1
 90
        0
176
     1
 40
0.6
176
     1
 40
30.0
176
     1
 62
     7
420
 16777215
176
     1
 90
        1
176
     1
 90
        4
176
     1
 62
     7
176
     1
 62
   257
176
     1
 90
        1
176
     1
 90
        1
176
     1
 40
1.0
176
     1
 90
        8
176
     1
 62
     7
176
     1
 40
1.0
176
     1
 90
        1
176
     1
 90
        6
176
     1
 90
        2
176
     1
 62
     7
176
     1
 90
        5
176
     1
 90
        0
176
     1
 90
        0
176
     1
290
     0
176
     1
 90
        1
176
     1
 40
0.0
176
     1
 90
        0
176
     1
290
     0
176
     1
290
     1
176
     1
290
     1
176
     1
290
     0
176
     1
290
     0
176
     1
290
     0
176
     1
290
     0
176
     1
290
     0
176
     1
290
     0
176
     1
 90
       50
176
     1
 40
0.0
176
     1
 40
1.0
176
     1
 90
        0
176
     1
 62
    18
420
        0
176
     1
 90
       50
176
     1
 90
        3
176
     1
 62
     5
420
      255
176
     1
290
     0
176
     1
 90
       50
176
     1
 90
       50
176
     1
 90
       50
176
     1
290
     0
176
     1
 90
       50
176
     1
 62
   256
176
     0
 40
1.0
176
     0
 90
        2
176
     1
  1
strokes_ogs.tif
176
     1
290
     0
176
     1
 40
1.0
176
     1
 40
1.0
176
     1
  0
VISUALSTYLE
  5
2A
102
{ACAD_REACTORS
330
29
102
}
330
29
100
AcDbVisualStyle
  2
Flat
 70
     0
177
     3
291
     1
 70
    58
 90
        2
176
     1
 90
        1
176
     1
 90
        1
176
     1
 90
        2
176
     1
 40
0.6
176
     1
 40
30.0
176
     1
 62
     7
420
 16777215
176
     1
 90
        0
176
     1
 90
        0
176
     1
 62
     7
176
     1
 62
   257
176
     1
 90
        1
176
     1
 90
        1
176
     1
 40
1.0
176
     1
 90
        8
176
     1
 62
     7
176
     1
 40
1.0
176
     1
 90
        1
176
     1
 90
        6
176
     1
 90
        2
176
     1
 62
     7
176
     1
 90
        5
176
     1
 90
        0
176
     1
 90
        0
176
     1
290
     0
176
     1
 90
       13
176
     1
 40
0.0
176
     1
 90
        0
176
     1
290
     0
176
     1
290
     1
176
     1
290
     1
176
     1
290
     0
176
     1
290
     0
176
     1
290
     0
176
     1
290
     0
176
     1
290
     0
176
     1
290
     0
176
     1
 90
       50
176
     1
 40
0.0
176
     1
 40
1.0
176
     1
 90
        0
176
     1
 62
    18
420
        0
176
     1
 90
       50
176
     1
 90
        3
176
     1
 62
     5
420
      255
176
     1
290
     0
176
     1
 90
       50
176
     1
 90
       50
176
     1
 90
       50
176
     1
290
     0
176
     1
 90
       50
176
     1
 62
   256
176
     0
 40
1.0
176
     0
 90
        2
176
     1
  1
strokes_ogs.tif
176
     1
290
     0
176
     1
 40
1.0
176
     1
 40
1.0
176
     1
  0
VISUALSTYLE
  5
2B
102
{ACAD_REACTORS
330
29
102
}
330
29
100
AcDbVisualStyle
  2
FlatWithEdges
 70
     1
177
     3
291
     1
 70
    58
 90
        2
176
     1
 90
        1
176
     1
 90
        1
176
     1
 90
        2
176
     1
 40
0.6
176
     1
 40
30.0
176
     1
 62
     7
420
 16777215
176
     1
 90
        1
176
     1
 90
        0
176
     1
 62
     7
176
     1
 62
   257
176
     1
 90
        1
176
     1
 90
        1
176
     1
 40
1.0
176
     1
 90
        0
176
     1
 62
   257
176
     1
 40
1.0
176
     1
 90
        1
176
     1
 90
        6
176
     1
 90
        2
176
     1
 62
     7
176
     1
 90
        5
176
     1
 90
        0
176
     1
 90
        0
176
     1
290
     0
176
     1
 90
       13
176
     1
 40
0.0
176
     1
 90
        0
176
     1
290
     0
176
     1
290
     1
176
     1
290
     1
176
     1
290
     0
176
     1
290
     0
176
     1
290
     0
176
     1
290
     0
176
     1
290
     0
176
     1
290
     0
176
     1
 90
       50
176
     1
 40
0.0
176
     1
 40
1.0
176
     1
 90
        0
176
     1
 62
    18
420
        0
176
     1
 90
       50
176
     1
 90
        3
176
     1
 62
     5
420
      255
176
     1
290
     0
176
     1
 90
       50
176
     1
 90
       50
176
     1
 90
       50
176
     1
290
     0
176
     1
 90
       50
176
     1
 62
   256
176
     0
 40
1.0
176
     0
 90
        2
176
     1
  1
strokes_ogs.tif
176
     1
290
     0
176
     1
 40
1.0
176
     1
 40
1.0
176
     1
  0
VISUALSTYLE
  5
2C
102
{ACAD_REACTORS
330
29
102
}
330
29
100
AcDbVisualStyle
  2
Gouraud
 70
     2
177
     3
291
     1
 70
    58
 90
        2
176
     1
 90
        2
176
     1
 90
        1
176
     1
 90
        2
176
     1
 40
0.6
176
     1
 40
30.0
176
     1
 62
     7
420
 16777215
176
     1
 90
        0
176
     1
 90
        0
176
     1
 62
     7
176
     1
 62
   257
176
     1
 90
        1
176
     1
 90
        1
176
     1
 40
1.0
176
     1
 90
        0
176
     1
 62
     7
176
     1
 40
1.0
176
     1
 90
        1
176
     1
 90
        6
176
     1
 90
        2
176
     1
 62
     7
176
     1
 90
        5
176
     1
 90
        0
176
     1
 90
        0
176
     1
290
     0
176
     1
 90
       13
176
     1
 40
0.0
176
     1
 90
        0
176
     1
290
     0
176
     1
290
     1
176
     1
290
     1
176
     1
290
     0
176
     1
290
     0
176
     1
290
     0
176
     1
290
     0
176
     1
290
     0
176
     1
290
     0
176
     1
 90
       50
176
     1
 40
0.0
176
     1
 40
1.0
176
     1
 90
        0
176
     1
 62
    18
420
        0
176
     1
 90
       50
176
     1
 90
        3
176
     1
 62
     5
420
      255
176
     1
290
     0
176
     1
 90
       50
176
     1
 90
       50
176
     1
 90
       50
176
     1
290
     0
176
     1
 90
       50
176
     1
 62
   256
176
     0
 40
1.0
176
     0
 90
        2
176
     1
  1
strokes_ogs.tif
176
     1
290
     0
176
     1
 40
1.0
176
     1
 40
1.0
176
     1
  0
VISUALSTYLE
  5
2D
102
{ACAD_REACTORS
330
29
102
}
330
29
100
AcDbVisualStyle
  2
GouraudWithEdges
 70
     3
177
     3
291
     1
 70
    58
 90
        2
176
     1
 90
        2
176
     1
 90
        1
176
     1
 90
        2
176
     1
 40
0.6
176
     1
 40
30.0
176
     1
 62
     7
420
 16777215
176
     1
 90
        1
176
     1
 90
        0
176
     1
 62
     7
176
     1
 62
   257
176
     1
 90
        1
176
     1
 90
        1
176
     1
 40
1.0
176
     1
 90
        0
176
     1
 62
   257
176
     1
 40
1.0
176
     1
 90
        1
176
     1
 90
        6
176
     1
 90
        2
176
     1
 62
     7
176
     1
 90
        5
176
     1
 90
        0
176
     1
 90
        0
176
     1
290
     0
176
     1
 90
       13
176
     1
 40
0.0
176
     1
 90
        0
176
     1
290
     0
176
     1
290
     1
176
     1
290
     1
176
     1
290
     0
176
     1
290
     0
176
     1
290
     0
176
     1
290
     0
176
     1
290
     0
176
     1
290
     0
176
     1
 90
       50
176
     1
 40
0.0
176
     1
 40
1.0
176
     1
 90
        0
176
     1
 62
    18
420
        0
176
     1
 90
       50
176
     1
 90
        3
176
     1
 62
     5
420
      255
176
     1
290
     0
176
     1
 90
       50
176
     1
 90
       50
176
     1
 90
       50
176
     1
290
     0
176
     1
 90
       50
176
     1
 62
   256
176
     0
 40
1.0
176
     0
 90
        2
176
     1
  1
strokes_ogs.tif
176
     1
290
     0
176
     1
 40
1.0
176
     1
 40
1.0
176
     1
  0
VISUALSTYLE
  5
31
102
{ACAD_REACTORS
330
29
102
}
330
29
100
AcDbVisualStyle
  2
Hidden
 70
     6
177
     3
291
     0
 70
    58
 90
        1
176
     1
 90
        2
176
     1
 90
        2
176
     1
 90
        0
176
     1
 40
0.6
176
     1
 40
30.0
176
     1
 62
     7
420
 16777215
176
     1
 90
        2
176
     1
 90
        2
176
     1
 62
     7
176
     1
 62
   257
176
     1
 90
        2
176
     1
 90
        1
176
     1
 40
40.0
176
     1
 90
        0
176
     1
 62
   257
176
     1
 40
1.0
176
     1
 90
        1
176
     1
 90
        6
176
     1
 90
        2
176
     1
 62
     7
176
     1
 90
        3
176
     1
 90
        0
176
     1
 90
        0
176
     1
290
     0
176
     1
 90
        1
176
     1
 40
0.0
176
     1
 90
        0
176
     1
290
     0
176
     1
290
     1
176
     1
290
     1
176
     1
290
     0
176
     1
290
     0
176
     1
290
     0
176
     1
290
     0
176
     1
290
     0
176
     1
290
     0
176
     1
 90
       50
176
     1
 40
0.0
176
     1
 40
1.0
176
     1
 90
        0
176
     1
 62
    18
420
        0
176
     1
 90
       50
176
     1
 90
        3
176
     1
 62
     5
420
      255
176
     1
290
     0
176
     1
 90
       50
176
     1
 90
       50
176
     1
 90
       50
176
     1
290
     0
176
     1
 90
       50
176
     1
 62
   256
176
     0
 40
1.0
176
     0
 90
        2
176
     1
  1
strokes_ogs.tif
176
     1
290
     0
176
     1
 40
1.0
176
     1
 40
1.0
176
     1
  0
VISUALSTYLE
  5
3F
102
{ACAD_REACTORS
330
29
102
}
330
29
100
AcDbVisualStyle
  2
JitterOff
 70
    20
177
     3
291
     1
 70
    58
 90
        2
176
     0
 90
        2
176
     0
 90
        0
176
     0
 90
        0
176
     0
 40
0.6
176
     0
 40
30.0
176
     0
 62
     7
420
 16777215
176
     0
 90
        1
176
     0
 90
        4
176
     0
 62
     7
176
     0
 62
   257
176
     0
 90
        1
176
     0
 90
        1
176
     0
 40
1.0
176
     0
 90
       10
176
     2
 62
     7
176
     0
 40
1.0
176
     0
 90
        1
176
     0
 90
        6
176
     0
 90
        2
176
     0
 62
     7
176
     0
 90
        5
176
     0
 90
        0
176
     0
 90
        0
176
     0
290
     0
176
     0
 90
        1
176
     0
 40
0.0
176
     0
 90
        0
176
     0
290
     0
176
     0
290
     1
176
     0
290
     1
176
     0
290
     0
176
     0
290
     0
176
     0
290
     0
176
     0
290
     0
176
     0
290
     0
176
     0
290
     0
176
     0
 90
       50
176
     0
 40
0.0
176
     0
 40
1.0
176
     0
 90
        0
176
     0
 62
    18
420
        0
176
     0
 90
       50
176
     0
 90
        3
176
     0
 62
     5
420
      255
176
     0
290
     0
176
     0
 90
       50
176
     0
 90
       50
176
     0
 90
       50
176
     0
290
     0
176
     0
 90
       50
176
     0
 62
   256
176
     0
 40
1.0
176
     0
 90
        2
176
     0
  1
strokes_ogs.tif
176
     0
290
     0
176
     0
 40
1.0
176
     0
 40
1.0
176
     0
  0
VISUALSTYLE
  5
37
102
{ACAD_REACTORS
330
29
102
}
330
29
100
AcDbVisualStyle
  2
Linepattern
 70
    14
177
     3
291
     1
 70
    58
 90
        2
176
     1
 90
        2
176
     1
 90
        0
176
     1
 90
        0
176
     1
 40
0.6
176
     1
 40
30.0
176
     1
 62
     7
420
 16777215
176
     1
 90
        1
176
     1
 90
        4
176
     1
 62
     7
176
     1
 62
   257
176
     1
 90
        7
176
     1
 90
        7
176
     1
 40
1.0
176
     1
 90
        8
176
     1
 62
     7
176
     1
 40
1.0
176
     1
 90
        1
176
     1
 90
        6
176
     1
 90
        2
176
     1
 62
     7
176
     1
 90
        5
176
     1
 90
        0
176
     1
 90
        0
176
     1
290
     0
176
     1
 90
        1
176
     1
 40
0.0
176
     1
 90
        0
176
     1
290
     0
176
     1
290
     1
176
     1
290
     1
176
     1
290
     0
176
     1
290
     0
176
     1
290
     0
176
     1
290
     0
176
     1
290
     0
176
     1
290
     0
176
     1
 90
       50
176
     1
 40
0.0
176
     1
 40
1.0
176
     1
 90
        0
176
     1
 62
    18
420
        0
176
     1
 90
       50
176
     1
 90
        3
176
     1
 62
     5
420
      255
176
     1
290
     0
176
     1
 90
       50
176
     1
 90
       50
176
     1
 90
       50
176
     1
290
     0
176
     1
 90
       50
176
     1
 62
   256
176
     0
 40
1.0
176
     0
 90
        2
176
     1
  1
strokes_ogs.tif
176
     1
290
     0
176
     1
 40
1.0
176
     1
 40
1.0
176
     1
  0
VISUALSTYLE
  5
40
102
{ACAD_REACTORS
330
29
102
}
330
29
100
AcDbVisualStyle
  2
OverhangOff
 70
    21
177
     3
291
     1
 70
    58
 90
        2
176
     0
 90
        2
176
     0
 90
        0
176
     0
 90
        0
176
     0
 40
0.6
176
     0
 40
30.0
176
     0
 62
     7
420
 16777215
176
     0
 90
        1
176
     0
 90
        4
176
     0
 62
     7
176
     0
 62
   257
176
     0
 90
        1
176
     0
 90
        1
176
     0
 40
1.0
176
     0
 90
        9
176
     2
 62
     7
176
     0
 40
1.0
176
     0
 90
        1
176
     0
 90
        6
176
     0
 90
        2
176
     0
 62
     7
176
     0
 90
        5
176
     0
 90
        0
176
     0
 90
        0
176
     0
290
     0
176
     0
 90
        1
176
     0
 40
0.0
176
     0
 90
        0
176
     0
290
     0
176
     0
290
     1
176
     0
290
     1
176
     0
290
     0
176
     0
290
     0
176
     0
290
     0
176
     0
290
     0
176
     0
290
     0
176
     0
290
     0
176
     0
 90
       50
176
     0
 40
0.0
176
     0
 40
1.0
176
     0
 90
        0
176
     0
 62
    18
420
        0
176
     0
 90
       50
176
     0
 90
        3
176
     0
 62
     5
420
      255
176
     0
290
     0
176
     0
 90
       50
176
     0
 90
       50
176
     0
 90
       50
176
     0
290
     0
176
     0
 90
       50
176
     0
 62
   256
176
     0
 40
1.0
176
     0
 90
        2
176
     0
  1
strokes_ogs.tif
176
     0
290
     0
176
     0
 40
1.0
176
     0
 40
1.0
176
     0
  0
VISUALSTYLE
  5
33
102
{ACAD_REACTORS
330
29
102
}
330
29
100
AcDbVisualStyle
  2
Realistic
 70
     8
177
     3
291
     0
 70
    58
 90
        2
176
     1
 90
        3
176
     1
 90
        0
176
     1
 90
        2
176
     1
 40
0.6
176
     1
 40
30.0
176
     1
 62
     7
420
 16777215
176
     1
 90
        0
176
     1
 90
        0
176
     1
 62
     7
176
     1
 62
   257
176
     1
 90
        1
176
     1
 90
        1
176
     1
 40
1.0
176
     1
 90
        8
176
     1
 62
   257
176
     1
 40
1.0
176
     1
 90
        1
176
     1
 90
        6
176
     1
 90
        2
176
     1
 62
     7
176
     1
 90
        3
176
     1
 90
        0
176
     1
 90
        0
176
     1
290
     0
176
     1
 90
       13
176
     1
 40
0.0
176
     1
 90
        0
176
     1
290
     0
176
     1
290
     1
176
     1
290
     1
176
     1
290
     0
176
     1
290
     0
176
     1
290
     0
176
     1
290
     0
176
     1
290
     0
176
     1
290
     0
176
     1
 90
       50
176
     1
 40
0.0
176
     1
 40
1.0
176
     1
 90
        0
176
     1
 62
    18
420
        0
176
     1
 90
       50
176
     1
 90
        3
176
     1
 62
     5
420
      255
176
     1
290
     0
176
     1
 90
       50
176
     1
 90
       50
176
     1
 90
       50
176
     1
290
     0
176
     1
 90
       50
176
     1
 62
   256
176
     0
 40
1.0
176
     0
 90
        2
176
     1
  1
strokes_ogs.tif
176
     1
290
     0
176
     1
 40
1.0
176
     1
 40
1.0
176
     1
  0
VISUALSTYLE
  5
3E
102
{ACAD_REACTORS
330
29
102
}
330
29
100
AcDbVisualStyle
  2
Shaded
 70
    27
177
     3
291
     0
 70
    58
 90
        2
176
     1
 90
        2
176
     1
 90
        1
176
     1
 90
        2
176
     1
 40
0.6
176
     1
 40
30.0
176
     1
 62
     7
420
 16777215
176
     1
 90
        0
176
     1
 90
        4
176
     1
 62
     7
176
     1
 62
   257
176
     1
 90
        1
176
     1
 90
        1
176
     1
 40
1.0
176
     1
 90
        8
176
     1
 62
   257
176
     1
 40
1.0
176
     1
 90
        1
176
     1
 90
        6
176
     1
 90
        2
176
     1
 62
     8
420
  7895160
176
     1
 90
        3
176
     1
 90
        0
176
     1
 90
        0
176
     1
290
     0
176
     1
 90
        5
176
     1
 40
0.0
176
     1
 90
        0
176
     1
290
     0
176
     1
290
     1
176
     1
290
     1
176
     1
290
     0
176
     1
290
     0
176
     1
290
     0
176
     1
290
     0
176
     1
290
     0
176
     1
290
     0
176
     1
 90
       50
176
     1
 40
0.0
176
     1
 40
1.0
176
     1
 90
        0
176
     1
 62
    18
420
        0
176
     1
 90
       50
176
     1
 90
        3
176
     1
 62
     5
420
      255
176
     1
290
     0
176
     1
 90
       50
176
     1
 90
       50
176
     1
 90
       50
176
     1
290
     0
176
     1
 90
       50
176
     1
 62
   256
176
     0
 40
1.0
176
     0
 90
        2
176
     1
  1
strokes_ogs.tif
176
     1
290
     0
176
     1
 40
1.0
176
     1
 40
1.0
176
     1
  0
VISUALSTYLE
  5
3D
102
{ACAD_REACTORS
330
29
102
}
330
29
100
AcDbVisualStyle
  2
Shaded with edges
 70
    26
177
     3
291
     0
 70
    58
 90
        2
176
     1
 90
        2
176
     1
 90
        1
176
     1
 90
        2
176
     1
 40
0.6
176
     1
 40
30.0
176
     1
 62
     7
420
 16777215
176
     1
 90
        1
176
     1
 90
       10
176
     1
 62
     7
176
     1
 62
   257
176
     1
 90
        2
176
     1
 90
        1
176
     1
 40
1.0
176
     1
 90
        8
176
     1
 62
   257
176
     1
 40
1.0
176
     1
 90
        1
176
     1
 90
        6
176
     1
 90
        2
176
     1
 62
     7
176
     1
 90
        3
176
     1
 90
        0
176
     1
 90
        0
176
     1
290
     0
176
     1
 90
        5
176
     1
 40
0.0
176
     1
 90
        0
176
     1
290
     0
176
     1
290
     1
176
     1
290
     1
176
     1
290
     0
176
     1
290
     0
176
     1
290
     0
176
     1
290
     0
176
     1
290
     0
176
     1
290
     0
176
     1
 90
       50
176
     1
 40
0.0
176
     1
 40
1.0
176
     1
 90
        0
176
     1
 62
    18
420
        0
176
     1
 90
       50
176
     1
 90
        3
176
     1
 62
     5
420
      255
176
     1
290
     0
176
     1
 90
       50
176
     1
 90
       50
176
     1
 90
       50
176
     1
290
     0
176
     1
 90
       50
176
     1
 62
   256
176
     0
 40
1.0
176
     0
 90
        2
176
     1
  1
strokes_ogs.tif
176
     1
290
     0
176
     1
 40
1.0
176
     1
 40
1.0
176
     1
  0
VISUALSTYLE
  5
3A
102
{ACAD_REACTORS
330
29
102
}
330
29
100
AcDbVisualStyle
  2
Shades of Gray
 70
    23
177
     3
291
     0
 70
    58
 90
        2
176
     1
 90
        2
176
     1
 90
        3
176
     1
 90
        0
176
     1
 40
0.6
176
     1
 40
30.0
176
     1
 62
     7
420
 16777215
176
     1
 90
        2
176
     1
 90
        2
176
     1
 62
     7
176
     1
 62
     7
176
     1
 90
        1
176
     1
 90
        1
176
     1
 40
40.0
176
     1
 90
        8
176
     1
 62
     7
176
     1
 40
1.0
176
     1
 90
        1
176
     1
 90
        6
176
     1
 90
        2
176
     1
 62
     7
176
     1
 90
        3
176
     1
 90
        0
176
     1
 90
        0
176
     1
290
     0
176
     1
 90
        1
176
     1
 40
0.0
176
     1
 90
        0
176
     1
290
     0
176
     1
290
     1
176
     1
290
     1
176
     1
290
     0
176
     1
290
     0
176
     1
290
     0
176
     1
290
     0
176
     1
290
     0
176
     1
290
     0
176
     1
 90
       50
176
     1
 40
0.0
176
     1
 40
1.0
176
     1
 90
        0
176
     1
 62
    18
420
        0
176
     1
 90
       50
176
     1
 90
        3
176
     1
 62
     5
420
      255
176
     1
290
     0
176
     1
 90
       50
176
     1
 90
       50
176
     1
 90
       50
176
     1
290
     0
176
     1
 90
       50
176
     1
 62
   256
176
     0
 40
1.0
176
     0
 90
        2
176
     1
  1
strokes_ogs.tif
176
     1
290
     0
176
     1
 40
1.0
176
     1
 40
1.0
176
     1
  0
VISUALSTYLE
  5
3B
102
{ACAD_REACTORS
330
29
102
}
330
29
100
AcDbVisualStyle
  2
Sketchy
 70
    24
177
     3
291
     0
 70
    58
 90
        1
176
     1
 90
        2
176
     1
 90
        2
176
     1
 90
        0
176
     1
 40
0.6
176
     1
 40
30.0
176
     1
 62
     7
420
 16777215
176
     1
 90
        2
176
     1
 90
        2
176
     1
 62
     7
176
     1
 62
     7
176
     1
 90
        1
176
     1
 90
        1
176
     1
 40
40.0
176
     1
 90
       11
176
     1
 62
     7
176
     1
 40
1.0
176
     1
 90
        1
176
     1
 90
        6
176
     1
 90
        2
176
     1
 62
     7
176
     1
 90
        6
176
     1
 90
        0
176
     1
 90
        0
176
     1
290
     0
176
     1
 90
        1
176
     1
 40
0.0
176
     1
 90
        0
176
     1
290
     0
176
     1
290
     1
176
     1
290
     1
176
     1
290
     0
176
     1
290
     0
176
     1
290
     0
176
     1
290
     0
176
     1
290
     0
176
     1
290
     0
176
     1
 90
       50
176
     1
 40
0.0
176
     1
 40
1.0
176
     1
 90
        0
176
     1
 62
    18
420
        0
176
     1
 90
       50
176
     1
 90
        3
176
     1
 62
     5
420
      255
176
     1
290
     0
176
     1
 90
       50
176
     1
 90
       50
176
     1
 90
       50
176
     1
290
     0
176
     1
 90
       50
176
     1
 62
   256
176
     0
 40
1.0
176
     0
 90
        2
176
     1
  1
strokes_ogs.tif
176
     1
290
     0
176
     1
 40
1.0
176
     1
 40
1.0
176
     1
  0
VISUALSTYLE
  5
36
102
{ACAD_REACTORS
330
29
102
}
330
29
100
AcDbVisualStyle
  2
Thicken
 70
    13
177
     3
291
     1
 70
    58
 90
        2
176
     1
 90
        2
176
     1
 90
        0
176
     1
 90
        0
176
     1
 40
0.6
176
     1
 40
30.0
176
     1
 62
     7
420
 16777215
176
     1
 90
        1
176
     1
 90
        4
176
     1
 62
     7
176
     1
 62
   257
176
     1
 90
        1
176
     1
 90
        1
176
     1
 40
1.0
176
     1
 90
       12
176
     1
 62
     7
176
     1
 40
1.0
176
     1
 90
        1
176
     1
 90
        6
176
     1
 90
        2
176
     1
 62
     7
176
     1
 90
        5
176
     1
 90
        0
176
     1
 90
        0
176
     1
290
     0
176
     1
 90
        1
176
     1
 40
0.0
176
     1
 90
        0
176
     1
290
     0
176
     1
290
     1
176
     1
290
     1
176
     1
290
     0
176
     1
290
     0
176
     1
290
     0
176
     1
290
     0
176
     1
290
     0
176
     1
290
     0
176
     1
 90
       50
176
     1
 40
0.0
176
     1
 40
1.0
176
     1
 90
        0
176
     1
 62
    18
420
        0
176
     1
 90
       50
176
     1
 90
        3
176
     1
 62
     5
420
      255
176
     1
290
     0
176
     1
 90
       50
176
     1
 90
       50
176
     1
 90
       50
176
     1
290
     0
176
     1
 90
       50
176
     1
 62
   256
176
     0
 40
1.0
176
     0
 90
        2
176
     1
  1
strokes_ogs.tif
176
     1
290
     0
176
     1
 40
1.0
176
     1
 40
1.0
176
     1
  0
VISUALSTYLE
  5
30
102
{ACAD_REACTORS
330
29
102
}
330
29
100
AcDbVisualStyle
  2
Wireframe
 70
     5
177
     3
291
     0
 70
    58
 90
        0
176
     1
 90
        2
176
     1
 90
        0
176
     1
 90
        0
176
     1
 40
0.6
176
     1
 40
30.0
176
     1
 62
     7
420
 16777215
176
     1
 90
        1
176
     1
 90
        4
176
     1
 62
     7
176
     1
 62
   257
176
     1
 90
        1
176
     1
 90
        1
176
     1
 40
1.0
176
     1
 90
        0
176
     1
 62
   257
176
     1
 40
1.0
176
     1
 90
        1
176
     1
 90
        6
176
     1
 90
        2
176
     1
 62
     7
176
     1
 90
        3
176
     1
 90
        0
176
     1
 90
        0
176
     1
290
     0
176
     1
 90
        1
176
     1
 40
0.0
176
     1
 90
        0
176
     1
290
     0
176
     1
290
     1
176
     1
290
     1
176
     1
290
     0
176
     1
290
     0
176
     1
290
     0
176
     1
290
     0
176
     1
290
     0
176
     1
290
     0
176
     1
 90
       50
176
     1
 40
0.0
176
     1
 40
1.0
176
     1
 90
        0
176
     1
 62
    18
420
        0
176
     1
 90
       50
176
     1
 90
        3
176
     1
 62
     5
420
      255
176
     1
290
     0
176
     1
 90
       50
176
     1
 90
       50
176
     1
 90
       50
176
     1
290
     0
176
     1
 90
       50
176
     1
 62
   256
176
     0
 40
1.0
176
     0
 90
        2
176
     1
  1
strokes_ogs.tif
176
     1
290
     0
176
     1
 40
1.0
176
     1
 40
1.0
176
     1
  0
VISUALSTYLE
  5
3C
102
{ACAD_REACTORS
330
29
102
}
330
29
100
AcDbVisualStyle
  2
X-Ray
 70
    25
177
     3
291
     0
 70
    58
 90
        2
176
     1
 90
        2
176
     1
 90
        1
176
     1
 90
        1
176
     1
 40
0.5
176
     1
 40
30.0
176
     1
 62
     7
420
 16777215
176
     1
 90
        1
176
     1
 90
        0
176
     1
 62
     7
176
     1
 62
   257
176
     1
 90
        1
176
     1
 90
        1
176
     1
 40
1.0
176
     1
 90
        8
176
     1
 62
     7
176
     1
 40
1.0
176
     1
 90
        1
176
     1
 90
        6
176
     1
 90
        2
176
     1
 62
     7
176
     1
 90
        3
176
     1
 90
        0
176
     1
 90
        0
176
     1
290
     0
176
     1
 90
       13
176
     1
 40
0.0
176
     1
 90
        0
176
     1
290
     0
176
     1
290
     1
176
     1
290
     1
176
     1
290
     0
176
     1
290
     0
176
     1
290
     0
176
     1
290
     0
176
     1
290
     0
176
     1
290
     0
176
     1
 90
       50
176
     1
 40
0.0
176
     1
 40
1.0
176
     1
 90
        0
176
     1
 62
    18
420
        0
176
     1
 90
       50
176
     1
 90
        3
176
     1
 62
     5
420
      255
176
     1
290
     0
176
     1
 90
       50
176
     1
 90
       50
176
     1
 90
       50
176
     1
290
     0
176
     1
 90
       50
176
     1
 62
   256
176
     0
 40
1.0
176
     0
 90
        2
176
     1
  1
strokes_ogs.tif
176
     1
290
     0
176
     1
 40
1.0
176
     1
 40
1.0
176
     1
  0
DICTIONARYVAR
  5
81
102
{ACAD_REACTORS
330
7C
102
}
330
7C
100
DictionaryVariables
280
     0
  1
1:1
  0
DICTIONARYVAR
  5
7E
102
{ACAD_REACTORS
330
7C
102
}
330
7C
100
DictionaryVariables
280
     0
  1
STANDARD
  0
DICTIONARYVAR
  5
7D
102
{ACAD_REACTORS
330
7C
102
}
330
7C
100
DictionaryVariables
280
     0
  1
STANDARD
  0
DICTIONARYVAR
  5
7F
102
{ACAD_REACTORS
330
7C
102
}
330
7C
100
DictionaryVariables
280
     0
  1
Imperial24
  0
DICTIONARYVAR
  5
80
102
{ACAD_REACTORS
330
7C
102
}
330
7C
100
DictionaryVariables
280
     0
  1
Imperial24
  0
XRECORD
  5
268
102
{ACAD_REACTORS
330
265
102
}
330
265
100
AcDbXrecord
280
     1
  1
BUILDING_ID
  1
Progetto per messa in tavola DXF, DWG
  1
FLOOR_ID
  1
694395
  0
XRECORD
  5
267
102
{ACAD_REACTORS
330
265
102
}
330
265
100
AcDbXrecord
280
     1
  1
-2001160
  1
Apparecchi idraulici
  0
XRECORD
  5
266
102
{ACAD_REACTORS
330
265
102
}
330
265
100
AcDbXrecord
280
     1
  1
859151
  1
Automatic flow rate regulator valve_Caleffi_121 DN15 : 1/2''
  0
DICTIONARY
  5
1A
330
19
100
AcDbDictionary
280
     1
281
     1
  3
BUMPTILE
360
1C
  3
DIFFUSETILE
360
1B
  3
OPACITYTILE
360
1F
  3
REFLECTIONTILE
360
1E
  3
REFRACTIONTILE
360
20
  3
SPECULARTILE
360
1D
  0
DICTIONARY
  5
12
330
11
100
AcDbDictionary
280
     1
281
     1
  3
BUMPTILE
360
14
  3
DIFFUSETILE
360
13
  3
OPACITYTILE
360
17
  3
REFLECTIONTILE
360
16
  3
REFRACTIONTILE
360
18
  3
SPECULARTILE
360
15
  0
DICTIONARY
  5
22
330
21
100
AcDbDictionary
280
     1
281
     1
  3
BUMPTILE
360
24
  3
DIFFUSETILE
360
23
  3
OPACITYTILE
360
27
  3
REFLECTIONTILE
360
26
  3
REFRACTIONTILE
360
28
  3
SPECULARTILE
360
25
  0
DICTIONARY
  5
26B
330
65
100
AcDbDictionary
280
     1
281
     1
  3
ACAD_ROUNDTRIP_2008_TABLESTYLE_CELLSTYLEMAP
360
26C
  0
XRECORD
  5
1C
102
{ACAD_REACTORS
330
1A
102
}
330
1A
100
AcDbXrecord
280
     1
270
     1
271
     1
  0
XRECORD
  5
1B
102
{ACAD_REACTORS
330
1A
102
}
330
1A
100
AcDbXrecord
280
     1
270
     1
271
     1
  0
XRECORD
  5
1F
102
{ACAD_REACTORS
330
1A
102
}
330
1A
100
AcDbXrecord
280
     1
270
     1
271
     1
  0
XRECORD
  5
1E
102
{ACAD_REACTORS
330
1A
102
}
330
1A
100
AcDbXrecord
280
     1
270
     1
271
     1
  0
XRECORD
  5
20
102
{ACAD_REACTORS
330
1A
102
}
330
1A
100
AcDbXrecord
280
     1
270
     1
271
     1
  0
XRECORD
  5
1D
102
{ACAD_REACTORS
330
1A
102
}
330
1A
100
AcDbXrecord
280
     1
270
     1
271
     1
  0
XRECORD
  5
14
102
{ACAD_REACTORS
330
12
102
}
330
12
100
AcDbXrecord
280
     1
270
     1
271
     1
  0
XRECORD
  5
13
102
{ACAD_REACTORS
330
12
102
}
330
12
100
AcDbXrecord
280
     1
270
     1
271
     1
  0
XRECORD
  5
17
102
{ACAD_REACTORS
330
12
102
}
330
12
100
AcDbXrecord
280
     1
270
     1
271
     1
  0
XRECORD
  5
16
102
{ACAD_REACTORS
330
12
102
}
330
12
100
AcDbXrecord
280
     1
270
     1
271
     1
  0
XRECORD
  5
18
102
{ACAD_REACTORS
330
12
102
}
330
12
100
AcDbXrecord
280
     1
270
     1
271
     1
  0
XRECORD
  5
15
102
{ACAD_REACTORS
330
12
102
}
330
12
100
AcDbXrecord
280
     1
270
     1
271
     1
  0
XRECORD
  5
24
102
{ACAD_REACTORS
330
22
102
}
330
22
100
AcDbXrecord
280
     1
270
     1
271
     1
  0
XRECORD
  5
23
102
{ACAD_REACTORS
330
22
102
}
330
22
100
AcDbXrecord
280
     1
270
     1
271
     1
  0
XRECORD
  5
27
102
{ACAD_REACTORS
330
22
102
}
330
22
100
AcDbXrecord
280
     1
270
     1
271
     1
  0
XRECORD
  5
26
102
{ACAD_REACTORS
330
22
102
}
330
22
100
AcDbXrecord
280
     1
270
     1
271
     1
  0
XRECORD
  5
28
102
{ACAD_REACTORS
330
22
102
}
330
22
100
AcDbXrecord
280
     1
270
     1
271
     1
  0
XRECORD
  5
25
102
{ACAD_REACTORS
330
22
102
}
330
22
100
AcDbXrecord
280
     1
270
     1
271
     1
  0
CELLSTYLEMAP
  5
26C
102
{ACAD_REACTORS
330
26B
102
}
330
26B
100
AcDbCellStyleMap
 90
        3
300
CELLSTYLE
  1
TABLEFORMAT_BEGIN
 90
        5
170
     1
 91
        0
 92
    32768
 62
   257
 93
        1
300
CONTENTFORMAT
  1
CONTENTFORMAT_BEGIN
 90
        0
 91
        0
 92
      512
 93
        0
300

 40
0.0
140
1.0
 94
        5
 62
     0
340
55
144
0.25
309
CONTENTFORMAT_END
171
     0
 94
        0
309
TABLEFORMAT_END
  1
CELLSTYLE_BEGIN
 90
        1
 91
        1
300
_TITLE
309
CELLSTYLE_END
300
CELLSTYLE
  1
TABLEFORMAT_BEGIN
 90
        5
170
     1
 91
        0
 92
        0
 62
   257
 93
        1
300
CONTENTFORMAT
  1
CONTENTFORMAT_BEGIN
 90
        0
 91
        0
 92
      512
 93
        0
300

 40
0.0
140
1.0
 94
        5
 62
     0
340
55
144
0.18
309
CONTENTFORMAT_END
171
     0
 94
        0
309
TABLEFORMAT_END
  1
CELLSTYLE_BEGIN
 90
        2
 91
        1
300
_HEADER
309
CELLSTYLE_END
300
CELLSTYLE
  1
TABLEFORMAT_BEGIN
 90
        5
170
     1
 91
        0
 92
        0
 62
   257
 93
        1
300
CONTENTFORMAT
  1
CONTENTFORMAT_BEGIN
 90
        0
 91
        0
 92
      512
 93
        0
300

 40
0.0
140
1.0
 94
        2
 62
     0
340
55
144
0.18
309
CONTENTFORMAT_END
171
     0
 94
        0
309
TABLEFORMAT_END
  1
CELLSTYLE_BEGIN
 90
        3
 91
        2
300
_DATA
309
CELLSTYLE_END
  0
ENDSEC
  0
EOF
