  0
SECTION
  2
HEADER
  9
$ACADVER
  1
AC1027
  9
$ACADMAINTVER
 70
    20
  9
$DWGCODEPAGE
  3
ANSI_1252
  9
$REQUIREDVERSIONS
160
                 0
  9
$INSBASE
 10
0.0
 20
0.0
 30
0.0
  9
$EXTMIN
 10
754.6664074431849
 20
1636.747075834259
 30
-0.00000001
  9
$EXTMAX
 10
1287.863156828898
 20
2121.372345390325
 30
0.00000001
  9
$LIMMIN
 10
0.0
 20
0.0
  9
$LIMMAX
 10
12.0
 20
9.0
  9
$ORTHOMODE
 70
     0
  9
$REGENMODE
 70
     1
  9
$FILLMODE
 70
     1
  9
$QTEXTMODE
 70
     0
  9
$MIRRTEXT
 70
     0
  9
$LTSCALE
 40
1.0
  9
$ATTMODE
 70
     1
  9
$TEXTSIZE
 40
0.2
  9
$TRACEWID
 40
0.05
  9
$TEXTSTYLE
  7
Standard
  9
$CLAYER
  8
0
  9
$CELTYPE
  6
ByLayer
  9
$CECOLOR
 62
   256
  9
$CELTSCALE
 40
1.0
  9
$DISPSILH
 70
     0
  9
$DIMSCALE
 40
1.0
  9
$DIMASZ
 40
0.18
  9
$DIMEXO
 40
0.0625
  9
$DIMDLI
 40
0.38
  9
$DIMRND
 40
0.0
  9
$DIMDLE
 40
0.0
  9
$DIMEXE
 40
0.18
  9
$DIMTP
 40
0.0
  9
$DIMTM
 40
0.0
  9
$DIMTXT
 40
0.18
  9
$DIMCEN
 40
0.09
  9
$DIMTSZ
 40
0.0
  9
$DIMTOL
 70
     0
  9
$DIMLIM
 70
     0
  9
$DIMTIH
 70
     1
  9
$DIMTOH
 70
     1
  9
$DIMSE1
 70
     0
  9
$DIMSE2
 70
     0
  9
$DIMTAD
 70
     0
  9
$DIMZIN
 70
     0
  9
$DIMBLK
  1

  9
$DIMASO
 70
     1
  9
$DIMSHO
 70
     1
  9
$DIMPOST
  1

  9
$DIMAPOST
  1

  9
$DIMALT
 70
     0
  9
$DIMALTD
 70
     2
  9
$DIMALTF
 40
25.4
  9
$DIMLFAC
 40
1.0
  9
$DIMTOFL
 70
     0
  9
$DIMTVP
 40
0.0
  9
$DIMTIX
 70
     0
  9
$DIMSOXD
 70
     0
  9
$DIMSAH
 70
     0
  9
$DIMBLK1
  1

  9
$DIMBLK2
  1

  9
$DIMSTYLE
  2
Standard
  9
$DIMCLRD
 70
     0
  9
$DIMCLRE
 70
     0
  9
$DIMCLRT
 70
     0
  9
$DIMTFAC
 40
1.0
  9
$DIMGAP
 40
0.09
  9
$DIMJUST
 70
     0
  9
$DIMSD1
 70
     0
  9
$DIMSD2
 70
     0
  9
$DIMTOLJ
 70
     1
  9
$DIMTZIN
 70
     0
  9
$DIMALTZ
 70
     0
  9
$DIMALTTZ
 70
     0
  9
$DIMUPT
 70
     0
  9
$DIMDEC
 70
     4
  9
$DIMTDEC
 70
     4
  9
$DIMALTU
 70
     2
  9
$DIMALTTD
 70
     2
  9
$DIMTXSTY
  7
Standard
  9
$DIMAUNIT
 70
     0
  9
$DIMADEC
 70
     0
  9
$DIMALTRND
 40
0.0
  9
$DIMAZIN
 70
     0
  9
$DIMDSEP
 70
    46
  9
$DIMATFIT
 70
     3
  9
$DIMFRAC
 70
     0
  9
$DIMLDRBLK
  1

  9
$DIMLUNIT
 70
     2
  9
$DIMLWD
 70
    -2
  9
$DIMLWE
 70
    -2
  9
$DIMTMOVE
 70
     0
  9
$DIMFXL
 40
1.0
  9
$DIMFXLON
 70
     0
  9
$DIMJOGANG
 40
0.7853981633974483
  9
$DIMTFILL
 70
     0
  9
$DIMTFILLCLR
 70
     0
  9
$DIMARCSYM
 70
     0
  9
$DIMLTYPE
  6

  9
$DIMLTEX1
  6

  9
$DIMLTEX2
  6

  9
$DIMTXTDIRECTION
 70
     0
  9
$LUNITS
 70
     2
  9
$LUPREC
 70
     4
  9
$SKETCHINC
 40
0.1
  9
$FILLETRAD
 40
0.0
  9
$AUNITS
 70
     0
  9
$AUPREC
 70
     0
  9
$MENU
  1
.
  9
$ELEVATION
 40
0.0
  9
$PELEVATION
 40
0.0
  9
$THICKNESS
 40
0.0
  9
$LIMCHECK
 70
     0
  9
$CHAMFERA
 40
0.0
  9
$CHAMFERB
 40
0.0
  9
$CHAMFERC
 40
0.0
  9
$CHAMFERD
 40
0.0
  9
$SKPOLY
 70
     0
  9
$TDCREATE
 40
2457569.640723125
  9
$TDUCREATE
 40
2457569.557389792
  9
$TDUPDATE
 40
2457569.640723125
  9
$TDUUPDATE
 40
2457569.557389792
  9
$TDINDWG
 40
0.0000193287
  9
$TDUSRTIMER
 40
0.0000193287
  9
$USRTIMER
 70
     1
  9
$ANGBASE
 50
0.0
  9
$ANGDIR
 70
     0
  9
$PDMODE
 70
     0
  9
$PDSIZE
 40
0.0
  9
$PLINEWID
 40
0.0
  9
$SPLFRAME
 70
     0
  9
$SPLINETYPE
 70
     6
  9
$SPLINESEGS
 70
     8
  9
$HANDSEED
  5
25C
  9
$SURFTAB1
 70
     6
  9
$SURFTAB2
 70
     6
  9
$SURFTYPE
 70
     6
  9
$SURFU
 70
     6
  9
$SURFV
 70
     6
  9
$UCSBASE
  2

  9
$UCSNAME
  2

  9
$UCSORG
 10
0.0
 20
0.0
 30
0.0
  9
$UCSXDIR
 10
1.0
 20
0.0
 30
0.0
  9
$UCSYDIR
 10
0.0
 20
1.0
 30
0.0
  9
$UCSORTHOREF
  2

  9
$UCSORTHOVIEW
 70
     0
  9
$UCSORGTOP
 10
0.0
 20
0.0
 30
0.0
  9
$UCSORGBOTTOM
 10
0.0
 20
0.0
 30
0.0
  9
$UCSORGLEFT
 10
0.0
 20
0.0
 30
0.0
  9
$UCSORGRIGHT
 10
0.0
 20
0.0
 30
0.0
  9
$UCSORGFRONT
 10
0.0
 20
0.0
 30
0.0
  9
$UCSORGBACK
 10
0.0
 20
0.0
 30
0.0
  9
$PUCSBASE
  2

  9
$PUCSNAME
  2

  9
$PUCSORG
 10
0.0
 20
0.0
 30
0.0
  9
$PUCSXDIR
 10
1.0
 20
0.0
 30
0.0
  9
$PUCSYDIR
 10
0.0
 20
1.0
 30
0.0
  9
$PUCSORTHOREF
  2

  9
$PUCSORTHOVIEW
 70
     0
  9
$PUCSORGTOP
 10
0.0
 20
0.0
 30
0.0
  9
$PUCSORGBOTTOM
 10
0.0
 20
0.0
 30
0.0
  9
$PUCSORGLEFT
 10
0.0
 20
0.0
 30
0.0
  9
$PUCSORGRIGHT
 10
0.0
 20
0.0
 30
0.0
  9
$PUCSORGFRONT
 10
0.0
 20
0.0
 30
0.0
  9
$PUCSORGBACK
 10
0.0
 20
0.0
 30
0.0
  9
$USERI1
 70
     0
  9
$USERI2
 70
     0
  9
$USERI3
 70
     0
  9
$USERI4
 70
     0
  9
$USERI5
 70
     0
  9
$USERR1
 40
0.0
  9
$USERR2
 40
0.0
  9
$USERR3
 40
0.0
  9
$USERR4
 40
0.0
  9
$USERR5
 40
0.0
  9
$WORLDVIEW
 70
     1
  9
$SHADEDGE
 70
     3
  9
$SHADEDIF
 70
    70
  9
$TILEMODE
 70
     1
  9
$MAXACTVP
 70
    64
  9
$PINSBASE
 10
0.0
 20
0.0
 30
0.0
  9
$PLIMCHECK
 70
     0
  9
$PEXTMIN
 10
1.000000000000000E+20
 20
1.000000000000000E+20
 30
1.000000000000000E+20
  9
$PEXTMAX
 10
-1.000000000000000E+20
 20
-1.000000000000000E+20
 30
-1.000000000000000E+20
  9
$PLIMMIN
 10
0.0
 20
0.0
  9
$PLIMMAX
 10
12.0
 20
9.0
  9
$UNITMODE
 70
     0
  9
$VISRETAIN
 70
     1
  9
$PLINEGEN
 70
     0
  9
$PSLTSCALE
 70
     1
  9
$TREEDEPTH
 70
  3020
  9
$CMLSTYLE
  2
Standard
  9
$CMLJUST
 70
     0
  9
$CMLSCALE
 40
1.0
  9
$PROXYGRAPHICS
 70
     1
  9
$MEASUREMENT
 70
     1
  9
$CELWEIGHT
370
    -1
  9
$ENDCAPS
280
     0
  9
$JOINSTYLE
280
     0
  9
$LWDISPLAY
290
     0
  9
$INSUNITS
 70
     4
  9
$HYPERLINKBASE
  1

  9
$STYLESHEET
  1

  9
$XEDIT
290
     1
  9
$CEPSNTYPE
380
     0
  9
$PSTYLEMODE
290
     1
  9
$FINGERPRINTGUID
  2
{64BE2153-DD4B-497F-BD36-A289C0BCFA28}
  9
$VERSIONGUID
  2
{99FD37EA-0D76-4322-A21E-531E072AA7F9}
  9
$EXTNAMES
290
     1
  9
$PSVPSCALE
 40
0.0
  9
$OLESTARTUP
290
     0
  9
$SORTENTS
280
   127
  9
$INDEXCTL
280
     0
  9
$HIDETEXT
280
     1
  9
$XCLIPFRAME
280
     2
  9
$HALOGAP
280
     0
  9
$OBSCOLOR
 70
   257
  9
$OBSLTYPE
280
     0
  9
$INTERSECTIONDISPLAY
280
     0
  9
$INTERSECTIONCOLOR
 70
   257
  9
$DIMASSOC
280
     2
  9
$PROJECTNAME
  1

  9
$CAMERADISPLAY
290
     0
  9
$LENSLENGTH
 40
50.0
  9
$CAMERAHEIGHT
 40
0.0
  9
$STEPSPERSEC
 40
2.0
  9
$STEPSIZE
 40
6.0
  9
$3DDWFPREC
 40
2.0
  9
$PSOLWIDTH
 40
0.25
  9
$PSOLHEIGHT
 40
4.0
  9
$LOFTANG1
 40
1.570796326794896
  9
$LOFTANG2
 40
1.570796326794896
  9
$LOFTMAG1
 40
0.0
  9
$LOFTMAG2
 40
0.0
  9
$LOFTPARAM
 70
     7
  9
$LOFTNORMALS
280
     1
  9
$LATITUDE
 40
37.795
  9
$LONGITUDE
 40
-122.394
  9
$NORTHDIRECTION
 40
0.0
  9
$TIMEZONE
 70
 -8000
  9
$LIGHTGLYPHDISPLAY
280
     1
  9
$TILEMODELIGHTSYNCH
280
     1
  9
$CMATERIAL
347
11
  9
$SOLIDHIST
280
     0
  9
$SHOWHIST
280
     1
  9
$DWFFRAME
280
     2
  9
$DGNFRAME
280
     0
  9
$REALWORLDSCALE
290
     1
  9
$INTERFERECOLOR
 62
     1
  9
$INTERFEREOBJVS
345
33
  9
$INTERFEREVPVS
346
30
  9
$CSHADOW
280
     0
  9
$SHADOWPLANELOCATION
 40
0.0
  0
ENDSEC
  0
SECTION
  2
CLASSES
  0
CLASS
  1
ACDBDICTIONARYWDFLT
  2
AcDbDictionaryWithDefault
  3
ObjectDBX Classes
 90
        0
 91
        1
280
     0
281
     0
  0
CLASS
  1
MATERIAL
  2
AcDbMaterial
  3
ObjectDBX Classes
 90
     1153
 91
        3
280
     0
281
     0
  0
CLASS
  1
VISUALSTYLE
  2
AcDbVisualStyle
  3
ObjectDBX Classes
 90
     4095
 91
       24
280
     0
281
     0
  0
CLASS
  1
SCALE
  2
AcDbScale
  3
ObjectDBX Classes
 90
     1153
 91
       17
280
     0
281
     0
  0
CLASS
  1
TABLESTYLE
  2
AcDbTableStyle
  3
ObjectDBX Classes
 90
     4095
 91
        1
280
     0
281
     0
  0
CLASS
  1
MLEADERSTYLE
  2
AcDbMLeaderStyle
  3
ACDB_MLEADERSTYLE_CLASS
 90
     4095
 91
        1
280
     0
281
     0
  0
CLASS
  1
ACDBSECTIONVIEWSTYLE
  2
AcDbSectionViewStyle
  3
ObjectDBX Classes
 90
     1025
 91
        1
280
     0
281
     0
  0
CLASS
  1
ACDBDETAILVIEWSTYLE
  2
AcDbDetailViewStyle
  3
ObjectDBX Classes
 90
     1025
 91
        1
280
     0
281
     0
  0
CLASS
  1
RASTERVARIABLES
  2
AcDbRasterVariables
  3
ISM
 90
        0
 91
        1
280
     0
281
     0
  0
CLASS
  1
DICTIONARYVAR
  2
AcDbDictionaryVar
  3
ObjectDBX Classes
 90
        0
 91
        5
280
     0
281
     0
  0
CLASS
  1
CELLSTYLEMAP
  2
AcDbCellStyleMap
  3
ObjectDBX Classes
 90
     1152
 91
        2
280
     0
281
     0
  0
CLASS
  1
SORTENTSTABLE
  2
AcDbSortentsTable
  3
ObjectDBX Classes
 90
        0
 91
        1
280
     0
281
     0
  0
ENDSEC
  0
SECTION
  2
TABLES
  0
TABLE
  2
VPORT
  5
8
330
0
100
AcDbSymbolTable
 70
     1
  0
VPORT
  5
57
330
8
100
AcDbSymbolTableRecord
100
AcDbViewportTableRecord
  2
*Active
 70
     0
 10
0.0
 20
0.0
 11
1.0
 21
1.0
 12
1021.264782136042
 22
1879.059710612292
 13
0.0
 23
0.0
 14
1.0
 24
1.0
 15
0.0
 25
0.0
 16
0.0
 26
0.0
 36
1.0
 17
0.0
 27
0.0
 37
0.0
 40
484.6252695560661
 41
1.100224818805137
 42
50.0
 43
0.0
 44
0.0
 50
0.0
 51
0.0
 71
     0
 72
  1000
 73
     1
 74
     1
 75
     0
 76
     0
 77
     0
 78
     0
281
     0
 65
     1
110
0.0
120
0.0
130
0.0
111
1.0
121
0.0
131
0.0
112
0.0
122
1.0
132
0.0
 79
     0
146
0.0
 60
     3
 61
     5
292
     1
282
     1
141
0.0
142
0.0
 63
   250
421
  3355443
  0
ENDTAB
  0
TABLE
  2
LTYPE
  5
5
330
0
100
AcDbSymbolTable
 70
     3
  0
LTYPE
  5
5B
330
5
100
AcDbSymbolTableRecord
100
AcDbLinetypeTableRecord
  2
ByBlock
 70
     0
  3

 72
    65
 73
     0
 40
0.0
  0
LTYPE
  5
5C
330
5
100
AcDbSymbolTableRecord
100
AcDbLinetypeTableRecord
  2
ByLayer
 70
     0
  3

 72
    65
 73
     0
 40
0.0
  0
LTYPE
  5
5D
330
5
100
AcDbSymbolTableRecord
100
AcDbLinetypeTableRecord
  2
Continuous
 70
     0
  3
Solid line
 72
    65
 73
     0
 40
0.0
  0
LTYPE
  5
69
330
5
100
AcDbSymbolTableRecord
100
AcDbLinetypeTableRecord
  2
PHANTOM2
 70
     0
  3
___ _ _ ___ _ _ ___ _ _ ___ _ _
 72
    65
 73
     6
 40
1.25
 49
0.625
 74
     0
 49
-0.125
 74
     0
 49
0.125
 74
     0
 49
-0.125
 74
     0
 49
0.125
 74
     0
 49
-0.125
 74
     0
  0
LTYPE
  5
86
330
5
100
AcDbSymbolTableRecord
100
AcDbLinetypeTableRecord
  2
Nascosto 1_5 mm
 70
     0
  3

 72
    65
 73
     2
 40
2.2
 49
1.5
 74
     0
 49
-0.7000000000000001
 74
     0
  0
ENDTAB
  0
TABLE
  2
LAYER
  5
2
330
0
100
AcDbSymbolTable
 70
     3
  0
LAYER
  5
54
330
2
100
AcDbSymbolTableRecord
100
AcDbLayerTableRecord
  2
0
 70
     0
 62
     7
  6
Continuous
370
    -3
390
F
347
21
348
0
  0
LAYER
  5
85
330
2
100
AcDbSymbolTableRecord
100
AcDbLayerTableRecord
  2
P-SANR-FIXT
 70
     0
 62
     6
  6
Continuous
370
    18
390
F
347
21
348
0
  0
ENDTAB
  0
TABLE
  2
STYLE
  5
3
330
0
100
AcDbSymbolTable
 70
     2
  0
STYLE
  5
55
330
3
100
AcDbSymbolTableRecord
100
AcDbTextStyleTableRecord
  2
Standard
 70
     0
 40
0.0
 41
1.0
 50
0.0
 71
     0
 42
0.2
  3
txt
  4

  0
STYLE
  5
5A
330
3
100
AcDbSymbolTableRecord
100
AcDbTextStyleTableRecord
  2
Annotative
 70
     0
 40
0.0
 41
1.0
 50
0.0
 71
     0
 42
0.2
  3
txt
  4

1001
AcadAnnotative
1000
AnnotativeData
1002
{
1070
     1
1070
     1
1002
}
  0
ENDTAB
  0
TABLE
  2
VIEW
  5
6
330
0
100
AcDbSymbolTable
 70
     0
  0
ENDTAB
  0
TABLE
  2
UCS
  5
7
330
0
100
AcDbSymbolTable
 70
     0
  0
ENDTAB
  0
TABLE
  2
APPID
  5
9
330
0
100
AcDbSymbolTable
 70
     3
  0
APPID
  5
56
330
9
100
AcDbSymbolTableRecord
100
AcDbRegAppTableRecord
  2
ACAD
 70
     0
  0
APPID
  5
5E
330
9
100
AcDbSymbolTableRecord
100
AcDbRegAppTableRecord
  2
AcadAnnotative
 70
     0
  0
APPID
  5
79
330
9
100
AcDbSymbolTableRecord
100
AcDbRegAppTableRecord
  2
REVIT
 70
     0
  0
ENDTAB
  0
TABLE
  2
DIMSTYLE
  5
A
330
0
100
AcDbSymbolTable
 70
     2
100
AcDbDimStyleTable
 71
     0
  0
DIMSTYLE
105
58
330
A
100
AcDbSymbolTableRecord
100
AcDbDimStyleTableRecord
  2
Standard
 70
     0
340
55
  0
DIMSTYLE
105
59
330
A
100
AcDbSymbolTableRecord
100
AcDbDimStyleTableRecord
  2
Annotative
 70
     0
340
55
1001
AcadAnnotative
1000
AnnotativeData
1002
{
1070
     1
1070
     1
1002
}
  0
ENDTAB
  0
TABLE
  2
BLOCK_RECORD
  5
1
330
0
100
AcDbSymbolTable
 70
     4
  0
BLOCK_RECORD
  5
71
102
{ACAD_XDICTIONARY
360
257
102
}
330
1
100
AcDbSymbolTableRecord
100
AcDbBlockTableRecord
  2
*Model_Space
340
74
 70
     0
280
     1
281
     0
  0
BLOCK_RECORD
  5
6D
330
1
100
AcDbSymbolTableRecord
100
AcDbBlockTableRecord
  2
*Paper_Space
340
70
 70
     0
280
     1
281
     0
  0
BLOCK_RECORD
  5
75
330
1
100
AcDbSymbolTableRecord
100
AcDbBlockTableRecord
  2
*Paper_Space0
340
78
 70
     0
280
     1
281
     0
  0
BLOCK_RECORD
  5
87
330
1
100
AcDbSymbolTableRecord
100
AcDbBlockTableRecord
  2
Automatic flow rate regulator valve_Caleffi_121 DN15 - 1_2__-859151-Est - Idraulica
340
0
102
{BLKREFS
331
F1
102
}
 70
     0
280
     1
281
     0
  0
BLOCK_RECORD
  5
F2
330
1
100
AcDbSymbolTableRecord
100
AcDbBlockTableRecord
  2
Automatic flow rate regulator valve_Caleffi_121 DN15 - 1_2__-V1-Est - Idraulica
340
0
102
{BLKREFS
331
188
102
}
 70
     0
280
     1
281
     0
  0
BLOCK_RECORD
  5
189
330
1
100
AcDbSymbolTableRecord
100
AcDbBlockTableRecord
  2
Automatic flow rate regulator valve_Caleffi_121 DN15 - 1_2__-V2-Est - Idraulica
340
0
102
{BLKREFS
331
251
102
}
 70
     0
280
     1
281
     0
  0
ENDTAB
  0
ENDSEC
  0
SECTION
  2
BLOCKS
  0
BLOCK
  5
72
330
71
100
AcDbEntity
  8
0
100
AcDbBlockBegin
  2
*Model_Space
 70
     0
 10
0.0
 20
0.0
 30
0.0
  3
*Model_Space
  1

  0
ENDBLK
  5
73
330
71
100
AcDbEntity
  8
0
100
AcDbBlockEnd
  0
BLOCK
  5
6E
330
6D
100
AcDbEntity
 67
     1
  8
0
100
AcDbBlockBegin
  2
*Paper_Space
 70
     0
 10
0.0
 20
0.0
 30
0.0
  3
*Paper_Space
  1

  0
ENDBLK
  5
6F
330
6D
100
AcDbEntity
 67
     1
  8
0
100
AcDbBlockEnd
  0
BLOCK
  5
76
330
75
100
AcDbEntity
 67
     1
  8
0
100
AcDbBlockBegin
  2
*Paper_Space0
 70
     0
 10
0.0
 20
0.0
 30
0.0
  3
*Paper_Space0
  1

  0
ENDBLK
  5
77
330
75
100
AcDbEntity
 67
     1
  8
0
100
AcDbBlockEnd
  0
BLOCK
  5
EF
330
87
100
AcDbEntity
  8
0
100
AcDbBlockBegin
  2
Automatic flow rate regulator valve_Caleffi_121 DN15 - 1_2__-859151-Est - Idraulica
 70
     0
 10
0.0
 20
0.0
 30
0.0
  3
Automatic flow rate regulator valve_Caleffi_121 DN15 - 1_2__-859151-Est - Idraulica
  1

  0
LINE
  5
88
330
87
100
AcDbEntity
  8
P-SANR-FIXT
100
AcDbLine
 10
839.6664074431674
 20
1921.937499999919
 30
0.0
 11
837.2040973782524
 21
1921.937499999919
 31
0.0
  0
LINE
  5
89
330
87
100
AcDbEntity
  8
P-SANR-FIXT
100
AcDbLine
 10
837.2040973782524
 20
1921.937499999919
 30
0.0
 11
818.1287175081029
 21
1921.937499999919
 31
0.0
  0
LINE
  5
8A
330
87
100
AcDbEntity
  8
P-SANR-FIXT
100
AcDbLine
 10
818.1287175081029
 20
1921.937499999919
 30
0.0
 11
813.2040973782732
 21
1921.937499999919
 31
0.0
  0
LINE
  5
8B
330
87
100
AcDbEntity
  8
P-SANR-FIXT
100
AcDbLine
 10
813.2040973782732
 20
1921.937499999919
 30
0.0
 11
794.1287175081239
 21
1921.937499999919
 31
0.0
  0
LINE
  5
8C
330
87
100
AcDbEntity
  8
P-SANR-FIXT
100
AcDbLine
 10
794.1287175081239
 20
1921.937499999919
 30
0.0
 11
791.6664074432089
 21
1921.937499999919
 31
0.0
  0
LINE
  5
8D
330
87
100
AcDbEntity
  8
P-SANR-FIXT
100
AcDbLine
 10
791.6664074432089
 20
1921.937499999919
 30
0.0
 11
791.6664074432089
 21
1937.937499999997
 31
0.0
  0
LINE
  5
8E
330
87
100
AcDbEntity
  8
P-SANR-FIXT
100
AcDbLine
 10
794.1287175081239
 20
1921.937499999919
 30
0.0
 11
794.1287175081239
 21
1937.937499999997
 31
0.0
  0
LINE
  5
8F
330
87
100
AcDbEntity
  8
P-SANR-FIXT
100
AcDbLine
 10
813.2040973782729
 20
1921.937499999919
 30
0.0
 11
813.2040973782729
 21
1937.937499999997
 31
0.0
  0
LINE
  5
90
330
87
100
AcDbEntity
  8
P-SANR-FIXT
100
AcDbLine
 10
818.1287175081029
 20
1921.937499999919
 30
0.0
 11
818.1287175081029
 21
1937.937499999997
 31
0.0
  0
LINE
  5
91
330
87
100
AcDbEntity
  8
P-SANR-FIXT
100
AcDbLine
 10
837.2040973782524
 20
1921.937499999919
 30
0.0
 11
837.2040973782524
 21
1937.937499999997
 31
0.0
  0
LINE
  5
92
330
87
100
AcDbEntity
  8
P-SANR-FIXT
100
AcDbLine
 10
839.6664074431674
 20
1921.937499999919
 30
0.0
 11
839.6664074431674
 21
1937.937499999997
 31
0.0
  0
LINE
  5
93
330
87
100
AcDbEntity
  8
P-SANR-FIXT
100
AcDbLine
 10
796.3164136633836
 20
2036.701107639219
 30
0.0
 11
796.3164136633836
 21
2034.423461082637
 31
0.0
  0
LINE
  5
94
330
87
100
AcDbEntity
  8
P-SANR-FIXT
100
AcDbLine
 10
835.0164012229951
 20
2034.423461082637
 30
0.0
 11
835.0164012229951
 21
2036.701107639219
 31
0.0
  0
LWPOLYLINE
  5
95
330
87
100
AcDbEntity
  8
P-SANR-FIXT
100
AcDbPolyline
 90
       80
 70
   128
 43
0.0
 10
835.0164012229951
 20
2034.423461082637
 10
834.9728142053162
 20
2034.422589226033
 10
834.9292969175676
 20
2034.419975051005
 10
834.8859189781261
 20
2034.415622739675
 10
834.8427497824419
 20
2034.409539254814
 10
834.7998583920189
 20
2034.401734328699
 10
834.7573134239322
 20
2034.392220447547
 10
834.7151829410547
 20
2034.381012831538
 10
834.6735343431717
 20
2034.368129410467
 10
834.6324342591557
 20
2034.353590795061
 10
834.5919484403733
 20
2034.337420244
 10
834.5521416554976
 20
2034.319643626719
 10
834.5130775868936
 20
2034.300289382012
 10
834.474818728737
 20
2034.279388472543
 10
834.4374262870401
 20
2034.256974335307
 10
834.4009600817324
 20
2034.233082828144
 10
834.3654784509638
 20
2034.207752172367
 10
834.3310381577744
 20
2034.181022891623
 10
834.297694299286
 20
2034.152937747058
 10
834.2655002185601
 20
2034.123541668914
 10
834.2345074192571
 20
2034.092881684643
 10
834.2047654832452
 20
2034.061006843682
 10
834.1763219912772
 20
2034.027968138974
 10
834.1492224468725
 20
2033.9938184254
 10
834.1235102035215
 20
2033.958612335218
 10
834.0992263953282
 20
2033.922406190661
 10
834.0764098712059
 20
2033.885257913836
 10
834.0550971327255
 20
2033.847226934062
 10
834.0353222757221
 20
2033.808374092794
 10
834.0171169357487
 20
2033.768761546291
 10
834.0005102374659
 20
2033.728452666174
 10
833.985528748048
 20
2033.687511938055
 10
833.9721964346821
 20
2033.646004858365
 10
833.9605346262258
 20
2033.603997829577
 10
833.9505619790848
 20
2033.561558053976
 10
833.9422944473671
 20
2033.518753426149
 10
833.9357452573599
 20
2033.475652424371
 10
833.9309248863699
 20
2033.432324001048
 10
833.9278410459629
 20
2033.388837472417
 10
833.9264986696251
 20
2033.345262407645
 10
833.9268999048726
 20
2033.301668517541
 10
833.9290441098148
 20
2033.258125543031
 10
833.9329278541807
 20
2033.214703143583
 10
833.9385449248078
 20
2033.171470785775
 10
833.9458863355821
 20
2033.128497632156
 10
833.9549403418116
 20
2033.085852430605
 10
833.9656924590183
 20
2033.043603404349
 10
833.9781254861078
 20
2033.001818142815
 10
833.9922195328895
 20
2032.960563493508
 10
834.0079520518951
 20
2032.919905455068
 10
834.0252978744498
 20
2032.879909071682
 10
834.0442292509381
 20
2032.840638329031
 10
834.0647158951963
 20
2032.802156051927
 10
834.0867250329633
 20
2032.764523803803
 10
834.1102214543143
 20
2032.727801788229
 10
834.1351675699872
 20
2032.692048752597
 10
834.1615234715181
 20
2032.657321894136
 10
834.1892469950874
 20
2032.623676768412
 10
834.2182937889711
 20
2032.591167200449
 10
834.2486173844953
 20
2032.55984519862
 10
834.2801692703762
 20
2032.529760871447
 10
834.3128989703266
 20
2032.500962347436
 10
834.3467541238089
 20
2032.473495698081
 10
834.3816805697995
 20
2032.447404864163
 10
834.4176224334352
 20
2032.422731585449
 10
834.4545222154019
 20
2032.399515333924
 10
834.4923208839192
 20
2032.377793250636
 10
834.5309579691814
 20
2032.357600086284
 10
834.570371660094
 20
2032.338968145625
 10
834.6104989031594
 20
2032.321927235788
 10
834.6512755033486
 20
2032.306504618594
 10
834.6926362267998
 20
2032.292724966942
 10
834.7345149051788
 20
2032.280610325333
 10
834.7768445415336
 20
2032.27018007461
 10
834.8195574174763
 20
2032.26145090095
 10
834.8625852015167
 20
2032.254436769167
 10
834.9058590583791
 20
2032.249148900377
 10
834.9493097591238
 20
2032.245595754043
 10
834.9928677918985
 20
2032.243783014438
 10
835.0164012229951
 20
2032.243528929953
  0
LWPOLYLINE
  5
96
330
87
100
AcDbEntity
  8
P-SANR-FIXT
100
AcDbPolyline
 90
       80
 70
   128
 43
0.0
 10
796.3164136633836
 20
2032.243528929953
 10
796.3600006810625
 20
2032.244400786558
 10
796.4035179688113
 20
2032.247014961585
 10
796.4468959082526
 20
2032.251367272915
 10
796.4900651039368
 20
2032.257450757776
 10
796.5329564943597
 20
2032.265255683892
 10
796.5755014624465
 20
2032.274769565043
 10
796.6176319453239
 20
2032.285977181052
 10
796.6592805432068
 20
2032.298860602123
 10
796.700380627223
 20
2032.313399217529
 10
796.7408664460054
 20
2032.32956976859
 10
796.7806732308807
 20
2032.347346385871
 10
796.819737299485
 20
2032.366700630578
 10
796.8579961576416
 20
2032.387601540047
 10
796.8953885993386
 20
2032.410015677283
 10
796.9318548046461
 20
2032.433907184446
 10
796.9673364354149
 20
2032.459237840223
 10
797.0017767286042
 20
2032.485967120968
 10
797.0351205870926
 20
2032.514052265532
 10
797.0673146678186
 20
2032.543448343676
 10
797.0983074671216
 20
2032.574108327947
 10
797.1280494031334
 20
2032.605983168909
 10
797.1564928951015
 20
2032.639021873616
 10
797.1835924395061
 20
2032.673171587189
 10
797.2093046828571
 20
2032.708377677372
 10
797.2335884910505
 20
2032.744583821929
 10
797.2564050151728
 20
2032.781732098754
 10
797.2777177536532
 20
2032.819763078528
 10
797.2974926106565
 20
2032.858615919796
 10
797.3156979506299
 20
2032.8982284663
 10
797.3323046489127
 20
2032.938537346416
 10
797.3472861383307
 20
2032.979478074535
 10
797.3606184516965
 20
2033.020985154225
 10
797.3722802601529
 20
2033.062992183013
 10
797.3822529072939
 20
2033.105431958614
 10
797.3905204390116
 20
2033.148236586441
 10
797.3970696290188
 20
2033.19133758822
 10
797.4018900000085
 20
2033.234666011542
 10
797.4049738404158
 20
2033.278152540173
 10
797.4063162167534
 20
2033.321727604946
 10
797.405914981506
 20
2033.365321495049
 10
797.4037707765639
 20
2033.40886446956
 10
797.399887032198
 20
2033.452286869007
 10
797.3942699615706
 20
2033.495519226816
 10
797.3869285507966
 20
2033.538492380434
 10
797.377874544567
 20
2033.581137581984
 10
797.3671224273604
 20
2033.623386608241
 10
797.3546894002707
 20
2033.665171869776
 10
797.3405953534891
 20
2033.706426519082
 10
797.3248628344836
 20
2033.747084557522
 10
797.3075170119288
 20
2033.787080940909
 10
797.2885856354404
 20
2033.826351683559
 10
797.2680989911822
 20
2033.864833960663
 10
797.2460898534152
 20
2033.902466208787
 10
797.2225934320642
 20
2033.93918822436
 10
797.1976473163915
 20
2033.974941259993
 10
797.1712914148606
 20
2034.009668118454
 10
797.1435678912913
 20
2034.043313244178
 10
797.1145210974076
 20
2034.075822812141
 10
797.0841975018832
 20
2034.10714481397
 10
797.0526456160025
 20
2034.137229141143
 10
797.019915916052
 20
2034.166027665154
 10
796.9860607625697
 20
2034.193494314509
 10
796.9511343165792
 20
2034.219585148427
 10
796.9151924529431
 20
2034.244258427141
 10
796.8782926709767
 20
2034.267474678666
 10
796.8404940024592
 20
2034.289196761955
 10
796.8018569171971
 20
2034.309389926306
 10
796.7624432262846
 20
2034.328021866965
 10
796.7223159832192
 20
2034.345062776802
 10
796.6815393830301
 20
2034.360485393996
 10
796.6401786595789
 20
2034.374265045648
 10
796.5982999811997
 20
2034.386379687257
 10
796.555970344845
 20
2034.39680993798
 10
796.5132574689022
 20
2034.40553911164
 10
796.4702296848618
 20
2034.412553243423
 10
796.4269558279995
 20
2034.417841112213
 10
796.3835051272549
 20
2034.421394258548
 10
796.3399470944802
 20
2034.423206998153
 10
796.3164136633836
 20
2034.423461082637
  0
LWPOLYLINE
  5
97
330
87
100
AcDbEntity
  8
P-SANR-FIXT
100
AcDbPolyline
 90
       36
 70
   128
 43
0.0
 10
835.0164012229951
 20
2032.243528929953
 10
835.0131237678521
 20
2032.079678023091
 10
835.0032966456526
 20
2031.916089242727
 10
834.9869355776952
 20
2031.753024296012
 10
834.964066738199
 20
2031.590744052076
 10
834.9347267124286
 20
2031.429508124692
 10
834.898962438166
 20
2031.269574456947
 10
834.8568311306213
 20
2031.111198908594
 10
834.8084001908986
 20
2030.954634846724
 10
834.7537470981704
 20
2030.800132740437
 10
834.6929592857263
 20
2030.647939760145
 10
834.6261340010984
 20
2030.498299382152
 10
834.5533781504872
 20
2030.351450999138
 10
834.4748081277334
 20
2030.207629537192
 10
834.3905496281124
 20
2030.067065079973
 10
834.3007374472495
 20
2029.929982500627
 10
834.2055152654753
 20
2029.796601102036
 10
834.1050354179674
 20
2029.667134265987
 10
833.9994586510471
 20
2029.541789111799
 10
833.8889538650203
 20
2029.42076616498
 10
833.7736978439709
 20
2029.304259036427
 10
833.6538749729466
 20
2029.192454112693
 10
833.5296769429794
 20
2029.085530257805
 10
833.4013024444235
 20
2028.983658527122
 10
833.2689568490915
 20
2028.887001893682
 10
833.1328518817036
 20
2028.79571498748
 10
832.9932052811738
 20
2028.70994384809
 10
832.8502404522726
 20
2028.62982569104
 10
832.7041861082292
 20
2028.555488688291
 10
832.5552759048376
 20
2028.487051763188
 10
832.4037480666568
 20
2028.424624400213
 10
832.2498450059043
 20
2028.368306469829
 10
832.093812934646
 20
2028.318188068711
 10
831.9359014709108
 20
2028.27434937561
 10
831.7763632393553
 20
2028.236860523083
 10
831.7745583394964
 20
2028.236474744576
  0
LWPOLYLINE
  5
98
330
87
100
AcDbEntity
  8
P-SANR-FIXT
100
AcDbPolyline
 90
       36
 70
   128
 43
0.0
 10
799.558256546882
 20
2028.236474744576
 10
799.3987014445734
 20
2028.273891728941
 10
799.2407702496201
 20
2028.317659286018
 10
799.0847156182444
 20
2028.36770739705
 10
798.9307872045661
 20
2028.423955995737
 10
798.7792312612111
 20
2028.48631509632
 10
798.6302902453585
 20
2028.554684937541
 10
798.4842024308613
 20
2028.628956142238
 10
798.3412015270589
 20
2028.709009892327
 10
798.2015163048919
 20
2028.794718118887
 10
798.0653702309184
 20
2028.885943707037
 10
797.9329811098136
 20
2028.982540715297
 10
797.8045607359295
 20
2029.08435460906
 10
797.6803145544695
 20
2029.191222507815
 10
797.5604413328197
 20
2029.302973445722
 10
797.4451328425629
 20
2029.419428645118
 10
797.334573552686
 20
2029.540401802528
 10
797.2289403344677
 20
2029.665699386705
 10
797.1284021785238
 20
2029.795120948243
 10
797.0331199244562
 20
2029.928459440254
 10
796.943246003546
 20
2030.065501549592
 10
796.8589241948945
 20
2030.206028038119
 10
796.7802893954078
 20
2030.349814093428
 10
796.7074674039904
 20
2030.496629688505
 10
796.6405747202947
 20
2030.646239949716
 10
796.5797183583438
 20
2030.798405532559
 10
796.5249956753358
 20
2030.952883004561
 10
796.4764942158896
 20
2031.109425234721
 10
796.4342915719939
 20
2031.267781788863
 10
796.3984552588763
 20
2031.427699330283
 10
796.3690426069929
 20
2031.588922025028
 10
796.3461006703123
 20
2031.75119195118
 10
796.3296661510398
 20
2031.914249511471
 10
796.3197653408995
 20
2032.077833848588
 10
796.3164140790761
 20
2032.24168326249
 10
796.3164136633836
 20
2032.243528929953
  0
LINE
  5
99
330
87
100
AcDbEntity
  8
P-SANR-FIXT
100
AcDbLine
 10
796.316413663382
 20
2034.423461082636
 30
0.0
 11
804.1637442705615
 21
2034.423461082636
 31
0.0
  0
LINE
  5
9A
330
87
100
AcDbEntity
  8
P-SANR-FIXT
100
AcDbLine
 10
827.1690278054927
 20
2034.423461082636
 30
0.0
 11
835.0164012229935
 21
2034.423461082636
 31
0.0
  0
LINE
  5
9B
330
87
100
AcDbEntity
  8
P-SANR-FIXT
100
AcDbLine
 10
796.316413663382
 20
2032.243528929952
 30
0.0
 11
804.6589167026283
 21
2032.243528929952
 31
0.0
  0
LINE
  5
9C
330
87
100
AcDbEntity
  8
P-SANR-FIXT
100
AcDbLine
 10
826.6738981837473
 20
2032.243528929952
 30
0.0
 11
835.0164012229935
 21
2032.243528929952
 31
0.0
  0
LINE
  5
9D
330
87
100
AcDbEntity
  8
P-SANR-FIXT
100
AcDbLine
 10
799.5582565468805
 20
2028.236474744575
 30
0.0
 11
804.6547591168206
 21
2028.236474744575
 31
0.0
  0
LINE
  5
9E
330
87
100
AcDbEntity
  8
P-SANR-FIXT
100
AcDbLine
 10
826.6780557695549
 20
2028.236474744575
 30
0.0
 11
831.774558339495
 21
2028.236474744575
 31
0.0
  0
LINE
  5
9F
330
87
100
AcDbEntity
  8
P-SANR-FIXT
100
AcDbLine
 10
775.6664074431893
 20
2005.437499999998
 30
0.0
 11
775.6664074431893
 21
1970.937499999998
 31
0.0
  0
LINE
  5
A0
330
87
100
AcDbEntity
  8
P-SANR-FIXT
100
AcDbLine
 10
855.6664074431891
 20
1970.937499999998
 30
0.0
 11
855.6664074431891
 21
2005.437499999998
 31
0.0
  0
LINE
  5
A1
330
87
100
AcDbEntity
  8
P-SANR-FIXT
100
AcDbLine
 10
790.6664074431894
 20
2042.52941426062
 30
0.0
 11
788.3243920682352
 21
2041.676990375943
 31
0.0
  0
LINE
  5
A2
330
87
100
AcDbEntity
  8
P-SANR-FIXT
100
AcDbLine
 10
843.0084228181435
 20
2041.676990375943
 30
0.0
 11
840.6664074431892
 21
2042.52941426062
 31
0.0
  0
LWPOLYLINE
  5
A3
330
87
100
AcDbEntity
  8
P-SANR-FIXT
100
AcDbPolyline
 90
       32
 70
   128
 43
0.0
 10
843.0084228181435
 20
2041.676990375943
 10
843.0457269207543
 20
2041.662561564265
 10
843.0824241854899
 20
2041.646652527871
 10
843.1184559045547
 20
2041.629288717827
 10
843.1537644348852
 20
2041.610497912524
 10
843.1882932903643
 20
2041.590310173241
 10
843.2219872321892
 20
2041.568757796055
 10
843.2547923572409
 20
2041.545875260173
 10
843.2866561843169
 20
2041.52169917277
 10
843.3175277380916
 20
2041.49626821043
 10
843.3473576306642
 20
2041.469623057265
 10
843.3760981405704
 20
2041.441806339839
 10
843.4037032891248
 20
2041.412862558964
 10
843.4301289139787
 20
2041.382838018516
 10
843.4553327397697
 20
2041.351780751354
 10
843.4792744457524
 20
2041.319740442481
 10
843.5019157303054
 20
2041.286768349557
 10
843.5232203722028
 20
2041.252917220895
 10
843.5431542885625
 20
2041.218241211081
 10
843.5616855893705
 20
2041.182795794334
 10
843.5787846284988
 20
2041.146637675758
 10
843.5944240511322
 20
2041.10982470063
 10
843.6085788375308
 20
2041.072415761858
 10
843.621226343056
 20
2041.034470705763
 10
843.6323463343969
 20
2040.996050236342
 10
843.6419210219394
 20
2040.957215818147
 10
843.6499350882259
 20
2040.918029577965
 10
843.6563757124602
 20
2040.87855420542
 10
843.6612325910173
 20
2040.838852852689
 10
843.6644979539272
 20
2040.798989033465
 10
843.6661665773065
 20
2040.759026521356
 10
843.6664026748177
 20
2040.737297755157
  0
LWPOLYLINE
  5
A4
330
87
100
AcDbEntity
  8
P-SANR-FIXT
100
AcDbPolyline
 90
       32
 70
   128
 43
0.0
 10
787.6664122115609
 20
2040.737297755157
 10
787.6672121048999
 20
2040.777287089344
 10
787.6696105052583
 20
2040.817212449126
 10
787.673603575707
 20
2040.857009962446
 10
787.6791849281852
 20
2040.896615961772
 10
787.6863456337197
 20
2040.935967085952
 10
787.6950742367088
 20
2040.975000381584
 10
787.7053567732501
 20
2041.013653403721
 10
787.7171767934783
 20
2041.051864315774
 10
787.7305153878831
 20
2041.089571988432
 10
787.7453512175581
 20
2041.126716097466
 10
787.7616605483407
 20
2041.163237220223
 10
787.7794172887814
 20
2041.199076930698
 10
787.7985930318832
 20
2041.234177893001
 10
787.8191571005474
 20
2041.268483953078
 10
787.8410765966512
 20
2041.301940228553
 10
787.8643164536765
 20
2041.33449319652
 10
787.8888394928099
 20
2041.366090779176
 10
787.9146064824198
 20
2041.396682427129
 10
787.94157620082
 20
2041.426219200268
 10
787.9697055022136
 20
2041.454653846057
 10
787.9989493857196
 20
2041.481940875128
 10
788.0292610673623
 20
2041.508036634056
 10
788.0605920549173
 20
2041.532899375193
 10
788.0928922254883
 20
2041.556489323458
 10
788.1261099056927
 20
2041.578768739965
 10
788.160191954328
 20
2041.5997019824
 10
788.195083847387
 20
2041.619255562042
 10
788.2307297652841
 20
2041.637398197334
 10
788.2670726821547
 20
2041.654100863929
 10
788.3040544570841
 20
2041.669336841124
 10
788.3243920682352
 20
2041.676990375943
  0
LINE
  5
A5
330
87
100
AcDbEntity
  8
P-SANR-FIXT
100
AcDbLine
 10
787.6664122115608
 20
2040.737297755157
 30
0.0
 11
787.6664122115608
 21
2038.535881723402
 31
0.0
  0
LINE
  5
A6
330
87
100
AcDbEntity
  8
P-SANR-FIXT
100
AcDbLine
 10
843.6664026748179
 20
2038.535881723402
 30
0.0
 11
843.6664026748179
 21
2040.737297755157
 31
0.0
  0
LINE
  5
A7
330
87
100
AcDbEntity
  8
P-SANR-FIXT
100
AcDbLine
 10
775.6664074431893
 20
1970.937499999998
 30
0.0
 11
789.1664074431895
 21
1937.937499999998
 31
0.0
  0
LINE
  5
A8
330
87
100
AcDbEntity
  8
P-SANR-FIXT
100
AcDbLine
 10
842.1664074431889
 20
1937.937499999998
 30
0.0
 11
855.6664074431891
 21
1970.937499999998
 31
0.0
  0
LINE
  5
A9
330
87
100
AcDbEntity
  8
P-SANR-FIXT
100
AcDbLine
 10
775.6664074431894
 20
2006.437499999998
 30
0.0
 11
775.6664074431894
 21
2005.437499999998
 31
0.0
  0
LINE
  5
AA
330
87
100
AcDbEntity
  8
P-SANR-FIXT
100
AcDbLine
 10
855.6664074431889
 20
2005.437499999998
 30
0.0
 11
855.6664074431889
 21
2006.437499999998
 31
0.0
  0
LINE
  5
AB
330
87
100
AcDbEntity
  8
P-SANR-FIXT
100
AcDbLine
 10
772.6664074431869
 20
2112.286474744623
 30
0.0
 11
756.6664074431241
 21
2112.286474744623
 31
0.0
  0
LINE
  5
AC
330
87
100
AcDbEntity
  8
P-SANR-FIXT
100
AcDbLine
 10
756.6664074431238
 20
2078.586474744623
 30
0.0
 11
772.6664074431869
 21
2078.586474744623
 31
0.0
  0
LINE
  5
AD
330
87
100
AcDbEntity
  8
P-SANR-FIXT
100
AcDbLine
 10
756.6664074431241
 20
2112.286474744623
 30
0.0
 11
754.6664074431872
 21
2110.286474744686
 31
0.0
  0
LINE
  5
AE
330
87
100
AcDbEntity
  8
P-SANR-FIXT
100
AcDbLine
 10
754.666407443187
 20
2080.58647474456
 30
0.0
 11
756.6664074431238
 21
2078.586474744623
 31
0.0
  0
LINE
  5
AF
330
87
100
AcDbEntity
  8
P-SANR-FIXT
100
AcDbLine
 10
774.1607438878014
 20
2119.419807928444
 30
0.0
 11
772.6664074431869
 21
2119.436474744623
 31
0.0
  0
LWPOLYLINE
  5
B0
330
87
100
AcDbEntity
  8
P-SANR-FIXT
100
AcDbPolyline
 90
       34
 70
   128
 43
0.0
 10
839.0476181865508
 20
2061.51480560662
 10
838.6315248908237
 20
2064.162085150459
 10
838.1099014789882
 20
2066.790607859168
 10
837.4835824372294
 20
2069.396168657136
 10
836.7535697424068
 20
2071.974599202909
 10
835.9210312591041
 20
2074.521774557649
 10
834.9872988712961
 20
2077.033619784158
 10
833.9538663516176
 20
2079.506116465904
 10
832.8223869716461
 20
2081.935309135636
 10
831.5946708570205
 20
2084.31731160328
 10
830.2726820916252
 20
2086.648313173023
 10
828.8585355754756
 20
2088.924584739606
 10
827.3544936413285
 20
2091.142484754104
 10
825.7629624354345
 20
2093.298465049617
 10
824.0864880682135
 20
2095.389076517592
 10
822.3277525410248
 20
2097.410974625653
 10
820.4895694555347
 20
2099.360924768141
 10
818.5748795125553
 20
2101.235807440799
 10
816.5867458075501
 20
2103.032623231301
 10
814.5283489303345
 20
2104.748497617684
 10
812.4029818768104
 20
2106.380685566963
 10
810.2140447808764
 20
2107.926575926601
 10
807.9650394749375
 20
2109.383695601794
 10
805.659563887721
 20
2110.749713511898
 10
803.3013062883581
 20
2112.022444319658
 10
800.8940393859393
 20
2113.199851927285
 10
798.4416142939858
 20
2114.280052733771
 10
795.9479543694885
 20
2115.261318648257
 10
793.4170489363745
 20
2116.142079854606
 10
790.8529469034386
 20
2116.920927322774
 10
788.2597502869544
 20
2117.596615062955
 10
785.6416076483228
 20
2118.168062118906
 10
783.0027074572577
 20
2118.634354297238
 10
782.1607438878015
 20
2118.76034819206
  0
LINE
  5
B1
330
87
100
AcDbEntity
  8
P-SANR-FIXT
100
AcDbLine
 10
839.6653821878119
 20
2052.437499999999
 30
0.0
 11
839.6567227643558
 21
2053.514658299073
 31
0.0
  0
LWPOLYLINE
  5
B2
330
87
100
AcDbEntity
  8
P-SANR-FIXT
100
AcDbPolyline
 90
       41
 70
   128
 43
0.0
 10
772.666407443187
 20
2071.436474744623
 10
773.4261637934532
 20
2071.421277591277
 10
774.1847046956317
 20
2071.37571044344
 10
774.9408166460925
 20
2071.299846198831
 10
775.6932900270099
 20
2071.193806224057
 10
776.4409210414939
 20
2071.057760160455
 10
777.1825136394072
 20
2070.891925652707
 10
777.9168814307911
 20
2070.696568000649
 10
778.6428495838362
 20
2070.47199973485
 10
779.3592567043625
 20
2070.21858011663
 10
780.0649566938028
 20
2069.936714563318
 10
780.758820582715
 20
2069.626853999672
 10
781.4397383368933
 20
2069.289494136492
 10
782.1066206331858
 20
2068.925174677595
 10
782.7584006021792
 20
2068.534478456396
 10
783.3940355349619
 20
2068.118030503506
 10
784.0125085512362
 20
2067.676497046813
 10
784.61283022611
 20
2067.210584445656
 10
785.1940401729657
 20
2066.72103806081
 10
785.7552085798728
 20
2066.208641062059
 10
786.2954376970898
 20
2065.674213175295
 10
786.8138632732721
 20
2065.118609371133
 10
787.309655938089
 20
2064.542718497136
 10
787.7820225290405
 20
2063.947461855852
 10
788.2302073603473
 20
2063.333791730926
 10
788.6534934318868
 20
2062.70268986365
 10
789.0512035762411
 20
2062.055165882381
 10
789.4227015420187
 20
2061.39225568736
 10
789.7673930117242
 20
2060.715019793486
 10
790.0847265525353
 20
2060.024541633719
 10
790.3741944984815
 20
2059.32192582582
 10
790.6353337625991
 20
2058.608296405199
 10
790.867726577772
 20
2057.884795026696
 10
791.0710011650706
 20
2057.152579138178
 10
791.2448323285183
 20
2056.412820128869
 10
791.3889419753351
 20
2055.666701455376
 10
791.5030995608283
 20
2054.915416748415
 10
791.5871224572133
 20
2054.160167903249
 10
791.6408762457799
 20
2053.402163156923
 10
791.6642749319329
 20
2052.642615155328
 10
791.665382187812
 20
2052.437499999998
  0
SPLINE
  5
B3
330
87
100
AcDbEntity
  8
P-SANR-FIXT
100
AcDbSpline
210
0.0
220
0.0
230
1.0
 70
     8
 71
     3
 72
     9
 73
     5
 74
     0
 42
0.000000001
 43
0.0000000001
 40
-1.0
 40
-1.0
 40
-1.0
 40
-1.0
 40
-0.5
 40
0.0
 40
0.0
 40
0.0
 40
0.0
 10
795.6811260689491
 20
2051.571474596213
 30
0.0
 10
796.4220479421258
 20
2051.765151957479
 30
0.0
 10
797.8812128323219
 20
2052.103166886041
 30
0.0
 10
799.2950200102038
 20
2052.342502226668
 30
0.0
 10
799.9905841710662
 20
2052.437499999998
 30
0.0
  0
SPLINE
  5
B4
330
87
100
AcDbEntity
  8
P-SANR-FIXT
100
AcDbSpline
210
0.0
220
0.0
230
1.0
 70
    24
 71
     3
 72
     9
 73
     5
 74
     0
 42
0.000000001
 43
0.0000000001
 40
-1.0
 40
-1.0
 40
-1.0
 40
-1.0
 40
-0.5
 40
0.0
 40
0.0
 40
0.0
 40
0.0
 10
792.6664074431877
 20
2052.437499999998
 30
0.0
 10
792.6664074431877
 20
2052.336627705192
 30
0.0
 10
792.6664074431877
 20
2052.091417843089
 30
0.0
 10
792.6664074431877
 20
2051.759277436002
 30
0.0
 10
792.6664074431877
 20
2051.571474596213
 30
0.0
  0
SPLINE
  5
B5
330
87
100
AcDbEntity
  8
P-SANR-FIXT
100
AcDbSpline
210
0.0
220
0.0
230
1.0
 70
     8
 71
     3
 72
     9
 73
     5
 74
     0
 42
0.000000001
 43
0.0000000001
 40
-1.0
 40
-1.0
 40
-1.0
 40
-1.0
 40
-0.5
 40
0.0
 40
0.0
 40
0.0
 40
0.0
 10
818.6811260689488
 20
2051.571474596213
 30
0.0
 10
819.4220479421257
 20
2051.765151957479
 30
0.0
 10
820.8812128323224
 20
2052.103166886041
 30
0.0
 10
822.2950200102046
 20
2052.342502226668
 30
0.0
 10
822.9905841710674
 20
2052.437499999998
 30
0.0
  0
SPLINE
  5
B6
330
87
100
AcDbEntity
  8
P-SANR-FIXT
100
AcDbSpline
210
0.0
220
0.0
230
1.0
 70
     8
 71
     3
 72
     9
 73
     5
 74
     0
 42
0.000000001
 43
0.0000000001
 40
-1.0
 40
-1.0
 40
-1.0
 40
-1.0
 40
-0.5
 40
0.0
 40
0.0
 40
0.0
 40
0.0
 10
808.3422307153082
 20
2052.437499999998
 30
0.0
 10
809.0423449096553
 20
2052.341587485436
 30
0.0
 10
810.460702121022
 20
2052.101337403577
 30
0.0
 10
811.9153169777337
 20
2051.764237216246
 30
0.0
 10
812.6516888174259
 20
2051.571474596213
 30
0.0
  0
SPLINE
  5
B7
330
87
100
AcDbEntity
  8
P-SANR-FIXT
100
AcDbSpline
210
0.0
220
0.0
230
1.0
 70
    24
 71
     3
 72
     9
 73
     5
 74
     0
 42
0.000000001
 43
0.0000000001
 40
-1.0
 40
-1.0
 40
-1.0
 40
-1.0
 40
-0.5
 40
0.0
 40
0.0
 40
0.0
 40
0.0
 10
838.6664074431877
 20
2051.571474596213
 30
0.0
 10
838.6664074431877
 20
2051.759277436002
 30
0.0
 10
838.6664074431877
 20
2052.091417843089
 30
0.0
 10
838.6664074431877
 20
2052.336627705192
 30
0.0
 10
838.6664074431877
 20
2052.437499999998
 30
0.0
  0
SPLINE
  5
B8
330
87
100
AcDbEntity
  8
P-SANR-FIXT
100
AcDbSpline
210
0.0
220
0.0
230
1.0
 70
     8
 71
     3
 72
     9
 73
     5
 74
     0
 42
0.000000001
 43
0.0000000001
 40
-1.0
 40
-1.0
 40
-1.0
 40
-1.0
 40
-0.5
 40
0.0
 40
0.0
 40
0.0
 40
0.0
 10
831.3422307153073
 20
2052.437499999998
 30
0.0
 10
832.0423449096544
 20
2052.341587485436
 30
0.0
 10
833.4607021210215
 20
2052.101337403577
 30
0.0
 10
834.9153169777338
 20
2051.764237216246
 30
0.0
 10
835.6516888174262
 20
2051.571474596213
 30
0.0
  0
LINE
  5
B9
330
87
100
AcDbEntity
  8
P-SANR-FIXT
100
AcDbLine
 10
781.1607438878
 20
2121.31166154031
 30
0.0
 11
775.1607438877999
 21
2121.31166154031
 31
0.0
  0
ARC
  5
BA
330
87
100
AcDbEntity
  8
P-SANR-FIXT
100
AcDbCircle
 10
775.1607438877999
 20
2120.31166154031
 30
0.0
 40
1.0
100
AcDbArc
 50
90.0
 51
180.0
  0
LINE
  5
BB
330
87
100
AcDbEntity
  8
P-SANR-FIXT
100
AcDbLine
 10
774.1607438877999
 20
2120.31166154031
 30
0.0
 11
774.1607438877999
 21
2118.893065045092
 31
0.0
  0
LINE
  5
BC
330
87
100
AcDbEntity
  8
P-SANR-FIXT
100
AcDbLine
 10
782.1607438878
 20
2118.228325670064
 30
0.0
 11
782.1607438878
 21
2120.31166154031
 31
0.0
  0
ARC
  5
BD
330
87
100
AcDbEntity
  8
P-SANR-FIXT
100
AcDbCircle
 10
781.1607438878
 20
2120.31166154031
 30
0.0
 40
1.000000000000113
100
AcDbArc
 50
0.0
 51
90.0
  0
LINE
  5
BE
330
87
100
AcDbEntity
  8
P-SANR-FIXT
100
AcDbLine
 10
792.6664074431876
 20
2051.571474596213
 30
0.0
 11
795.6811260689491
 21
2051.571474596213
 31
0.0
  0
LINE
  5
BF
330
87
100
AcDbEntity
  8
P-SANR-FIXT
100
AcDbLine
 10
792.666407443188
 20
2051.571474596213
 30
0.0
 11
792.666407443188
 21
2042.529414260619
 31
0.0
  0
LINE
  5
C0
330
87
100
AcDbEntity
  8
P-SANR-FIXT
100
AcDbLine
 10
795.6811260689489
 20
2042.529414260619
 30
0.0
 11
795.6811260689489
 21
2051.571474596213
 31
0.0
  0
LINE
  5
C1
330
87
100
AcDbEntity
  8
P-SANR-FIXT
100
AcDbLine
 10
812.6516888174259
 20
2051.571474596213
 30
0.0
 11
818.6811260689488
 21
2051.571474596213
 31
0.0
  0
LINE
  5
C2
330
87
100
AcDbEntity
  8
P-SANR-FIXT
100
AcDbLine
 10
812.6516888174265
 20
2051.571474596213
 30
0.0
 11
812.6516888174265
 21
2042.529414260619
 31
0.0
  0
LINE
  5
C3
330
87
100
AcDbEntity
  8
P-SANR-FIXT
100
AcDbLine
 10
818.6811260689493
 20
2042.529414260619
 30
0.0
 11
818.6811260689493
 21
2051.571474596213
 31
0.0
  0
LINE
  5
C4
330
87
100
AcDbEntity
  8
P-SANR-FIXT
100
AcDbLine
 10
835.6516888174262
 20
2051.571474596213
 30
0.0
 11
838.6664074431875
 21
2051.571474596213
 31
0.0
  0
LINE
  5
C5
330
87
100
AcDbEntity
  8
P-SANR-FIXT
100
AcDbLine
 10
835.6516888174262
 20
2051.571474596213
 30
0.0
 11
835.6516888174262
 21
2042.529414260619
 31
0.0
  0
LINE
  5
C6
330
87
100
AcDbEntity
  8
P-SANR-FIXT
100
AcDbLine
 10
838.6664074431879
 20
2042.529414260619
 30
0.0
 11
838.6664074431879
 21
2051.571474596213
 31
0.0
  0
LINE
  5
C7
330
87
100
AcDbEntity
  8
P-SANR-FIXT
100
AcDbLine
 10
840.6664074431875
 20
2042.529414260619
 30
0.0
 11
838.6664074431877
 21
2042.529414260619
 31
0.0
  0
LINE
  5
C8
330
87
100
AcDbEntity
  8
P-SANR-FIXT
100
AcDbLine
 10
835.6516888174262
 20
2042.529414260619
 30
0.0
 11
838.6664074431875
 21
2042.529414260619
 31
0.0
  0
LINE
  5
C9
330
87
100
AcDbEntity
  8
P-SANR-FIXT
100
AcDbLine
 10
835.6516888174262
 20
2042.529414260619
 30
0.0
 11
818.6811260689491
 21
2042.529414260619
 31
0.0
  0
LINE
  5
CA
330
87
100
AcDbEntity
  8
P-SANR-FIXT
100
AcDbLine
 10
812.6516888174259
 20
2042.529414260619
 30
0.0
 11
818.6811260689488
 21
2042.529414260619
 31
0.0
  0
LINE
  5
CB
330
87
100
AcDbEntity
  8
P-SANR-FIXT
100
AcDbLine
 10
812.6516888174261
 20
2042.52941426062
 30
0.0
 11
795.6811260689494
 21
2042.52941426062
 31
0.0
  0
LINE
  5
CC
330
87
100
AcDbEntity
  8
P-SANR-FIXT
100
AcDbLine
 10
792.6664074431876
 20
2042.529414260619
 30
0.0
 11
795.6811260689489
 21
2042.529414260619
 31
0.0
  0
LINE
  5
CD
330
87
100
AcDbEntity
  8
P-SANR-FIXT
100
AcDbLine
 10
792.6664074431879
 20
2042.52941426062
 30
0.0
 11
790.6664074431879
 21
2042.52941426062
 31
0.0
  0
LWPOLYLINE
  5
CE
330
87
100
AcDbEntity
  8
P-SANR-FIXT
100
AcDbPolyline
 90
        4
 70
   128
 43
0.0
 10
787.6664122115593
 20
2038.535881723401
 10
788.257066340279
 20
2038.410334312664
 10
790.0041092722108
 20
2038.038988873963
 10
792.8338339861741
 20
2037.437512318291
  0
LWPOLYLINE
  5
CF
330
87
100
AcDbEntity
  8
P-SANR-FIXT
100
AcDbPolyline
 90
        4
 70
   128
 43
0.0
 10
838.4989809002016
 20
2037.43751231829
 10
841.3287056141648
 20
2038.038988873963
 10
843.0757485460965
 20
2038.410334312664
 10
843.6664026748163
 20
2038.535881723401
  0
LINE
  5
D0
330
87
100
AcDbEntity
  8
P-SANR-FIXT
100
AcDbLine
 10
775.6664074431878
 20
1970.937499999997
 30
0.0
 11
855.6664074431875
 21
1970.937499999997
 31
0.0
  0
LINE
  5
D1
330
87
100
AcDbEntity
  8
P-SANR-FIXT
100
AcDbLine
 10
855.6664074431873
 20
2006.437499999997
 30
0.0
 11
828.6664074431884
 21
2006.437499999997
 31
0.0
  0
LINE
  5
D2
330
87
100
AcDbEntity
  8
P-SANR-FIXT
100
AcDbLine
 10
828.6664074431879
 20
2006.437499999997
 30
0.0
 11
802.6664074431879
 21
2006.437499999997
 31
0.0
  0
LINE
  5
D3
330
87
100
AcDbEntity
  8
P-SANR-FIXT
100
AcDbLine
 10
802.6664074431881
 20
2006.437499999997
 30
0.0
 11
775.666407443188
 21
2006.437499999997
 31
0.0
  0
LINE
  5
D4
330
87
100
AcDbEntity
  8
P-SANR-FIXT
100
AcDbLine
 10
789.166407443188
 20
1937.937499999997
 30
0.0
 11
842.1664074431873
 21
1937.937499999997
 31
0.0
  0
SPLINE
  5
D5
330
87
100
AcDbEntity
  8
P-SANR-FIXT
100
AcDbSpline
210
0.0
220
0.0
230
1.0
 70
     8
 71
     3
 72
     8
 73
     4
 74
     0
 42
0.000000001
 43
0.0000000001
 40
-1.0
 40
-1.0
 40
-1.0
 40
-1.0
 40
-0.8571428571428572
 40
-0.8571428571428572
 40
-0.8571428571428572
 40
-0.8571428571428572
 10
828.6664074431879
 20
2006.437499999997
 30
0.0
 10
828.5219045151233
 20
2006.437499999997
 30
0.0
 10
828.3750029074042
 20
2006.45328898212
 30
0.0
 10
828.2298052850117
 20
2006.485724583275
 30
0.0
  0
SPLINE
  5
D6
330
87
100
AcDbEntity
  8
P-SANR-FIXT
100
AcDbSpline
210
0.0
220
0.0
230
1.0
 70
     8
 71
     3
 72
     8
 73
     4
 74
     0
 42
0.000000001
 43
0.0000000001
 40
-0.1428571428571428
 40
-0.1428571428571428
 40
-0.1428571428571428
 40
-0.1428571428571428
 40
0.0
 40
0.0
 40
0.0
 40
0.0
 10
803.1020119889975
 20
2006.485514170215
 30
0.0
 10
802.9569237207796
 20
2006.453102474313
 30
0.0
 10
802.8106137787482
 20
2006.437499999997
 30
0.0
 10
802.6664074431879
 20
2006.437499999997
 30
0.0
  0
SPLINE
  5
D7
330
87
100
AcDbEntity
  8
P-SANR-FIXT
100
AcDbSpline
210
0.0
220
0.0
230
1.0
 70
     8
 71
     3
 72
     8
 73
     4
 74
     0
 42
0.000000001
 43
0.0000000001
 40
-1.0
 40
-1.0
 40
-1.0
 40
-1.0
 40
-0.8571428571428572
 40
-0.8571428571428572
 40
-0.8571428571428572
 40
-0.8571428571428572
 10
802.6664074431876
 20
2006.437499999997
 30
0.0
 10
802.810613778748
 20
2006.437499999997
 30
0.0
 10
802.9572995312854
 20
2006.453226616268
 30
0.0
 10
803.1023489893756
 20
2006.485577004556
 30
0.0
  0
SPLINE
  5
D8
330
87
100
AcDbEntity
  8
P-SANR-FIXT
100
AcDbSpline
210
0.0
220
0.0
230
1.0
 70
     8
 71
     3
 72
     8
 73
     4
 74
     0
 42
0.000000001
 43
0.0000000001
 40
-0.1428571428571428
 40
-0.1428571428571428
 40
-0.1428571428571428
 40
-0.1428571428571428
 40
0.0
 40
0.0
 40
0.0
 40
0.0
 10
828.2301249904701
 20
2006.485665575295
 30
0.0
 10
828.3753583272241
 20
2006.453170777442
 30
0.0
 10
828.5219045151233
 20
2006.437499999997
 30
0.0
 10
828.6664074431877
 20
2006.437499999997
 30
0.0
  0
LINE
  5
D9
330
87
100
AcDbEntity
  8
P-SANR-FIXT
100
AcDbLine
 10
804.6664074431877
 20
2032.529414260633
 30
0.0
 11
804.6664074431875
 21
2008.437500000011
 31
0.0
  0
SPLINE
  5
DA
330
87
100
AcDbEntity
  8
P-SANR-FIXT
100
AcDbSpline
210
0.0
220
0.0
230
1.0
 70
     8
 71
     3
 72
    15
 73
    11
 74
     0
 42
0.000000001
 43
0.0000000001
 40
-1.0
 40
-1.0
 40
-1.0
 40
-1.0
 40
-0.7857142857142857
 40
-0.7321428571428572
 40
-0.6785714285714287
 40
-0.5714285714285714
 40
-0.4285714285714286
 40
-0.2857142857142857
 40
-0.1428571428571428
 40
0.0
 40
0.0
 40
0.0
 40
0.0
 10
804.6664074431875
 20
2008.437499999997
 30
0.0
 10
804.6664074431875
 20
2008.224429950159
 30
0.0
 10
804.6233922972742
 20
2007.952760224944
 30
0.0
 10
804.5036881653185
 20
2007.641428470319
 30
0.0
 10
804.4060165453522
 20
2007.439543272049
 30
0.0
 10
804.2301024143432
 20
2007.169091696024
 30
0.0
 10
803.9325017746969
 20
2006.866282639997
 30
0.0
 10
803.5398404378462
 20
2006.618690487657
 30
0.0
 10
803.1069681913924
 20
2006.469336856519
 30
0.0
 10
802.8120532769939
 20
2006.437499999997
 30
0.0
 10
802.6664074431876
 20
2006.437499999997
 30
0.0
  0
SPLINE
  5
DB
330
87
100
AcDbEntity
  8
P-SANR-FIXT
100
AcDbSpline
210
0.0
220
0.0
230
1.0
 70
     8
 71
     3
 72
    13
 73
     9
 74
     0
 42
0.000000001
 43
0.0000000001
 40
-1.0
 40
-1.0
 40
-1.0
 40
-1.0
 40
-0.7857142857142857
 40
-0.5714285714285714
 40
-0.4285714285714286
 40
-0.2857142857142857
 40
-0.1428571428571428
 40
0.0
 40
0.0
 40
0.0
 40
0.0
 10
828.6664074431877
 20
2006.437499999997
 30
0.0
 10
828.4479386924788
 20
2006.437499999997
 30
0.0
 10
828.001206623346
 20
2006.509720902374
 30
0.0
 10
827.4543365654805
 20
2006.811045173202
 30
0.0
 10
827.0756516907109
 20
2007.196670223267
 30
0.0
 10
826.8383084435832
 20
2007.585734064623
 30
0.0
 10
826.6967894081082
 20
2008.007709284124
 30
0.0
 10
826.6664074431878
 20
2008.295453300105
 30
0.0
 10
826.6664074431878
 20
2008.437499999997
 30
0.0
  0
LINE
  5
DC
330
87
100
AcDbEntity
  8
P-SANR-FIXT
100
AcDbLine
 10
826.6664074431878
 20
2008.437499999983
 30
0.0
 11
826.6664074431876
 21
2032.529414260605
 31
0.0
  0
SPLINE
  5
DD
330
87
100
AcDbEntity
  8
P-SANR-FIXT
100
AcDbSpline
210
0.0
220
0.0
230
1.0
 70
     8
 71
     3
 72
    14
 73
    10
 74
     0
 42
0.000000001
 43
0.0000000001
 40
-1.0
 40
-1.0
 40
-1.0
 40
-1.0
 40
-0.8571428571428571
 40
-0.7142857142857143
 40
-0.5714285714285714
 40
-0.4285714285714286
 40
-0.2857142857142857
 40
-0.1428571428571428
 40
0.0
 40
0.0
 40
0.0
 40
0.0
 10
826.6664074431876
 20
2032.529414260619
 30
0.0
 10
826.6664074431876
 20
2032.851034906547
 30
0.0
 10
826.7444682378085
 20
2033.484869880663
 30
0.0
 10
827.0680131510362
 20
2034.354074999665
 30
0.0
 10
827.5665046250887
 20
2035.10951250868
 30
0.0
 10
828.2071159338583
 20
2035.724770717027
 30
0.0
 10
828.9575175745756
 20
2036.180935525699
 30
0.0
 10
829.7854016501286
 20
2036.463932323755
 30
0.0
 10
830.372046608244
 20
2036.529414260619
 30
0.0
 10
830.6664074431875
 20
2036.529414260619
 30
0.0
  0
LINE
  5
DE
330
87
100
AcDbEntity
  8
P-SANR-FIXT
100
AcDbLine
 10
830.666407443188
 20
2036.529414260619
 30
0.0
 11
834.2267154357235
 21
2036.529414260619
 31
0.0
  0
SPLINE
  5
DF
330
87
100
AcDbEntity
  8
P-SANR-FIXT
100
AcDbSpline
210
0.0
220
0.0
230
1.0
 70
    24
 71
     3
 72
     9
 73
     5
 74
     0
 42
0.000000001
 43
0.0000000001
 40
-1.0
 40
-1.0
 40
-1.0
 40
-1.0
 40
-0.5
 40
0.0
 40
0.0
 40
0.0
 40
0.0
 10
834.2267154357234
 20
2036.529414260619
 30
0.0
 10
835.0352770937387
 20
2036.701279346545
 30
0.0
 10
836.5558829958336
 20
2037.02449410875
 30
0.0
 10
837.8834540700573
 20
2037.306678051659
 30
0.0
 10
838.4989809002012
 20
2037.43751231829
 30
0.0
  0
LINE
  5
E0
330
87
100
AcDbEntity
  8
P-SANR-FIXT
100
AcDbLine
 10
792.8338339861738
 20
2037.437512318291
 30
0.0
 11
838.4989809002012
 21
2037.43751231829
 31
0.0
  0
SPLINE
  5
E1
330
87
100
AcDbEntity
  8
P-SANR-FIXT
100
AcDbSpline
210
0.0
220
0.0
230
1.0
 70
    24
 71
     3
 72
     9
 73
     5
 74
     0
 42
0.000000001
 43
0.0000000001
 40
-1.0
 40
-1.0
 40
-1.0
 40
-1.0
 40
-0.5
 40
0.0
 40
0.0
 40
0.0
 40
0.0
 10
792.8338339861741
 20
2037.437512318291
 30
0.0
 10
793.449360816318
 20
2037.306678051659
 30
0.0
 10
794.7769318905419
 20
2037.02449410875
 30
0.0
 10
796.2975377926369
 20
2036.701279346545
 30
0.0
 10
797.1060994506521
 20
2036.529414260619
 30
0.0
  0
LINE
  5
E2
330
87
100
AcDbEntity
  8
P-SANR-FIXT
100
AcDbLine
 10
797.1060994506523
 20
2036.529414260619
 30
0.0
 11
800.6664074431879
 21
2036.529414260619
 31
0.0
  0
SPLINE
  5
E3
330
87
100
AcDbEntity
  8
P-SANR-FIXT
100
AcDbSpline
210
0.0
220
0.0
230
1.0
 70
     8
 71
     3
 72
    14
 73
    10
 74
     0
 42
0.000000001
 43
0.0000000001
 40
-1.0
 40
-1.0
 40
-1.0
 40
-1.0
 40
-0.8571428571428571
 40
-0.7142857142857144
 40
-0.5714285714285714
 40
-0.4285714285714286
 40
-0.2857142857142857
 40
-0.1428571428571428
 40
0.0
 40
0.0
 40
0.0
 40
0.0
 10
800.6664074431878
 20
2036.529414260619
 30
0.0
 10
800.9612187727197
 20
2036.529414260619
 30
0.0
 10
801.5485252054208
 20
2036.463719190404
 30
0.0
 10
802.3763882948189
 20
2036.180416301004
 30
0.0
 10
803.1265401087472
 20
2035.724102250779
 30
0.0
 10
803.7667662003826
 20
2035.10892116844
 30
0.0
 10
804.2649846719227
 20
2034.353681700362
 30
0.0
 10
804.5884049751197
 20
2033.484571136382
 30
0.0
 10
804.6664074431877
 20
2032.850928906942
 30
0.0
 10
804.6664074431877
 20
2032.529414260619
 30
0.0
  0
LINE
  5
E4
330
87
100
AcDbEntity
  8
P-SANR-FIXT
100
AcDbLine
 10
754.6664074431856
 20
2080.586474744559
 30
0.0
 11
754.6664074431856
 21
2110.286474744685
 31
0.0
  0
LINE
  5
E5
330
87
100
AcDbEntity
  8
P-SANR-FIXT
100
AcDbLine
 10
756.6664074431225
 20
2112.286474744623
 30
0.0
 11
756.6664074431225
 21
2078.586474744622
 31
0.0
  0
LINE
  5
E6
330
87
100
AcDbEntity
  8
P-SANR-FIXT
100
AcDbLine
 10
772.6664074431855
 20
2071.436474744622
 30
0.0
 11
772.6664074431854
 21
2119.436474744622
 31
0.0
  0
LINE
  5
E7
330
87
100
AcDbEntity
  8
P-SANR-FIXT
100
AcDbLine
 10
839.6653821878103
 20
2052.437499999998
 30
0.0
 11
791.6653821878104
 21
2052.437499999998
 31
0.0
  0
ARC
  5
E8
330
87
100
AcDbEntity
  8
P-SANR-FIXT
100
AcDbCircle
 10
772.6664074431855
 20
2052.437499999998
 30
0.0
 40
66.47236393323591
100
AcDbArc
 50
0.9286056564436091
 51
7.848808917108359
  0
ARC
  5
E9
330
87
100
AcDbEntity
  8
P-SANR-FIXT
100
AcDbCircle
 10
772.6664074431855
 20
2052.437499999998
 30
0.0
 40
66.47236393323585
100
AcDbArc
 50
81.78828333212733
 51
88.71184986260029
  0
LINE
  5
EA
330
87
100
AcDbEntity
  8
P-SANR-FIXT
100
AcDbLine
 10
840.7881849085734
 20
2054.51438512548
 30
0.0
 11
840.7896336679748
 21
2060.514384950571
 31
0.0
  0
ARC
  5
EB
330
87
100
AcDbEntity
  8
P-SANR-FIXT
100
AcDbCircle
 10
839.7896336971262
 20
2060.514626410471
 30
0.0
 40
1.00000000000009
100
AcDbArc
 50
359.9861653666575
 51
89.98616536666437
  0
LINE
  5
EC
330
87
100
AcDbEntity
  8
P-SANR-FIXT
100
AcDbLine
 10
839.7898751570263
 20
2061.514626381319
 30
0.0
 11
838.5160495043987
 21
2061.514933959144
 31
0.0
  0
LINE
  5
ED
330
87
100
AcDbEntity
  8
P-SANR-FIXT
100
AcDbLine
 10
839.1300412806867
 20
2053.514785471535
 30
0.0
 11
839.7879434778246
 21
2053.514626614531
 31
0.0
  0
ARC
  5
EE
330
87
100
AcDbEntity
  8
P-SANR-FIXT
100
AcDbCircle
 10
839.7881849377249
 20
2054.51462658538
 30
0.0
 40
1.000000000000154
100
AcDbArc
 50
269.9861653666705
 51
359.9861653666705
  0
ENDBLK
  5
F0
330
87
100
AcDbEntity
  8
0
100
AcDbBlockEnd
  0
BLOCK
  5
186
330
F2
100
AcDbEntity
  8
0
100
AcDbBlockBegin
  2
Automatic flow rate regulator valve_Caleffi_121 DN15 - 1_2__-V1-Est - Idraulica
 70
     0
 10
0.0
 20
0.0
 30
0.0
  3
Automatic flow rate regulator valve_Caleffi_121 DN15 - 1_2__-V1-Est - Idraulica
  1

  0
LWPOLYLINE
  5
F3
330
F2
100
AcDbEntity
  8
P-SANR-FIXT
100
AcDbPolyline
 90
       54
 70
   128
 43
0.0
 10
843.666402674817
 20
1676.747075844259
 10
843.6440056651385
 20
1677.866777010801
 10
843.5768504665409
 20
1678.984686894333
 10
843.4650445130163
 20
1680.099017077516
 10
843.3087666702396
 20
1681.207984869769
 10
843.1082669494216
 20
1682.309816159191
 10
842.8638661073449
 20
1683.402748250764
 10
842.5759551332207
 20
1684.485032686288
 10
842.2449946231898
 20
1685.55493804154
 10
841.8715140434668
 20
1686.610752696187
 10
841.4561108833082
 20
1687.65078757201
 10
840.9994496991554
 20
1688.67337883507
 10
840.5022610514871
 20
1689.676890557486
 10
839.9653403360785
 20
1690.659717334575
 10
839.389546511537
 20
1691.62028685315
 10
838.7758007251527
 20
1692.557062406895
 10
838.1250848392582
 20
1693.468545354756
 10
837.4384398604588
 20
1694.353277518457
 10
836.7169642742446
 20
1695.209843515269
 10
835.9618122876463
 20
1696.036873022321
 10
835.1741919827526
 20
1696.833042968825
 10
834.3553633840345
 20
1697.597079652708
 10
833.5066364425752
 20
1698.32776077826
 10
832.62936894043
 20
1699.023917411553
 10
831.7249643184609
 20
1699.684435850477
 10
830.7948694311342
 20
1700.308259406434
 10
829.84057223186
 20
1700.894390094809
 10
828.8635993925845
 20
1701.441890231535
 10
827.8655138614405
 20
1701.949883933188
 10
826.8479123623651
 20
1702.417558518211
 10
825.8124228406789
 20
1702.844165807032
 10
824.7607018587247
 20
1703.229023318997
 10
823.6944319457187
 20
1703.571515364181
 10
822.6153189060621
 20
1703.871094028377
 10
821.5250890904206
 20
1704.127280049626
 10
820.4254866339287
 20
1704.339663584945
 10
819.3182706659477
 20
1704.507904865985
 10
818.2052124958332
 20
1704.631734742583
 10
817.0880927792172
 20
1704.710955113354
 10
815.9686986693401
 20
1704.745439242605
 10
814.8488209579866
 20
1704.735131963083
 10
813.7302512106002
 20
1704.680049764238
 10
812.6147789001615
 20
1704.580280765838
 10
811.5041885444121
 20
1704.435984576997
 10
810.4002568510081
 20
1704.247392040836
 10
809.304749875166
 20
1704.014804865181
 10
808.2194201943517
 20
1703.738595139898
 10
807.1460041045295
 20
1703.419204741626
 10
806.0862188424598
 20
1703.057144626869
 10
805.0417598384871
 20
1702.652994014575
 10
804.0142980042112
 20
1702.20739945951
 10
803.0054770593869
 20
1701.721073817906
 10
802.0169109023223
 20
1701.194795107047
 10
801.2470031031064
 20
1700.7445162195
  0
LWPOLYLINE
  5
F4
330
F2
100
AcDbEntity
  8
P-SANR-FIXT
100
AcDbPolyline
 90
       55
 70
   128
 43
0.0
 10
801.2244211500737
 20
1652.764257940215
 10
801.4922426545171
 20
1652.599761593709
 10
802.4692154937925
 20
1652.052261456983
 10
803.4673010249363
 20
1651.54426775533
 10
804.4849025240122
 20
1651.076593170307
 10
805.5203920456982
 20
1650.649985881485
 10
806.5721130276521
 20
1650.265128369521
 10
807.6383829406585
 20
1649.922636324336
 10
808.7174959803149
 20
1649.623057660141
 10
809.8077257959566
 20
1649.366871638892
 10
810.9073282524482
 20
1649.154488103572
 10
812.0145442204291
 20
1648.986246822533
 10
813.1276023905439
 20
1648.862416945935
 10
814.24472210716
 20
1648.783196575164
 10
815.3641162170369
 20
1648.748712445913
 10
816.4839939283904
 20
1648.759019725435
 10
817.6025636757769
 20
1648.81410192428
 10
818.7180359862157
 20
1648.91387092268
 10
819.828626341965
 20
1649.058167111521
 10
820.932558035369
 20
1649.246759647682
 10
822.028065011211
 20
1649.479346823337
 10
823.1133946920255
 20
1649.755556548619
 10
824.1868107818474
 20
1650.074946946891
 10
825.246596043917
 20
1650.437007061649
 10
826.2910550478901
 20
1650.841157673943
 10
827.3185168821658
 20
1651.286752229008
 10
828.3273378269901
 20
1651.773077870611
 10
829.3159039840549
 20
1652.299356581471
 10
830.2826338583914
 20
1652.864746427916
 10
831.2259808884258
 20
1653.468342906801
 10
832.1444359201464
 20
1654.109180392522
 10
833.0365296214289
 20
1654.786233681805
 10
833.9008348326549
 20
1655.498419633818
 10
834.7359688498611
 20
1656.244598902963
 10
835.5405956367732
 20
1657.023577761586
 10
836.3134279621762
 20
1657.834110009687
 10
837.0532294592115
 20
1658.67489896857
 10
837.7588166033
 20
1659.544599555264
 10
838.4290606055282
 20
1660.441820434354
 10
839.0628892184702
 20
1661.36512624383
 10
839.6592884515552
 20
1662.31303989136
 10
840.2173041932352
 20
1663.284044917318
 10
840.7360437373602
 20
1664.276587920798
 10
841.2146772113183
 20
1665.289081044728
 10
841.6524389036544
 20
1666.319904516094
 10
842.0486284890447
 20
1667.367409237242
 10
842.4026121486688
 20
1668.429919424071
 10
842.7138235841834
 20
1669.505735286941
 10
842.9817649236802
 20
1670.593135749966
 10
843.2060075181739
 20
1671.690381204371
 10
843.386192627349
 20
1672.795716291495
 10
843.522031993468
 20
1673.907372710993
 10
843.6133083025231
 20
1675.023572049732
 10
843.6598755318906
 20
1676.142528626882
 10
843.666402674817
 20
1676.747075844259
  0
LINE
  5
F5
330
F2
100
AcDbEntity
  8
P-SANR-FIXT
100
AcDbLine
 10
772.6664074431862
 20
1693.59707584426
 30
0.0
 11
756.6664074431233
 21
1693.59707584426
 31
0.0
  0
LINE
  5
F6
330
F2
100
AcDbEntity
  8
P-SANR-FIXT
100
AcDbLine
 10
756.666407443123
 20
1659.897075844259
 30
0.0
 11
772.6664074431859
 21
1659.897075844259
 31
0.0
  0
LINE
  5
F7
330
F2
100
AcDbEntity
  8
P-SANR-FIXT
100
AcDbLine
 10
756.6664074431233
 20
1693.59707584426
 30
0.0
 11
754.6664074431864
 21
1691.597075844323
 31
0.0
  0
LINE
  5
F8
330
F2
100
AcDbEntity
  8
P-SANR-FIXT
100
AcDbLine
 10
754.6664074431862
 20
1661.897075844196
 30
0.0
 11
756.666407443123
 21
1659.897075844259
 31
0.0
  0
LWPOLYLINE
  5
F9
330
F2
100
AcDbEntity
  8
P-SANR-FIXT
100
AcDbPolyline
 90
       41
 70
   128
 43
0.0
 10
772.6664074431861
 20
1652.747075844259
 10
774.3859078139315
 20
1652.747075844259
 10
776.1026573508909
 20
1652.747075844259
 10
777.8139096210254
 20
1652.747075844259
 10
779.5169269857508
 20
1652.747075844259
 10
781.2089849805744
 20
1652.747075844259
 10
782.8873766736574
 20
1652.747075844259
 10
784.5494169963288
 20
1652.747075844259
 10
786.1924470386219
 20
1652.747075844259
 10
787.8138383029637
 20
1652.747075844259
 10
789.4109969092093
 20
1652.747075844259
 10
790.981367744298
 20
1652.747075844259
 10
792.5224385498879
 20
1652.747075844259
 10
794.0317439414346
 20
1652.747075844259
 10
795.5068693522795
 20
1652.747075844259
 10
796.9454548964417
 20
1652.747075844259
 10
798.3451991439327
 20
1652.747075844259
 10
799.7038628025525
 20
1652.747075844259
 10
801.0192723002802
 20
1652.747075844259
 10
802.2893232625252
 20
1652.747075844259
 10
803.5119838786775
 20
1652.747075844259
 10
804.6852981525717
 20
1652.747075844259
 10
805.8073890316634
 20
1652.747075844259
 10
806.8764614099123
 20
1652.747075844259
 10
807.8908049995705
 20
1652.747075844259
 10
808.8487970672755
 20
1652.747075844259
 10
809.7489050300803
 20
1652.747075844259
 10
810.5896889072566
 20
1652.747075844259
 10
811.3698036239593
 20
1652.747075844259
 10
812.0880011630569
 20
1652.747075844259
 10
812.7431325616942
 20
1652.747075844259
 10
813.3341497493873
 20
1652.747075844259
 10
813.8601072247126
 20
1652.747075844259
 10
814.3201635679082
 20
1652.747075844259
 10
814.713582786965
 20
1652.747075844259
 10
815.0397354950573
 20
1652.747075844259
 10
815.298099917428
 20
1652.747075844259
 10
815.4882627261157
 20
1652.747075844259
 10
815.6099197011929
 20
1652.747075844259
 10
815.6628762174515
 20
1652.747075844259
 10
815.665382187811
 20
1652.747075844259
  0
LWPOLYLINE
  5
FA
330
F2
100
AcDbEntity
  8
P-SANR-FIXT
100
AcDbPolyline
 90
       41
 70
   128
 43
0.0
 10
815.6653821878114
 20
1700.747075844259
 10
815.6309875943282
 20
1700.747075844259
 10
815.5278588378916
 20
1700.747075844259
 10
815.3561609025125
 20
1700.747075844259
 10
815.1161684682595
 20
1700.747075844259
 10
814.8082654718328
 20
1700.747075844259
 10
814.4329444923439
 20
1700.747075844259
 10
813.9908059632956
 20
1700.747075844259
 10
813.4825572120167
 20
1700.747075844259
 10
812.9090113280884
 20
1700.747075844259
 10
812.2710858625755
 20
1700.747075844259
 10
811.569801360139
 20
1700.747075844259
 10
810.8062797263832
 20
1700.747075844259
 10
809.9817424330465
 20
1700.747075844259
 10
809.0975085639065
 20
1700.747075844259
 10
808.1549927045269
 20
1700.747075844259
 10
807.1557026792238
 20
1700.747075844259
 10
806.1012371388668
 20
1700.747075844259
 10
804.9932830033798
 20
1700.747075844259
 10
803.8336127630289
 20
1700.747075844259
 10
802.6240816428156
 20
1700.747075844259
 10
801.3666246345124
 20
1700.747075844259
 10
800.0632534010899
 20
1700.747075844259
 10
798.7160530584831
 20
1700.747075844259
 10
797.3271788398533
 20
1700.747075844259
 10
795.8988526476728
 20
1700.747075844259
 10
794.4333594991558
 20
1700.747075844259
 10
792.9330438707181
 20
1700.747075844259
 10
791.4003059473149
 20
1700.747075844259
 10
789.8375977826569
 20
1700.747075844259
 10
788.2474193764476
 20
1700.747075844259
 10
786.6323146749169
 20
1700.747075844259
 10
784.9948675010503
 20
1700.747075844259
 10
783.3376974210224
 20
1700.747075844259
 10
781.6634555534504
 20
1700.747075844259
 10
779.9748203281697
 20
1700.747075844259
 10
778.2744932013179
 20
1700.747075844259
 10
776.5651943335812
 20
1700.747075844259
 10
774.8496582385163
 20
1700.747075844259
 10
773.1306294079145
 20
1700.747075844259
 10
772.6664074431862
 20
1700.747075844259
  0
LINE
  5
FB
330
F2
100
AcDbEntity
  8
P-SANR-FIXT
100
AcDbLine
 10
774.1607438878006
 20
1681.747075844259
 30
0.0
 11
774.1607438878006
 21
1671.74707584426
 31
0.0
  0
LINE
  5
FC
330
F2
100
AcDbEntity
  8
P-SANR-FIXT
100
AcDbLine
 10
782.1607438878005
 20
1671.747075844259
 30
0.0
 11
782.1607438878007
 21
1681.747075844259
 31
0.0
  0
LINE
  5
FD
330
F2
100
AcDbEntity
  8
P-SANR-FIXT
100
AcDbLine
 10
840.7896336971269
 20
1671.747075844259
 30
0.0
 11
840.7896336971269
 21
1681.747075844259
 31
0.0
  0
SPLINE
  5
FE
330
F2
100
AcDbEntity
  8
P-SANR-FIXT
100
AcDbSpline
210
0.0
220
0.0
230
1.0
 70
    24
 71
     3
 72
     8
 73
     4
 74
     0
 42
0.000000001
 43
0.0000000001
 40
-1.0
 40
-1.0
 40
-1.0
 40
-1.0
 40
-0.6683424801053903
 40
-0.6683424801053903
 40
-0.6683424801053903
 40
-0.6683424801053903
 10
812.6516888174263
 20
1701.564639616867
 30
0.0
 10
812.1602241956393
 20
1701.28089238518
 30
0.0
 10
811.6737487730031
 20
1701.000025668967
 30
0.0
 10
811.192262549517
 20
1700.722039468227
 30
0.0
  0
SPLINE
  5
FF
330
F2
100
AcDbEntity
  8
P-SANR-FIXT
100
AcDbSpline
210
0.0
220
0.0
230
1.0
 70
    24
 71
     3
 72
     9
 73
     5
 74
     0
 42
0.000000001
 43
0.0000000001
 40
-0.5996564821322576
 40
-0.5996564821322576
 40
-0.5996564821322576
 40
-0.5996564821322576
 40
-0.5
 40
0.0
 40
0.0
 40
0.0
 40
0.0
 10
821.2914335192641
 20
1700.05757790776
 30
0.0
 10
821.1489985538841
 20
1700.139812773364
 30
0.0
 10
820.2897671364748
 20
1700.635890263501
 30
0.0
 10
819.4174979086415
 20
1701.139495136996
 30
0.0
 10
818.6811260689493
 20
1701.564639616867
 30
0.0
  0
SPLINE
  5
100
330
F2
100
AcDbEntity
  8
P-SANR-FIXT
100
AcDbSpline
210
0.0
220
0.0
230
1.0
 70
    24
 71
     3
 72
     9
 73
     5
 74
     0
 42
0.000000001
 43
0.0000000001
 40
-1.0
 40
-1.0
 40
-1.0
 40
-1.0
 40
-0.5
 40
-0.4012693504307224
 40
-0.4012693504307224
 40
-0.4012693504307224
 40
-0.4012693504307224
 10
835.6516888174262
 20
1691.766680645734
 30
0.0
 10
834.9107669442492
 20
1692.194452088661
 30
0.0
 10
834.0371202017131
 20
1692.698852270641
 30
0.0
 10
833.1797332188948
 20
1693.19386487597
 30
0.0
 10
833.0387922901357
 20
1693.27523715913
 30
0.0
  0
SPLINE
  5
101
330
F2
100
AcDbEntity
  8
P-SANR-FIXT
100
AcDbSpline
210
0.0
220
0.0
230
1.0
 70
    24
 71
     3
 72
     9
 73
     5
 74
     0
 42
0.000000001
 43
0.0000000001
 40
-0.6069826630230985
 40
-0.6069826630230985
 40
-0.6069826630230985
 40
-0.6069826630230985
 40
-0.5
 40
0.0
 40
0.0
 40
0.0
 40
0.0
 10
838.6664074431875
 20
1683.535291746239
 30
0.0
 10
838.6664074431875
 20
1683.71308680793
 30
0.0
 10
838.6664074431875
 20
1684.72086514988
 30
0.0
 10
838.6664074431875
 20
1685.723143437115
 30
0.0
 10
838.6664074431875
 20
1686.545034815391
 30
0.0
  0
SPLINE
  5
102
330
F2
100
AcDbEntity
  8
P-SANR-FIXT
100
AcDbSpline
210
0.0
220
0.0
230
1.0
 70
    24
 71
     3
 72
     9
 73
     5
 74
     0
 42
0.000000001
 43
0.0000000001
 40
-1.0
 40
-1.0
 40
-1.0
 40
-1.0
 40
-0.5
 40
-0.4016319371375106
 40
-0.4016319371375106
 40
-0.4016319371375106
 40
-0.4016319371375106
 10
818.6811260689484
 20
1651.92951207165
 30
0.0
 10
819.4220479421254
 20
1652.357283514577
 30
0.0
 10
820.2951656108693
 20
1652.861378235661
 30
0.0
 10
821.1520432075047
 20
1653.35609674674
 30
0.0
 10
821.2924697685348
 20
1653.437172059552
 30
0.0
  0
SPLINE
  5
103
330
F2
100
AcDbEntity
  8
P-SANR-FIXT
100
AcDbSpline
210
0.0
220
0.0
230
1.0
 70
    24
 71
     3
 72
     8
 73
     4
 74
     0
 42
0.000000001
 43
0.0000000001
 40
-0.3283716837355248
 40
-0.3283716837355248
 40
-0.3283716837355248
 40
-0.3283716837355248
 40
0.0
 40
0.0
 40
0.0
 40
0.0
 10
811.2125956163819
 20
1652.760372918661
 30
0.0
 10
811.688383762034
 20
1652.485676504692
 30
0.0
 10
812.1680814957151
 20
1652.208722889021
 30
0.0
 10
812.6516888174256
 20
1651.92951207165
 30
0.0
  0
SPLINE
  5
104
330
F2
100
AcDbEntity
  8
P-SANR-FIXT
100
AcDbSpline
210
0.0
220
0.0
230
1.0
 70
    24
 71
     3
 72
     9
 73
     5
 74
     0
 42
0.000000001
 43
0.0000000001
 40
-1.0
 40
-1.0
 40
-1.0
 40
-1.0
 40
-0.5
 40
-0.3930173369768338
 40
-0.3930173369768338
 40
-0.3930173369768338
 40
-0.3930173369768338
 10
838.6664074431873
 20
1666.949116873125
 30
0.0
 10
838.6664074431873
 20
1667.771008251401
 30
0.0
 10
838.6664074431873
 20
1668.773286538636
 30
0.0
 10
838.6664074431873
 20
1669.781064880586
 30
0.0
 10
838.6664074431873
 20
1669.958859942278
 30
0.0
  0
SPLINE
  5
105
330
F2
100
AcDbEntity
  8
P-SANR-FIXT
100
AcDbSpline
210
0.0
220
0.0
230
1.0
 70
    24
 71
     3
 72
     9
 73
     5
 74
     0
 42
0.000000001
 43
0.0000000001
 40
-0.6000179056753208
 40
-0.6000179056753208
 40
-0.6000179056753208
 40
-0.6000179056753208
 40
-0.5
 40
0.0
 40
0.0
 40
0.0
 40
0.0
 10
833.0398316773138
 20
1660.219514619854
 30
0.0
 10
833.1827805893528
 20
1660.3020462127
 30
0.0
 10
834.0425220178445
 20
1660.798418157873
 30
0.0
 10
834.9153169777334
 20
1661.302326562912
 30
0.0
 10
835.6516888174256
 20
1661.727471042782
 30
0.0
  0
LINE
  5
106
330
F2
100
AcDbEntity
  8
P-SANR-FIXT
100
AcDbLine
 10
781.1607438877996
 20
1671.747075844259
 30
0.0
 11
775.1607438877996
 21
1671.747075844259
 31
0.0
  0
LINE
  5
107
330
F2
100
AcDbEntity
  8
P-SANR-FIXT
100
AcDbLine
 10
775.1607438877996
 20
1671.747075844259
 30
0.0
 11
774.1607438877995
 21
1671.747075844259
 31
0.0
  0
LINE
  5
108
330
F2
100
AcDbEntity
  8
P-SANR-FIXT
100
AcDbLine
 10
782.1607438877996
 20
1671.747075844259
 30
0.0
 11
781.1607438877996
 21
1671.747075844259
 31
0.0
  0
ARC
  5
109
330
F2
100
AcDbEntity
  8
P-SANR-FIXT
100
AcDbCircle
 10
815.6664074431873
 20
1676.747075844258
 30
0.0
 40
24.99999999999994
100
AcDbArc
 50
83.07391806562954
 51
96.92608193436761
  0
ARC
  5
10A
330
F2
100
AcDbEntity
  8
P-SANR-FIXT
100
AcDbCircle
 10
815.6664074431873
 20
1676.747075844258
 30
0.0
 40
25.0
100
AcDbArc
 50
23.07391806563004
 51
36.92608193436785
  0
ARC
  5
10B
330
F2
100
AcDbEntity
  8
P-SANR-FIXT
100
AcDbCircle
 10
815.6664074431873
 20
1676.747075844258
 30
0.0
 40
25.00000000000004
100
AcDbArc
 50
263.0739180656295
 51
276.9260819343677
  0
ARC
  5
10C
330
F2
100
AcDbEntity
  8
P-SANR-FIXT
100
AcDbCircle
 10
815.6664074431873
 20
1676.747075844258
 30
0.0
 40
25.0
100
AcDbArc
 50
323.0739180656298
 51
336.9260819343676
  0
ARC
  5
10D
330
F2
100
AcDbEntity
  8
P-SANR-FIXT
100
AcDbCircle
 10
815.6664074431873
 20
1676.747075844258
 30
0.0
 40
24.99999999999984
100
AcDbArc
 50
96.92608193436761
 51
106.1548192195937
  0
ARC
  5
10E
330
F2
100
AcDbEntity
  8
P-SANR-FIXT
100
AcDbCircle
 10
815.6664074431873
 20
1676.747075844258
 30
0.0
 40
24.99999999999983
100
AcDbArc
 50
36.9260819343682
 51
83.07391806562952
  0
ARC
  5
10F
330
F2
100
AcDbEntity
  8
P-SANR-FIXT
100
AcDbCircle
 10
815.6664074431873
 20
1676.747075844258
 30
0.0
 40
24.99999999999964
100
AcDbArc
 50
11.53695903281608
 51
23.0739180656304
  0
ARC
  5
110
330
F2
100
AcDbEntity
  8
P-SANR-FIXT
100
AcDbCircle
 10
815.6664074431873
 20
1676.747075844258
 30
0.0
 40
24.9999999999998
100
AcDbArc
 50
336.926081934369
 51
348.4630409671845
  0
ARC
  5
111
330
F2
100
AcDbEntity
  8
P-SANR-FIXT
100
AcDbCircle
 10
815.6664074431873
 20
1676.747075844258
 30
0.0
 40
24.99999999999973
100
AcDbArc
 50
276.9260819343684
 51
323.0739180656306
  0
ARC
  5
112
330
F2
100
AcDbEntity
  8
P-SANR-FIXT
100
AcDbCircle
 10
815.6664074431873
 20
1676.747075844258
 30
0.0
 40
24.99999999999977
100
AcDbArc
 50
253.8204491285461
 51
263.0739180656302
  0
ARC
  5
113
330
F2
100
AcDbEntity
  8
P-SANR-FIXT
100
AcDbCircle
 10
815.6664074431873
 20
1676.747075844258
 30
0.0
 40
39.99999999999992
100
AcDbArc
 50
4.736247486547902
 51
4.999999999999489
  0
ARC
  5
114
330
F2
100
AcDbEntity
  8
P-SANR-FIXT
100
AcDbCircle
 10
815.6664074431873
 20
1676.747075844258
 30
0.0
 40
39.99999999999982
100
AcDbArc
 50
9.474209605905196
 51
9.999999999999538
  0
ARC
  5
115
330
F2
100
AcDbEntity
  8
P-SANR-FIXT
100
AcDbCircle
 10
815.6664074431873
 20
1676.747075844258
 30
0.0
 40
39.99999999999986
100
AcDbArc
 50
14.21362978508348
 51
14.99999999999954
  0
ARC
  5
116
330
F2
100
AcDbEntity
  8
P-SANR-FIXT
100
AcDbCircle
 10
815.6664074431873
 20
1676.747075844258
 30
0.0
 40
39.99999999999982
100
AcDbArc
 50
18.9542913749621
 51
19.99999999999968
  0
ARC
  5
117
330
F2
100
AcDbEntity
  8
P-SANR-FIXT
100
AcDbCircle
 10
815.6664074431873
 20
1676.747075844258
 30
0.0
 40
40.00000000000001
100
AcDbArc
 50
23.69600929556025
 51
66.28112509834048
  0
ARC
  5
118
330
F2
100
AcDbEntity
  8
P-SANR-FIXT
100
AcDbCircle
 10
815.6664074431873
 20
1676.747075844258
 30
0.0
 40
39.99999999999976
100
AcDbArc
 50
69.99999999999947
 51
71.02283165061146
  0
ARC
  5
119
330
F2
100
AcDbEntity
  8
P-SANR-FIXT
100
AcDbCircle
 10
815.6664074431873
 20
1676.747075844258
 30
0.0
 40
39.99999999999987
100
AcDbArc
 50
74.99999999999957
 51
75.76919107130921
  0
ARC
  5
11A
330
F2
100
AcDbEntity
  8
P-SANR-FIXT
100
AcDbCircle
 10
815.6664074431873
 20
1676.747075844258
 30
0.0
 40
39.99999999999983
100
AcDbArc
 50
79.9999999999996
 51
80.51431516195771
  0
ARC
  5
11B
330
F2
100
AcDbEntity
  8
P-SANR-FIXT
100
AcDbCircle
 10
815.6664074431873
 20
1676.747075844258
 30
0.0
 40
39.99999999999987
100
AcDbArc
 50
84.99999999999953
 51
85.25799950683541
  0
ARC
  5
11C
330
F2
100
AcDbEntity
  8
P-SANR-FIXT
100
AcDbCircle
 10
815.6664074431873
 20
1676.747075844258
 30
0.0
 40
39.99999999999989
100
AcDbArc
 50
94.74200049316314
 51
94.99999999999948
  0
ARC
  5
11D
330
F2
100
AcDbEntity
  8
P-SANR-FIXT
100
AcDbCircle
 10
815.6664074431873
 20
1676.747075844258
 30
0.0
 40
39.99999999999987
100
AcDbArc
 50
99.48568483804068
 51
99.99999999999959
  0
ARC
  5
11E
330
F2
100
AcDbEntity
  8
P-SANR-FIXT
100
AcDbCircle
 10
815.6664074431873
 20
1676.747075844258
 30
0.0
 40
39.99999999999992
100
AcDbArc
 50
104.2308089286893
 51
104.9999999999995
  0
ARC
  5
11F
330
F2
100
AcDbEntity
  8
P-SANR-FIXT
100
AcDbCircle
 10
815.6664074431873
 20
1676.747075844258
 30
0.0
 40
39.99999999999987
100
AcDbArc
 50
108.977168349387
 51
109.9999999999994
  0
ARC
  5
120
330
F2
100
AcDbEntity
  8
P-SANR-FIXT
100
AcDbCircle
 10
815.6664074431873
 20
1676.747075844258
 30
0.0
 40
39.99999999999994
100
AcDbArc
 50
113.7188749016575
 51
143.0911535521867
  0
ARC
  5
121
330
F2
100
AcDbEntity
  8
P-SANR-FIXT
100
AcDbCircle
 10
815.6664074431873
 20
1676.747075844258
 30
0.0
 40
39.99999999999987
100
AcDbArc
 50
216.9084871012867
 51
246.2811250983416
  0
ARC
  5
122
330
F2
100
AcDbEntity
  8
P-SANR-FIXT
100
AcDbCircle
 10
815.6664074431873
 20
1676.747075844258
 30
0.0
 40
39.99999999999968
100
AcDbArc
 50
249.9999999999994
 51
251.0228316506116
  0
ARC
  5
123
330
F2
100
AcDbEntity
  8
P-SANR-FIXT
100
AcDbCircle
 10
815.6664074431873
 20
1676.747075844258
 30
0.0
 40
39.99999999999981
100
AcDbArc
 50
254.9999999999995
 51
255.7691910713094
  0
ARC
  5
124
330
F2
100
AcDbEntity
  8
P-SANR-FIXT
100
AcDbCircle
 10
815.6664074431873
 20
1676.747075844258
 30
0.0
 40
39.99999999999981
100
AcDbArc
 50
259.9999999999994
 51
260.5143151619579
  0
ARC
  5
125
330
F2
100
AcDbEntity
  8
P-SANR-FIXT
100
AcDbCircle
 10
815.6664074431873
 20
1676.747075844258
 30
0.0
 40
39.99999999999987
100
AcDbArc
 50
264.9999999999993
 51
265.257999506836
  0
ARC
  5
126
330
F2
100
AcDbEntity
  8
P-SANR-FIXT
100
AcDbCircle
 10
815.6664074431873
 20
1676.747075844258
 30
0.0
 40
39.99999999999995
100
AcDbArc
 50
274.7420004931636
 51
274.9999999999992
  0
ARC
  5
127
330
F2
100
AcDbEntity
  8
P-SANR-FIXT
100
AcDbCircle
 10
815.6664074431873
 20
1676.747075844258
 30
0.0
 40
39.99999999999985
100
AcDbArc
 50
279.4856848380411
 51
279.9999999999994
  0
ARC
  5
128
330
F2
100
AcDbEntity
  8
P-SANR-FIXT
100
AcDbCircle
 10
815.6664074431873
 20
1676.747075844258
 30
0.0
 40
39.99999999999984
100
AcDbArc
 50
284.2308089286898
 51
284.9999999999995
  0
ARC
  5
129
330
F2
100
AcDbEntity
  8
P-SANR-FIXT
100
AcDbCircle
 10
815.6664074431873
 20
1676.747075844258
 30
0.0
 40
39.99999999999984
100
AcDbArc
 50
288.977168349387
 51
289.9999999999995
  0
ARC
  5
12A
330
F2
100
AcDbEntity
  8
P-SANR-FIXT
100
AcDbCircle
 10
815.6664074431873
 20
1676.747075844258
 30
0.0
 40
40.0
100
AcDbArc
 50
293.7188749016586
 51
336.3039907044389
  0
ARC
  5
12B
330
F2
100
AcDbEntity
  8
P-SANR-FIXT
100
AcDbCircle
 10
815.6664074431873
 20
1676.747075844258
 30
0.0
 40
39.99999999999976
100
AcDbArc
 50
339.9999999999995
 51
341.0457086250369
  0
ARC
  5
12C
330
F2
100
AcDbEntity
  8
P-SANR-FIXT
100
AcDbCircle
 10
815.6664074431873
 20
1676.747075844258
 30
0.0
 40
39.99999999999987
100
AcDbArc
 50
344.9999999999991
 51
345.7863702149152
  0
ARC
  5
12D
330
F2
100
AcDbEntity
  8
P-SANR-FIXT
100
AcDbCircle
 10
815.6664074431873
 20
1676.747075844258
 30
0.0
 40
39.99999999999983
100
AcDbArc
 50
349.9999999999991
 51
350.5257903940938
  0
ARC
  5
12E
330
F2
100
AcDbEntity
  8
P-SANR-FIXT
100
AcDbCircle
 10
815.6664074431873
 20
1676.747075844258
 30
0.0
 40
39.99999999999987
100
AcDbArc
 50
354.9999999999992
 51
355.2637525134511
  0
ARC
  5
12F
330
F2
100
AcDbEntity
  8
P-SANR-FIXT
100
AcDbCircle
 10
815.6664074431873
 20
1676.747075844258
 30
0.0
 40
39.99999999999957
100
AcDbArc
 50
108.9655749888486
 51
143.1063767259844
  0
ARC
  5
130
330
F2
100
AcDbEntity
  8
P-SANR-FIXT
100
AcDbCircle
 10
815.6664074431873
 20
1676.747075844258
 30
0.0
 40
39.99999999999963
100
AcDbArc
 50
72.33025401333306
 51
107.669745986666
  0
ARC
  5
131
330
F2
100
AcDbEntity
  8
P-SANR-FIXT
100
AcDbCircle
 10
815.6664074431873
 20
1676.747075844258
 30
0.0
 40
39.99999999999984
100
AcDbArc
 50
359.9999999999993
 51
71.03442501115051
  0
ARC
  5
132
330
F2
100
AcDbEntity
  8
P-SANR-FIXT
100
AcDbCircle
 10
815.6664074431873
 20
1676.747075844258
 30
0.0
 40
39.99999999999942
100
AcDbArc
 50
288.9655749888492
 51
359.9999999999996
  0
ARC
  5
133
330
F2
100
AcDbEntity
  8
P-SANR-FIXT
100
AcDbCircle
 10
815.6664074431873
 20
1676.747075844258
 30
0.0
 40
39.99999999999955
100
AcDbArc
 50
252.3302540133333
 51
287.6697459866664
  0
ARC
  5
134
330
F2
100
AcDbEntity
  8
P-SANR-FIXT
100
AcDbCircle
 10
815.6664074431873
 20
1676.747075844258
 30
0.0
 40
39.99999999999957
100
AcDbArc
 50
216.89327544262
 51
251.0344250111517
  0
ARC
  5
135
330
F2
100
AcDbEntity
  8
P-SANR-FIXT
100
AcDbCircle
 10
815.6664074431873
 20
1676.747075844258
 30
0.0
 40
37.31923062280753
100
AcDbArc
 50
359.9999999999991
 51
69.6138253037898
  0
SPLINE
  5
136
330
F2
100
AcDbEntity
  8
P-SANR-FIXT
100
AcDbSpline
210
0.0
220
0.0
230
1.0
 70
     8
 71
     3
 72
    13
 73
     9
 74
     0
 42
0.000000001
 43
0.0000000001
 40
-1.0
 40
-1.0
 40
-1.0
 40
-1.0
 40
-0.7857142857142857
 40
-0.5714285714285714
 40
-0.4285714285714286
 40
-0.2857142857142857
 40
-0.1428571428571428
 40
0.0
 40
0.0
 40
0.0
 40
0.0
 10
828.6664074431875
 20
1711.728856448999
 30
0.0
 10
828.4496530510907
 20
1711.81096881224
 30
0.0
 10
828.0053502084514
 20
1711.93942166661
 30
0.0
 10
827.4580102320728
 20
1712.004241974049
 30
0.0
 10
827.0775360189887
 20
1711.971403699198
 30
0.0
 10
826.8389144845352
 20
1711.88942253234
 30
0.0
 10
826.696813891521
 20
1711.761828641246
 30
0.0
 10
826.6664074431876
 20
1711.656139489707
 30
0.0
 10
826.6664074431876
 20
1711.597323114123
 30
0.0
  0
SPLINE
  5
137
330
F2
100
AcDbEntity
  8
P-SANR-FIXT
100
AcDbSpline
210
0.0
220
0.0
230
1.0
 70
     8
 71
     3
 72
    15
 73
    11
 74
     0
 42
0.000000001
 43
0.0000000001
 40
-1.0
 40
-1.0
 40
-1.0
 40
-1.0
 40
-0.7857142857142857
 40
-0.7321428571428572
 40
-0.6785714285714287
 40
-0.5714285714285714
 40
-0.4285714285714286
 40
-0.2857142857142857
 40
-0.1428571428571428
 40
0.0
 40
0.0
 40
0.0
 40
0.0
 10
804.6664074431875
 20
1711.597323114123
 30
0.0
 10
804.6664074431875
 20
1711.685712289591
 30
0.0
 10
804.6231683947116
 20
1711.780473238108
 30
0.0
 10
804.5027157180513
 20
1711.869960660267
 30
0.0
 10
804.4044238889636
 20
1711.920108818731
 30
0.0
 10
804.2273634230888
 20
1711.974182049781
 30
0.0
 10
803.9281886378434
 20
1711.999197381962
 30
0.0
 10
803.5348334460222
 20
1711.967164476708
 30
0.0
 10
803.1032336628108
 20
1711.875752933399
 30
0.0
 10
802.8106137787476
 20
1711.783500227807
 30
0.0
 10
802.6664074431874
 20
1711.728856449
 30
0.0
  0
ARC
  5
138
330
F2
100
AcDbEntity
  8
P-SANR-FIXT
100
AcDbCircle
 10
815.6664074431873
 20
1676.747075844258
 30
0.0
 40
37.31923062280699
100
AcDbArc
 50
110.3861746962084
 51
139.9860865441486
  0
ARC
  5
139
330
F2
100
AcDbEntity
  8
P-SANR-FIXT
100
AcDbCircle
 10
815.6664074431873
 20
1676.747075844258
 30
0.0
 40
37.31923062280718
100
AcDbArc
 50
220.0582176008115
 51
249.6138253037909
  0
SPLINE
  5
13A
330
F2
100
AcDbEntity
  8
P-SANR-FIXT
100
AcDbSpline
210
0.0
220
0.0
230
1.0
 70
     8
 71
     3
 72
    13
 73
     9
 74
     0
 42
0.000000001
 43
0.0000000001
 40
-1.0
 40
-1.0
 40
-1.0
 40
-1.0
 40
-0.7857142857142857
 40
-0.5714285714285714
 40
-0.4285714285714286
 40
-0.2857142857142857
 40
-0.1428571428571428
 40
0.0
 40
0.0
 40
0.0
 40
0.0
 10
802.6664074431872
 20
1641.765295239516
 30
0.0
 10
802.8827169465277
 20
1641.683329571305
 30
0.0
 10
803.3264933296056
 20
1641.554969246329
 30
0.0
 10
803.8738653717979
 20
1641.489938274673
 30
0.0
 10
804.2545747106249
 20
1641.522604919844
 30
0.0
 10
804.493495777795
 20
1641.604494199518
 30
0.0
 10
804.6358696906773
 20
1641.732058792555
 30
0.0
 10
804.6664074431872
 20
1641.837902457415
 30
0.0
 10
804.6664074431872
 20
1641.896828574393
 30
0.0
  0
SPLINE
  5
13B
330
F2
100
AcDbEntity
  8
P-SANR-FIXT
100
AcDbSpline
210
0.0
220
0.0
230
1.0
 70
     8
 71
     3
 72
    15
 73
    11
 74
     0
 42
0.000000001
 43
0.0000000001
 40
-1.0
 40
-1.0
 40
-1.0
 40
-1.0
 40
-0.7857142857142857
 40
-0.7321428571428572
 40
-0.6785714285714287
 40
-0.5714285714285714
 40
-0.4285714285714286
 40
-0.2857142857142857
 40
-0.1428571428571428
 40
0.0
 40
0.0
 40
0.0
 40
0.0
 10
826.6664074431874
 20
1641.896828574393
 30
0.0
 10
826.6664074431874
 20
1641.808604011016
 30
0.0
 10
826.7094716977087
 20
1641.713942632796
 30
0.0
 10
826.8297276917646
 20
1641.624421268205
 30
0.0
 10
826.9278719652115
 20
1641.574248999586
 30
0.0
 10
827.1047330118896
 20
1641.520098852061
 30
0.0
 10
827.4037110367467
 20
1641.494946363473
 30
0.0
 10
827.7970506824985
 20
1641.526844342353
 30
0.0
 10
828.2288121393246
 20
1641.618172459452
 30
0.0
 10
828.5219045151228
 20
1641.710553664023
 30
0.0
 10
828.6664074431872
 20
1641.765295239517
 30
0.0
  0
ARC
  5
13C
330
F2
100
AcDbEntity
  8
P-SANR-FIXT
100
AcDbCircle
 10
815.6664074431873
 20
1676.747075844258
 30
0.0
 40
37.31923062280724
100
AcDbArc
 50
290.3861746962096
 51
359.9999999999992
  0
LINE
  5
13D
330
F2
100
AcDbEntity
  8
P-SANR-FIXT
100
AcDbLine
 10
804.6664074431875
 20
1714.398953510316
 30
0.0
 11
804.6664074431875
 21
1704.550030158661
 31
0.0
  0
SPLINE
  5
13E
330
F2
100
AcDbEntity
  8
P-SANR-FIXT
100
AcDbSpline
210
0.0
220
0.0
230
1.0
 70
     8
 71
     3
 72
    14
 73
    10
 74
     0
 42
0.000000001
 43
0.0000000001
 40
-1.0
 40
-1.0
 40
-1.0
 40
-1.0
 40
-0.8571428571428571
 40
-0.7142857142857143
 40
-0.5714285714285714
 40
-0.4285714285714286
 40
-0.2857142857142857
 40
-0.1428571428571428
 40
0.0
 40
0.0
 40
0.0
 40
0.0
 10
804.6664074431875
 20
1704.550030158656
 30
0.0
 10
804.6664074431875
 20
1704.413547332822
 30
0.0
 10
804.5884049751196
 20
1704.12265956439
 30
0.0
 10
804.2649846719225
 20
1703.624134469377
 30
0.0
 10
803.7667662003824
 20
1703.088697208215
 30
0.0
 10
803.1265401087468
 20
1702.526624540473
 30
0.0
 10
802.3763882948188
 20
1701.950166689718
 30
0.0
 10
801.5485252054205
 20
1701.368751838045
 30
0.0
 10
800.9612187727196
 20
1700.992214290409
 30
0.0
 10
800.6664074431876
 20
1700.805515519898
 30
0.0
  0
ARC
  5
13F
330
F2
100
AcDbEntity
  8
P-SANR-FIXT
100
AcDbCircle
 10
815.6664074431873
 20
1676.747075844258
 30
0.0
 40
28.35151706040447
100
AcDbArc
 50
121.9427897112961
 51
122.1622722333685
  0
ARC
  5
140
330
F2
100
AcDbEntity
  8
P-SANR-FIXT
100
AcDbCircle
 10
815.6664074431873
 20
1676.747075844258
 30
0.0
 40
27.99999523162848
100
AcDbArc
 50
35.36819889398066
 51
36.01646877932078
  0
ARC
  5
141
330
F2
100
AcDbEntity
  8
P-SANR-FIXT
100
AcDbCircle
 10
815.6664074431873
 20
1676.747075844258
 30
0.0
 40
27.99999523162842
100
AcDbArc
 50
39.92084898614918
 51
40.51801041372711
  0
ARC
  5
142
330
F2
100
AcDbEntity
  8
P-SANR-FIXT
100
AcDbCircle
 10
815.6664074431873
 20
1676.747075844258
 30
0.0
 40
27.99999523162842
100
AcDbArc
 50
44.47349907831735
 51
44.98240896932155
  0
ARC
  5
143
330
F2
100
AcDbEntity
  8
P-SANR-FIXT
100
AcDbCircle
 10
815.6664074431873
 20
1676.747075844258
 30
0.0
 40
27.99999523162839
100
AcDbArc
 50
49.02614917048553
 51
49.48631114024441
  0
ARC
  5
144
330
F2
100
AcDbEntity
  8
P-SANR-FIXT
100
AcDbCircle
 10
815.6664074431873
 20
1676.747075844258
 30
0.0
 40
27.99999523162851
100
AcDbArc
 50
53.57879926265368
 51
53.98953668294798
  0
ARC
  5
145
330
F2
100
AcDbEntity
  8
P-SANR-FIXT
100
AcDbCircle
 10
815.6664074431873
 20
1676.747075844258
 30
0.0
 40
27.99999523162839
100
AcDbArc
 50
58.13144935482206
 51
58.49220812826999
  0
ARC
  5
146
330
F2
100
AcDbEntity
  8
P-SANR-FIXT
100
AcDbCircle
 10
815.6664074431873
 20
1676.747075844258
 30
0.0
 40
27.99999523162849
100
AcDbArc
 50
62.68409944699029
 51
62.99441044382882
  0
ARC
  5
147
330
F2
100
AcDbEntity
  8
P-SANR-FIXT
100
AcDbCircle
 10
815.6664074431873
 20
1676.747075844258
 30
0.0
 40
27.9999952316285
100
AcDbArc
 50
67.23674953915853
 51
67.49620277333935
  0
ARC
  5
148
330
F2
100
AcDbEntity
  8
P-SANR-FIXT
100
AcDbCircle
 10
815.6664074431873
 20
1676.747075844258
 30
0.0
 40
27.99999523162855
100
AcDbArc
 50
71.7893996313268
 51
71.99762571677688
  0
ARC
  5
149
330
F2
100
AcDbEntity
  8
P-SANR-FIXT
100
AcDbCircle
 10
815.6664074431873
 20
1676.747075844258
 30
0.0
 40
27.99999523162851
100
AcDbArc
 50
76.34204972349495
 51
76.49870592064295
  0
ARC
  5
14A
330
F2
100
AcDbEntity
  8
P-SANR-FIXT
100
AcDbCircle
 10
815.6664074431873
 20
1676.747075844258
 30
0.0
 40
27.99999523162846
100
AcDbArc
 50
80.89469981566344
 51
80.99945895931043
  0
LINE
  5
14B
330
F2
100
AcDbEntity
  8
P-SANR-FIXT
100
AcDbLine
 10
817.8889111867757
 20
1704.658725922334
 30
0.0
 11
817.8633148221637
 21
1704.660752258149
 31
0.0
  0
LINE
  5
14C
330
F2
100
AcDbEntity
  8
P-SANR-FIXT
100
AcDbLine
 10
813.4695000642116
 20
1704.660752258149
 30
0.0
 11
813.4439036995992
 21
1704.658725922334
 31
0.0
  0
ARC
  5
14D
330
F2
100
AcDbEntity
  8
P-SANR-FIXT
100
AcDbCircle
 10
815.6664074431873
 20
1676.747075844258
 30
0.0
 40
27.99999523162853
100
AcDbArc
 50
99.00054104068855
 51
99.10530018433659
  0
ARC
  5
14E
330
F2
100
AcDbEntity
  8
P-SANR-FIXT
100
AcDbCircle
 10
815.6664074431873
 20
1676.747075844258
 30
0.0
 40
27.9999952316285
100
AcDbArc
 50
103.5012940793561
 51
103.6579502765045
  0
ARC
  5
14F
330
F2
100
AcDbEntity
  8
P-SANR-FIXT
100
AcDbCircle
 10
815.6664074431873
 20
1676.747075844258
 30
0.0
 40
27.99999523162851
100
AcDbArc
 50
108.0023742832216
 51
108.2106003686728
  0
ARC
  5
150
330
F2
100
AcDbEntity
  8
P-SANR-FIXT
100
AcDbCircle
 10
815.6664074431873
 20
1676.747075844258
 30
0.0
 40
27.99999523162848
100
AcDbArc
 50
112.5037972266592
 51
112.763250460841
  0
ARC
  5
151
330
F2
100
AcDbEntity
  8
P-SANR-FIXT
100
AcDbCircle
 10
815.6664074431873
 20
1676.747075844258
 30
0.0
 40
27.99999523162849
100
AcDbArc
 50
117.0055895561702
 51
117.3159005530094
  0
SPLINE
  5
152
330
F2
100
AcDbEntity
  8
P-SANR-FIXT
100
AcDbSpline
210
0.0
220
0.0
230
1.0
 70
     8
 71
     3
 72
     9
 73
     5
 74
     0
 42
0.000000001
 43
0.0000000001
 40
-0.9551251713997602
 40
-0.9551251713997602
 40
-0.9551251713997602
 40
-0.9551251713997602
 40
-0.5
 40
0.0
 40
0.0
 40
0.0
 40
0.0
 10
838.3320847623977
 20
1693.209939262269
 30
0.0
 10
837.7639162973048
 20
1694.070893119466
 30
0.0
 10
836.4876460666081
 20
1695.805988056498
 30
0.0
 10
835.0352770937384
 20
1697.390609557969
 30
0.0
 10
834.2267154357232
 20
1698.17890933672
 30
0.0
  0
ARC
  5
153
330
F2
100
AcDbEntity
  8
P-SANR-FIXT
100
AcDbCircle
 10
815.6664074431873
 20
1676.747075844258
 30
0.0
 40
28.3515170604044
100
AcDbArc
 50
49.1069173935962
 51
58.05721028870158
  0
SPLINE
  5
154
330
F2
100
AcDbEntity
  8
P-SANR-FIXT
100
AcDbSpline
210
0.0
220
0.0
230
1.0
 70
     8
 71
     3
 72
    14
 73
    10
 74
     0
 42
0.000000001
 43
0.0000000001
 40
-1.0
 40
-1.0
 40
-1.0
 40
-1.0
 40
-0.8571428571428571
 40
-0.7142857142857144
 40
-0.5714285714285714
 40
-0.4285714285714286
 40
-0.2857142857142857
 40
-0.1428571428571428
 40
0.0
 40
0.0
 40
0.0
 40
0.0
 10
830.6664074431875
 20
1700.805515519898
 30
0.0
 10
830.3720466082438
 20
1700.991919440501
 30
0.0
 10
829.7854016501281
 20
1701.368018171779
 30
0.0
 10
828.9575175745753
 20
1701.949365741389
 30
0.0
 10
828.2071159338583
 20
1702.525932376253
 30
0.0
 10
827.5665046250884
 20
1703.088244325187
 30
0.0
 10
827.068013151036
 20
1703.62389260376
 30
0.0
 10
826.7444682378082
 20
1704.122513646037
 30
0.0
 10
826.6664074431874
 20
1704.413499197636
 30
0.0
 10
826.6664074431874
 20
1704.550030158656
 30
0.0
  0
LINE
  5
155
330
F2
100
AcDbEntity
  8
P-SANR-FIXT
100
AcDbLine
 10
826.6664074431874
 20
1704.55003015865
 30
0.0
 11
826.6664074431876
 21
1714.398953510305
 31
0.0
  0
SPLINE
  5
156
330
F2
100
AcDbEntity
  8
P-SANR-FIXT
100
AcDbSpline
210
0.0
220
0.0
230
1.0
 70
     8
 71
     3
 72
    15
 73
    11
 74
     0
 42
0.000000001
 43
0.0000000001
 40
-1.0
 40
-1.0
 40
-1.0
 40
-1.0
 40
-0.7857142857142857
 40
-0.7321428571428572
 40
-0.6785714285714287
 40
-0.5714285714285714
 40
-0.4285714285714286
 40
-0.2857142857142857
 40
-0.1428571428571428
 40
0.0
 40
0.0
 40
0.0
 40
0.0
 10
826.6664074431876
 20
1714.398953510311
 30
0.0
 10
826.6664074431876
 20
1714.486515892842
 30
0.0
 10
826.709422589101
 20
1714.581372133598
 30
0.0
 10
826.8291267210566
 20
1714.672676565062
 30
0.0
 10
826.9267983410228
 20
1714.724576169146
 30
0.0
 10
827.1027124720319
 20
1714.782165744222
 30
0.0
 10
827.4003131116783
 20
1714.814074076638
 30
0.0
 10
827.7929744485293
 20
1714.791884288763
 30
0.0
 10
828.2258466949828
 20
1714.711657304854
 30
0.0
 10
828.5207616093815
 20
1714.626630919357
 30
0.0
 10
828.6664074431875
 20
1714.575636483013
 30
0.0
  0
SPLINE
  5
157
330
F2
100
AcDbEntity
  8
P-SANR-FIXT
100
AcDbSpline
210
0.0
220
0.0
230
1.0
 70
     8
 71
     3
 72
    13
 73
     9
 74
     0
 42
0.000000001
 43
0.0000000001
 40
-1.0
 40
-1.0
 40
-1.0
 40
-1.0
 40
-0.7857142857142857
 40
-0.5714285714285714
 40
-0.4285714285714286
 40
-0.2857142857142857
 40
-0.1428571428571428
 40
0.0
 40
0.0
 40
0.0
 40
0.0
 10
802.6664074431874
 20
1714.575636483013
 30
0.0
 10
802.8848761938965
 20
1714.652128137529
 30
0.0
 10
803.3316082630292
 20
1714.769353324385
 30
0.0
 10
803.8784783208948
 20
1714.820315480244
 30
0.0
 10
804.2571631956644
 20
1714.778918254195
 30
0.0
 10
804.4945064427921
 20
1714.692379496092
 30
0.0
 10
804.6360254782669
 20
1714.562892925273
 30
0.0
 10
804.6664074431875
 20
1714.457328431998
 30
0.0
 10
804.6664074431875
 20
1714.398953510311
 30
0.0
  0
LINE
  5
158
330
F2
100
AcDbEntity
  8
P-SANR-FIXT
100
AcDbLine
 10
804.6664074431873
 20
1648.944121529866
 30
0.0
 11
804.6664074431872
 21
1639.095198178211
 31
0.0
  0
SPLINE
  5
159
330
F2
100
AcDbEntity
  8
P-SANR-FIXT
100
AcDbSpline
210
0.0
220
0.0
230
1.0
 70
     8
 71
     3
 72
    15
 73
    11
 74
     0
 42
0.000000001
 43
0.0000000001
 40
-1.0
 40
-1.0
 40
-1.0
 40
-1.0
 40
-0.7857142857142857
 40
-0.7321428571428572
 40
-0.6785714285714287
 40
-0.5714285714285714
 40
-0.4285714285714286
 40
-0.2857142857142857
 40
-0.1428571428571428
 40
0.0
 40
0.0
 40
0.0
 40
0.0
 10
804.6664074431872
 20
1639.095198178205
 30
0.0
 10
804.6664074431872
 20
1639.007635795674
 30
0.0
 10
804.6233922972737
 20
1638.912779554918
 30
0.0
 10
804.5036881653182
 20
1638.821475123454
 30
0.0
 10
804.4060165453517
 20
1638.76957551937
 30
0.0
 10
804.2301024143428
 20
1638.711985944294
 30
0.0
 10
803.9325017746966
 20
1638.680077611878
 30
0.0
 10
803.5398404378456
 20
1638.702267399754
 30
0.0
 10
803.1069681913921
 20
1638.782494383662
 30
0.0
 10
802.8120532769934
 20
1638.867520769159
 30
0.0
 10
802.6664074431872
 20
1638.918515205503
 30
0.0
  0
SPLINE
  5
15A
330
F2
100
AcDbEntity
  8
P-SANR-FIXT
100
AcDbSpline
210
0.0
220
0.0
230
1.0
 70
     8
 71
     3
 72
    13
 73
     9
 74
     0
 42
0.000000001
 43
0.0000000001
 40
-1.0
 40
-1.0
 40
-1.0
 40
-1.0
 40
-0.7857142857142857
 40
-0.5714285714285714
 40
-0.4285714285714286
 40
-0.2857142857142857
 40
-0.1428571428571428
 40
0.0
 40
0.0
 40
0.0
 40
0.0
 10
828.6664074431872
 20
1638.918515205503
 30
0.0
 10
828.4479386924783
 20
1638.842023550988
 30
0.0
 10
828.0012066233457
 20
1638.724798364131
 30
0.0
 10
827.45433656548
 20
1638.673836208272
 30
0.0
 10
827.0756516907106
 20
1638.715233434321
 30
0.0
 10
826.8383084435829
 20
1638.801772192425
 30
0.0
 10
826.6967894081078
 20
1638.931258763243
 30
0.0
 10
826.6664074431874
 20
1639.036823256518
 30
0.0
 10
826.6664074431874
 20
1639.095198178205
 30
0.0
  0
LINE
  5
15B
330
F2
100
AcDbEntity
  8
P-SANR-FIXT
100
AcDbLine
 10
826.6664074431874
 20
1639.0951981782
 30
0.0
 11
826.666407443187
 21
1648.944121529855
 31
0.0
  0
SPLINE
  5
15C
330
F2
100
AcDbEntity
  8
P-SANR-FIXT
100
AcDbSpline
210
0.0
220
0.0
230
1.0
 70
     8
 71
     3
 72
    14
 73
    10
 74
     0
 42
0.000000001
 43
0.0000000001
 40
-1.0
 40
-1.0
 40
-1.0
 40
-1.0
 40
-0.8571428571428571
 40
-0.7142857142857143
 40
-0.5714285714285714
 40
-0.4285714285714286
 40
-0.2857142857142857
 40
-0.1428571428571428
 40
0.0
 40
0.0
 40
0.0
 40
0.0
 10
826.666407443187
 20
1648.944121529861
 30
0.0
 10
826.666407443187
 20
1649.08065249088
 30
0.0
 10
826.744468237808
 20
1649.371638042479
 30
0.0
 10
827.0680131510356
 20
1649.870259084756
 30
0.0
 10
827.5665046250884
 20
1650.405907363329
 30
0.0
 10
828.2071159338581
 20
1650.968219312263
 30
0.0
 10
828.9575175745753
 20
1651.544785947127
 30
0.0
 10
829.7854016501281
 20
1652.126133516738
 30
0.0
 10
830.3720466082436
 20
1652.502232248015
 30
0.0
 10
830.6664074431873
 20
1652.688636168619
 30
0.0
  0
ARC
  5
15D
330
F2
100
AcDbEntity
  8
P-SANR-FIXT
100
AcDbCircle
 10
815.6664074431873
 20
1676.747075844258
 30
0.0
 40
28.35151706040445
100
AcDbArc
 50
301.9427897112976
 51
310.8930826064033
  0
SPLINE
  5
15E
330
F2
100
AcDbEntity
  8
P-SANR-FIXT
100
AcDbSpline
210
0.0
220
0.0
230
1.0
 70
     8
 71
     3
 72
     9
 73
     5
 74
     0
 42
0.000000001
 43
0.0000000001
 40
-1.0
 40
-1.0
 40
-1.0
 40
-1.0
 40
-0.5
 40
-0.0448748286002094
 40
-0.0448748286002094
 40
-0.0448748286002094
 40
-0.0448748286002094
 10
834.2267154357227
 20
1655.315242351796
 30
0.0
 10
835.0352770937382
 20
1656.103542130548
 30
0.0
 10
836.4876460666081
 20
1657.688163632018
 30
0.0
 10
837.7639162973046
 20
1659.42325856905
 30
0.0
 10
838.3320847623975
 20
1660.284212426248
 30
0.0
  0
ARC
  5
15F
330
F2
100
AcDbEntity
  8
P-SANR-FIXT
100
AcDbCircle
 10
815.6664074431873
 20
1676.747075844258
 30
0.0
 40
27.9999952316285
100
AcDbArc
 50
242.6840994469891
 51
242.9944104438286
  0
ARC
  5
160
330
F2
100
AcDbEntity
  8
P-SANR-FIXT
100
AcDbCircle
 10
815.6664074431873
 20
1676.747075844258
 30
0.0
 40
27.99999523162842
100
AcDbArc
 50
247.2367495391573
 51
247.4962027733389
  0
ARC
  5
161
330
F2
100
AcDbEntity
  8
P-SANR-FIXT
100
AcDbCircle
 10
815.6664074431873
 20
1676.747075844258
 30
0.0
 40
27.99999523162855
100
AcDbArc
 50
251.7893996313257
 51
251.9976257167766
  0
ARC
  5
162
330
F2
100
AcDbEntity
  8
P-SANR-FIXT
100
AcDbCircle
 10
815.6664074431873
 20
1676.747075844258
 30
0.0
 40
27.99999523162859
100
AcDbArc
 50
256.3420497234939
 51
256.4987059206428
  0
ARC
  5
163
330
F2
100
AcDbEntity
  8
P-SANR-FIXT
100
AcDbCircle
 10
815.6664074431873
 20
1676.747075844258
 30
0.0
 40
27.99999523162841
100
AcDbArc
 50
260.8946998156621
 51
260.9994589593106
  0
LINE
  5
164
330
F2
100
AcDbEntity
  8
P-SANR-FIXT
100
AcDbLine
 10
813.4439036995987
 20
1648.835425766182
 30
0.0
 11
813.4695000642114
 21
1648.833399430367
 31
0.0
  0
LINE
  5
165
330
F2
100
AcDbEntity
  8
P-SANR-FIXT
100
AcDbLine
 10
817.863314822163
 20
1648.833399430367
 30
0.0
 11
817.888911186775
 21
1648.835425766182
 31
0.0
  0
ARC
  5
166
330
F2
100
AcDbEntity
  8
P-SANR-FIXT
100
AcDbCircle
 10
815.6664074431873
 20
1676.747075844258
 30
0.0
 40
27.99999523162851
100
AcDbArc
 50
279.0005410406879
 51
279.105300184335
  0
ARC
  5
167
330
F2
100
AcDbEntity
  8
P-SANR-FIXT
100
AcDbCircle
 10
815.6664074431873
 20
1676.747075844258
 30
0.0
 40
27.9999952316285
100
AcDbArc
 50
283.5012940793557
 51
283.6579502765033
  0
ARC
  5
168
330
F2
100
AcDbEntity
  8
P-SANR-FIXT
100
AcDbCircle
 10
815.6664074431873
 20
1676.747075844258
 30
0.0
 40
27.99999523162843
100
AcDbArc
 50
288.0023742832217
 51
288.2106003686717
  0
ARC
  5
169
330
F2
100
AcDbEntity
  8
P-SANR-FIXT
100
AcDbCircle
 10
815.6664074431873
 20
1676.747075844258
 30
0.0
 40
27.99999523162846
100
AcDbArc
 50
292.5037972266595
 51
292.7632504608398
  0
ARC
  5
16A
330
F2
100
AcDbEntity
  8
P-SANR-FIXT
100
AcDbCircle
 10
815.6664074431873
 20
1676.747075844258
 30
0.0
 40
27.99999523162854
100
AcDbArc
 50
297.0055895561696
 51
297.3159005530079
  0
ARC
  5
16B
330
F2
100
AcDbEntity
  8
P-SANR-FIXT
100
AcDbCircle
 10
815.6664074431873
 20
1676.747075844258
 30
0.0
 40
27.99999523162854
100
AcDbArc
 50
301.5077918717281
 51
301.8685506451763
  0
ARC
  5
16C
330
F2
100
AcDbEntity
  8
P-SANR-FIXT
100
AcDbCircle
 10
815.6664074431873
 20
1676.747075844258
 30
0.0
 40
27.99999523162862
100
AcDbArc
 50
306.0104633170509
 51
306.4212007373447
  0
ARC
  5
16D
330
F2
100
AcDbEntity
  8
P-SANR-FIXT
100
AcDbCircle
 10
815.6664074431873
 20
1676.747075844258
 30
0.0
 40
27.99999523162854
100
AcDbArc
 50
310.5136888597536
 51
310.973850829513
  0
ARC
  5
16E
330
F2
100
AcDbEntity
  8
P-SANR-FIXT
100
AcDbCircle
 10
815.6664074431873
 20
1676.747075844258
 30
0.0
 40
27.99999523162843
100
AcDbArc
 50
315.0175910306775
 51
315.5265009216811
  0
ARC
  5
16F
330
F2
100
AcDbEntity
  8
P-SANR-FIXT
100
AcDbCircle
 10
815.6664074431873
 20
1676.747075844258
 30
0.0
 40
27.99999523162858
100
AcDbArc
 50
319.4819895862715
 51
320.0791510138493
  0
ARC
  5
170
330
F2
100
AcDbEntity
  8
P-SANR-FIXT
100
AcDbCircle
 10
815.6664074431873
 20
1676.747075844258
 30
0.0
 40
27.99999523162857
100
AcDbArc
 50
323.9835312206787
 51
324.6318011060179
  0
ARC
  5
171
330
F2
100
AcDbEntity
  8
P-SANR-FIXT
100
AcDbCircle
 10
815.6664074431873
 20
1676.747075844258
 30
0.0
 40
28.35151706040441
100
AcDbArc
 50
237.7622481171658
 51
238.0572102887027
  0
SPLINE
  5
172
330
F2
100
AcDbEntity
  8
P-SANR-FIXT
100
AcDbSpline
210
0.0
220
0.0
230
1.0
 70
     8
 71
     3
 72
    14
 73
    10
 74
     0
 42
0.000000001
 43
0.0000000001
 40
-1.0
 40
-1.0
 40
-1.0
 40
-1.0
 40
-0.8571428571428571
 40
-0.7142857142857144
 40
-0.5714285714285714
 40
-0.4285714285714286
 40
-0.2857142857142857
 40
-0.1428571428571428
 40
0.0
 40
0.0
 40
0.0
 40
0.0
 10
800.6664074431872
 20
1652.688636168618
 30
0.0
 10
800.9612187727194
 20
1652.501937398107
 30
0.0
 10
801.5485252054205
 20
1652.125399850472
 30
0.0
 10
802.3763882948186
 20
1651.543984998798
 30
0.0
 10
803.1265401087468
 20
1650.967527148043
 30
0.0
 10
803.7667662003823
 20
1650.405454480302
 30
0.0
 10
804.2649846719223
 20
1649.87001721914
 30
0.0
 10
804.5884049751192
 20
1649.371492124127
 30
0.0
 10
804.6664074431873
 20
1649.080604355695
 30
0.0
 10
804.6664074431873
 20
1648.944121529861
 30
0.0
  0
LINE
  5
173
330
F2
100
AcDbEntity
  8
P-SANR-FIXT
100
AcDbLine
 10
754.6664074431853
 20
1676.747075844259
 30
0.0
 11
754.6664074431853
 21
1691.597075844322
 31
0.0
  0
LINE
  5
174
330
F2
100
AcDbEntity
  8
P-SANR-FIXT
100
AcDbLine
 10
754.6664074431849
 20
1661.897075844195
 30
0.0
 11
754.6664074431853
 21
1676.747075844259
 31
0.0
  0
LINE
  5
175
330
F2
100
AcDbEntity
  8
P-SANR-FIXT
100
AcDbLine
 10
756.6664074431223
 20
1693.597075844259
 30
0.0
 11
756.6664074431221
 21
1676.747075844259
 31
0.0
  0
LINE
  5
176
330
F2
100
AcDbEntity
  8
P-SANR-FIXT
100
AcDbLine
 10
756.6664074431221
 20
1676.747075844259
 30
0.0
 11
756.666407443122
 21
1659.897075844259
 31
0.0
  0
LINE
  5
177
330
F2
100
AcDbEntity
  8
P-SANR-FIXT
100
AcDbLine
 10
772.666407443185
 20
1652.747075844259
 30
0.0
 11
772.666407443185
 21
1676.747075844259
 31
0.0
  0
LINE
  5
178
330
F2
100
AcDbEntity
  8
P-SANR-FIXT
100
AcDbLine
 10
772.666407443185
 20
1676.747075844259
 30
0.0
 11
772.6664074431852
 21
1700.747075844259
 31
0.0
  0
LINE
  5
179
330
F2
100
AcDbEntity
  8
P-SANR-FIXT
100
AcDbLine
 10
817.7571200137538
 20
1700.65574859846
 30
0.0
 11
817.7627154585717
 21
1700.655258400684
 31
0.0
  0
ARC
  5
17A
330
F2
100
AcDbEntity
  8
P-SANR-FIXT
100
AcDbCircle
 10
815.66538218781
 20
1676.747075844258
 30
0.0
 40
24.00000000000004
100
AcDbArc
 50
64.99999999999997
 51
70.00000000000014
  0
ARC
  5
17B
330
F2
100
AcDbEntity
  8
P-SANR-FIXT
100
AcDbCircle
 10
815.66538218781
 20
1676.747075844258
 30
0.0
 40
24.00000000000004
100
AcDbArc
 50
15.00000000000023
 51
55.00000000000023
  0
ARC
  5
17C
330
F2
100
AcDbEntity
  8
P-SANR-FIXT
100
AcDbCircle
 10
815.66538218781
 20
1676.747075844258
 30
0.0
 40
24.00000000000007
100
AcDbArc
 50
294.9999999999995
 51
344.9999999999995
  0
SPLINE
  5
17D
330
F2
100
AcDbEntity
  8
P-SANR-FIXT
100
AcDbSpline
210
0.0
220
0.0
230
1.0
 70
     8
 71
     3
 72
     9
 73
     5
 74
     0
 42
0.000000001
 43
0.0000000001
 40
-1.0
 40
-1.0
 40
-1.0
 40
-1.0
 40
-0.5
 40
0.0
 40
0.0
 40
0.0
 40
0.0
 10
838.5160495043983
 20
1671.747075844258
 30
0.0
 10
838.6929812797751
 20
1672.571017740068
 30
0.0
 10
838.9585078355104
 20
1674.228292969212
 30
0.0
 10
839.0473604012088
 20
1675.904351073401
 30
0.0
 10
839.0476181865489
 20
1676.747075844258
 30
0.0
  0
SPLINE
  5
17E
330
F2
100
AcDbEntity
  8
P-SANR-FIXT
100
AcDbSpline
210
0.0
220
0.0
230
1.0
 70
     8
 71
     3
 72
     9
 73
     5
 74
     0
 42
0.000000001
 43
0.0000000001
 40
-1.0
 40
-1.0
 40
-1.0
 40
-1.0
 40
-0.5
 40
0.0
 40
0.0
 40
0.0
 40
0.0
 10
839.0476181865489
 20
1676.747075844258
 30
0.0
 10
839.0473604012088
 20
1677.589800615115
 30
0.0
 10
838.9585078355104
 20
1679.265858719305
 30
0.0
 10
838.6929812797751
 20
1680.923133948448
 30
0.0
 10
838.5160495043983
 20
1681.747075844258
 30
0.0
  0
LINE
  5
17F
330
F2
100
AcDbEntity
  8
P-SANR-FIXT
100
AcDbLine
 10
781.1607438877996
 20
1681.747075844259
 30
0.0
 11
782.1607438877996
 21
1681.747075844259
 31
0.0
  0
LINE
  5
180
330
F2
100
AcDbEntity
  8
P-SANR-FIXT
100
AcDbLine
 10
774.1607438877995
 20
1681.747075844259
 30
0.0
 11
775.1607438877996
 21
1681.747075844259
 31
0.0
  0
LINE
  5
181
330
F2
100
AcDbEntity
  8
P-SANR-FIXT
100
AcDbLine
 10
775.1607438877996
 20
1681.747075844259
 30
0.0
 11
781.1607438877996
 21
1681.747075844259
 31
0.0
  0
LINE
  5
182
330
F2
100
AcDbEntity
  8
P-SANR-FIXT
100
AcDbLine
 10
840.7896336971257
 20
1671.747075844258
 30
0.0
 11
839.7898751570259
 21
1671.747075844258
 31
0.0
  0
LINE
  5
183
330
F2
100
AcDbEntity
  8
P-SANR-FIXT
100
AcDbLine
 10
839.7898751570259
 20
1671.747075844258
 30
0.0
 11
838.5160495043983
 21
1671.747075844258
 31
0.0
  0
LINE
  5
184
330
F2
100
AcDbEntity
  8
P-SANR-FIXT
100
AcDbLine
 10
838.5160495043983
 20
1681.747075844258
 30
0.0
 11
839.7898751570259
 21
1681.747075844258
 31
0.0
  0
LINE
  5
185
330
F2
100
AcDbEntity
  8
P-SANR-FIXT
100
AcDbLine
 10
839.7898751570259
 20
1681.747075844258
 30
0.0
 11
840.7896336971257
 21
1681.747075844258
 31
0.0
  0
ENDBLK
  5
187
330
F2
100
AcDbEntity
  8
0
100
AcDbBlockEnd
  0
BLOCK
  5
24F
330
189
100
AcDbEntity
  8
0
100
AcDbBlockBegin
  2
Automatic flow rate regulator valve_Caleffi_121 DN15 - 1_2__-V2-Est - Idraulica
 70
     0
 10
0.0
 20
0.0
 30
0.0
  3
Automatic flow rate regulator valve_Caleffi_121 DN15 - 1_2__-V2-Est - Idraulica
  1

  0
LINE
  5
18A
330
189
100
AcDbEntity
  8
P-SANR-FIXT
100
AcDbLine
 10
1274.269406828899
 20
1921.998183849934
 30
0.0
 11
1274.269406828899
 21
1937.998183850012
 31
0.0
  0
LINE
  5
18B
330
189
100
AcDbEntity
  8
P-SANR-FIXT
100
AcDbLine
 10
1221.456906828899
 20
1937.998183850012
 30
0.0
 11
1221.456906828899
 21
1921.998183849934
 31
0.0
  0
LINE
  5
18C
330
189
100
AcDbEntity
  8
P-SANR-FIXT
100
AcDbLine
 10
1221.571959286626
 20
1921.998183849933
 30
0.0
 11
1221.456906828897
 21
1921.998183849933
 31
0.0
  0
LINE
  5
18D
330
189
100
AcDbEntity
  8
P-SANR-FIXT
100
AcDbLine
 10
1274.269406828897
 20
1921.998183849933
 30
0.0
 11
1274.154354371168
 21
1921.998183849933
 31
0.0
  0
LINE
  5
18E
330
189
100
AcDbEntity
  8
P-SANR-FIXT
100
AcDbLine
 10
1274.154354371168
 20
1921.998183849933
 30
0.0
 11
1263.141178668243
 21
1921.998183849933
 31
0.0
  0
LINE
  5
18F
330
189
100
AcDbEntity
  8
P-SANR-FIXT
100
AcDbLine
 10
1263.141178668243
 20
1921.998183849933
 30
0.0
 11
1258.876332531822
 21
1921.998183849933
 31
0.0
  0
LINE
  5
190
330
189
100
AcDbEntity
  8
P-SANR-FIXT
100
AcDbLine
 10
1258.876332531822
 20
1921.998183849933
 30
0.0
 11
1236.849981125972
 21
1921.998183849933
 31
0.0
  0
LINE
  5
191
330
189
100
AcDbEntity
  8
P-SANR-FIXT
100
AcDbLine
 10
1236.849981125972
 20
1921.998183849933
 30
0.0
 11
1232.585134989551
 21
1921.998183849933
 31
0.0
  0
LINE
  5
192
330
189
100
AcDbEntity
  8
P-SANR-FIXT
100
AcDbLine
 10
1232.585134989551
 20
1921.998183849933
 30
0.0
 11
1221.571959286626
 21
1921.998183849933
 31
0.0
  0
LINE
  5
193
330
189
100
AcDbEntity
  8
P-SANR-FIXT
100
AcDbLine
 10
1221.571959286626
 20
1937.998183850011
 30
0.0
 11
1221.571959286626
 21
1921.998183849933
 31
0.0
  0
LINE
  5
194
330
189
100
AcDbEntity
  8
P-SANR-FIXT
100
AcDbLine
 10
1232.585134989551
 20
1921.998183849933
 30
0.0
 11
1232.585134989551
 21
1937.998183850011
 31
0.0
  0
LINE
  5
195
330
189
100
AcDbEntity
  8
P-SANR-FIXT
100
AcDbLine
 10
1236.849981125972
 20
1921.998183849933
 30
0.0
 11
1236.849981125972
 21
1937.998183850011
 31
0.0
  0
LINE
  5
196
330
189
100
AcDbEntity
  8
P-SANR-FIXT
100
AcDbLine
 10
1258.876332531822
 20
1921.998183849933
 30
0.0
 11
1258.876332531822
 21
1937.998183850011
 31
0.0
  0
LINE
  5
197
330
189
100
AcDbEntity
  8
P-SANR-FIXT
100
AcDbLine
 10
1263.141178668243
 20
1921.998183849933
 30
0.0
 11
1263.141178668243
 21
1937.998183850011
 31
0.0
  0
LINE
  5
198
330
189
100
AcDbEntity
  8
P-SANR-FIXT
100
AcDbLine
 10
1274.154354371168
 20
1921.998183849933
 30
0.0
 11
1274.154354371168
 21
1937.998183850011
 31
0.0
  0
LINE
  5
199
330
189
100
AcDbEntity
  8
P-SANR-FIXT
100
AcDbLine
 10
1228.513163049093
 20
2036.590098110634
 30
0.0
 11
1228.513163049093
 21
2034.484144932651
 31
0.0
  0
LINE
  5
19A
330
189
100
AcDbEntity
  8
P-SANR-FIXT
100
AcDbLine
 10
1267.213150608704
 20
2034.484144932651
 30
0.0
 11
1267.213150608704
 21
2036.590098110634
 31
0.0
  0
LWPOLYLINE
  5
19B
330
189
100
AcDbEntity
  8
P-SANR-FIXT
100
AcDbPolyline
 90
       80
 70
   128
 43
0.0
 10
1228.513163049093
 20
2032.304212779967
 10
1228.556750066772
 20
2032.305084636571
 10
1228.600267354521
 20
2032.3076988116
 10
1228.643645293962
 20
2032.312051122929
 10
1228.686814489646
 20
2032.318134607791
 10
1228.729705880069
 20
2032.325939533905
 10
1228.772250848156
 20
2032.335453415058
 10
1228.814381331033
 20
2032.346661031066
 10
1228.856029928916
 20
2032.359544452137
 10
1228.897130012932
 20
2032.374083067544
 10
1228.937615831715
 20
2032.390253618604
 10
1228.97742261659
 20
2032.408030235885
 10
1229.016486685194
 20
2032.427384480592
 10
1229.054745543351
 20
2032.448285390062
 10
1229.092137985048
 20
2032.470699527297
 10
1229.128604190355
 20
2032.494591034461
 10
1229.164085821124
 20
2032.519921690237
 10
1229.198526114314
 20
2032.546650970981
 10
1229.231869972802
 20
2032.574736115546
 10
1229.264064053528
 20
2032.604132193691
 10
1229.295056852831
 20
2032.634792177961
 10
1229.324798788843
 20
2032.666667018923
 10
1229.353242280811
 20
2032.69970572363
 10
1229.380341825215
 20
2032.733855437204
 10
1229.406054068566
 20
2032.769061527386
 10
1229.43033787676
 20
2032.805267671943
 10
1229.453154400882
 20
2032.842415948768
 10
1229.474467139363
 20
2032.880446928542
 10
1229.494241996366
 20
2032.91929976981
 10
1229.512447336339
 20
2032.958912316314
 10
1229.529054034622
 20
2032.99922119643
 10
1229.54403552404
 20
2033.040161924549
 10
1229.557367837406
 20
2033.081669004239
 10
1229.569029645862
 20
2033.123676033027
 10
1229.579002293003
 20
2033.166115808628
 10
1229.587269824721
 20
2033.208920436455
 10
1229.593819014728
 20
2033.252021438234
 10
1229.598639385718
 20
2033.295349861556
 10
1229.601723226125
 20
2033.338836390188
 10
1229.603065602463
 20
2033.38241145496
 10
1229.602664367215
 20
2033.426005345063
 10
1229.600520162273
 20
2033.469548319574
 10
1229.596636417907
 20
2033.512970719022
 10
1229.59101934728
 20
2033.556203076829
 10
1229.583677936506
 20
2033.599176230448
 10
1229.574623930276
 20
2033.641821431999
 10
1229.563871813069
 20
2033.684070458256
 10
1229.55143878598
 20
2033.72585571979
 10
1229.537344739198
 20
2033.767110369096
 10
1229.521612220193
 20
2033.807768407537
 10
1229.504266397638
 20
2033.847764790923
 10
1229.48533502115
 20
2033.887035533574
 10
1229.464848376891
 20
2033.925517810677
 10
1229.442839239125
 20
2033.963150058801
 10
1229.419342817773
 20
2033.999872074375
 10
1229.394396702101
 20
2034.035625110007
 10
1229.36804080057
 20
2034.070351968468
 10
1229.340317277
 20
2034.103997094192
 10
1229.311270483117
 20
2034.136506662155
 10
1229.280946887593
 20
2034.167828663984
 10
1229.249395001712
 20
2034.197912991157
 10
1229.216665301761
 20
2034.226711515168
 10
1229.182810148279
 20
2034.254178164523
 10
1229.147883702289
 20
2034.280268998442
 10
1229.111941838653
 20
2034.304942277154
 10
1229.075042056686
 20
2034.32815852868
 10
1229.037243388169
 20
2034.349880611969
 10
1228.998606302907
 20
2034.370073776321
 10
1228.959192611994
 20
2034.38870571698
 10
1228.919065368929
 20
2034.405746626816
 10
1228.878288768739
 20
2034.42116924401
 10
1228.836928045288
 20
2034.434948895663
 10
1228.795049366909
 20
2034.447063537271
 10
1228.752719730554
 20
2034.457493787994
 10
1228.710006854611
 20
2034.466222961655
 10
1228.666979070571
 20
2034.473237093437
 10
1228.623705213709
 20
2034.478524962227
 10
1228.580254512964
 20
2034.482078108562
 10
1228.53669648019
 20
2034.483890848166
 10
1228.513163049093
 20
2034.484144932651
  0
LWPOLYLINE
  5
19C
330
189
100
AcDbEntity
  8
P-SANR-FIXT
100
AcDbPolyline
 90
       80
 70
   128
 43
0.0
 10
1267.213150608704
 20
2034.484144932651
 10
1267.169563591026
 20
2034.483273076047
 10
1267.126046303277
 20
2034.480658901019
 10
1267.082668363835
 20
2034.47630658969
 10
1267.039499168151
 20
2034.470223104828
 10
1266.996607777728
 20
2034.462418178713
 10
1266.954062809641
 20
2034.452904297561
 10
1266.911932326764
 20
2034.441696681552
 10
1266.870283728881
 20
2034.428813260482
 10
1266.829183644865
 20
2034.414274645074
 10
1266.788697826082
 20
2034.398104094014
 10
1266.748891041207
 20
2034.380327476733
 10
1266.709826972603
 20
2034.360973232026
 10
1266.671568114446
 20
2034.340072322557
 10
1266.634175672749
 20
2034.317658185321
 10
1266.597709467442
 20
2034.293766678158
 10
1266.562227836673
 20
2034.268436022381
 10
1266.527787543484
 20
2034.241706741637
 10
1266.494443684995
 20
2034.213621597073
 10
1266.462249604269
 20
2034.184225518928
 10
1266.431256804966
 20
2034.153565534658
 10
1266.401514868955
 20
2034.121690693696
 10
1266.373071376986
 20
2034.088651988988
 10
1266.345971832582
 20
2034.054502275415
 10
1266.320259589231
 20
2034.019296185233
 10
1266.295975781037
 20
2033.983090040675
 10
1266.273159256915
 20
2033.94594176385
 10
1266.251846518434
 20
2033.907910784076
 10
1266.232071661431
 20
2033.869057942808
 10
1266.213866321458
 20
2033.829445396305
 10
1266.197259623175
 20
2033.789136516189
 10
1266.182278133757
 20
2033.748195788069
 10
1266.168945820391
 20
2033.70668870838
 10
1266.157284011935
 20
2033.664681679591
 10
1266.147311364794
 20
2033.62224190399
 10
1266.139043833076
 20
2033.579437276163
 10
1266.132494643069
 20
2033.536336274385
 10
1266.127674272079
 20
2033.493007851062
 10
1266.124590431672
 20
2033.449521322431
 10
1266.123248055335
 20
2033.405946257659
 10
1266.123649290582
 20
2033.362352367555
 10
1266.125793495524
 20
2033.318809393044
 10
1266.12967723989
 20
2033.275386993597
 10
1266.135294310517
 20
2033.232154635788
 10
1266.142635721291
 20
2033.18918148217
 10
1266.151689727521
 20
2033.14653628062
 10
1266.162441844727
 20
2033.104287254363
 10
1266.174874871817
 20
2033.062501992829
 10
1266.188968918599
 20
2033.021247343523
 10
1266.204701437604
 20
2032.980589305082
 10
1266.222047260159
 20
2032.940592921696
 10
1266.240978636648
 20
2032.901322179045
 10
1266.261465280906
 20
2032.862839901941
 10
1266.283474418673
 20
2032.825207653818
 10
1266.306970840024
 20
2032.788485638244
 10
1266.331916955696
 20
2032.752732602611
 10
1266.358272857227
 20
2032.71800574415
 10
1266.385996380797
 20
2032.684360618426
 10
1266.41504317468
 20
2032.651851050463
 10
1266.445366770205
 20
2032.620529048634
 10
1266.476918656085
 20
2032.590444721461
 10
1266.509648356036
 20
2032.56164619745
 10
1266.543503509518
 20
2032.534179548095
 10
1266.578429955509
 20
2032.508088714177
 10
1266.614371819145
 20
2032.483415435464
 10
1266.651271601111
 20
2032.460199183938
 10
1266.689070269628
 20
2032.438477100649
 10
1266.727707354891
 20
2032.418283936298
 10
1266.767121045803
 20
2032.399651995639
 10
1266.807248288869
 20
2032.382611085802
 10
1266.848024889058
 20
2032.367188468609
 10
1266.889385612509
 20
2032.353408816956
 10
1266.931264290888
 20
2032.341294175347
 10
1266.973593927243
 20
2032.330863924624
 10
1267.016306803185
 20
2032.322134750964
 10
1267.059334587226
 20
2032.315120619181
 10
1267.102608444089
 20
2032.309832750392
 10
1267.146059144833
 20
2032.306279604056
 10
1267.189617177608
 20
2032.304466864452
 10
1267.213150608704
 20
2032.304212779967
  0
LWPOLYLINE
  5
19D
330
189
100
AcDbEntity
  8
P-SANR-FIXT
100
AcDbPolyline
 90
       36
 70
   128
 43
0.0
 10
1231.755005932591
 20
2028.297158594591
 10
1231.595450830283
 20
2028.334575578956
 10
1231.437519635329
 20
2028.378343136032
 10
1231.281465003954
 20
2028.428391247064
 10
1231.127536590275
 20
2028.484639845752
 10
1230.97598064692
 20
2028.546998946334
 10
1230.827039631068
 20
2028.615368787555
 10
1230.68095181657
 20
2028.689639992252
 10
1230.537950912768
 20
2028.769693742342
 10
1230.398265690601
 20
2028.855401968901
 10
1230.262119616628
 20
2028.946627557051
 10
1230.129730495523
 20
2029.043224565311
 10
1230.001310121638
 20
2029.145038459074
 10
1229.877063940179
 20
2029.25190635783
 10
1229.757190718529
 20
2029.363657295736
 10
1229.641882228272
 20
2029.480112495132
 10
1229.531322938395
 20
2029.601085652542
 10
1229.425689720177
 20
2029.726383236719
 10
1229.325151564233
 20
2029.855804798258
 10
1229.229869310165
 20
2029.989143290269
 10
1229.139995389255
 20
2030.126185399607
 10
1229.055673580604
 20
2030.266711888133
 10
1228.977038781117
 20
2030.410497943442
 10
1228.9042167897
 20
2030.557313538519
 10
1228.837324106004
 20
2030.70692379973
 10
1228.776467744053
 20
2030.859089382573
 10
1228.721745061045
 20
2031.013566854575
 10
1228.673243601599
 20
2031.170109084734
 10
1228.631040957703
 20
2031.328465638877
 10
1228.595204644586
 20
2031.488383180297
 10
1228.565791992702
 20
2031.649605875042
 10
1228.542850056022
 20
2031.811875801194
 10
1228.526415536749
 20
2031.974933361485
 10
1228.516514726609
 20
2032.138517698603
 10
1228.513163464785
 20
2032.302367112504
 10
1228.513163049093
 20
2032.304212779967
  0
LWPOLYLINE
  5
19E
330
189
100
AcDbEntity
  8
P-SANR-FIXT
100
AcDbPolyline
 90
       36
 70
   128
 43
0.0
 10
1267.213150608704
 20
2032.304212779967
 10
1267.209873153562
 20
2032.140361873105
 10
1267.200046031362
 20
2031.976773092741
 10
1267.183684963405
 20
2031.813708146026
 10
1267.160816123908
 20
2031.65142790209
 10
1267.131476098138
 20
2031.490191974706
 10
1267.095711823875
 20
2031.330258306962
 10
1267.053580516331
 20
2031.171882758608
 10
1267.005149576608
 20
2031.015318696738
 10
1266.95049648388
 20
2030.860816590451
 10
1266.889708671436
 20
2030.70862361016
 10
1266.822883386808
 20
2030.558983232166
 10
1266.750127536196
 20
2030.412134849152
 10
1266.671557513443
 20
2030.268313387207
 10
1266.587299013822
 20
2030.127748929988
 10
1266.497486832959
 20
2029.990666350641
 10
1266.402264651184
 20
2029.857284952051
 10
1266.301784803676
 20
2029.727818116002
 10
1266.196208036756
 20
2029.602472961813
 10
1266.085703250729
 20
2029.481450014994
 10
1265.97044722968
 20
2029.364942886441
 10
1265.850624358656
 20
2029.253137962707
 10
1265.726426328689
 20
2029.14621410782
 10
1265.598051830133
 20
2029.044342377137
 10
1265.465706234801
 20
2028.947685743696
 10
1265.329601267413
 20
2028.856398837493
 10
1265.189954666883
 20
2028.770627698104
 10
1265.046989837982
 20
2028.690509541055
 10
1264.900935493939
 20
2028.616172538305
 10
1264.752025290547
 20
2028.547735613202
 10
1264.600497452366
 20
2028.485308250226
 10
1264.446594391613
 20
2028.428990319843
 10
1264.290562320355
 20
2028.378871918725
 10
1264.13265085662
 20
2028.335033225624
 10
1263.973112625065
 20
2028.297544373097
 10
1263.971307725206
 20
2028.297158594591
  0
LINE
  5
19F
330
189
100
AcDbEntity
  8
P-SANR-FIXT
100
AcDbLine
 10
1228.513163049091
 20
2034.48414493265
 30
0.0
 11
1247.863156828897
 21
2034.48414493265
 31
0.0
  0
LINE
  5
1A0
330
189
100
AcDbEntity
  8
P-SANR-FIXT
100
AcDbLine
 10
1247.863156828897
 20
2034.48414493265
 30
0.0
 11
1267.213150608702
 21
2034.48414493265
 31
0.0
  0
LINE
  5
1A1
330
189
100
AcDbEntity
  8
P-SANR-FIXT
100
AcDbLine
 10
1228.513163049091
 20
2032.304212779966
 30
0.0
 11
1247.863156828897
 21
2032.304212779966
 31
0.0
  0
LINE
  5
1A2
330
189
100
AcDbEntity
  8
P-SANR-FIXT
100
AcDbLine
 10
1247.863156828897
 20
2032.304212779966
 30
0.0
 11
1267.213150608702
 21
2032.304212779966
 31
0.0
  0
LINE
  5
1A3
330
189
100
AcDbEntity
  8
P-SANR-FIXT
100
AcDbLine
 10
1231.755005932589
 20
2028.29715859459
 30
0.0
 11
1247.863156828897
 21
2028.29715859459
 31
0.0
  0
LINE
  5
1A4
330
189
100
AcDbEntity
  8
P-SANR-FIXT
100
AcDbLine
 10
1247.863156828897
 20
2028.29715859459
 30
0.0
 11
1263.971307725204
 21
2028.29715859459
 31
0.0
  0
LINE
  5
1A5
330
189
100
AcDbEntity
  8
P-SANR-FIXT
100
AcDbLine
 10
1224.363156828899
 20
2052.498183850012
 30
0.0
 11
1222.863156828898
 21
2051.632158446228
 31
0.0
  0
LINE
  5
1A6
330
189
100
AcDbEntity
  8
P-SANR-FIXT
100
AcDbLine
 10
1272.863156828899
 20
2051.632158446228
 30
0.0
 11
1271.363156828898
 21
2052.498183850012
 31
0.0
  0
LINE
  5
1A7
330
189
100
AcDbEntity
  8
P-SANR-FIXT
100
AcDbLine
 10
1207.863156828899
 20
2005.498183850012
 30
0.0
 11
1207.863156828899
 21
1970.998183850012
 31
0.0
  0
LINE
  5
1A8
330
189
100
AcDbEntity
  8
P-SANR-FIXT
100
AcDbLine
 10
1287.863156828898
 20
1970.998183850012
 30
0.0
 11
1287.863156828898
 21
2005.498183850012
 31
0.0
  0
LINE
  5
1A9
330
189
100
AcDbEntity
  8
P-SANR-FIXT
100
AcDbLine
 10
1222.863156828898
 20
2051.632158446228
 30
0.0
 11
1222.863156828898
 21
2042.590098110634
 31
0.0
  0
LINE
  5
1AA
330
189
100
AcDbEntity
  8
P-SANR-FIXT
100
AcDbLine
 10
1272.863156828899
 20
2042.590098110634
 30
0.0
 11
1272.863156828899
 21
2051.632158446228
 31
0.0
  0
LINE
  5
1AB
330
189
100
AcDbEntity
  8
P-SANR-FIXT
100
AcDbLine
 10
1222.863156828898
 20
2042.590098110634
 30
0.0
 11
1220.521141453944
 21
2041.737674225957
 31
0.0
  0
LINE
  5
1AC
330
189
100
AcDbEntity
  8
P-SANR-FIXT
100
AcDbLine
 10
1275.205172203853
 20
2041.737674225957
 30
0.0
 11
1272.863156828899
 21
2042.590098110634
 31
0.0
  0
LWPOLYLINE
  5
1AD
330
189
100
AcDbEntity
  8
P-SANR-FIXT
100
AcDbPolyline
 90
       32
 70
   128
 43
0.0
 10
1219.86316159727
 20
2040.797981605171
 10
1219.863961490609
 20
2040.837970939358
 10
1219.866359890967
 20
2040.877896299141
 10
1219.870352961416
 20
2040.91769381246
 10
1219.875934313894
 20
2040.957299811786
 10
1219.883095019429
 20
2040.996650935967
 10
1219.891823622418
 20
2041.035684231598
 10
1219.902106158959
 20
2041.074337253736
 10
1219.913926179188
 20
2041.112548165788
 10
1219.927264773592
 20
2041.150255838446
 10
1219.942100603267
 20
2041.18739994748
 10
1219.95840993405
 20
2041.223921070237
 10
1219.976166674491
 20
2041.259760780713
 10
1219.995342417592
 20
2041.294861743015
 10
1220.015906486257
 20
2041.329167803092
 10
1220.03782598236
 20
2041.362624078566
 10
1220.061065839386
 20
2041.395177046534
 10
1220.085588878519
 20
2041.42677462919
 10
1220.111355868129
 20
2041.457366277143
 10
1220.138325586529
 20
2041.486903050282
 10
1220.166454887923
 20
2041.515337696071
 10
1220.195698771429
 20
2041.542624725142
 10
1220.226010453071
 20
2041.56872048407
 10
1220.257341440627
 20
2041.593583225207
 10
1220.289641611198
 20
2041.617173173472
 10
1220.322859291402
 20
2041.639452589979
 10
1220.356941340037
 20
2041.660385832415
 10
1220.391833233096
 20
2041.679939412056
 10
1220.427479150993
 20
2041.698082047348
 10
1220.463822067864
 20
2041.714784713943
 10
1220.500803842793
 20
2041.730020691139
 10
1220.521141453944
 20
2041.737674225957
  0
LWPOLYLINE
  5
1AE
330
189
100
AcDbEntity
  8
P-SANR-FIXT
100
AcDbPolyline
 90
       32
 70
   128
 43
0.0
 10
1275.205172203853
 20
2041.737674225957
 10
1275.242476306464
 20
2041.723245414279
 10
1275.279173571199
 20
2041.707336377886
 10
1275.315205290264
 20
2041.689972567841
 10
1275.350513820594
 20
2041.671181762537
 10
1275.385042676074
 20
2041.650994023255
 10
1275.418736617899
 20
2041.629441646069
 10
1275.45154174295
 20
2041.606559110187
 10
1275.483405570027
 20
2041.582383022785
 10
1275.514277123801
 20
2041.556952060444
 10
1275.544107016374
 20
2041.530306907279
 10
1275.572847526279
 20
2041.502490189853
 10
1275.600452674834
 20
2041.473546408978
 10
1275.626878299688
 20
2041.44352186853
 10
1275.652082125479
 20
2041.412464601368
 10
1275.676023831462
 20
2041.380424292495
 10
1275.698665116015
 20
2041.347452199571
 10
1275.719969757912
 20
2041.313601070909
 10
1275.739903674272
 20
2041.278925061095
 10
1275.75843497508
 20
2041.243479644348
 10
1275.775534014208
 20
2041.207321525772
 10
1275.791173436841
 20
2041.170508550644
 10
1275.80532822324
 20
2041.133099611872
 10
1275.817975728765
 20
2041.095154555778
 10
1275.829095720106
 20
2041.056734086355
 10
1275.838670407648
 20
2041.017899668161
 10
1275.846684473936
 20
2040.978713427979
 10
1275.853125098169
 20
2040.939238055434
 10
1275.857981976726
 20
2040.899536702703
 10
1275.861247339636
 20
2040.859672883479
 10
1275.862915963016
 20
2040.81971037137
 10
1275.863152060527
 20
2040.797981605171
  0
LINE
  5
1AF
330
189
100
AcDbEntity
  8
P-SANR-FIXT
100
AcDbLine
 10
1219.86316159727
 20
2040.797981605171
 30
0.0
 11
1219.86316159727
 21
2037.498196168305
 31
0.0
  0
LINE
  5
1B0
330
189
100
AcDbEntity
  8
P-SANR-FIXT
100
AcDbLine
 10
1275.863152060527
 20
2037.498196168305
 30
0.0
 11
1275.863152060527
 21
2040.797981605171
 31
0.0
  0
LINE
  5
1B1
330
189
100
AcDbEntity
  8
P-SANR-FIXT
100
AcDbLine
 10
1207.863156828899
 20
1970.998183850012
 30
0.0
 11
1221.363156828899
 21
1937.998183850012
 31
0.0
  0
LINE
  5
1B2
330
189
100
AcDbEntity
  8
P-SANR-FIXT
100
AcDbLine
 10
1274.363156828898
 20
1937.998183850012
 30
0.0
 11
1287.863156828898
 21
1970.998183850012
 31
0.0
  0
LINE
  5
1B3
330
189
100
AcDbEntity
  8
P-SANR-FIXT
100
AcDbLine
 10
1207.863156828899
 20
2006.498183850012
 30
0.0
 11
1207.863156828899
 21
2005.498183850012
 31
0.0
  0
LINE
  5
1B4
330
189
100
AcDbEntity
  8
P-SANR-FIXT
100
AcDbLine
 10
1287.863156828898
 20
2005.498183850012
 30
0.0
 11
1287.863156828898
 21
2006.498183850012
 31
0.0
  0
LINE
  5
1B5
330
189
100
AcDbEntity
  8
P-SANR-FIXT
100
AcDbLine
 10
1219.86316159727
 20
2037.498196168305
 30
0.0
 11
1207.863156828899
 21
2006.498183850012
 31
0.0
  0
LINE
  5
1B6
330
189
100
AcDbEntity
  8
P-SANR-FIXT
100
AcDbLine
 10
1287.863156828898
 20
2006.498183850012
 30
0.0
 11
1275.863152060527
 21
2037.498196168305
 31
0.0
  0
LWPOLYLINE
  5
1B7
330
189
100
AcDbEntity
  8
P-SANR-FIXT
100
AcDbPolyline
 90
       41
 70
   128
 43
0.0
 10
1247.863156828899
 20
2119.497158594637
 10
1248.822900849378
 20
2119.477961154501
 10
1249.781109484159
 20
2119.4203995459
 10
1250.736249803833
 20
2119.32456585513
 10
1251.686793787641
 20
2119.190613395652
 10
1252.63122076798
 20
2119.018756462827
 10
1253.56801986315
 20
2118.809269991086
 10
1254.495692394437
 20
2118.562489114096
 10
1255.412754283686
 20
2118.278808628616
 10
1256.317738427501
 20
2117.958682362908
 10
1257.209197044306
 20
2117.602622450707
 10
1258.085703990483
 20
2117.211198511916
 10
1258.945857041894
 20
2116.78503674134
 10
1259.788280137148
 20
2116.324818906901
 10
1260.611625579
 20
2115.831281258959
 10
1261.41457619038
 20
2115.305213352469
 10
1262.195847421596
 20
2114.74745678386
 10
1262.954189405342
 20
2114.15890384466
 10
1263.688388956214
 20
2113.540496094019
 10
1264.397271511552
 20
2112.893222852418
 10
1265.079703010487
 20
2112.218119618969
 10
1265.734591708199
 20
2111.516266414828
 10
1266.360889922474
 20
2110.788786055403
 10
1266.957595709772
 20
2110.03684235408
 10
1267.523754468123
 20
2109.261638260376
 10
1268.058460464288
 20
2108.464413935472
 10
1268.560858282739
 20
2107.646444768224
 10
1269.030144194137
 20
2106.809039334807
 10
1269.465567441135
 20
2105.953537305278
 10
1269.866431439421
 20
2105.081307300388
 10
1270.232094892112
 20
2104.193744702078
 10
1270.561972815687
 20
2103.292269421167
 10
1270.85553747584
 20
2102.378323625804
 10
1271.112319231737
 20
2101.453369434294
 10
1271.331907287346
 20
2100.518886576031
 10
1271.513950348621
 20
2099.576370024243
 10
1271.658157185499
 20
2098.627327604352
 10
1271.764297097802
 20
2097.673277581781
 10
1271.832200284312
 20
2096.715746233043
 10
1271.861758114418
 20
2095.756265404035
 10
1271.863156828898
 20
2095.497158594637
  0
LWPOLYLINE
  5
1B8
330
189
100
AcDbEntity
  8
P-SANR-FIXT
100
AcDbPolyline
 90
       41
 70
   128
 43
0.0
 10
1271.863156828898
 20
2095.497158594637
 10
1271.863156828898
 20
2095.462764001154
 10
1271.863156828898
 20
2095.359635244717
 10
1271.863156828898
 20
2095.187937309338
 10
1271.863156828898
 20
2094.947944875086
 10
1271.863156828899
 20
2094.640041878659
 10
1271.863156828898
 20
2094.26472089917
 10
1271.863156828898
 20
2093.822582370121
 10
1271.863156828898
 20
2093.314333618843
 10
1271.863156828898
 20
2092.740787734915
 10
1271.863156828898
 20
2092.102862269402
 10
1271.863156828898
 20
2091.401577766965
 10
1271.863156828898
 20
2090.63805613321
 10
1271.863156828898
 20
2089.813518839873
 10
1271.863156828898
 20
2088.929284970733
 10
1271.863156828898
 20
2087.986769111353
 10
1271.863156828899
 20
2086.98747908605
 10
1271.863156828899
 20
2085.933013545693
 10
1271.863156828899
 20
2084.825059410206
 10
1271.863156828899
 20
2083.665389169855
 10
1271.863156828899
 20
2082.455858049642
 10
1271.863156828899
 20
2081.198401041339
 10
1271.863156828899
 20
2079.895029807916
 10
1271.863156828899
 20
2078.54782946531
 10
1271.863156828899
 20
2077.158955246679
 10
1271.863156828899
 20
2075.730629054499
 10
1271.863156828899
 20
2074.265135905982
 10
1271.863156828899
 20
2072.764820277544
 10
1271.863156828899
 20
2071.232082354141
 10
1271.863156828899
 20
2069.669374189483
 10
1271.863156828899
 20
2068.079195783274
 10
1271.863156828899
 20
2066.464091081744
 10
1271.863156828899
 20
2064.826643907877
 10
1271.863156828899
 20
2063.169473827849
 10
1271.863156828899
 20
2061.495231960277
 10
1271.863156828899
 20
2059.806596734996
 10
1271.863156828899
 20
2058.106269608145
 10
1271.863156828899
 20
2056.396970740407
 10
1271.863156828899
 20
2054.681434645343
 10
1271.863156828899
 20
2052.96240581474
 10
1271.863156828899
 20
2052.498183850012
  0
LWPOLYLINE
  5
1B9
330
189
100
AcDbEntity
  8
P-SANR-FIXT
100
AcDbPolyline
 90
       41
 70
   128
 43
0.0
 10
1223.863156828898
 20
2095.497158594637
 10
1223.882354269035
 20
2096.456902615117
 10
1223.939915877636
 20
2097.415111249897
 10
1224.035749568405
 20
2098.370251569571
 10
1224.169702027883
 20
2099.320795553379
 10
1224.341558960709
 20
2100.265222533719
 10
1224.55104543245
 20
2101.202021628889
 10
1224.79782630944
 20
2102.129694160176
 10
1225.08150679492
 20
2103.046756049424
 10
1225.401633060628
 20
2103.951740193239
 10
1225.757692972829
 20
2104.843198810045
 10
1226.149116911619
 20
2105.719705756222
 10
1226.575278682196
 20
2106.579858807632
 10
1227.035496516635
 20
2107.422281902887
 10
1227.529034164576
 20
2108.245627344738
 10
1228.055102071066
 20
2109.048577956118
 10
1228.612858639676
 20
2109.829849187335
 10
1229.201411578876
 20
2110.588191171081
 10
1229.819819329517
 20
2111.322390721953
 10
1230.467092571117
 20
2112.031273277291
 10
1231.142195804567
 20
2112.713704776226
 10
1231.844049008707
 20
2113.368593473938
 10
1232.571529368133
 20
2113.994891688212
 10
1233.323473069455
 20
2114.59159747551
 10
1234.098677163159
 20
2115.157756233861
 10
1234.895901488063
 20
2115.692462230027
 10
1235.713870655312
 20
2116.194860048477
 10
1236.551276088729
 20
2116.664145959876
 10
1237.406778118257
 20
2117.099569206874
 10
1238.279008123148
 20
2117.50043320516
 10
1239.166570721458
 20
2117.866096657851
 10
1240.068046002368
 20
2118.195974581426
 10
1240.981991797732
 20
2118.489539241579
 10
1241.906945989242
 20
2118.746320997475
 10
1242.841428847505
 20
2118.965909053085
 10
1243.783945399293
 20
2119.14795211436
 10
1244.732987819183
 20
2119.292158951238
 10
1245.687037841755
 20
2119.398298863541
 10
1246.644569190493
 20
2119.466202050051
 10
1247.6040500195
 20
2119.495759880157
 10
1247.863156828898
 20
2119.497158594637
  0
LWPOLYLINE
  5
1BA
330
189
100
AcDbEntity
  8
P-SANR-FIXT
100
AcDbPolyline
 90
       41
 70
   128
 43
0.0
 10
1223.863156828899
 20
2052.498183850012
 10
1223.863156828899
 20
2054.217684220758
 10
1223.863156828899
 20
2055.934433757717
 10
1223.863156828899
 20
2057.645686027852
 10
1223.863156828899
 20
2059.348703392577
 10
1223.863156828899
 20
2061.040761387401
 10
1223.863156828899
 20
2062.719153080484
 10
1223.863156828899
 20
2064.381193403156
 10
1223.863156828899
 20
2066.024223445449
 10
1223.863156828899
 20
2067.64561470979
 10
1223.863156828898
 20
2069.242773316036
 10
1223.863156828898
 20
2070.813144151125
 10
1223.863156828898
 20
2072.354214956714
 10
1223.863156828898
 20
2073.863520348261
 10
1223.863156828898
 20
2075.338645759106
 10
1223.863156828898
 20
2076.777231303268
 10
1223.863156828899
 20
2078.176975550759
 10
1223.863156828899
 20
2079.535639209379
 10
1223.863156828899
 20
2080.851048707107
 10
1223.863156828899
 20
2082.121099669352
 10
1223.863156828899
 20
2083.343760285504
 10
1223.863156828898
 20
2084.517074559398
 10
1223.863156828898
 20
2085.63916543849
 10
1223.863156828898
 20
2086.708237816739
 10
1223.863156828898
 20
2087.722581406397
 10
1223.863156828898
 20
2088.680573474102
 10
1223.863156828898
 20
2089.580681436906
 10
1223.863156828898
 20
2090.421465314083
 10
1223.863156828898
 20
2091.201580030786
 10
1223.863156828898
 20
2091.919777569883
 10
1223.863156828898
 20
2092.57490896852
 10
1223.863156828898
 20
2093.165926156213
 10
1223.863156828898
 20
2093.691883631539
 10
1223.863156828898
 20
2094.151939974735
 10
1223.863156828898
 20
2094.545359193791
 10
1223.863156828898
 20
2094.871511901884
 10
1223.863156828898
 20
2095.129876324254
 10
1223.863156828898
 20
2095.320039132942
 10
1223.863156828898
 20
2095.441696108019
 10
1223.863156828898
 20
2095.494652624278
 10
1223.863156828898
 20
2095.497158594637
  0
LINE
  5
1BB
330
189
100
AcDbEntity
  8
P-SANR-FIXT
100
AcDbLine
 10
1252.863156828899
 20
2121.372345390325
 30
0.0
 11
1242.863156828898
 21
2121.372345390325
 31
0.0
  0
SPLINE
  5
1BC
330
189
100
AcDbEntity
  8
P-SANR-FIXT
100
AcDbSpline
210
0.0
220
0.0
230
1.0
 70
     8
 71
     3
 72
     9
 73
     5
 74
     0
 42
0.000000001
 43
0.0000000001
 40
-1.0
 40
-1.0
 40
-1.0
 40
-1.0
 40
-0.5
 40
0.0
 40
0.0
 40
0.0
 40
0.0
 10
1238.065197857764
 20
2051.632158446227
 30
0.0
 10
1238.887089236039
 20
2051.819961286016
 30
0.0
 10
1240.538336212754
 20
2052.152101693103
 30
0.0
 10
1242.204511629796
 20
2052.397311555206
 30
0.0
 10
1243.0413314484
 20
2052.498183850012
 30
0.0
  0
SPLINE
  5
1BD
330
189
100
AcDbEntity
  8
P-SANR-FIXT
100
AcDbSpline
210
0.0
220
0.0
230
1.0
 70
     8
 71
     3
 72
     9
 73
     5
 74
     0
 42
0.000000001
 43
0.0000000001
 40
-1.0
 40
-1.0
 40
-1.0
 40
-1.0
 40
-0.5
 40
0.0
 40
0.0
 40
0.0
 40
0.0
 10
1230.355485232102
 20
2052.498183850012
 30
0.0
 10
1230.759696350672
 20
2052.402271335449
 30
0.0
 10
1231.578585268461
 20
2052.16202125359
 30
0.0
 10
1232.418407547551
 20
2051.82492106626
 30
0.0
 10
1232.843552027421
 20
2051.632158446227
 30
0.0
  0
SPLINE
  5
1BE
330
189
100
AcDbEntity
  8
P-SANR-FIXT
100
AcDbSpline
210
0.0
220
0.0
230
1.0
 70
     8
 71
     3
 72
     9
 73
     5
 74
     0
 42
0.000000001
 43
0.0000000001
 40
-1.0
 40
-1.0
 40
-1.0
 40
-1.0
 40
-0.5
 40
0.0
 40
0.0
 40
0.0
 40
0.0
 10
1223.045593056288
 20
2051.632158446227
 30
0.0
 10
1223.473364499215
 20
2051.825835807493
 30
0.0
 10
1224.315813741362
 20
2052.163850736056
 30
0.0
 10
1225.132075696095
 20
2052.403186076682
 30
0.0
 10
1225.533659851607
 20
2052.498183850012
 30
0.0
  0
SPLINE
  5
1BF
330
189
100
AcDbEntity
  8
P-SANR-FIXT
100
AcDbSpline
210
0.0
220
0.0
230
1.0
 70
     8
 71
     3
 72
     9
 73
     5
 74
     0
 42
0.000000001
 43
0.0000000001
 40
-1.0
 40
-1.0
 40
-1.0
 40
-1.0
 40
-0.5
 40
0.0
 40
0.0
 40
0.0
 40
0.0
 10
1262.882761630372
 20
2051.632158446227
 30
0.0
 10
1263.310533073299
 20
2051.825835807493
 30
0.0
 10
1264.152982315446
 20
2052.163850736056
 30
0.0
 10
1264.969244270179
 20
2052.403186076682
 30
0.0
 10
1265.370828425691
 20
2052.498183850012
 30
0.0
  0
SPLINE
  5
1C0
330
189
100
AcDbEntity
  8
P-SANR-FIXT
100
AcDbSpline
210
0.0
220
0.0
230
1.0
 70
     8
 71
     3
 72
     9
 73
     5
 74
     0
 42
0.000000001
 43
0.0000000001
 40
-1.0
 40
-1.0
 40
-1.0
 40
-1.0
 40
-0.5
 40
0.0
 40
0.0
 40
0.0
 40
0.0
 10
1252.684982209393
 20
2052.498183850012
 30
0.0
 10
1253.521802027996
 20
2052.397311555206
 30
0.0
 10
1255.187977445039
 20
2052.152101693103
 30
0.0
 10
1256.839224421753
 20
2051.819961286016
 30
0.0
 10
1257.661115800029
 20
2051.632158446227
 30
0.0
  0
SPLINE
  5
1C1
330
189
100
AcDbEntity
  8
P-SANR-FIXT
100
AcDbSpline
210
0.0
220
0.0
230
1.0
 70
     8
 71
     3
 72
     9
 73
     5
 74
     0
 42
0.000000001
 43
0.0000000001
 40
-1.0
 40
-1.0
 40
-1.0
 40
-1.0
 40
-0.5
 40
0.0
 40
0.0
 40
0.0
 40
0.0
 10
1270.192653806186
 20
2052.498183850012
 30
0.0
 10
1270.596864924756
 20
2052.40227133545
 30
0.0
 10
1271.415753842546
 20
2052.16202125359
 30
0.0
 10
1272.255576121635
 20
2051.82492106626
 30
0.0
 10
1272.680720601505
 20
2051.632158446227
 30
0.0
  0
LINE
  5
1C2
330
189
100
AcDbEntity
  8
P-SANR-FIXT
100
AcDbLine
 10
1252.863156828896
 20
2121.372345390323
 30
0.0
 11
1252.863156828896
 21
2120.372345390324
 31
0.0
  0
LINE
  5
1C3
330
189
100
AcDbEntity
  8
P-SANR-FIXT
100
AcDbLine
 10
1252.863156828896
 20
2120.372345390324
 30
0.0
 11
1252.863156828896
 21
2118.953748895107
 31
0.0
  0
LINE
  5
1C4
330
189
100
AcDbEntity
  8
P-SANR-FIXT
100
AcDbLine
 10
1232.84355202742
 20
2051.632158446227
 30
0.0
 11
1238.065197857763
 21
2051.632158446227
 31
0.0
  0
LINE
  5
1C5
330
189
100
AcDbEntity
  8
P-SANR-FIXT
100
AcDbLine
 10
1232.843552027421
 20
2051.632158446227
 30
0.0
 11
1232.843552027421
 21
2042.590098110633
 31
0.0
  0
LINE
  5
1C6
330
189
100
AcDbEntity
  8
P-SANR-FIXT
100
AcDbLine
 10
1238.065197857763
 20
2042.590098110633
 30
0.0
 11
1238.065197857763
 21
2051.632158446227
 31
0.0
  0
LINE
  5
1C7
330
189
100
AcDbEntity
  8
P-SANR-FIXT
100
AcDbLine
 10
1222.863156828897
 20
2051.632158446227
 30
0.0
 11
1223.045593056288
 21
2051.632158446227
 31
0.0
  0
LINE
  5
1C8
330
189
100
AcDbEntity
  8
P-SANR-FIXT
100
AcDbLine
 10
1223.045593056288
 20
2042.590098110633
 30
0.0
 11
1223.045593056288
 21
2051.632158446227
 31
0.0
  0
LINE
  5
1C9
330
189
100
AcDbEntity
  8
P-SANR-FIXT
100
AcDbLine
 10
1257.661115800029
 20
2051.632158446227
 30
0.0
 11
1262.882761630372
 21
2051.632158446227
 31
0.0
  0
LINE
  5
1CA
330
189
100
AcDbEntity
  8
P-SANR-FIXT
100
AcDbLine
 10
1257.66111580003
 20
2051.632158446227
 30
0.0
 11
1257.66111580003
 21
2042.590098110633
 31
0.0
  0
LINE
  5
1CB
330
189
100
AcDbEntity
  8
P-SANR-FIXT
100
AcDbLine
 10
1262.882761630372
 20
2042.590098110633
 30
0.0
 11
1262.882761630372
 21
2051.632158446227
 31
0.0
  0
LINE
  5
1CC
330
189
100
AcDbEntity
  8
P-SANR-FIXT
100
AcDbLine
 10
1272.680720601505
 20
2051.632158446227
 30
0.0
 11
1272.863156828897
 21
2051.632158446227
 31
0.0
  0
LINE
  5
1CD
330
189
100
AcDbEntity
  8
P-SANR-FIXT
100
AcDbLine
 10
1272.680720601505
 20
2051.632158446227
 30
0.0
 11
1272.680720601505
 21
2042.590098110633
 31
0.0
  0
LINE
  5
1CE
330
189
100
AcDbEntity
  8
P-SANR-FIXT
100
AcDbLine
 10
1247.863156828897
 20
2042.590098110633
 30
0.0
 11
1238.065197857764
 21
2042.590098110633
 31
0.0
  0
LINE
  5
1CF
330
189
100
AcDbEntity
  8
P-SANR-FIXT
100
AcDbLine
 10
1232.84355202742
 20
2042.590098110633
 30
0.0
 11
1238.065197857763
 21
2042.590098110633
 31
0.0
  0
LINE
  5
1D0
330
189
100
AcDbEntity
  8
P-SANR-FIXT
100
AcDbLine
 10
1232.843552027421
 20
2042.590098110633
 30
0.0
 11
1223.045593056288
 21
2042.590098110633
 31
0.0
  0
LINE
  5
1D1
330
189
100
AcDbEntity
  8
P-SANR-FIXT
100
AcDbLine
 10
1222.863156828897
 20
2042.590098110633
 30
0.0
 11
1223.045593056288
 21
2042.590098110633
 31
0.0
  0
LINE
  5
1D2
330
189
100
AcDbEntity
  8
P-SANR-FIXT
100
AcDbLine
 10
1272.680720601505
 20
2042.590098110633
 30
0.0
 11
1272.863156828897
 21
2042.590098110633
 31
0.0
  0
LINE
  5
1D3
330
189
100
AcDbEntity
  8
P-SANR-FIXT
100
AcDbLine
 10
1272.680720601505
 20
2042.590098110633
 30
0.0
 11
1262.882761630372
 21
2042.590098110633
 31
0.0
  0
LINE
  5
1D4
330
189
100
AcDbEntity
  8
P-SANR-FIXT
100
AcDbLine
 10
1257.661115800029
 20
2042.590098110633
 30
0.0
 11
1262.882761630372
 21
2042.590098110633
 31
0.0
  0
LINE
  5
1D5
330
189
100
AcDbEntity
  8
P-SANR-FIXT
100
AcDbLine
 10
1257.661115800029
 20
2042.590098110633
 30
0.0
 11
1247.863156828897
 21
2042.590098110633
 31
0.0
  0
LWPOLYLINE
  5
1D6
330
189
100
AcDbEntity
  8
P-SANR-FIXT
100
AcDbPolyline
 90
        4
 70
   128
 43
0.0
 10
1231.655957123171
 20
2037.498196168304
 10
1236.662880691449
 20
2038.099672723977
 10
1242.142339293298
 20
2038.471018162678
 10
1247.863156828897
 20
2038.596565573415
  0
LWPOLYLINE
  5
1D7
330
189
100
AcDbEntity
  8
P-SANR-FIXT
100
AcDbPolyline
 90
        4
 70
   128
 43
0.0
 10
1247.863156828897
 20
2038.596565573415
 10
1253.583974364496
 20
2038.471018162678
 10
1259.063432966345
 20
2038.099672723977
 10
1264.070356534623
 20
2037.498196168304
  0
LINE
  5
1D8
330
189
100
AcDbEntity
  8
P-SANR-FIXT
100
AcDbLine
 10
1207.863156828897
 20
1970.998183850011
 30
0.0
 11
1247.863156828896
 21
1970.998183850011
 31
0.0
  0
LINE
  5
1D9
330
189
100
AcDbEntity
  8
P-SANR-FIXT
100
AcDbLine
 10
1247.863156828897
 20
1970.998183850011
 30
0.0
 11
1287.863156828897
 21
1970.998183850011
 31
0.0
  0
LINE
  5
1DA
330
189
100
AcDbEntity
  8
P-SANR-FIXT
100
AcDbLine
 10
1247.863156828897
 20
2006.498183850011
 30
0.0
 11
1210.034596190142
 21
2006.498183850011
 31
0.0
  0
LINE
  5
1DB
330
189
100
AcDbEntity
  8
P-SANR-FIXT
100
AcDbLine
 10
1210.034596190142
 20
2006.498183850011
 30
0.0
 11
1209.934393658693
 21
2006.498183850011
 31
0.0
  0
LINE
  5
1DC
330
189
100
AcDbEntity
  8
P-SANR-FIXT
100
AcDbLine
 10
1209.891127504606
 20
2006.498183850011
 30
0.0
 11
1207.863156828897
 21
2006.498183850011
 31
0.0
  0
LINE
  5
1DD
330
189
100
AcDbEntity
  8
P-SANR-FIXT
100
AcDbLine
 10
1287.863156828896
 20
2006.498183850011
 30
0.0
 11
1285.835186153187
 21
2006.498183850011
 31
0.0
  0
LINE
  5
1DE
330
189
100
AcDbEntity
  8
P-SANR-FIXT
100
AcDbLine
 10
1285.7919199991
 20
2006.498183850011
 30
0.0
 11
1285.691717467652
 21
2006.498183850011
 31
0.0
  0
LINE
  5
1DF
330
189
100
AcDbEntity
  8
P-SANR-FIXT
100
AcDbLine
 10
1285.691717467652
 20
2006.498183850011
 30
0.0
 11
1247.863156828897
 21
2006.498183850011
 31
0.0
  0
LINE
  5
1E0
330
189
100
AcDbEntity
  8
P-SANR-FIXT
100
AcDbLine
 10
1221.363156828897
 20
1937.998183850011
 30
0.0
 11
1247.863156828896
 21
1937.998183850011
 31
0.0
  0
LINE
  5
1E1
330
189
100
AcDbEntity
  8
P-SANR-FIXT
100
AcDbLine
 10
1247.863156828897
 20
1937.998183850011
 30
0.0
 11
1274.363156828896
 21
1937.998183850011
 31
0.0
  0
SPLINE
  5
1E2
330
189
100
AcDbEntity
  8
P-SANR-FIXT
100
AcDbSpline
210
0.0
220
0.0
230
1.0
 70
     8
 71
     3
 72
     9
 73
     5
 74
     0
 42
0.000000001
 43
0.0000000001
 40
-1.0
 40
-1.0
 40
-1.0
 40
-1.0
 40
-0.5
 40
0.0
 40
0.0
 40
0.0
 40
0.0
 10
1232.882401886455
 20
2037.031208610557
 30
0.0
 10
1232.401008848181
 20
2036.963757422459
 30
0.0
 10
1231.460706400984
 20
2036.822787817708
 30
0.0
 10
1230.565371212488
 20
2036.669683755844
 30
0.0
 10
1230.128945432916
 20
2036.590098110633
 30
0.0
  0
SPLINE
  5
1E3
330
189
100
AcDbEntity
  8
P-SANR-FIXT
100
AcDbSpline
210
0.0
220
0.0
230
1.0
 70
     8
 71
     3
 72
    15
 73
    11
 74
     0
 42
0.000000001
 43
0.0000000001
 40
-1.0
 40
-1.0
 40
-1.0
 40
-1.0
 40
-0.7857142857142857
 40
-0.7321428571428572
 40
-0.6785714285714287
 40
-0.5714285714285714
 40
-0.4285714285714286
 40
-0.2857142857142857
 40
-0.1428571428571428
 40
0.0
 40
0.0
 40
0.0
 40
0.0
 10
1227.030795306133
 20
2036.590098110633
 30
0.0
 10
1226.714664932832
 20
2036.590098110633
 30
0.0
 10
1226.317062299173
 20
2036.501484632199
 30
0.0
 10
1225.837146433627
 20
2036.272044885844
 30
0.0
 10
1225.520661777105
 20
2036.086119418795
 30
0.0
 10
1225.075409780288
 20
2035.755752373453
 30
0.0
 10
1224.517929193727
 20
2035.197692470715
 30
0.0
 10
1223.942987678443
 20
2034.442277515053
 30
0.0
 10
1223.412822843409
 20
2033.564236803716
 30
0.0
 10
1223.107737061281
 20
2032.918665002464
 30
0.0
 10
1222.965741337102
 20
2032.590098110633
 30
0.0
  0
ARC
  5
1E4
330
189
100
AcDbEntity
  8
P-SANR-FIXT
100
AcDbCircle
 10
2352.20387799448
 20
1554.820618243775
 30
0.0
 40
1226.149438353122
100
AcDbArc
 50
157.0672590447957
 51
157.3164343860432
  0
LINE
  5
1E5
330
189
100
AcDbEntity
  8
P-SANR-FIXT
100
AcDbLine
 10
1213.608260865405
 20
2009.963696913602
 30
0.0
 11
1213.012909559039
 21
2008.498183850028
 31
0.0
  0
SPLINE
  5
1E6
330
189
100
AcDbEntity
  8
P-SANR-FIXT
100
AcDbSpline
210
0.0
220
0.0
230
1.0
 70
     8
 71
     3
 72
    15
 73
    11
 74
     0
 42
0.000000001
 43
0.0000000001
 40
-1.0
 40
-1.0
 40
-1.0
 40
-1.0
 40
-0.7857142857142857
 40
-0.7321428571428572
 40
-0.6785714285714287
 40
-0.5714285714285714
 40
-0.4285714285714286
 40
-0.2857142857142857
 40
-0.1428571428571428
 40
0.0
 40
0.0
 40
0.0
 40
0.0
 10
1213.012909559032
 20
2008.498183850011
 30
0.0
 10
1212.924520383564
 20
2008.284571568934
 30
0.0
 10
1212.829759435047
 20
2008.012089995144
 30
0.0
 10
1212.740272012888
 20
2007.699831711169
 30
0.0
 10
1212.690123854424
 20
2007.497376139522
 30
0.0
 10
1212.636050623374
 20
2007.226257364943
 30
0.0
 10
1212.611035291193
 20
2006.923433729094
 30
0.0
 10
1212.643068196447
 20
2006.677051551112
 30
0.0
 10
1212.734479739756
 20
2006.529388798642
 30
0.0
 10
1212.826732445348
 20
2006.498183850011
 30
0.0
 10
1212.881376224155
 20
2006.498183850011
 30
0.0
  0
SPLINE
  5
1E7
330
189
100
AcDbEntity
  8
P-SANR-FIXT
100
AcDbSpline
210
0.0
220
0.0
230
1.0
 70
     8
 71
     3
 72
    13
 73
     9
 74
     0
 42
0.000000001
 43
0.0000000001
 40
-1.0
 40
-1.0
 40
-1.0
 40
-1.0
 40
-0.7857142857142857
 40
-0.5714285714285714
 40
-0.4285714285714286
 40
-0.2857142857142857
 40
-0.1428571428571428
 40
0.0
 40
0.0
 40
0.0
 40
0.0
 10
1282.844937433638
 20
2006.498183850011
 30
0.0
 10
1282.92690310185
 20
2006.498183850011
 30
0.0
 10
1283.055263426826
 20
2006.568953623228
 30
0.0
 10
1283.120294398481
 20
2006.868181519543
 30
0.0
 10
1283.087627753311
 20
2007.253843197397
 30
0.0
 10
1283.005738473637
 20
2007.643960866351
 30
0.0
 10
1282.8781738806
 20
2008.067224705751
 30
0.0
 10
1282.77233021574
 20
2008.355775662626
 30
0.0
 10
1282.713404098762
 20
2008.498183850011
 30
0.0
  0
LINE
  5
1E8
330
189
100
AcDbEntity
  8
P-SANR-FIXT
100
AcDbLine
 10
1282.713404098769
 20
2008.498183849996
 30
0.0
 11
1282.119001177867
 21
2009.961364236328
 31
0.0
  0
ARC
  5
1E9
330
189
100
AcDbEntity
  8
P-SANR-FIXT
100
AcDbCircle
 10
143.4616656000932
 20
1554.795011534943
 30
0.0
 40
1226.215382987918
100
AcDbArc
 50
22.68345678920858
 51
22.93273645814215
  0
SPLINE
  5
1EA
330
189
100
AcDbEntity
  8
P-SANR-FIXT
100
AcDbSpline
210
0.0
220
0.0
230
1.0
 70
     8
 71
     3
 72
    14
 73
    10
 74
     0
 42
0.000000001
 43
0.0000000001
 40
-1.0
 40
-1.0
 40
-1.0
 40
-1.0
 40
-0.8571428571428571
 40
-0.7142857142857143
 40
-0.5714285714285714
 40
-0.4285714285714286
 40
-0.2857142857142857
 40
-0.1428571428571428
 40
0.0
 40
0.0
 40
0.0
 40
0.0
 10
1272.760572320691
 20
2032.590098110633
 30
0.0
 10
1272.618576596513
 20
2032.918665002464
 30
0.0
 10
1272.313498167896
 20
2033.564238684083
 30
0.0
 10
1271.783300242061
 20
2034.442270933767
 30
0.0
 10
1271.208480059712
 20
2035.197716915491
 30
0.0
 10
1270.599867178889
 20
2035.806393894066
 30
0.0
 10
1269.970045124743
 20
2036.252884246326
 30
0.0
 10
1269.328361143449
 20
2036.527144616692
 30
0.0
 10
1268.906271933861
 20
2036.590098110633
 30
0.0
 10
1268.69551835166
 20
2036.590098110633
 30
0.0
  0
SPLINE
  5
1EB
330
189
100
AcDbEntity
  8
P-SANR-FIXT
100
AcDbSpline
210
0.0
220
0.0
230
1.0
 70
     8
 71
     3
 72
     9
 73
     5
 74
     0
 42
0.000000001
 43
0.0000000001
 40
-1.0
 40
-1.0
 40
-1.0
 40
-1.0
 40
-0.5
 40
0.0
 40
0.0
 40
0.0
 40
0.0
 10
1265.597368224878
 20
2036.590098110633
 30
0.0
 10
1265.160942445305
 20
2036.669683755844
 30
0.0
 10
1264.265607256809
 20
2036.822787817708
 30
0.0
 10
1263.325304809612
 20
2036.963757422459
 30
0.0
 10
1262.843911771339
 20
2037.031208610557
 30
0.0
  0
ARC
  5
1EC
330
189
100
AcDbEntity
  8
P-SANR-FIXT
100
AcDbCircle
 10
3426.695758067964
 20
1116.44474640136
 30
0.0
 40
2389.259881321253
100
AcDbArc
 50
157.4528765033247
 51
158.0770292942152
  0
SPLINE
  5
1ED
330
189
100
AcDbEntity
  8
P-SANR-FIXT
100
AcDbSpline
210
0.0
220
0.0
230
1.0
 70
     8
 71
     3
 72
    14
 73
    10
 74
     0
 42
0.000000001
 43
0.0000000001
 40
-1.0
 40
-1.0
 40
-1.0
 40
-1.0
 40
-0.8571428571428571
 40
-0.7142857142857143
 40
-0.5714285714285714
 40
-0.4285714285714286
 40
-0.2857142857142857
 40
-0.1428571428571428
 40
0.0
 40
0.0
 40
0.0
 40
0.0
 10
1220.060202514499
 20
2032.590098110633
 30
0.0
 10
1220.196685340334
 20
2032.911612756956
 30
0.0
 10
1220.487573108766
 20
2033.545254986396
 30
0.0
 10
1220.986098203778
 20
2034.414365550377
 30
0.0
 10
1221.52153546494
 20
2035.169605018454
 30
0.0
 10
1222.083608132682
 20
2035.784786100792
 30
0.0
 10
1222.660065983437
 20
2036.241100151018
 30
0.0
 10
1223.24148083511
 20
2036.524403040418
 30
0.0
 10
1223.618018382746
 20
2036.590098110633
 30
0.0
 10
1223.804717153257
 20
2036.590098110633
 30
0.0
  0
LINE
  5
1EE
330
189
100
AcDbEntity
  8
P-SANR-FIXT
100
AcDbLine
 10
1223.804717153257
 20
2036.590098110633
 30
0.0
 11
1226.431323336434
 21
2036.590098110633
 31
0.0
  0
SPLINE
  5
1EF
330
189
100
AcDbEntity
  8
P-SANR-FIXT
100
AcDbSpline
210
0.0
220
0.0
230
1.0
 70
     8
 71
     3
 72
     9
 73
     5
 74
     0
 42
0.000000001
 43
0.0000000001
 40
-1.0
 40
-1.0
 40
-1.0
 40
-1.0
 40
-0.5
 40
0.0
 40
0.0
 40
0.0
 40
0.0
 10
1226.431323336435
 20
2036.590098110633
 30
0.0
 10
1227.219623115186
 20
2036.761963196559
 30
0.0
 10
1228.878695191726
 20
2037.085177958764
 30
0.0
 10
1230.702712306343
 20
2037.367361901674
 30
0.0
 10
1231.655957123171
 20
2037.498196168304
 30
0.0
  0
LINE
  5
1F0
330
189
100
AcDbEntity
  8
P-SANR-FIXT
100
AcDbLine
 10
1219.863161597268
 20
2037.498196168304
 30
0.0
 11
1231.65595712317
 21
2037.498196168304
 31
0.0
  0
SPLINE
  5
1F1
330
189
100
AcDbEntity
  8
P-SANR-FIXT
100
AcDbSpline
210
0.0
220
0.0
230
1.0
 70
     8
 71
     3
 72
     8
 73
     4
 74
     0
 42
0.000000001
 43
0.0000000001
 40
-1.0
 40
-1.0
 40
-1.0
 40
-1.0
 40
-0.8571428571428572
 40
-0.8571428571428572
 40
-0.8571428571428572
 40
-0.8571428571428572
 10
1210.034596190142
 20
2006.498183850011
 30
0.0
 10
1209.983601753798
 20
2006.498183850011
 30
0.0
 10
1209.940553566826
 20
2006.514232939428
 30
0.0
 10
1209.906006245939
 20
2006.547022266114
 30
0.0
  0
SPLINE
  5
1F2
330
189
100
AcDbEntity
  8
P-SANR-FIXT
100
AcDbSpline
210
0.0
220
0.0
230
1.0
 70
     8
 71
     3
 72
    13
 73
     9
 74
     0
 42
0.000000001
 43
0.0000000001
 40
-0.8214285714285816
 40
-0.8214285714285816
 40
-0.8214285714285816
 40
-0.8214285714285816
 40
-0.7857142857142857
 40
-0.5714285714285714
 40
-0.4285714285714286
 40
-0.2857142857142857
 40
-0.1428571428571428
 40
0.0
 40
0.0
 40
0.0
 40
0.0
 10
1209.881698333551
 20
2006.5747638548
 30
0.0
 10
1209.874132777475
 20
2006.585064515316
 30
0.0
 10
1209.824953675064
 20
2006.664568587021
 30
0.0
 10
1209.789917192911
 20
2006.871729023216
 30
0.0
 10
1209.831314418959
 20
2007.257354073281
 30
0.0
 10
1209.917853177063
 20
2007.646417914638
 30
0.0
 10
1210.047339747882
 20
2008.068393134138
 30
0.0
 10
1210.152904241156
 20
2008.356137150119
 30
0.0
 10
1210.211279162844
 20
2008.498183850011
 30
0.0
  0
ARC
  5
1F3
330
189
100
AcDbEntity
  8
P-SANR-FIXT
100
AcDbCircle
 10
-930.9694444395093
 20
1116.444746389366
 30
0.0
 40
2389.259881352952
100
AcDbArc
 50
21.92297070578969
 51
22.5471234966719
  0
SPLINE
  5
1F4
330
189
100
AcDbEntity
  8
P-SANR-FIXT
100
AcDbSpline
210
0.0
220
0.0
230
1.0
 70
     8
 71
     3
 72
    14
 73
    10
 74
     0
 42
0.000000001
 43
0.0000000001
 40
-1.0
 40
-1.0
 40
-1.0
 40
-1.0
 40
-0.7857142857142857
 40
-0.7321428571428572
 40
-0.6785714285714287
 40
-0.5714285714285714
 40
-0.4285714285714286
 40
-0.2857142857142857
 40
-0.1785714285714185
 40
-0.1785714285714185
 40
-0.1785714285714185
 40
-0.1785714285714185
 10
1285.515034494949
 20
2008.498183850011
 30
0.0
 10
1285.602596877481
 20
2008.285113800173
 30
0.0
 10
1285.697453118237
 20
2008.013444074958
 30
0.0
 10
1285.788757549701
 20
2007.702112320333
 30
0.0
 10
1285.840657153785
 20
2007.500227122063
 30
0.0
 10
1285.898246728861
 20
2007.229775546038
 30
0.0
 10
1285.930155061277
 20
2006.926966490012
 30
0.0
 10
1285.909814422391
 20
2006.700007017033
 30
0.0
 10
1285.867247227322
 20
2006.605720840031
 30
0.0
 10
1285.844317230149
 20
2006.574758577528
 30
0.0
  0
SPLINE
  5
1F5
330
189
100
AcDbEntity
  8
P-SANR-FIXT
100
AcDbSpline
210
0.0
220
0.0
230
1.0
 70
     8
 71
     3
 72
     8
 73
     4
 74
     0
 42
0.000000001
 43
0.0000000001
 40
-0.1428571428571428
 40
-0.1428571428571428
 40
-0.1428571428571428
 40
-0.1428571428571428
 40
0.0
 40
0.0
 40
0.0
 40
0.0
 10
1285.819852857104
 20
2006.546953764259
 30
0.0
 10
1285.785225096744
 20
2006.514102278272
 30
0.0
 10
1285.742711903996
 20
2006.498183850011
 30
0.0
 10
1285.691717467652
 20
2006.498183850011
 30
0.0
  0
LINE
  5
1F6
330
189
100
AcDbEntity
  8
P-SANR-FIXT
100
AcDbLine
 10
1264.070356534622
 20
2037.498196168304
 30
0.0
 11
1275.863152060525
 21
2037.498196168304
 31
0.0
  0
SPLINE
  5
1F7
330
189
100
AcDbEntity
  8
P-SANR-FIXT
100
AcDbSpline
210
0.0
220
0.0
230
1.0
 70
     8
 71
     3
 72
     9
 73
     5
 74
     0
 42
0.000000001
 43
0.0000000001
 40
-1.0
 40
-1.0
 40
-1.0
 40
-1.0
 40
-0.5
 40
0.0
 40
0.0
 40
0.0
 40
0.0
 10
1264.070356534623
 20
2037.498196168304
 30
0.0
 10
1265.02360135145
 20
2037.367361901674
 30
0.0
 10
1266.847618466067
 20
2037.085177958763
 30
0.0
 10
1268.506690542607
 20
2036.761963196559
 30
0.0
 10
1269.294990321359
 20
2036.590098110633
 30
0.0
  0
LINE
  5
1F8
330
189
100
AcDbEntity
  8
P-SANR-FIXT
100
AcDbLine
 10
1269.294990321359
 20
2036.590098110633
 30
0.0
 11
1271.921596504537
 21
2036.590098110633
 31
0.0
  0
SPLINE
  5
1F9
330
189
100
AcDbEntity
  8
P-SANR-FIXT
100
AcDbSpline
210
0.0
220
0.0
230
1.0
 70
     8
 71
     3
 72
    14
 73
    10
 74
     0
 42
0.000000001
 43
0.0000000001
 40
-1.0
 40
-1.0
 40
-1.0
 40
-1.0
 40
-0.8571428571428571
 40
-0.7142857142857144
 40
-0.5714285714285714
 40
-0.4285714285714286
 40
-0.2857142857142857
 40
-0.1428571428571428
 40
0.0
 40
0.0
 40
0.0
 40
0.0
 10
1271.921596504537
 20
2036.590098110633
 30
0.0
 10
1272.108295275048
 20
2036.590098110633
 30
0.0
 10
1272.484832822683
 20
2036.524403040418
 30
0.0
 10
1273.066247674357
 20
2036.241100151018
 30
0.0
 10
1273.642705525112
 20
2035.784786100792
 30
0.0
 10
1274.204778192853
 20
2035.169605018454
 30
0.0
 10
1274.740215454015
 20
2034.414365550377
 30
0.0
 10
1275.238740549028
 20
2033.545254986396
 30
0.0
 10
1275.52962831746
 20
2032.911612756956
 30
0.0
 10
1275.666111143294
 20
2032.590098110633
 30
0.0
  0
ARC
  5
1FA
330
189
100
AcDbEntity
  8
P-SANR-FIXT
100
AcDbCircle
 10
1215.426842892865
 20
2010.796018611831
 30
0.0
 40
1.999999999999849
100
AcDbArc
 50
158.0770292942169
 51
204.592441976311
  0
LINE
  5
1FB
330
189
100
AcDbEntity
  8
P-SANR-FIXT
100
AcDbLine
 10
1213.571469606574
 20
2011.54273808293
 30
0.0
 11
1219.182407992665
 21
2025.484232306003
 31
0.0
  0
ARC
  5
1FC
330
189
100
AcDbEntity
  8
P-SANR-FIXT
100
AcDbCircle
 10
1223.820841208392
 20
2023.617433628257
 30
0.0
 40
4.999999999999841
100
AcDbArc
 50
125.7634478902989
 51
158.0770292942163
  0
ARC
  5
1FD
330
189
100
AcDbEntity
  8
P-SANR-FIXT
100
AcDbCircle
 10
1271.903219527465
 20
2023.617433628256
 30
0.0
 40
4.999999999999785
100
AcDbArc
 50
21.93807360732044
 51
54.19099889795454
  0
LINE
  5
1FE
330
189
100
AcDbEntity
  8
P-SANR-FIXT
100
AcDbLine
 10
1276.541160502587
 20
2025.4854549106
 30
0.0
 11
1282.156664961767
 21
2011.543227124768
 31
0.0
  0
ARC
  5
1FF
330
189
100
AcDbEntity
  8
P-SANR-FIXT
100
AcDbCircle
 10
1280.301488571718
 20
2010.796018611831
 30
0.0
 40
1.999999999999973
100
AcDbArc
 50
335.3340436870681
 51
21.93807360731952
  0
LINE
  5
200
330
189
100
AcDbEntity
  8
P-SANR-FIXT
100
AcDbLine
 10
1230.128945432916
 20
2036.590098110633
 30
0.0
 11
1226.582775138304
 21
2036.590098110633
 31
0.0
  0
LINE
  5
201
330
189
100
AcDbEntity
  8
P-SANR-FIXT
100
AcDbLine
 10
1269.143538519489
 20
2036.590098110633
 30
0.0
 11
1265.597368224878
 21
2036.590098110633
 31
0.0
  0
LWPOLYLINE
  5
202
330
189
100
AcDbEntity
  8
P-SANR-FIXT
100
AcDbPolyline
 90
        4
 70
   128
 43
0.0
 10
1232.882401886455
 20
2037.031208610557
 10
1237.49722030595
 20
2037.597127060958
 10
1242.564539239553
 20
2037.94687133435
 10
1247.863156828897
 20
2038.06517416924
  0
LWPOLYLINE
  5
203
330
189
100
AcDbEntity
  8
P-SANR-FIXT
100
AcDbPolyline
 90
        4
 70
   128
 43
0.0
 10
1247.863156828897
 20
2038.06517416924
 10
1253.16177441824
 20
2037.94687133435
 10
1258.229093351843
 20
2037.597127060958
 10
1262.843911771339
 20
2037.031208610557
  0
ARC
  5
204
330
189
100
AcDbEntity
  8
P-SANR-FIXT
100
AcDbCircle
 10
1247.863156828896
 20
2095.497158594636
 30
0.0
 40
14.85000000006312
100
AcDbArc
 50
90.0
 51
269.9999999999997
  0
ARC
  5
205
330
189
100
AcDbEntity
  8
P-SANR-FIXT
100
AcDbCircle
 10
1247.863156828896
 20
2095.497158594636
 30
0.0
 40
14.85000000006312
100
AcDbArc
 50
269.9999999999997
 51
90.0
  0
ARC
  5
206
330
189
100
AcDbEntity
  8
P-SANR-FIXT
100
AcDbCircle
 10
1247.863156828897
 20
2095.497158594636
 30
0.0
 40
16.85000000000011
100
AcDbArc
 50
95.00000000000062
 51
95.6278813628071
  0
ARC
  5
207
330
189
100
AcDbEntity
  8
P-SANR-FIXT
100
AcDbCircle
 10
1247.863156828897
 20
2095.497158594636
 30
0.0
 40
16.85000000000018
100
AcDbArc
 50
99.99999999999971
 51
101.2587722184131
  0
ARC
  5
208
330
189
100
AcDbEntity
  8
P-SANR-FIXT
100
AcDbCircle
 10
1247.863156828897
 20
2095.497158594636
 30
0.0
 40
16.8500000000003
100
AcDbArc
 50
104.9999999999999
 51
106.8909385106642
  0
ARC
  5
209
330
189
100
AcDbEntity
  8
P-SANR-FIXT
100
AcDbCircle
 10
1247.863156828897
 20
2095.497158594636
 30
0.0
 40
16.84999999999998
100
AcDbArc
 50
110.0000000000004
 51
115.0000000000004
  0
ARC
  5
20A
330
189
100
AcDbEntity
  8
P-SANR-FIXT
100
AcDbCircle
 10
1247.863156828897
 20
2095.497158594636
 30
0.0
 40
16.85000000000034
100
AcDbArc
 50
118.1518079189346
 51
120.0000000000001
  0
ARC
  5
20B
330
189
100
AcDbEntity
  8
P-SANR-FIXT
100
AcDbCircle
 10
1247.863156828897
 20
2095.497158594636
 30
0.0
 40
16.85000000000016
100
AcDbArc
 50
123.7763607328361
 51
125.000000000001
  0
ARC
  5
20C
330
189
100
AcDbEntity
  8
P-SANR-FIXT
100
AcDbCircle
 10
1247.863156828897
 20
2095.497158594636
 30
0.0
 40
16.85000000000023
100
AcDbArc
 50
129.3935715059917
 51
130.000000000001
  0
ARC
  5
20D
330
189
100
AcDbEntity
  8
P-SANR-FIXT
100
AcDbCircle
 10
1247.863156828897
 20
2095.497158594636
 30
0.0
 40
16.85000000000021
100
AcDbArc
 50
140.0000000000001
 51
140.6064284940105
  0
ARC
  5
20E
330
189
100
AcDbEntity
  8
P-SANR-FIXT
100
AcDbCircle
 10
1247.863156828897
 20
2095.497158594636
 30
0.0
 40
16.85000000000025
100
AcDbArc
 50
145.0000000000007
 51
146.2236392671658
  0
ARC
  5
20F
330
189
100
AcDbEntity
  8
P-SANR-FIXT
100
AcDbCircle
 10
1247.863156828897
 20
2095.497158594636
 30
0.0
 40
16.85000000000015
100
AcDbArc
 50
150.0000000000009
 51
151.8481920810677
  0
ARC
  5
210
330
189
100
AcDbEntity
  8
P-SANR-FIXT
100
AcDbCircle
 10
1247.863156828897
 20
2095.497158594636
 30
0.0
 40
16.85000000000012
100
AcDbArc
 50
155.0000000000009
 51
160.0000000000003
  0
ARC
  5
211
330
189
100
AcDbEntity
  8
P-SANR-FIXT
100
AcDbCircle
 10
1247.863156828897
 20
2095.497158594636
 30
0.0
 40
16.85000000000001
100
AcDbArc
 50
163.1090614893366
 51
165.0000000000009
  0
ARC
  5
212
330
189
100
AcDbEntity
  8
P-SANR-FIXT
100
AcDbCircle
 10
1247.863156828897
 20
2095.497158594636
 30
0.0
 40
16.85000000000026
100
AcDbArc
 50
168.7412277815895
 51
170.0000000000008
  0
ARC
  5
213
330
189
100
AcDbEntity
  8
P-SANR-FIXT
100
AcDbCircle
 10
1247.863156828897
 20
2095.497158594636
 30
0.0
 40
16.85000000000008
100
AcDbArc
 50
174.3721186371959
 51
175.0000000000009
  0
ARC
  5
214
330
189
100
AcDbEntity
  8
P-SANR-FIXT
100
AcDbCircle
 10
1247.863156828897
 20
2095.497158594636
 30
0.0
 40
16.85000000000007
100
AcDbArc
 50
185.0000000000003
 51
185.6278813628067
  0
ARC
  5
215
330
189
100
AcDbEntity
  8
P-SANR-FIXT
100
AcDbCircle
 10
1247.863156828897
 20
2095.497158594636
 30
0.0
 40
16.85000000000018
100
AcDbArc
 50
190.0000000000001
 51
191.2587722184129
  0
ARC
  5
216
330
189
100
AcDbEntity
  8
P-SANR-FIXT
100
AcDbCircle
 10
1247.863156828897
 20
2095.497158594636
 30
0.0
 40
16.8500000000003
100
AcDbArc
 50
194.9999999999999
 51
196.8909385106641
  0
ARC
  5
217
330
189
100
AcDbEntity
  8
P-SANR-FIXT
100
AcDbCircle
 10
1247.863156828897
 20
2095.497158594636
 30
0.0
 40
16.84999999999991
100
AcDbArc
 50
200.0000000000001
 51
204.9999999999992
  0
ARC
  5
218
330
189
100
AcDbEntity
  8
P-SANR-FIXT
100
AcDbCircle
 10
1247.863156828897
 20
2095.497158594636
 30
0.0
 40
16.85000000000012
100
AcDbArc
 50
208.1518079189327
 51
209.9999999999996
  0
ARC
  5
219
330
189
100
AcDbEntity
  8
P-SANR-FIXT
100
AcDbCircle
 10
1247.863156828897
 20
2095.497158594636
 30
0.0
 40
16.8500000000001
100
AcDbArc
 50
213.7763607328348
 51
214.9999999999999
  0
ARC
  5
21A
330
189
100
AcDbEntity
  8
P-SANR-FIXT
100
AcDbCircle
 10
1247.863156828897
 20
2095.497158594636
 30
0.0
 40
16.84999999999994
100
AcDbArc
 50
219.3935715059906
 51
219.9999999999997
  0
ARC
  5
21B
330
189
100
AcDbEntity
  8
P-SANR-FIXT
100
AcDbCircle
 10
1247.863156828897
 20
2095.497158594636
 30
0.0
 40
16.85000000000021
100
AcDbArc
 50
229.999999999999
 51
230.6064284940082
  0
ARC
  5
21C
330
189
100
AcDbEntity
  8
P-SANR-FIXT
100
AcDbCircle
 10
1247.863156828897
 20
2095.497158594636
 30
0.0
 40
16.85000000000006
100
AcDbArc
 50
234.9999999999992
 51
236.2236392671638
  0
ARC
  5
21D
330
189
100
AcDbEntity
  8
P-SANR-FIXT
100
AcDbCircle
 10
1247.863156828897
 20
2095.497158594636
 30
0.0
 40
16.84999999999995
100
AcDbArc
 50
239.999999999999
 51
241.8481920810659
  0
ARC
  5
21E
330
189
100
AcDbEntity
  8
P-SANR-FIXT
100
AcDbCircle
 10
1247.863156828897
 20
2095.497158594636
 30
0.0
 40
16.84999999999992
100
AcDbArc
 50
244.9999999999996
 51
249.9999999999995
  0
ARC
  5
21F
330
189
100
AcDbEntity
  8
P-SANR-FIXT
100
AcDbCircle
 10
1247.863156828897
 20
2095.497158594636
 30
0.0
 40
16.85000000000007
100
AcDbArc
 50
253.1090614893347
 51
254.9999999999999
  0
ARC
  5
220
330
189
100
AcDbEntity
  8
P-SANR-FIXT
100
AcDbCircle
 10
1247.863156828897
 20
2095.497158594636
 30
0.0
 40
16.85000000000004
100
AcDbArc
 50
258.7412277815869
 51
259.9999999999999
  0
ARC
  5
221
330
189
100
AcDbEntity
  8
P-SANR-FIXT
100
AcDbCircle
 10
1247.863156828897
 20
2095.497158594636
 30
0.0
 40
16.84999999999987
100
AcDbArc
 50
264.3721186371924
 51
264.999999999999
  0
ARC
  5
222
330
189
100
AcDbEntity
  8
P-SANR-FIXT
100
AcDbCircle
 10
1247.863156828897
 20
2095.497158594636
 30
0.0
 40
16.84999999999985
100
AcDbArc
 50
274.9999999999988
 51
275.6278813628045
  0
ARC
  5
223
330
189
100
AcDbEntity
  8
P-SANR-FIXT
100
AcDbCircle
 10
1247.863156828897
 20
2095.497158594636
 30
0.0
 40
16.85000000000018
100
AcDbArc
 50
279.9999999999993
 51
281.2587722184107
  0
ARC
  5
224
330
189
100
AcDbEntity
  8
P-SANR-FIXT
100
AcDbCircle
 10
1247.863156828897
 20
2095.497158594636
 30
0.0
 40
16.85000000000008
100
AcDbArc
 50
284.9999999999996
 51
286.8909385106629
  0
ARC
  5
225
330
189
100
AcDbEntity
  8
P-SANR-FIXT
100
AcDbCircle
 10
1247.863156828897
 20
2095.497158594636
 30
0.0
 40
16.84999999999991
100
AcDbArc
 50
289.9999999999991
 51
294.999999999999
  0
ARC
  5
226
330
189
100
AcDbEntity
  8
P-SANR-FIXT
100
AcDbCircle
 10
1247.863156828897
 20
2095.497158594636
 30
0.0
 40
16.84999999999982
100
AcDbArc
 50
298.151807918932
 51
299.9999999999996
  0
ARC
  5
227
330
189
100
AcDbEntity
  8
P-SANR-FIXT
100
AcDbCircle
 10
1247.863156828897
 20
2095.497158594636
 30
0.0
 40
16.84999999999978
100
AcDbArc
 50
303.7763607328334
 51
304.9999999999981
  0
ARC
  5
228
330
189
100
AcDbEntity
  8
P-SANR-FIXT
100
AcDbCircle
 10
1247.863156828897
 20
2095.497158594636
 30
0.0
 40
16.84999999999998
100
AcDbArc
 50
309.3935715059883
 51
309.9999999999991
  0
ARC
  5
229
330
189
100
AcDbEntity
  8
P-SANR-FIXT
100
AcDbCircle
 10
1247.863156828897
 20
2095.497158594636
 30
0.0
 40
16.85000000000007
100
AcDbArc
 50
319.9999999999988
 51
320.6064284940079
  0
ARC
  5
22A
330
189
100
AcDbEntity
  8
P-SANR-FIXT
100
AcDbCircle
 10
1247.863156828897
 20
2095.497158594636
 30
0.0
 40
16.84999999999974
100
AcDbArc
 50
324.9999999999982
 51
326.2236392671638
  0
ARC
  5
22B
330
189
100
AcDbEntity
  8
P-SANR-FIXT
100
AcDbCircle
 10
1247.863156828897
 20
2095.497158594636
 30
0.0
 40
16.84999999999995
100
AcDbArc
 50
329.9999999999989
 51
331.8481920810657
  0
ARC
  5
22C
330
189
100
AcDbEntity
  8
P-SANR-FIXT
100
AcDbCircle
 10
1247.863156828897
 20
2095.497158594636
 30
0.0
 40
16.85000000000001
100
AcDbArc
 50
334.9999999999987
 51
339.9999999999983
  0
ARC
  5
22D
330
189
100
AcDbEntity
  8
P-SANR-FIXT
100
AcDbCircle
 10
1247.863156828897
 20
2095.497158594636
 30
0.0
 40
16.85000000000001
100
AcDbArc
 50
343.1090614893349
 51
344.9999999999988
  0
ARC
  5
22E
330
189
100
AcDbEntity
  8
P-SANR-FIXT
100
AcDbCircle
 10
1247.863156828897
 20
2095.497158594636
 30
0.0
 40
16.85000000000004
100
AcDbArc
 50
348.7412277815863
 51
349.9999999999989
  0
ARC
  5
22F
330
189
100
AcDbEntity
  8
P-SANR-FIXT
100
AcDbCircle
 10
1247.863156828897
 20
2095.497158594636
 30
0.0
 40
16.84999999999983
100
AcDbArc
 50
354.3721186371926
 51
354.999999999999
  0
ARC
  5
230
330
189
100
AcDbEntity
  8
P-SANR-FIXT
100
AcDbCircle
 10
1247.863156828897
 20
2095.497158594636
 30
0.0
 40
16.84999999999987
100
AcDbArc
 50
4.999999999999078
 51
5.627881362804035
  0
ARC
  5
231
330
189
100
AcDbEntity
  8
P-SANR-FIXT
100
AcDbCircle
 10
1247.863156828897
 20
2095.497158594636
 30
0.0
 40
16.85000000000018
100
AcDbArc
 50
9.99999999999923
 51
11.25877221841071
  0
ARC
  5
232
330
189
100
AcDbEntity
  8
P-SANR-FIXT
100
AcDbCircle
 10
1247.863156828897
 20
2095.497158594636
 30
0.0
 40
16.85000000000002
100
AcDbArc
 50
14.99999999999925
 51
16.89093851066331
  0
ARC
  5
233
330
189
100
AcDbEntity
  8
P-SANR-FIXT
100
AcDbCircle
 10
1247.863156828897
 20
2095.497158594636
 30
0.0
 40
16.85000000000012
100
AcDbArc
 50
19.99999999999831
 51
24.99999999999972
  0
ARC
  5
234
330
189
100
AcDbEntity
  8
P-SANR-FIXT
100
AcDbCircle
 10
1247.863156828897
 20
2095.497158594636
 30
0.0
 40
16.84999999999992
100
AcDbArc
 50
28.15180791893274
 51
29.99999999999923
  0
ARC
  5
235
330
189
100
AcDbEntity
  8
P-SANR-FIXT
100
AcDbCircle
 10
1247.863156828897
 20
2095.497158594636
 30
0.0
 40
16.84999999999991
100
AcDbArc
 50
33.77636073283355
 51
34.99999999999995
  0
ARC
  5
236
330
189
100
AcDbEntity
  8
P-SANR-FIXT
100
AcDbCircle
 10
1247.863156828897
 20
2095.497158594636
 30
0.0
 40
16.85000000000008
100
AcDbArc
 50
39.39357150598981
 51
39.99999999999963
  0
ARC
  5
237
330
189
100
AcDbEntity
  8
P-SANR-FIXT
100
AcDbCircle
 10
1247.863156828897
 20
2095.497158594636
 30
0.0
 40
16.85000000000007
100
AcDbArc
 50
49.99999999999981
 51
50.60642849401062
  0
ARC
  5
238
330
189
100
AcDbEntity
  8
P-SANR-FIXT
100
AcDbCircle
 10
1247.863156828897
 20
2095.497158594636
 30
0.0
 40
16.84999999999993
100
AcDbArc
 50
54.99999999999987
 51
56.22363926716542
  0
ARC
  5
239
330
189
100
AcDbEntity
  8
P-SANR-FIXT
100
AcDbCircle
 10
1247.863156828897
 20
2095.497158594636
 30
0.0
 40
16.85000000000015
100
AcDbArc
 50
59.9999999999995
 51
61.8481920810677
  0
ARC
  5
23A
330
189
100
AcDbEntity
  8
P-SANR-FIXT
100
AcDbCircle
 10
1247.863156828897
 20
2095.497158594636
 30
0.0
 40
16.85000000000022
100
AcDbArc
 50
64.99999999999957
 51
69.99999999999937
  0
ARC
  5
23B
330
189
100
AcDbEntity
  8
P-SANR-FIXT
100
AcDbCircle
 10
1247.863156828897
 20
2095.497158594636
 30
0.0
 40
16.85000000000001
100
AcDbArc
 50
73.10906148933601
 51
74.9999999999989
  0
ARC
  5
23C
330
189
100
AcDbEntity
  8
P-SANR-FIXT
100
AcDbCircle
 10
1247.863156828897
 20
2095.497158594636
 30
0.0
 40
16.85000000000021
100
AcDbArc
 50
78.74122778158824
 51
79.99999999999939
  0
ARC
  5
23D
330
189
100
AcDbEntity
  8
P-SANR-FIXT
100
AcDbCircle
 10
1247.863156828897
 20
2095.497158594636
 30
0.0
 40
16.85000000000005
100
AcDbArc
 50
84.37211863719443
 51
85.00000000000015
  0
ARC
  5
23E
330
189
100
AcDbEntity
  8
P-SANR-FIXT
100
AcDbCircle
 10
1247.863156828896
 20
2095.497158594636
 30
0.0
 40
16.84999999999991
100
AcDbArc
 50
90.0
 51
269.9999999999997
  0
ARC
  5
23F
330
189
100
AcDbEntity
  8
P-SANR-FIXT
100
AcDbCircle
 10
1247.863156828896
 20
2095.497158594636
 30
0.0
 40
16.85000000000013
100
AcDbArc
 50
269.9999999999997
 51
90.0
  0
ARC
  5
240
330
189
100
AcDbEntity
  8
P-SANR-FIXT
100
AcDbCircle
 10
1247.863156828897
 20
2095.497158594636
 30
0.0
 40
23.99999999999977
100
AcDbArc
 50
269.9999999999997
 51
334.3481293727025
  0
ARC
  5
241
330
189
100
AcDbEntity
  8
P-SANR-FIXT
100
AcDbCircle
 10
1247.863156828897
 20
2095.497158594636
 30
0.0
 40
24.00000000000001
100
AcDbArc
 50
334.9999999999997
 51
349.5748739752839
  0
ARC
  5
242
330
189
100
AcDbEntity
  8
P-SANR-FIXT
100
AcDbCircle
 10
1247.863156828897
 20
2095.497158594636
 30
0.0
 40
23.99999999999995
100
AcDbArc
 50
350.0
 51
354.9999999999998
  0
ARC
  5
243
330
189
100
AcDbEntity
  8
P-SANR-FIXT
100
AcDbCircle
 10
1247.863156828897
 20
2095.497158594636
 30
0.0
 40
24.00000000000008
100
AcDbArc
 50
355.5320719446456
 51
90.0
  0
ARC
  5
244
330
189
100
AcDbEntity
  8
P-SANR-FIXT
100
AcDbCircle
 10
1247.863156828897
 20
2095.497158594636
 30
0.0
 40
23.99999999999991
100
AcDbArc
 50
89.99999999999946
 51
184.426492916743
  0
ARC
  5
245
330
189
100
AcDbEntity
  8
P-SANR-FIXT
100
AcDbCircle
 10
1247.863156828897
 20
2095.497158594636
 30
0.0
 40
24.0
100
AcDbArc
 50
184.9999999999994
 51
189.9999999999993
  0
ARC
  5
246
330
189
100
AcDbEntity
  8
P-SANR-FIXT
100
AcDbCircle
 10
1247.863156828897
 20
2095.497158594636
 30
0.0
 40
23.99999999999999
100
AcDbArc
 50
190.4077551622074
 51
199.9999999999988
  0
ARC
  5
247
330
189
100
AcDbEntity
  8
P-SANR-FIXT
100
AcDbCircle
 10
1247.863156828897
 20
2095.497158594636
 30
0.0
 40
24.0000000000002
100
AcDbArc
 50
200.2268210783737
 51
204.9999999999998
  0
ARC
  5
248
330
189
100
AcDbEntity
  8
P-SANR-FIXT
100
AcDbCircle
 10
1247.863156828897
 20
2095.497158594636
 30
0.0
 40
24.00000000000009
100
AcDbArc
 50
205.6311673701353
 51
269.9999999999997
  0
LINE
  5
249
330
189
100
AcDbEntity
  8
P-SANR-FIXT
100
AcDbLine
 10
1247.863156828897
 20
2052.498183850012
 30
0.0
 11
1223.863156828897
 21
2052.498183850012
 31
0.0
  0
LINE
  5
24A
330
189
100
AcDbEntity
  8
P-SANR-FIXT
100
AcDbLine
 10
1271.863156828897
 20
2052.498183850012
 30
0.0
 11
1247.863156828897
 21
2052.498183850012
 31
0.0
  0
SPLINE
  5
24B
330
189
100
AcDbEntity
  8
P-SANR-FIXT
100
AcDbSpline
210
0.0
220
0.0
230
1.0
 70
     8
 71
     3
 72
     8
 73
     4
 74
     0
 42
0.000000001
 43
0.0000000001
 40
-0.5
 40
-0.5
 40
-0.5
 40
-0.5
 40
-0.4160452395275224
 40
-0.4160452395275224
 40
-0.4160452395275224
 40
-0.4160452395275224
 10
1250.376991416065
 20
2119.348442349549
 30
0.0
 10
1250.237066815278
 20
2119.363183207083
 30
0.0
 10
1250.096795829301
 20
2119.37463607346
 30
0.0
 10
1249.956287449657
 20
2119.383835528604
 30
0.0
  0
SPLINE
  5
24C
330
189
100
AcDbEntity
  8
P-SANR-FIXT
100
AcDbSpline
210
0.0
220
0.0
230
1.0
 70
     8
 71
     3
 72
     8
 73
     4
 74
     0
 42
0.000000001
 43
0.0000000001
 40
-0.5839547604724777
 40
-0.5839547604724777
 40
-0.5839547604724777
 40
-0.5839547604724777
 40
-0.5
 40
-0.5
 40
-0.5
 40
-0.5
 10
1245.769486091007
 20
2119.388962480904
 30
0.0
 10
1245.629301458942
 20
2119.376689917535
 30
0.0
 10
1245.489135519133
 20
2119.364239921718
 30
0.0
 10
1245.349322241728
 20
2119.348442349549
 30
0.0
  0
LINE
  5
24D
330
189
100
AcDbEntity
  8
P-SANR-FIXT
100
AcDbLine
 10
1242.863156828897
 20
2118.953748895107
 30
0.0
 11
1242.863156828897
 21
2120.372345390324
 31
0.0
  0
LINE
  5
24E
330
189
100
AcDbEntity
  8
P-SANR-FIXT
100
AcDbLine
 10
1242.863156828897
 20
2120.372345390324
 30
0.0
 11
1242.863156828897
 21
2121.372345390323
 31
0.0
  0
ENDBLK
  5
250
330
189
100
AcDbEntity
  8
0
100
AcDbBlockEnd
  0
ENDSEC
  0
SECTION
  2
ENTITIES
  0
INSERT
  5
F1
330
71
100
AcDbEntity
  8
P-SANR-FIXT
100
AcDbBlockReference
  2
Automatic flow rate regulator valve_Caleffi_121 DN15 - 1_2__-859151-Est - Idraulica
 10
0.0
 20
0.0
 30
0.0
1001
REVIT
1002
{
1070
     1
1000
863131
1002
}
1002
{
1070
     5
1000
859151
1002
}
1002
{
1070
     2
1000
-2001160
1002
}
  0
INSERT
  5
188
330
71
100
AcDbEntity
  8
P-SANR-FIXT
100
AcDbBlockReference
  2
Automatic flow rate regulator valve_Caleffi_121 DN15 - 1_2__-V1-Est - Idraulica
 10
0.0
 20
0.0
 30
0.0
1001
REVIT
1002
{
1070
     1
1000
863152
1002
}
1002
{
1070
     5
1000
859151
1002
}
1002
{
1070
     2
1000
-2001160
1002
}
  0
INSERT
  5
251
330
71
100
AcDbEntity
  8
P-SANR-FIXT
100
AcDbBlockReference
  2
Automatic flow rate regulator valve_Caleffi_121 DN15 - 1_2__-V2-Est - Idraulica
 10
0.0
 20
0.0
 30
0.0
1001
REVIT
1002
{
1070
     1
1000
863172
1002
}
1002
{
1070
     5
1000
859151
1002
}
1002
{
1070
     2
1000
-2001160
1002
}
  0
ENDSEC
  0
SECTION
  2
OBJECTS
  0
DICTIONARY
  5
C
330
0
100
AcDbDictionary
281
     1
  3
ACAD_CIP_PREVIOUS_PRODUCT_INFO
350
7A
  3
ACAD_COLOR
350
63
  3
ACAD_DETAILVIEWSTYLE
350
6B
  3
ACAD_GROUP
350
D
  3
ACAD_IMAGE_VARS
350
7B
  3
ACAD_LAYOUT
350
62
  3
ACAD_MATERIAL
350
10
  3
ACAD_MLEADERSTYLE
350
66
  3
ACAD_MLINESTYLE
350
5F
  3
ACAD_PLOTSETTINGS
350
61
  3
ACAD_PLOTSTYLENAME
350
E
  3
ACAD_SCALELIST
350
42
  3
ACAD_SECTIONVIEWSTYLE
350
68
  3
ACAD_TABLESTYLE
350
64
  3
ACAD_VISUALSTYLE
350
29
  3
ACDB_RECOMPOSE_DATA
350
25B
  3
AcDbVariableDictionary
350
7C
  3
REVIT_DICTIONARY
350
253
  0
DICTIONARY
  5
257
330
71
100
AcDbDictionary
280
     1
281
     1
  3
ACAD_SORTENTS
360
258
  0
XRECORD
  5
7A
102
{ACAD_REACTORS
330
C
102
}
330
C
100
AcDbXrecord
280
     1
300
RVT
300
2013
300
RVT2013
  0
DICTIONARY
  5
63
102
{ACAD_REACTORS
330
C
102
}
330
C
100
AcDbDictionary
281
     1
  0
DICTIONARY
  5
6B
102
{ACAD_REACTORS
330
C
102
}
330
C
100
AcDbDictionary
281
     1
  3
Imperial24
350
6C
  0
DICTIONARY
  5
D
102
{ACAD_REACTORS
330
C
102
}
330
C
100
AcDbDictionary
281
     1
  0
RASTERVARIABLES
  5
7B
102
{ACAD_REACTORS
330
C
102
}
330
C
100
AcDbRasterVariables
 90
        0
 70
     0
 71
     1
 72
     1
  0
DICTIONARY
  5
62
102
{ACAD_REACTORS
330
C
102
}
330
C
100
AcDbDictionary
281
     1
  3
Layout1
350
70
  3
Layout2
350
78
  3
Model
350
74
  0
DICTIONARY
  5
10
102
{ACAD_REACTORS
330
C
102
}
330
C
100
AcDbDictionary
281
     1
  3
ByBlock
350
19
  3
ByLayer
350
11
  3
Global
350
21
  0
DICTIONARY
  5
66
102
{ACAD_REACTORS
330
C
102
}
330
C
100
AcDbDictionary
281
     1
  3
Standard
350
67
  0
DICTIONARY
  5
5F
102
{ACAD_REACTORS
330
C
102
}
330
C
100
AcDbDictionary
281
     1
  3
Standard
350
60
  0
DICTIONARY
  5
61
102
{ACAD_REACTORS
330
C
102
}
330
C
100
AcDbDictionary
281
     1
  0
ACDBDICTIONARYWDFLT
  5
E
102
{ACAD_REACTORS
330
C
102
}
330
C
100
AcDbDictionary
281
     1
  3
Normal
350
F
100
AcDbDictionaryWithDefault
340
F
  0
DICTIONARY
  5
42
102
{ACAD_REACTORS
330
C
102
}
330
C
100
AcDbDictionary
281
     1
  3
A0
350
43
  3
A1
350
44
  3
A2
350
45
  3
A3
350
46
  3
A4
350
47
  3
A5
350
48
  3
A6
350
49
  3
A7
350
4A
  3
A8
350
4B
  3
A9
350
4C
  3
B0
350
4D
  3
B1
350
4E
  3
B2
350
4F
  3
B3
350
50
  3
B4
350
51
  3
B5
350
52
  3
B6
350
53
  0
DICTIONARY
  5
68
102
{ACAD_REACTORS
330
C
102
}
330
C
100
AcDbDictionary
281
     1
  3
Imperial24
350
6A
  0
DICTIONARY
  5
64
102
{ACAD_REACTORS
330
C
102
}
330
C
100
AcDbDictionary
281
     1
  3
Standard
350
65
  0
DICTIONARY
  5
29
102
{ACAD_REACTORS
330
C
102
}
330
C
100
AcDbDictionary
281
     1
  3
2dWireframe
350
2F
  3
Basic
350
2E
  3
Brighten
350
35
  3
ColorChange
350
39
  3
Conceptual
350
32
  3
Dim
350
34
  3
EdgeColorOff
350
41
  3
Facepattern
350
38
  3
Flat
350
2A
  3
FlatWithEdges
350
2B
  3
Gouraud
350
2C
  3
GouraudWithEdges
350
2D
  3
Hidden
350
31
  3
JitterOff
350
3F
  3
Linepattern
350
37
  3
OverhangOff
350
40
  3
Realistic
350
33
  3
Shaded
350
3E
  3
Shaded with edges
350
3D
  3
Shades of Gray
350
3A
  3
Sketchy
350
3B
  3
Thicken
350
36
  3
Wireframe
350
30
  3
X-Ray
350
3C
  0
XRECORD
  5
25B
102
{ACAD_REACTORS
330
C
102
}
330
C
100
AcDbXrecord
280
     1
 90
        1
330
65
  0
DICTIONARY
  5
7C
102
{ACAD_REACTORS
330
C
102
}
330
C
100
AcDbDictionary
281
     1
  3
CANNOSCALE
350
81
  3
CMLEADERSTYLE
350
7E
  3
CTABLESTYLE
350
7D
  3
CVIEWDETAILSTYLE
350
7F
  3
CVIEWSECTIONSTYLE
350
80
  0
DICTIONARY
  5
253
102
{ACAD_REACTORS
330
C
102
}
330
C
100
AcDbDictionary
281
     1
  3
DRAWING_TOOL
350
256
  3
REVIT_CATEGORY_MAPPING
350
255
  3
REVIT_TYPE_MAPPING
350
254
  0
SORTENTSTABLE
  5
258
102
{ACAD_REACTORS
330
257
102
}
330
257
100
AcDbSortentsTable
330
71
  0
ACDBDETAILVIEWSTYLE
  5
6C
102
{ACAD_REACTORS
330
6B
102
}
330
6B
100
AcDbModelDocViewStyle
 70
     0
  3
Imperial24
290
     1
100
AcDbDetailViewStyle
 70
     0
 71
     0
 90
        3
 71
     1
340
55
 62
   256
 40
0.24
340
0
 62
   256
 40
0.24
300

 40
0.36
280
     3
 71
     2
340
5D
 90
       25
 62
   256
 71
     3
340
55
 62
   256
 40
0.24
 90
        1
 40
0.75
 90
        1
300
%<\AcVar ViewType \f "%tc1">% %<\AcVar ViewDetailId>%\PSCALA %<\AcVar ViewScale \f "%sn">%
 71
     4
340
5D
 90
       25
 62
   256
340
5D
 90
       25
 62
   256
280
     0
  0
LAYOUT
  5
70
102
{ACAD_REACTORS
330
62
102
}
330
62
100
AcDbPlotSettings
  1

  2

  4

  6

 40
0.0
 41
0.0
 42
0.0
 43
0.0
 44
0.0
 45
0.0
 46
0.0
 47
0.0
 48
0.0
 49
0.0
140
0.0
141
0.0
142
1.0
143
1.0
 70
   688
 72
     0
 73
     0
 74
     5
  7

 75
    16
147
1.0
 76
     0
 77
     2
 78
   300
148
0.0
149
0.0
100
AcDbLayout
  1
Layout1
 70
     1
 71
     1
 10
0.0
 20
0.0
 11
12.0
 21
9.0
 12
0.0
 22
0.0
 32
0.0
 14
0.0
 24
0.0
 34
0.0
 15
0.0
 25
0.0
 35
0.0
146
0.0
 13
0.0
 23
0.0
 33
0.0
 16
1.0
 26
0.0
 36
0.0
 17
0.0
 27
1.0
 37
0.0
 76
     0
330
6D
  0
LAYOUT
  5
78
102
{ACAD_REACTORS
330
62
102
}
330
62
100
AcDbPlotSettings
  1

  2

  4

  6

 40
0.0
 41
0.0
 42
0.0
 43
0.0
 44
0.0
 45
0.0
 46
0.0
 47
0.0
 48
0.0
 49
0.0
140
0.0
141
0.0
142
1.0
143
1.0
 70
   688
 72
     0
 73
     0
 74
     5
  7

 75
    16
147
1.0
 76
     0
 77
     2
 78
   300
148
0.0
149
0.0
100
AcDbLayout
  1
Layout2
 70
     1
 71
     2
 10
0.0
 20
0.0
 11
12.0
 21
9.0
 12
0.0
 22
0.0
 32
0.0
 14
0.0
 24
0.0
 34
0.0
 15
0.0
 25
0.0
 35
0.0
146
0.0
 13
0.0
 23
0.0
 33
0.0
 16
1.0
 26
0.0
 36
0.0
 17
0.0
 27
1.0
 37
0.0
 76
     0
330
75
  0
LAYOUT
  5
74
102
{ACAD_REACTORS
330
62
102
}
330
62
100
AcDbPlotSettings
  1

  2

  4

  6

 40
0.0
 41
0.0
 42
0.0
 43
0.0
 44
0.0
 45
0.0
 46
0.0
 47
0.0
 48
0.0
 49
0.0
140
0.0
141
0.0
142
1.0
143
1.0
 70
  1712
 72
     0
 73
     0
 74
     0
  7

 75
     0
147
1.0
 76
     0
 77
     2
 78
   300
148
0.0
149
0.0
100
AcDbLayout
  1
Model
 70
     1
 71
     0
 10
0.0
 20
0.0
 11
12.0
 21
9.0
 12
0.0
 22
0.0
 32
0.0
 14
0.0
 24
0.0
 34
0.0
 15
0.0
 25
0.0
 35
0.0
146
0.0
 13
0.0
 23
0.0
 33
0.0
 16
1.0
 26
0.0
 36
0.0
 17
0.0
 27
1.0
 37
0.0
 76
     0
330
71
  0
MATERIAL
  5
19
102
{ACAD_XDICTIONARY
360
1A
102
}
102
{ACAD_REACTORS
330
10
102
}
330
10
100
AcDbMaterial
  1
ByBlock
 72
     0
 43
0.0208333333333333
 43
0.0
 43
0.0
 43
0.0
 43
0.0
 43
0.0208333333333333
 43
0.0
 43
0.0
 43
0.0
 43
0.0
 43
1.0
 43
0.0
 43
0.0
 43
0.0
 43
0.0
 43
1.0
 77
     0
 47
0.0208333333333333
 47
0.0
 47
0.0
 47
0.0
 47
0.0
 47
0.0208333333333333
 47
0.0
 47
0.0
 47
0.0
 47
0.0
 47
1.0
 47
0.0
 47
0.0
 47
0.0
 47
0.0
 47
1.0
171
     0
 49
0.0208333333333333
 49
0.0
 49
0.0
 49
0.0
 49
0.0
 49
0.0208333333333333
 49
0.0
 49
0.0
 49
0.0
 49
0.0
 49
1.0
 49
0.0
 49
0.0
 49
0.0
 49
0.0
 49
1.0
175
     0
142
0.0208333333333333
142
0.0
142
0.0
142
0.0
142
0.0
142
0.0208333333333333
142
0.0
142
0.0
142
0.0
142
0.0
142
1.0
142
0.0
142
0.0
142
0.0
142
0.0
142
1.0
179
     0
144
0.0208333333333333
144
0.0
144
0.0
144
0.0
144
0.0
144
0.0208333333333333
144
0.0
144
0.0
144
0.0
144
0.0
144
1.0
144
0.0
144
0.0
144
0.0
144
0.0
144
1.0
147
0.0208333333333333
147
0.0
147
0.0
147
0.0
147
0.0
147
0.0208333333333333
147
0.0
147
0.0
147
0.0
147
0.0
147
1.0
147
0.0
147
0.0
147
0.0
147
0.0
147
1.0
  0
MATERIAL
  5
11
102
{ACAD_XDICTIONARY
360
12
102
}
102
{ACAD_REACTORS
330
10
102
}
330
10
100
AcDbMaterial
  1
ByLayer
 72
     0
 43
0.0208333333333333
 43
0.0
 43
0.0
 43
0.0
 43
0.0
 43
0.0208333333333333
 43
0.0
 43
0.0
 43
0.0
 43
0.0
 43
1.0
 43
0.0
 43
0.0
 43
0.0
 43
0.0
 43
1.0
 77
     0
 47
0.0208333333333333
 47
0.0
 47
0.0
 47
0.0
 47
0.0
 47
0.0208333333333333
 47
0.0
 47
0.0
 47
0.0
 47
0.0
 47
1.0
 47
0.0
 47
0.0
 47
0.0
 47
0.0
 47
1.0
171
     0
 49
0.0208333333333333
 49
0.0
 49
0.0
 49
0.0
 49
0.0
 49
0.0208333333333333
 49
0.0
 49
0.0
 49
0.0
 49
0.0
 49
1.0
 49
0.0
 49
0.0
 49
0.0
 49
0.0
 49
1.0
175
     0
142
0.0208333333333333
142
0.0
142
0.0
142
0.0
142
0.0
142
0.0208333333333333
142
0.0
142
0.0
142
0.0
142
0.0
142
1.0
142
0.0
142
0.0
142
0.0
142
0.0
142
1.0
179
     0
144
0.0208333333333333
144
0.0
144
0.0
144
0.0
144
0.0
144
0.0208333333333333
144
0.0
144
0.0
144
0.0
144
0.0
144
1.0
144
0.0
144
0.0
144
0.0
144
0.0
144
1.0
147
0.0208333333333333
147
0.0
147
0.0
147
0.0
147
0.0
147
0.0208333333333333
147
0.0
147
0.0
147
0.0
147
0.0
147
1.0
147
0.0
147
0.0
147
0.0
147
0.0
147
1.0
  0
MATERIAL
  5
21
102
{ACAD_XDICTIONARY
360
22
102
}
102
{ACAD_REACTORS
330
10
102
}
330
10
100
AcDbMaterial
  1
Global
 72
     0
 43
0.0208333333333333
 43
0.0
 43
0.0
 43
0.0
 43
0.0
 43
0.0208333333333333
 43
0.0
 43
0.0
 43
0.0
 43
0.0
 43
1.0
 43
0.0
 43
0.0
 43
0.0
 43
0.0
 43
1.0
 77
     0
 47
0.0208333333333333
 47
0.0
 47
0.0
 47
0.0
 47
0.0
 47
0.0208333333333333
 47
0.0
 47
0.0
 47
0.0
 47
0.0
 47
1.0
 47
0.0
 47
0.0
 47
0.0
 47
0.0
 47
1.0
171
     0
 49
0.0208333333333333
 49
0.0
 49
0.0
 49
0.0
 49
0.0
 49
0.0208333333333333
 49
0.0
 49
0.0
 49
0.0
 49
0.0
 49
1.0
 49
0.0
 49
0.0
 49
0.0
 49
0.0
 49
1.0
175
     0
142
0.0208333333333333
142
0.0
142
0.0
142
0.0
142
0.0
142
0.0208333333333333
142
0.0
142
0.0
142
0.0
142
0.0
142
1.0
142
0.0
142
0.0
142
0.0
142
0.0
142
1.0
179
     0
144
0.0208333333333333
144
0.0
144
0.0
144
0.0
144
0.0
144
0.0208333333333333
144
0.0
144
0.0
144
0.0
144
0.0
144
1.0
144
0.0
144
0.0
144
0.0
144
0.0
144
1.0
147
0.0208333333333333
147
0.0
147
0.0
147
0.0
147
0.0
147
0.0208333333333333
147
0.0
147
0.0
147
0.0
147
0.0
147
1.0
147
0.0
147
0.0
147
0.0
147
0.0
147
1.0
  0
MLEADERSTYLE
  5
67
102
{ACAD_REACTORS
330
66
102
}
330
66
100
AcDbMLeaderStyle
179
     2
170
     2
171
     1
172
     0
 90
        2
 40
0.0
 41
0.0
173
     1
 91
-1056964608
340
5B
 92
       -2
290
     1
 42
0.09
291
     1
 43
0.36
  3
Standard
 44
0.18
300

342
55
174
     1
178
     6
175
     1
176
     0
 93
-1056964608
 45
0.18
292
     0
297
     0
 46
0.18
 94
-1056964608
 47
1.0
 49
1.0
140
1.0
293
     1
141
0.0
294
     1
177
     0
142
1.0
295
     1
296
     0
143
0.125
271
     0
272
     9
273
     9
298
     1
  0
MLINESTYLE
  5
60
102
{ACAD_REACTORS
330
5F
102
}
330
5F
100
AcDbMlineStyle
  2
STANDARD
 70
     0
  3

 62
   256
 51
90.0
 52
90.0
 71
     2
 49
0.5
 62
   256
  6
BYLAYER
 49
-0.5
 62
   256
  6
BYLAYER
  0
ACDBPLACEHOLDER
  5
F
102
{ACAD_REACTORS
330
E
102
}
330
E
  0
SCALE
  5
43
102
{ACAD_REACTORS
330
42
102
}
330
42
100
AcDbScale
 70
     0
300
1:1
140
1.0
141
1.0
290
     1
  0
SCALE
  5
44
102
{ACAD_REACTORS
330
42
102
}
330
42
100
AcDbScale
 70
     0
300
1/128" = 1'-0"
140
0.0078125
141
12.0
290
     0
  0
SCALE
  5
45
102
{ACAD_REACTORS
330
42
102
}
330
42
100
AcDbScale
 70
     0
300
1/64" = 1'-0"
140
0.015625
141
12.0
290
     0
  0
SCALE
  5
46
102
{ACAD_REACTORS
330
42
102
}
330
42
100
AcDbScale
 70
     0
300
1/32" = 1'-0"
140
0.03125
141
12.0
290
     0
  0
SCALE
  5
47
102
{ACAD_REACTORS
330
42
102
}
330
42
100
AcDbScale
 70
     0
300
1/16" = 1'-0"
140
0.0625
141
12.0
290
     0
  0
SCALE
  5
48
102
{ACAD_REACTORS
330
42
102
}
330
42
100
AcDbScale
 70
     0
300
3/32" = 1'-0"
140
0.09375
141
12.0
290
     0
  0
SCALE
  5
49
102
{ACAD_REACTORS
330
42
102
}
330
42
100
AcDbScale
 70
     0
300
1/8" = 1'-0"
140
0.125
141
12.0
290
     0
  0
SCALE
  5
4A
102
{ACAD_REACTORS
330
42
102
}
330
42
100
AcDbScale
 70
     0
300
3/16" = 1'-0"
140
0.1875
141
12.0
290
     0
  0
SCALE
  5
4B
102
{ACAD_REACTORS
330
42
102
}
330
42
100
AcDbScale
 70
     0
300
1/4" = 1'-0"
140
0.25
141
12.0
290
     0
  0
SCALE
  5
4C
102
{ACAD_REACTORS
330
42
102
}
330
42
100
AcDbScale
 70
     0
300
3/8" = 1'-0"
140
0.375
141
12.0
290
     0
  0
SCALE
  5
4D
102
{ACAD_REACTORS
330
42
102
}
330
42
100
AcDbScale
 70
     0
300
1/2" = 1'-0"
140
0.5
141
12.0
290
     0
  0
SCALE
  5
4E
102
{ACAD_REACTORS
330
42
102
}
330
42
100
AcDbScale
 70
     0
300
3/4" = 1'-0"
140
0.75
141
12.0
290
     0
  0
SCALE
  5
4F
102
{ACAD_REACTORS
330
42
102
}
330
42
100
AcDbScale
 70
     0
300
1" = 1'-0"
140
1.0
141
12.0
290
     0
  0
SCALE
  5
50
102
{ACAD_REACTORS
330
42
102
}
330
42
100
AcDbScale
 70
     0
300
1-1/2" = 1'-0"
140
1.5
141
12.0
290
     0
  0
SCALE
  5
51
102
{ACAD_REACTORS
330
42
102
}
330
42
100
AcDbScale
 70
     0
300
3" = 1'-0"
140
3.0
141
12.0
290
     0
  0
SCALE
  5
52
102
{ACAD_REACTORS
330
42
102
}
330
42
100
AcDbScale
 70
     0
300
6" = 1'-0"
140
6.0
141
12.0
290
     0
  0
SCALE
  5
53
102
{ACAD_REACTORS
330
42
102
}
330
42
100
AcDbScale
 70
     0
300
1'-0" = 1'-0"
140
12.0
141
12.0
290
     0
  0
ACDBSECTIONVIEWSTYLE
  5
6A
102
{ACAD_REACTORS
330
68
102
}
330
68
100
AcDbModelDocViewStyle
 70
     0
  3
Imperial24
290
     1
100
AcDbSectionViewStyle
 70
     0
 71
     0
 90
       78
 71
     1
340
55
 62
   256
 40
0.24
340
0
340
0
 62
   256
 40
0.24
300
I, O, Q, S, X, Z
 40
0.48
 90
        3
 40
0.18
 90
        1
 71
     2
340
69
 90
       25
 62
   256
340
5D
 90
       50
 62
   256
 40
0.24
 40
0.0
 40
0.24
 71
     3
340
55
 62
   256
 40
0.24
 90
        1
 40
0.75
 90
        1
300
%<\AcVar ViewType \f "%tc1">% %<\AcVar ViewSectionStartId>%-%<\AcVar ViewSectionEndId>%\PSCALA %<\AcVar ViewScale \f "%sn">%
 71
     4
 62
   256
 62
   257
300
ANSI31
 40
1.0
 90
        0
290
     0
290
     0
 90
        6
 40
0.0
 40
1.570796326794896
 40
0.2617993877991494
 40
1.308996938995747
 40
-0.2617993877991494
 40
1.832595714594046
  0
TABLESTYLE
  5
65
102
{ACAD_XDICTIONARY
360
259
102
}
102
{ACAD_REACTORS
330
64
102
}
330
64
100
AcDbTableStyle
280
     0
  3
Standard
 70
     0
 71
     0
 40
0.06
 41
0.06
280
     0
281
     0
  7
Standard
140
0.18
170
     2
 62
     0
 63
     7
283
     0
 90
      512
 91
        0
  1

274
    -2
284
     1
 64
     0
275
    -2
285
     1
 65
     0
276
    -2
286
     1
 66
     0
277
    -2
287
     1
 67
     0
278
    -2
288
     1
 68
     0
279
    -2
289
     1
 69
     0
  7
Standard
140
0.25
170
     5
 62
     0
 63
     7
283
     0
 90
      512
 91
        0
  1

274
    -2
284
     1
 64
     0
275
    -2
285
     1
 65
     0
276
    -2
286
     1
 66
     0
277
    -2
287
     1
 67
     0
278
    -2
288
     1
 68
     0
279
    -2
289
     1
 69
     0
  7
Standard
140
0.18
170
     5
 62
     0
 63
     7
283
     0
 90
      512
 91
        0
  1

274
    -2
284
     1
 64
     0
275
    -2
285
     1
 65
     0
276
    -2
286
     1
 66
     0
277
    -2
287
     1
 67
     0
278
    -2
288
     1
 68
     0
279
    -2
289
     1
 69
     0
  0
VISUALSTYLE
  5
2F
102
{ACAD_REACTORS
330
29
102
}
330
29
100
AcDbVisualStyle
  2
2dWireframe
 70
     4
177
     3
291
     0
 70
    58
 90
        0
176
     1
 90
        2
176
     1
 90
        0
176
     1
 90
        0
176
     1
 40
0.6
176
     1
 40
30.0
176
     1
 62
     7
420
 16777215
176
     1
 90
        1
176
     1
 90
        4
176
     1
 62
     7
176
     1
 62
   257
176
     1
 90
        1
176
     1
 90
        1
176
     1
 40
1.0
176
     1
 90
        0
176
     1
 62
   257
176
     1
 40
1.0
176
     1
 90
        1
176
     1
 90
        6
176
     1
 90
        2
176
     1
 62
     7
176
     1
 90
        5
176
     1
 90
        0
176
     1
 90
        0
176
     1
290
     0
176
     1
 90
        1
176
     1
 40
0.0
176
     1
 90
        0
176
     1
290
     1
176
     1
290
     1
176
     1
290
     0
176
     1
290
     0
176
     1
290
     0
176
     1
290
     0
176
     1
290
     0
176
     1
290
     0
176
     1
290
     0
176
     1
 90
       50
176
     1
 40
0.0
176
     1
 40
1.0
176
     1
 90
        0
176
     1
 62
    18
420
        0
176
     1
 90
       50
176
     1
 90
        3
176
     1
 62
     5
420
      255
176
     1
290
     0
176
     1
 90
       50
176
     1
 90
       50
176
     1
 90
       50
176
     1
290
     0
176
     1
 90
       50
176
     1
 62
   256
176
     0
 40
1.0
176
     0
 90
        2
176
     1
  1
strokes_ogs.tif
176
     1
290
     0
176
     1
 40
1.0
176
     1
 40
1.0
176
     1
  0
VISUALSTYLE
  5
2E
102
{ACAD_REACTORS
330
29
102
}
330
29
100
AcDbVisualStyle
  2
Basic
 70
     7
177
     3
291
     1
 70
    58
 90
        1
176
     1
 90
        0
176
     1
 90
        1
176
     1
 90
        0
176
     1
 40
0.6
176
     1
 40
30.0
176
     1
 62
     7
420
 16777215
176
     1
 90
        0
176
     1
 90
        4
176
     1
 62
     7
176
     1
 62
   257
176
     1
 90
        1
176
     1
 90
        1
176
     1
 40
1.0
176
     1
 90
        8
176
     1
 62
     7
176
     1
 40
1.0
176
     1
 90
        1
176
     1
 90
        6
176
     1
 90
        2
176
     1
 62
     7
176
     1
 90
        5
176
     1
 90
        0
176
     1
 90
        0
176
     1
290
     0
176
     1
 90
        1
176
     1
 40
0.0
176
     1
 90
        0
176
     1
290
     0
176
     1
290
     1
176
     1
290
     1
176
     1
290
     0
176
     1
290
     0
176
     1
290
     0
176
     1
290
     0
176
     1
290
     0
176
     1
290
     0
176
     1
 90
       50
176
     1
 40
0.0
176
     1
 40
1.0
176
     1
 90
        0
176
     1
 62
    18
420
        0
176
     1
 90
       50
176
     1
 90
        3
176
     1
 62
     5
420
      255
176
     1
290
     0
176
     1
 90
       50
176
     1
 90
       50
176
     1
 90
       50
176
     1
290
     0
176
     1
 90
       50
176
     1
 62
   256
176
     0
 40
1.0
176
     0
 90
        2
176
     1
  1
strokes_ogs.tif
176
     1
290
     0
176
     1
 40
1.0
176
     1
 40
1.0
176
     1
  0
VISUALSTYLE
  5
35
102
{ACAD_REACTORS
330
29
102
}
330
29
100
AcDbVisualStyle
  2
Brighten
 70
    12
177
     3
291
     1
 70
    58
 90
        2
176
     1
 90
        2
176
     1
 90
        0
176
     1
 90
        0
176
     1
 40
0.6
176
     1
 40
30.0
176
     1
 62
     7
420
 16777215
176
     1
 90
        1
176
     1
 90
        4
176
     1
 62
     7
176
     1
 62
   257
176
     1
 90
        1
176
     1
 90
        1
176
     1
 40
1.0
176
     1
 90
        8
176
     1
 62
     7
176
     1
 40
1.0
176
     1
 90
        1
176
     1
 90
        6
176
     1
 90
        2
176
     1
 62
     7
176
     1
 90
        5
176
     1
 90
        0
176
     1
 90
        0
176
     1
290
     0
176
     1
 90
        1
176
     1
 40
50.0
176
     1
 90
        0
176
     1
290
     0
176
     1
290
     1
176
     1
290
     1
176
     1
290
     0
176
     1
290
     0
176
     1
290
     0
176
     1
290
     0
176
     1
290
     0
176
     1
290
     0
176
     1
 90
       50
176
     1
 40
0.0
176
     1
 40
1.0
176
     1
 90
        0
176
     1
 62
    18
420
        0
176
     1
 90
       50
176
     1
 90
        3
176
     1
 62
     5
420
      255
176
     1
290
     0
176
     1
 90
       50
176
     1
 90
       50
176
     1
 90
       50
176
     1
290
     0
176
     1
 90
       50
176
     1
 62
   256
176
     0
 40
1.0
176
     0
 90
        2
176
     1
  1
strokes_ogs.tif
176
     1
290
     0
176
     1
 40
1.0
176
     1
 40
1.0
176
     1
  0
VISUALSTYLE
  5
39
102
{ACAD_REACTORS
330
29
102
}
330
29
100
AcDbVisualStyle
  2
ColorChange
 70
    16
177
     3
291
     1
 70
    58
 90
        2
176
     1
 90
        2
176
     1
 90
        3
176
     1
 90
        0
176
     1
 40
0.6
176
     1
 40
30.0
176
     1
 62
     8
420
  8421504
176
     1
 90
        1
176
     1
 90
        4
176
     1
 62
     7
176
     1
 62
   257
176
     1
 90
        1
176
     1
 90
        1
176
     1
 40
1.0
176
     1
 90
        8
176
     1
 62
     8
420
  8421504
176
     1
 40
1.0
176
     1
 90
        1
176
     1
 90
        6
176
     1
 90
        2
176
     1
 62
     7
176
     1
 90
        5
176
     1
 90
        0
176
     1
 90
        0
176
     1
290
     0
176
     1
 90
        1
176
     1
 40
0.0
176
     1
 90
        0
176
     1
290
     0
176
     1
290
     1
176
     1
290
     1
176
     1
290
     0
176
     1
290
     0
176
     1
290
     0
176
     1
290
     0
176
     1
290
     0
176
     1
290
     0
176
     1
 90
       50
176
     1
 40
0.0
176
     1
 40
1.0
176
     1
 90
        0
176
     1
 62
    18
420
        0
176
     1
 90
       50
176
     1
 90
        3
176
     1
 62
     5
420
      255
176
     1
290
     0
176
     1
 90
       50
176
     1
 90
       50
176
     1
 90
       50
176
     1
290
     0
176
     1
 90
       50
176
     1
 62
   256
176
     0
 40
1.0
176
     0
 90
        2
176
     1
  1
strokes_ogs.tif
176
     1
290
     0
176
     1
 40
1.0
176
     1
 40
1.0
176
     1
  0
VISUALSTYLE
  5
32
102
{ACAD_REACTORS
330
29
102
}
330
29
100
AcDbVisualStyle
  2
Conceptual
 70
     9
177
     3
291
     0
 70
    58
 90
        3
176
     1
 90
        2
176
     1
 90
        0
176
     1
 90
        0
176
     1
 40
0.6
176
     1
 40
30.0
176
     1
 62
     7
420
 16777215
176
     1
 90
        2
176
     1
 90
        2
176
     1
 62
     7
176
     1
 62
   257
176
     1
 90
        1
176
     1
 90
        1
176
     1
 40
179.0
176
     1
 90
        8
176
     1
 62
     7
176
     1
 40
1.0
176
     1
 90
        1
176
     1
 90
        6
176
     1
 90
        2
176
     1
 62
     7
176
     1
 90
        3
176
     1
 90
        0
176
     1
 90
        0
176
     1
290
     0
176
     1
 90
        1
176
     1
 40
0.0
176
     1
 90
        0
176
     1
290
     0
176
     1
290
     1
176
     1
290
     1
176
     1
290
     0
176
     1
290
     0
176
     1
290
     0
176
     1
290
     0
176
     1
290
     0
176
     1
290
     0
176
     1
 90
       50
176
     1
 40
0.0
176
     1
 40
1.0
176
     1
 90
        0
176
     1
 62
    18
420
        0
176
     1
 90
       50
176
     1
 90
        3
176
     1
 62
     5
420
      255
176
     1
290
     0
176
     1
 90
       50
176
     1
 90
       50
176
     1
 90
       50
176
     1
290
     0
176
     1
 90
       50
176
     1
 62
   256
176
     0
 40
1.0
176
     0
 90
        2
176
     1
  1
strokes_ogs.tif
176
     1
290
     0
176
     1
 40
1.0
176
     1
 40
1.0
176
     1
  0
VISUALSTYLE
  5
34
102
{ACAD_REACTORS
330
29
102
}
330
29
100
AcDbVisualStyle
  2
Dim
 70
    11
177
     3
291
     1
 70
    58
 90
        2
176
     1
 90
        2
176
     1
 90
        0
176
     1
 90
        0
176
     1
 40
0.6
176
     1
 40
30.0
176
     1
 62
     7
420
 16777215
176
     1
 90
        1
176
     1
 90
        4
176
     1
 62
     7
176
     1
 62
   257
176
     1
 90
        1
176
     1
 90
        1
176
     1
 40
1.0
176
     1
 90
        8
176
     1
 62
     7
176
     1
 40
1.0
176
     1
 90
        1
176
     1
 90
        6
176
     1
 90
        2
176
     1
 62
     7
176
     1
 90
        5
176
     1
 90
        0
176
     1
 90
        0
176
     1
290
     0
176
     1
 90
        1
176
     1
 40
-50.0
176
     1
 90
        0
176
     1
290
     0
176
     1
290
     1
176
     1
290
     1
176
     1
290
     0
176
     1
290
     0
176
     1
290
     0
176
     1
290
     0
176
     1
290
     0
176
     1
290
     0
176
     1
 90
       50
176
     1
 40
0.0
176
     1
 40
1.0
176
     1
 90
        0
176
     1
 62
    18
420
        0
176
     1
 90
       50
176
     1
 90
        3
176
     1
 62
     5
420
      255
176
     1
290
     0
176
     1
 90
       50
176
     1
 90
       50
176
     1
 90
       50
176
     1
290
     0
176
     1
 90
       50
176
     1
 62
   256
176
     0
 40
1.0
176
     0
 90
        2
176
     1
  1
strokes_ogs.tif
176
     1
290
     0
176
     1
 40
1.0
176
     1
 40
1.0
176
     1
  0
VISUALSTYLE
  5
41
102
{ACAD_REACTORS
330
29
102
}
330
29
100
AcDbVisualStyle
  2
EdgeColorOff
 70
    22
177
     3
291
     1
 70
    58
 90
        2
176
     0
 90
        2
176
     0
 90
        0
176
     0
 90
        0
176
     0
 40
0.6
176
     0
 40
30.0
176
     0
 62
     7
420
 16777215
176
     0
 90
        1
176
     0
 90
        4
176
     0
 62
     7
176
     0
 62
   257
176
     0
 90
        1
176
     0
 90
        1
176
     0
 40
1.0
176
     0
 90
        8
176
     2
 62
     7
176
     0
 40
1.0
176
     0
 90
        1
176
     0
 90
        6
176
     0
 90
        2
176
     0
 62
     7
176
     0
 90
        5
176
     0
 90
        0
176
     0
 90
        0
176
     0
290
     0
176
     0
 90
        1
176
     0
 40
0.0
176
     0
 90
        0
176
     0
290
     0
176
     0
290
     1
176
     0
290
     1
176
     0
290
     0
176
     0
290
     0
176
     0
290
     0
176
     0
290
     0
176
     0
290
     0
176
     0
290
     0
176
     0
 90
       50
176
     0
 40
0.0
176
     0
 40
1.0
176
     0
 90
        0
176
     0
 62
    18
420
        0
176
     0
 90
       50
176
     0
 90
        3
176
     0
 62
     5
420
      255
176
     0
290
     0
176
     0
 90
       50
176
     0
 90
       50
176
     0
 90
       50
176
     0
290
     0
176
     0
 90
       50
176
     0
 62
   256
176
     0
 40
1.0
176
     0
 90
        2
176
     0
  1
strokes_ogs.tif
176
     0
290
     0
176
     0
 40
1.0
176
     0
 40
1.0
176
     0
  0
VISUALSTYLE
  5
38
102
{ACAD_REACTORS
330
29
102
}
330
29
100
AcDbVisualStyle
  2
Facepattern
 70
    15
177
     3
291
     1
 70
    58
 90
        2
176
     1
 90
        2
176
     1
 90
        0
176
     1
 90
        0
176
     1
 40
0.6
176
     1
 40
30.0
176
     1
 62
     7
420
 16777215
176
     1
 90
        1
176
     1
 90
        4
176
     1
 62
     7
176
     1
 62
   257
176
     1
 90
        1
176
     1
 90
        1
176
     1
 40
1.0
176
     1
 90
        8
176
     1
 62
     7
176
     1
 40
1.0
176
     1
 90
        1
176
     1
 90
        6
176
     1
 90
        2
176
     1
 62
     7
176
     1
 90
        5
176
     1
 90
        0
176
     1
 90
        0
176
     1
290
     0
176
     1
 90
        1
176
     1
 40
0.0
176
     1
 90
        0
176
     1
290
     0
176
     1
290
     1
176
     1
290
     1
176
     1
290
     0
176
     1
290
     0
176
     1
290
     0
176
     1
290
     0
176
     1
290
     0
176
     1
290
     0
176
     1
 90
       50
176
     1
 40
0.0
176
     1
 40
1.0
176
     1
 90
        0
176
     1
 62
    18
420
        0
176
     1
 90
       50
176
     1
 90
        3
176
     1
 62
     5
420
      255
176
     1
290
     0
176
     1
 90
       50
176
     1
 90
       50
176
     1
 90
       50
176
     1
290
     0
176
     1
 90
       50
176
     1
 62
   256
176
     0
 40
1.0
176
     0
 90
        2
176
     1
  1
strokes_ogs.tif
176
     1
290
     0
176
     1
 40
1.0
176
     1
 40
1.0
176
     1
  0
VISUALSTYLE
  5
2A
102
{ACAD_REACTORS
330
29
102
}
330
29
100
AcDbVisualStyle
  2
Flat
 70
     0
177
     3
291
     1
 70
    58
 90
        2
176
     1
 90
        1
176
     1
 90
        1
176
     1
 90
        2
176
     1
 40
0.6
176
     1
 40
30.0
176
     1
 62
     7
420
 16777215
176
     1
 90
        0
176
     1
 90
        0
176
     1
 62
     7
176
     1
 62
   257
176
     1
 90
        1
176
     1
 90
        1
176
     1
 40
1.0
176
     1
 90
        8
176
     1
 62
     7
176
     1
 40
1.0
176
     1
 90
        1
176
     1
 90
        6
176
     1
 90
        2
176
     1
 62
     7
176
     1
 90
        5
176
     1
 90
        0
176
     1
 90
        0
176
     1
290
     0
176
     1
 90
       13
176
     1
 40
0.0
176
     1
 90
        0
176
     1
290
     0
176
     1
290
     1
176
     1
290
     1
176
     1
290
     0
176
     1
290
     0
176
     1
290
     0
176
     1
290
     0
176
     1
290
     0
176
     1
290
     0
176
     1
 90
       50
176
     1
 40
0.0
176
     1
 40
1.0
176
     1
 90
        0
176
     1
 62
    18
420
        0
176
     1
 90
       50
176
     1
 90
        3
176
     1
 62
     5
420
      255
176
     1
290
     0
176
     1
 90
       50
176
     1
 90
       50
176
     1
 90
       50
176
     1
290
     0
176
     1
 90
       50
176
     1
 62
   256
176
     0
 40
1.0
176
     0
 90
        2
176
     1
  1
strokes_ogs.tif
176
     1
290
     0
176
     1
 40
1.0
176
     1
 40
1.0
176
     1
  0
VISUALSTYLE
  5
2B
102
{ACAD_REACTORS
330
29
102
}
330
29
100
AcDbVisualStyle
  2
FlatWithEdges
 70
     1
177
     3
291
     1
 70
    58
 90
        2
176
     1
 90
        1
176
     1
 90
        1
176
     1
 90
        2
176
     1
 40
0.6
176
     1
 40
30.0
176
     1
 62
     7
420
 16777215
176
     1
 90
        1
176
     1
 90
        0
176
     1
 62
     7
176
     1
 62
   257
176
     1
 90
        1
176
     1
 90
        1
176
     1
 40
1.0
176
     1
 90
        0
176
     1
 62
   257
176
     1
 40
1.0
176
     1
 90
        1
176
     1
 90
        6
176
     1
 90
        2
176
     1
 62
     7
176
     1
 90
        5
176
     1
 90
        0
176
     1
 90
        0
176
     1
290
     0
176
     1
 90
       13
176
     1
 40
0.0
176
     1
 90
        0
176
     1
290
     0
176
     1
290
     1
176
     1
290
     1
176
     1
290
     0
176
     1
290
     0
176
     1
290
     0
176
     1
290
     0
176
     1
290
     0
176
     1
290
     0
176
     1
 90
       50
176
     1
 40
0.0
176
     1
 40
1.0
176
     1
 90
        0
176
     1
 62
    18
420
        0
176
     1
 90
       50
176
     1
 90
        3
176
     1
 62
     5
420
      255
176
     1
290
     0
176
     1
 90
       50
176
     1
 90
       50
176
     1
 90
       50
176
     1
290
     0
176
     1
 90
       50
176
     1
 62
   256
176
     0
 40
1.0
176
     0
 90
        2
176
     1
  1
strokes_ogs.tif
176
     1
290
     0
176
     1
 40
1.0
176
     1
 40
1.0
176
     1
  0
VISUALSTYLE
  5
2C
102
{ACAD_REACTORS
330
29
102
}
330
29
100
AcDbVisualStyle
  2
Gouraud
 70
     2
177
     3
291
     1
 70
    58
 90
        2
176
     1
 90
        2
176
     1
 90
        1
176
     1
 90
        2
176
     1
 40
0.6
176
     1
 40
30.0
176
     1
 62
     7
420
 16777215
176
     1
 90
        0
176
     1
 90
        0
176
     1
 62
     7
176
     1
 62
   257
176
     1
 90
        1
176
     1
 90
        1
176
     1
 40
1.0
176
     1
 90
        0
176
     1
 62
     7
176
     1
 40
1.0
176
     1
 90
        1
176
     1
 90
        6
176
     1
 90
        2
176
     1
 62
     7
176
     1
 90
        5
176
     1
 90
        0
176
     1
 90
        0
176
     1
290
     0
176
     1
 90
       13
176
     1
 40
0.0
176
     1
 90
        0
176
     1
290
     0
176
     1
290
     1
176
     1
290
     1
176
     1
290
     0
176
     1
290
     0
176
     1
290
     0
176
     1
290
     0
176
     1
290
     0
176
     1
290
     0
176
     1
 90
       50
176
     1
 40
0.0
176
     1
 40
1.0
176
     1
 90
        0
176
     1
 62
    18
420
        0
176
     1
 90
       50
176
     1
 90
        3
176
     1
 62
     5
420
      255
176
     1
290
     0
176
     1
 90
       50
176
     1
 90
       50
176
     1
 90
       50
176
     1
290
     0
176
     1
 90
       50
176
     1
 62
   256
176
     0
 40
1.0
176
     0
 90
        2
176
     1
  1
strokes_ogs.tif
176
     1
290
     0
176
     1
 40
1.0
176
     1
 40
1.0
176
     1
  0
VISUALSTYLE
  5
2D
102
{ACAD_REACTORS
330
29
102
}
330
29
100
AcDbVisualStyle
  2
GouraudWithEdges
 70
     3
177
     3
291
     1
 70
    58
 90
        2
176
     1
 90
        2
176
     1
 90
        1
176
     1
 90
        2
176
     1
 40
0.6
176
     1
 40
30.0
176
     1
 62
     7
420
 16777215
176
     1
 90
        1
176
     1
 90
        0
176
     1
 62
     7
176
     1
 62
   257
176
     1
 90
        1
176
     1
 90
        1
176
     1
 40
1.0
176
     1
 90
        0
176
     1
 62
   257
176
     1
 40
1.0
176
     1
 90
        1
176
     1
 90
        6
176
     1
 90
        2
176
     1
 62
     7
176
     1
 90
        5
176
     1
 90
        0
176
     1
 90
        0
176
     1
290
     0
176
     1
 90
       13
176
     1
 40
0.0
176
     1
 90
        0
176
     1
290
     0
176
     1
290
     1
176
     1
290
     1
176
     1
290
     0
176
     1
290
     0
176
     1
290
     0
176
     1
290
     0
176
     1
290
     0
176
     1
290
     0
176
     1
 90
       50
176
     1
 40
0.0
176
     1
 40
1.0
176
     1
 90
        0
176
     1
 62
    18
420
        0
176
     1
 90
       50
176
     1
 90
        3
176
     1
 62
     5
420
      255
176
     1
290
     0
176
     1
 90
       50
176
     1
 90
       50
176
     1
 90
       50
176
     1
290
     0
176
     1
 90
       50
176
     1
 62
   256
176
     0
 40
1.0
176
     0
 90
        2
176
     1
  1
strokes_ogs.tif
176
     1
290
     0
176
     1
 40
1.0
176
     1
 40
1.0
176
     1
  0
VISUALSTYLE
  5
31
102
{ACAD_REACTORS
330
29
102
}
330
29
100
AcDbVisualStyle
  2
Hidden
 70
     6
177
     3
291
     0
 70
    58
 90
        1
176
     1
 90
        2
176
     1
 90
        2
176
     1
 90
        0
176
     1
 40
0.6
176
     1
 40
30.0
176
     1
 62
     7
420
 16777215
176
     1
 90
        2
176
     1
 90
        2
176
     1
 62
     7
176
     1
 62
   257
176
     1
 90
        2
176
     1
 90
        1
176
     1
 40
40.0
176
     1
 90
        0
176
     1
 62
   257
176
     1
 40
1.0
176
     1
 90
        1
176
     1
 90
        6
176
     1
 90
        2
176
     1
 62
     7
176
     1
 90
        3
176
     1
 90
        0
176
     1
 90
        0
176
     1
290
     0
176
     1
 90
        1
176
     1
 40
0.0
176
     1
 90
        0
176
     1
290
     0
176
     1
290
     1
176
     1
290
     1
176
     1
290
     0
176
     1
290
     0
176
     1
290
     0
176
     1
290
     0
176
     1
290
     0
176
     1
290
     0
176
     1
 90
       50
176
     1
 40
0.0
176
     1
 40
1.0
176
     1
 90
        0
176
     1
 62
    18
420
        0
176
     1
 90
       50
176
     1
 90
        3
176
     1
 62
     5
420
      255
176
     1
290
     0
176
     1
 90
       50
176
     1
 90
       50
176
     1
 90
       50
176
     1
290
     0
176
     1
 90
       50
176
     1
 62
   256
176
     0
 40
1.0
176
     0
 90
        2
176
     1
  1
strokes_ogs.tif
176
     1
290
     0
176
     1
 40
1.0
176
     1
 40
1.0
176
     1
  0
VISUALSTYLE
  5
3F
102
{ACAD_REACTORS
330
29
102
}
330
29
100
AcDbVisualStyle
  2
JitterOff
 70
    20
177
     3
291
     1
 70
    58
 90
        2
176
     0
 90
        2
176
     0
 90
        0
176
     0
 90
        0
176
     0
 40
0.6
176
     0
 40
30.0
176
     0
 62
     7
420
 16777215
176
     0
 90
        1
176
     0
 90
        4
176
     0
 62
     7
176
     0
 62
   257
176
     0
 90
        1
176
     0
 90
        1
176
     0
 40
1.0
176
     0
 90
       10
176
     2
 62
     7
176
     0
 40
1.0
176
     0
 90
        1
176
     0
 90
        6
176
     0
 90
        2
176
     0
 62
     7
176
     0
 90
        5
176
     0
 90
        0
176
     0
 90
        0
176
     0
290
     0
176
     0
 90
        1
176
     0
 40
0.0
176
     0
 90
        0
176
     0
290
     0
176
     0
290
     1
176
     0
290
     1
176
     0
290
     0
176
     0
290
     0
176
     0
290
     0
176
     0
290
     0
176
     0
290
     0
176
     0
290
     0
176
     0
 90
       50
176
     0
 40
0.0
176
     0
 40
1.0
176
     0
 90
        0
176
     0
 62
    18
420
        0
176
     0
 90
       50
176
     0
 90
        3
176
     0
 62
     5
420
      255
176
     0
290
     0
176
     0
 90
       50
176
     0
 90
       50
176
     0
 90
       50
176
     0
290
     0
176
     0
 90
       50
176
     0
 62
   256
176
     0
 40
1.0
176
     0
 90
        2
176
     0
  1
strokes_ogs.tif
176
     0
290
     0
176
     0
 40
1.0
176
     0
 40
1.0
176
     0
  0
VISUALSTYLE
  5
37
102
{ACAD_REACTORS
330
29
102
}
330
29
100
AcDbVisualStyle
  2
Linepattern
 70
    14
177
     3
291
     1
 70
    58
 90
        2
176
     1
 90
        2
176
     1
 90
        0
176
     1
 90
        0
176
     1
 40
0.6
176
     1
 40
30.0
176
     1
 62
     7
420
 16777215
176
     1
 90
        1
176
     1
 90
        4
176
     1
 62
     7
176
     1
 62
   257
176
     1
 90
        7
176
     1
 90
        7
176
     1
 40
1.0
176
     1
 90
        8
176
     1
 62
     7
176
     1
 40
1.0
176
     1
 90
        1
176
     1
 90
        6
176
     1
 90
        2
176
     1
 62
     7
176
     1
 90
        5
176
     1
 90
        0
176
     1
 90
        0
176
     1
290
     0
176
     1
 90
        1
176
     1
 40
0.0
176
     1
 90
        0
176
     1
290
     0
176
     1
290
     1
176
     1
290
     1
176
     1
290
     0
176
     1
290
     0
176
     1
290
     0
176
     1
290
     0
176
     1
290
     0
176
     1
290
     0
176
     1
 90
       50
176
     1
 40
0.0
176
     1
 40
1.0
176
     1
 90
        0
176
     1
 62
    18
420
        0
176
     1
 90
       50
176
     1
 90
        3
176
     1
 62
     5
420
      255
176
     1
290
     0
176
     1
 90
       50
176
     1
 90
       50
176
     1
 90
       50
176
     1
290
     0
176
     1
 90
       50
176
     1
 62
   256
176
     0
 40
1.0
176
     0
 90
        2
176
     1
  1
strokes_ogs.tif
176
     1
290
     0
176
     1
 40
1.0
176
     1
 40
1.0
176
     1
  0
VISUALSTYLE
  5
40
102
{ACAD_REACTORS
330
29
102
}
330
29
100
AcDbVisualStyle
  2
OverhangOff
 70
    21
177
     3
291
     1
 70
    58
 90
        2
176
     0
 90
        2
176
     0
 90
        0
176
     0
 90
        0
176
     0
 40
0.6
176
     0
 40
30.0
176
     0
 62
     7
420
 16777215
176
     0
 90
        1
176
     0
 90
        4
176
     0
 62
     7
176
     0
 62
   257
176
     0
 90
        1
176
     0
 90
        1
176
     0
 40
1.0
176
     0
 90
        9
176
     2
 62
     7
176
     0
 40
1.0
176
     0
 90
        1
176
     0
 90
        6
176
     0
 90
        2
176
     0
 62
     7
176
     0
 90
        5
176
     0
 90
        0
176
     0
 90
        0
176
     0
290
     0
176
     0
 90
        1
176
     0
 40
0.0
176
     0
 90
        0
176
     0
290
     0
176
     0
290
     1
176
     0
290
     1
176
     0
290
     0
176
     0
290
     0
176
     0
290
     0
176
     0
290
     0
176
     0
290
     0
176
     0
290
     0
176
     0
 90
       50
176
     0
 40
0.0
176
     0
 40
1.0
176
     0
 90
        0
176
     0
 62
    18
420
        0
176
     0
 90
       50
176
     0
 90
        3
176
     0
 62
     5
420
      255
176
     0
290
     0
176
     0
 90
       50
176
     0
 90
       50
176
     0
 90
       50
176
     0
290
     0
176
     0
 90
       50
176
     0
 62
   256
176
     0
 40
1.0
176
     0
 90
        2
176
     0
  1
strokes_ogs.tif
176
     0
290
     0
176
     0
 40
1.0
176
     0
 40
1.0
176
     0
  0
VISUALSTYLE
  5
33
102
{ACAD_REACTORS
330
29
102
}
330
29
100
AcDbVisualStyle
  2
Realistic
 70
     8
177
     3
291
     0
 70
    58
 90
        2
176
     1
 90
        3
176
     1
 90
        0
176
     1
 90
        2
176
     1
 40
0.6
176
     1
 40
30.0
176
     1
 62
     7
420
 16777215
176
     1
 90
        0
176
     1
 90
        0
176
     1
 62
     7
176
     1
 62
   257
176
     1
 90
        1
176
     1
 90
        1
176
     1
 40
1.0
176
     1
 90
        8
176
     1
 62
   257
176
     1
 40
1.0
176
     1
 90
        1
176
     1
 90
        6
176
     1
 90
        2
176
     1
 62
     7
176
     1
 90
        3
176
     1
 90
        0
176
     1
 90
        0
176
     1
290
     0
176
     1
 90
       13
176
     1
 40
0.0
176
     1
 90
        0
176
     1
290
     0
176
     1
290
     1
176
     1
290
     1
176
     1
290
     0
176
     1
290
     0
176
     1
290
     0
176
     1
290
     0
176
     1
290
     0
176
     1
290
     0
176
     1
 90
       50
176
     1
 40
0.0
176
     1
 40
1.0
176
     1
 90
        0
176
     1
 62
    18
420
        0
176
     1
 90
       50
176
     1
 90
        3
176
     1
 62
     5
420
      255
176
     1
290
     0
176
     1
 90
       50
176
     1
 90
       50
176
     1
 90
       50
176
     1
290
     0
176
     1
 90
       50
176
     1
 62
   256
176
     0
 40
1.0
176
     0
 90
        2
176
     1
  1
strokes_ogs.tif
176
     1
290
     0
176
     1
 40
1.0
176
     1
 40
1.0
176
     1
  0
VISUALSTYLE
  5
3E
102
{ACAD_REACTORS
330
29
102
}
330
29
100
AcDbVisualStyle
  2
Shaded
 70
    27
177
     3
291
     0
 70
    58
 90
        2
176
     1
 90
        2
176
     1
 90
        1
176
     1
 90
        2
176
     1
 40
0.6
176
     1
 40
30.0
176
     1
 62
     7
420
 16777215
176
     1
 90
        0
176
     1
 90
        4
176
     1
 62
     7
176
     1
 62
   257
176
     1
 90
        1
176
     1
 90
        1
176
     1
 40
1.0
176
     1
 90
        8
176
     1
 62
   257
176
     1
 40
1.0
176
     1
 90
        1
176
     1
 90
        6
176
     1
 90
        2
176
     1
 62
     8
420
  7895160
176
     1
 90
        3
176
     1
 90
        0
176
     1
 90
        0
176
     1
290
     0
176
     1
 90
        5
176
     1
 40
0.0
176
     1
 90
        0
176
     1
290
     0
176
     1
290
     1
176
     1
290
     1
176
     1
290
     0
176
     1
290
     0
176
     1
290
     0
176
     1
290
     0
176
     1
290
     0
176
     1
290
     0
176
     1
 90
       50
176
     1
 40
0.0
176
     1
 40
1.0
176
     1
 90
        0
176
     1
 62
    18
420
        0
176
     1
 90
       50
176
     1
 90
        3
176
     1
 62
     5
420
      255
176
     1
290
     0
176
     1
 90
       50
176
     1
 90
       50
176
     1
 90
       50
176
     1
290
     0
176
     1
 90
       50
176
     1
 62
   256
176
     0
 40
1.0
176
     0
 90
        2
176
     1
  1
strokes_ogs.tif
176
     1
290
     0
176
     1
 40
1.0
176
     1
 40
1.0
176
     1
  0
VISUALSTYLE
  5
3D
102
{ACAD_REACTORS
330
29
102
}
330
29
100
AcDbVisualStyle
  2
Shaded with edges
 70
    26
177
     3
291
     0
 70
    58
 90
        2
176
     1
 90
        2
176
     1
 90
        1
176
     1
 90
        2
176
     1
 40
0.6
176
     1
 40
30.0
176
     1
 62
     7
420
 16777215
176
     1
 90
        1
176
     1
 90
       10
176
     1
 62
     7
176
     1
 62
   257
176
     1
 90
        2
176
     1
 90
        1
176
     1
 40
1.0
176
     1
 90
        8
176
     1
 62
   257
176
     1
 40
1.0
176
     1
 90
        1
176
     1
 90
        6
176
     1
 90
        2
176
     1
 62
     7
176
     1
 90
        3
176
     1
 90
        0
176
     1
 90
        0
176
     1
290
     0
176
     1
 90
        5
176
     1
 40
0.0
176
     1
 90
        0
176
     1
290
     0
176
     1
290
     1
176
     1
290
     1
176
     1
290
     0
176
     1
290
     0
176
     1
290
     0
176
     1
290
     0
176
     1
290
     0
176
     1
290
     0
176
     1
 90
       50
176
     1
 40
0.0
176
     1
 40
1.0
176
     1
 90
        0
176
     1
 62
    18
420
        0
176
     1
 90
       50
176
     1
 90
        3
176
     1
 62
     5
420
      255
176
     1
290
     0
176
     1
 90
       50
176
     1
 90
       50
176
     1
 90
       50
176
     1
290
     0
176
     1
 90
       50
176
     1
 62
   256
176
     0
 40
1.0
176
     0
 90
        2
176
     1
  1
strokes_ogs.tif
176
     1
290
     0
176
     1
 40
1.0
176
     1
 40
1.0
176
     1
  0
VISUALSTYLE
  5
3A
102
{ACAD_REACTORS
330
29
102
}
330
29
100
AcDbVisualStyle
  2
Shades of Gray
 70
    23
177
     3
291
     0
 70
    58
 90
        2
176
     1
 90
        2
176
     1
 90
        3
176
     1
 90
        0
176
     1
 40
0.6
176
     1
 40
30.0
176
     1
 62
     7
420
 16777215
176
     1
 90
        2
176
     1
 90
        2
176
     1
 62
     7
176
     1
 62
     7
176
     1
 90
        1
176
     1
 90
        1
176
     1
 40
40.0
176
     1
 90
        8
176
     1
 62
     7
176
     1
 40
1.0
176
     1
 90
        1
176
     1
 90
        6
176
     1
 90
        2
176
     1
 62
     7
176
     1
 90
        3
176
     1
 90
        0
176
     1
 90
        0
176
     1
290
     0
176
     1
 90
        1
176
     1
 40
0.0
176
     1
 90
        0
176
     1
290
     0
176
     1
290
     1
176
     1
290
     1
176
     1
290
     0
176
     1
290
     0
176
     1
290
     0
176
     1
290
     0
176
     1
290
     0
176
     1
290
     0
176
     1
 90
       50
176
     1
 40
0.0
176
     1
 40
1.0
176
     1
 90
        0
176
     1
 62
    18
420
        0
176
     1
 90
       50
176
     1
 90
        3
176
     1
 62
     5
420
      255
176
     1
290
     0
176
     1
 90
       50
176
     1
 90
       50
176
     1
 90
       50
176
     1
290
     0
176
     1
 90
       50
176
     1
 62
   256
176
     0
 40
1.0
176
     0
 90
        2
176
     1
  1
strokes_ogs.tif
176
     1
290
     0
176
     1
 40
1.0
176
     1
 40
1.0
176
     1
  0
VISUALSTYLE
  5
3B
102
{ACAD_REACTORS
330
29
102
}
330
29
100
AcDbVisualStyle
  2
Sketchy
 70
    24
177
     3
291
     0
 70
    58
 90
        1
176
     1
 90
        2
176
     1
 90
        2
176
     1
 90
        0
176
     1
 40
0.6
176
     1
 40
30.0
176
     1
 62
     7
420
 16777215
176
     1
 90
        2
176
     1
 90
        2
176
     1
 62
     7
176
     1
 62
     7
176
     1
 90
        1
176
     1
 90
        1
176
     1
 40
40.0
176
     1
 90
       11
176
     1
 62
     7
176
     1
 40
1.0
176
     1
 90
        1
176
     1
 90
        6
176
     1
 90
        2
176
     1
 62
     7
176
     1
 90
        6
176
     1
 90
        0
176
     1
 90
        0
176
     1
290
     0
176
     1
 90
        1
176
     1
 40
0.0
176
     1
 90
        0
176
     1
290
     0
176
     1
290
     1
176
     1
290
     1
176
     1
290
     0
176
     1
290
     0
176
     1
290
     0
176
     1
290
     0
176
     1
290
     0
176
     1
290
     0
176
     1
 90
       50
176
     1
 40
0.0
176
     1
 40
1.0
176
     1
 90
        0
176
     1
 62
    18
420
        0
176
     1
 90
       50
176
     1
 90
        3
176
     1
 62
     5
420
      255
176
     1
290
     0
176
     1
 90
       50
176
     1
 90
       50
176
     1
 90
       50
176
     1
290
     0
176
     1
 90
       50
176
     1
 62
   256
176
     0
 40
1.0
176
     0
 90
        2
176
     1
  1
strokes_ogs.tif
176
     1
290
     0
176
     1
 40
1.0
176
     1
 40
1.0
176
     1
  0
VISUALSTYLE
  5
36
102
{ACAD_REACTORS
330
29
102
}
330
29
100
AcDbVisualStyle
  2
Thicken
 70
    13
177
     3
291
     1
 70
    58
 90
        2
176
     1
 90
        2
176
     1
 90
        0
176
     1
 90
        0
176
     1
 40
0.6
176
     1
 40
30.0
176
     1
 62
     7
420
 16777215
176
     1
 90
        1
176
     1
 90
        4
176
     1
 62
     7
176
     1
 62
   257
176
     1
 90
        1
176
     1
 90
        1
176
     1
 40
1.0
176
     1
 90
       12
176
     1
 62
     7
176
     1
 40
1.0
176
     1
 90
        1
176
     1
 90
        6
176
     1
 90
        2
176
     1
 62
     7
176
     1
 90
        5
176
     1
 90
        0
176
     1
 90
        0
176
     1
290
     0
176
     1
 90
        1
176
     1
 40
0.0
176
     1
 90
        0
176
     1
290
     0
176
     1
290
     1
176
     1
290
     1
176
     1
290
     0
176
     1
290
     0
176
     1
290
     0
176
     1
290
     0
176
     1
290
     0
176
     1
290
     0
176
     1
 90
       50
176
     1
 40
0.0
176
     1
 40
1.0
176
     1
 90
        0
176
     1
 62
    18
420
        0
176
     1
 90
       50
176
     1
 90
        3
176
     1
 62
     5
420
      255
176
     1
290
     0
176
     1
 90
       50
176
     1
 90
       50
176
     1
 90
       50
176
     1
290
     0
176
     1
 90
       50
176
     1
 62
   256
176
     0
 40
1.0
176
     0
 90
        2
176
     1
  1
strokes_ogs.tif
176
     1
290
     0
176
     1
 40
1.0
176
     1
 40
1.0
176
     1
  0
VISUALSTYLE
  5
30
102
{ACAD_REACTORS
330
29
102
}
330
29
100
AcDbVisualStyle
  2
Wireframe
 70
     5
177
     3
291
     0
 70
    58
 90
        0
176
     1
 90
        2
176
     1
 90
        0
176
     1
 90
        0
176
     1
 40
0.6
176
     1
 40
30.0
176
     1
 62
     7
420
 16777215
176
     1
 90
        1
176
     1
 90
        4
176
     1
 62
     7
176
     1
 62
   257
176
     1
 90
        1
176
     1
 90
        1
176
     1
 40
1.0
176
     1
 90
        0
176
     1
 62
   257
176
     1
 40
1.0
176
     1
 90
        1
176
     1
 90
        6
176
     1
 90
        2
176
     1
 62
     7
176
     1
 90
        3
176
     1
 90
        0
176
     1
 90
        0
176
     1
290
     0
176
     1
 90
        1
176
     1
 40
0.0
176
     1
 90
        0
176
     1
290
     0
176
     1
290
     1
176
     1
290
     1
176
     1
290
     0
176
     1
290
     0
176
     1
290
     0
176
     1
290
     0
176
     1
290
     0
176
     1
290
     0
176
     1
 90
       50
176
     1
 40
0.0
176
     1
 40
1.0
176
     1
 90
        0
176
     1
 62
    18
420
        0
176
     1
 90
       50
176
     1
 90
        3
176
     1
 62
     5
420
      255
176
     1
290
     0
176
     1
 90
       50
176
     1
 90
       50
176
     1
 90
       50
176
     1
290
     0
176
     1
 90
       50
176
     1
 62
   256
176
     0
 40
1.0
176
     0
 90
        2
176
     1
  1
strokes_ogs.tif
176
     1
290
     0
176
     1
 40
1.0
176
     1
 40
1.0
176
     1
  0
VISUALSTYLE
  5
3C
102
{ACAD_REACTORS
330
29
102
}
330
29
100
AcDbVisualStyle
  2
X-Ray
 70
    25
177
     3
291
     0
 70
    58
 90
        2
176
     1
 90
        2
176
     1
 90
        1
176
     1
 90
        1
176
     1
 40
0.5
176
     1
 40
30.0
176
     1
 62
     7
420
 16777215
176
     1
 90
        1
176
     1
 90
        0
176
     1
 62
     7
176
     1
 62
   257
176
     1
 90
        1
176
     1
 90
        1
176
     1
 40
1.0
176
     1
 90
        8
176
     1
 62
     7
176
     1
 40
1.0
176
     1
 90
        1
176
     1
 90
        6
176
     1
 90
        2
176
     1
 62
     7
176
     1
 90
        3
176
     1
 90
        0
176
     1
 90
        0
176
     1
290
     0
176
     1
 90
       13
176
     1
 40
0.0
176
     1
 90
        0
176
     1
290
     0
176
     1
290
     1
176
     1
290
     1
176
     1
290
     0
176
     1
290
     0
176
     1
290
     0
176
     1
290
     0
176
     1
290
     0
176
     1
290
     0
176
     1
 90
       50
176
     1
 40
0.0
176
     1
 40
1.0
176
     1
 90
        0
176
     1
 62
    18
420
        0
176
     1
 90
       50
176
     1
 90
        3
176
     1
 62
     5
420
      255
176
     1
290
     0
176
     1
 90
       50
176
     1
 90
       50
176
     1
 90
       50
176
     1
290
     0
176
     1
 90
       50
176
     1
 62
   256
176
     0
 40
1.0
176
     0
 90
        2
176
     1
  1
strokes_ogs.tif
176
     1
290
     0
176
     1
 40
1.0
176
     1
 40
1.0
176
     1
  0
DICTIONARYVAR
  5
81
102
{ACAD_REACTORS
330
7C
102
}
330
7C
100
DictionaryVariables
280
     0
  1
1:1
  0
DICTIONARYVAR
  5
7E
102
{ACAD_REACTORS
330
7C
102
}
330
7C
100
DictionaryVariables
280
     0
  1
STANDARD
  0
DICTIONARYVAR
  5
7D
102
{ACAD_REACTORS
330
7C
102
}
330
7C
100
DictionaryVariables
280
     0
  1
STANDARD
  0
DICTIONARYVAR
  5
7F
102
{ACAD_REACTORS
330
7C
102
}
330
7C
100
DictionaryVariables
280
     0
  1
Imperial24
  0
DICTIONARYVAR
  5
80
102
{ACAD_REACTORS
330
7C
102
}
330
7C
100
DictionaryVariables
280
     0
  1
Imperial24
  0
XRECORD
  5
256
102
{ACAD_REACTORS
330
253
102
}
330
253
100
AcDbXrecord
280
     1
  1
BUILDING_ID
  1
Progetto per messa in tavola DXF, DWG
  1
FLOOR_ID
  1
694395
  0
XRECORD
  5
255
102
{ACAD_REACTORS
330
253
102
}
330
253
100
AcDbXrecord
280
     1
  1
-2001160
  1
Apparecchi idraulici
  0
XRECORD
  5
254
102
{ACAD_REACTORS
330
253
102
}
330
253
100
AcDbXrecord
280
     1
  1
859151
  1
Automatic flow rate regulator valve_Caleffi_121 DN15 : 1/2''
  0
DICTIONARY
  5
1A
330
19
100
AcDbDictionary
280
     1
281
     1
  3
BUMPTILE
360
1C
  3
DIFFUSETILE
360
1B
  3
OPACITYTILE
360
1F
  3
REFLECTIONTILE
360
1E
  3
REFRACTIONTILE
360
20
  3
SPECULARTILE
360
1D
  0
DICTIONARY
  5
12
330
11
100
AcDbDictionary
280
     1
281
     1
  3
BUMPTILE
360
14
  3
DIFFUSETILE
360
13
  3
OPACITYTILE
360
17
  3
REFLECTIONTILE
360
16
  3
REFRACTIONTILE
360
18
  3
SPECULARTILE
360
15
  0
DICTIONARY
  5
22
330
21
100
AcDbDictionary
280
     1
281
     1
  3
BUMPTILE
360
24
  3
DIFFUSETILE
360
23
  3
OPACITYTILE
360
27
  3
REFLECTIONTILE
360
26
  3
REFRACTIONTILE
360
28
  3
SPECULARTILE
360
25
  0
DICTIONARY
  5
259
330
65
100
AcDbDictionary
280
     1
281
     1
  3
ACAD_ROUNDTRIP_2008_TABLESTYLE_CELLSTYLEMAP
360
25A
  0
XRECORD
  5
1C
102
{ACAD_REACTORS
330
1A
102
}
330
1A
100
AcDbXrecord
280
     1
270
     1
271
     1
  0
XRECORD
  5
1B
102
{ACAD_REACTORS
330
1A
102
}
330
1A
100
AcDbXrecord
280
     1
270
     1
271
     1
  0
XRECORD
  5
1F
102
{ACAD_REACTORS
330
1A
102
}
330
1A
100
AcDbXrecord
280
     1
270
     1
271
     1
  0
XRECORD
  5
1E
102
{ACAD_REACTORS
330
1A
102
}
330
1A
100
AcDbXrecord
280
     1
270
     1
271
     1
  0
XRECORD
  5
20
102
{ACAD_REACTORS
330
1A
102
}
330
1A
100
AcDbXrecord
280
     1
270
     1
271
     1
  0
XRECORD
  5
1D
102
{ACAD_REACTORS
330
1A
102
}
330
1A
100
AcDbXrecord
280
     1
270
     1
271
     1
  0
XRECORD
  5
14
102
{ACAD_REACTORS
330
12
102
}
330
12
100
AcDbXrecord
280
     1
270
     1
271
     1
  0
XRECORD
  5
13
102
{ACAD_REACTORS
330
12
102
}
330
12
100
AcDbXrecord
280
     1
270
     1
271
     1
  0
XRECORD
  5
17
102
{ACAD_REACTORS
330
12
102
}
330
12
100
AcDbXrecord
280
     1
270
     1
271
     1
  0
XRECORD
  5
16
102
{ACAD_REACTORS
330
12
102
}
330
12
100
AcDbXrecord
280
     1
270
     1
271
     1
  0
XRECORD
  5
18
102
{ACAD_REACTORS
330
12
102
}
330
12
100
AcDbXrecord
280
     1
270
     1
271
     1
  0
XRECORD
  5
15
102
{ACAD_REACTORS
330
12
102
}
330
12
100
AcDbXrecord
280
     1
270
     1
271
     1
  0
XRECORD
  5
24
102
{ACAD_REACTORS
330
22
102
}
330
22
100
AcDbXrecord
280
     1
270
     1
271
     1
  0
XRECORD
  5
23
102
{ACAD_REACTORS
330
22
102
}
330
22
100
AcDbXrecord
280
     1
270
     1
271
     1
  0
XRECORD
  5
27
102
{ACAD_REACTORS
330
22
102
}
330
22
100
AcDbXrecord
280
     1
270
     1
271
     1
  0
XRECORD
  5
26
102
{ACAD_REACTORS
330
22
102
}
330
22
100
AcDbXrecord
280
     1
270
     1
271
     1
  0
XRECORD
  5
28
102
{ACAD_REACTORS
330
22
102
}
330
22
100
AcDbXrecord
280
     1
270
     1
271
     1
  0
XRECORD
  5
25
102
{ACAD_REACTORS
330
22
102
}
330
22
100
AcDbXrecord
280
     1
270
     1
271
     1
  0
CELLSTYLEMAP
  5
25A
102
{ACAD_REACTORS
330
259
102
}
330
259
100
AcDbCellStyleMap
 90
        3
300
CELLSTYLE
  1
TABLEFORMAT_BEGIN
 90
        5
170
     1
 91
        0
 92
    32768
 62
   257
 93
        1
300
CONTENTFORMAT
  1
CONTENTFORMAT_BEGIN
 90
        0
 91
        0
 92
      512
 93
        0
300

 40
0.0
140
1.0
 94
        5
 62
     0
340
55
144
0.25
309
CONTENTFORMAT_END
171
     0
 94
        0
309
TABLEFORMAT_END
  1
CELLSTYLE_BEGIN
 90
        1
 91
        1
300
_TITLE
309
CELLSTYLE_END
300
CELLSTYLE
  1
TABLEFORMAT_BEGIN
 90
        5
170
     1
 91
        0
 92
        0
 62
   257
 93
        1
300
CONTENTFORMAT
  1
CONTENTFORMAT_BEGIN
 90
        0
 91
        0
 92
      512
 93
        0
300

 40
0.0
140
1.0
 94
        5
 62
     0
340
55
144
0.18
309
CONTENTFORMAT_END
171
     0
 94
        0
309
TABLEFORMAT_END
  1
CELLSTYLE_BEGIN
 90
        2
 91
        1
300
_HEADER
309
CELLSTYLE_END
300
CELLSTYLE
  1
TABLEFORMAT_BEGIN
 90
        5
170
     1
 91
        0
 92
        0
 62
   257
 93
        1
300
CONTENTFORMAT
  1
CONTENTFORMAT_BEGIN
 90
        0
 91
        0
 92
      512
 93
        0
300

 40
0.0
140
1.0
 94
        2
 62
     0
340
55
144
0.18
309
CONTENTFORMAT_END
171
     0
 94
        0
309
TABLEFORMAT_END
  1
CELLSTYLE_BEGIN
 90
        3
 91
        2
300
_DATA
309
CELLSTYLE_END
  0
ENDSEC
  0
EOF
