  0
SECTION
  2
HEADER
  9
$ACADVER
  1
AC1027
  9
$ACADMAINTVER
 70
    20
  9
$DWGCODEPAGE
  3
ANSI_1252
  9
$REQUIREDVERSIONS
160
                 0
  9
$INSBASE
 10
0.0
 20
0.0
 30
0.0
  9
$EXTMIN
 10
774.6664074431879
 20
1649.497075844258
 30
-0.00000001
  9
$EXTMAX
 10
1275.113156828899
 20
2060.948183850127
 30
0.00000001
  9
$LIMMIN
 10
0.0
 20
0.0
  9
$LIMMAX
 10
12.0
 20
9.0
  9
$ORTHOMODE
 70
     0
  9
$REGENMODE
 70
     1
  9
$FILLMODE
 70
     1
  9
$QTEXTMODE
 70
     0
  9
$MIRRTEXT
 70
     0
  9
$LTSCALE
 40
1.0
  9
$ATTMODE
 70
     1
  9
$TEXTSIZE
 40
0.2
  9
$TRACEWID
 40
0.05
  9
$TEXTSTYLE
  7
Standard
  9
$CLAYER
  8
0
  9
$CELTYPE
  6
ByLayer
  9
$CECOLOR
 62
   256
  9
$CELTSCALE
 40
1.0
  9
$DISPSILH
 70
     0
  9
$DIMSCALE
 40
1.0
  9
$DIMASZ
 40
0.18
  9
$DIMEXO
 40
0.0625
  9
$DIMDLI
 40
0.38
  9
$DIMRND
 40
0.0
  9
$DIMDLE
 40
0.0
  9
$DIMEXE
 40
0.18
  9
$DIMTP
 40
0.0
  9
$DIMTM
 40
0.0
  9
$DIMTXT
 40
0.18
  9
$DIMCEN
 40
0.09
  9
$DIMTSZ
 40
0.0
  9
$DIMTOL
 70
     0
  9
$DIMLIM
 70
     0
  9
$DIMTIH
 70
     1
  9
$DIMTOH
 70
     1
  9
$DIMSE1
 70
     0
  9
$DIMSE2
 70
     0
  9
$DIMTAD
 70
     0
  9
$DIMZIN
 70
     0
  9
$DIMBLK
  1

  9
$DIMASO
 70
     1
  9
$DIMSHO
 70
     1
  9
$DIMPOST
  1

  9
$DIMAPOST
  1

  9
$DIMALT
 70
     0
  9
$DIMALTD
 70
     2
  9
$DIMALTF
 40
25.4
  9
$DIMLFAC
 40
1.0
  9
$DIMTOFL
 70
     0
  9
$DIMTVP
 40
0.0
  9
$DIMTIX
 70
     0
  9
$DIMSOXD
 70
     0
  9
$DIMSAH
 70
     0
  9
$DIMBLK1
  1

  9
$DIMBLK2
  1

  9
$DIMSTYLE
  2
Standard
  9
$DIMCLRD
 70
     0
  9
$DIMCLRE
 70
     0
  9
$DIMCLRT
 70
     0
  9
$DIMTFAC
 40
1.0
  9
$DIMGAP
 40
0.09
  9
$DIMJUST
 70
     0
  9
$DIMSD1
 70
     0
  9
$DIMSD2
 70
     0
  9
$DIMTOLJ
 70
     1
  9
$DIMTZIN
 70
     0
  9
$DIMALTZ
 70
     0
  9
$DIMALTTZ
 70
     0
  9
$DIMUPT
 70
     0
  9
$DIMDEC
 70
     4
  9
$DIMTDEC
 70
     4
  9
$DIMALTU
 70
     2
  9
$DIMALTTD
 70
     2
  9
$DIMTXSTY
  7
Standard
  9
$DIMAUNIT
 70
     0
  9
$DIMADEC
 70
     0
  9
$DIMALTRND
 40
0.0
  9
$DIMAZIN
 70
     0
  9
$DIMDSEP
 70
    46
  9
$DIMATFIT
 70
     3
  9
$DIMFRAC
 70
     0
  9
$DIMLDRBLK
  1

  9
$DIMLUNIT
 70
     2
  9
$DIMLWD
 70
    -2
  9
$DIMLWE
 70
    -2
  9
$DIMTMOVE
 70
     0
  9
$DIMFXL
 40
1.0
  9
$DIMFXLON
 70
     0
  9
$DIMJOGANG
 40
0.7853981633974483
  9
$DIMTFILL
 70
     0
  9
$DIMTFILLCLR
 70
     0
  9
$DIMARCSYM
 70
     0
  9
$DIMLTYPE
  6

  9
$DIMLTEX1
  6

  9
$DIMLTEX2
  6

  9
$DIMTXTDIRECTION
 70
     0
  9
$LUNITS
 70
     2
  9
$LUPREC
 70
     4
  9
$SKETCHINC
 40
0.1
  9
$FILLETRAD
 40
0.0
  9
$AUNITS
 70
     0
  9
$AUPREC
 70
     0
  9
$MENU
  1
.
  9
$ELEVATION
 40
0.0
  9
$PELEVATION
 40
0.0
  9
$THICKNESS
 40
0.0
  9
$LIMCHECK
 70
     0
  9
$CHAMFERA
 40
0.0
  9
$CHAMFERB
 40
0.0
  9
$CHAMFERC
 40
0.0
  9
$CHAMFERD
 40
0.0
  9
$SKPOLY
 70
     0
  9
$TDCREATE
 40
2457569.638257592
  9
$TDUCREATE
 40
2457569.554924260
  9
$TDUPDATE
 40
2457569.638257592
  9
$TDUUPDATE
 40
2457569.554924260
  9
$TDINDWG
 40
0.0000108565
  9
$TDUSRTIMER
 40
0.0000108565
  9
$USRTIMER
 70
     1
  9
$ANGBASE
 50
0.0
  9
$ANGDIR
 70
     0
  9
$PDMODE
 70
     0
  9
$PDSIZE
 40
0.0
  9
$PLINEWID
 40
0.0
  9
$SPLFRAME
 70
     0
  9
$SPLINETYPE
 70
     6
  9
$SPLINESEGS
 70
     8
  9
$HANDSEED
  5
218
  9
$SURFTAB1
 70
     6
  9
$SURFTAB2
 70
     6
  9
$SURFTYPE
 70
     6
  9
$SURFU
 70
     6
  9
$SURFV
 70
     6
  9
$UCSBASE
  2

  9
$UCSNAME
  2

  9
$UCSORG
 10
0.0
 20
0.0
 30
0.0
  9
$UCSXDIR
 10
1.0
 20
0.0
 30
0.0
  9
$UCSYDIR
 10
0.0
 20
1.0
 30
0.0
  9
$UCSORTHOREF
  2

  9
$UCSORTHOVIEW
 70
     0
  9
$UCSORGTOP
 10
0.0
 20
0.0
 30
0.0
  9
$UCSORGBOTTOM
 10
0.0
 20
0.0
 30
0.0
  9
$UCSORGLEFT
 10
0.0
 20
0.0
 30
0.0
  9
$UCSORGRIGHT
 10
0.0
 20
0.0
 30
0.0
  9
$UCSORGFRONT
 10
0.0
 20
0.0
 30
0.0
  9
$UCSORGBACK
 10
0.0
 20
0.0
 30
0.0
  9
$PUCSBASE
  2

  9
$PUCSNAME
  2

  9
$PUCSORG
 10
0.0
 20
0.0
 30
0.0
  9
$PUCSXDIR
 10
1.0
 20
0.0
 30
0.0
  9
$PUCSYDIR
 10
0.0
 20
1.0
 30
0.0
  9
$PUCSORTHOREF
  2

  9
$PUCSORTHOVIEW
 70
     0
  9
$PUCSORGTOP
 10
0.0
 20
0.0
 30
0.0
  9
$PUCSORGBOTTOM
 10
0.0
 20
0.0
 30
0.0
  9
$PUCSORGLEFT
 10
0.0
 20
0.0
 30
0.0
  9
$PUCSORGRIGHT
 10
0.0
 20
0.0
 30
0.0
  9
$PUCSORGFRONT
 10
0.0
 20
0.0
 30
0.0
  9
$PUCSORGBACK
 10
0.0
 20
0.0
 30
0.0
  9
$USERI1
 70
     0
  9
$USERI2
 70
     0
  9
$USERI3
 70
     0
  9
$USERI4
 70
     0
  9
$USERI5
 70
     0
  9
$USERR1
 40
0.0
  9
$USERR2
 40
0.0
  9
$USERR3
 40
0.0
  9
$USERR4
 40
0.0
  9
$USERR5
 40
0.0
  9
$WORLDVIEW
 70
     1
  9
$SHADEDGE
 70
     3
  9
$SHADEDIF
 70
    70
  9
$TILEMODE
 70
     1
  9
$MAXACTVP
 70
    64
  9
$PINSBASE
 10
0.0
 20
0.0
 30
0.0
  9
$PLIMCHECK
 70
     0
  9
$PEXTMIN
 10
1.000000000000000E+20
 20
1.000000000000000E+20
 30
1.000000000000000E+20
  9
$PEXTMAX
 10
-1.000000000000000E+20
 20
-1.000000000000000E+20
 30
-1.000000000000000E+20
  9
$PLIMMIN
 10
0.0
 20
0.0
  9
$PLIMMAX
 10
12.0
 20
9.0
  9
$UNITMODE
 70
     0
  9
$VISRETAIN
 70
     1
  9
$PLINEGEN
 70
     0
  9
$PSLTSCALE
 70
     1
  9
$TREEDEPTH
 70
  3020
  9
$CMLSTYLE
  2
Standard
  9
$CMLJUST
 70
     0
  9
$CMLSCALE
 40
1.0
  9
$PROXYGRAPHICS
 70
     1
  9
$MEASUREMENT
 70
     1
  9
$CELWEIGHT
370
    -1
  9
$ENDCAPS
280
     0
  9
$JOINSTYLE
280
     0
  9
$LWDISPLAY
290
     0
  9
$INSUNITS
 70
     4
  9
$HYPERLINKBASE
  1

  9
$STYLESHEET
  1

  9
$XEDIT
290
     1
  9
$CEPSNTYPE
380
     0
  9
$PSTYLEMODE
290
     1
  9
$FINGERPRINTGUID
  2
{584FB54D-9BA6-40E6-9201-AA93A94694EC}
  9
$VERSIONGUID
  2
{E5B5DEF3-627A-4295-8B53-410760C1AEC1}
  9
$EXTNAMES
290
     1
  9
$PSVPSCALE
 40
0.0
  9
$OLESTARTUP
290
     0
  9
$SORTENTS
280
   127
  9
$INDEXCTL
280
     0
  9
$HIDETEXT
280
     1
  9
$XCLIPFRAME
280
     2
  9
$HALOGAP
280
     0
  9
$OBSCOLOR
 70
   257
  9
$OBSLTYPE
280
     0
  9
$INTERSECTIONDISPLAY
280
     0
  9
$INTERSECTIONCOLOR
 70
   257
  9
$DIMASSOC
280
     2
  9
$PROJECTNAME
  1

  9
$CAMERADISPLAY
290
     0
  9
$LENSLENGTH
 40
50.0
  9
$CAMERAHEIGHT
 40
0.0
  9
$STEPSPERSEC
 40
2.0
  9
$STEPSIZE
 40
6.0
  9
$3DDWFPREC
 40
2.0
  9
$PSOLWIDTH
 40
0.25
  9
$PSOLHEIGHT
 40
4.0
  9
$LOFTANG1
 40
1.570796326794896
  9
$LOFTANG2
 40
1.570796326794896
  9
$LOFTMAG1
 40
0.0
  9
$LOFTMAG2
 40
0.0
  9
$LOFTPARAM
 70
     7
  9
$LOFTNORMALS
280
     1
  9
$LATITUDE
 40
37.795
  9
$LONGITUDE
 40
-122.394
  9
$NORTHDIRECTION
 40
0.0
  9
$TIMEZONE
 70
 -8000
  9
$LIGHTGLYPHDISPLAY
280
     1
  9
$TILEMODELIGHTSYNCH
280
     1
  9
$CMATERIAL
347
11
  9
$SOLIDHIST
280
     0
  9
$SHOWHIST
280
     1
  9
$DWFFRAME
280
     2
  9
$DGNFRAME
280
     0
  9
$REALWORLDSCALE
290
     1
  9
$INTERFERECOLOR
 62
     1
  9
$INTERFEREOBJVS
345
33
  9
$INTERFEREVPVS
346
30
  9
$CSHADOW
280
     0
  9
$SHADOWPLANELOCATION
 40
0.0
  0
ENDSEC
  0
SECTION
  2
CLASSES
  0
CLASS
  1
ACDBDICTIONARYWDFLT
  2
AcDbDictionaryWithDefault
  3
ObjectDBX Classes
 90
        0
 91
        1
280
     0
281
     0
  0
CLASS
  1
MATERIAL
  2
AcDbMaterial
  3
ObjectDBX Classes
 90
     1153
 91
        3
280
     0
281
     0
  0
CLASS
  1
VISUALSTYLE
  2
AcDbVisualStyle
  3
ObjectDBX Classes
 90
     4095
 91
       24
280
     0
281
     0
  0
CLASS
  1
SCALE
  2
AcDbScale
  3
ObjectDBX Classes
 90
     1153
 91
       17
280
     0
281
     0
  0
CLASS
  1
TABLESTYLE
  2
AcDbTableStyle
  3
ObjectDBX Classes
 90
     4095
 91
        1
280
     0
281
     0
  0
CLASS
  1
MLEADERSTYLE
  2
AcDbMLeaderStyle
  3
ACDB_MLEADERSTYLE_CLASS
 90
     4095
 91
        1
280
     0
281
     0
  0
CLASS
  1
ACDBSECTIONVIEWSTYLE
  2
AcDbSectionViewStyle
  3
ObjectDBX Classes
 90
     1025
 91
        1
280
     0
281
     0
  0
CLASS
  1
ACDBDETAILVIEWSTYLE
  2
AcDbDetailViewStyle
  3
ObjectDBX Classes
 90
     1025
 91
        1
280
     0
281
     0
  0
CLASS
  1
RASTERVARIABLES
  2
AcDbRasterVariables
  3
ISM
 90
        0
 91
        1
280
     0
281
     0
  0
CLASS
  1
DICTIONARYVAR
  2
AcDbDictionaryVar
  3
ObjectDBX Classes
 90
        0
 91
        5
280
     0
281
     0
  0
CLASS
  1
CELLSTYLEMAP
  2
AcDbCellStyleMap
  3
ObjectDBX Classes
 90
     1152
 91
        2
280
     0
281
     0
  0
CLASS
  1
SORTENTSTABLE
  2
AcDbSortentsTable
  3
ObjectDBX Classes
 90
        0
 91
        1
280
     0
281
     0
  0
ENDSEC
  0
SECTION
  2
TABLES
  0
TABLE
  2
VPORT
  5
8
330
0
100
AcDbSymbolTable
 70
     1
  0
VPORT
  5
57
330
8
100
AcDbSymbolTableRecord
100
AcDbViewportTableRecord
  2
*Active
 70
     0
 10
0.0
 20
0.0
 11
1.0
 21
1.0
 12
1024.889782136043
 22
1855.222629847193
 13
0.0
 23
0.0
 14
1.0
 24
1.0
 15
0.0
 25
0.0
 16
0.0
 26
0.0
 36
1.0
 17
0.0
 27
0.0
 37
0.0
 40
411.4511080058691
 41
1.216297002604188
 42
50.0
 43
0.0
 44
0.0
 50
0.0
 51
0.0
 71
     0
 72
  1000
 73
     1
 74
     1
 75
     0
 76
     0
 77
     0
 78
     0
281
     0
 65
     1
110
0.0
120
0.0
130
0.0
111
1.0
121
0.0
131
0.0
112
0.0
122
1.0
132
0.0
 79
     0
146
0.0
 60
     3
 61
     5
292
     1
282
     1
141
0.0
142
0.0
 63
   250
421
  3355443
  0
ENDTAB
  0
TABLE
  2
LTYPE
  5
5
330
0
100
AcDbSymbolTable
 70
     3
  0
LTYPE
  5
5B
330
5
100
AcDbSymbolTableRecord
100
AcDbLinetypeTableRecord
  2
ByBlock
 70
     0
  3

 72
    65
 73
     0
 40
0.0
  0
LTYPE
  5
5C
330
5
100
AcDbSymbolTableRecord
100
AcDbLinetypeTableRecord
  2
ByLayer
 70
     0
  3

 72
    65
 73
     0
 40
0.0
  0
LTYPE
  5
5D
330
5
100
AcDbSymbolTableRecord
100
AcDbLinetypeTableRecord
  2
Continuous
 70
     0
  3
Solid line
 72
    65
 73
     0
 40
0.0
  0
LTYPE
  5
69
330
5
100
AcDbSymbolTableRecord
100
AcDbLinetypeTableRecord
  2
PHANTOM2
 70
     0
  3
___ _ _ ___ _ _ ___ _ _ ___ _ _
 72
    65
 73
     6
 40
1.25
 49
0.625
 74
     0
 49
-0.125
 74
     0
 49
0.125
 74
     0
 49
-0.125
 74
     0
 49
0.125
 74
     0
 49
-0.125
 74
     0
  0
LTYPE
  5
86
330
5
100
AcDbSymbolTableRecord
100
AcDbLinetypeTableRecord
  2
Nascosto 1_5 mm
 70
     0
  3

 72
    65
 73
     2
 40
2.2
 49
1.5
 74
     0
 49
-0.7000000000000001
 74
     0
  0
ENDTAB
  0
TABLE
  2
LAYER
  5
2
330
0
100
AcDbSymbolTable
 70
     3
  0
LAYER
  5
54
330
2
100
AcDbSymbolTableRecord
100
AcDbLayerTableRecord
  2
0
 70
     0
 62
     7
  6
Continuous
370
    -3
390
F
347
21
348
0
  0
LAYER
  5
85
330
2
100
AcDbSymbolTableRecord
100
AcDbLayerTableRecord
  2
P-SANR-FIXT
 70
     0
 62
     6
  6
Continuous
370
    18
390
F
347
21
348
0
  0
ENDTAB
  0
TABLE
  2
STYLE
  5
3
330
0
100
AcDbSymbolTable
 70
     2
  0
STYLE
  5
55
330
3
100
AcDbSymbolTableRecord
100
AcDbTextStyleTableRecord
  2
Standard
 70
     0
 40
0.0
 41
1.0
 50
0.0
 71
     0
 42
0.2
  3
txt
  4

  0
STYLE
  5
5A
330
3
100
AcDbSymbolTableRecord
100
AcDbTextStyleTableRecord
  2
Annotative
 70
     0
 40
0.0
 41
1.0
 50
0.0
 71
     0
 42
0.2
  3
txt
  4

1001
AcadAnnotative
1000
AnnotativeData
1002
{
1070
     1
1070
     1
1002
}
  0
ENDTAB
  0
TABLE
  2
VIEW
  5
6
330
0
100
AcDbSymbolTable
 70
     0
  0
ENDTAB
  0
TABLE
  2
UCS
  5
7
330
0
100
AcDbSymbolTable
 70
     0
  0
ENDTAB
  0
TABLE
  2
APPID
  5
9
330
0
100
AcDbSymbolTable
 70
     3
  0
APPID
  5
56
330
9
100
AcDbSymbolTableRecord
100
AcDbRegAppTableRecord
  2
ACAD
 70
     0
  0
APPID
  5
5E
330
9
100
AcDbSymbolTableRecord
100
AcDbRegAppTableRecord
  2
AcadAnnotative
 70
     0
  0
APPID
  5
79
330
9
100
AcDbSymbolTableRecord
100
AcDbRegAppTableRecord
  2
REVIT
 70
     0
  0
ENDTAB
  0
TABLE
  2
DIMSTYLE
  5
A
330
0
100
AcDbSymbolTable
 70
     2
100
AcDbDimStyleTable
 71
     0
  0
DIMSTYLE
105
58
330
A
100
AcDbSymbolTableRecord
100
AcDbDimStyleTableRecord
  2
Standard
 70
     0
340
55
  0
DIMSTYLE
105
59
330
A
100
AcDbSymbolTableRecord
100
AcDbDimStyleTableRecord
  2
Annotative
 70
     0
340
55
1001
AcadAnnotative
1000
AnnotativeData
1002
{
1070
     1
1070
     1
1002
}
  0
ENDTAB
  0
TABLE
  2
BLOCK_RECORD
  5
1
330
0
100
AcDbSymbolTable
 70
     4
  0
BLOCK_RECORD
  5
71
102
{ACAD_XDICTIONARY
360
213
102
}
330
1
100
AcDbSymbolTableRecord
100
AcDbBlockTableRecord
  2
*Model_Space
340
74
 70
     0
280
     1
281
     0
  0
BLOCK_RECORD
  5
6D
330
1
100
AcDbSymbolTableRecord
100
AcDbBlockTableRecord
  2
*Paper_Space
340
70
 70
     0
280
     1
281
     0
  0
BLOCK_RECORD
  5
75
330
1
100
AcDbSymbolTableRecord
100
AcDbBlockTableRecord
  2
*Paper_Space0
340
78
 70
     0
280
     1
281
     0
  0
BLOCK_RECORD
  5
87
330
1
100
AcDbSymbolTableRecord
100
AcDbBlockTableRecord
  2
Automatic flow rate regulator valve_Caleffi_121 DN15 - 1_2__-859151-Est - Idraulica
340
0
102
{BLKREFS
331
101
102
}
 70
     0
280
     1
281
     0
  0
BLOCK_RECORD
  5
102
330
1
100
AcDbSymbolTableRecord
100
AcDbBlockTableRecord
  2
Automatic flow rate regulator valve_Caleffi_121 DN15 - 1_2__-V1-Est - Idraulica
340
0
102
{BLKREFS
331
16F
102
}
 70
     0
280
     1
281
     0
  0
BLOCK_RECORD
  5
170
330
1
100
AcDbSymbolTableRecord
100
AcDbBlockTableRecord
  2
Automatic flow rate regulator valve_Caleffi_121 DN15 - 1_2__-V2-Est - Idraulica
340
0
102
{BLKREFS
331
20D
102
}
 70
     0
280
     1
281
     0
  0
ENDTAB
  0
ENDSEC
  0
SECTION
  2
BLOCKS
  0
BLOCK
  5
72
330
71
100
AcDbEntity
  8
0
100
AcDbBlockBegin
  2
*Model_Space
 70
     0
 10
0.0
 20
0.0
 30
0.0
  3
*Model_Space
  1

  0
ENDBLK
  5
73
330
71
100
AcDbEntity
  8
0
100
AcDbBlockEnd
  0
BLOCK
  5
6E
330
6D
100
AcDbEntity
 67
     1
  8
0
100
AcDbBlockBegin
  2
*Paper_Space
 70
     0
 10
0.0
 20
0.0
 30
0.0
  3
*Paper_Space
  1

  0
ENDBLK
  5
6F
330
6D
100
AcDbEntity
 67
     1
  8
0
100
AcDbBlockEnd
  0
BLOCK
  5
76
330
75
100
AcDbEntity
 67
     1
  8
0
100
AcDbBlockBegin
  2
*Paper_Space0
 70
     0
 10
0.0
 20
0.0
 30
0.0
  3
*Paper_Space0
  1

  0
ENDBLK
  5
77
330
75
100
AcDbEntity
 67
     1
  8
0
100
AcDbBlockEnd
  0
BLOCK
  5
FF
330
87
100
AcDbEntity
  8
0
100
AcDbBlockBegin
  2
Automatic flow rate regulator valve_Caleffi_121 DN15 - 1_2__-859151-Est - Idraulica
 70
     0
 10
0.0
 20
0.0
 30
0.0
  3
Automatic flow rate regulator valve_Caleffi_121 DN15 - 1_2__-859151-Est - Idraulica
  1

  0
LINE
  5
88
330
87
100
AcDbEntity
  8
P-SANR-FIXT
100
AcDbLine
 10
799.5164074431889
 20
2012.437499999998
 30
0.0
 11
797.6664074431893
 21
2011.369402001998
 31
0.0
  0
LINE
  5
89
330
87
100
AcDbEntity
  8
P-SANR-FIXT
100
AcDbLine
 10
833.666407443189
 20
2011.369402001998
 30
0.0
 11
831.8164074431892
 21
2012.437499999998
 31
0.0
  0
LINE
  5
8A
330
87
100
AcDbEntity
  8
P-SANR-FIXT
100
AcDbLine
 10
797.6664074431893
 20
1926.952252374075
 30
0.0
 11
797.6664074431893
 21
1917.44786297108
 31
0.0
  0
LINE
  5
8B
330
87
100
AcDbEntity
  8
P-SANR-FIXT
100
AcDbLine
 10
833.666407443189
 20
1917.44786297108
 30
0.0
 11
833.666407443189
 21
1926.952252374075
 31
0.0
  0
LINE
  5
8C
330
87
100
AcDbEntity
  8
P-SANR-FIXT
100
AcDbLine
 10
797.6664074431893
 20
1917.44786297108
 30
0.0
 11
799.4164074431891
 21
1916.437499999998
 31
0.0
  0
LINE
  5
8D
330
87
100
AcDbEntity
  8
P-SANR-FIXT
100
AcDbLine
 10
831.9164074431892
 20
1916.437499999998
 30
0.0
 11
833.666407443189
 21
1917.44786297108
 31
0.0
  0
LINE
  5
8E
330
87
100
AcDbEntity
  8
P-SANR-FIXT
100
AcDbLine
 10
797.6664074431893
 20
2011.369402001998
 30
0.0
 11
797.6664074431893
 21
2003.737499999998
 31
0.0
  0
LINE
  5
8F
330
87
100
AcDbEntity
  8
P-SANR-FIXT
100
AcDbLine
 10
833.666407443189
 20
2003.737499999998
 30
0.0
 11
833.666407443189
 21
2011.369402001998
 31
0.0
  0
LINE
  5
90
330
87
100
AcDbEntity
  8
P-SANR-FIXT
100
AcDbLine
 10
799.5164074431889
 20
2003.737499999998
 30
0.0
 11
799.5164074431889
 21
2000.737499999998
 31
0.0
  0
LINE
  5
91
330
87
100
AcDbEntity
  8
P-SANR-FIXT
100
AcDbLine
 10
831.8164074431892
 20
2000.737499999998
 30
0.0
 11
831.8164074431892
 21
2003.737499999998
 31
0.0
  0
LINE
  5
92
330
87
100
AcDbEntity
  8
P-SANR-FIXT
100
AcDbLine
 10
799.5164074431889
 20
2000.737499999998
 30
0.0
 11
788.4164074431891
 21
1970.937499999998
 31
0.0
  0
LINE
  5
93
330
87
100
AcDbEntity
  8
P-SANR-FIXT
100
AcDbLine
 10
842.9164074431891
 20
1970.937499999998
 30
0.0
 11
831.8164074431892
 21
2000.737499999998
 31
0.0
  0
LINE
  5
94
330
87
100
AcDbEntity
  8
P-SANR-FIXT
100
AcDbLine
 10
788.4164074431891
 20
1970.937499999998
 30
0.0
 11
788.4164074431891
 21
1961.473722344088
 31
0.0
  0
LINE
  5
95
330
87
100
AcDbEntity
  8
P-SANR-FIXT
100
AcDbLine
 10
842.9164074431891
 20
1961.473722344088
 30
0.0
 11
842.9164074431891
 21
1970.937499999998
 31
0.0
  0
LINE
  5
96
330
87
100
AcDbEntity
  8
P-SANR-FIXT
100
AcDbLine
 10
788.4164074431891
 20
1961.473722344088
 30
0.0
 11
797.6664074431893
 21
1926.952252374075
 31
0.0
  0
LINE
  5
97
330
87
100
AcDbEntity
  8
P-SANR-FIXT
100
AcDbLine
 10
833.666407443189
 20
1926.952252374075
 30
0.0
 11
842.9164074431891
 21
1961.473722344088
 31
0.0
  0
LINE
  5
98
330
87
100
AcDbEntity
  8
P-SANR-FIXT
100
AcDbLine
 10
802.6664074431897
 20
2014.937500000174
 30
0.0
 11
802.6664074431897
 21
2012.437499999998
 31
0.0
  0
LINE
  5
99
330
87
100
AcDbEntity
  8
P-SANR-FIXT
100
AcDbLine
 10
828.6664074431886
 20
2012.437499999998
 30
0.0
 11
828.6664074431886
 21
2014.937500000175
 31
0.0
  0
LINE
  5
9A
330
87
100
AcDbEntity
  8
P-SANR-FIXT
100
AcDbLine
 10
802.6664074432044
 20
1998.249259839784
 30
0.0
 11
802.6664074432044
 21
1995.30352540388
 31
0.0
  0
LINE
  5
9B
330
87
100
AcDbEntity
  8
P-SANR-FIXT
100
AcDbLine
 10
828.6664074431739
 20
1995.30352540388
 30
0.0
 11
828.6664074431739
 21
1998.249259839784
 31
0.0
  0
LINE
  5
9C
330
87
100
AcDbEntity
  8
P-SANR-FIXT
100
AcDbLine
 10
802.6664074432044
 20
1995.30352540388
 30
0.0
 11
802.7233126777439
 21
1995.2706711514
 31
0.0
  0
LINE
  5
9D
330
87
100
AcDbEntity
  8
P-SANR-FIXT
100
AcDbLine
 10
802.7290059964657
 20
1995.267384112304
 30
0.0
 11
804.1664074432572
 21
1994.437500000065
 31
0.0
  0
LINE
  5
9E
330
87
100
AcDbEntity
  8
P-SANR-FIXT
100
AcDbLine
 10
827.166407443121
 20
1994.437500000065
 30
0.0
 11
828.6038088899124
 21
1995.267384112304
 31
0.0
  0
LINE
  5
9F
330
87
100
AcDbEntity
  8
P-SANR-FIXT
100
AcDbLine
 10
828.6095022086346
 20
1995.2706711514
 30
0.0
 11
828.6664074431739
 21
1995.30352540388
 31
0.0
  0
LWPOLYLINE
  5
A0
330
87
100
AcDbEntity
  8
P-SANR-FIXT
100
AcDbPolyline
 90
       78
 70
   128
 43
0.0
 10
828.4713009844979
 20
2000.425740160394
 10
828.4278610172483
 20
2000.420968595651
 10
828.3846466090185
 20
2000.414463712282
 10
828.3417268936609
 20
2000.406235916713
 10
828.2991705335643
 20
2000.396298371663
 10
828.2570456098266
 20
2000.384666975083
 10
828.2154195133399
 20
2000.371360334726
 10
828.1743588369787
 20
2000.356399738379
 10
828.1339292690658
 20
2000.339809119805
 10
828.0941954882855
 20
2000.321615020453
 10
828.055221060211
 20
2000.301846547003
 10
828.017068335613
 20
2000.280535324793
 10
827.9797983507123
 20
2000.257715447235
 10
827.9434707295338
 20
2000.233423421263
 10
827.9081435885224
 20
2000.207698108937
 10
827.8738734435673
 20
2000.180580665269
 10
827.8407151195901
 20
2000.152114472385
 10
827.8087216628357
 20
2000.122345070121
 10
827.7779442560097
 20
2000.091320083168
 10
827.7484321363981
 20
2000.059089144889
 10
827.7202325170961
 20
2000.02570381791
 10
827.6933905114793
 20
1999.991217511631
 10
827.6679490610307
 20
1999.955685396786
 10
827.6439488666438
 20
1999.919164317178
 10
827.6214283235098
 20
1999.881712698745
 10
827.6004234596936
 20
1999.843390456087
 10
827.5809678784963
 20
1999.804258896617
 10
827.5630927046979
 20
1999.764380622482
 10
827.5468265347631
 20
1999.723819430414
 10
827.5321953910943
 20
1999.682640209668
 10
827.5192226803991
 20
1999.640908838212
 10
827.5079291562482
 20
1999.59869207734
 10
827.4983328858709
 20
1999.556057464862
 10
827.4904492212527
 20
1999.513073207064
 10
827.4842907745751
 20
1999.469808069587
 10
827.4798673980393
 20
1999.426331267425
 10
827.477186168104
 20
1999.382712354183
 10
827.4762513741649
 20
1999.33902111082
 10
827.477064511693
 20
1999.295327434005
 10
827.4796242798423
 20
1999.251701224299
 10
827.4839265835289
 20
1999.208212274331
 10
827.4899645399855
 20
1999.164930157145
 10
827.4977284897692
 20
1999.121924114894
 10
827.5072060122168
 20
1999.079262948073
 10
827.5183819453141
 20
1999.037014905447
 10
827.5312384099523
 20
1998.995247574873
 10
827.5457548385304
 20
1998.954027775169
 10
827.5619080078596
 20
1998.913421449222
 10
827.5796720763148
 20
1998.87349355849
 10
827.5990186251753
 20
1998.834307979084
 10
827.6199167040907
 20
1998.795927399568
 10
827.6423328805927
 20
1998.758413220684
 10
827.6662312935803
 20
1998.721825457115
 10
827.6915737106911
 20
1998.686222641478
 10
827.7183195894636
 20
1998.651661730683
 10
827.7464261421975
 20
1998.618198014814
 10
827.7758484044042
 20
1998.58588502868
 10
827.8065393067404
 20
1998.554774466163
 10
827.8384497503095
 20
1998.524916097528
 10
827.871528685209
 20
1998.496357689796
 10
827.9057231921994
 20
1998.469144930325
 10
827.9409785673639
 20
1998.443321353727
 10
827.9772384096233
 20
1998.418928272216
 10
828.0144447109647
 20
1998.396004709517
 10
828.0525379492429
 20
1998.374587338442
 10
828.091457183403
 20
1998.354710422215
 10
828.1311401509723
 20
1998.336405759662
 10
828.1715233676685
 20
1998.319702634338
 10
828.2125422289592
 20
1998.304627767681
 10
828.2541311134163
 20
1998.291205276261
 10
828.2962234876968
 20
1998.279456633202
 10
828.338752012981
 20
1998.269400633827
 10
828.381648652701
 20
1998.261053365587
 10
828.4248447813835
 20
1998.254428182334
 10
828.4682712944377
 20
1998.249535682946
 10
828.5118587187064
 20
1998.246383694379
 10
828.5555373236089
 20
1998.244977259142
 10
828.568854213845
 20
1998.244896101573
  0
LWPOLYLINE
  5
A1
330
87
100
AcDbEntity
  8
P-SANR-FIXT
100
AcDbPolyline
 90
       77
 70
   128
 43
0.0
 10
802.7790319718084
 20
1998.245197567755
 10
802.8076531749649
 20
1998.245770068153
 10
802.8512757787131
 20
1998.248390569735
 10
802.8947586969175
 20
1998.252753414075
 10
802.938032366185
 20
1998.258851621551
 10
802.9810275578759
 20
1998.266675436335
 10
803.0236754888555
 20
1998.276212341989
 10
803.0659079315318
 20
1998.287447081501
 10
803.1076573230057
 20
1998.300361681683
 10
803.1488568731569
 20
1998.31493548193
 10
803.189440671494
 20
1998.33114516727
 10
803.2293437925968
 20
1998.348964805666
 10
803.2685023999842
 20
1998.368365889496
 10
803.3068538482371
 20
1998.389317381166
 10
803.3443367832202
 20
1998.411785762758
 10
803.3808912402331
 20
1998.435735089654
 10
803.4164587399425
 20
1998.461127048042
 10
803.4509823819364
 20
1998.487921016202
 10
803.484406935752
 20
1998.516074129503
 10
803.5166789292333
 20
1998.545541348969
 10
803.5477467340751
 20
1998.576275533334
 10
803.5775606484174
 20
1998.608227514461
 10
803.6060729763571
 20
1998.641346175994
 10
803.6332381042516
 20
1998.675578535141
 10
803.6590125736914
 20
1998.71086982743
 10
803.6833551510236
 20
1998.747163594321
 10
803.7062268933171
 20
1998.784401773529
 10
803.7275912106633
 20
1998.822524791912
 10
803.7474139247123
 20
1998.861471660773
 10
803.7656633233501
 20
1998.901180073429
 10
803.7823102114314
 20
1998.941586504891
 10
803.797327957487
 20
1998.982626313488
 10
803.8106925363265
 20
1999.024233844282
 10
803.822382567475
 20
1999.066342534099
 10
803.8323793493759
 20
1999.108885018016
 10
803.8406668893113
 20
1999.151793237137
 10
803.847231928985
 20
1999.194998547464
 10
803.8520639657336
 20
1999.238431829715
 10
803.8551552693297
 20
1999.282023599906
 10
803.8565008943466
 20
1999.325704120503
 10
803.8560986880714
 20
1999.369403511991
 10
803.8539492939483
 20
1999.413051864666
 10
803.8500561505493
 20
1999.456579350474
 10
803.8444254860737
 20
1999.499916334723
 10
803.8370663083835
 20
1999.542993487485
 10
803.8279903905923
 20
1999.585741894503
 10
803.8172122522336
 20
1999.628093167445
 10
803.8047491360291
 20
1999.66997955331
 10
803.7906209803059
 20
1999.711334042814
 10
803.7748503870995
 20
1999.752090477597
 10
803.7574625859948
 20
1999.792183656057
 10
803.7384853937643
 20
1999.831549437661
 10
803.7179491698671
 20
1999.870124845558
 10
803.6958867678812
 20
1999.907848167322
 10
803.6723334829428
 20
1999.944659053686
 10
803.6473269952837
 20
1999.980498615085
 10
803.6209073099497
 20
2000.015309515865
 10
803.5931166928014
 20
2000.049036066013
 10
803.5639996028976
 20
2000.08162431024
 10
803.5336026213713
 20
2000.11302211431
 10
803.5019743769085
 20
2000.143179248432
 10
803.4691654679528
 20
2000.172047467627
 10
803.4352283817604
 20
2000.199580588901
 10
803.4002174104294
 20
2000.225734565133
 10
803.3641885640452
 20
2000.250467555541
 10
803.3271994810764
 20
2000.273739992616
 10
803.2893093361652
 20
2000.295514645424
 10
803.2505787454606
 20
2000.315756679166
 10
803.2110696696456
 20
2000.334433710904
 10
803.1708453148132
 20
2000.351515861372
 10
803.1299700313509
 20
2000.366975802775
 10
803.0885092109921
 20
2000.380788802502
 10
803.0465291822052
 20
2000.392932762703
 10
803.004097104081
 20
2000.40338825563
 10
802.9612808588924
 20
2000.412138554726
 10
802.9181489434986
 20
2000.419169661379
 10
802.8852742834642
 20
2000.423186795542
  0
LINE
  5
A2
330
87
100
AcDbEntity
  8
P-SANR-FIXT
100
AcDbLine
 10
789.1664074431895
 20
2054.887500000242
 30
0.0
 11
775.9664074431888
 21
2054.887500000242
 31
0.0
  0
LINE
  5
A3
330
87
100
AcDbEntity
  8
P-SANR-FIXT
100
AcDbLine
 10
775.9664074431887
 20
2027.987500000108
 30
0.0
 11
789.1664074431896
 21
2027.987500000108
 31
0.0
  0
LINE
  5
A4
330
87
100
AcDbEntity
  8
P-SANR-FIXT
100
AcDbLine
 10
775.9664074431888
 20
2054.887500000242
 30
0.0
 11
775.9176917842839
 21
2054.838784341337
 31
0.0
  0
LINE
  5
A5
330
87
100
AcDbEntity
  8
P-SANR-FIXT
100
AcDbLine
 10
775.9016420169296
 20
2054.822734573983
 30
0.0
 11
774.6664074431898
 21
2053.587500000243
 31
0.0
  0
LINE
  5
A6
330
87
100
AcDbEntity
  8
P-SANR-FIXT
100
AcDbLine
 10
774.6664074431895
 20
2029.287500000107
 30
0.0
 11
775.9016420169293
 21
2028.052265426367
 31
0.0
  0
LINE
  5
A7
330
87
100
AcDbEntity
  8
P-SANR-FIXT
100
AcDbLine
 10
775.9176917842837
 20
2028.036215659013
 30
0.0
 11
775.9664074431887
 21
2027.987500000108
 31
0.0
  0
LINE
  5
A8
330
87
100
AcDbEntity
  8
P-SANR-FIXT
100
AcDbLine
 10
790.1664074431894
 20
2058.175937761038
 30
0.0
 11
789.1664074431896
 21
2058.187500000175
 31
0.0
  0
LWPOLYLINE
  5
A9
330
87
100
AcDbEntity
  8
P-SANR-FIXT
100
AcDbPolyline
 90
       30
 70
   128
 43
0.0
 10
831.3030897995467
 20
2024.68750000015
 10
830.8794889396825
 20
2026.364718912359
 10
830.3891560477403
 20
2028.023656711985
 10
829.8328755517481
 20
2029.661659452437
 10
829.2115373818326
 20
2031.276106678752
 10
828.5261355465209
 20
2032.864415619764
 10
827.7777665425379
 20
2034.42404531999
 10
826.9676276006467
 20
2035.952500704612
 10
826.0970147703336
 20
2037.447336571068
 10
825.1673208464067
 20
2038.906161500853
 10
824.1800331408198
 20
2040.326641685278
 10
823.1367311032919
 20
2041.706504659069
 10
822.0390837945235
 20
2043.043542935823
 10
820.8888472160566
 20
2044.335617539515
 10
819.6878615010461
 20
2045.580661426408
 10
818.4380479704396
 20
2046.776682791878
 10
817.1414060592727
 20
2047.921768256878
 10
815.8000101180014
 20
2049.014085928936
 10
814.4160060939832
 20
2050.051888332792
 10
812.991608098417
 20
2051.033515205986
 10
811.529094864241
 20
2051.957396154923
 10
810.0308061006435
 20
2052.82205316717
 10
808.4991387500283
 20
2053.626102975956
 10
806.9365431534185
 20
2054.368259273108
 10
805.3455191304321
 20
2055.047334766872
 10
803.7286119801061
 20
2055.662243081317
 10
802.088408408959
 20
2056.212000494314
 10
800.427532392813
 20
2056.695727511277
 10
798.7486409789931
 20
2057.11265027217
 10
798.1664074431895
 20
2057.240720917736
  0
LWPOLYLINE
  5
AA
330
87
100
AcDbEntity
  8
P-SANR-FIXT
100
AcDbPolyline
 90
        3
 70
   128
 43
0.0
 10
832.4164074431902
 20
2014.937500000175
 10
832.3818120562773
 20
2016.667038703746
 10
832.3809883158565
 20
2016.687500000111
  0
LWPOLYLINE
  5
AB
330
87
100
AcDbEntity
  8
P-SANR-FIXT
100
AcDbPolyline
 90
       41
 70
   128
 43
0.0
 10
789.1664074431896
 20
2024.687500000175
 10
789.5563034515093
 20
2024.679701040119
 10
789.9455757093891
 20
2024.656316636626
 10
790.3336014642566
 20
2024.61738419975
 10
790.7197599576785
 20
2024.562966013087
 10
791.1034334184415
 20
2024.493149134127
 10
791.4840080508541
 20
2024.408045254983
 10
791.8608750166899
 20
2024.307790523705
 10
792.2334314091969
 20
2024.192545326479
 10
792.6010812176218
 20
2024.062494031034
 10
792.9632362806991
 20
2023.917844691703
 10
793.3193172275835
 20
2023.758828716569
 10
793.6687544047194
 20
2023.585700497273
 10
794.0109887871662
 20
2023.398737002032
 10
794.3454728729185
 20
2023.198237332556
 10
794.6716715587914
 20
2022.984522245544
 10
794.9890629964733
 20
2022.757933639546
 10
795.2971394273699
 20
2022.518834007996
 10
795.5954079949117
 20
2022.267605859298
 10
795.8833915330177
 20
2022.004651104898
 10
796.1606293294604
 20
2021.73039041631
 10
796.4266778629059
 20
2021.445262552127
 10
796.681111512455
 20
2021.149723656111
 10
796.9235232385448
 20
2020.844246527448
 10
797.1535252341249
 20
2020.529319864381
 10
797.3707495450669
 20
2020.205447482389
 10
797.5748486588125
 20
2019.873147508194
 10
797.7654960603183
 20
2019.532951550869
 10
797.942386754411
 20
2019.185403851373
 10
798.1052377537148
 20
2018.831060411886
 10
798.2537885313705
 20
2018.470488106322
 10
798.387801437823
 20
2018.104263773452
 10
798.5070620810102
 20
2017.732973294086
 10
798.6113796693432
 20
2017.357210653785
 10
798.7005873169346
 20
2016.977576992616
 10
798.7745423105776
 20
2016.594679643452
 10
798.833126338059
 20
2016.209131160371
 10
798.876245677432
 20
2015.821548338701
 10
798.9038313469522
 20
2015.432551228277
 10
798.9158392154323
 20
2015.042762141492
 10
798.9164074431901
 20
2014.937500000174
  0
LINE
  5
AC
330
87
100
AcDbEntity
  8
P-SANR-FIXT
100
AcDbLine
 10
815.6664074431878
 20
2012.437499999997
 30
0.0
 11
799.5164074431878
 21
2012.437499999997
 31
0.0
  0
SPLINE
  5
AD
330
87
100
AcDbEntity
  8
P-SANR-FIXT
100
AcDbSpline
210
0.0
220
0.0
230
1.0
 70
     8
 71
     3
 72
     9
 73
     5
 74
     0
 42
0.000000001
 43
0.0000000001
 40
-1.0
 40
-1.0
 40
-1.0
 40
-1.0
 40
-0.5
 40
0.0
 40
0.0
 40
0.0
 40
0.0
 10
797.7801146382602
 20
2011.369402001997
 30
0.0
 10
798.9991159694113
 20
2011.946710099573
 30
0.0
 10
801.4170751813905
 20
2012.52401819715
 30
0.0
 10
803.7949474927236
 20
2011.946710099573
 30
0.0
 10
804.9738619232288
 20
2011.369402001997
 30
0.0
  0
SPLINE
  5
AE
330
87
100
AcDbEntity
  8
P-SANR-FIXT
100
AcDbSpline
210
0.0
220
0.0
230
1.0
 70
     8
 71
     3
 72
     9
 73
     5
 74
     0
 42
0.000000001
 43
0.0000000001
 40
-1.0
 40
-1.0
 40
-1.0
 40
-1.0
 40
-0.5
 40
0.0
 40
0.0
 40
0.0
 40
0.0
 10
808.472660158219
 20
2011.369402001997
 30
0.0
 10
809.655542594641
 20
2011.651284543317
 30
0.0
 10
812.0373829118912
 20
2012.077504651935
 30
0.0
 10
814.4513741179535
 20
2012.228634812507
 30
0.0
 10
815.6664074431878
 20
2012.235427405781
 30
0.0
  0
LINE
  5
AF
330
87
100
AcDbEntity
  8
P-SANR-FIXT
100
AcDbLine
 10
831.8164074431878
 20
2012.437499999997
 30
0.0
 11
815.666407443188
 21
2012.437499999997
 31
0.0
  0
SPLINE
  5
B0
330
87
100
AcDbEntity
  8
P-SANR-FIXT
100
AcDbSpline
210
0.0
220
0.0
230
1.0
 70
     8
 71
     3
 72
     9
 73
     5
 74
     0
 42
0.000000001
 43
0.0000000001
 40
-1.0
 40
-1.0
 40
-1.0
 40
-1.0
 40
-0.5
 40
0.0
 40
0.0
 40
0.0
 40
0.0
 10
815.6664074431878
 20
2012.235427405781
 30
0.0
 10
816.8814407684219
 20
2012.228634812507
 30
0.0
 10
819.2954319744842
 20
2012.077504651935
 30
0.0
 10
821.6772722917344
 20
2011.651284543317
 30
0.0
 10
822.8601547281563
 20
2011.369402001997
 30
0.0
  0
SPLINE
  5
B1
330
87
100
AcDbEntity
  8
P-SANR-FIXT
100
AcDbSpline
210
0.0
220
0.0
230
1.0
 70
     8
 71
     3
 72
     9
 73
     5
 74
     0
 42
0.000000001
 43
0.0000000001
 40
-1.0
 40
-1.0
 40
-1.0
 40
-1.0
 40
-0.5
 40
0.0
 40
0.0
 40
0.0
 40
0.0
 10
826.3589529631465
 20
2011.369402001997
 30
0.0
 10
827.5779542942977
 20
2011.946710099573
 30
0.0
 10
829.9959135062769
 20
2012.52401819715
 30
0.0
 10
832.3737858176102
 20
2011.946710099573
 30
0.0
 10
833.5527002481153
 20
2011.369402001997
 30
0.0
  0
LINE
  5
B2
330
87
100
AcDbEntity
  8
P-SANR-FIXT
100
AcDbLine
 10
797.7801146382602
 20
1926.952252374075
 30
0.0
 11
797.6664074431879
 21
1926.952252374075
 31
0.0
  0
LINE
  5
B3
330
87
100
AcDbEntity
  8
P-SANR-FIXT
100
AcDbLine
 10
797.7801146382602
 20
1917.447862971078
 30
0.0
 11
797.7801146382602
 21
1926.952252374075
 31
0.0
  0
LINE
  5
B4
330
87
100
AcDbEntity
  8
P-SANR-FIXT
100
AcDbLine
 10
808.472660158219
 20
1926.952252374075
 30
0.0
 11
804.9738619232289
 21
1926.952252374075
 31
0.0
  0
LINE
  5
B5
330
87
100
AcDbEntity
  8
P-SANR-FIXT
100
AcDbLine
 10
804.9738619232289
 20
1926.952252374075
 30
0.0
 11
804.9738619232289
 21
1917.447862971078
 31
0.0
  0
LINE
  5
B6
330
87
100
AcDbEntity
  8
P-SANR-FIXT
100
AcDbLine
 10
808.472660158219
 20
1917.447862971078
 30
0.0
 11
808.472660158219
 21
1926.952252374075
 31
0.0
  0
LINE
  5
B7
330
87
100
AcDbEntity
  8
P-SANR-FIXT
100
AcDbLine
 10
826.3589529631467
 20
1926.952252374075
 30
0.0
 11
822.8601547281565
 21
1926.952252374075
 31
0.0
  0
LINE
  5
B8
330
87
100
AcDbEntity
  8
P-SANR-FIXT
100
AcDbLine
 10
822.8601547281567
 20
1926.952252374075
 30
0.0
 11
822.8601547281567
 21
1917.447862971078
 31
0.0
  0
LINE
  5
B9
330
87
100
AcDbEntity
  8
P-SANR-FIXT
100
AcDbLine
 10
826.3589529631467
 20
1917.447862971078
 30
0.0
 11
826.3589529631467
 21
1926.952252374075
 31
0.0
  0
LINE
  5
BA
330
87
100
AcDbEntity
  8
P-SANR-FIXT
100
AcDbLine
 10
833.6664074431876
 20
1926.952252374075
 30
0.0
 11
833.5527002481153
 21
1926.952252374075
 31
0.0
  0
LINE
  5
BB
330
87
100
AcDbEntity
  8
P-SANR-FIXT
100
AcDbLine
 10
833.5527002481153
 20
1926.952252374075
 30
0.0
 11
833.5527002481153
 21
1917.447862971078
 31
0.0
  0
SPLINE
  5
BC
330
87
100
AcDbEntity
  8
P-SANR-FIXT
100
AcDbSpline
210
0.0
220
0.0
230
1.0
 70
     8
 71
     3
 72
     9
 73
     5
 74
     0
 42
0.000000001
 43
0.0000000001
 40
-1.0
 40
-1.0
 40
-1.0
 40
-1.0
 40
-0.5
 40
0.0
 40
0.0
 40
0.0
 40
0.0
 10
815.6664074431878
 20
1916.581837567295
 30
0.0
 10
814.4513741179535
 20
1916.588630160569
 30
0.0
 10
812.0373829118914
 20
1916.73976032114
 30
0.0
 10
809.655542594641
 20
1917.165980429758
 30
0.0
 10
808.472660158219
 20
1917.447862971078
 30
0.0
  0
LINE
  5
BD
330
87
100
AcDbEntity
  8
P-SANR-FIXT
100
AcDbLine
 10
804.9738619232288
 20
1917.447862971078
 30
0.0
 11
808.472660158219
 21
1917.447862971078
 31
0.0
  0
SPLINE
  5
BE
330
87
100
AcDbEntity
  8
P-SANR-FIXT
100
AcDbSpline
210
0.0
220
0.0
230
1.0
 70
     8
 71
     3
 72
     9
 73
     5
 74
     0
 42
0.000000001
 43
0.0000000001
 40
-1.0
 40
-1.0
 40
-1.0
 40
-1.0
 40
-0.5
 40
0.0
 40
0.0
 40
0.0
 40
0.0
 10
804.9738619232289
 20
1917.447862971078
 30
0.0
 10
803.7949474927238
 20
1916.870554873502
 30
0.0
 10
801.4170751813905
 20
1916.293246775925
 30
0.0
 10
798.9991159694113
 20
1916.870554873502
 30
0.0
 10
797.7801146382602
 20
1917.447862971078
 30
0.0
  0
LINE
  5
BF
330
87
100
AcDbEntity
  8
P-SANR-FIXT
100
AcDbLine
 10
797.6664074431879
 20
1917.447862971078
 30
0.0
 11
797.7801146382602
 21
1917.447862971078
 31
0.0
  0
LINE
  5
C0
330
87
100
AcDbEntity
  8
P-SANR-FIXT
100
AcDbLine
 10
833.5527002481153
 20
1917.447862971078
 30
0.0
 11
833.6664074431876
 21
1917.447862971078
 31
0.0
  0
SPLINE
  5
C1
330
87
100
AcDbEntity
  8
P-SANR-FIXT
100
AcDbSpline
210
0.0
220
0.0
230
1.0
 70
     8
 71
     3
 72
     9
 73
     5
 74
     0
 42
0.000000001
 43
0.0000000001
 40
-1.0
 40
-1.0
 40
-1.0
 40
-1.0
 40
-0.5
 40
0.0
 40
0.0
 40
0.0
 40
0.0
 10
833.5527002481153
 20
1917.447862971078
 30
0.0
 10
832.3737858176102
 20
1916.870554873502
 30
0.0
 10
829.9959135062771
 20
1916.293246775925
 30
0.0
 10
827.5779542942977
 20
1916.870554873502
 30
0.0
 10
826.3589529631467
 20
1917.447862971078
 30
0.0
  0
LINE
  5
C2
330
87
100
AcDbEntity
  8
P-SANR-FIXT
100
AcDbLine
 10
822.8601547281563
 20
1917.447862971078
 30
0.0
 11
826.3589529631465
 21
1917.447862971078
 31
0.0
  0
SPLINE
  5
C3
330
87
100
AcDbEntity
  8
P-SANR-FIXT
100
AcDbSpline
210
0.0
220
0.0
230
1.0
 70
     8
 71
     3
 72
     9
 73
     5
 74
     0
 42
0.000000001
 43
0.0000000001
 40
-1.0
 40
-1.0
 40
-1.0
 40
-1.0
 40
-0.5
 40
0.0
 40
0.0
 40
0.0
 40
0.0
 10
822.8601547281565
 20
1917.447862971078
 30
0.0
 10
821.6772722917344
 20
1917.165980429758
 30
0.0
 10
819.2954319744842
 20
1916.73976032114
 30
0.0
 10
816.8814407684219
 20
1916.588630160569
 30
0.0
 10
815.6664074431878
 20
1916.581837567295
 30
0.0
  0
LINE
  5
C4
330
87
100
AcDbEntity
  8
P-SANR-FIXT
100
AcDbLine
 10
799.4164074431878
 20
1916.437499999997
 30
0.0
 11
815.6664074431876
 21
1916.437499999997
 31
0.0
  0
LINE
  5
C5
330
87
100
AcDbEntity
  8
P-SANR-FIXT
100
AcDbLine
 10
815.6664074431878
 20
1916.437499999997
 30
0.0
 11
831.9164074431878
 21
1916.437499999997
 31
0.0
  0
LINE
  5
C6
330
87
100
AcDbEntity
  8
P-SANR-FIXT
100
AcDbLine
 10
797.6664074431879
 20
2011.369402001997
 30
0.0
 11
797.7801146382601
 21
2011.369402001997
 31
0.0
  0
LINE
  5
C7
330
87
100
AcDbEntity
  8
P-SANR-FIXT
100
AcDbLine
 10
797.7801146382602
 20
2003.737499999997
 30
0.0
 11
797.7801146382602
 21
2011.369402001997
 31
0.0
  0
LINE
  5
C8
330
87
100
AcDbEntity
  8
P-SANR-FIXT
100
AcDbLine
 10
804.9738619232286
 20
2011.369402001997
 30
0.0
 11
808.4726601582188
 21
2011.369402001997
 31
0.0
  0
LINE
  5
C9
330
87
100
AcDbEntity
  8
P-SANR-FIXT
100
AcDbLine
 10
804.9738619232288
 20
2011.369402001997
 30
0.0
 11
804.9738619232288
 21
2003.737499999997
 31
0.0
  0
LINE
  5
CA
330
87
100
AcDbEntity
  8
P-SANR-FIXT
100
AcDbLine
 10
808.472660158219
 20
2003.737499999997
 30
0.0
 11
808.472660158219
 21
2011.369402001997
 31
0.0
  0
LINE
  5
CB
330
87
100
AcDbEntity
  8
P-SANR-FIXT
100
AcDbLine
 10
822.8601547281561
 20
2011.369402001997
 30
0.0
 11
826.3589529631463
 21
2011.369402001997
 31
0.0
  0
LINE
  5
CC
330
87
100
AcDbEntity
  8
P-SANR-FIXT
100
AcDbLine
 10
822.8601547281565
 20
2011.369402001997
 30
0.0
 11
822.8601547281565
 21
2003.737499999997
 31
0.0
  0
LINE
  5
CD
330
87
100
AcDbEntity
  8
P-SANR-FIXT
100
AcDbLine
 10
826.3589529631467
 20
2011.369402001997
 30
0.0
 11
826.3589529631467
 21
2003.737499999997
 31
0.0
  0
LINE
  5
CE
330
87
100
AcDbEntity
  8
P-SANR-FIXT
100
AcDbLine
 10
833.5527002481153
 20
2011.369402001997
 30
0.0
 11
833.6664074431876
 21
2011.369402001997
 31
0.0
  0
LINE
  5
CF
330
87
100
AcDbEntity
  8
P-SANR-FIXT
100
AcDbLine
 10
833.5527002481153
 20
2003.737499999997
 30
0.0
 11
833.5527002481153
 21
2011.369402001997
 31
0.0
  0
LINE
  5
D0
330
87
100
AcDbEntity
  8
P-SANR-FIXT
100
AcDbLine
 10
815.6664074431878
 20
2003.737499999997
 30
0.0
 11
808.472660158219
 21
2003.737499999997
 31
0.0
  0
LINE
  5
D1
330
87
100
AcDbEntity
  8
P-SANR-FIXT
100
AcDbLine
 10
804.9738619232286
 20
2003.737499999997
 30
0.0
 11
808.4726601582188
 21
2003.737499999997
 31
0.0
  0
LINE
  5
D2
330
87
100
AcDbEntity
  8
P-SANR-FIXT
100
AcDbLine
 10
804.9738619232288
 20
2003.737499999997
 30
0.0
 11
797.7801146382602
 21
2003.737499999997
 31
0.0
  0
LINE
  5
D3
330
87
100
AcDbEntity
  8
P-SANR-FIXT
100
AcDbLine
 10
797.6664074431879
 20
2003.737499999997
 30
0.0
 11
797.7801146382601
 21
2003.737499999997
 31
0.0
  0
LINE
  5
D4
330
87
100
AcDbEntity
  8
P-SANR-FIXT
100
AcDbLine
 10
833.5527002481153
 20
2003.737499999997
 30
0.0
 11
833.6664074431876
 21
2003.737499999997
 31
0.0
  0
LINE
  5
D5
330
87
100
AcDbEntity
  8
P-SANR-FIXT
100
AcDbLine
 10
826.3589529631465
 20
2003.737499999997
 30
0.0
 11
833.5527002481153
 21
2003.737499999997
 31
0.0
  0
LINE
  5
D6
330
87
100
AcDbEntity
  8
P-SANR-FIXT
100
AcDbLine
 10
822.8601547281561
 20
2003.737499999997
 30
0.0
 11
826.3589529631463
 21
2003.737499999997
 31
0.0
  0
LINE
  5
D7
330
87
100
AcDbEntity
  8
P-SANR-FIXT
100
AcDbLine
 10
822.8601547281563
 20
2003.737499999997
 30
0.0
 11
815.666407443188
 21
2003.737499999997
 31
0.0
  0
LINE
  5
D8
330
87
100
AcDbEntity
  8
P-SANR-FIXT
100
AcDbLine
 10
802.9749852037346
 20
2000.69607593855
 30
0.0
 11
815.6664074431878
 21
2000.69607593855
 31
0.0
  0
LINE
  5
D9
330
87
100
AcDbEntity
  8
P-SANR-FIXT
100
AcDbLine
 10
815.666407443188
 20
2000.69607593855
 30
0.0
 11
828.3484238186233
 21
2000.69607593855
 31
0.0
  0
LINE
  5
DA
330
87
100
AcDbEntity
  8
P-SANR-FIXT
100
AcDbLine
 10
799.5164074431878
 20
2000.737499999997
 30
0.0
 11
802.9749852037344
 21
2000.737499999997
 31
0.0
  0
LWPOLYLINE
  5
DB
330
87
100
AcDbEntity
  8
P-SANR-FIXT
100
AcDbPolyline
 90
        3
 70
   128
 43
0.0
 10
790.3175909027652
 20
1970.937499999997
 10
796.4510793462389
 20
1985.940349017432
 10
802.9848263114834
 20
2000.737499999997
  0
LINE
  5
DC
330
87
100
AcDbEntity
  8
P-SANR-FIXT
100
AcDbLine
 10
828.357829682641
 20
2000.737499999997
 30
0.0
 11
831.8164074431878
 21
2000.737499999997
 31
0.0
  0
LWPOLYLINE
  5
DD
330
87
100
AcDbEntity
  8
P-SANR-FIXT
100
AcDbPolyline
 90
        3
 70
   128
 43
0.0
 10
828.3479885748921
 20
2000.737499999997
 10
834.8817355401367
 20
1985.940349017432
 10
841.0152239836104
 20
1970.937499999997
  0
LWPOLYLINE
  5
DE
330
87
100
AcDbEntity
  8
P-SANR-FIXT
100
AcDbPolyline
 90
        7
 70
   128
 43
0.0
 10
815.6664074431878
 20
1970.89607593855
 10
810.2692039842766
 20
1970.89607593855
 10
805.092360874528
 20
1970.89607593855
 10
800.3340226570612
 20
1970.89607593855
 10
796.1775575089541
 20
1970.89607593855
 10
792.7903894865534
 20
1970.89607593855
 10
790.3175909027652
 20
1970.937499999997
  0
LINE
  5
DF
330
87
100
AcDbEntity
  8
P-SANR-FIXT
100
AcDbLine
 10
788.4398431599629
 20
1970.937499999997
 30
0.0
 11
790.3175909027652
 21
1970.937499999997
 31
0.0
  0
LINE
  5
E0
330
87
100
AcDbEntity
  8
P-SANR-FIXT
100
AcDbLine
 10
841.0152239836103
 20
1970.937499999997
 30
0.0
 11
842.8929717264127
 21
1970.937499999997
 31
0.0
  0
LWPOLYLINE
  5
E1
330
87
100
AcDbEntity
  8
P-SANR-FIXT
100
AcDbPolyline
 90
        7
 70
   128
 43
0.0
 10
841.0152239836104
 20
1970.937499999997
 10
838.5426122285561
 20
1970.896075938549
 10
835.1553982818161
 20
1970.896075938549
 10
830.9989135552834
 20
1970.89607593855
 10
826.2405443146702
 20
1970.89607593855
 10
821.0636588094754
 20
1970.89607593855
 10
815.666407443188
 20
1970.89607593855
  0
ARC
  5
E2
330
87
100
AcDbEntity
  8
P-SANR-FIXT
100
AcDbCircle
 10
797.166407443188
 20
2059.887500000174
 30
0.0
 40
1.000000000000113
100
AcDbArc
 50
0.0
 51
90.00000000058623
  0
LINE
  5
E3
330
87
100
AcDbEntity
  8
P-SANR-FIXT
100
AcDbLine
 10
797.1664074431778
 20
2060.887500000174
 30
0.0
 11
791.1664074431778
 21
2060.887500000113
 31
0.0
  0
ARC
  5
E4
330
87
100
AcDbEntity
  8
P-SANR-FIXT
100
AcDbCircle
 10
791.1664074431881
 20
2059.887500000113
 30
0.0
 40
1.000000000000113
100
AcDbArc
 50
90.00000000059273
 51
179.9999999999935
  0
LINE
  5
E5
330
87
100
AcDbEntity
  8
P-SANR-FIXT
100
AcDbLine
 10
790.166407443188
 20
2059.887500000113
 30
0.0
 11
790.166407443188
 21
2057.412052155243
 31
0.0
  0
LINE
  5
E6
330
87
100
AcDbEntity
  8
P-SANR-FIXT
100
AcDbLine
 10
798.1664074431882
 20
2056.45963362519
 30
0.0
 11
798.1664074431882
 21
2059.887500000174
 31
0.0
  0
ARC
  5
E7
330
87
100
AcDbEntity
  8
P-SANR-FIXT
100
AcDbCircle
 10
833.3664074431885
 20
2017.687500000111
 30
0.0
 40
0.9999999999998863
100
AcDbArc
 50
269.9999999999997
 51
0.0
  0
LINE
  5
E8
330
87
100
AcDbEntity
  8
P-SANR-FIXT
100
AcDbLine
 10
834.3664074431885
 20
2017.687500000111
 30
0.0
 11
834.3664074431885
 21
2023.687500000174
 31
0.0
  0
ARC
  5
E9
330
87
100
AcDbEntity
  8
P-SANR-FIXT
100
AcDbCircle
 10
833.3664074431885
 20
2023.687500000174
 30
0.0
 40
0.9999999999998863
100
AcDbArc
 50
0.0
 51
90.00000000068395
  0
LINE
  5
EA
330
87
100
AcDbEntity
  8
P-SANR-FIXT
100
AcDbLine
 10
833.3664074431766
 20
2024.687500000174
 30
0.0
 11
830.518856956783
 21
2024.68750000014
 31
0.0
  0
LINE
  5
EB
330
87
100
AcDbEntity
  8
P-SANR-FIXT
100
AcDbLine
 10
831.6166734114242
 20
2016.68750000011
 30
0.0
 11
833.3664074431885
 21
2016.68750000011
 31
0.0
  0
LINE
  5
EC
330
87
100
AcDbEntity
  8
P-SANR-FIXT
100
AcDbLine
 10
788.4164074431878
 20
1961.473722344087
 30
0.0
 11
815.6664074431875
 21
1961.473722344087
 31
0.0
  0
LINE
  5
ED
330
87
100
AcDbEntity
  8
P-SANR-FIXT
100
AcDbLine
 10
797.7801146382601
 20
1926.952252374075
 30
0.0
 11
804.9738619232286
 21
1926.952252374075
 31
0.0
  0
LINE
  5
EE
330
87
100
AcDbEntity
  8
P-SANR-FIXT
100
AcDbLine
 10
808.4726601582188
 20
1926.952252374075
 30
0.0
 11
815.6664074431876
 21
1926.952252374075
 31
0.0
  0
LINE
  5
EF
330
87
100
AcDbEntity
  8
P-SANR-FIXT
100
AcDbLine
 10
815.6664074431876
 20
1961.473722344087
 30
0.0
 11
842.9164074431877
 21
1961.473722344087
 31
0.0
  0
LINE
  5
F0
330
87
100
AcDbEntity
  8
P-SANR-FIXT
100
AcDbLine
 10
815.666407443188
 20
1926.952252374075
 30
0.0
 11
822.8601547281565
 21
1926.952252374075
 31
0.0
  0
LINE
  5
F1
330
87
100
AcDbEntity
  8
P-SANR-FIXT
100
AcDbLine
 10
826.3589529631467
 20
1926.952252374075
 30
0.0
 11
833.5527002481153
 21
1926.952252374075
 31
0.0
  0
LINE
  5
F2
330
87
100
AcDbEntity
  8
P-SANR-FIXT
100
AcDbLine
 10
802.9424476745184
 20
2000.648103873191
 30
0.0
 11
792.1286722226015
 21
1970.937499999997
 31
0.0
  0
LINE
  5
F3
330
87
100
AcDbEntity
  8
P-SANR-FIXT
100
AcDbLine
 10
839.2041426637739
 20
1970.937499999997
 30
0.0
 11
828.3903672118572
 21
2000.648103873191
 31
0.0
  0
LINE
  5
F4
330
87
100
AcDbEntity
  8
P-SANR-FIXT
100
AcDbLine
 10
828.6664074431723
 20
1998.249259839784
 30
0.0
 11
803.0753330571139
 21
1998.249259839784
 31
0.0
  0
LINE
  5
F5
330
87
100
AcDbEntity
  8
P-SANR-FIXT
100
AcDbLine
 10
802.7290059964645
 20
1998.249259839784
 30
0.0
 11
802.6664074432032
 21
1998.249259839784
 31
0.0
  0
LINE
  5
F6
330
87
100
AcDbEntity
  8
P-SANR-FIXT
100
AcDbLine
 10
802.666407443203
 20
1995.303525403879
 30
0.0
 11
828.6664074431724
 21
1995.303525403879
 31
0.0
  0
LINE
  5
F7
330
87
100
AcDbEntity
  8
P-SANR-FIXT
100
AcDbLine
 10
804.166407443256
 20
1994.437500000065
 30
0.0
 11
827.1664074431194
 21
1994.437500000065
 31
0.0
  0
LINE
  5
F8
330
87
100
AcDbEntity
  8
P-SANR-FIXT
100
AcDbLine
 10
802.8714086308237
 20
2000.425740160395
 30
0.0
 11
828.4713009845145
 21
2000.425740160395
 31
0.0
  0
LINE
  5
F9
330
87
100
AcDbEntity
  8
P-SANR-FIXT
100
AcDbLine
 10
774.6664074431882
 20
2029.287500000106
 30
0.0
 11
774.6664074431885
 21
2053.587500000242
 31
0.0
  0
LINE
  5
FA
330
87
100
AcDbEntity
  8
P-SANR-FIXT
100
AcDbLine
 10
775.9664074431874
 20
2054.887500000242
 30
0.0
 11
775.9664074431874
 21
2027.987500000107
 31
0.0
  0
LINE
  5
FB
330
87
100
AcDbEntity
  8
P-SANR-FIXT
100
AcDbLine
 10
789.1664074431883
 20
2024.687500000174
 30
0.0
 11
789.1664074431881
 21
2058.187500000174
 31
0.0
  0
LINE
  5
FC
330
87
100
AcDbEntity
  8
P-SANR-FIXT
100
AcDbLine
 10
832.4164074431887
 20
2014.937500000174
 30
0.0
 11
798.9164074431887
 21
2014.937500000174
 31
0.0
  0
ARC
  5
FD
330
87
100
AcDbEntity
  8
P-SANR-FIXT
100
AcDbCircle
 10
789.1664074431883
 20
2014.937500000174
 30
0.0
 40
42.48632227874916
100
AcDbArc
 50
2.360665330970208
 51
13.26678993383814
  0
ARC
  5
FE
330
87
100
AcDbEntity
  8
P-SANR-FIXT
100
AcDbCircle
 10
789.1664074431883
 20
2014.937500000174
 30
0.0
 40
42.48632227874922
100
AcDbArc
 50
77.77021465654616
 51
88.65130545617175
  0
ENDBLK
  5
100
330
87
100
AcDbEntity
  8
0
100
AcDbBlockEnd
  0
BLOCK
  5
16D
330
102
100
AcDbEntity
  8
0
100
AcDbBlockBegin
  2
Automatic flow rate regulator valve_Caleffi_121 DN15 - 1_2__-V1-Est - Idraulica
 70
     0
 10
0.0
 20
0.0
 30
0.0
  3
Automatic flow rate regulator valve_Caleffi_121 DN15 - 1_2__-V1-Est - Idraulica
  1

  0
LINE
  5
103
330
102
100
AcDbEntity
  8
P-SANR-FIXT
100
AcDbLine
 10
798.1664074431886
 20
1671.747075844261
 30
0.0
 11
798.1664074431886
 21
1681.74707584426
 31
0.0
  0
LINE
  5
104
330
102
100
AcDbEntity
  8
P-SANR-FIXT
100
AcDbLine
 10
789.1664074431888
 20
1690.197075844326
 30
0.0
 11
775.966407443188
 21
1690.197075844326
 31
0.0
  0
LINE
  5
105
330
102
100
AcDbEntity
  8
P-SANR-FIXT
100
AcDbLine
 10
775.966407443188
 20
1663.297075844192
 30
0.0
 11
789.1664074431888
 21
1663.297075844192
 31
0.0
  0
LINE
  5
106
330
102
100
AcDbEntity
  8
P-SANR-FIXT
100
AcDbLine
 10
775.966407443188
 20
1690.197075844326
 30
0.0
 11
775.9176917842831
 21
1690.148360185421
 31
0.0
  0
LINE
  5
107
330
102
100
AcDbEntity
  8
P-SANR-FIXT
100
AcDbLine
 10
775.9016420169289
 20
1690.132310418067
 30
0.0
 11
774.6664074431889
 21
1688.897075844327
 31
0.0
  0
LINE
  5
108
330
102
100
AcDbEntity
  8
P-SANR-FIXT
100
AcDbLine
 10
774.6664074431889
 20
1664.597075844191
 30
0.0
 11
775.9016420169286
 21
1663.361841270451
 31
0.0
  0
LINE
  5
109
330
102
100
AcDbEntity
  8
P-SANR-FIXT
100
AcDbLine
 10
775.9176917842831
 20
1663.345791503097
 30
0.0
 11
775.966407443188
 21
1663.297075844192
 31
0.0
  0
LWPOLYLINE
  5
10A
330
102
100
AcDbEntity
  8
P-SANR-FIXT
100
AcDbPolyline
 90
       41
 70
   128
 43
0.0
 10
789.1664074431887
 20
1659.997075844259
 10
790.2261247991345
 20
1659.997075844259
 10
791.2841468333716
 20
1659.997075844259
 10
792.3387809363451
 20
1659.997075844259
 10
793.3883399184662
 20
1659.997075844259
 10
794.4311447092579
 20
1659.997075844259
 10
795.4655270435079
 20
1659.997075844259
 10
796.4898321301379
 20
1659.997075844259
 10
797.502421299516
 20
1659.997075844259
 10
798.5016746249786
 20
1659.997075844259
 10
799.4859935143681
 20
1659.997075844259
 10
800.4538032674378
 20
1659.997075844259
 10
801.4035555950382
 20
1659.997075844259
 10
802.333731096048
 20
1659.997075844259
 10
803.2428416880923
 20
1659.997075844259
 10
804.1294329881575
 20
1659.997075844259
 10
804.9920866392923
 20
1659.997075844259
 10
805.8294225796784
 20
1659.997075844259
 10
806.6401012504332
 20
1659.997075844259
 10
807.4228257386188
 20
1659.997075844259
 10
808.1763438520264
 20
1659.997075844259
 10
808.8994501224169
 20
1659.997075844259
 10
809.5909877340117
 20
1659.997075844259
 10
810.2498503741529
 20
1659.997075844259
 10
810.8749840031656
 20
1659.997075844259
 10
811.4653885405983
 20
1659.997075844259
 10
812.0201194651377
 20
1659.997075844259
 10
812.5382893256404
 20
1659.997075844259
 10
813.0190691608666
 20
1659.997075844259
 10
813.461689825641
 20
1659.997075844259
 10
813.8654432213206
 20
1659.997075844259
 10
814.2296834286021
 20
1659.997075844259
 10
814.5538277408537
 20
1659.997075844259
 10
814.8373575963232
 20
1659.997075844259
 10
815.0798194077252
 20
1659.997075844259
 10
815.2808252878836
 20
1659.997075844259
 10
815.4400536702691
 20
1659.997075844259
 10
815.5572498234368
 20
1659.997075844259
 10
815.6322262585423
 20
1659.997075844259
 10
815.6648630292833
 20
1659.997075844259
 10
815.6664074431894
 20
1659.997075844259
  0
LWPOLYLINE
  5
10B
330
102
100
AcDbEntity
  8
P-SANR-FIXT
100
AcDbPolyline
 90
       41
 70
   128
 43
0.0
 10
815.6664074431896
 20
1693.497075844259
 10
815.6452102697056
 20
1693.497075844259
 10
815.5816526602091
 20
1693.497075844259
 10
815.475836293317
 20
1693.497075844259
 10
815.3279304526435
 20
1693.497075844259
 10
815.1381717559825
 20
1693.497075844259
 10
814.9068637767683
 20
1693.497075844259
 10
814.634376558425
 20
1693.497075844259
 10
814.3211460223742
 20
1693.497075844259
 10
813.9676732706547
 20
1693.497075844259
 10
813.5745237842659
 20
1693.497075844259
 10
813.1423265185187
 20
1693.497075844259
 10
812.6717728968404
 20
1693.497075844259
 10
812.163615704647
 20
1693.497075844259
 10
811.618667885045
 20
1693.497075844259
 10
811.0378012382959
 20
1693.497075844259
 10
810.421945027123
 20
1693.497075844259
 10
809.7720844900889
 20
1693.497075844259
 10
809.0892592654231
 20
1693.497075844259
 10
808.3745617278234
 20
1693.497075844259
 10
807.6291352408892
 20
1693.497075844259
 10
806.8541723279839
 20
1693.497075844259
 10
806.0509127644516
 20
1693.497075844259
 10
805.2206415942409
 20
1693.497075844259
 10
804.3646870741092
 20
1693.497075844259
 10
803.4844185486948
 20
1693.497075844259
 10
802.5812442598578
 20
1693.497075844259
 10
801.6566090937931
 20
1693.497075844259
 10
800.711992269522
 20
1693.497075844259
 10
799.7489049724553
 20
1693.497075844259
 10
798.7688879368208
 20
1693.497075844259
 10
797.7735089808167
 20
1693.497075844259
 10
796.764360498436
 20
1693.497075844259
 10
795.7430569119769
 20
1693.497075844259
 10
794.7112320893116
 20
1693.497075844259
 10
793.6705367300454
 20
1693.497075844259
 10
792.6226357247497
 20
1693.497075844259
 10
791.569205491493
 20
1693.497075844259
 10
790.5119312939287
 20
1693.497075844259
 10
789.4525045452328
 20
1693.497075844259
 10
789.1664074431889
 20
1693.497075844259
  0
LINE
  5
10C
330
102
100
AcDbEntity
  8
P-SANR-FIXT
100
AcDbLine
 10
790.1664074431887
 20
1681.747075844261
 30
0.0
 11
790.1664074431886
 21
1671.747075844261
 31
0.0
  0
LINE
  5
10D
330
102
100
AcDbEntity
  8
P-SANR-FIXT
100
AcDbLine
 10
834.3664074431892
 20
1671.747075844261
 30
0.0
 11
834.3664074431892
 21
1681.74707584426
 31
0.0
  0
SPLINE
  5
10E
330
102
100
AcDbEntity
  8
P-SANR-FIXT
100
AcDbSpline
210
0.0
220
0.0
230
1.0
 70
    24
 71
     3
 72
     9
 73
     5
 74
     0
 42
0.000000001
 43
0.0000000001
 40
-0.5996436125961975
 40
-0.5996436125961975
 40
-0.5996436125961975
 40
-0.5996436125961975
 40
-0.5
 40
0.0
 40
0.0
 40
0.0
 40
0.0
 10
818.5696256206902
 20
1660.247075844258
 30
0.0
 10
818.8092010525577
 20
1660.247075844258
 30
0.0
 10
820.2490169592707
 20
1660.247075844258
 30
0.0
 10
821.6772722917339
 20
1660.247075844258
 30
0.0
 10
822.8601547281558
 20
1660.247075844258
 30
0.0
  0
SPLINE
  5
10F
330
102
100
AcDbEntity
  8
P-SANR-FIXT
100
AcDbSpline
210
0.0
220
0.0
230
1.0
 70
    24
 71
     3
 72
     8
 73
     4
 74
     0
 42
0.000000001
 43
0.0000000001
 40
-1.0
 40
-1.0
 40
-1.0
 40
-1.0
 40
-0.7141610762920197
 40
-0.7141610762920197
 40
-0.7141610762920197
 40
-0.7141610762920197
 10
826.358952963146
 20
1662.26710794707
 30
0.0
 10
827.0558290201359
 20
1663.474132684354
 30
0.0
 10
827.7494298213923
 20
1664.675484512301
 30
0.0
 10
828.4397553669158
 20
1665.87116343091
 30
0.0
  0
SPLINE
  5
110
330
102
100
AcDbEntity
  8
P-SANR-FIXT
100
AcDbSpline
210
0.0
220
0.0
230
1.0
 70
    24
 71
     3
 72
     8
 73
     4
 74
     0
 42
0.000000001
 43
0.0000000001
 40
-0.2921724875575282
 40
-0.2921724875575282
 40
-0.2921724875575282
 40
-0.2921724875575282
 40
-0.2325078132526175
 40
-0.2325078132526175
 40
-0.2325078132526175
 40
-0.2325078132526175
 10
831.4757560511887
 20
1671.129670867885
 30
0.0
 10
831.6178327621219
 20
1671.375754949794
 30
0.0
 10
831.7595396435999
 20
1671.621198468295
 30
0.0
 10
831.9010158396173
 20
1671.866242427858
 30
0.0
  0
SPLINE
  5
111
330
102
100
AcDbEntity
  8
P-SANR-FIXT
100
AcDbSpline
210
0.0
220
0.0
230
1.0
 70
    24
 71
     3
 72
     8
 73
     4
 74
     0
 42
0.000000001
 43
0.0000000001
 40
-0.7731691781660551
 40
-0.7731691781660551
 40
-0.7731691781660551
 40
-0.7731691781660551
 40
-0.7145207811751522
 40
-0.7145207811751522
 40
-0.7145207811751522
 40
-0.7145207811751522
 10
831.8998454858469
 20
1681.62993637285
 30
0.0
 10
831.757927111095
 20
1681.875746208449
 30
0.0
 10
831.6160191954928
 20
1682.121537928267
 30
0.0
 10
831.474203812135
 20
1682.367169377538
 30
0.0
  0
SPLINE
  5
112
330
102
100
AcDbEntity
  8
P-SANR-FIXT
100
AcDbSpline
210
0.0
220
0.0
230
1.0
 70
    24
 71
     3
 72
     8
 73
     4
 74
     0
 42
0.000000001
 43
0.0000000001
 40
-0.2925384255166037
 40
-0.2925384255166037
 40
-0.2925384255166037
 40
-0.2925384255166037
 40
0.0
 40
0.0
 40
0.0
 40
0.0
 10
828.4385113492483
 20
1687.625142959412
 30
0.0
 10
827.7418946344845
 20
1688.831718502784
 30
0.0
 10
827.048708505784
 20
1690.032352096796
 30
0.0
 10
826.3589529631465
 20
1691.227043741446
 30
0.0
  0
SPLINE
  5
113
330
102
100
AcDbEntity
  8
P-SANR-FIXT
100
AcDbSpline
210
0.0
220
0.0
230
1.0
 70
    24
 71
     3
 72
     9
 73
     5
 74
     0
 42
0.000000001
 43
0.0000000001
 40
-1.0
 40
-1.0
 40
-1.0
 40
-1.0
 40
-0.5
 40
-0.4035646181925883
 40
-0.4035646181925883
 40
-0.4035646181925883
 40
-0.4035646181925883
 10
822.8601547281563
 20
1693.247075844258
 30
0.0
 10
821.6772722917342
 20
1693.247075844258
 30
0.0
 10
820.2566584527108
 20
1693.247075844258
 30
0.0
 10
818.8246074119614
 20
1693.247075844258
 30
0.0
 10
818.5927654973744
 20
1693.247075844258
 30
0.0
  0
ARC
  5
114
330
102
100
AcDbEntity
  8
P-SANR-FIXT
100
AcDbCircle
 10
815.6664074431873
 20
1676.747075844258
 30
0.0
 40
17.99999999999988
100
AcDbArc
 50
293.5564643090982
 51
306.4435356908983
  0
ARC
  5
115
330
102
100
AcDbEntity
  8
P-SANR-FIXT
100
AcDbCircle
 10
815.6664074431873
 20
1676.747075844258
 30
0.0
 40
17.99999999999993
100
AcDbArc
 50
53.55646430909884
 51
66.4435356908984
  0
LWPOLYLINE
  5
116
330
102
100
AcDbEntity
  8
P-SANR-FIXT
100
AcDbPolyline
 90
        3
 70
   128
 43
0.0
 10
829.0934216432546
 20
1666.70196378734
 10
834.8817355401362
 20
1666.747075844258
 10
841.0152239836099
 20
1666.747075844258
  0
LWPOLYLINE
  5
117
330
102
100
AcDbEntity
  8
P-SANR-FIXT
100
AcDbPolyline
 90
        3
 70
   128
 43
0.0
 10
841.0201487540884
 20
1686.734583117843
 10
834.888362008197
 20
1686.734583117843
 10
829.1029731628913
 20
1686.779600658259
  0
LWPOLYLINE
  5
118
330
102
100
AcDbEntity
  8
P-SANR-FIXT
100
AcDbPolyline
 90
        6
 70
   128
 43
0.0
 10
815.6664074431873
 20
1649.497075844258
 10
810.2692039842761
 20
1650.036914953258
 10
805.0923608745275
 20
1651.632298537585
 10
800.3340226570609
 20
1654.219748511213
 10
796.1775575089535
 20
1657.701151654529
 10
794.160497453577
 20
1660.012132297333
  0
ARC
  5
119
330
102
100
AcDbEntity
  8
P-SANR-FIXT
100
AcDbCircle
 10
815.6664074431873
 20
1676.747075844258
 30
0.0
 40
27.25000000000003
100
AcDbArc
 50
90.0
 51
142.0424484016259
  0
ARC
  5
11A
330
102
100
AcDbEntity
  8
P-SANR-FIXT
100
AcDbCircle
 10
815.6664074431873
 20
1676.747075844258
 30
0.0
 40
27.24999999999998
100
AcDbArc
 50
21.50078833777444
 51
90.00000000000012
  0
ARC
  5
11B
330
102
100
AcDbEntity
  8
P-SANR-FIXT
100
AcDbCircle
 10
815.6664074431873
 20
1676.747075844258
 30
0.0
 40
27.25000000000011
100
AcDbArc
 50
338.4709771701595
 51
21.50078833777316
  0
LWPOLYLINE
  5
11C
330
102
100
AcDbEntity
  8
P-SANR-FIXT
100
AcDbPolyline
 90
        7
 70
   128
 43
0.0
 10
841.0152239836099
 20
1666.747075844258
 10
838.5426122285554
 20
1661.940261378686
 10
835.1553982818156
 20
1657.701295836816
 10
830.9989135552829
 20
1654.219831087685
 10
826.2405443146699
 20
1651.632336557872
 10
821.063658809475
 20
1650.036924633733
 10
815.6664074431876
 20
1649.497075844258
  0
LINE
  5
11D
330
102
100
AcDbEntity
  8
P-SANR-FIXT
100
AcDbLine
 10
798.1664074431876
 20
1671.74707584426
 30
0.0
 11
797.1664074431774
 21
1671.74707584426
 31
0.0
  0
LINE
  5
11E
330
102
100
AcDbEntity
  8
P-SANR-FIXT
100
AcDbLine
 10
797.1664074431774
 20
1671.74707584426
 30
0.0
 11
791.1664074431773
 21
1671.74707584426
 31
0.0
  0
LINE
  5
11F
330
102
100
AcDbEntity
  8
P-SANR-FIXT
100
AcDbLine
 10
791.1664074431773
 20
1671.74707584426
 30
0.0
 11
790.1664074431876
 21
1671.74707584426
 31
0.0
  0
LINE
  5
120
330
102
100
AcDbEntity
  8
P-SANR-FIXT
100
AcDbLine
 10
834.3664074431881
 20
1671.74707584426
 30
0.0
 11
833.3664074431762
 21
1671.74707584426
 31
0.0
  0
LINE
  5
121
330
102
100
AcDbEntity
  8
P-SANR-FIXT
100
AcDbLine
 10
833.3664074431762
 20
1671.74707584426
 30
0.0
 11
830.5188569567826
 21
1671.74707584426
 31
0.0
  0
LINE
  5
122
330
102
100
AcDbEntity
  8
P-SANR-FIXT
100
AcDbLine
 10
790.1664074431876
 20
1681.747075844259
 30
0.0
 11
791.1664074431773
 21
1681.747075844259
 31
0.0
  0
LINE
  5
123
330
102
100
AcDbEntity
  8
P-SANR-FIXT
100
AcDbLine
 10
791.1664074431773
 20
1681.747075844259
 30
0.0
 11
797.1664074431774
 21
1681.747075844259
 31
0.0
  0
LINE
  5
124
330
102
100
AcDbEntity
  8
P-SANR-FIXT
100
AcDbLine
 10
797.1664074431774
 20
1681.747075844259
 30
0.0
 11
798.1664074431876
 21
1681.747075844259
 31
0.0
  0
LINE
  5
125
330
102
100
AcDbEntity
  8
P-SANR-FIXT
100
AcDbLine
 10
833.3664074431762
 20
1681.747075844259
 30
0.0
 11
834.3664074431881
 21
1681.747075844259
 31
0.0
  0
LINE
  5
126
330
102
100
AcDbEntity
  8
P-SANR-FIXT
100
AcDbLine
 10
830.5188569567818
 20
1681.747075844259
 30
0.0
 11
833.3664074431762
 21
1681.747075844259
 31
0.0
  0
ARC
  5
127
330
102
100
AcDbEntity
  8
P-SANR-FIXT
100
AcDbCircle
 10
815.6664074431873
 20
1676.747075844258
 30
0.0
 40
27.24999999999996
100
AcDbArc
 50
93.81221055265564
 51
94.49999999999953
  0
ARC
  5
128
330
102
100
AcDbEntity
  8
P-SANR-FIXT
100
AcDbCircle
 10
815.6664074431873
 20
1676.747075844258
 30
0.0
 40
27.25000000000004
100
AcDbArc
 50
97.62519175428167
 51
98.99999999999945
  0
ARC
  5
129
330
102
100
AcDbEntity
  8
P-SANR-FIXT
100
AcDbCircle
 10
815.6664074431873
 20
1676.747075844258
 30
0.0
 40
27.24999999999991
100
AcDbArc
 50
103.4999999999995
 51
105.2457030083306
  0
ARC
  5
12A
330
102
100
AcDbEntity
  8
P-SANR-FIXT
100
AcDbCircle
 10
815.6664074431873
 20
1676.747075844258
 30
0.0
 40
27.25000000000001
100
AcDbArc
 50
107.9999999999993
 51
109.0493874704234
  0
ARC
  5
12B
330
102
100
AcDbEntity
  8
P-SANR-FIXT
100
AcDbCircle
 10
815.6664074431873
 20
1676.747075844258
 30
0.0
 40
27.24999999999983
100
AcDbArc
 50
112.4999999999994
 51
112.8474519942709
  0
ARC
  5
12C
330
102
100
AcDbEntity
  8
P-SANR-FIXT
100
AcDbCircle
 10
815.6664074431873
 20
1676.747075844258
 30
0.0
 40
27.24999999999998
100
AcDbArc
 50
116.6515734593701
 51
116.9999999999996
  0
ARC
  5
12D
330
102
100
AcDbEntity
  8
P-SANR-FIXT
100
AcDbCircle
 10
815.6664074431873
 20
1676.747075844258
 30
0.0
 40
27.24999999999998
100
AcDbArc
 50
120.4669244605936
 51
121.4999999999995
  0
ARC
  5
12E
330
102
100
AcDbEntity
  8
P-SANR-FIXT
100
AcDbCircle
 10
815.6664074431873
 20
1676.747075844258
 30
0.0
 40
27.25000000000005
100
AcDbArc
 50
124.2819045713401
 51
125.9999999999994
  0
ARC
  5
12F
330
102
100
AcDbEntity
  8
P-SANR-FIXT
100
AcDbCircle
 10
815.6664074431873
 20
1676.747075844258
 30
0.0
 40
27.25000000000008
100
AcDbArc
 50
130.4999999999993
 51
131.9026521711703
  0
ARC
  5
130
330
102
100
AcDbEntity
  8
P-SANR-FIXT
100
AcDbCircle
 10
815.6664074431873
 20
1676.747075844258
 30
0.0
 40
27.24999999999994
100
AcDbArc
 50
134.9999999999993
 51
135.6560842395339
  0
ARC
  5
131
330
102
100
AcDbEntity
  8
P-SANR-FIXT
100
AcDbCircle
 10
815.6664074431873
 20
1676.747075844258
 30
0.0
 40
27.24999999999996
100
AcDbArc
 50
224.3620736448701
 51
224.9999999999987
  0
ARC
  5
132
330
102
100
AcDbEntity
  8
P-SANR-FIXT
100
AcDbCircle
 10
815.6664074431873
 20
1676.747075844258
 30
0.0
 40
27.24999999999996
100
AcDbArc
 50
228.1146775128588
 51
229.4999999999991
  0
ARC
  5
133
330
102
100
AcDbEntity
  8
P-SANR-FIXT
100
AcDbCircle
 10
815.6664074431873
 20
1676.747075844258
 30
0.0
 40
27.24999999999993
100
AcDbArc
 50
233.9999999999992
 51
235.7320557772751
  0
ARC
  5
134
330
102
100
AcDbEntity
  8
P-SANR-FIXT
100
AcDbCircle
 10
815.6664074431873
 20
1676.747075844258
 30
0.0
 40
27.24999999999998
100
AcDbArc
 50
238.499999999999
 51
239.5454198484364
  0
ARC
  5
135
330
102
100
AcDbEntity
  8
P-SANR-FIXT
100
AcDbCircle
 10
815.6664074431873
 20
1676.747075844258
 30
0.0
 40
27.25000000000003
100
AcDbArc
 50
242.9999999999992
 51
243.3591897396174
  0
ARC
  5
136
330
102
100
AcDbEntity
  8
P-SANR-FIXT
100
AcDbCircle
 10
815.6664074431873
 20
1676.747075844258
 30
0.0
 40
27.25000000000002
100
AcDbArc
 50
247.162061797007
 51
247.499999999999
  0
ARC
  5
137
330
102
100
AcDbEntity
  8
P-SANR-FIXT
100
AcDbCircle
 10
815.6664074431873
 20
1676.747075844258
 30
0.0
 40
27.25000000000004
100
AcDbArc
 50
250.9584820286618
 51
251.9999999999992
  0
ARC
  5
138
330
102
100
AcDbEntity
  8
P-SANR-FIXT
100
AcDbCircle
 10
815.6664074431873
 20
1676.747075844258
 30
0.0
 40
27.25000000000003
100
AcDbArc
 50
254.7605547315086
 51
256.4999999999991
  0
ARC
  5
139
330
102
100
AcDbEntity
  8
P-SANR-FIXT
100
AcDbCircle
 10
815.6664074431873
 20
1676.747075844258
 30
0.0
 40
27.24999999999996
100
AcDbArc
 50
260.9999999999992
 51
262.3779174665698
  0
ARC
  5
13A
330
102
100
AcDbEntity
  8
P-SANR-FIXT
100
AcDbCircle
 10
815.6664074431873
 20
1676.747075844258
 30
0.0
 40
27.25000000000007
100
AcDbArc
 50
265.499999999999
 51
266.189343572151
  0
ARC
  5
13B
330
102
100
AcDbEntity
  8
P-SANR-FIXT
100
AcDbCircle
 10
815.6664074431873
 20
1676.747075844258
 30
0.0
 40
27.25000000000004
100
AcDbArc
 50
273.8106905891448
 51
274.4999999999996
  0
ARC
  5
13C
330
102
100
AcDbEntity
  8
P-SANR-FIXT
100
AcDbCircle
 10
815.6664074431873
 20
1676.747075844258
 30
0.0
 40
27.24999999999996
100
AcDbArc
 50
277.6221508775039
 51
278.9999999999996
  0
ARC
  5
13D
330
102
100
AcDbEntity
  8
P-SANR-FIXT
100
AcDbCircle
 10
815.6664074431873
 20
1676.747075844258
 30
0.0
 40
27.24999999999993
100
AcDbArc
 50
283.4999999999995
 51
285.2395828218194
  0
ARC
  5
13E
330
102
100
AcDbEntity
  8
P-SANR-FIXT
100
AcDbCircle
 10
815.6664074431873
 20
1676.747075844258
 30
0.0
 40
27.24999999999997
100
AcDbArc
 50
287.9999999999995
 51
289.0416909546356
  0
ARC
  5
13F
330
102
100
AcDbEntity
  8
P-SANR-FIXT
100
AcDbCircle
 10
815.6664074431873
 20
1676.747075844258
 30
0.0
 40
27.25000000000002
100
AcDbArc
 50
292.4999999999995
 51
292.8381473322306
  0
ARC
  5
140
330
102
100
AcDbEntity
  8
P-SANR-FIXT
100
AcDbCircle
 10
815.6664074431873
 20
1676.747075844258
 30
0.0
 40
27.25000000000008
100
AcDbArc
 50
296.641046336556
 51
296.9999999999994
  0
ARC
  5
141
330
102
100
AcDbEntity
  8
P-SANR-FIXT
100
AcDbCircle
 10
815.6664074431873
 20
1676.747075844258
 30
0.0
 40
27.25000000000019
100
AcDbArc
 50
300.4548504633756
 51
301.4999999999994
  0
ARC
  5
142
330
102
100
AcDbEntity
  8
P-SANR-FIXT
100
AcDbCircle
 10
815.6664074431873
 20
1676.747075844258
 30
0.0
 40
27.25000000000017
100
AcDbArc
 50
304.2682511073552
 51
305.9999999999993
  0
ARC
  5
143
330
102
100
AcDbEntity
  8
P-SANR-FIXT
100
AcDbCircle
 10
815.6664074431873
 20
1676.747075844258
 30
0.0
 40
27.25000000000006
100
AcDbArc
 50
310.4999999999995
 51
311.8856992884731
  0
ARC
  5
144
330
102
100
AcDbEntity
  8
P-SANR-FIXT
100
AcDbCircle
 10
815.6664074431873
 20
1676.747075844258
 30
0.0
 40
27.2500000000001
100
AcDbArc
 50
314.9999999999995
 51
315.6383393007116
  0
ARC
  5
145
330
102
100
AcDbEntity
  8
P-SANR-FIXT
100
AcDbCircle
 10
815.6664074431873
 20
1676.747075844258
 30
0.0
 40
27.24999999999997
100
AcDbArc
 50
323.2618422680719
 51
323.9999999999999
  0
ARC
  5
146
330
102
100
AcDbEntity
  8
P-SANR-FIXT
100
AcDbCircle
 10
815.6664074431873
 20
1676.747075844258
 30
0.0
 40
27.24999999999997
100
AcDbArc
 50
327.061445156704
 51
328.4999999999993
  0
ARC
  5
147
330
102
100
AcDbEntity
  8
P-SANR-FIXT
100
AcDbCircle
 10
815.6664074431873
 20
1676.747075844258
 30
0.0
 40
27.25000000000018
100
AcDbArc
 50
332.9999999999997
 51
334.6622736093901
  0
ARC
  5
148
330
102
100
AcDbEntity
  8
P-SANR-FIXT
100
AcDbCircle
 10
815.6664074431873
 20
1676.747075844258
 30
0.0
 40
27.2500000000001
100
AcDbArc
 50
337.4999999999998
 51
338.4597219681416
  0
ARC
  5
149
330
102
100
AcDbEntity
  8
P-SANR-FIXT
100
AcDbCircle
 10
815.6664074431873
 20
1676.747075844258
 30
0.0
 40
27.25000000000004
100
AcDbArc
 50
341.9999999999998
 51
343.2418515347149
  0
ARC
  5
14A
330
102
100
AcDbEntity
  8
P-SANR-FIXT
100
AcDbCircle
 10
815.6664074431873
 20
1676.747075844258
 30
0.0
 40
27.25000000000001
100
AcDbArc
 50
346.4999999999994
 51
348.0250952513125
  0
ARC
  5
14B
330
102
100
AcDbEntity
  8
P-SANR-FIXT
100
AcDbCircle
 10
815.6664074431873
 20
1676.747075844258
 30
0.0
 40
27.25000000000007
100
AcDbArc
 50
350.9999999999997
 51
9.000000000000438
  0
ARC
  5
14C
330
102
100
AcDbEntity
  8
P-SANR-FIXT
100
AcDbCircle
 10
815.6664074431873
 20
1676.747075844258
 30
0.0
 40
27.25000000000008
100
AcDbArc
 50
11.9467340206978
 51
13.50000000000022
  0
ARC
  5
14D
330
102
100
AcDbEntity
  8
P-SANR-FIXT
100
AcDbCircle
 10
815.6664074431873
 20
1676.747075844258
 30
0.0
 40
27.25
100
AcDbArc
 50
16.73004763740052
 51
18.00000000000023
  0
ARC
  5
14E
330
102
100
AcDbEntity
  8
P-SANR-FIXT
100
AcDbCircle
 10
815.6664074431873
 20
1676.747075844258
 30
0.0
 40
27.25000000000007
100
AcDbArc
 50
21.51227316156255
 51
22.50000000000015
  0
ARC
  5
14F
330
102
100
AcDbEntity
  8
P-SANR-FIXT
100
AcDbCircle
 10
815.6664074431873
 20
1676.747075844258
 30
0.0
 40
27.24999999999991
100
AcDbArc
 50
25.31192013985949
 51
26.99999999999988
  0
ARC
  5
150
330
102
100
AcDbEntity
  8
P-SANR-FIXT
100
AcDbCircle
 10
815.6664074431873
 20
1676.747075844258
 30
0.0
 40
27.25000000000012
100
AcDbArc
 50
31.49999999999941
 51
32.91548968590424
  0
ARC
  5
151
330
102
100
AcDbEntity
  8
P-SANR-FIXT
100
AcDbCircle
 10
815.6664074431873
 20
1676.747075844258
 30
0.0
 40
27.25000000000001
100
AcDbArc
 50
35.99999999999976
 51
36.7164777617167
  0
ARC
  5
152
330
102
100
AcDbEntity
  8
P-SANR-FIXT
100
AcDbCircle
 10
815.6664074431873
 20
1676.747075844258
 30
0.0
 40
27.25000000000003
100
AcDbArc
 50
44.34391576046505
 51
44.99999999999959
  0
ARC
  5
153
330
102
100
AcDbEntity
  8
P-SANR-FIXT
100
AcDbCircle
 10
815.6664074431873
 20
1676.747075844258
 30
0.0
 40
27.24999999999997
100
AcDbArc
 50
48.09734782882857
 51
49.49999999999971
  0
ARC
  5
154
330
102
100
AcDbEntity
  8
P-SANR-FIXT
100
AcDbCircle
 10
815.6664074431873
 20
1676.747075844258
 30
0.0
 40
27.24999999999991
100
AcDbArc
 50
53.99999999999925
 51
55.71809542865882
  0
ARC
  5
155
330
102
100
AcDbEntity
  8
P-SANR-FIXT
100
AcDbCircle
 10
815.6664074431873
 20
1676.747075844258
 30
0.0
 40
27.24999999999992
100
AcDbArc
 50
58.49999999999957
 51
59.53307553940498
  0
ARC
  5
156
330
102
100
AcDbEntity
  8
P-SANR-FIXT
100
AcDbCircle
 10
815.6664074431873
 20
1676.747075844258
 30
0.0
 40
27.24999999999998
100
AcDbArc
 50
62.99999999999984
 51
63.34842654062959
  0
ARC
  5
157
330
102
100
AcDbEntity
  8
P-SANR-FIXT
100
AcDbCircle
 10
815.6664074431873
 20
1676.747075844258
 30
0.0
 40
27.25
100
AcDbArc
 50
67.15254800572783
 51
67.4999999999997
  0
ARC
  5
158
330
102
100
AcDbEntity
  8
P-SANR-FIXT
100
AcDbCircle
 10
815.6664074431873
 20
1676.747075844258
 30
0.0
 40
27.25
100
AcDbArc
 50
70.95061252957581
 51
71.99999999999964
  0
ARC
  5
159
330
102
100
AcDbEntity
  8
P-SANR-FIXT
100
AcDbCircle
 10
815.6664074431873
 20
1676.747075844258
 30
0.0
 40
27.2500000000001
100
AcDbArc
 50
74.75429699166873
 51
76.49999999999974
  0
ARC
  5
15A
330
102
100
AcDbEntity
  8
P-SANR-FIXT
100
AcDbCircle
 10
815.6664074431873
 20
1676.747075844258
 30
0.0
 40
27.25000000000007
100
AcDbArc
 50
80.99999999999957
 51
82.37480824571759
  0
ARC
  5
15B
330
102
100
AcDbEntity
  8
P-SANR-FIXT
100
AcDbCircle
 10
815.6664074431873
 20
1676.747075844258
 30
0.0
 40
27.25000000000006
100
AcDbArc
 50
85.49999999999958
 51
86.18778944734321
  0
ARC
  5
15C
330
102
100
AcDbEntity
  8
P-SANR-FIXT
100
AcDbCircle
 10
815.6664074431873
 20
1676.747075844258
 30
0.0
 40
24.00000000000001
100
AcDbArc
 50
269.9999999999999
 51
335.3690249542822
  0
ARC
  5
15D
330
102
100
AcDbEntity
  8
P-SANR-FIXT
100
AcDbCircle
 10
815.6664074431873
 20
1676.747075844258
 30
0.0
 40
23.99999999999996
100
AcDbArc
 50
224.2737541866683
 51
269.9999999999994
  0
ARC
  5
15E
330
102
100
AcDbEntity
  8
P-SANR-FIXT
100
AcDbCircle
 10
815.6664074431873
 20
1676.747075844258
 30
0.0
 40
23.99999999999986
100
AcDbArc
 50
90.0
 51
135.7608691986134
  0
ARC
  5
15F
330
102
100
AcDbEntity
  8
P-SANR-FIXT
100
AcDbCircle
 10
815.6664074431873
 20
1676.747075844258
 30
0.0
 40
24.0
100
AcDbArc
 50
24.59766341771318
 51
90.0
  0
LINE
  5
160
330
102
100
AcDbEntity
  8
P-SANR-FIXT
100
AcDbLine
 10
774.6664074431879
 20
1676.747075844259
 30
0.0
 11
774.6664074431879
 21
1688.897075844327
 31
0.0
  0
LINE
  5
161
330
102
100
AcDbEntity
  8
P-SANR-FIXT
100
AcDbLine
 10
774.6664074431879
 20
1664.59707584419
 30
0.0
 11
774.6664074431879
 21
1676.747075844259
 31
0.0
  0
LINE
  5
162
330
102
100
AcDbEntity
  8
P-SANR-FIXT
100
AcDbLine
 10
775.9664074431871
 20
1690.197075844326
 30
0.0
 11
775.9664074431871
 21
1676.747075844259
 31
0.0
  0
LINE
  5
163
330
102
100
AcDbEntity
  8
P-SANR-FIXT
100
AcDbLine
 10
775.9664074431871
 20
1676.747075844259
 30
0.0
 11
775.9664074431871
 21
1663.297075844191
 31
0.0
  0
LINE
  5
164
330
102
100
AcDbEntity
  8
P-SANR-FIXT
100
AcDbLine
 10
789.1664074431876
 20
1659.997075844258
 30
0.0
 11
789.1664074431877
 21
1676.747075844259
 31
0.0
  0
LINE
  5
165
330
102
100
AcDbEntity
  8
P-SANR-FIXT
100
AcDbLine
 10
789.1664074431877
 20
1676.747075844259
 30
0.0
 11
789.1664074431878
 21
1693.497075844258
 31
0.0
  0
ARC
  5
166
330
102
100
AcDbEntity
  8
P-SANR-FIXT
100
AcDbCircle
 10
815.6664074431883
 20
1676.747075844258
 30
0.0
 40
16.75000000000015
100
AcDbArc
 50
54.99999999999994
 51
65.00000000000001
  0
ARC
  5
167
330
102
100
AcDbEntity
  8
P-SANR-FIXT
100
AcDbCircle
 10
815.6664074431883
 20
1676.747075844258
 30
0.0
 40
16.75000000000001
100
AcDbArc
 50
20.00000000000115
 51
45.00000000000069
  0
ARC
  5
168
330
102
100
AcDbEntity
  8
P-SANR-FIXT
100
AcDbCircle
 10
815.6664074431883
 20
1676.747075844258
 30
0.0
 40
16.75000000000005
100
AcDbArc
 50
314.9999999999996
 51
339.9999999999999
  0
ARC
  5
169
330
102
100
AcDbEntity
  8
P-SANR-FIXT
100
AcDbCircle
 10
815.6664074431883
 20
1676.747075844258
 30
0.0
 40
16.75000000000003
100
AcDbArc
 50
304.9999999999994
 51
309.9999999999996
  0
ARC
  5
16A
330
102
100
AcDbEntity
  8
P-SANR-FIXT
100
AcDbCircle
 10
815.6664074431883
 20
1676.747075844258
 30
0.0
 40
16.74999999999996
100
AcDbArc
 50
279.9999999999994
 51
284.9999999999994
  0
SPLINE
  5
16B
330
102
100
AcDbEntity
  8
P-SANR-FIXT
100
AcDbSpline
210
0.0
220
0.0
230
1.0
 70
     8
 71
     3
 72
     9
 73
     5
 74
     0
 42
0.000000001
 43
0.0000000001
 40
0.0
 40
0.0
 40
0.0
 40
0.0
 40
0.5
 40
1.0
 40
1.0
 40
1.0
 40
1.0
 10
831.3030897995448
 20
1676.747075844258
 30
0.0
 10
831.3019675761097
 20
1675.891761733533
 30
0.0
 10
831.1701398788809
 20
1674.203114289475
 30
0.0
 10
830.7791456809349
 20
1672.558428400201
 30
0.0
 10
830.5188569567826
 20
1671.74707584426
 30
0.0
  0
SPLINE
  5
16C
330
102
100
AcDbEntity
  8
P-SANR-FIXT
100
AcDbSpline
210
0.0
220
0.0
230
1.0
 70
     8
 71
     3
 72
     9
 73
     5
 74
     0
 42
0.000000001
 43
0.0000000001
 40
0.0
 40
0.0
 40
0.0
 40
0.0
 40
0.5
 40
1.0
 40
1.0
 40
1.0
 40
1.0
 10
830.5188569567818
 20
1681.747075844259
 30
0.0
 10
830.7791456809344
 20
1680.935723288317
 30
0.0
 10
831.1701398788807
 20
1679.291037399043
 30
0.0
 10
831.3019675761097
 20
1677.602389954984
 30
0.0
 10
831.3030897995448
 20
1676.747075844258
 30
0.0
  0
ENDBLK
  5
16E
330
102
100
AcDbEntity
  8
0
100
AcDbBlockEnd
  0
BLOCK
  5
20B
330
170
100
AcDbEntity
  8
0
100
AcDbBlockBegin
  2
Automatic flow rate regulator valve_Caleffi_121 DN15 - 1_2__-V2-Est - Idraulica
 70
     0
 10
0.0
 20
0.0
 30
0.0
  3
Automatic flow rate regulator valve_Caleffi_121 DN15 - 1_2__-V2-Est - Idraulica
  1

  0
LINE
  5
171
330
170
100
AcDbEntity
  8
P-SANR-FIXT
100
AcDbLine
 10
1231.713156828899
 20
2012.498183850012
 30
0.0
 11
1231.363156828899
 21
2012.296111255796
 31
0.0
  0
LINE
  5
172
330
170
100
AcDbEntity
  8
P-SANR-FIXT
100
AcDbLine
 10
1264.363156828898
 20
2012.296111255796
 30
0.0
 11
1264.013156828899
 21
2012.498183850012
 31
0.0
  0
LINE
  5
173
330
170
100
AcDbEntity
  8
P-SANR-FIXT
100
AcDbLine
 10
1231.363156828899
 20
1916.642521417309
 30
0.0
 11
1231.613156828899
 21
1916.498183850012
 31
0.0
  0
LINE
  5
174
330
170
100
AcDbEntity
  8
P-SANR-FIXT
100
AcDbLine
 10
1264.113156828899
 20
1916.498183850012
 30
0.0
 11
1264.363156828898
 21
1916.642521417309
 31
0.0
  0
LINE
  5
175
330
170
100
AcDbEntity
  8
P-SANR-FIXT
100
AcDbLine
 10
1231.713156828899
 20
2003.798183850012
 30
0.0
 11
1231.713156828899
 21
2000.756759788564
 31
0.0
  0
LINE
  5
176
330
170
100
AcDbEntity
  8
P-SANR-FIXT
100
AcDbLine
 10
1264.013156828899
 20
2000.756759788564
 30
0.0
 11
1264.013156828899
 21
2003.798183850012
 31
0.0
  0
LINE
  5
177
330
170
100
AcDbEntity
  8
P-SANR-FIXT
100
AcDbLine
 10
1220.613156828898
 20
1970.956759788564
 30
0.0
 11
1220.613156828898
 21
1961.534406194102
 31
0.0
  0
LINE
  5
178
330
170
100
AcDbEntity
  8
P-SANR-FIXT
100
AcDbLine
 10
1275.113156828899
 20
1961.534406194102
 30
0.0
 11
1275.113156828899
 21
1970.956759788564
 31
0.0
  0
LINE
  5
179
330
170
100
AcDbEntity
  8
P-SANR-FIXT
100
AcDbLine
 10
1220.613156828898
 20
1961.534406194102
 30
0.0
 11
1229.863156828898
 21
1927.012936224089
 31
0.0
  0
LINE
  5
17A
330
170
100
AcDbEntity
  8
P-SANR-FIXT
100
AcDbLine
 10
1265.863156828899
 20
1927.012936224089
 30
0.0
 11
1275.113156828899
 21
1961.534406194102
 31
0.0
  0
LINE
  5
17B
330
170
100
AcDbEntity
  8
P-SANR-FIXT
100
AcDbLine
 10
1234.863156828899
 20
2014.998183850188
 30
0.0
 11
1234.863156828899
 21
2012.498183850012
 31
0.0
  0
LINE
  5
17C
330
170
100
AcDbEntity
  8
P-SANR-FIXT
100
AcDbLine
 10
1260.863156828898
 20
2012.498183850012
 30
0.0
 11
1260.863156828898
 21
2014.998183850188
 31
0.0
  0
LINE
  5
17D
330
170
100
AcDbEntity
  8
P-SANR-FIXT
100
AcDbLine
 10
1234.863156828914
 20
1998.309943689798
 30
0.0
 11
1234.863156828914
 21
1995.364209253894
 31
0.0
  0
LINE
  5
17E
330
170
100
AcDbEntity
  8
P-SANR-FIXT
100
AcDbLine
 10
1260.863156828883
 20
1995.364209253894
 30
0.0
 11
1260.863156828883
 21
1998.309943689798
 31
0.0
  0
LINE
  5
17F
330
170
100
AcDbEntity
  8
P-SANR-FIXT
100
AcDbLine
 10
1234.863156828914
 20
1995.364209253894
 30
0.0
 11
1234.920062063453
 21
1995.331355001415
 31
0.0
  0
LINE
  5
180
330
170
100
AcDbEntity
  8
P-SANR-FIXT
100
AcDbLine
 10
1234.925755382175
 20
1995.328067962318
 30
0.0
 11
1236.363156828967
 21
1994.49818385008
 31
0.0
  0
LINE
  5
181
330
170
100
AcDbEntity
  8
P-SANR-FIXT
100
AcDbLine
 10
1259.36315682883
 20
1994.49818385008
 30
0.0
 11
1260.800558275622
 21
1995.328067962318
 31
0.0
  0
LINE
  5
182
330
170
100
AcDbEntity
  8
P-SANR-FIXT
100
AcDbLine
 10
1260.806251594344
 20
1995.331355001415
 30
0.0
 11
1260.863156828883
 21
1995.364209253894
 31
0.0
  0
LWPOLYLINE
  5
183
330
170
100
AcDbEntity
  8
P-SANR-FIXT
100
AcDbPolyline
 90
       78
 70
   128
 43
0.0
 10
1234.960710058243
 20
1998.305579951587
 10
1235.004402560674
 20
1998.306453918167
 10
1235.048025164422
 20
1998.309074419749
 10
1235.091508082627
 20
1998.313437264089
 10
1235.134781751894
 20
1998.319535471565
 10
1235.177776943585
 20
1998.327359286348
 10
1235.220424874565
 20
1998.336896192003
 10
1235.262657317241
 20
1998.348130931515
 10
1235.304406708715
 20
1998.361045531697
 10
1235.345606258866
 20
1998.375619331944
 10
1235.386190057203
 20
1998.391829017284
 10
1235.426093178306
 20
1998.40964865568
 10
1235.465251785694
 20
1998.42904973951
 10
1235.503603233947
 20
1998.45000123118
 10
1235.541086168929
 20
1998.472469612772
 10
1235.577640625943
 20
1998.496418939669
 10
1235.613208125652
 20
1998.521810898056
 10
1235.647731767646
 20
1998.548604866216
 10
1235.681156321461
 20
1998.576757979517
 10
1235.713428314943
 20
1998.606225198983
 10
1235.744496119784
 20
1998.636959383348
 10
1235.774310034127
 20
1998.668911364475
 10
1235.802822362066
 20
1998.702030026008
 10
1235.829987489961
 20
1998.736262385155
 10
1235.855761959401
 20
1998.771553677444
 10
1235.880104536733
 20
1998.807847444335
 10
1235.902976279027
 20
1998.845085623543
 10
1235.924340596373
 20
1998.883208641926
 10
1235.944163310422
 20
1998.922155510786
 10
1235.96241270906
 20
1998.961863923443
 10
1235.979059597141
 20
1999.002270354905
 10
1235.994077343196
 20
1999.043310163503
 10
1236.007441922036
 20
1999.084917694296
 10
1236.019131953185
 20
1999.127026384112
 10
1236.029128735085
 20
1999.16956886803
 10
1236.037416275021
 20
1999.212477087151
 10
1236.043981314694
 20
1999.255682397478
 10
1236.048813351443
 20
1999.299115679729
 10
1236.051904655039
 20
1999.34270744992
 10
1236.053250280056
 20
1999.386387970517
 10
1236.052848073781
 20
1999.430087362005
 10
1236.050698679658
 20
1999.47373571468
 10
1236.046805536259
 20
1999.517263200488
 10
1236.041174871783
 20
1999.560600184738
 10
1236.033815694093
 20
1999.603677337499
 10
1236.024739776302
 20
1999.646425744517
 10
1236.013961637943
 20
1999.688777017459
 10
1236.001498521739
 20
1999.730663403323
 10
1235.987370366015
 20
1999.772017892827
 10
1235.971599772809
 20
1999.812774327611
 10
1235.954211971704
 20
1999.852867506071
 10
1235.935234779473
 20
1999.892233287675
 10
1235.914698555577
 20
1999.930808695572
 10
1235.892636153591
 20
1999.968532017336
 10
1235.869082868652
 20
2000.0053429037
 10
1235.844076380993
 20
2000.041182465099
 10
1235.817656695659
 20
2000.07599336588
 10
1235.789866078511
 20
2000.109719916026
 10
1235.760748988607
 20
2000.142308160254
 10
1235.730352007081
 20
2000.173705964324
 10
1235.698723762618
 20
2000.203863098446
 10
1235.665914853662
 20
2000.232731317641
 10
1235.63197776747
 20
2000.260264438915
 10
1235.596966796139
 20
2000.286418415146
 10
1235.560937949755
 20
2000.311151405555
 10
1235.523948866786
 20
2000.33442384263
 10
1235.486058721875
 20
2000.356198495438
 10
1235.44732813117
 20
2000.376440529179
 10
1235.407819055355
 20
2000.395117560918
 10
1235.367594700523
 20
2000.412199711386
 10
1235.32671941706
 20
2000.427659652789
 10
1235.285258596701
 20
2000.441472652516
 10
1235.243278567914
 20
2000.453616612717
 10
1235.20084648979
 20
2000.464072105644
 10
1235.158030244602
 20
2000.47282240474
 10
1235.114898329208
 20
2000.479853511392
 10
1235.071519745472
 20
2000.485154177331
 10
1235.058263287572
 20
2000.48642401041
  0
LWPOLYLINE
  5
184
330
170
100
AcDbEntity
  8
P-SANR-FIXT
100
AcDbPolyline
 90
       78
 70
   128
 43
0.0
 10
1260.668050370225
 20
2000.48642401041
 10
1260.624610402958
 20
2000.481652445666
 10
1260.581395994728
 20
2000.475147562296
 10
1260.53847627937
 20
2000.466919766727
 10
1260.495919919274
 20
2000.456982221677
 10
1260.453794995536
 20
2000.445350825097
 10
1260.41216889905
 20
2000.43204418474
 10
1260.371108222688
 20
2000.417083588393
 10
1260.330678654775
 20
2000.400492969819
 10
1260.290944873995
 20
2000.382298870468
 10
1260.25197044592
 20
2000.362530397017
 10
1260.213817721323
 20
2000.341219174808
 10
1260.176547736422
 20
2000.318399297249
 10
1260.140220115243
 20
2000.294107271276
 10
1260.104892974232
 20
2000.268381958951
 10
1260.070622829277
 20
2000.241264515283
 10
1260.037464505299
 20
2000.212798322399
 10
1260.005471048545
 20
2000.183028920134
 10
1259.974693641719
 20
2000.152003933182
 10
1259.945181522107
 20
2000.119772994903
 10
1259.916981902805
 20
2000.086387667924
 10
1259.890139897189
 20
2000.051901361645
 10
1259.86469844674
 20
2000.0163692468
 10
1259.840698252353
 20
1999.979848167192
 10
1259.818177709219
 20
1999.942396548759
 10
1259.797172845403
 20
1999.904074306101
 10
1259.777717264206
 20
1999.86494274663
 10
1259.759842090407
 20
1999.825064472495
 10
1259.743575920473
 20
1999.784503280428
 10
1259.728944776804
 20
1999.743324059681
 10
1259.715972066108
 20
1999.701592688227
 10
1259.704678541958
 20
1999.659375927354
 10
1259.69508227158
 20
1999.616741314876
 10
1259.687198606962
 20
1999.573757057078
 10
1259.681040160285
 20
1999.530491919601
 10
1259.676616783749
 20
1999.487015117438
 10
1259.673935553813
 20
1999.443396204197
 10
1259.673000759875
 20
1999.399704960834
 10
1259.673813897403
 20
1999.356011284019
 10
1259.676373665552
 20
1999.312385074313
 10
1259.680675969239
 20
1999.268896124345
 10
1259.686713925695
 20
1999.225614007159
 10
1259.694477875479
 20
1999.182607964908
 10
1259.703955397926
 20
1999.139946798087
 10
1259.715131331023
 20
1999.097698755461
 10
1259.727987795662
 20
1999.055931424886
 10
1259.74250422424
 20
1999.014711625183
 10
1259.758657393569
 20
1998.974105299236
 10
1259.776421462024
 20
1998.934177408505
 10
1259.795768010885
 20
1998.894991829097
 10
1259.8166660898
 20
1998.856611249582
 10
1259.839082266302
 20
1998.819097070698
 10
1259.86298067929
 20
1998.782509307129
 10
1259.8883230964
 20
1998.746906491492
 10
1259.915068975173
 20
1998.712345580697
 10
1259.943175527907
 20
1998.678881864828
 10
1259.972597790113
 20
1998.646568878694
 10
1260.00328869245
 20
1998.615458316177
 10
1260.035199136019
 20
1998.585599947542
 10
1260.068278070918
 20
1998.557041539809
 10
1260.102472577909
 20
1998.529828780339
 10
1260.137727953073
 20
1998.504005203741
 10
1260.173987795333
 20
1998.47961212223
 10
1260.211194096674
 20
1998.456688559531
 10
1260.249287334953
 20
1998.435271188456
 10
1260.288206569113
 20
1998.415394272229
 10
1260.327889536682
 20
1998.397089609676
 10
1260.368272753378
 20
1998.380386484352
 10
1260.409291614668
 20
1998.365311617695
 10
1260.450880499126
 20
1998.351889126276
 10
1260.492972873406
 20
1998.340140483216
 10
1260.53550139869
 20
1998.33008448384
 10
1260.57839803841
 20
1998.321737215602
 10
1260.621594167093
 20
1998.315112032348
 10
1260.665020680147
 20
1998.31021953296
 10
1260.708608104416
 20
1998.307067544393
 10
1260.752286709318
 20
1998.305661109156
 10
1260.765603599554
 20
1998.305579951587
  0
LWPOLYLINE
  5
185
330
170
100
AcDbEntity
  8
P-SANR-FIXT
100
AcDbPolyline
 90
       41
 70
   128
 43
0.0
 10
1247.863156828898
 20
2058.248183850189
 10
1248.532978176525
 20
2058.23478563676
 10
1249.201727952882
 20
2058.194612430757
 10
1249.868336300988
 20
2058.127728500741
 10
1250.531736789687
 20
2058.034240846731
 10
1251.190868119716
 20
2057.91429902903
 10
1251.844675821553
 20
2057.76809492896
 10
1252.492113942347
 20
2057.595862441894
 10
1253.132146719219
 20
2057.39787710307
 10
1253.763750236256
 20
2057.174455646794
 10
1254.385914062569
 20
2056.925955499737
 10
1254.997642868754
 20
2056.652774209123
 10
1255.597958019218
 20
2056.355348806742
 10
1256.185899137781
 20
2056.03415510979
 10
1256.760525644073
 20
2055.689706959663
 10
1257.320918258265
 20
2055.322555399926
 10
1257.866180471719
 20
2054.93328779475
 10
1258.395439981208
 20
2054.522526889267
 10
1258.907850084421
 20
2054.090929813299
 10
1259.4025910345
 20
2053.639187030099
 10
1259.878871351466
 20
2053.168021231754
 10
1260.33592908841
 20
2052.67818618303
 10
1260.773033050456
 20
2052.170465515515
 10
1261.189483964507
 20
2051.645671473966
 10
1261.58461559794
 20
2051.104643616903
 10
1261.957795824431
 20
2050.54824747348
 10
1262.308427635224
 20
2049.977373158838
 10
1262.635950094221
 20
2049.392933950099
 10
1262.939839235355
 20
2048.795864825323
 10
1263.219608900826
 20
2048.187120967744
 10
1263.47481151885
 20
2047.567676237673
 10
1263.705038819678
 20
2046.938521614538
 10
1263.909922488743
 20
2046.300663611524
 10
1264.089134755879
 20
2045.655122665366
 10
1264.24238891969
 20
2045.00293150387
 10
1264.369439806205
 20
2044.345133493768
 10
1264.470084161109
 20
2043.682780971553
 10
1264.544160974904
 20
2043.016933559966
 10
1264.591551740489
 20
2042.348656472826
 10
1264.612180642751
 20
2041.679018810914
 10
1264.613156828898
 20
2041.498183850189
  0
LWPOLYLINE
  5
186
330
170
100
AcDbEntity
  8
P-SANR-FIXT
100
AcDbPolyline
 90
       41
 70
   128
 43
0.0
 10
1264.613156828898
 20
2041.498183850189
 10
1264.613156828898
 20
2041.476986676705
 10
1264.613156828899
 20
2041.413429067208
 10
1264.613156828898
 20
2041.307612700316
 10
1264.613156828898
 20
2041.159706859643
 10
1264.613156828898
 20
2040.969948162982
 10
1264.613156828898
 20
2040.738640183768
 10
1264.613156828898
 20
2040.466152965424
 10
1264.613156828898
 20
2040.152922429374
 10
1264.613156828898
 20
2039.799449677654
 10
1264.613156828898
 20
2039.406300191265
 10
1264.613156828898
 20
2038.974102925518
 10
1264.613156828898
 20
2038.50354930384
 10
1264.613156828898
 20
2037.995392111646
 10
1264.613156828899
 20
2037.450444292044
 10
1264.613156828899
 20
2036.869577645295
 10
1264.613156828899
 20
2036.253721434123
 10
1264.613156828899
 20
2035.603860897088
 10
1264.613156828899
 20
2034.921035672422
 10
1264.613156828899
 20
2034.206338134823
 10
1264.613156828898
 20
2033.460911647889
 10
1264.613156828898
 20
2032.685948734983
 10
1264.613156828899
 20
2031.882689171451
 10
1264.613156828899
 20
2031.052418001241
 10
1264.613156828899
 20
2030.196463481109
 10
1264.613156828899
 20
2029.316194955694
 10
1264.613156828899
 20
2028.413020666857
 10
1264.613156828899
 20
2027.488385500793
 10
1264.613156828899
 20
2026.543768676521
 10
1264.613156828899
 20
2025.580681379455
 10
1264.613156828899
 20
2024.60066434382
 10
1264.613156828899
 20
2023.605285387816
 10
1264.613156828899
 20
2022.596136905435
 10
1264.613156828899
 20
2021.574833318976
 10
1264.613156828899
 20
2020.543008496311
 10
1264.613156828899
 20
2019.502313137045
 10
1264.613156828899
 20
2018.454412131749
 10
1264.613156828899
 20
2017.400981898493
 10
1264.613156828899
 20
2016.343707700928
 10
1264.613156828899
 20
2015.284280952233
 10
1264.613156828899
 20
2014.998183850188
  0
LWPOLYLINE
  5
187
330
170
100
AcDbEntity
  8
P-SANR-FIXT
100
AcDbPolyline
 90
       41
 70
   128
 43
0.0
 10
1231.113156828898
 20
2041.498183850189
 10
1231.126555042327
 20
2042.168005197815
 10
1231.166728248329
 20
2042.836754974173
 10
1231.233612178346
 20
2043.503363322278
 10
1231.327099832357
 20
2044.166763810977
 10
1231.447041650058
 20
2044.825895141006
 10
1231.593245750127
 20
2045.479702842843
 10
1231.765478237193
 20
2046.127140963638
 10
1231.963463576017
 20
2046.767173740509
 10
1232.186885032293
 20
2047.398777257547
 10
1232.43538517935
 20
2048.020941083859
 10
1232.708566469964
 20
2048.632669890045
 10
1233.005991872345
 20
2049.232985040509
 10
1233.327185569298
 20
2049.820926159071
 10
1233.671633719424
 20
2050.395552665364
 10
1234.038785279161
 20
2050.955945279556
 10
1234.428052884336
 20
2051.501207493009
 10
1234.83881378982
 20
2052.030467002498
 10
1235.270410865788
 20
2052.542877105711
 10
1235.722153648988
 20
2053.037618055791
 10
1236.193319447333
 20
2053.513898372756
 10
1236.683154496057
 20
2053.970956109701
 10
1237.190875163572
 20
2054.408060071747
 10
1237.715669205121
 20
2054.824510985798
 10
1238.256697062185
 20
2055.21964261923
 10
1238.813093205607
 20
2055.592822845721
 10
1239.38396752025
 20
2055.943454656515
 10
1239.968406728988
 20
2056.270977115512
 10
1240.565475853763
 20
2056.574866256645
 10
1241.174219711343
 20
2056.854635922116
 10
1241.793664441414
 20
2057.10983854014
 10
1242.422819064549
 20
2057.340065840969
 10
1243.060677067563
 20
2057.544949510033
 10
1243.706218013721
 20
2057.72416177717
 10
1244.358409175217
 20
2057.87741594098
 10
1245.016207185319
 20
2058.004466827496
 10
1245.678559707534
 20
2058.1051111824
 10
1246.344407119121
 20
2058.179187996195
 10
1247.012684206261
 20
2058.22657876178
 10
1247.682321868173
 20
2058.247207664041
 10
1247.863156828898
 20
2058.248183850189
  0
LWPOLYLINE
  5
188
330
170
100
AcDbEntity
  8
P-SANR-FIXT
100
AcDbPolyline
 90
       41
 70
   128
 43
0.0
 10
1231.113156828898
 20
2014.998183850188
 10
1231.113156828898
 20
2016.057901206134
 10
1231.113156828898
 20
2017.115923240372
 10
1231.113156828898
 20
2018.170557343345
 10
1231.113156828898
 20
2019.220116325466
 10
1231.113156828898
 20
2020.262921116258
 10
1231.113156828898
 20
2021.297303450507
 10
1231.113156828898
 20
2022.321608537138
 10
1231.113156828898
 20
2023.334197706516
 10
1231.113156828898
 20
2024.333451031978
 10
1231.113156828898
 20
2025.317769921368
 10
1231.113156828898
 20
2026.285579674438
 10
1231.113156828898
 20
2027.235332002038
 10
1231.113156828898
 20
2028.165507503048
 10
1231.113156828898
 20
2029.074618095092
 10
1231.113156828898
 20
2029.961209395157
 10
1231.113156828898
 20
2030.823863046292
 10
1231.113156828898
 20
2031.661198986678
 10
1231.113156828898
 20
2032.471877657433
 10
1231.113156828898
 20
2033.254602145618
 10
1231.113156828899
 20
2034.008120259026
 10
1231.113156828899
 20
2034.731226529416
 10
1231.113156828899
 20
2035.422764141012
 10
1231.113156828899
 20
2036.081626781153
 10
1231.113156828899
 20
2036.706760410165
 10
1231.113156828899
 20
2037.297164947598
 10
1231.113156828899
 20
2037.851895872137
 10
1231.113156828898
 20
2038.37006573264
 10
1231.113156828898
 20
2038.850845567866
 10
1231.113156828898
 20
2039.293466232641
 10
1231.113156828898
 20
2039.697219628321
 10
1231.113156828898
 20
2040.061459835602
 10
1231.113156828898
 20
2040.385604147854
 10
1231.113156828898
 20
2040.669134003323
 10
1231.113156828898
 20
2040.911595814725
 10
1231.113156828898
 20
2041.112601694883
 10
1231.113156828898
 20
2041.271830077269
 10
1231.113156828899
 20
2041.389026230437
 10
1231.113156828898
 20
2041.464002665542
 10
1231.113156828898
 20
2041.496639436283
 10
1231.113156828898
 20
2041.498183850189
  0
LINE
  5
189
330
170
100
AcDbEntity
  8
P-SANR-FIXT
100
AcDbLine
 10
1252.863156828897
 20
2060.948183850127
 30
0.0
 11
1242.863156828898
 21
2060.948183850127
 31
0.0
  0
LINE
  5
18A
330
170
100
AcDbEntity
  8
P-SANR-FIXT
100
AcDbLine
 10
1264.013156828897
 20
2012.498183850012
 30
0.0
 11
1231.713156828897
 21
2012.498183850012
 31
0.0
  0
SPLINE
  5
18B
330
170
100
AcDbEntity
  8
P-SANR-FIXT
100
AcDbSpline
210
0.0
220
0.0
230
1.0
 70
    24
 71
     3
 72
     9
 73
     5
 74
     0
 42
0.000000001
 43
0.0000000001
 40
-1.0
 40
-1.0
 40
-1.0
 40
-1.0
 40
-0.5
 40
0.0
 40
0.0
 40
0.0
 40
0.0
 10
1231.363156828897
 20
2012.296111255795
 30
0.0
 10
1231.363156828897
 20
2012.289318662521
 30
0.0
 10
1231.363156828897
 20
2012.13818850195
 30
0.0
 10
1231.363156828897
 20
2011.711968393331
 30
0.0
 10
1231.363156828897
 20
2011.430085852011
 30
0.0
  0
SPLINE
  5
18C
330
170
100
AcDbEntity
  8
P-SANR-FIXT
100
AcDbSpline
210
0.0
220
0.0
230
1.0
 70
     8
 71
     3
 72
     9
 73
     5
 74
     0
 42
0.000000001
 43
0.0000000001
 40
-1.0
 40
-1.0
 40
-1.0
 40
-1.0
 40
-0.5
 40
0.0
 40
0.0
 40
0.0
 40
0.0
 10
1233.383188931708
 20
2011.430085852011
 30
0.0
 10
1235.494561171756
 20
2012.007393949588
 30
0.0
 10
1239.682589377533
 20
2012.584702047165
 30
0.0
 10
1243.801185034674
 20
2012.007393949588
 30
0.0
 10
1245.843124726085
 20
2011.430085852011
 30
0.0
  0
SPLINE
  5
18D
330
170
100
AcDbEntity
  8
P-SANR-FIXT
100
AcDbSpline
210
0.0
220
0.0
230
1.0
 70
     8
 71
     3
 72
     9
 73
     5
 74
     0
 42
0.000000001
 43
0.0000000001
 40
-1.0
 40
-1.0
 40
-1.0
 40
-1.0
 40
-0.5
 40
0.0
 40
0.0
 40
0.0
 40
0.0
 10
1249.883188931708
 20
2011.430085852011
 30
0.0
 10
1251.994561171756
 20
2012.007393949588
 30
0.0
 10
1256.182589377533
 20
2012.584702047165
 30
0.0
 10
1260.301185034674
 20
2012.007393949588
 30
0.0
 10
1262.343124726085
 20
2011.430085852011
 30
0.0
  0
SPLINE
  5
18E
330
170
100
AcDbEntity
  8
P-SANR-FIXT
100
AcDbSpline
210
0.0
220
0.0
230
1.0
 70
    24
 71
     3
 72
     9
 73
     5
 74
     0
 42
0.000000001
 43
0.0000000001
 40
-1.0
 40
-1.0
 40
-1.0
 40
-1.0
 40
-0.5
 40
0.0
 40
0.0
 40
0.0
 40
0.0
 10
1264.363156828897
 20
2011.430085852011
 30
0.0
 10
1264.363156828897
 20
2011.711968393331
 30
0.0
 10
1264.363156828897
 20
2012.13818850195
 30
0.0
 10
1264.363156828897
 20
2012.289318662521
 30
0.0
 10
1264.363156828897
 20
2012.296111255795
 30
0.0
  0
LINE
  5
18F
330
170
100
AcDbEntity
  8
P-SANR-FIXT
100
AcDbLine
 10
1233.383188931709
 20
1927.012936224088
 30
0.0
 11
1231.363156828897
 21
1927.012936224088
 31
0.0
  0
LINE
  5
190
330
170
100
AcDbEntity
  8
P-SANR-FIXT
100
AcDbLine
 10
1231.363156828897
 20
1927.012936224088
 30
0.0
 11
1231.363156828897
 21
1917.508546821093
 31
0.0
  0
LINE
  5
191
330
170
100
AcDbEntity
  8
P-SANR-FIXT
100
AcDbLine
 10
1233.383188931709
 20
1917.508546821093
 30
0.0
 11
1233.383188931709
 21
1927.012936224088
 31
0.0
  0
LINE
  5
192
330
170
100
AcDbEntity
  8
P-SANR-FIXT
100
AcDbLine
 10
1249.883188931708
 20
1927.012936224088
 30
0.0
 11
1245.843124726085
 21
1927.012936224088
 31
0.0
  0
LINE
  5
193
330
170
100
AcDbEntity
  8
P-SANR-FIXT
100
AcDbLine
 10
1245.843124726085
 20
1927.012936224088
 30
0.0
 11
1245.843124726085
 21
1917.508546821093
 31
0.0
  0
LINE
  5
194
330
170
100
AcDbEntity
  8
P-SANR-FIXT
100
AcDbLine
 10
1249.883188931708
 20
1917.508546821093
 30
0.0
 11
1249.883188931708
 21
1927.012936224088
 31
0.0
  0
LINE
  5
195
330
170
100
AcDbEntity
  8
P-SANR-FIXT
100
AcDbLine
 10
1264.363156828897
 20
1927.012936224088
 30
0.0
 11
1262.343124726085
 21
1927.012936224088
 31
0.0
  0
LINE
  5
196
330
170
100
AcDbEntity
  8
P-SANR-FIXT
100
AcDbLine
 10
1262.343124726085
 20
1927.012936224088
 30
0.0
 11
1262.343124726085
 21
1917.508546821093
 31
0.0
  0
LINE
  5
197
330
170
100
AcDbEntity
  8
P-SANR-FIXT
100
AcDbLine
 10
1264.363156828897
 20
1917.508546821093
 30
0.0
 11
1264.363156828897
 21
1927.012936224088
 31
0.0
  0
SPLINE
  5
198
330
170
100
AcDbEntity
  8
P-SANR-FIXT
100
AcDbSpline
210
0.0
220
0.0
230
1.0
 70
    24
 71
     3
 72
     9
 73
     5
 74
     0
 42
0.000000001
 43
0.0000000001
 40
-1.0
 40
-1.0
 40
-1.0
 40
-1.0
 40
-0.5
 40
0.0
 40
0.0
 40
0.0
 40
0.0
 10
1264.363156828897
 20
1916.642521417309
 30
0.0
 10
1264.363156828897
 20
1916.649314010583
 30
0.0
 10
1264.363156828897
 20
1916.800444171154
 30
0.0
 10
1264.363156828897
 20
1917.226664279772
 30
0.0
 10
1264.363156828897
 20
1917.508546821093
 30
0.0
  0
LINE
  5
199
330
170
100
AcDbEntity
  8
P-SANR-FIXT
100
AcDbLine
 10
1262.343124726085
 20
1917.508546821093
 30
0.0
 11
1264.363156828897
 21
1917.508546821093
 31
0.0
  0
SPLINE
  5
19A
330
170
100
AcDbEntity
  8
P-SANR-FIXT
100
AcDbSpline
210
0.0
220
0.0
230
1.0
 70
     8
 71
     3
 72
     9
 73
     5
 74
     0
 42
0.000000001
 43
0.0000000001
 40
-1.0
 40
-1.0
 40
-1.0
 40
-1.0
 40
-0.5
 40
0.0
 40
0.0
 40
0.0
 40
0.0
 10
1262.343124726085
 20
1917.508546821093
 30
0.0
 10
1260.301185034674
 20
1916.931238723516
 30
0.0
 10
1256.182589377533
 20
1916.353930625939
 30
0.0
 10
1251.994561171757
 20
1916.931238723516
 30
0.0
 10
1249.883188931708
 20
1917.508546821093
 30
0.0
  0
LINE
  5
19B
330
170
100
AcDbEntity
  8
P-SANR-FIXT
100
AcDbLine
 10
1245.843124726085
 20
1917.508546821093
 30
0.0
 11
1249.883188931708
 21
1917.508546821093
 31
0.0
  0
SPLINE
  5
19C
330
170
100
AcDbEntity
  8
P-SANR-FIXT
100
AcDbSpline
210
0.0
220
0.0
230
1.0
 70
     8
 71
     3
 72
     9
 73
     5
 74
     0
 42
0.000000001
 43
0.0000000001
 40
-1.0
 40
-1.0
 40
-1.0
 40
-1.0
 40
-0.5
 40
0.0
 40
0.0
 40
0.0
 40
0.0
 10
1245.843124726085
 20
1917.508546821093
 30
0.0
 10
1243.801185034674
 20
1916.931238723516
 30
0.0
 10
1239.682589377534
 20
1916.353930625939
 30
0.0
 10
1235.494561171756
 20
1916.931238723516
 30
0.0
 10
1233.383188931709
 20
1917.508546821093
 30
0.0
  0
LINE
  5
19D
330
170
100
AcDbEntity
  8
P-SANR-FIXT
100
AcDbLine
 10
1231.363156828897
 20
1917.508546821093
 30
0.0
 11
1233.383188931709
 21
1917.508546821093
 31
0.0
  0
SPLINE
  5
19E
330
170
100
AcDbEntity
  8
P-SANR-FIXT
100
AcDbSpline
210
0.0
220
0.0
230
1.0
 70
    24
 71
     3
 72
     9
 73
     5
 74
     0
 42
0.000000001
 43
0.0000000001
 40
-1.0
 40
-1.0
 40
-1.0
 40
-1.0
 40
-0.5
 40
0.0
 40
0.0
 40
0.0
 40
0.0
 10
1231.363156828897
 20
1917.508546821093
 30
0.0
 10
1231.363156828897
 20
1917.226664279772
 30
0.0
 10
1231.363156828897
 20
1916.800444171154
 30
0.0
 10
1231.363156828897
 20
1916.649314010583
 30
0.0
 10
1231.363156828897
 20
1916.642521417309
 30
0.0
  0
LINE
  5
19F
330
170
100
AcDbEntity
  8
P-SANR-FIXT
100
AcDbLine
 10
1231.613156828897
 20
1916.498183850011
 30
0.0
 11
1264.113156828897
 21
1916.498183850011
 31
0.0
  0
LINE
  5
1A0
330
170
100
AcDbEntity
  8
P-SANR-FIXT
100
AcDbLine
 10
1231.363156828897
 20
2011.430085852011
 30
0.0
 11
1233.383188931708
 21
2011.430085852011
 31
0.0
  0
LINE
  5
1A1
330
170
100
AcDbEntity
  8
P-SANR-FIXT
100
AcDbLine
 10
1231.363156828897
 20
2011.430085852011
 30
0.0
 11
1231.363156828897
 21
2003.798183850011
 31
0.0
  0
LINE
  5
1A2
330
170
100
AcDbEntity
  8
P-SANR-FIXT
100
AcDbLine
 10
1233.383188931708
 20
2011.430085852011
 30
0.0
 11
1233.383188931708
 21
2003.798183850011
 31
0.0
  0
LINE
  5
1A3
330
170
100
AcDbEntity
  8
P-SANR-FIXT
100
AcDbLine
 10
1245.843124726085
 20
2011.430085852011
 30
0.0
 11
1249.883188931708
 21
2011.430085852011
 31
0.0
  0
LINE
  5
1A4
330
170
100
AcDbEntity
  8
P-SANR-FIXT
100
AcDbLine
 10
1245.843124726085
 20
2003.798183850011
 30
0.0
 11
1245.843124726085
 21
2011.430085852011
 31
0.0
  0
LINE
  5
1A5
330
170
100
AcDbEntity
  8
P-SANR-FIXT
100
AcDbLine
 10
1249.883188931708
 20
2003.798183850011
 30
0.0
 11
1249.883188931708
 21
2011.430085852011
 31
0.0
  0
LINE
  5
1A6
330
170
100
AcDbEntity
  8
P-SANR-FIXT
100
AcDbLine
 10
1262.343124726085
 20
2011.430085852011
 30
0.0
 11
1264.363156828897
 21
2011.430085852011
 31
0.0
  0
LINE
  5
1A7
330
170
100
AcDbEntity
  8
P-SANR-FIXT
100
AcDbLine
 10
1262.343124726085
 20
2011.430085852011
 30
0.0
 11
1262.343124726085
 21
2003.798183850011
 31
0.0
  0
LINE
  5
1A8
330
170
100
AcDbEntity
  8
P-SANR-FIXT
100
AcDbLine
 10
1264.363156828897
 20
2003.798183850011
 30
0.0
 11
1264.363156828897
 21
2011.430085852011
 31
0.0
  0
LINE
  5
1A9
330
170
100
AcDbEntity
  8
P-SANR-FIXT
100
AcDbLine
 10
1262.343124726085
 20
2003.798183850011
 30
0.0
 11
1264.363156828897
 21
2003.798183850011
 31
0.0
  0
LINE
  5
1AA
330
170
100
AcDbEntity
  8
P-SANR-FIXT
100
AcDbLine
 10
1262.343124726085
 20
2003.798183850011
 30
0.0
 11
1249.883188931708
 21
2003.798183850011
 31
0.0
  0
LINE
  5
1AB
330
170
100
AcDbEntity
  8
P-SANR-FIXT
100
AcDbLine
 10
1245.843124726085
 20
2003.798183850011
 30
0.0
 11
1249.883188931708
 21
2003.798183850011
 31
0.0
  0
LINE
  5
1AC
330
170
100
AcDbEntity
  8
P-SANR-FIXT
100
AcDbLine
 10
1233.383188931708
 20
2003.798183850011
 30
0.0
 11
1245.843124726085
 21
2003.798183850011
 31
0.0
  0
LINE
  5
1AD
330
170
100
AcDbEntity
  8
P-SANR-FIXT
100
AcDbLine
 10
1231.363156828897
 20
2003.798183850011
 30
0.0
 11
1233.383188931708
 21
2003.798183850011
 31
0.0
  0
LINE
  5
1AE
330
170
100
AcDbEntity
  8
P-SANR-FIXT
100
AcDbLine
 10
1231.713156828897
 20
2000.756759788564
 30
0.0
 11
1237.875649555312
 21
2000.756759788564
 31
0.0
  0
LINE
  5
1AF
330
170
100
AcDbEntity
  8
P-SANR-FIXT
100
AcDbLine
 10
1257.850664102482
 20
2000.756759788564
 30
0.0
 11
1264.013156828897
 21
2000.756759788564
 31
0.0
  0
LINE
  5
1B0
330
170
100
AcDbEntity
  8
P-SANR-FIXT
100
AcDbLine
 10
1237.875649555312
 20
2000.798183850012
 30
0.0
 11
1257.850664102482
 21
2000.798183850012
 31
0.0
  0
LWPOLYLINE
  5
1B1
330
170
100
AcDbEntity
  8
P-SANR-FIXT
100
AcDbPolyline
 90
        3
 70
   128
 43
0.0
 10
1237.875649555312
 20
2000.798183850012
 10
1237.875649555311
 20
1986.000722718078
 10
1237.875649555311
 20
1970.998183850011
  0
LWPOLYLINE
  5
1B2
330
170
100
AcDbEntity
  8
P-SANR-FIXT
100
AcDbPolyline
 90
        3
 70
   128
 43
0.0
 10
1257.863156828897
 20
1970.998183850011
 10
1257.863156828897
 20
1986.001032867446
 10
1257.863156828897
 20
2000.798183850012
  0
LWPOLYLINE
  5
1B3
330
170
100
AcDbEntity
  8
P-SANR-FIXT
100
AcDbPolyline
 90
        7
 70
   128
 43
0.0
 10
1275.113156828897
 20
1970.956759788563
 10
1274.573317719897
 20
1970.956759788563
 10
1272.97793413557
 20
1970.956759788563
 10
1270.390484161942
 20
1970.956759788563
 10
1266.909081018626
 20
1970.956759788563
 10
1262.670259936788
 20
1970.956759788563
 10
1257.863156828897
 20
1970.998183850011
  0
LINE
  5
1B4
330
170
100
AcDbEntity
  8
P-SANR-FIXT
100
AcDbLine
 10
1237.875649555311
 20
1970.998183850011
 30
0.0
 11
1257.863156828896
 21
1970.998183850011
 31
0.0
  0
LINE
  5
1B5
330
170
100
AcDbEntity
  8
P-SANR-FIXT
100
AcDbLine
 10
1237.875649555311
 20
1970.956759788563
 30
0.0
 11
1220.613156828897
 21
1970.956759788563
 31
0.0
  0
LINE
  5
1B6
330
170
100
AcDbEntity
  8
P-SANR-FIXT
100
AcDbLine
 10
1252.863156828895
 20
2060.948183850126
 30
0.0
 11
1252.863156828895
 21
2059.948183850127
 31
0.0
  0
LINE
  5
1B7
330
170
100
AcDbEntity
  8
P-SANR-FIXT
100
AcDbLine
 10
1252.863156828895
 20
2059.948183850127
 30
0.0
 11
1252.863156828895
 21
2057.472736005257
 31
0.0
  0
LINE
  5
1B8
330
170
100
AcDbEntity
  8
P-SANR-FIXT
100
AcDbLine
 10
1242.863156828895
 20
2059.948183850127
 30
0.0
 11
1242.863156828895
 21
2060.948183850126
 31
0.0
  0
LINE
  5
1B9
330
170
100
AcDbEntity
  8
P-SANR-FIXT
100
AcDbLine
 10
1242.863156828895
 20
2057.472736005256
 30
0.0
 11
1242.863156828895
 21
2059.948183850127
 31
0.0
  0
LINE
  5
1BA
330
170
100
AcDbEntity
  8
P-SANR-FIXT
100
AcDbLine
 10
1220.613156828897
 20
1961.534406194101
 30
0.0
 11
1275.113156828897
 21
1961.534406194101
 31
0.0
  0
LINE
  5
1BB
330
170
100
AcDbEntity
  8
P-SANR-FIXT
100
AcDbLine
 10
1229.863156828897
 20
1927.012936224089
 30
0.0
 11
1231.363156828896
 21
1927.012936224089
 31
0.0
  0
LINE
  5
1BC
330
170
100
AcDbEntity
  8
P-SANR-FIXT
100
AcDbLine
 10
1233.383188931708
 20
1927.012936224089
 30
0.0
 11
1245.843124726085
 21
1927.012936224089
 31
0.0
  0
LINE
  5
1BD
330
170
100
AcDbEntity
  8
P-SANR-FIXT
100
AcDbLine
 10
1249.883188931708
 20
1927.012936224089
 30
0.0
 11
1262.343124726085
 21
1927.012936224089
 31
0.0
  0
LINE
  5
1BE
330
170
100
AcDbEntity
  8
P-SANR-FIXT
100
AcDbLine
 10
1264.363156828897
 20
1927.012936224089
 30
0.0
 11
1265.863156828897
 21
1927.012936224089
 31
0.0
  0
LINE
  5
1BF
330
170
100
AcDbEntity
  8
P-SANR-FIXT
100
AcDbLine
 10
1237.872512368677
 20
1998.309943689798
 30
0.0
 11
1234.863156828912
 21
1998.309943689798
 31
0.0
  0
LINE
  5
1C0
330
170
100
AcDbEntity
  8
P-SANR-FIXT
100
AcDbLine
 10
1260.863156828881
 20
1998.309943689798
 30
0.0
 11
1260.613365474124
 21
1998.309943689798
 31
0.0
  0
LINE
  5
1C1
330
170
100
AcDbEntity
  8
P-SANR-FIXT
100
AcDbLine
 10
1260.454463070754
 20
1998.309943689798
 30
0.0
 11
1257.85580330665
 21
1998.309943689798
 31
0.0
  0
LINE
  5
1C2
330
170
100
AcDbEntity
  8
P-SANR-FIXT
100
AcDbLine
 10
1234.863156828912
 20
1995.364209253893
 30
0.0
 11
1237.872512368677
 21
1995.364209253893
 31
0.0
  0
LINE
  5
1C3
330
170
100
AcDbEntity
  8
P-SANR-FIXT
100
AcDbLine
 10
1257.85817267176
 20
1995.364209253893
 30
0.0
 11
1260.863156828881
 21
1995.364209253893
 31
0.0
  0
LINE
  5
1C4
330
170
100
AcDbEntity
  8
P-SANR-FIXT
100
AcDbLine
 10
1236.363156828965
 20
1994.498183850079
 30
0.0
 11
1237.872098783229
 21
1994.498183850079
 31
0.0
  0
LINE
  5
1C5
330
170
100
AcDbEntity
  8
P-SANR-FIXT
100
AcDbLine
 10
1257.860168648322
 20
1994.498183850079
 30
0.0
 11
1259.363156828829
 21
1994.498183850079
 31
0.0
  0
LINE
  5
1C6
330
170
100
AcDbEntity
  8
P-SANR-FIXT
100
AcDbLine
 10
1235.05826328757
 20
2000.486424010409
 30
0.0
 11
1237.870497320697
 21
2000.486424010409
 31
0.0
  0
LINE
  5
1C7
330
170
100
AcDbEntity
  8
P-SANR-FIXT
100
AcDbLine
 10
1257.856092732709
 20
2000.486424010409
 30
0.0
 11
1260.668050370223
 21
2000.486424010409
 31
0.0
  0
ARC
  5
1C8
330
170
100
AcDbEntity
  8
P-SANR-FIXT
100
AcDbCircle
 10
1247.863156828897
 20
2041.498183850188
 30
0.0
 40
12.1500000000683
100
AcDbArc
 50
90.0
 51
269.9999999999997
  0
ARC
  5
1C9
330
170
100
AcDbEntity
  8
P-SANR-FIXT
100
AcDbCircle
 10
1247.863156828897
 20
2041.498183850188
 30
0.0
 40
12.15000000006807
100
AcDbArc
 50
269.9999999999997
 51
90.0
  0
ARC
  5
1CA
330
170
100
AcDbEntity
  8
P-SANR-FIXT
100
AcDbCircle
 10
1247.863156828897
 20
2041.498183850188
 30
0.0
 40
13.45000000006726
100
AcDbArc
 50
95.00000000000071
 51
95.62788136280678
  0
ARC
  5
1CB
330
170
100
AcDbEntity
  8
P-SANR-FIXT
100
AcDbCircle
 10
1247.863156828897
 20
2041.498183850188
 30
0.0
 40
13.45000000006715
100
AcDbArc
 50
100.0000000000003
 51
101.2587722184126
  0
ARC
  5
1CC
330
170
100
AcDbEntity
  8
P-SANR-FIXT
100
AcDbCircle
 10
1247.863156828897
 20
2041.498183850188
 30
0.0
 40
13.45000000006723
100
AcDbArc
 50
105.0000000000009
 51
106.8909385106651
  0
ARC
  5
1CD
330
170
100
AcDbEntity
  8
P-SANR-FIXT
100
AcDbCircle
 10
1247.863156828897
 20
2041.498183850188
 30
0.0
 40
13.45000000006741
100
AcDbArc
 50
109.9999999999996
 51
114.9999999999998
  0
ARC
  5
1CE
330
170
100
AcDbEntity
  8
P-SANR-FIXT
100
AcDbCircle
 10
1247.863156828897
 20
2041.498183850188
 30
0.0
 40
13.45000000006715
100
AcDbArc
 50
118.1518079189353
 51
120.0000000000013
  0
ARC
  5
1CF
330
170
100
AcDbEntity
  8
P-SANR-FIXT
100
AcDbCircle
 10
1247.863156828897
 20
2041.498183850188
 30
0.0
 40
13.45000000006735
100
AcDbArc
 50
123.7763607328362
 51
124.999999999999
  0
ARC
  5
1D0
330
170
100
AcDbEntity
  8
P-SANR-FIXT
100
AcDbCircle
 10
1247.863156828897
 20
2041.498183850188
 30
0.0
 40
13.45000000006742
100
AcDbArc
 50
129.3935715059917
 51
130.0000000000004
  0
ARC
  5
1D1
330
170
100
AcDbEntity
  8
P-SANR-FIXT
100
AcDbCircle
 10
1247.863156828897
 20
2041.498183850188
 30
0.0
 40
13.45000000006727
100
AcDbArc
 50
139.9999999999992
 51
140.60642849401
  0
ARC
  5
1D2
330
170
100
AcDbEntity
  8
P-SANR-FIXT
100
AcDbCircle
 10
1247.863156828897
 20
2041.498183850188
 30
0.0
 40
13.45000000006731
100
AcDbArc
 50
145.0
 51
146.2236392671646
  0
ARC
  5
1D3
330
170
100
AcDbEntity
  8
P-SANR-FIXT
100
AcDbCircle
 10
1247.863156828897
 20
2041.498183850188
 30
0.0
 40
13.45000000006724
100
AcDbArc
 50
149.9999999999998
 51
151.8481920810671
  0
ARC
  5
1D4
330
170
100
AcDbEntity
  8
P-SANR-FIXT
100
AcDbCircle
 10
1247.863156828897
 20
2041.498183850188
 30
0.0
 40
13.45000000006741
100
AcDbArc
 50
155.0000000000006
 51
160.0000000000009
  0
ARC
  5
1D5
330
170
100
AcDbEntity
  8
P-SANR-FIXT
100
AcDbCircle
 10
1247.863156828897
 20
2041.498183850188
 30
0.0
 40
13.45000000006745
100
AcDbArc
 50
163.1090614893355
 51
164.9999999999999
  0
ARC
  5
1D6
330
170
100
AcDbEntity
  8
P-SANR-FIXT
100
AcDbCircle
 10
1247.863156828897
 20
2041.498183850188
 30
0.0
 40
13.45000000006721
100
AcDbArc
 50
168.7412277815874
 51
170.0000000000006
  0
ARC
  5
1D7
330
170
100
AcDbEntity
  8
P-SANR-FIXT
100
AcDbCircle
 10
1247.863156828897
 20
2041.498183850188
 30
0.0
 40
13.45000000006734
100
AcDbArc
 50
174.3721186371941
 51
175.0000000000001
  0
ARC
  5
1D8
330
170
100
AcDbEntity
  8
P-SANR-FIXT
100
AcDbCircle
 10
1247.863156828897
 20
2041.498183850188
 30
0.0
 40
13.45000000006724
100
AcDbArc
 50
185.0000000000003
 51
185.6278813628053
  0
ARC
  5
1D9
330
170
100
AcDbEntity
  8
P-SANR-FIXT
100
AcDbCircle
 10
1247.863156828897
 20
2041.498183850188
 30
0.0
 40
13.45000000006711
100
AcDbArc
 50
189.999999999999
 51
191.2587722184121
  0
ARC
  5
1DA
330
170
100
AcDbEntity
  8
P-SANR-FIXT
100
AcDbCircle
 10
1247.863156828897
 20
2041.498183850188
 30
0.0
 40
13.45000000006717
100
AcDbArc
 50
195.0000000000005
 51
196.8909385106631
  0
ARC
  5
1DB
330
170
100
AcDbEntity
  8
P-SANR-FIXT
100
AcDbCircle
 10
1247.863156828897
 20
2041.498183850188
 30
0.0
 40
13.45000000006733
100
AcDbArc
 50
199.999999999999
 51
204.9999999999996
  0
ARC
  5
1DC
330
170
100
AcDbEntity
  8
P-SANR-FIXT
100
AcDbCircle
 10
1247.863156828897
 20
2041.498183850188
 30
0.0
 40
13.45000000006734
100
AcDbArc
 50
208.1518079189329
 51
210.0000000000003
  0
ARC
  5
1DD
330
170
100
AcDbEntity
  8
P-SANR-FIXT
100
AcDbCircle
 10
1247.863156828897
 20
2041.498183850188
 30
0.0
 40
13.45000000006729
100
AcDbArc
 50
213.776360732834
 51
215.0
  0
ARC
  5
1DE
330
170
100
AcDbEntity
  8
P-SANR-FIXT
100
AcDbCircle
 10
1247.863156828897
 20
2041.498183850188
 30
0.0
 40
13.45000000006731
100
AcDbArc
 50
219.393571505989
 51
220.0000000000005
  0
ARC
  5
1DF
330
170
100
AcDbEntity
  8
P-SANR-FIXT
100
AcDbCircle
 10
1247.863156828897
 20
2041.498183850188
 30
0.0
 40
13.45000000006727
100
AcDbArc
 50
229.9999999999988
 51
230.6064284940081
  0
ARC
  5
1E0
330
170
100
AcDbEntity
  8
P-SANR-FIXT
100
AcDbCircle
 10
1247.863156828897
 20
2041.498183850188
 30
0.0
 40
13.45000000006731
100
AcDbArc
 50
234.9999999999991
 51
236.2236392671638
  0
ARC
  5
1E1
330
170
100
AcDbEntity
  8
P-SANR-FIXT
100
AcDbCircle
 10
1247.863156828897
 20
2041.498183850188
 30
0.0
 40
13.45000000006705
100
AcDbArc
 50
239.9999999999985
 51
241.848192081064
  0
ARC
  5
1E2
330
170
100
AcDbEntity
  8
P-SANR-FIXT
100
AcDbCircle
 10
1247.863156828897
 20
2041.498183850188
 30
0.0
 40
13.45000000006699
100
AcDbArc
 50
244.9999999999989
 51
249.9999999999986
  0
ARC
  5
1E3
330
170
100
AcDbEntity
  8
P-SANR-FIXT
100
AcDbCircle
 10
1247.863156828897
 20
2041.498183850188
 30
0.0
 40
13.45000000006723
100
AcDbArc
 50
253.1090614893341
 51
254.9999999999985
  0
ARC
  5
1E4
330
170
100
AcDbEntity
  8
P-SANR-FIXT
100
AcDbCircle
 10
1247.863156828897
 20
2041.498183850188
 30
0.0
 40
13.45000000006699
100
AcDbArc
 50
258.7412277815869
 51
259.9999999999982
  0
ARC
  5
1E5
330
170
100
AcDbEntity
  8
P-SANR-FIXT
100
AcDbCircle
 10
1247.863156828897
 20
2041.498183850188
 30
0.0
 40
13.45000000006711
100
AcDbArc
 50
264.3721186371928
 51
264.9999999999989
  0
ARC
  5
1E6
330
170
100
AcDbEntity
  8
P-SANR-FIXT
100
AcDbCircle
 10
1247.863156828897
 20
2041.498183850188
 30
0.0
 40
13.45000000006724
100
AcDbArc
 50
274.9999999999994
 51
275.6278813628045
  0
ARC
  5
1E7
330
170
100
AcDbEntity
  8
P-SANR-FIXT
100
AcDbCircle
 10
1247.863156828897
 20
2041.498183850188
 30
0.0
 40
13.45000000006711
100
AcDbArc
 50
279.999999999999
 51
281.2587722184103
  0
ARC
  5
1E8
330
170
100
AcDbEntity
  8
P-SANR-FIXT
100
AcDbCircle
 10
1247.863156828897
 20
2041.498183850188
 30
0.0
 40
13.45000000006717
100
AcDbArc
 50
284.9999999999996
 51
286.8909385106631
  0
ARC
  5
1E9
330
170
100
AcDbEntity
  8
P-SANR-FIXT
100
AcDbCircle
 10
1247.863156828897
 20
2041.498183850188
 30
0.0
 40
13.45000000006712
100
AcDbArc
 50
289.9999999999986
 51
294.9999999999992
  0
ARC
  5
1EA
330
170
100
AcDbEntity
  8
P-SANR-FIXT
100
AcDbCircle
 10
1247.863156828897
 20
2041.498183850188
 30
0.0
 40
13.45000000006714
100
AcDbArc
 50
298.1518079189327
 51
300.0
  0
ARC
  5
1EB
330
170
100
AcDbEntity
  8
P-SANR-FIXT
100
AcDbCircle
 10
1247.863156828897
 20
2041.498183850188
 30
0.0
 40
13.4500000000671
100
AcDbArc
 50
303.7763607328336
 51
304.9999999999987
  0
ARC
  5
1EC
330
170
100
AcDbEntity
  8
P-SANR-FIXT
100
AcDbCircle
 10
1247.863156828897
 20
2041.498183850188
 30
0.0
 40
13.45000000006713
100
AcDbArc
 50
309.3935715059894
 51
309.9999999999993
  0
ARC
  5
1ED
330
170
100
AcDbEntity
  8
P-SANR-FIXT
100
AcDbCircle
 10
1247.863156828897
 20
2041.498183850188
 30
0.0
 40
13.45000000006713
100
AcDbArc
 50
319.9999999999988
 51
320.6064284940082
  0
ARC
  5
1EE
330
170
100
AcDbEntity
  8
P-SANR-FIXT
100
AcDbCircle
 10
1247.863156828897
 20
2041.498183850188
 30
0.0
 40
13.45000000006718
100
AcDbArc
 50
324.9999999999986
 51
326.2236392671628
  0
ARC
  5
1EF
330
170
100
AcDbEntity
  8
P-SANR-FIXT
100
AcDbCircle
 10
1247.863156828897
 20
2041.498183850188
 30
0.0
 40
13.45000000006693
100
AcDbArc
 50
329.9999999999986
 51
331.8481920810658
  0
ARC
  5
1F0
330
170
100
AcDbEntity
  8
P-SANR-FIXT
100
AcDbCircle
 10
1247.863156828897
 20
2041.498183850188
 30
0.0
 40
13.45000000006699
100
AcDbArc
 50
334.999999999998
 51
339.9999999999987
  0
ARC
  5
1F1
330
170
100
AcDbEntity
  8
P-SANR-FIXT
100
AcDbCircle
 10
1247.863156828897
 20
2041.498183850188
 30
0.0
 40
13.45000000006717
100
AcDbArc
 50
343.1090614893351
 51
344.9999999999989
  0
ARC
  5
1F2
330
170
100
AcDbEntity
  8
P-SANR-FIXT
100
AcDbCircle
 10
1247.863156828897
 20
2041.498183850188
 30
0.0
 40
13.45000000006695
100
AcDbArc
 50
348.741227781587
 51
349.9999999999984
  0
ARC
  5
1F3
330
170
100
AcDbEntity
  8
P-SANR-FIXT
100
AcDbCircle
 10
1247.863156828897
 20
2041.498183850188
 30
0.0
 40
13.45000000006709
100
AcDbArc
 50
354.3721186371927
 51
354.9999999999989
  0
ARC
  5
1F4
330
170
100
AcDbEntity
  8
P-SANR-FIXT
100
AcDbCircle
 10
1247.863156828897
 20
2041.498183850188
 30
0.0
 40
13.45000000006724
100
AcDbArc
 50
4.999999999998848
 51
5.627881362804969
  0
ARC
  5
1F5
330
170
100
AcDbEntity
  8
P-SANR-FIXT
100
AcDbCircle
 10
1247.863156828897
 20
2041.498183850188
 30
0.0
 40
13.45000000006715
100
AcDbArc
 50
9.999999999999424
 51
11.25877221841274
  0
ARC
  5
1F6
330
170
100
AcDbEntity
  8
P-SANR-FIXT
100
AcDbCircle
 10
1247.863156828897
 20
2041.498183850188
 30
0.0
 40
13.45000000006717
100
AcDbArc
 50
14.99999999999938
 51
16.89093851066411
  0
ARC
  5
1F7
330
170
100
AcDbEntity
  8
P-SANR-FIXT
100
AcDbCircle
 10
1247.863156828897
 20
2041.498183850188
 30
0.0
 40
13.45000000006719
100
AcDbArc
 50
19.99999999999906
 51
24.99999999999973
  0
ARC
  5
1F8
330
170
100
AcDbEntity
  8
P-SANR-FIXT
100
AcDbCircle
 10
1247.863156828897
 20
2041.498183850188
 30
0.0
 40
13.45000000006725
100
AcDbArc
 50
28.1518079189337
 51
29.99999999999934
  0
ARC
  5
1F9
330
170
100
AcDbEntity
  8
P-SANR-FIXT
100
AcDbCircle
 10
1247.863156828897
 20
2041.498183850188
 30
0.0
 40
13.45000000006704
100
AcDbArc
 50
33.7763607328349
 51
35.00000000000066
  0
ARC
  5
1FA
330
170
100
AcDbEntity
  8
P-SANR-FIXT
100
AcDbCircle
 10
1247.863156828897
 20
2041.498183850188
 30
0.0
 40
13.45000000006695
100
AcDbArc
 50
39.39357150599099
 51
39.99999999999968
  0
ARC
  5
1FB
330
170
100
AcDbEntity
  8
P-SANR-FIXT
100
AcDbCircle
 10
1247.863156828897
 20
2041.498183850188
 30
0.0
 40
13.45000000006713
100
AcDbArc
 50
49.99999999999936
 51
50.60642849400807
  0
ARC
  5
1FC
330
170
100
AcDbEntity
  8
P-SANR-FIXT
100
AcDbCircle
 10
1247.863156828897
 20
2041.498183850188
 30
0.0
 40
13.45000000006699
100
AcDbArc
 50
54.9999999999995
 51
56.22363926716499
  0
ARC
  5
1FD
330
170
100
AcDbEntity
  8
P-SANR-FIXT
100
AcDbCircle
 10
1247.863156828897
 20
2041.498183850188
 30
0.0
 40
13.45000000006713
100
AcDbArc
 50
59.99999999999991
 51
61.8481920810676
  0
ARC
  5
1FE
330
170
100
AcDbEntity
  8
P-SANR-FIXT
100
AcDbCircle
 10
1247.863156828897
 20
2041.498183850188
 30
0.0
 40
13.4500000000672
100
AcDbArc
 50
64.99999999999946
 51
69.99999999999976
  0
ARC
  5
1FF
330
170
100
AcDbEntity
  8
P-SANR-FIXT
100
AcDbCircle
 10
1247.863156828897
 20
2041.498183850188
 30
0.0
 40
13.45000000006738
100
AcDbArc
 50
73.10906148933558
 51
74.99999999999973
  0
ARC
  5
200
330
170
100
AcDbEntity
  8
P-SANR-FIXT
100
AcDbCircle
 10
1247.863156828897
 20
2041.498183850188
 30
0.0
 40
13.45000000006717
100
AcDbArc
 50
78.74122778158839
 51
79.99999999999978
  0
ARC
  5
201
330
170
100
AcDbEntity
  8
P-SANR-FIXT
100
AcDbCircle
 10
1247.863156828897
 20
2041.498183850188
 30
0.0
 40
13.45000000006732
100
AcDbArc
 50
84.37211863719426
 51
85.00000000000035
  0
ARC
  5
202
330
170
100
AcDbEntity
  8
P-SANR-FIXT
100
AcDbCircle
 10
1247.863156828897
 20
2041.498183850188
 30
0.0
 40
13.45000000006735
100
AcDbArc
 50
90.0
 51
269.9999999999997
  0
ARC
  5
203
330
170
100
AcDbEntity
  8
P-SANR-FIXT
100
AcDbCircle
 10
1247.863156828897
 20
2041.498183850188
 30
0.0
 40
13.45000000006735
100
AcDbArc
 50
269.9999999999997
 51
90.0
  0
ARC
  5
204
330
170
100
AcDbEntity
  8
P-SANR-FIXT
100
AcDbCircle
 10
1247.863156828897
 20
2041.498183850188
 30
0.0
 40
16.75
100
AcDbArc
 50
269.9999999999997
 51
334.9848771416055
  0
ARC
  5
205
330
170
100
AcDbEntity
  8
P-SANR-FIXT
100
AcDbCircle
 10
1247.863156828897
 20
2041.498183850188
 30
0.0
 40
16.74999999999994
100
AcDbArc
 50
339.9999999999985
 51
349.9999999999984
  0
ARC
  5
206
330
170
100
AcDbEntity
  8
P-SANR-FIXT
100
AcDbCircle
 10
1247.863156828897
 20
2041.498183850188
 30
0.0
 40
16.74999999999995
100
AcDbArc
 50
350.6270756993449
 51
90.0
  0
ARC
  5
207
330
170
100
AcDbEntity
  8
P-SANR-FIXT
100
AcDbCircle
 10
1247.863156828897
 20
2041.498183850188
 30
0.0
 40
16.75
100
AcDbArc
 50
90.0
 51
189.9999999999992
  0
ARC
  5
208
330
170
100
AcDbEntity
  8
P-SANR-FIXT
100
AcDbCircle
 10
1247.863156828897
 20
2041.498183850188
 30
0.0
 40
16.75000000000006
100
AcDbArc
 50
190.0966464625605
 51
269.9999999999997
  0
LINE
  5
209
330
170
100
AcDbEntity
  8
P-SANR-FIXT
100
AcDbLine
 10
1247.863156828897
 20
2014.998183850188
 30
0.0
 11
1231.113156828897
 21
2014.998183850188
 31
0.0
  0
LINE
  5
20A
330
170
100
AcDbEntity
  8
P-SANR-FIXT
100
AcDbLine
 10
1264.613156828897
 20
2014.998183850188
 30
0.0
 11
1247.863156828897
 21
2014.998183850188
 31
0.0
  0
ENDBLK
  5
20C
330
170
100
AcDbEntity
  8
0
100
AcDbBlockEnd
  0
ENDSEC
  0
SECTION
  2
ENTITIES
  0
INSERT
  5
101
330
71
100
AcDbEntity
  8
P-SANR-FIXT
100
AcDbBlockReference
  2
Automatic flow rate regulator valve_Caleffi_121 DN15 - 1_2__-859151-Est - Idraulica
 10
0.0
 20
0.0
 30
0.0
1001
REVIT
1002
{
1070
     1
1000
863131
1002
}
1002
{
1070
     5
1000
859151
1002
}
1002
{
1070
     2
1000
-2001160
1002
}
  0
INSERT
  5
16F
330
71
100
AcDbEntity
  8
P-SANR-FIXT
100
AcDbBlockReference
  2
Automatic flow rate regulator valve_Caleffi_121 DN15 - 1_2__-V1-Est - Idraulica
 10
0.0
 20
0.0
 30
0.0
1001
REVIT
1002
{
1070
     1
1000
863152
1002
}
1002
{
1070
     5
1000
859151
1002
}
1002
{
1070
     2
1000
-2001160
1002
}
  0
INSERT
  5
20D
330
71
100
AcDbEntity
  8
P-SANR-FIXT
100
AcDbBlockReference
  2
Automatic flow rate regulator valve_Caleffi_121 DN15 - 1_2__-V2-Est - Idraulica
 10
0.0
 20
0.0
 30
0.0
1001
REVIT
1002
{
1070
     1
1000
863172
1002
}
1002
{
1070
     5
1000
859151
1002
}
1002
{
1070
     2
1000
-2001160
1002
}
  0
ENDSEC
  0
SECTION
  2
OBJECTS
  0
DICTIONARY
  5
C
330
0
100
AcDbDictionary
281
     1
  3
ACAD_CIP_PREVIOUS_PRODUCT_INFO
350
7A
  3
ACAD_COLOR
350
63
  3
ACAD_DETAILVIEWSTYLE
350
6B
  3
ACAD_GROUP
350
D
  3
ACAD_IMAGE_VARS
350
7B
  3
ACAD_LAYOUT
350
62
  3
ACAD_MATERIAL
350
10
  3
ACAD_MLEADERSTYLE
350
66
  3
ACAD_MLINESTYLE
350
5F
  3
ACAD_PLOTSETTINGS
350
61
  3
ACAD_PLOTSTYLENAME
350
E
  3
ACAD_SCALELIST
350
42
  3
ACAD_SECTIONVIEWSTYLE
350
68
  3
ACAD_TABLESTYLE
350
64
  3
ACAD_VISUALSTYLE
350
29
  3
ACDB_RECOMPOSE_DATA
350
217
  3
AcDbVariableDictionary
350
7C
  3
REVIT_DICTIONARY
350
20F
  0
DICTIONARY
  5
213
330
71
100
AcDbDictionary
280
     1
281
     1
  3
ACAD_SORTENTS
360
214
  0
XRECORD
  5
7A
102
{ACAD_REACTORS
330
C
102
}
330
C
100
AcDbXrecord
280
     1
300
RVT
300
2013
300
RVT2013
  0
DICTIONARY
  5
63
102
{ACAD_REACTORS
330
C
102
}
330
C
100
AcDbDictionary
281
     1
  0
DICTIONARY
  5
6B
102
{ACAD_REACTORS
330
C
102
}
330
C
100
AcDbDictionary
281
     1
  3
Imperial24
350
6C
  0
DICTIONARY
  5
D
102
{ACAD_REACTORS
330
C
102
}
330
C
100
AcDbDictionary
281
     1
  0
RASTERVARIABLES
  5
7B
102
{ACAD_REACTORS
330
C
102
}
330
C
100
AcDbRasterVariables
 90
        0
 70
     0
 71
     1
 72
     1
  0
DICTIONARY
  5
62
102
{ACAD_REACTORS
330
C
102
}
330
C
100
AcDbDictionary
281
     1
  3
Layout1
350
70
  3
Layout2
350
78
  3
Model
350
74
  0
DICTIONARY
  5
10
102
{ACAD_REACTORS
330
C
102
}
330
C
100
AcDbDictionary
281
     1
  3
ByBlock
350
19
  3
ByLayer
350
11
  3
Global
350
21
  0
DICTIONARY
  5
66
102
{ACAD_REACTORS
330
C
102
}
330
C
100
AcDbDictionary
281
     1
  3
Standard
350
67
  0
DICTIONARY
  5
5F
102
{ACAD_REACTORS
330
C
102
}
330
C
100
AcDbDictionary
281
     1
  3
Standard
350
60
  0
DICTIONARY
  5
61
102
{ACAD_REACTORS
330
C
102
}
330
C
100
AcDbDictionary
281
     1
  0
ACDBDICTIONARYWDFLT
  5
E
102
{ACAD_REACTORS
330
C
102
}
330
C
100
AcDbDictionary
281
     1
  3
Normal
350
F
100
AcDbDictionaryWithDefault
340
F
  0
DICTIONARY
  5
42
102
{ACAD_REACTORS
330
C
102
}
330
C
100
AcDbDictionary
281
     1
  3
A0
350
43
  3
A1
350
44
  3
A2
350
45
  3
A3
350
46
  3
A4
350
47
  3
A5
350
48
  3
A6
350
49
  3
A7
350
4A
  3
A8
350
4B
  3
A9
350
4C
  3
B0
350
4D
  3
B1
350
4E
  3
B2
350
4F
  3
B3
350
50
  3
B4
350
51
  3
B5
350
52
  3
B6
350
53
  0
DICTIONARY
  5
68
102
{ACAD_REACTORS
330
C
102
}
330
C
100
AcDbDictionary
281
     1
  3
Imperial24
350
6A
  0
DICTIONARY
  5
64
102
{ACAD_REACTORS
330
C
102
}
330
C
100
AcDbDictionary
281
     1
  3
Standard
350
65
  0
DICTIONARY
  5
29
102
{ACAD_REACTORS
330
C
102
}
330
C
100
AcDbDictionary
281
     1
  3
2dWireframe
350
2F
  3
Basic
350
2E
  3
Brighten
350
35
  3
ColorChange
350
39
  3
Conceptual
350
32
  3
Dim
350
34
  3
EdgeColorOff
350
41
  3
Facepattern
350
38
  3
Flat
350
2A
  3
FlatWithEdges
350
2B
  3
Gouraud
350
2C
  3
GouraudWithEdges
350
2D
  3
Hidden
350
31
  3
JitterOff
350
3F
  3
Linepattern
350
37
  3
OverhangOff
350
40
  3
Realistic
350
33
  3
Shaded
350
3E
  3
Shaded with edges
350
3D
  3
Shades of Gray
350
3A
  3
Sketchy
350
3B
  3
Thicken
350
36
  3
Wireframe
350
30
  3
X-Ray
350
3C
  0
XRECORD
  5
217
102
{ACAD_REACTORS
330
C
102
}
330
C
100
AcDbXrecord
280
     1
 90
        1
330
65
  0
DICTIONARY
  5
7C
102
{ACAD_REACTORS
330
C
102
}
330
C
100
AcDbDictionary
281
     1
  3
CANNOSCALE
350
81
  3
CMLEADERSTYLE
350
7E
  3
CTABLESTYLE
350
7D
  3
CVIEWDETAILSTYLE
350
7F
  3
CVIEWSECTIONSTYLE
350
80
  0
DICTIONARY
  5
20F
102
{ACAD_REACTORS
330
C
102
}
330
C
100
AcDbDictionary
281
     1
  3
DRAWING_TOOL
350
212
  3
REVIT_CATEGORY_MAPPING
350
211
  3
REVIT_TYPE_MAPPING
350
210
  0
SORTENTSTABLE
  5
214
102
{ACAD_REACTORS
330
213
102
}
330
213
100
AcDbSortentsTable
330
71
  0
ACDBDETAILVIEWSTYLE
  5
6C
102
{ACAD_REACTORS
330
6B
102
}
330
6B
100
AcDbModelDocViewStyle
 70
     0
  3
Imperial24
290
     1
100
AcDbDetailViewStyle
 70
     0
 71
     0
 90
        3
 71
     1
340
55
 62
   256
 40
0.24
340
0
 62
   256
 40
0.24
300

 40
0.36
280
     3
 71
     2
340
5D
 90
       25
 62
   256
 71
     3
340
55
 62
   256
 40
0.24
 90
        1
 40
0.75
 90
        1
300
%<\AcVar ViewType \f "%tc1">% %<\AcVar ViewDetailId>%\PSCALA %<\AcVar ViewScale \f "%sn">%
 71
     4
340
5D
 90
       25
 62
   256
340
5D
 90
       25
 62
   256
280
     0
  0
LAYOUT
  5
70
102
{ACAD_REACTORS
330
62
102
}
330
62
100
AcDbPlotSettings
  1

  2

  4

  6

 40
0.0
 41
0.0
 42
0.0
 43
0.0
 44
0.0
 45
0.0
 46
0.0
 47
0.0
 48
0.0
 49
0.0
140
0.0
141
0.0
142
1.0
143
1.0
 70
   688
 72
     0
 73
     0
 74
     5
  7

 75
    16
147
1.0
 76
     0
 77
     2
 78
   300
148
0.0
149
0.0
100
AcDbLayout
  1
Layout1
 70
     1
 71
     1
 10
0.0
 20
0.0
 11
12.0
 21
9.0
 12
0.0
 22
0.0
 32
0.0
 14
0.0
 24
0.0
 34
0.0
 15
0.0
 25
0.0
 35
0.0
146
0.0
 13
0.0
 23
0.0
 33
0.0
 16
1.0
 26
0.0
 36
0.0
 17
0.0
 27
1.0
 37
0.0
 76
     0
330
6D
  0
LAYOUT
  5
78
102
{ACAD_REACTORS
330
62
102
}
330
62
100
AcDbPlotSettings
  1

  2

  4

  6

 40
0.0
 41
0.0
 42
0.0
 43
0.0
 44
0.0
 45
0.0
 46
0.0
 47
0.0
 48
0.0
 49
0.0
140
0.0
141
0.0
142
1.0
143
1.0
 70
   688
 72
     0
 73
     0
 74
     5
  7

 75
    16
147
1.0
 76
     0
 77
     2
 78
   300
148
0.0
149
0.0
100
AcDbLayout
  1
Layout2
 70
     1
 71
     2
 10
0.0
 20
0.0
 11
12.0
 21
9.0
 12
0.0
 22
0.0
 32
0.0
 14
0.0
 24
0.0
 34
0.0
 15
0.0
 25
0.0
 35
0.0
146
0.0
 13
0.0
 23
0.0
 33
0.0
 16
1.0
 26
0.0
 36
0.0
 17
0.0
 27
1.0
 37
0.0
 76
     0
330
75
  0
LAYOUT
  5
74
102
{ACAD_REACTORS
330
62
102
}
330
62
100
AcDbPlotSettings
  1

  2

  4

  6

 40
0.0
 41
0.0
 42
0.0
 43
0.0
 44
0.0
 45
0.0
 46
0.0
 47
0.0
 48
0.0
 49
0.0
140
0.0
141
0.0
142
1.0
143
1.0
 70
  1712
 72
     0
 73
     0
 74
     0
  7

 75
     0
147
1.0
 76
     0
 77
     2
 78
   300
148
0.0
149
0.0
100
AcDbLayout
  1
Model
 70
     1
 71
     0
 10
0.0
 20
0.0
 11
12.0
 21
9.0
 12
0.0
 22
0.0
 32
0.0
 14
0.0
 24
0.0
 34
0.0
 15
0.0
 25
0.0
 35
0.0
146
0.0
 13
0.0
 23
0.0
 33
0.0
 16
1.0
 26
0.0
 36
0.0
 17
0.0
 27
1.0
 37
0.0
 76
     0
330
71
  0
MATERIAL
  5
19
102
{ACAD_XDICTIONARY
360
1A
102
}
102
{ACAD_REACTORS
330
10
102
}
330
10
100
AcDbMaterial
  1
ByBlock
 72
     0
 43
0.0208333333333333
 43
0.0
 43
0.0
 43
0.0
 43
0.0
 43
0.0208333333333333
 43
0.0
 43
0.0
 43
0.0
 43
0.0
 43
1.0
 43
0.0
 43
0.0
 43
0.0
 43
0.0
 43
1.0
 77
     0
 47
0.0208333333333333
 47
0.0
 47
0.0
 47
0.0
 47
0.0
 47
0.0208333333333333
 47
0.0
 47
0.0
 47
0.0
 47
0.0
 47
1.0
 47
0.0
 47
0.0
 47
0.0
 47
0.0
 47
1.0
171
     0
 49
0.0208333333333333
 49
0.0
 49
0.0
 49
0.0
 49
0.0
 49
0.0208333333333333
 49
0.0
 49
0.0
 49
0.0
 49
0.0
 49
1.0
 49
0.0
 49
0.0
 49
0.0
 49
0.0
 49
1.0
175
     0
142
0.0208333333333333
142
0.0
142
0.0
142
0.0
142
0.0
142
0.0208333333333333
142
0.0
142
0.0
142
0.0
142
0.0
142
1.0
142
0.0
142
0.0
142
0.0
142
0.0
142
1.0
179
     0
144
0.0208333333333333
144
0.0
144
0.0
144
0.0
144
0.0
144
0.0208333333333333
144
0.0
144
0.0
144
0.0
144
0.0
144
1.0
144
0.0
144
0.0
144
0.0
144
0.0
144
1.0
147
0.0208333333333333
147
0.0
147
0.0
147
0.0
147
0.0
147
0.0208333333333333
147
0.0
147
0.0
147
0.0
147
0.0
147
1.0
147
0.0
147
0.0
147
0.0
147
0.0
147
1.0
  0
MATERIAL
  5
11
102
{ACAD_XDICTIONARY
360
12
102
}
102
{ACAD_REACTORS
330
10
102
}
330
10
100
AcDbMaterial
  1
ByLayer
 72
     0
 43
0.0208333333333333
 43
0.0
 43
0.0
 43
0.0
 43
0.0
 43
0.0208333333333333
 43
0.0
 43
0.0
 43
0.0
 43
0.0
 43
1.0
 43
0.0
 43
0.0
 43
0.0
 43
0.0
 43
1.0
 77
     0
 47
0.0208333333333333
 47
0.0
 47
0.0
 47
0.0
 47
0.0
 47
0.0208333333333333
 47
0.0
 47
0.0
 47
0.0
 47
0.0
 47
1.0
 47
0.0
 47
0.0
 47
0.0
 47
0.0
 47
1.0
171
     0
 49
0.0208333333333333
 49
0.0
 49
0.0
 49
0.0
 49
0.0
 49
0.0208333333333333
 49
0.0
 49
0.0
 49
0.0
 49
0.0
 49
1.0
 49
0.0
 49
0.0
 49
0.0
 49
0.0
 49
1.0
175
     0
142
0.0208333333333333
142
0.0
142
0.0
142
0.0
142
0.0
142
0.0208333333333333
142
0.0
142
0.0
142
0.0
142
0.0
142
1.0
142
0.0
142
0.0
142
0.0
142
0.0
142
1.0
179
     0
144
0.0208333333333333
144
0.0
144
0.0
144
0.0
144
0.0
144
0.0208333333333333
144
0.0
144
0.0
144
0.0
144
0.0
144
1.0
144
0.0
144
0.0
144
0.0
144
0.0
144
1.0
147
0.0208333333333333
147
0.0
147
0.0
147
0.0
147
0.0
147
0.0208333333333333
147
0.0
147
0.0
147
0.0
147
0.0
147
1.0
147
0.0
147
0.0
147
0.0
147
0.0
147
1.0
  0
MATERIAL
  5
21
102
{ACAD_XDICTIONARY
360
22
102
}
102
{ACAD_REACTORS
330
10
102
}
330
10
100
AcDbMaterial
  1
Global
 72
     0
 43
0.0208333333333333
 43
0.0
 43
0.0
 43
0.0
 43
0.0
 43
0.0208333333333333
 43
0.0
 43
0.0
 43
0.0
 43
0.0
 43
1.0
 43
0.0
 43
0.0
 43
0.0
 43
0.0
 43
1.0
 77
     0
 47
0.0208333333333333
 47
0.0
 47
0.0
 47
0.0
 47
0.0
 47
0.0208333333333333
 47
0.0
 47
0.0
 47
0.0
 47
0.0
 47
1.0
 47
0.0
 47
0.0
 47
0.0
 47
0.0
 47
1.0
171
     0
 49
0.0208333333333333
 49
0.0
 49
0.0
 49
0.0
 49
0.0
 49
0.0208333333333333
 49
0.0
 49
0.0
 49
0.0
 49
0.0
 49
1.0
 49
0.0
 49
0.0
 49
0.0
 49
0.0
 49
1.0
175
     0
142
0.0208333333333333
142
0.0
142
0.0
142
0.0
142
0.0
142
0.0208333333333333
142
0.0
142
0.0
142
0.0
142
0.0
142
1.0
142
0.0
142
0.0
142
0.0
142
0.0
142
1.0
179
     0
144
0.0208333333333333
144
0.0
144
0.0
144
0.0
144
0.0
144
0.0208333333333333
144
0.0
144
0.0
144
0.0
144
0.0
144
1.0
144
0.0
144
0.0
144
0.0
144
0.0
144
1.0
147
0.0208333333333333
147
0.0
147
0.0
147
0.0
147
0.0
147
0.0208333333333333
147
0.0
147
0.0
147
0.0
147
0.0
147
1.0
147
0.0
147
0.0
147
0.0
147
0.0
147
1.0
  0
MLEADERSTYLE
  5
67
102
{ACAD_REACTORS
330
66
102
}
330
66
100
AcDbMLeaderStyle
179
     2
170
     2
171
     1
172
     0
 90
        2
 40
0.0
 41
0.0
173
     1
 91
-1056964608
340
5B
 92
       -2
290
     1
 42
0.09
291
     1
 43
0.36
  3
Standard
 44
0.18
300

342
55
174
     1
178
     6
175
     1
176
     0
 93
-1056964608
 45
0.18
292
     0
297
     0
 46
0.18
 94
-1056964608
 47
1.0
 49
1.0
140
1.0
293
     1
141
0.0
294
     1
177
     0
142
1.0
295
     1
296
     0
143
0.125
271
     0
272
     9
273
     9
298
     1
  0
MLINESTYLE
  5
60
102
{ACAD_REACTORS
330
5F
102
}
330
5F
100
AcDbMlineStyle
  2
STANDARD
 70
     0
  3

 62
   256
 51
90.0
 52
90.0
 71
     2
 49
0.5
 62
   256
  6
BYLAYER
 49
-0.5
 62
   256
  6
BYLAYER
  0
ACDBPLACEHOLDER
  5
F
102
{ACAD_REACTORS
330
E
102
}
330
E
  0
SCALE
  5
43
102
{ACAD_REACTORS
330
42
102
}
330
42
100
AcDbScale
 70
     0
300
1:1
140
1.0
141
1.0
290
     1
  0
SCALE
  5
44
102
{ACAD_REACTORS
330
42
102
}
330
42
100
AcDbScale
 70
     0
300
1/128" = 1'-0"
140
0.0078125
141
12.0
290
     0
  0
SCALE
  5
45
102
{ACAD_REACTORS
330
42
102
}
330
42
100
AcDbScale
 70
     0
300
1/64" = 1'-0"
140
0.015625
141
12.0
290
     0
  0
SCALE
  5
46
102
{ACAD_REACTORS
330
42
102
}
330
42
100
AcDbScale
 70
     0
300
1/32" = 1'-0"
140
0.03125
141
12.0
290
     0
  0
SCALE
  5
47
102
{ACAD_REACTORS
330
42
102
}
330
42
100
AcDbScale
 70
     0
300
1/16" = 1'-0"
140
0.0625
141
12.0
290
     0
  0
SCALE
  5
48
102
{ACAD_REACTORS
330
42
102
}
330
42
100
AcDbScale
 70
     0
300
3/32" = 1'-0"
140
0.09375
141
12.0
290
     0
  0
SCALE
  5
49
102
{ACAD_REACTORS
330
42
102
}
330
42
100
AcDbScale
 70
     0
300
1/8" = 1'-0"
140
0.125
141
12.0
290
     0
  0
SCALE
  5
4A
102
{ACAD_REACTORS
330
42
102
}
330
42
100
AcDbScale
 70
     0
300
3/16" = 1'-0"
140
0.1875
141
12.0
290
     0
  0
SCALE
  5
4B
102
{ACAD_REACTORS
330
42
102
}
330
42
100
AcDbScale
 70
     0
300
1/4" = 1'-0"
140
0.25
141
12.0
290
     0
  0
SCALE
  5
4C
102
{ACAD_REACTORS
330
42
102
}
330
42
100
AcDbScale
 70
     0
300
3/8" = 1'-0"
140
0.375
141
12.0
290
     0
  0
SCALE
  5
4D
102
{ACAD_REACTORS
330
42
102
}
330
42
100
AcDbScale
 70
     0
300
1/2" = 1'-0"
140
0.5
141
12.0
290
     0
  0
SCALE
  5
4E
102
{ACAD_REACTORS
330
42
102
}
330
42
100
AcDbScale
 70
     0
300
3/4" = 1'-0"
140
0.75
141
12.0
290
     0
  0
SCALE
  5
4F
102
{ACAD_REACTORS
330
42
102
}
330
42
100
AcDbScale
 70
     0
300
1" = 1'-0"
140
1.0
141
12.0
290
     0
  0
SCALE
  5
50
102
{ACAD_REACTORS
330
42
102
}
330
42
100
AcDbScale
 70
     0
300
1-1/2" = 1'-0"
140
1.5
141
12.0
290
     0
  0
SCALE
  5
51
102
{ACAD_REACTORS
330
42
102
}
330
42
100
AcDbScale
 70
     0
300
3" = 1'-0"
140
3.0
141
12.0
290
     0
  0
SCALE
  5
52
102
{ACAD_REACTORS
330
42
102
}
330
42
100
AcDbScale
 70
     0
300
6" = 1'-0"
140
6.0
141
12.0
290
     0
  0
SCALE
  5
53
102
{ACAD_REACTORS
330
42
102
}
330
42
100
AcDbScale
 70
     0
300
1'-0" = 1'-0"
140
12.0
141
12.0
290
     0
  0
ACDBSECTIONVIEWSTYLE
  5
6A
102
{ACAD_REACTORS
330
68
102
}
330
68
100
AcDbModelDocViewStyle
 70
     0
  3
Imperial24
290
     1
100
AcDbSectionViewStyle
 70
     0
 71
     0
 90
       78
 71
     1
340
55
 62
   256
 40
0.24
340
0
340
0
 62
   256
 40
0.24
300
I, O, Q, S, X, Z
 40
0.48
 90
        3
 40
0.18
 90
        1
 71
     2
340
69
 90
       25
 62
   256
340
5D
 90
       50
 62
   256
 40
0.24
 40
0.0
 40
0.24
 71
     3
340
55
 62
   256
 40
0.24
 90
        1
 40
0.75
 90
        1
300
%<\AcVar ViewType \f "%tc1">% %<\AcVar ViewSectionStartId>%-%<\AcVar ViewSectionEndId>%\PSCALA %<\AcVar ViewScale \f "%sn">%
 71
     4
 62
   256
 62
   257
300
ANSI31
 40
1.0
 90
        0
290
     0
290
     0
 90
        6
 40
0.0
 40
1.570796326794896
 40
0.2617993877991494
 40
1.308996938995747
 40
-0.2617993877991494
 40
1.832595714594046
  0
TABLESTYLE
  5
65
102
{ACAD_XDICTIONARY
360
215
102
}
102
{ACAD_REACTORS
330
64
102
}
330
64
100
AcDbTableStyle
280
     0
  3
Standard
 70
     0
 71
     0
 40
0.06
 41
0.06
280
     0
281
     0
  7
Standard
140
0.18
170
     2
 62
     0
 63
     7
283
     0
 90
      512
 91
        0
  1

274
    -2
284
     1
 64
     0
275
    -2
285
     1
 65
     0
276
    -2
286
     1
 66
     0
277
    -2
287
     1
 67
     0
278
    -2
288
     1
 68
     0
279
    -2
289
     1
 69
     0
  7
Standard
140
0.25
170
     5
 62
     0
 63
     7
283
     0
 90
      512
 91
        0
  1

274
    -2
284
     1
 64
     0
275
    -2
285
     1
 65
     0
276
    -2
286
     1
 66
     0
277
    -2
287
     1
 67
     0
278
    -2
288
     1
 68
     0
279
    -2
289
     1
 69
     0
  7
Standard
140
0.18
170
     5
 62
     0
 63
     7
283
     0
 90
      512
 91
        0
  1

274
    -2
284
     1
 64
     0
275
    -2
285
     1
 65
     0
276
    -2
286
     1
 66
     0
277
    -2
287
     1
 67
     0
278
    -2
288
     1
 68
     0
279
    -2
289
     1
 69
     0
  0
VISUALSTYLE
  5
2F
102
{ACAD_REACTORS
330
29
102
}
330
29
100
AcDbVisualStyle
  2
2dWireframe
 70
     4
177
     3
291
     0
 70
    58
 90
        0
176
     1
 90
        2
176
     1
 90
        0
176
     1
 90
        0
176
     1
 40
0.6
176
     1
 40
30.0
176
     1
 62
     7
420
 16777215
176
     1
 90
        1
176
     1
 90
        4
176
     1
 62
     7
176
     1
 62
   257
176
     1
 90
        1
176
     1
 90
        1
176
     1
 40
1.0
176
     1
 90
        0
176
     1
 62
   257
176
     1
 40
1.0
176
     1
 90
        1
176
     1
 90
        6
176
     1
 90
        2
176
     1
 62
     7
176
     1
 90
        5
176
     1
 90
        0
176
     1
 90
        0
176
     1
290
     0
176
     1
 90
        1
176
     1
 40
0.0
176
     1
 90
        0
176
     1
290
     1
176
     1
290
     1
176
     1
290
     0
176
     1
290
     0
176
     1
290
     0
176
     1
290
     0
176
     1
290
     0
176
     1
290
     0
176
     1
290
     0
176
     1
 90
       50
176
     1
 40
0.0
176
     1
 40
1.0
176
     1
 90
        0
176
     1
 62
    18
420
        0
176
     1
 90
       50
176
     1
 90
        3
176
     1
 62
     5
420
      255
176
     1
290
     0
176
     1
 90
       50
176
     1
 90
       50
176
     1
 90
       50
176
     1
290
     0
176
     1
 90
       50
176
     1
 62
   256
176
     0
 40
1.0
176
     0
 90
        2
176
     1
  1
strokes_ogs.tif
176
     1
290
     0
176
     1
 40
1.0
176
     1
 40
1.0
176
     1
  0
VISUALSTYLE
  5
2E
102
{ACAD_REACTORS
330
29
102
}
330
29
100
AcDbVisualStyle
  2
Basic
 70
     7
177
     3
291
     1
 70
    58
 90
        1
176
     1
 90
        0
176
     1
 90
        1
176
     1
 90
        0
176
     1
 40
0.6
176
     1
 40
30.0
176
     1
 62
     7
420
 16777215
176
     1
 90
        0
176
     1
 90
        4
176
     1
 62
     7
176
     1
 62
   257
176
     1
 90
        1
176
     1
 90
        1
176
     1
 40
1.0
176
     1
 90
        8
176
     1
 62
     7
176
     1
 40
1.0
176
     1
 90
        1
176
     1
 90
        6
176
     1
 90
        2
176
     1
 62
     7
176
     1
 90
        5
176
     1
 90
        0
176
     1
 90
        0
176
     1
290
     0
176
     1
 90
        1
176
     1
 40
0.0
176
     1
 90
        0
176
     1
290
     0
176
     1
290
     1
176
     1
290
     1
176
     1
290
     0
176
     1
290
     0
176
     1
290
     0
176
     1
290
     0
176
     1
290
     0
176
     1
290
     0
176
     1
 90
       50
176
     1
 40
0.0
176
     1
 40
1.0
176
     1
 90
        0
176
     1
 62
    18
420
        0
176
     1
 90
       50
176
     1
 90
        3
176
     1
 62
     5
420
      255
176
     1
290
     0
176
     1
 90
       50
176
     1
 90
       50
176
     1
 90
       50
176
     1
290
     0
176
     1
 90
       50
176
     1
 62
   256
176
     0
 40
1.0
176
     0
 90
        2
176
     1
  1
strokes_ogs.tif
176
     1
290
     0
176
     1
 40
1.0
176
     1
 40
1.0
176
     1
  0
VISUALSTYLE
  5
35
102
{ACAD_REACTORS
330
29
102
}
330
29
100
AcDbVisualStyle
  2
Brighten
 70
    12
177
     3
291
     1
 70
    58
 90
        2
176
     1
 90
        2
176
     1
 90
        0
176
     1
 90
        0
176
     1
 40
0.6
176
     1
 40
30.0
176
     1
 62
     7
420
 16777215
176
     1
 90
        1
176
     1
 90
        4
176
     1
 62
     7
176
     1
 62
   257
176
     1
 90
        1
176
     1
 90
        1
176
     1
 40
1.0
176
     1
 90
        8
176
     1
 62
     7
176
     1
 40
1.0
176
     1
 90
        1
176
     1
 90
        6
176
     1
 90
        2
176
     1
 62
     7
176
     1
 90
        5
176
     1
 90
        0
176
     1
 90
        0
176
     1
290
     0
176
     1
 90
        1
176
     1
 40
50.0
176
     1
 90
        0
176
     1
290
     0
176
     1
290
     1
176
     1
290
     1
176
     1
290
     0
176
     1
290
     0
176
     1
290
     0
176
     1
290
     0
176
     1
290
     0
176
     1
290
     0
176
     1
 90
       50
176
     1
 40
0.0
176
     1
 40
1.0
176
     1
 90
        0
176
     1
 62
    18
420
        0
176
     1
 90
       50
176
     1
 90
        3
176
     1
 62
     5
420
      255
176
     1
290
     0
176
     1
 90
       50
176
     1
 90
       50
176
     1
 90
       50
176
     1
290
     0
176
     1
 90
       50
176
     1
 62
   256
176
     0
 40
1.0
176
     0
 90
        2
176
     1
  1
strokes_ogs.tif
176
     1
290
     0
176
     1
 40
1.0
176
     1
 40
1.0
176
     1
  0
VISUALSTYLE
  5
39
102
{ACAD_REACTORS
330
29
102
}
330
29
100
AcDbVisualStyle
  2
ColorChange
 70
    16
177
     3
291
     1
 70
    58
 90
        2
176
     1
 90
        2
176
     1
 90
        3
176
     1
 90
        0
176
     1
 40
0.6
176
     1
 40
30.0
176
     1
 62
     8
420
  8421504
176
     1
 90
        1
176
     1
 90
        4
176
     1
 62
     7
176
     1
 62
   257
176
     1
 90
        1
176
     1
 90
        1
176
     1
 40
1.0
176
     1
 90
        8
176
     1
 62
     8
420
  8421504
176
     1
 40
1.0
176
     1
 90
        1
176
     1
 90
        6
176
     1
 90
        2
176
     1
 62
     7
176
     1
 90
        5
176
     1
 90
        0
176
     1
 90
        0
176
     1
290
     0
176
     1
 90
        1
176
     1
 40
0.0
176
     1
 90
        0
176
     1
290
     0
176
     1
290
     1
176
     1
290
     1
176
     1
290
     0
176
     1
290
     0
176
     1
290
     0
176
     1
290
     0
176
     1
290
     0
176
     1
290
     0
176
     1
 90
       50
176
     1
 40
0.0
176
     1
 40
1.0
176
     1
 90
        0
176
     1
 62
    18
420
        0
176
     1
 90
       50
176
     1
 90
        3
176
     1
 62
     5
420
      255
176
     1
290
     0
176
     1
 90
       50
176
     1
 90
       50
176
     1
 90
       50
176
     1
290
     0
176
     1
 90
       50
176
     1
 62
   256
176
     0
 40
1.0
176
     0
 90
        2
176
     1
  1
strokes_ogs.tif
176
     1
290
     0
176
     1
 40
1.0
176
     1
 40
1.0
176
     1
  0
VISUALSTYLE
  5
32
102
{ACAD_REACTORS
330
29
102
}
330
29
100
AcDbVisualStyle
  2
Conceptual
 70
     9
177
     3
291
     0
 70
    58
 90
        3
176
     1
 90
        2
176
     1
 90
        0
176
     1
 90
        0
176
     1
 40
0.6
176
     1
 40
30.0
176
     1
 62
     7
420
 16777215
176
     1
 90
        2
176
     1
 90
        2
176
     1
 62
     7
176
     1
 62
   257
176
     1
 90
        1
176
     1
 90
        1
176
     1
 40
179.0
176
     1
 90
        8
176
     1
 62
     7
176
     1
 40
1.0
176
     1
 90
        1
176
     1
 90
        6
176
     1
 90
        2
176
     1
 62
     7
176
     1
 90
        3
176
     1
 90
        0
176
     1
 90
        0
176
     1
290
     0
176
     1
 90
        1
176
     1
 40
0.0
176
     1
 90
        0
176
     1
290
     0
176
     1
290
     1
176
     1
290
     1
176
     1
290
     0
176
     1
290
     0
176
     1
290
     0
176
     1
290
     0
176
     1
290
     0
176
     1
290
     0
176
     1
 90
       50
176
     1
 40
0.0
176
     1
 40
1.0
176
     1
 90
        0
176
     1
 62
    18
420
        0
176
     1
 90
       50
176
     1
 90
        3
176
     1
 62
     5
420
      255
176
     1
290
     0
176
     1
 90
       50
176
     1
 90
       50
176
     1
 90
       50
176
     1
290
     0
176
     1
 90
       50
176
     1
 62
   256
176
     0
 40
1.0
176
     0
 90
        2
176
     1
  1
strokes_ogs.tif
176
     1
290
     0
176
     1
 40
1.0
176
     1
 40
1.0
176
     1
  0
VISUALSTYLE
  5
34
102
{ACAD_REACTORS
330
29
102
}
330
29
100
AcDbVisualStyle
  2
Dim
 70
    11
177
     3
291
     1
 70
    58
 90
        2
176
     1
 90
        2
176
     1
 90
        0
176
     1
 90
        0
176
     1
 40
0.6
176
     1
 40
30.0
176
     1
 62
     7
420
 16777215
176
     1
 90
        1
176
     1
 90
        4
176
     1
 62
     7
176
     1
 62
   257
176
     1
 90
        1
176
     1
 90
        1
176
     1
 40
1.0
176
     1
 90
        8
176
     1
 62
     7
176
     1
 40
1.0
176
     1
 90
        1
176
     1
 90
        6
176
     1
 90
        2
176
     1
 62
     7
176
     1
 90
        5
176
     1
 90
        0
176
     1
 90
        0
176
     1
290
     0
176
     1
 90
        1
176
     1
 40
-50.0
176
     1
 90
        0
176
     1
290
     0
176
     1
290
     1
176
     1
290
     1
176
     1
290
     0
176
     1
290
     0
176
     1
290
     0
176
     1
290
     0
176
     1
290
     0
176
     1
290
     0
176
     1
 90
       50
176
     1
 40
0.0
176
     1
 40
1.0
176
     1
 90
        0
176
     1
 62
    18
420
        0
176
     1
 90
       50
176
     1
 90
        3
176
     1
 62
     5
420
      255
176
     1
290
     0
176
     1
 90
       50
176
     1
 90
       50
176
     1
 90
       50
176
     1
290
     0
176
     1
 90
       50
176
     1
 62
   256
176
     0
 40
1.0
176
     0
 90
        2
176
     1
  1
strokes_ogs.tif
176
     1
290
     0
176
     1
 40
1.0
176
     1
 40
1.0
176
     1
  0
VISUALSTYLE
  5
41
102
{ACAD_REACTORS
330
29
102
}
330
29
100
AcDbVisualStyle
  2
EdgeColorOff
 70
    22
177
     3
291
     1
 70
    58
 90
        2
176
     0
 90
        2
176
     0
 90
        0
176
     0
 90
        0
176
     0
 40
0.6
176
     0
 40
30.0
176
     0
 62
     7
420
 16777215
176
     0
 90
        1
176
     0
 90
        4
176
     0
 62
     7
176
     0
 62
   257
176
     0
 90
        1
176
     0
 90
        1
176
     0
 40
1.0
176
     0
 90
        8
176
     2
 62
     7
176
     0
 40
1.0
176
     0
 90
        1
176
     0
 90
        6
176
     0
 90
        2
176
     0
 62
     7
176
     0
 90
        5
176
     0
 90
        0
176
     0
 90
        0
176
     0
290
     0
176
     0
 90
        1
176
     0
 40
0.0
176
     0
 90
        0
176
     0
290
     0
176
     0
290
     1
176
     0
290
     1
176
     0
290
     0
176
     0
290
     0
176
     0
290
     0
176
     0
290
     0
176
     0
290
     0
176
     0
290
     0
176
     0
 90
       50
176
     0
 40
0.0
176
     0
 40
1.0
176
     0
 90
        0
176
     0
 62
    18
420
        0
176
     0
 90
       50
176
     0
 90
        3
176
     0
 62
     5
420
      255
176
     0
290
     0
176
     0
 90
       50
176
     0
 90
       50
176
     0
 90
       50
176
     0
290
     0
176
     0
 90
       50
176
     0
 62
   256
176
     0
 40
1.0
176
     0
 90
        2
176
     0
  1
strokes_ogs.tif
176
     0
290
     0
176
     0
 40
1.0
176
     0
 40
1.0
176
     0
  0
VISUALSTYLE
  5
38
102
{ACAD_REACTORS
330
29
102
}
330
29
100
AcDbVisualStyle
  2
Facepattern
 70
    15
177
     3
291
     1
 70
    58
 90
        2
176
     1
 90
        2
176
     1
 90
        0
176
     1
 90
        0
176
     1
 40
0.6
176
     1
 40
30.0
176
     1
 62
     7
420
 16777215
176
     1
 90
        1
176
     1
 90
        4
176
     1
 62
     7
176
     1
 62
   257
176
     1
 90
        1
176
     1
 90
        1
176
     1
 40
1.0
176
     1
 90
        8
176
     1
 62
     7
176
     1
 40
1.0
176
     1
 90
        1
176
     1
 90
        6
176
     1
 90
        2
176
     1
 62
     7
176
     1
 90
        5
176
     1
 90
        0
176
     1
 90
        0
176
     1
290
     0
176
     1
 90
        1
176
     1
 40
0.0
176
     1
 90
        0
176
     1
290
     0
176
     1
290
     1
176
     1
290
     1
176
     1
290
     0
176
     1
290
     0
176
     1
290
     0
176
     1
290
     0
176
     1
290
     0
176
     1
290
     0
176
     1
 90
       50
176
     1
 40
0.0
176
     1
 40
1.0
176
     1
 90
        0
176
     1
 62
    18
420
        0
176
     1
 90
       50
176
     1
 90
        3
176
     1
 62
     5
420
      255
176
     1
290
     0
176
     1
 90
       50
176
     1
 90
       50
176
     1
 90
       50
176
     1
290
     0
176
     1
 90
       50
176
     1
 62
   256
176
     0
 40
1.0
176
     0
 90
        2
176
     1
  1
strokes_ogs.tif
176
     1
290
     0
176
     1
 40
1.0
176
     1
 40
1.0
176
     1
  0
VISUALSTYLE
  5
2A
102
{ACAD_REACTORS
330
29
102
}
330
29
100
AcDbVisualStyle
  2
Flat
 70
     0
177
     3
291
     1
 70
    58
 90
        2
176
     1
 90
        1
176
     1
 90
        1
176
     1
 90
        2
176
     1
 40
0.6
176
     1
 40
30.0
176
     1
 62
     7
420
 16777215
176
     1
 90
        0
176
     1
 90
        0
176
     1
 62
     7
176
     1
 62
   257
176
     1
 90
        1
176
     1
 90
        1
176
     1
 40
1.0
176
     1
 90
        8
176
     1
 62
     7
176
     1
 40
1.0
176
     1
 90
        1
176
     1
 90
        6
176
     1
 90
        2
176
     1
 62
     7
176
     1
 90
        5
176
     1
 90
        0
176
     1
 90
        0
176
     1
290
     0
176
     1
 90
       13
176
     1
 40
0.0
176
     1
 90
        0
176
     1
290
     0
176
     1
290
     1
176
     1
290
     1
176
     1
290
     0
176
     1
290
     0
176
     1
290
     0
176
     1
290
     0
176
     1
290
     0
176
     1
290
     0
176
     1
 90
       50
176
     1
 40
0.0
176
     1
 40
1.0
176
     1
 90
        0
176
     1
 62
    18
420
        0
176
     1
 90
       50
176
     1
 90
        3
176
     1
 62
     5
420
      255
176
     1
290
     0
176
     1
 90
       50
176
     1
 90
       50
176
     1
 90
       50
176
     1
290
     0
176
     1
 90
       50
176
     1
 62
   256
176
     0
 40
1.0
176
     0
 90
        2
176
     1
  1
strokes_ogs.tif
176
     1
290
     0
176
     1
 40
1.0
176
     1
 40
1.0
176
     1
  0
VISUALSTYLE
  5
2B
102
{ACAD_REACTORS
330
29
102
}
330
29
100
AcDbVisualStyle
  2
FlatWithEdges
 70
     1
177
     3
291
     1
 70
    58
 90
        2
176
     1
 90
        1
176
     1
 90
        1
176
     1
 90
        2
176
     1
 40
0.6
176
     1
 40
30.0
176
     1
 62
     7
420
 16777215
176
     1
 90
        1
176
     1
 90
        0
176
     1
 62
     7
176
     1
 62
   257
176
     1
 90
        1
176
     1
 90
        1
176
     1
 40
1.0
176
     1
 90
        0
176
     1
 62
   257
176
     1
 40
1.0
176
     1
 90
        1
176
     1
 90
        6
176
     1
 90
        2
176
     1
 62
     7
176
     1
 90
        5
176
     1
 90
        0
176
     1
 90
        0
176
     1
290
     0
176
     1
 90
       13
176
     1
 40
0.0
176
     1
 90
        0
176
     1
290
     0
176
     1
290
     1
176
     1
290
     1
176
     1
290
     0
176
     1
290
     0
176
     1
290
     0
176
     1
290
     0
176
     1
290
     0
176
     1
290
     0
176
     1
 90
       50
176
     1
 40
0.0
176
     1
 40
1.0
176
     1
 90
        0
176
     1
 62
    18
420
        0
176
     1
 90
       50
176
     1
 90
        3
176
     1
 62
     5
420
      255
176
     1
290
     0
176
     1
 90
       50
176
     1
 90
       50
176
     1
 90
       50
176
     1
290
     0
176
     1
 90
       50
176
     1
 62
   256
176
     0
 40
1.0
176
     0
 90
        2
176
     1
  1
strokes_ogs.tif
176
     1
290
     0
176
     1
 40
1.0
176
     1
 40
1.0
176
     1
  0
VISUALSTYLE
  5
2C
102
{ACAD_REACTORS
330
29
102
}
330
29
100
AcDbVisualStyle
  2
Gouraud
 70
     2
177
     3
291
     1
 70
    58
 90
        2
176
     1
 90
        2
176
     1
 90
        1
176
     1
 90
        2
176
     1
 40
0.6
176
     1
 40
30.0
176
     1
 62
     7
420
 16777215
176
     1
 90
        0
176
     1
 90
        0
176
     1
 62
     7
176
     1
 62
   257
176
     1
 90
        1
176
     1
 90
        1
176
     1
 40
1.0
176
     1
 90
        0
176
     1
 62
     7
176
     1
 40
1.0
176
     1
 90
        1
176
     1
 90
        6
176
     1
 90
        2
176
     1
 62
     7
176
     1
 90
        5
176
     1
 90
        0
176
     1
 90
        0
176
     1
290
     0
176
     1
 90
       13
176
     1
 40
0.0
176
     1
 90
        0
176
     1
290
     0
176
     1
290
     1
176
     1
290
     1
176
     1
290
     0
176
     1
290
     0
176
     1
290
     0
176
     1
290
     0
176
     1
290
     0
176
     1
290
     0
176
     1
 90
       50
176
     1
 40
0.0
176
     1
 40
1.0
176
     1
 90
        0
176
     1
 62
    18
420
        0
176
     1
 90
       50
176
     1
 90
        3
176
     1
 62
     5
420
      255
176
     1
290
     0
176
     1
 90
       50
176
     1
 90
       50
176
     1
 90
       50
176
     1
290
     0
176
     1
 90
       50
176
     1
 62
   256
176
     0
 40
1.0
176
     0
 90
        2
176
     1
  1
strokes_ogs.tif
176
     1
290
     0
176
     1
 40
1.0
176
     1
 40
1.0
176
     1
  0
VISUALSTYLE
  5
2D
102
{ACAD_REACTORS
330
29
102
}
330
29
100
AcDbVisualStyle
  2
GouraudWithEdges
 70
     3
177
     3
291
     1
 70
    58
 90
        2
176
     1
 90
        2
176
     1
 90
        1
176
     1
 90
        2
176
     1
 40
0.6
176
     1
 40
30.0
176
     1
 62
     7
420
 16777215
176
     1
 90
        1
176
     1
 90
        0
176
     1
 62
     7
176
     1
 62
   257
176
     1
 90
        1
176
     1
 90
        1
176
     1
 40
1.0
176
     1
 90
        0
176
     1
 62
   257
176
     1
 40
1.0
176
     1
 90
        1
176
     1
 90
        6
176
     1
 90
        2
176
     1
 62
     7
176
     1
 90
        5
176
     1
 90
        0
176
     1
 90
        0
176
     1
290
     0
176
     1
 90
       13
176
     1
 40
0.0
176
     1
 90
        0
176
     1
290
     0
176
     1
290
     1
176
     1
290
     1
176
     1
290
     0
176
     1
290
     0
176
     1
290
     0
176
     1
290
     0
176
     1
290
     0
176
     1
290
     0
176
     1
 90
       50
176
     1
 40
0.0
176
     1
 40
1.0
176
     1
 90
        0
176
     1
 62
    18
420
        0
176
     1
 90
       50
176
     1
 90
        3
176
     1
 62
     5
420
      255
176
     1
290
     0
176
     1
 90
       50
176
     1
 90
       50
176
     1
 90
       50
176
     1
290
     0
176
     1
 90
       50
176
     1
 62
   256
176
     0
 40
1.0
176
     0
 90
        2
176
     1
  1
strokes_ogs.tif
176
     1
290
     0
176
     1
 40
1.0
176
     1
 40
1.0
176
     1
  0
VISUALSTYLE
  5
31
102
{ACAD_REACTORS
330
29
102
}
330
29
100
AcDbVisualStyle
  2
Hidden
 70
     6
177
     3
291
     0
 70
    58
 90
        1
176
     1
 90
        2
176
     1
 90
        2
176
     1
 90
        0
176
     1
 40
0.6
176
     1
 40
30.0
176
     1
 62
     7
420
 16777215
176
     1
 90
        2
176
     1
 90
        2
176
     1
 62
     7
176
     1
 62
   257
176
     1
 90
        2
176
     1
 90
        1
176
     1
 40
40.0
176
     1
 90
        0
176
     1
 62
   257
176
     1
 40
1.0
176
     1
 90
        1
176
     1
 90
        6
176
     1
 90
        2
176
     1
 62
     7
176
     1
 90
        3
176
     1
 90
        0
176
     1
 90
        0
176
     1
290
     0
176
     1
 90
        1
176
     1
 40
0.0
176
     1
 90
        0
176
     1
290
     0
176
     1
290
     1
176
     1
290
     1
176
     1
290
     0
176
     1
290
     0
176
     1
290
     0
176
     1
290
     0
176
     1
290
     0
176
     1
290
     0
176
     1
 90
       50
176
     1
 40
0.0
176
     1
 40
1.0
176
     1
 90
        0
176
     1
 62
    18
420
        0
176
     1
 90
       50
176
     1
 90
        3
176
     1
 62
     5
420
      255
176
     1
290
     0
176
     1
 90
       50
176
     1
 90
       50
176
     1
 90
       50
176
     1
290
     0
176
     1
 90
       50
176
     1
 62
   256
176
     0
 40
1.0
176
     0
 90
        2
176
     1
  1
strokes_ogs.tif
176
     1
290
     0
176
     1
 40
1.0
176
     1
 40
1.0
176
     1
  0
VISUALSTYLE
  5
3F
102
{ACAD_REACTORS
330
29
102
}
330
29
100
AcDbVisualStyle
  2
JitterOff
 70
    20
177
     3
291
     1
 70
    58
 90
        2
176
     0
 90
        2
176
     0
 90
        0
176
     0
 90
        0
176
     0
 40
0.6
176
     0
 40
30.0
176
     0
 62
     7
420
 16777215
176
     0
 90
        1
176
     0
 90
        4
176
     0
 62
     7
176
     0
 62
   257
176
     0
 90
        1
176
     0
 90
        1
176
     0
 40
1.0
176
     0
 90
       10
176
     2
 62
     7
176
     0
 40
1.0
176
     0
 90
        1
176
     0
 90
        6
176
     0
 90
        2
176
     0
 62
     7
176
     0
 90
        5
176
     0
 90
        0
176
     0
 90
        0
176
     0
290
     0
176
     0
 90
        1
176
     0
 40
0.0
176
     0
 90
        0
176
     0
290
     0
176
     0
290
     1
176
     0
290
     1
176
     0
290
     0
176
     0
290
     0
176
     0
290
     0
176
     0
290
     0
176
     0
290
     0
176
     0
290
     0
176
     0
 90
       50
176
     0
 40
0.0
176
     0
 40
1.0
176
     0
 90
        0
176
     0
 62
    18
420
        0
176
     0
 90
       50
176
     0
 90
        3
176
     0
 62
     5
420
      255
176
     0
290
     0
176
     0
 90
       50
176
     0
 90
       50
176
     0
 90
       50
176
     0
290
     0
176
     0
 90
       50
176
     0
 62
   256
176
     0
 40
1.0
176
     0
 90
        2
176
     0
  1
strokes_ogs.tif
176
     0
290
     0
176
     0
 40
1.0
176
     0
 40
1.0
176
     0
  0
VISUALSTYLE
  5
37
102
{ACAD_REACTORS
330
29
102
}
330
29
100
AcDbVisualStyle
  2
Linepattern
 70
    14
177
     3
291
     1
 70
    58
 90
        2
176
     1
 90
        2
176
     1
 90
        0
176
     1
 90
        0
176
     1
 40
0.6
176
     1
 40
30.0
176
     1
 62
     7
420
 16777215
176
     1
 90
        1
176
     1
 90
        4
176
     1
 62
     7
176
     1
 62
   257
176
     1
 90
        7
176
     1
 90
        7
176
     1
 40
1.0
176
     1
 90
        8
176
     1
 62
     7
176
     1
 40
1.0
176
     1
 90
        1
176
     1
 90
        6
176
     1
 90
        2
176
     1
 62
     7
176
     1
 90
        5
176
     1
 90
        0
176
     1
 90
        0
176
     1
290
     0
176
     1
 90
        1
176
     1
 40
0.0
176
     1
 90
        0
176
     1
290
     0
176
     1
290
     1
176
     1
290
     1
176
     1
290
     0
176
     1
290
     0
176
     1
290
     0
176
     1
290
     0
176
     1
290
     0
176
     1
290
     0
176
     1
 90
       50
176
     1
 40
0.0
176
     1
 40
1.0
176
     1
 90
        0
176
     1
 62
    18
420
        0
176
     1
 90
       50
176
     1
 90
        3
176
     1
 62
     5
420
      255
176
     1
290
     0
176
     1
 90
       50
176
     1
 90
       50
176
     1
 90
       50
176
     1
290
     0
176
     1
 90
       50
176
     1
 62
   256
176
     0
 40
1.0
176
     0
 90
        2
176
     1
  1
strokes_ogs.tif
176
     1
290
     0
176
     1
 40
1.0
176
     1
 40
1.0
176
     1
  0
VISUALSTYLE
  5
40
102
{ACAD_REACTORS
330
29
102
}
330
29
100
AcDbVisualStyle
  2
OverhangOff
 70
    21
177
     3
291
     1
 70
    58
 90
        2
176
     0
 90
        2
176
     0
 90
        0
176
     0
 90
        0
176
     0
 40
0.6
176
     0
 40
30.0
176
     0
 62
     7
420
 16777215
176
     0
 90
        1
176
     0
 90
        4
176
     0
 62
     7
176
     0
 62
   257
176
     0
 90
        1
176
     0
 90
        1
176
     0
 40
1.0
176
     0
 90
        9
176
     2
 62
     7
176
     0
 40
1.0
176
     0
 90
        1
176
     0
 90
        6
176
     0
 90
        2
176
     0
 62
     7
176
     0
 90
        5
176
     0
 90
        0
176
     0
 90
        0
176
     0
290
     0
176
     0
 90
        1
176
     0
 40
0.0
176
     0
 90
        0
176
     0
290
     0
176
     0
290
     1
176
     0
290
     1
176
     0
290
     0
176
     0
290
     0
176
     0
290
     0
176
     0
290
     0
176
     0
290
     0
176
     0
290
     0
176
     0
 90
       50
176
     0
 40
0.0
176
     0
 40
1.0
176
     0
 90
        0
176
     0
 62
    18
420
        0
176
     0
 90
       50
176
     0
 90
        3
176
     0
 62
     5
420
      255
176
     0
290
     0
176
     0
 90
       50
176
     0
 90
       50
176
     0
 90
       50
176
     0
290
     0
176
     0
 90
       50
176
     0
 62
   256
176
     0
 40
1.0
176
     0
 90
        2
176
     0
  1
strokes_ogs.tif
176
     0
290
     0
176
     0
 40
1.0
176
     0
 40
1.0
176
     0
  0
VISUALSTYLE
  5
33
102
{ACAD_REACTORS
330
29
102
}
330
29
100
AcDbVisualStyle
  2
Realistic
 70
     8
177
     3
291
     0
 70
    58
 90
        2
176
     1
 90
        3
176
     1
 90
        0
176
     1
 90
        2
176
     1
 40
0.6
176
     1
 40
30.0
176
     1
 62
     7
420
 16777215
176
     1
 90
        0
176
     1
 90
        0
176
     1
 62
     7
176
     1
 62
   257
176
     1
 90
        1
176
     1
 90
        1
176
     1
 40
1.0
176
     1
 90
        8
176
     1
 62
   257
176
     1
 40
1.0
176
     1
 90
        1
176
     1
 90
        6
176
     1
 90
        2
176
     1
 62
     7
176
     1
 90
        3
176
     1
 90
        0
176
     1
 90
        0
176
     1
290
     0
176
     1
 90
       13
176
     1
 40
0.0
176
     1
 90
        0
176
     1
290
     0
176
     1
290
     1
176
     1
290
     1
176
     1
290
     0
176
     1
290
     0
176
     1
290
     0
176
     1
290
     0
176
     1
290
     0
176
     1
290
     0
176
     1
 90
       50
176
     1
 40
0.0
176
     1
 40
1.0
176
     1
 90
        0
176
     1
 62
    18
420
        0
176
     1
 90
       50
176
     1
 90
        3
176
     1
 62
     5
420
      255
176
     1
290
     0
176
     1
 90
       50
176
     1
 90
       50
176
     1
 90
       50
176
     1
290
     0
176
     1
 90
       50
176
     1
 62
   256
176
     0
 40
1.0
176
     0
 90
        2
176
     1
  1
strokes_ogs.tif
176
     1
290
     0
176
     1
 40
1.0
176
     1
 40
1.0
176
     1
  0
VISUALSTYLE
  5
3E
102
{ACAD_REACTORS
330
29
102
}
330
29
100
AcDbVisualStyle
  2
Shaded
 70
    27
177
     3
291
     0
 70
    58
 90
        2
176
     1
 90
        2
176
     1
 90
        1
176
     1
 90
        2
176
     1
 40
0.6
176
     1
 40
30.0
176
     1
 62
     7
420
 16777215
176
     1
 90
        0
176
     1
 90
        4
176
     1
 62
     7
176
     1
 62
   257
176
     1
 90
        1
176
     1
 90
        1
176
     1
 40
1.0
176
     1
 90
        8
176
     1
 62
   257
176
     1
 40
1.0
176
     1
 90
        1
176
     1
 90
        6
176
     1
 90
        2
176
     1
 62
     8
420
  7895160
176
     1
 90
        3
176
     1
 90
        0
176
     1
 90
        0
176
     1
290
     0
176
     1
 90
        5
176
     1
 40
0.0
176
     1
 90
        0
176
     1
290
     0
176
     1
290
     1
176
     1
290
     1
176
     1
290
     0
176
     1
290
     0
176
     1
290
     0
176
     1
290
     0
176
     1
290
     0
176
     1
290
     0
176
     1
 90
       50
176
     1
 40
0.0
176
     1
 40
1.0
176
     1
 90
        0
176
     1
 62
    18
420
        0
176
     1
 90
       50
176
     1
 90
        3
176
     1
 62
     5
420
      255
176
     1
290
     0
176
     1
 90
       50
176
     1
 90
       50
176
     1
 90
       50
176
     1
290
     0
176
     1
 90
       50
176
     1
 62
   256
176
     0
 40
1.0
176
     0
 90
        2
176
     1
  1
strokes_ogs.tif
176
     1
290
     0
176
     1
 40
1.0
176
     1
 40
1.0
176
     1
  0
VISUALSTYLE
  5
3D
102
{ACAD_REACTORS
330
29
102
}
330
29
100
AcDbVisualStyle
  2
Shaded with edges
 70
    26
177
     3
291
     0
 70
    58
 90
        2
176
     1
 90
        2
176
     1
 90
        1
176
     1
 90
        2
176
     1
 40
0.6
176
     1
 40
30.0
176
     1
 62
     7
420
 16777215
176
     1
 90
        1
176
     1
 90
       10
176
     1
 62
     7
176
     1
 62
   257
176
     1
 90
        2
176
     1
 90
        1
176
     1
 40
1.0
176
     1
 90
        8
176
     1
 62
   257
176
     1
 40
1.0
176
     1
 90
        1
176
     1
 90
        6
176
     1
 90
        2
176
     1
 62
     7
176
     1
 90
        3
176
     1
 90
        0
176
     1
 90
        0
176
     1
290
     0
176
     1
 90
        5
176
     1
 40
0.0
176
     1
 90
        0
176
     1
290
     0
176
     1
290
     1
176
     1
290
     1
176
     1
290
     0
176
     1
290
     0
176
     1
290
     0
176
     1
290
     0
176
     1
290
     0
176
     1
290
     0
176
     1
 90
       50
176
     1
 40
0.0
176
     1
 40
1.0
176
     1
 90
        0
176
     1
 62
    18
420
        0
176
     1
 90
       50
176
     1
 90
        3
176
     1
 62
     5
420
      255
176
     1
290
     0
176
     1
 90
       50
176
     1
 90
       50
176
     1
 90
       50
176
     1
290
     0
176
     1
 90
       50
176
     1
 62
   256
176
     0
 40
1.0
176
     0
 90
        2
176
     1
  1
strokes_ogs.tif
176
     1
290
     0
176
     1
 40
1.0
176
     1
 40
1.0
176
     1
  0
VISUALSTYLE
  5
3A
102
{ACAD_REACTORS
330
29
102
}
330
29
100
AcDbVisualStyle
  2
Shades of Gray
 70
    23
177
     3
291
     0
 70
    58
 90
        2
176
     1
 90
        2
176
     1
 90
        3
176
     1
 90
        0
176
     1
 40
0.6
176
     1
 40
30.0
176
     1
 62
     7
420
 16777215
176
     1
 90
        2
176
     1
 90
        2
176
     1
 62
     7
176
     1
 62
     7
176
     1
 90
        1
176
     1
 90
        1
176
     1
 40
40.0
176
     1
 90
        8
176
     1
 62
     7
176
     1
 40
1.0
176
     1
 90
        1
176
     1
 90
        6
176
     1
 90
        2
176
     1
 62
     7
176
     1
 90
        3
176
     1
 90
        0
176
     1
 90
        0
176
     1
290
     0
176
     1
 90
        1
176
     1
 40
0.0
176
     1
 90
        0
176
     1
290
     0
176
     1
290
     1
176
     1
290
     1
176
     1
290
     0
176
     1
290
     0
176
     1
290
     0
176
     1
290
     0
176
     1
290
     0
176
     1
290
     0
176
     1
 90
       50
176
     1
 40
0.0
176
     1
 40
1.0
176
     1
 90
        0
176
     1
 62
    18
420
        0
176
     1
 90
       50
176
     1
 90
        3
176
     1
 62
     5
420
      255
176
     1
290
     0
176
     1
 90
       50
176
     1
 90
       50
176
     1
 90
       50
176
     1
290
     0
176
     1
 90
       50
176
     1
 62
   256
176
     0
 40
1.0
176
     0
 90
        2
176
     1
  1
strokes_ogs.tif
176
     1
290
     0
176
     1
 40
1.0
176
     1
 40
1.0
176
     1
  0
VISUALSTYLE
  5
3B
102
{ACAD_REACTORS
330
29
102
}
330
29
100
AcDbVisualStyle
  2
Sketchy
 70
    24
177
     3
291
     0
 70
    58
 90
        1
176
     1
 90
        2
176
     1
 90
        2
176
     1
 90
        0
176
     1
 40
0.6
176
     1
 40
30.0
176
     1
 62
     7
420
 16777215
176
     1
 90
        2
176
     1
 90
        2
176
     1
 62
     7
176
     1
 62
     7
176
     1
 90
        1
176
     1
 90
        1
176
     1
 40
40.0
176
     1
 90
       11
176
     1
 62
     7
176
     1
 40
1.0
176
     1
 90
        1
176
     1
 90
        6
176
     1
 90
        2
176
     1
 62
     7
176
     1
 90
        6
176
     1
 90
        0
176
     1
 90
        0
176
     1
290
     0
176
     1
 90
        1
176
     1
 40
0.0
176
     1
 90
        0
176
     1
290
     0
176
     1
290
     1
176
     1
290
     1
176
     1
290
     0
176
     1
290
     0
176
     1
290
     0
176
     1
290
     0
176
     1
290
     0
176
     1
290
     0
176
     1
 90
       50
176
     1
 40
0.0
176
     1
 40
1.0
176
     1
 90
        0
176
     1
 62
    18
420
        0
176
     1
 90
       50
176
     1
 90
        3
176
     1
 62
     5
420
      255
176
     1
290
     0
176
     1
 90
       50
176
     1
 90
       50
176
     1
 90
       50
176
     1
290
     0
176
     1
 90
       50
176
     1
 62
   256
176
     0
 40
1.0
176
     0
 90
        2
176
     1
  1
strokes_ogs.tif
176
     1
290
     0
176
     1
 40
1.0
176
     1
 40
1.0
176
     1
  0
VISUALSTYLE
  5
36
102
{ACAD_REACTORS
330
29
102
}
330
29
100
AcDbVisualStyle
  2
Thicken
 70
    13
177
     3
291
     1
 70
    58
 90
        2
176
     1
 90
        2
176
     1
 90
        0
176
     1
 90
        0
176
     1
 40
0.6
176
     1
 40
30.0
176
     1
 62
     7
420
 16777215
176
     1
 90
        1
176
     1
 90
        4
176
     1
 62
     7
176
     1
 62
   257
176
     1
 90
        1
176
     1
 90
        1
176
     1
 40
1.0
176
     1
 90
       12
176
     1
 62
     7
176
     1
 40
1.0
176
     1
 90
        1
176
     1
 90
        6
176
     1
 90
        2
176
     1
 62
     7
176
     1
 90
        5
176
     1
 90
        0
176
     1
 90
        0
176
     1
290
     0
176
     1
 90
        1
176
     1
 40
0.0
176
     1
 90
        0
176
     1
290
     0
176
     1
290
     1
176
     1
290
     1
176
     1
290
     0
176
     1
290
     0
176
     1
290
     0
176
     1
290
     0
176
     1
290
     0
176
     1
290
     0
176
     1
 90
       50
176
     1
 40
0.0
176
     1
 40
1.0
176
     1
 90
        0
176
     1
 62
    18
420
        0
176
     1
 90
       50
176
     1
 90
        3
176
     1
 62
     5
420
      255
176
     1
290
     0
176
     1
 90
       50
176
     1
 90
       50
176
     1
 90
       50
176
     1
290
     0
176
     1
 90
       50
176
     1
 62
   256
176
     0
 40
1.0
176
     0
 90
        2
176
     1
  1
strokes_ogs.tif
176
     1
290
     0
176
     1
 40
1.0
176
     1
 40
1.0
176
     1
  0
VISUALSTYLE
  5
30
102
{ACAD_REACTORS
330
29
102
}
330
29
100
AcDbVisualStyle
  2
Wireframe
 70
     5
177
     3
291
     0
 70
    58
 90
        0
176
     1
 90
        2
176
     1
 90
        0
176
     1
 90
        0
176
     1
 40
0.6
176
     1
 40
30.0
176
     1
 62
     7
420
 16777215
176
     1
 90
        1
176
     1
 90
        4
176
     1
 62
     7
176
     1
 62
   257
176
     1
 90
        1
176
     1
 90
        1
176
     1
 40
1.0
176
     1
 90
        0
176
     1
 62
   257
176
     1
 40
1.0
176
     1
 90
        1
176
     1
 90
        6
176
     1
 90
        2
176
     1
 62
     7
176
     1
 90
        3
176
     1
 90
        0
176
     1
 90
        0
176
     1
290
     0
176
     1
 90
        1
176
     1
 40
0.0
176
     1
 90
        0
176
     1
290
     0
176
     1
290
     1
176
     1
290
     1
176
     1
290
     0
176
     1
290
     0
176
     1
290
     0
176
     1
290
     0
176
     1
290
     0
176
     1
290
     0
176
     1
 90
       50
176
     1
 40
0.0
176
     1
 40
1.0
176
     1
 90
        0
176
     1
 62
    18
420
        0
176
     1
 90
       50
176
     1
 90
        3
176
     1
 62
     5
420
      255
176
     1
290
     0
176
     1
 90
       50
176
     1
 90
       50
176
     1
 90
       50
176
     1
290
     0
176
     1
 90
       50
176
     1
 62
   256
176
     0
 40
1.0
176
     0
 90
        2
176
     1
  1
strokes_ogs.tif
176
     1
290
     0
176
     1
 40
1.0
176
     1
 40
1.0
176
     1
  0
VISUALSTYLE
  5
3C
102
{ACAD_REACTORS
330
29
102
}
330
29
100
AcDbVisualStyle
  2
X-Ray
 70
    25
177
     3
291
     0
 70
    58
 90
        2
176
     1
 90
        2
176
     1
 90
        1
176
     1
 90
        1
176
     1
 40
0.5
176
     1
 40
30.0
176
     1
 62
     7
420
 16777215
176
     1
 90
        1
176
     1
 90
        0
176
     1
 62
     7
176
     1
 62
   257
176
     1
 90
        1
176
     1
 90
        1
176
     1
 40
1.0
176
     1
 90
        8
176
     1
 62
     7
176
     1
 40
1.0
176
     1
 90
        1
176
     1
 90
        6
176
     1
 90
        2
176
     1
 62
     7
176
     1
 90
        3
176
     1
 90
        0
176
     1
 90
        0
176
     1
290
     0
176
     1
 90
       13
176
     1
 40
0.0
176
     1
 90
        0
176
     1
290
     0
176
     1
290
     1
176
     1
290
     1
176
     1
290
     0
176
     1
290
     0
176
     1
290
     0
176
     1
290
     0
176
     1
290
     0
176
     1
290
     0
176
     1
 90
       50
176
     1
 40
0.0
176
     1
 40
1.0
176
     1
 90
        0
176
     1
 62
    18
420
        0
176
     1
 90
       50
176
     1
 90
        3
176
     1
 62
     5
420
      255
176
     1
290
     0
176
     1
 90
       50
176
     1
 90
       50
176
     1
 90
       50
176
     1
290
     0
176
     1
 90
       50
176
     1
 62
   256
176
     0
 40
1.0
176
     0
 90
        2
176
     1
  1
strokes_ogs.tif
176
     1
290
     0
176
     1
 40
1.0
176
     1
 40
1.0
176
     1
  0
DICTIONARYVAR
  5
81
102
{ACAD_REACTORS
330
7C
102
}
330
7C
100
DictionaryVariables
280
     0
  1
1:1
  0
DICTIONARYVAR
  5
7E
102
{ACAD_REACTORS
330
7C
102
}
330
7C
100
DictionaryVariables
280
     0
  1
STANDARD
  0
DICTIONARYVAR
  5
7D
102
{ACAD_REACTORS
330
7C
102
}
330
7C
100
DictionaryVariables
280
     0
  1
STANDARD
  0
DICTIONARYVAR
  5
7F
102
{ACAD_REACTORS
330
7C
102
}
330
7C
100
DictionaryVariables
280
     0
  1
Imperial24
  0
DICTIONARYVAR
  5
80
102
{ACAD_REACTORS
330
7C
102
}
330
7C
100
DictionaryVariables
280
     0
  1
Imperial24
  0
XRECORD
  5
212
102
{ACAD_REACTORS
330
20F
102
}
330
20F
100
AcDbXrecord
280
     1
  1
BUILDING_ID
  1
Progetto per messa in tavola DXF, DWG
  1
FLOOR_ID
  1
694395
  0
XRECORD
  5
211
102
{ACAD_REACTORS
330
20F
102
}
330
20F
100
AcDbXrecord
280
     1
  1
-2001160
  1
Apparecchi idraulici
  0
XRECORD
  5
210
102
{ACAD_REACTORS
330
20F
102
}
330
20F
100
AcDbXrecord
280
     1
  1
859151
  1
Automatic flow rate regulator valve_Caleffi_121 DN15 : 1/2''
  0
DICTIONARY
  5
1A
330
19
100
AcDbDictionary
280
     1
281
     1
  3
BUMPTILE
360
1C
  3
DIFFUSETILE
360
1B
  3
OPACITYTILE
360
1F
  3
REFLECTIONTILE
360
1E
  3
REFRACTIONTILE
360
20
  3
SPECULARTILE
360
1D
  0
DICTIONARY
  5
12
330
11
100
AcDbDictionary
280
     1
281
     1
  3
BUMPTILE
360
14
  3
DIFFUSETILE
360
13
  3
OPACITYTILE
360
17
  3
REFLECTIONTILE
360
16
  3
REFRACTIONTILE
360
18
  3
SPECULARTILE
360
15
  0
DICTIONARY
  5
22
330
21
100
AcDbDictionary
280
     1
281
     1
  3
BUMPTILE
360
24
  3
DIFFUSETILE
360
23
  3
OPACITYTILE
360
27
  3
REFLECTIONTILE
360
26
  3
REFRACTIONTILE
360
28
  3
SPECULARTILE
360
25
  0
DICTIONARY
  5
215
330
65
100
AcDbDictionary
280
     1
281
     1
  3
ACAD_ROUNDTRIP_2008_TABLESTYLE_CELLSTYLEMAP
360
216
  0
XRECORD
  5
1C
102
{ACAD_REACTORS
330
1A
102
}
330
1A
100
AcDbXrecord
280
     1
270
     1
271
     1
  0
XRECORD
  5
1B
102
{ACAD_REACTORS
330
1A
102
}
330
1A
100
AcDbXrecord
280
     1
270
     1
271
     1
  0
XRECORD
  5
1F
102
{ACAD_REACTORS
330
1A
102
}
330
1A
100
AcDbXrecord
280
     1
270
     1
271
     1
  0
XRECORD
  5
1E
102
{ACAD_REACTORS
330
1A
102
}
330
1A
100
AcDbXrecord
280
     1
270
     1
271
     1
  0
XRECORD
  5
20
102
{ACAD_REACTORS
330
1A
102
}
330
1A
100
AcDbXrecord
280
     1
270
     1
271
     1
  0
XRECORD
  5
1D
102
{ACAD_REACTORS
330
1A
102
}
330
1A
100
AcDbXrecord
280
     1
270
     1
271
     1
  0
XRECORD
  5
14
102
{ACAD_REACTORS
330
12
102
}
330
12
100
AcDbXrecord
280
     1
270
     1
271
     1
  0
XRECORD
  5
13
102
{ACAD_REACTORS
330
12
102
}
330
12
100
AcDbXrecord
280
     1
270
     1
271
     1
  0
XRECORD
  5
17
102
{ACAD_REACTORS
330
12
102
}
330
12
100
AcDbXrecord
280
     1
270
     1
271
     1
  0
XRECORD
  5
16
102
{ACAD_REACTORS
330
12
102
}
330
12
100
AcDbXrecord
280
     1
270
     1
271
     1
  0
XRECORD
  5
18
102
{ACAD_REACTORS
330
12
102
}
330
12
100
AcDbXrecord
280
     1
270
     1
271
     1
  0
XRECORD
  5
15
102
{ACAD_REACTORS
330
12
102
}
330
12
100
AcDbXrecord
280
     1
270
     1
271
     1
  0
XRECORD
  5
24
102
{ACAD_REACTORS
330
22
102
}
330
22
100
AcDbXrecord
280
     1
270
     1
271
     1
  0
XRECORD
  5
23
102
{ACAD_REACTORS
330
22
102
}
330
22
100
AcDbXrecord
280
     1
270
     1
271
     1
  0
XRECORD
  5
27
102
{ACAD_REACTORS
330
22
102
}
330
22
100
AcDbXrecord
280
     1
270
     1
271
     1
  0
XRECORD
  5
26
102
{ACAD_REACTORS
330
22
102
}
330
22
100
AcDbXrecord
280
     1
270
     1
271
     1
  0
XRECORD
  5
28
102
{ACAD_REACTORS
330
22
102
}
330
22
100
AcDbXrecord
280
     1
270
     1
271
     1
  0
XRECORD
  5
25
102
{ACAD_REACTORS
330
22
102
}
330
22
100
AcDbXrecord
280
     1
270
     1
271
     1
  0
CELLSTYLEMAP
  5
216
102
{ACAD_REACTORS
330
215
102
}
330
215
100
AcDbCellStyleMap
 90
        3
300
CELLSTYLE
  1
TABLEFORMAT_BEGIN
 90
        5
170
     1
 91
        0
 92
    32768
 62
   257
 93
        1
300
CONTENTFORMAT
  1
CONTENTFORMAT_BEGIN
 90
        0
 91
        0
 92
      512
 93
        0
300

 40
0.0
140
1.0
 94
        5
 62
     0
340
55
144
0.25
309
CONTENTFORMAT_END
171
     0
 94
        0
309
TABLEFORMAT_END
  1
CELLSTYLE_BEGIN
 90
        1
 91
        1
300
_TITLE
309
CELLSTYLE_END
300
CELLSTYLE
  1
TABLEFORMAT_BEGIN
 90
        5
170
     1
 91
        0
 92
        0
 62
   257
 93
        1
300
CONTENTFORMAT
  1
CONTENTFORMAT_BEGIN
 90
        0
 91
        0
 92
      512
 93
        0
300

 40
0.0
140
1.0
 94
        5
 62
     0
340
55
144
0.18
309
CONTENTFORMAT_END
171
     0
 94
        0
309
TABLEFORMAT_END
  1
CELLSTYLE_BEGIN
 90
        2
 91
        1
300
_HEADER
309
CELLSTYLE_END
300
CELLSTYLE
  1
TABLEFORMAT_BEGIN
 90
        5
170
     1
 91
        0
 92
        0
 62
   257
 93
        1
300
CONTENTFORMAT
  1
CONTENTFORMAT_BEGIN
 90
        0
 91
        0
 92
      512
 93
        0
300

 40
0.0
140
1.0
 94
        2
 62
     0
340
55
144
0.18
309
CONTENTFORMAT_END
171
     0
 94
        0
309
TABLEFORMAT_END
  1
CELLSTYLE_BEGIN
 90
        3
 91
        2
300
_DATA
309
CELLSTYLE_END
  0
ENDSEC
  0
EOF
