  0
SECTION
  2
HEADER
  9
$ACADVER
  1
AC1027
  9
$ACADMAINTVER
 70
    20
  9
$DWGCODEPAGE
  3
ANSI_1252
  9
$REQUIREDVERSIONS
160
                 0
  9
$INSBASE
 10
0.0
 20
0.0
 30
0.0
  9
$EXTMIN
 10
774.6664074431879
 20
1649.497075844258
 30
-0.00000001
  9
$EXTMAX
 10
1275.113156828899
 20
2060.948183850189
 30
0.00000001
  9
$LIMMIN
 10
0.0
 20
0.0
  9
$LIMMAX
 10
12.0
 20
9.0
  9
$ORTHOMODE
 70
     0
  9
$REGENMODE
 70
     1
  9
$FILLMODE
 70
     1
  9
$QTEXTMODE
 70
     0
  9
$MIRRTEXT
 70
     0
  9
$LTSCALE
 40
1.0
  9
$ATTMODE
 70
     1
  9
$TEXTSIZE
 40
0.2
  9
$TRACEWID
 40
0.05
  9
$TEXTSTYLE
  7
Standard
  9
$CLAYER
  8
0
  9
$CELTYPE
  6
ByLayer
  9
$CECOLOR
 62
   256
  9
$CELTSCALE
 40
1.0
  9
$DISPSILH
 70
     0
  9
$DIMSCALE
 40
1.0
  9
$DIMASZ
 40
0.18
  9
$DIMEXO
 40
0.0625
  9
$DIMDLI
 40
0.38
  9
$DIMRND
 40
0.0
  9
$DIMDLE
 40
0.0
  9
$DIMEXE
 40
0.18
  9
$DIMTP
 40
0.0
  9
$DIMTM
 40
0.0
  9
$DIMTXT
 40
0.18
  9
$DIMCEN
 40
0.09
  9
$DIMTSZ
 40
0.0
  9
$DIMTOL
 70
     0
  9
$DIMLIM
 70
     0
  9
$DIMTIH
 70
     1
  9
$DIMTOH
 70
     1
  9
$DIMSE1
 70
     0
  9
$DIMSE2
 70
     0
  9
$DIMTAD
 70
     0
  9
$DIMZIN
 70
     0
  9
$DIMBLK
  1

  9
$DIMASO
 70
     1
  9
$DIMSHO
 70
     1
  9
$DIMPOST
  1

  9
$DIMAPOST
  1

  9
$DIMALT
 70
     0
  9
$DIMALTD
 70
     2
  9
$DIMALTF
 40
25.4
  9
$DIMLFAC
 40
1.0
  9
$DIMTOFL
 70
     0
  9
$DIMTVP
 40
0.0
  9
$DIMTIX
 70
     0
  9
$DIMSOXD
 70
     0
  9
$DIMSAH
 70
     0
  9
$DIMBLK1
  1

  9
$DIMBLK2
  1

  9
$DIMSTYLE
  2
Standard
  9
$DIMCLRD
 70
     0
  9
$DIMCLRE
 70
     0
  9
$DIMCLRT
 70
     0
  9
$DIMTFAC
 40
1.0
  9
$DIMGAP
 40
0.09
  9
$DIMJUST
 70
     0
  9
$DIMSD1
 70
     0
  9
$DIMSD2
 70
     0
  9
$DIMTOLJ
 70
     1
  9
$DIMTZIN
 70
     0
  9
$DIMALTZ
 70
     0
  9
$DIMALTTZ
 70
     0
  9
$DIMUPT
 70
     0
  9
$DIMDEC
 70
     4
  9
$DIMTDEC
 70
     4
  9
$DIMALTU
 70
     2
  9
$DIMALTTD
 70
     2
  9
$DIMTXSTY
  7
Standard
  9
$DIMAUNIT
 70
     0
  9
$DIMADEC
 70
     0
  9
$DIMALTRND
 40
0.0
  9
$DIMAZIN
 70
     0
  9
$DIMDSEP
 70
    46
  9
$DIMATFIT
 70
     3
  9
$DIMFRAC
 70
     0
  9
$DIMLDRBLK
  1

  9
$DIMLUNIT
 70
     2
  9
$DIMLWD
 70
    -2
  9
$DIMLWE
 70
    -2
  9
$DIMTMOVE
 70
     0
  9
$DIMFXL
 40
1.0
  9
$DIMFXLON
 70
     0
  9
$DIMJOGANG
 40
0.7853981633974483
  9
$DIMTFILL
 70
     0
  9
$DIMTFILLCLR
 70
     0
  9
$DIMARCSYM
 70
     0
  9
$DIMLTYPE
  6

  9
$DIMLTEX1
  6

  9
$DIMLTEX2
  6

  9
$DIMTXTDIRECTION
 70
     0
  9
$LUNITS
 70
     2
  9
$LUPREC
 70
     4
  9
$SKETCHINC
 40
0.1
  9
$FILLETRAD
 40
0.0
  9
$AUNITS
 70
     0
  9
$AUPREC
 70
     0
  9
$MENU
  1
.
  9
$ELEVATION
 40
0.0
  9
$PELEVATION
 40
0.0
  9
$THICKNESS
 40
0.0
  9
$LIMCHECK
 70
     0
  9
$CHAMFERA
 40
0.0
  9
$CHAMFERB
 40
0.0
  9
$CHAMFERC
 40
0.0
  9
$CHAMFERD
 40
0.0
  9
$SKPOLY
 70
     0
  9
$TDCREATE
 40
2457569.636054560
  9
$TDUCREATE
 40
2457569.552721227
  9
$TDUPDATE
 40
2457569.636054560
  9
$TDUUPDATE
 40
2457569.552721227
  9
$TDINDWG
 40
0.0000093866
  9
$TDUSRTIMER
 40
0.0000093866
  9
$USRTIMER
 70
     1
  9
$ANGBASE
 50
0.0
  9
$ANGDIR
 70
     0
  9
$PDMODE
 70
     0
  9
$PDSIZE
 40
0.0
  9
$PLINEWID
 40
0.0
  9
$SPLFRAME
 70
     0
  9
$SPLINETYPE
 70
     6
  9
$SPLINESEGS
 70
     8
  9
$HANDSEED
  5
1DD
  9
$SURFTAB1
 70
     6
  9
$SURFTAB2
 70
     6
  9
$SURFTYPE
 70
     6
  9
$SURFU
 70
     6
  9
$SURFV
 70
     6
  9
$UCSBASE
  2

  9
$UCSNAME
  2

  9
$UCSORG
 10
0.0
 20
0.0
 30
0.0
  9
$UCSXDIR
 10
1.0
 20
0.0
 30
0.0
  9
$UCSYDIR
 10
0.0
 20
1.0
 30
0.0
  9
$UCSORTHOREF
  2

  9
$UCSORTHOVIEW
 70
     0
  9
$UCSORGTOP
 10
0.0
 20
0.0
 30
0.0
  9
$UCSORGBOTTOM
 10
0.0
 20
0.0
 30
0.0
  9
$UCSORGLEFT
 10
0.0
 20
0.0
 30
0.0
  9
$UCSORGRIGHT
 10
0.0
 20
0.0
 30
0.0
  9
$UCSORGFRONT
 10
0.0
 20
0.0
 30
0.0
  9
$UCSORGBACK
 10
0.0
 20
0.0
 30
0.0
  9
$PUCSBASE
  2

  9
$PUCSNAME
  2

  9
$PUCSORG
 10
0.0
 20
0.0
 30
0.0
  9
$PUCSXDIR
 10
1.0
 20
0.0
 30
0.0
  9
$PUCSYDIR
 10
0.0
 20
1.0
 30
0.0
  9
$PUCSORTHOREF
  2

  9
$PUCSORTHOVIEW
 70
     0
  9
$PUCSORGTOP
 10
0.0
 20
0.0
 30
0.0
  9
$PUCSORGBOTTOM
 10
0.0
 20
0.0
 30
0.0
  9
$PUCSORGLEFT
 10
0.0
 20
0.0
 30
0.0
  9
$PUCSORGRIGHT
 10
0.0
 20
0.0
 30
0.0
  9
$PUCSORGFRONT
 10
0.0
 20
0.0
 30
0.0
  9
$PUCSORGBACK
 10
0.0
 20
0.0
 30
0.0
  9
$USERI1
 70
     0
  9
$USERI2
 70
     0
  9
$USERI3
 70
     0
  9
$USERI4
 70
     0
  9
$USERI5
 70
     0
  9
$USERR1
 40
0.0
  9
$USERR2
 40
0.0
  9
$USERR3
 40
0.0
  9
$USERR4
 40
0.0
  9
$USERR5
 40
0.0
  9
$WORLDVIEW
 70
     1
  9
$SHADEDGE
 70
     3
  9
$SHADEDIF
 70
    70
  9
$TILEMODE
 70
     1
  9
$MAXACTVP
 70
    64
  9
$PINSBASE
 10
0.0
 20
0.0
 30
0.0
  9
$PLIMCHECK
 70
     0
  9
$PEXTMIN
 10
1.000000000000000E+20
 20
1.000000000000000E+20
 30
1.000000000000000E+20
  9
$PEXTMAX
 10
-1.000000000000000E+20
 20
-1.000000000000000E+20
 30
-1.000000000000000E+20
  9
$PLIMMIN
 10
0.0
 20
0.0
  9
$PLIMMAX
 10
12.0
 20
9.0
  9
$UNITMODE
 70
     0
  9
$VISRETAIN
 70
     1
  9
$PLINEGEN
 70
     0
  9
$PSLTSCALE
 70
     1
  9
$TREEDEPTH
 70
  3020
  9
$CMLSTYLE
  2
Standard
  9
$CMLJUST
 70
     0
  9
$CMLSCALE
 40
1.0
  9
$PROXYGRAPHICS
 70
     1
  9
$MEASUREMENT
 70
     1
  9
$CELWEIGHT
370
    -1
  9
$ENDCAPS
280
     0
  9
$JOINSTYLE
280
     0
  9
$LWDISPLAY
290
     0
  9
$INSUNITS
 70
     4
  9
$HYPERLINKBASE
  1

  9
$STYLESHEET
  1

  9
$XEDIT
290
     1
  9
$CEPSNTYPE
380
     0
  9
$PSTYLEMODE
290
     1
  9
$FINGERPRINTGUID
  2
{1D3745D9-E85D-4DD5-B6D8-59E03706FD47}
  9
$VERSIONGUID
  2
{56602FB3-68F6-43FF-BB9A-9F15BD8FDDCF}
  9
$EXTNAMES
290
     1
  9
$PSVPSCALE
 40
0.0
  9
$OLESTARTUP
290
     0
  9
$SORTENTS
280
   127
  9
$INDEXCTL
280
     0
  9
$HIDETEXT
280
     1
  9
$XCLIPFRAME
280
     2
  9
$HALOGAP
280
     0
  9
$OBSCOLOR
 70
   257
  9
$OBSLTYPE
280
     0
  9
$INTERSECTIONDISPLAY
280
     0
  9
$INTERSECTIONCOLOR
 70
   257
  9
$DIMASSOC
280
     2
  9
$PROJECTNAME
  1

  9
$CAMERADISPLAY
290
     0
  9
$LENSLENGTH
 40
50.0
  9
$CAMERAHEIGHT
 40
0.0
  9
$STEPSPERSEC
 40
2.0
  9
$STEPSIZE
 40
6.0
  9
$3DDWFPREC
 40
2.0
  9
$PSOLWIDTH
 40
0.25
  9
$PSOLHEIGHT
 40
4.0
  9
$LOFTANG1
 40
1.570796326794896
  9
$LOFTANG2
 40
1.570796326794896
  9
$LOFTMAG1
 40
0.0
  9
$LOFTMAG2
 40
0.0
  9
$LOFTPARAM
 70
     7
  9
$LOFTNORMALS
280
     1
  9
$LATITUDE
 40
37.795
  9
$LONGITUDE
 40
-122.394
  9
$NORTHDIRECTION
 40
0.0
  9
$TIMEZONE
 70
 -8000
  9
$LIGHTGLYPHDISPLAY
280
     1
  9
$TILEMODELIGHTSYNCH
280
     1
  9
$CMATERIAL
347
11
  9
$SOLIDHIST
280
     0
  9
$SHOWHIST
280
     1
  9
$DWFFRAME
280
     2
  9
$DGNFRAME
280
     0
  9
$REALWORLDSCALE
290
     1
  9
$INTERFERECOLOR
 62
     1
  9
$INTERFEREOBJVS
345
33
  9
$INTERFEREVPVS
346
30
  9
$CSHADOW
280
     0
  9
$SHADOWPLANELOCATION
 40
0.0
  0
ENDSEC
  0
SECTION
  2
CLASSES
  0
CLASS
  1
ACDBDICTIONARYWDFLT
  2
AcDbDictionaryWithDefault
  3
ObjectDBX Classes
 90
        0
 91
        1
280
     0
281
     0
  0
CLASS
  1
MATERIAL
  2
AcDbMaterial
  3
ObjectDBX Classes
 90
     1153
 91
        3
280
     0
281
     0
  0
CLASS
  1
VISUALSTYLE
  2
AcDbVisualStyle
  3
ObjectDBX Classes
 90
     4095
 91
       24
280
     0
281
     0
  0
CLASS
  1
SCALE
  2
AcDbScale
  3
ObjectDBX Classes
 90
     1153
 91
       17
280
     0
281
     0
  0
CLASS
  1
TABLESTYLE
  2
AcDbTableStyle
  3
ObjectDBX Classes
 90
     4095
 91
        1
280
     0
281
     0
  0
CLASS
  1
MLEADERSTYLE
  2
AcDbMLeaderStyle
  3
ACDB_MLEADERSTYLE_CLASS
 90
     4095
 91
        1
280
     0
281
     0
  0
CLASS
  1
ACDBSECTIONVIEWSTYLE
  2
AcDbSectionViewStyle
  3
ObjectDBX Classes
 90
     1025
 91
        1
280
     0
281
     0
  0
CLASS
  1
ACDBDETAILVIEWSTYLE
  2
AcDbDetailViewStyle
  3
ObjectDBX Classes
 90
     1025
 91
        1
280
     0
281
     0
  0
CLASS
  1
RASTERVARIABLES
  2
AcDbRasterVariables
  3
ISM
 90
        0
 91
        1
280
     0
281
     0
  0
CLASS
  1
DICTIONARYVAR
  2
AcDbDictionaryVar
  3
ObjectDBX Classes
 90
        0
 91
        5
280
     0
281
     0
  0
CLASS
  1
CELLSTYLEMAP
  2
AcDbCellStyleMap
  3
ObjectDBX Classes
 90
     1152
 91
        2
280
     0
281
     0
  0
CLASS
  1
SORTENTSTABLE
  2
AcDbSortentsTable
  3
ObjectDBX Classes
 90
        0
 91
        1
280
     0
281
     0
  0
ENDSEC
  0
SECTION
  2
TABLES
  0
TABLE
  2
VPORT
  5
8
330
0
100
AcDbSymbolTable
 70
     1
  0
VPORT
  5
57
330
8
100
AcDbSymbolTableRecord
100
AcDbViewportTableRecord
  2
*Active
 70
     0
 10
0.0
 20
0.0
 11
1.0
 21
1.0
 12
1024.889782136043
 22
1855.222629847223
 13
0.0
 23
0.0
 14
1.0
 24
1.0
 15
0.0
 25
0.0
 16
0.0
 26
0.0
 36
1.0
 17
0.0
 27
0.0
 37
0.0
 40
411.4511080059306
 41
1.216297002604006
 42
50.0
 43
0.0
 44
0.0
 50
0.0
 51
0.0
 71
     0
 72
  1000
 73
     1
 74
     1
 75
     0
 76
     0
 77
     0
 78
     0
281
     0
 65
     1
110
0.0
120
0.0
130
0.0
111
1.0
121
0.0
131
0.0
112
0.0
122
1.0
132
0.0
 79
     0
146
0.0
 60
     3
 61
     5
292
     1
282
     1
141
0.0
142
0.0
 63
   250
421
  3355443
  0
ENDTAB
  0
TABLE
  2
LTYPE
  5
5
330
0
100
AcDbSymbolTable
 70
     3
  0
LTYPE
  5
5B
330
5
100
AcDbSymbolTableRecord
100
AcDbLinetypeTableRecord
  2
ByBlock
 70
     0
  3

 72
    65
 73
     0
 40
0.0
  0
LTYPE
  5
5C
330
5
100
AcDbSymbolTableRecord
100
AcDbLinetypeTableRecord
  2
ByLayer
 70
     0
  3

 72
    65
 73
     0
 40
0.0
  0
LTYPE
  5
5D
330
5
100
AcDbSymbolTableRecord
100
AcDbLinetypeTableRecord
  2
Continuous
 70
     0
  3
Solid line
 72
    65
 73
     0
 40
0.0
  0
LTYPE
  5
69
330
5
100
AcDbSymbolTableRecord
100
AcDbLinetypeTableRecord
  2
PHANTOM2
 70
     0
  3
___ _ _ ___ _ _ ___ _ _ ___ _ _
 72
    65
 73
     6
 40
1.25
 49
0.625
 74
     0
 49
-0.125
 74
     0
 49
0.125
 74
     0
 49
-0.125
 74
     0
 49
0.125
 74
     0
 49
-0.125
 74
     0
  0
LTYPE
  5
86
330
5
100
AcDbSymbolTableRecord
100
AcDbLinetypeTableRecord
  2
Nascosto 1_5 mm
 70
     0
  3

 72
    65
 73
     2
 40
2.2
 49
1.5
 74
     0
 49
-0.7000000000000001
 74
     0
  0
ENDTAB
  0
TABLE
  2
LAYER
  5
2
330
0
100
AcDbSymbolTable
 70
     3
  0
LAYER
  5
54
330
2
100
AcDbSymbolTableRecord
100
AcDbLayerTableRecord
  2
0
 70
     0
 62
     7
  6
Continuous
370
    -3
390
F
347
21
348
0
  0
LAYER
  5
85
330
2
100
AcDbSymbolTableRecord
100
AcDbLayerTableRecord
  2
P-SANR-FIXT
 70
     0
 62
     6
  6
Continuous
370
    18
390
F
347
21
348
0
  0
ENDTAB
  0
TABLE
  2
STYLE
  5
3
330
0
100
AcDbSymbolTable
 70
     2
  0
STYLE
  5
55
330
3
100
AcDbSymbolTableRecord
100
AcDbTextStyleTableRecord
  2
Standard
 70
     0
 40
0.0
 41
1.0
 50
0.0
 71
     0
 42
0.2
  3
txt
  4

  0
STYLE
  5
5A
330
3
100
AcDbSymbolTableRecord
100
AcDbTextStyleTableRecord
  2
Annotative
 70
     0
 40
0.0
 41
1.0
 50
0.0
 71
     0
 42
0.2
  3
txt
  4

1001
AcadAnnotative
1000
AnnotativeData
1002
{
1070
     1
1070
     1
1002
}
  0
ENDTAB
  0
TABLE
  2
VIEW
  5
6
330
0
100
AcDbSymbolTable
 70
     0
  0
ENDTAB
  0
TABLE
  2
UCS
  5
7
330
0
100
AcDbSymbolTable
 70
     0
  0
ENDTAB
  0
TABLE
  2
APPID
  5
9
330
0
100
AcDbSymbolTable
 70
     3
  0
APPID
  5
56
330
9
100
AcDbSymbolTableRecord
100
AcDbRegAppTableRecord
  2
ACAD
 70
     0
  0
APPID
  5
5E
330
9
100
AcDbSymbolTableRecord
100
AcDbRegAppTableRecord
  2
AcadAnnotative
 70
     0
  0
APPID
  5
79
330
9
100
AcDbSymbolTableRecord
100
AcDbRegAppTableRecord
  2
REVIT
 70
     0
  0
ENDTAB
  0
TABLE
  2
DIMSTYLE
  5
A
330
0
100
AcDbSymbolTable
 70
     2
100
AcDbDimStyleTable
 71
     0
  0
DIMSTYLE
105
58
330
A
100
AcDbSymbolTableRecord
100
AcDbDimStyleTableRecord
  2
Standard
 70
     0
340
55
  0
DIMSTYLE
105
59
330
A
100
AcDbSymbolTableRecord
100
AcDbDimStyleTableRecord
  2
Annotative
 70
     0
340
55
1001
AcadAnnotative
1000
AnnotativeData
1002
{
1070
     1
1070
     1
1002
}
  0
ENDTAB
  0
TABLE
  2
BLOCK_RECORD
  5
1
330
0
100
AcDbSymbolTable
 70
     4
  0
BLOCK_RECORD
  5
71
102
{ACAD_XDICTIONARY
360
1D8
102
}
330
1
100
AcDbSymbolTableRecord
100
AcDbBlockTableRecord
  2
*Model_Space
340
74
 70
     0
280
     1
281
     0
  0
BLOCK_RECORD
  5
6D
330
1
100
AcDbSymbolTableRecord
100
AcDbBlockTableRecord
  2
*Paper_Space
340
70
 70
     0
280
     1
281
     0
  0
BLOCK_RECORD
  5
75
330
1
100
AcDbSymbolTableRecord
100
AcDbBlockTableRecord
  2
*Paper_Space0
340
78
 70
     0
280
     1
281
     0
  0
BLOCK_RECORD
  5
87
330
1
100
AcDbSymbolTableRecord
100
AcDbBlockTableRecord
  2
Automatic flow rate regulator valve_Caleffi_121 DN15 - 1_2__-859151-Est - Idraulica
340
0
102
{BLKREFS
331
100
102
}
 70
     0
280
     1
281
     0
  0
BLOCK_RECORD
  5
101
330
1
100
AcDbSymbolTableRecord
100
AcDbBlockTableRecord
  2
Automatic flow rate regulator valve_Caleffi_121 DN15 - 1_2__-V1-Est - Idraulica
340
0
102
{BLKREFS
331
16C
102
}
 70
     0
280
     1
281
     0
  0
BLOCK_RECORD
  5
16D
330
1
100
AcDbSymbolTableRecord
100
AcDbBlockTableRecord
  2
Automatic flow rate regulator valve_Caleffi_121 DN15 - 1_2__-V2-Est - Idraulica
340
0
102
{BLKREFS
331
1D2
102
}
 70
     0
280
     1
281
     0
  0
ENDTAB
  0
ENDSEC
  0
SECTION
  2
BLOCKS
  0
BLOCK
  5
72
330
71
100
AcDbEntity
  8
0
100
AcDbBlockBegin
  2
*Model_Space
 70
     0
 10
0.0
 20
0.0
 30
0.0
  3
*Model_Space
  1

  0
ENDBLK
  5
73
330
71
100
AcDbEntity
  8
0
100
AcDbBlockEnd
  0
BLOCK
  5
6E
330
6D
100
AcDbEntity
 67
     1
  8
0
100
AcDbBlockBegin
  2
*Paper_Space
 70
     0
 10
0.0
 20
0.0
 30
0.0
  3
*Paper_Space
  1

  0
ENDBLK
  5
6F
330
6D
100
AcDbEntity
 67
     1
  8
0
100
AcDbBlockEnd
  0
BLOCK
  5
76
330
75
100
AcDbEntity
 67
     1
  8
0
100
AcDbBlockBegin
  2
*Paper_Space0
 70
     0
 10
0.0
 20
0.0
 30
0.0
  3
*Paper_Space0
  1

  0
ENDBLK
  5
77
330
75
100
AcDbEntity
 67
     1
  8
0
100
AcDbBlockEnd
  0
BLOCK
  5
FE
330
87
100
AcDbEntity
  8
0
100
AcDbBlockBegin
  2
Automatic flow rate regulator valve_Caleffi_121 DN15 - 1_2__-859151-Est - Idraulica
 70
     0
 10
0.0
 20
0.0
 30
0.0
  3
Automatic flow rate regulator valve_Caleffi_121 DN15 - 1_2__-859151-Est - Idraulica
  1

  0
LINE
  5
88
330
87
100
AcDbEntity
  8
P-SANR-FIXT
100
AcDbLine
 10
802.6664074431929
 20
1995.30352540388
 30
0.0
 11
802.7233126777318
 21
1995.270671151401
 31
0.0
  0
LINE
  5
89
330
87
100
AcDbEntity
  8
P-SANR-FIXT
100
AcDbLine
 10
802.7290059964542
 20
1995.267384112304
 30
0.0
 11
804.1664074432713
 21
1994.437500000065
 31
0.0
  0
LINE
  5
8A
330
87
100
AcDbEntity
  8
P-SANR-FIXT
100
AcDbLine
 10
827.166407443107
 20
1994.437500000065
 30
0.0
 11
828.6038088899243
 21
1995.267384112304
 31
0.0
  0
LINE
  5
8B
330
87
100
AcDbEntity
  8
P-SANR-FIXT
100
AcDbLine
 10
828.6095022086465
 20
1995.270671151402
 30
0.0
 11
828.6664074431856
 21
1995.30352540388
 31
0.0
  0
LWPOLYLINE
  5
8C
330
87
100
AcDbEntity
  8
P-SANR-FIXT
100
AcDbPolyline
 90
        9
 70
   128
 43
0.0
 10
828.3605230822207
 20
2000.425740160345
 10
828.3171274202071
 20
2000.418753628323
 10
828.2740458568587
 20
2000.410037321151
 10
828.2313473134861
 20
2000.399605183061
 10
828.1891000986504
 20
2000.387473903249
 10
828.1473717988829
 20
2000.373662889174
 10
828.1062291705616
 20
2000.358194235512
 10
828.0657380331156
 20
2000.34109268881
 10
828.0259631637266
 20
2000.322385607895
  0
LWPOLYLINE
  5
8D
330
87
100
AcDbEntity
  8
P-SANR-FIXT
100
AcDbPolyline
 90
       68
 70
   128
 43
0.0
 10
827.9741493345333
 20
2000.294769689427
 10
827.9488155066728
 20
2000.280277073414
 10
827.9115661388019
 20
2000.25694298452
 10
827.8752796811309
 20
2000.232137982989
 10
827.8400141842514
 20
2000.205901751531
 10
827.8058260654356
 20
2000.17827626252
 10
827.7727700183804
 20
2000.149305710845
 10
827.7408989257097
 20
2000.119036443209
 10
827.7102637743725
 20
2000.087516883982
 10
827.6809135740764
 20
2000.054797457737
 10
827.6528952788805
 20
2000.020930508574
 10
827.6262537120802
 20
1999.985970216389
 10
827.6010314944992
 20
1999.94997251019
 10
827.5772689763051
 20
1999.912994978629
 10
827.5550041724581
 20
1999.875096777868
 10
827.5342727018946
 20
1999.836338536944
 10
827.5151077305451
 20
1999.796782260773
 10
827.4975399182759
 20
1999.756491230961
 10
827.4815973698382
 20
1999.715529904559
 10
827.4673055899089
 20
1999.673963810953
 10
827.4546874422876
 20
1999.631859447024
 10
827.4437631133181
 20
1999.589284170772
 10
827.4345500795968
 20
1999.54630609356
 10
827.4270630800122
 20
1999.50299397114
 10
827.4213140921665
 20
1999.45941709367
 10
827.4173123132138
 20
1999.415645174858
 10
827.4150641451464
 20
1999.371748240436
 10
827.4145731845546
 20
1999.327796516136
 10
827.4158402168698
 20
1999.28386031534
 10
827.4188632151108
 20
1999.240009926597
 10
827.4236373431254
 20
1999.196315501175
 10
827.4301549633269
 20
1999.152846940834
 10
827.4384056489136
 20
1999.109673785996
 10
827.4483762005486
 20
1999.066865104501
 10
827.4600506674762
 20
1999.024489381106
 10
827.4734103730397
 20
1998.98261440793
 10
827.48843394456
 20
1998.941307175996
 10
827.5050973475277
 20
1998.900633768064
 10
827.5233739240528
 20
1998.86065925291
 10
827.5432344355113
 20
1998.82144758123
 10
827.5646471093219
 20
1998.783061483336
 10
827.587577689774
 20
1998.745562368794
 10
827.611989492831
 20
1998.70901022819
 10
827.6378434648147
 20
1998.673463537149
 10
827.665098244886
 20
1998.638979162796
 10
827.6937102312105
 20
1998.605612272773
 10
827.7236336507138
 20
1998.573416246985
 10
827.7548206323077
 20
1998.542442592207
 10
827.7872212834745
 20
1998.512740859678
 10
827.8207837700843
 20
1998.484358565834
 10
827.8554543993182
 20
1998.457341116291
 10
827.8911777055654
 20
1998.431731733205
 10
827.9278965391565
 20
1998.407571386126
 10
827.9655521577906
 20
1998.384898726455
 10
828.0040843205103
 20
1998.363750025611
 10
828.0434313840759
 20
1998.344159117004
 10
828.0835304015784
 20
1998.326157341908
 10
828.1243172231445
 20
1998.309773499324
 10
828.1657265985597
 20
1998.295033799904
 10
828.2076922816573
 20
1998.281961824024
 10
828.2501471362966
 20
1998.270578484055
 10
828.2930232437665
 20
1998.260901990915
 10
828.3362520114417
 20
1998.252947824927
 10
828.3797642825154
 20
1998.246728711061
 10
828.4234904466359
 20
1998.242254598572
 10
828.4673605512686
 20
1998.239532645085
 10
828.5113044136046
 20
1998.238567205145
 10
828.513465262703
 20
1998.238565080691
  0
LWPOLYLINE
  5
8E
330
87
100
AcDbEntity
  8
P-SANR-FIXT
100
AcDbPolyline
 90
       67
 70
   128
 43
0.0
 10
802.8326900207432
 20
1998.238831924213
 10
802.8632952994154
 20
1998.239444111413
 10
802.9071706714489
 20
1998.242079797318
 10
802.9509055485402
 20
1998.24646792187
 10
802.9944299642155
 20
1998.252601465005
 10
803.0376742886943
 20
1998.260470614365
 10
803.0805693402825
 20
1998.270062780986
 10
803.1230464960485
 20
1998.281362619452
 10
803.1650378016033
 20
1998.294352052428
 10
803.2064760798165
 20
1998.309010299595
 10
803.2472950382826
 20
1998.325313910882
 10
803.2874293753755
 20
1998.343236803991
 10
803.326814884717
 20
1998.362750306116
 10
803.3653885578946
 20
1998.383823199815
 10
803.4030886852596
 20
1998.406421772954
 10
803.4398549546503
 20
1998.430509872638
 10
803.4756285478788
 20
1998.456048963045
 10
803.5103522348274
 20
1998.482998187077
 10
803.5439704650041
 20
1998.511314431727
 10
803.5764294564122
 20
1998.540952397042
 10
803.6076772815897
 20
1998.571864668601
 10
803.6376639506823
 20
1998.604001793364
 10
803.666341491416
 20
1998.637312358786
 10
803.6936640258431
 20
1998.671743075069
 10
803.7195878437373
 20
1998.707238860411
 10
803.7440714725201
 20
1998.743742929129
 10
803.767075743608
 20
1998.781196882498
 10
803.7885638550749
 20
1998.819540802183
 10
803.8085014305263
 20
1998.858713346093
 10
803.8268565740944
 20
1998.898651846514
 10
803.8435999214652
 20
1998.939292410365
 10
803.8587046868547
 20
1998.980570021412
 10
803.8721467058604
 20
1999.022418644285
 10
803.8839044741193
 20
1999.064771330113
 10
803.8939591817102
 20
1999.107560323634
 10
803.9022947432464
 20
1999.150717171585
 10
803.9088978236071
 20
1999.194172832218
 10
803.9137578592725
 20
1999.237857785745
 10
803.9168670752223
 20
1999.281702145558
 10
803.9182204973741
 20
1999.325635770036
 10
803.9178159605413
 20
1999.36958837475
 10
803.9156541118964
 20
1999.413489644911
 10
803.9117384099363
 20
1999.45726934785
 10
803.9060751189488
 20
1999.500857445382
 10
803.898673298991
 20
1999.544184205849
 10
803.8895447913962
 20
1999.587180315678
 10
803.8787041998293
 20
1999.629776990263
 10
803.866168866924
 20
1999.671906084014
 10
803.8519588465391
 20
1999.713500199366
 10
803.8360968716757
 20
1999.754492794608
 10
803.8186083181102
 20
1999.794818290333
 10
803.7995211637973
 20
1999.83441217435
 10
803.7788659441126
 20
1999.873211104889
 10
803.7566757030006
 20
1999.911153011941
 10
803.7329859401143
 20
1999.948177196545
 10
803.7078345540203
 20
1999.984224427907
 10
803.681261781571
 20
2000.019237038144
 10
803.653310133534
 20
2000.05315901455
 10
803.6240243265833
 20
2000.085936089199
 10
803.5934512117625
 20
2000.117515825762
 10
803.5616396995338
 20
2000.1478477034
 10
803.5286406815306
 20
2000.176883197577
 10
803.4945069491419
 20
2000.204575857696
 10
803.4592931090585
 20
2000.23088138141
 10
803.4230554959124
 20
2000.255757685491
 10
803.3858520821548
 20
2000.27916497316
 10
803.3477423853106
 20
2000.30106579775
  0
LWPOLYLINE
  5
8F
330
87
100
AcDbEntity
  8
P-SANR-FIXT
100
AcDbPolyline
 90
       10
 70
   128
 43
0.0
 10
803.3087873727657
 20
2000.321425122614
 10
803.2690493642302
 20
2000.340210377174
 10
803.2285919320404
 20
2000.357391509032
 10
803.1874797994579
 20
2000.372941032039
 10
803.1457787371241
 20
2000.386834070278
 10
803.1035554578433
 20
2000.399048397851
 10
803.0608775098555
 20
2000.409564474439
 10
803.0178131687726
 20
2000.418365476563
 10
802.9744313283545
 20
2000.425437324497
 10
802.9722918041578
 20
2000.425740160345
  0
LINE
  5
90
330
87
100
AcDbEntity
  8
P-SANR-FIXT
100
AcDbLine
 10
802.6664074431929
 20
1998.249259839784
 30
0.0
 11
802.6664074431929
 21
1995.30352540388
 31
0.0
  0
LINE
  5
91
330
87
100
AcDbEntity
  8
P-SANR-FIXT
100
AcDbLine
 10
828.6664074431856
 20
1995.30352540388
 30
0.0
 11
828.6664074431856
 21
1998.249259839784
 31
0.0
  0
LINE
  5
92
330
87
100
AcDbEntity
  8
P-SANR-FIXT
100
AcDbLine
 10
802.6664074431897
 20
2014.937500000174
 30
0.0
 11
802.6664074431897
 21
2012.437499999998
 31
0.0
  0
LINE
  5
93
330
87
100
AcDbEntity
  8
P-SANR-FIXT
100
AcDbLine
 10
828.6664074431886
 20
2012.437499999998
 30
0.0
 11
828.6664074431886
 21
2014.937500000175
 31
0.0
  0
LINE
  5
94
330
87
100
AcDbEntity
  8
P-SANR-FIXT
100
AcDbLine
 10
790.1664074431892
 20
2058.175937761038
 30
0.0
 11
789.1664074431896
 21
2058.187500000176
 31
0.0
  0
LWPOLYLINE
  5
95
330
87
100
AcDbEntity
  8
P-SANR-FIXT
100
AcDbPolyline
 90
       30
 70
   128
 43
0.0
 10
831.3030897995561
 20
2024.687500000111
 10
830.8794889396937
 20
2026.36471891232
 10
830.3891560477529
 20
2028.023656711948
 10
829.8328755517621
 20
2029.6616594524
 10
829.2115373818482
 20
2031.276106678715
 10
828.5261355465378
 20
2032.864415619728
 10
827.7777665425563
 20
2034.424045319955
 10
826.9676276006665
 20
2035.952500704578
 10
826.0970147703549
 20
2037.447336571034
 10
825.1673208464293
 20
2038.90616150082
 10
824.1800331408436
 20
2040.326641685247
 10
823.1367311033167
 20
2041.706504659039
 10
822.0390837945497
 20
2043.043542935793
 10
820.8888472160843
 20
2044.335617539486
 10
819.6878615010747
 20
2045.58066142638
 10
818.4380479704691
 20
2046.776682791851
 10
817.1414060593034
 20
2047.921768256853
 10
815.8000101180332
 20
2049.014085928912
 10
814.4160060940158
 20
2050.05188833277
 10
812.9916080984505
 20
2051.033515205965
 10
811.5290948642753
 20
2051.957396154903
 10
810.0308061006787
 20
2052.822053167151
 10
808.4991387500643
 20
2053.626102975938
 10
806.9365431534551
 20
2054.368259273093
 10
805.3455191304696
 20
2055.047334766857
 10
803.7286119801439
 20
2055.662243081304
 10
802.0884084089972
 20
2056.212000494302
 10
800.4275323928519
 20
2056.695727511268
 10
798.7486409790321
 20
2057.112650272161
 10
798.1664074431895
 20
2057.240720917737
  0
LWPOLYLINE
  5
96
330
87
100
AcDbEntity
  8
P-SANR-FIXT
100
AcDbPolyline
 90
        3
 70
   128
 43
0.0
 10
832.4164074431907
 20
2014.937500000175
 10
832.381812056278
 20
2016.667038703746
 10
832.3809883158546
 20
2016.687500000175
  0
LWPOLYLINE
  5
97
330
87
100
AcDbEntity
  8
P-SANR-FIXT
100
AcDbPolyline
 90
       41
 70
   128
 43
0.0
 10
789.1664074431896
 20
2024.687500000176
 10
789.5563034515093
 20
2024.67970104012
 10
789.9455757093891
 20
2024.656316636626
 10
790.3336014642566
 20
2024.617384199751
 10
790.7197599576786
 20
2024.562966013088
 10
791.1034334184417
 20
2024.493149134128
 10
791.4840080508545
 20
2024.408045254983
 10
791.86087501669
 20
2024.307790523705
 10
792.2334314091971
 20
2024.192545326479
 10
792.6010812176223
 20
2024.062494031035
 10
792.9632362806994
 20
2023.917844691704
 10
793.3193172275836
 20
2023.75882871657
 10
793.6687544047197
 20
2023.585700497273
 10
794.0109887871666
 20
2023.398737002032
 10
794.3454728729188
 20
2023.198237332556
 10
794.6716715587918
 20
2022.984522245545
 10
794.9890629964738
 20
2022.757933639547
 10
795.2971394273704
 20
2022.518834007997
 10
795.5954079949123
 20
2022.267605859299
 10
795.8833915330183
 20
2022.004651104899
 10
796.1606293294607
 20
2021.73039041631
 10
796.4266778629064
 20
2021.445262552128
 10
796.6811115124555
 20
2021.149723656111
 10
796.923523238545
 20
2020.844246527449
 10
797.1535252341253
 20
2020.529319864381
 10
797.3707495450675
 20
2020.205447482389
 10
797.5748486588131
 20
2019.873147508195
 10
797.7654960603188
 20
2019.532951550869
 10
797.9423867544116
 20
2019.185403851373
 10
798.1052377537154
 20
2018.831060411886
 10
798.2537885313711
 20
2018.470488106322
 10
798.3878014378237
 20
2018.104263773453
 10
798.5070620810107
 20
2017.732973294086
 10
798.6113796693438
 20
2017.357210653786
 10
798.700587316935
 20
2016.977576992616
 10
798.7745423105783
 20
2016.594679643452
 10
798.8331263380596
 20
2016.209131160371
 10
798.8762456774327
 20
2015.821548338702
 10
798.9038313469526
 20
2015.432551228277
 10
798.915839215433
 20
2015.042762141493
 10
798.9164074431908
 20
2014.937500000174
  0
LINE
  5
98
330
87
100
AcDbEntity
  8
P-SANR-FIXT
100
AcDbLine
 10
789.1664074431896
 20
2052.087500000238
 30
0.0
 11
775.9664074431729
 21
2052.087500000238
 31
0.0
  0
LINE
  5
99
330
87
100
AcDbEntity
  8
P-SANR-FIXT
100
AcDbLine
 10
775.9664074431729
 20
2030.787500000112
 30
0.0
 11
789.1664074431896
 21
2030.787500000112
 31
0.0
  0
LINE
  5
9A
330
87
100
AcDbEntity
  8
P-SANR-FIXT
100
AcDbLine
 10
775.9664074431729
 20
2052.087500000238
 30
0.0
 11
774.6664074431898
 21
2050.787500000255
 31
0.0
  0
LINE
  5
9B
330
87
100
AcDbEntity
  8
P-SANR-FIXT
100
AcDbLine
 10
774.6664074431895
 20
2032.087500000095
 30
0.0
 11
775.9664074431729
 21
2030.787500000112
 31
0.0
  0
LINE
  5
9C
330
87
100
AcDbEntity
  8
P-SANR-FIXT
100
AcDbLine
 10
828.6664074431842
 20
1995.30352540388
 30
0.0
 11
802.6664074431915
 21
1995.30352540388
 31
0.0
  0
LINE
  5
9D
330
87
100
AcDbEntity
  8
P-SANR-FIXT
100
AcDbLine
 10
804.1664074432699
 20
1994.437500000065
 30
0.0
 11
827.1664074431058
 21
1994.437500000065
 31
0.0
  0
LINE
  5
9E
330
87
100
AcDbEntity
  8
P-SANR-FIXT
100
AcDbLine
 10
802.9722918041564
 20
2000.425740160344
 30
0.0
 11
828.3605230822193
 21
2000.425740160344
 31
0.0
  0
LINE
  5
9F
330
87
100
AcDbEntity
  8
P-SANR-FIXT
100
AcDbLine
 10
802.6664074431915
 20
1998.249259839784
 30
0.0
 11
828.6664074431842
 21
1998.249259839784
 31
0.0
  0
LINE
  5
A0
330
87
100
AcDbEntity
  8
P-SANR-FIXT
100
AcDbLine
 10
789.1664074431883
 20
2024.687500000175
 30
0.0
 11
789.1664074431883
 21
2058.187500000175
 31
0.0
  0
LINE
  5
A1
330
87
100
AcDbEntity
  8
P-SANR-FIXT
100
AcDbLine
 10
832.4164074431894
 20
2014.937500000174
 30
0.0
 11
798.9164074431894
 21
2014.937500000174
 31
0.0
  0
ARC
  5
A2
330
87
100
AcDbEntity
  8
P-SANR-FIXT
100
AcDbCircle
 10
789.1664074431883
 20
2014.937500000174
 30
0.0
 40
42.48632227874918
100
AcDbArc
 50
2.360665331055833
 51
13.26678993379748
  0
ARC
  5
A3
330
87
100
AcDbEntity
  8
P-SANR-FIXT
100
AcDbCircle
 10
789.1664074431883
 20
2014.937500000174
 30
0.0
 40
42.48632227874948
100
AcDbArc
 50
77.77021465654617
 51
88.65130545617207
  0
ARC
  5
A4
330
87
100
AcDbEntity
  8
P-SANR-FIXT
100
AcDbCircle
 10
833.3664074431885
 20
2017.687500000174
 30
0.0
 40
0.9999999999998863
100
AcDbArc
 50
269.9999999999997
 51
0.0
  0
LINE
  5
A5
330
87
100
AcDbEntity
  8
P-SANR-FIXT
100
AcDbLine
 10
834.3664074431885
 20
2017.687500000174
 30
0.0
 11
834.3664074431885
 21
2023.68750000011
 31
0.0
  0
ARC
  5
A6
330
87
100
AcDbEntity
  8
P-SANR-FIXT
100
AcDbCircle
 10
833.3664074431885
 20
2023.68750000011
 30
0.0
 40
1.0
100
AcDbArc
 50
0.0
 51
90.0
  0
LINE
  5
A7
330
87
100
AcDbEntity
  8
P-SANR-FIXT
100
AcDbLine
 10
833.3664074431885
 20
2024.68750000011
 30
0.0
 11
830.5188569567899
 21
2024.68750000011
 31
0.0
  0
LINE
  5
A8
330
87
100
AcDbEntity
  8
P-SANR-FIXT
100
AcDbLine
 10
831.6166734114215
 20
2016.687500000174
 30
0.0
 11
833.3664074431885
 21
2016.687500000174
 31
0.0
  0
ARC
  5
A9
330
87
100
AcDbEntity
  8
P-SANR-FIXT
100
AcDbCircle
 10
797.166407443188
 20
2059.887500000174
 30
0.0
 40
1.000000000000113
100
AcDbArc
 50
0.0
 51
90.0
  0
LINE
  5
AA
330
87
100
AcDbEntity
  8
P-SANR-FIXT
100
AcDbLine
 10
797.166407443188
 20
2060.887500000174
 30
0.0
 11
791.1664074431878
 21
2060.887500000174
 31
0.0
  0
ARC
  5
AB
330
87
100
AcDbEntity
  8
P-SANR-FIXT
100
AcDbCircle
 10
791.1664074431878
 20
2059.887500000174
 30
0.0
 40
1.0
100
AcDbArc
 50
90.0
 51
180.0
  0
LINE
  5
AC
330
87
100
AcDbEntity
  8
P-SANR-FIXT
100
AcDbLine
 10
790.1664074431878
 20
2059.887500000174
 30
0.0
 11
790.1664074431878
 21
2057.412052155244
 31
0.0
  0
LINE
  5
AD
330
87
100
AcDbEntity
  8
P-SANR-FIXT
100
AcDbLine
 10
798.1664074431882
 20
2056.459633625191
 30
0.0
 11
798.1664074431882
 21
2059.887500000174
 31
0.0
  0
LINE
  5
AE
330
87
100
AcDbEntity
  8
P-SANR-FIXT
100
AcDbLine
 10
774.6664074431882
 20
2032.087500000094
 30
0.0
 11
774.6664074431885
 21
2050.787500000254
 31
0.0
  0
LINE
  5
AF
330
87
100
AcDbEntity
  8
P-SANR-FIXT
100
AcDbLine
 10
775.9664074431715
 20
2052.087500000237
 30
0.0
 11
775.9664074431714
 21
2030.787500000111
 31
0.0
  0
LINE
  5
B0
330
87
100
AcDbEntity
  8
P-SANR-FIXT
100
AcDbLine
 10
799.5164074431889
 20
2012.437499999998
 30
0.0
 11
797.6664074431893
 21
2011.369402001998
 31
0.0
  0
LINE
  5
B1
330
87
100
AcDbEntity
  8
P-SANR-FIXT
100
AcDbLine
 10
833.666407443189
 20
2011.369402001998
 30
0.0
 11
831.8164074431892
 21
2012.437499999998
 31
0.0
  0
LINE
  5
B2
330
87
100
AcDbEntity
  8
P-SANR-FIXT
100
AcDbLine
 10
797.6664074431893
 20
1926.952252374075
 30
0.0
 11
797.6664074431893
 21
1917.44786297108
 31
0.0
  0
LINE
  5
B3
330
87
100
AcDbEntity
  8
P-SANR-FIXT
100
AcDbLine
 10
833.666407443189
 20
1917.44786297108
 30
0.0
 11
833.666407443189
 21
1926.952252374075
 31
0.0
  0
LINE
  5
B4
330
87
100
AcDbEntity
  8
P-SANR-FIXT
100
AcDbLine
 10
797.6664074431893
 20
1917.44786297108
 30
0.0
 11
799.4164074431891
 21
1916.437499999998
 31
0.0
  0
LINE
  5
B5
330
87
100
AcDbEntity
  8
P-SANR-FIXT
100
AcDbLine
 10
831.9164074431892
 20
1916.437499999998
 30
0.0
 11
833.666407443189
 21
1917.44786297108
 31
0.0
  0
LINE
  5
B6
330
87
100
AcDbEntity
  8
P-SANR-FIXT
100
AcDbLine
 10
797.6664074431893
 20
2011.369402001998
 30
0.0
 11
797.6664074431893
 21
2003.737499999998
 31
0.0
  0
LINE
  5
B7
330
87
100
AcDbEntity
  8
P-SANR-FIXT
100
AcDbLine
 10
833.666407443189
 20
2003.737499999998
 30
0.0
 11
833.666407443189
 21
2011.369402001998
 31
0.0
  0
LINE
  5
B8
330
87
100
AcDbEntity
  8
P-SANR-FIXT
100
AcDbLine
 10
799.5164074431889
 20
2003.737499999998
 30
0.0
 11
799.5164074431889
 21
2000.737499999998
 31
0.0
  0
LINE
  5
B9
330
87
100
AcDbEntity
  8
P-SANR-FIXT
100
AcDbLine
 10
831.8164074431892
 20
2000.737499999998
 30
0.0
 11
831.8164074431892
 21
2003.737499999998
 31
0.0
  0
LINE
  5
BA
330
87
100
AcDbEntity
  8
P-SANR-FIXT
100
AcDbLine
 10
799.5164074431889
 20
2000.737499999998
 30
0.0
 11
788.4164074431891
 21
1970.937499999998
 31
0.0
  0
LINE
  5
BB
330
87
100
AcDbEntity
  8
P-SANR-FIXT
100
AcDbLine
 10
842.9164074431891
 20
1970.937499999998
 30
0.0
 11
831.8164074431892
 21
2000.737499999998
 31
0.0
  0
LINE
  5
BC
330
87
100
AcDbEntity
  8
P-SANR-FIXT
100
AcDbLine
 10
788.4164074431891
 20
1970.937499999998
 30
0.0
 11
788.4164074431891
 21
1961.473722344088
 31
0.0
  0
LINE
  5
BD
330
87
100
AcDbEntity
  8
P-SANR-FIXT
100
AcDbLine
 10
842.9164074431891
 20
1961.473722344088
 30
0.0
 11
842.9164074431891
 21
1970.937499999998
 31
0.0
  0
LINE
  5
BE
330
87
100
AcDbEntity
  8
P-SANR-FIXT
100
AcDbLine
 10
788.4164074431891
 20
1961.473722344088
 30
0.0
 11
797.6664074431893
 21
1926.952252374075
 31
0.0
  0
LINE
  5
BF
330
87
100
AcDbEntity
  8
P-SANR-FIXT
100
AcDbLine
 10
833.666407443189
 20
1926.952252374075
 30
0.0
 11
842.9164074431891
 21
1961.473722344088
 31
0.0
  0
LINE
  5
C0
330
87
100
AcDbEntity
  8
P-SANR-FIXT
100
AcDbLine
 10
815.6664074431878
 20
2012.437499999997
 30
0.0
 11
799.5164074431878
 21
2012.437499999997
 31
0.0
  0
SPLINE
  5
C1
330
87
100
AcDbEntity
  8
P-SANR-FIXT
100
AcDbSpline
210
0.0
220
0.0
230
1.0
 70
     8
 71
     3
 72
     9
 73
     5
 74
     0
 42
0.000000001
 43
0.0000000001
 40
-1.0
 40
-1.0
 40
-1.0
 40
-1.0
 40
-0.5
 40
0.0
 40
0.0
 40
0.0
 40
0.0
 10
797.7801146382602
 20
2011.369402001997
 30
0.0
 10
798.9991159694113
 20
2011.946710099573
 30
0.0
 10
801.4170751813905
 20
2012.52401819715
 30
0.0
 10
803.7949474927236
 20
2011.946710099573
 30
0.0
 10
804.9738619232288
 20
2011.369402001997
 30
0.0
  0
SPLINE
  5
C2
330
87
100
AcDbEntity
  8
P-SANR-FIXT
100
AcDbSpline
210
0.0
220
0.0
230
1.0
 70
     8
 71
     3
 72
     9
 73
     5
 74
     0
 42
0.000000001
 43
0.0000000001
 40
-1.0
 40
-1.0
 40
-1.0
 40
-1.0
 40
-0.5
 40
0.0
 40
0.0
 40
0.0
 40
0.0
 10
808.472660158219
 20
2011.369402001997
 30
0.0
 10
809.655542594641
 20
2011.651284543317
 30
0.0
 10
812.0373829118912
 20
2012.077504651935
 30
0.0
 10
814.4513741179535
 20
2012.228634812507
 30
0.0
 10
815.6664074431878
 20
2012.235427405781
 30
0.0
  0
LINE
  5
C3
330
87
100
AcDbEntity
  8
P-SANR-FIXT
100
AcDbLine
 10
831.8164074431878
 20
2012.437499999997
 30
0.0
 11
815.666407443188
 21
2012.437499999997
 31
0.0
  0
SPLINE
  5
C4
330
87
100
AcDbEntity
  8
P-SANR-FIXT
100
AcDbSpline
210
0.0
220
0.0
230
1.0
 70
     8
 71
     3
 72
     9
 73
     5
 74
     0
 42
0.000000001
 43
0.0000000001
 40
-1.0
 40
-1.0
 40
-1.0
 40
-1.0
 40
-0.5
 40
0.0
 40
0.0
 40
0.0
 40
0.0
 10
815.6664074431878
 20
2012.235427405781
 30
0.0
 10
816.8814407684219
 20
2012.228634812507
 30
0.0
 10
819.2954319744842
 20
2012.077504651935
 30
0.0
 10
821.6772722917344
 20
2011.651284543317
 30
0.0
 10
822.8601547281563
 20
2011.369402001997
 30
0.0
  0
SPLINE
  5
C5
330
87
100
AcDbEntity
  8
P-SANR-FIXT
100
AcDbSpline
210
0.0
220
0.0
230
1.0
 70
     8
 71
     3
 72
     9
 73
     5
 74
     0
 42
0.000000001
 43
0.0000000001
 40
-1.0
 40
-1.0
 40
-1.0
 40
-1.0
 40
-0.5
 40
0.0
 40
0.0
 40
0.0
 40
0.0
 10
826.3589529631465
 20
2011.369402001997
 30
0.0
 10
827.5779542942977
 20
2011.946710099573
 30
0.0
 10
829.9959135062769
 20
2012.52401819715
 30
0.0
 10
832.3737858176102
 20
2011.946710099573
 30
0.0
 10
833.5527002481153
 20
2011.369402001997
 30
0.0
  0
LINE
  5
C6
330
87
100
AcDbEntity
  8
P-SANR-FIXT
100
AcDbLine
 10
797.7801146382602
 20
1926.952252374075
 30
0.0
 11
797.6664074431879
 21
1926.952252374075
 31
0.0
  0
LINE
  5
C7
330
87
100
AcDbEntity
  8
P-SANR-FIXT
100
AcDbLine
 10
797.7801146382602
 20
1917.447862971078
 30
0.0
 11
797.7801146382602
 21
1926.952252374075
 31
0.0
  0
LINE
  5
C8
330
87
100
AcDbEntity
  8
P-SANR-FIXT
100
AcDbLine
 10
808.472660158219
 20
1926.952252374075
 30
0.0
 11
804.9738619232289
 21
1926.952252374075
 31
0.0
  0
LINE
  5
C9
330
87
100
AcDbEntity
  8
P-SANR-FIXT
100
AcDbLine
 10
804.9738619232289
 20
1926.952252374075
 30
0.0
 11
804.9738619232289
 21
1917.447862971078
 31
0.0
  0
LINE
  5
CA
330
87
100
AcDbEntity
  8
P-SANR-FIXT
100
AcDbLine
 10
808.472660158219
 20
1917.447862971078
 30
0.0
 11
808.472660158219
 21
1926.952252374075
 31
0.0
  0
LINE
  5
CB
330
87
100
AcDbEntity
  8
P-SANR-FIXT
100
AcDbLine
 10
826.3589529631467
 20
1926.952252374075
 30
0.0
 11
822.8601547281565
 21
1926.952252374075
 31
0.0
  0
LINE
  5
CC
330
87
100
AcDbEntity
  8
P-SANR-FIXT
100
AcDbLine
 10
822.8601547281567
 20
1926.952252374075
 30
0.0
 11
822.8601547281567
 21
1917.447862971078
 31
0.0
  0
LINE
  5
CD
330
87
100
AcDbEntity
  8
P-SANR-FIXT
100
AcDbLine
 10
826.3589529631467
 20
1917.447862971078
 30
0.0
 11
826.3589529631467
 21
1926.952252374075
 31
0.0
  0
LINE
  5
CE
330
87
100
AcDbEntity
  8
P-SANR-FIXT
100
AcDbLine
 10
833.6664074431876
 20
1926.952252374075
 30
0.0
 11
833.5527002481153
 21
1926.952252374075
 31
0.0
  0
LINE
  5
CF
330
87
100
AcDbEntity
  8
P-SANR-FIXT
100
AcDbLine
 10
833.5527002481153
 20
1926.952252374075
 30
0.0
 11
833.5527002481153
 21
1917.447862971078
 31
0.0
  0
SPLINE
  5
D0
330
87
100
AcDbEntity
  8
P-SANR-FIXT
100
AcDbSpline
210
0.0
220
0.0
230
1.0
 70
     8
 71
     3
 72
     9
 73
     5
 74
     0
 42
0.000000001
 43
0.0000000001
 40
-1.0
 40
-1.0
 40
-1.0
 40
-1.0
 40
-0.5
 40
0.0
 40
0.0
 40
0.0
 40
0.0
 10
815.6664074431878
 20
1916.581837567295
 30
0.0
 10
814.4513741179535
 20
1916.588630160569
 30
0.0
 10
812.0373829118914
 20
1916.73976032114
 30
0.0
 10
809.655542594641
 20
1917.165980429758
 30
0.0
 10
808.472660158219
 20
1917.447862971078
 30
0.0
  0
LINE
  5
D1
330
87
100
AcDbEntity
  8
P-SANR-FIXT
100
AcDbLine
 10
804.9738619232288
 20
1917.447862971078
 30
0.0
 11
808.472660158219
 21
1917.447862971078
 31
0.0
  0
SPLINE
  5
D2
330
87
100
AcDbEntity
  8
P-SANR-FIXT
100
AcDbSpline
210
0.0
220
0.0
230
1.0
 70
     8
 71
     3
 72
     9
 73
     5
 74
     0
 42
0.000000001
 43
0.0000000001
 40
-1.0
 40
-1.0
 40
-1.0
 40
-1.0
 40
-0.5
 40
0.0
 40
0.0
 40
0.0
 40
0.0
 10
804.9738619232289
 20
1917.447862971078
 30
0.0
 10
803.7949474927238
 20
1916.870554873502
 30
0.0
 10
801.4170751813905
 20
1916.293246775925
 30
0.0
 10
798.9991159694113
 20
1916.870554873502
 30
0.0
 10
797.7801146382602
 20
1917.447862971078
 30
0.0
  0
LINE
  5
D3
330
87
100
AcDbEntity
  8
P-SANR-FIXT
100
AcDbLine
 10
797.6664074431879
 20
1917.447862971078
 30
0.0
 11
797.7801146382602
 21
1917.447862971078
 31
0.0
  0
LINE
  5
D4
330
87
100
AcDbEntity
  8
P-SANR-FIXT
100
AcDbLine
 10
833.5527002481153
 20
1917.447862971078
 30
0.0
 11
833.6664074431876
 21
1917.447862971078
 31
0.0
  0
SPLINE
  5
D5
330
87
100
AcDbEntity
  8
P-SANR-FIXT
100
AcDbSpline
210
0.0
220
0.0
230
1.0
 70
     8
 71
     3
 72
     9
 73
     5
 74
     0
 42
0.000000001
 43
0.0000000001
 40
-1.0
 40
-1.0
 40
-1.0
 40
-1.0
 40
-0.5
 40
0.0
 40
0.0
 40
0.0
 40
0.0
 10
833.5527002481153
 20
1917.447862971078
 30
0.0
 10
832.3737858176102
 20
1916.870554873502
 30
0.0
 10
829.9959135062771
 20
1916.293246775925
 30
0.0
 10
827.5779542942977
 20
1916.870554873502
 30
0.0
 10
826.3589529631467
 20
1917.447862971078
 30
0.0
  0
LINE
  5
D6
330
87
100
AcDbEntity
  8
P-SANR-FIXT
100
AcDbLine
 10
822.8601547281563
 20
1917.447862971078
 30
0.0
 11
826.3589529631465
 21
1917.447862971078
 31
0.0
  0
SPLINE
  5
D7
330
87
100
AcDbEntity
  8
P-SANR-FIXT
100
AcDbSpline
210
0.0
220
0.0
230
1.0
 70
     8
 71
     3
 72
     9
 73
     5
 74
     0
 42
0.000000001
 43
0.0000000001
 40
-1.0
 40
-1.0
 40
-1.0
 40
-1.0
 40
-0.5
 40
0.0
 40
0.0
 40
0.0
 40
0.0
 10
822.8601547281565
 20
1917.447862971078
 30
0.0
 10
821.6772722917344
 20
1917.165980429758
 30
0.0
 10
819.2954319744842
 20
1916.73976032114
 30
0.0
 10
816.8814407684219
 20
1916.588630160569
 30
0.0
 10
815.6664074431878
 20
1916.581837567295
 30
0.0
  0
LINE
  5
D8
330
87
100
AcDbEntity
  8
P-SANR-FIXT
100
AcDbLine
 10
799.4164074431878
 20
1916.437499999997
 30
0.0
 11
815.6664074431876
 21
1916.437499999997
 31
0.0
  0
LINE
  5
D9
330
87
100
AcDbEntity
  8
P-SANR-FIXT
100
AcDbLine
 10
815.6664074431878
 20
1916.437499999997
 30
0.0
 11
831.9164074431878
 21
1916.437499999997
 31
0.0
  0
LINE
  5
DA
330
87
100
AcDbEntity
  8
P-SANR-FIXT
100
AcDbLine
 10
797.6664074431879
 20
2011.369402001997
 30
0.0
 11
797.7801146382601
 21
2011.369402001997
 31
0.0
  0
LINE
  5
DB
330
87
100
AcDbEntity
  8
P-SANR-FIXT
100
AcDbLine
 10
797.7801146382602
 20
2003.737499999997
 30
0.0
 11
797.7801146382602
 21
2011.369402001997
 31
0.0
  0
LINE
  5
DC
330
87
100
AcDbEntity
  8
P-SANR-FIXT
100
AcDbLine
 10
804.9738619232286
 20
2011.369402001997
 30
0.0
 11
808.4726601582188
 21
2011.369402001997
 31
0.0
  0
LINE
  5
DD
330
87
100
AcDbEntity
  8
P-SANR-FIXT
100
AcDbLine
 10
804.9738619232288
 20
2011.369402001997
 30
0.0
 11
804.9738619232288
 21
2003.737499999997
 31
0.0
  0
LINE
  5
DE
330
87
100
AcDbEntity
  8
P-SANR-FIXT
100
AcDbLine
 10
808.472660158219
 20
2003.737499999997
 30
0.0
 11
808.472660158219
 21
2011.369402001997
 31
0.0
  0
LINE
  5
DF
330
87
100
AcDbEntity
  8
P-SANR-FIXT
100
AcDbLine
 10
822.8601547281561
 20
2011.369402001997
 30
0.0
 11
826.3589529631463
 21
2011.369402001997
 31
0.0
  0
LINE
  5
E0
330
87
100
AcDbEntity
  8
P-SANR-FIXT
100
AcDbLine
 10
822.8601547281565
 20
2011.369402001997
 30
0.0
 11
822.8601547281565
 21
2003.737499999997
 31
0.0
  0
LINE
  5
E1
330
87
100
AcDbEntity
  8
P-SANR-FIXT
100
AcDbLine
 10
826.3589529631467
 20
2011.369402001997
 30
0.0
 11
826.3589529631467
 21
2003.737499999997
 31
0.0
  0
LINE
  5
E2
330
87
100
AcDbEntity
  8
P-SANR-FIXT
100
AcDbLine
 10
833.5527002481153
 20
2011.369402001997
 30
0.0
 11
833.6664074431876
 21
2011.369402001997
 31
0.0
  0
LINE
  5
E3
330
87
100
AcDbEntity
  8
P-SANR-FIXT
100
AcDbLine
 10
833.5527002481153
 20
2003.737499999997
 30
0.0
 11
833.5527002481153
 21
2011.369402001997
 31
0.0
  0
LINE
  5
E4
330
87
100
AcDbEntity
  8
P-SANR-FIXT
100
AcDbLine
 10
815.6664074431878
 20
2003.737499999997
 30
0.0
 11
808.472660158219
 21
2003.737499999997
 31
0.0
  0
LINE
  5
E5
330
87
100
AcDbEntity
  8
P-SANR-FIXT
100
AcDbLine
 10
804.9738619232286
 20
2003.737499999997
 30
0.0
 11
808.4726601582188
 21
2003.737499999997
 31
0.0
  0
LINE
  5
E6
330
87
100
AcDbEntity
  8
P-SANR-FIXT
100
AcDbLine
 10
804.9738619232288
 20
2003.737499999997
 30
0.0
 11
797.7801146382602
 21
2003.737499999997
 31
0.0
  0
LINE
  5
E7
330
87
100
AcDbEntity
  8
P-SANR-FIXT
100
AcDbLine
 10
797.6664074431879
 20
2003.737499999997
 30
0.0
 11
797.7801146382601
 21
2003.737499999997
 31
0.0
  0
LINE
  5
E8
330
87
100
AcDbEntity
  8
P-SANR-FIXT
100
AcDbLine
 10
833.5527002481153
 20
2003.737499999997
 30
0.0
 11
833.6664074431876
 21
2003.737499999997
 31
0.0
  0
LINE
  5
E9
330
87
100
AcDbEntity
  8
P-SANR-FIXT
100
AcDbLine
 10
826.3589529631465
 20
2003.737499999997
 30
0.0
 11
833.5527002481153
 21
2003.737499999997
 31
0.0
  0
LINE
  5
EA
330
87
100
AcDbEntity
  8
P-SANR-FIXT
100
AcDbLine
 10
822.8601547281561
 20
2003.737499999997
 30
0.0
 11
826.3589529631463
 21
2003.737499999997
 31
0.0
  0
LINE
  5
EB
330
87
100
AcDbEntity
  8
P-SANR-FIXT
100
AcDbLine
 10
822.8601547281563
 20
2003.737499999997
 30
0.0
 11
815.666407443188
 21
2003.737499999997
 31
0.0
  0
LINE
  5
EC
330
87
100
AcDbEntity
  8
P-SANR-FIXT
100
AcDbLine
 10
802.9749852037346
 20
2000.69607593855
 30
0.0
 11
815.6664074431878
 21
2000.69607593855
 31
0.0
  0
LINE
  5
ED
330
87
100
AcDbEntity
  8
P-SANR-FIXT
100
AcDbLine
 10
815.666407443188
 20
2000.69607593855
 30
0.0
 11
828.3484238186233
 21
2000.69607593855
 31
0.0
  0
LINE
  5
EE
330
87
100
AcDbEntity
  8
P-SANR-FIXT
100
AcDbLine
 10
799.5164074431878
 20
2000.737499999997
 30
0.0
 11
802.9749852037344
 21
2000.737499999997
 31
0.0
  0
LWPOLYLINE
  5
EF
330
87
100
AcDbEntity
  8
P-SANR-FIXT
100
AcDbPolyline
 90
        3
 70
   128
 43
0.0
 10
790.3175909027652
 20
1970.937499999997
 10
796.4510793462389
 20
1985.940349017432
 10
802.9848263114834
 20
2000.737499999997
  0
LINE
  5
F0
330
87
100
AcDbEntity
  8
P-SANR-FIXT
100
AcDbLine
 10
828.357829682641
 20
2000.737499999997
 30
0.0
 11
831.8164074431878
 21
2000.737499999997
 31
0.0
  0
LWPOLYLINE
  5
F1
330
87
100
AcDbEntity
  8
P-SANR-FIXT
100
AcDbPolyline
 90
        3
 70
   128
 43
0.0
 10
828.3479885748921
 20
2000.737499999997
 10
834.8817355401367
 20
1985.940349017432
 10
841.0152239836104
 20
1970.937499999997
  0
LWPOLYLINE
  5
F2
330
87
100
AcDbEntity
  8
P-SANR-FIXT
100
AcDbPolyline
 90
        7
 70
   128
 43
0.0
 10
815.6664074431878
 20
1970.89607593855
 10
810.2692039842766
 20
1970.89607593855
 10
805.092360874528
 20
1970.89607593855
 10
800.3340226570612
 20
1970.89607593855
 10
796.1775575089541
 20
1970.89607593855
 10
792.7903894865534
 20
1970.89607593855
 10
790.3175909027652
 20
1970.937499999997
  0
LINE
  5
F3
330
87
100
AcDbEntity
  8
P-SANR-FIXT
100
AcDbLine
 10
788.4398431599629
 20
1970.937499999997
 30
0.0
 11
790.3175909027652
 21
1970.937499999997
 31
0.0
  0
LINE
  5
F4
330
87
100
AcDbEntity
  8
P-SANR-FIXT
100
AcDbLine
 10
841.0152239836103
 20
1970.937499999997
 30
0.0
 11
842.8929717264127
 21
1970.937499999997
 31
0.0
  0
LWPOLYLINE
  5
F5
330
87
100
AcDbEntity
  8
P-SANR-FIXT
100
AcDbPolyline
 90
        7
 70
   128
 43
0.0
 10
841.0152239836104
 20
1970.937499999997
 10
838.5426122285561
 20
1970.896075938549
 10
835.1553982818161
 20
1970.896075938549
 10
830.9989135552834
 20
1970.89607593855
 10
826.2405443146702
 20
1970.89607593855
 10
821.0636588094754
 20
1970.89607593855
 10
815.666407443188
 20
1970.89607593855
  0
LINE
  5
F6
330
87
100
AcDbEntity
  8
P-SANR-FIXT
100
AcDbLine
 10
788.4164074431878
 20
1961.473722344087
 30
0.0
 11
815.6664074431875
 21
1961.473722344087
 31
0.0
  0
LINE
  5
F7
330
87
100
AcDbEntity
  8
P-SANR-FIXT
100
AcDbLine
 10
797.7801146382601
 20
1926.952252374075
 30
0.0
 11
804.9738619232286
 21
1926.952252374075
 31
0.0
  0
LINE
  5
F8
330
87
100
AcDbEntity
  8
P-SANR-FIXT
100
AcDbLine
 10
808.4726601582188
 20
1926.952252374075
 30
0.0
 11
815.6664074431876
 21
1926.952252374075
 31
0.0
  0
LINE
  5
F9
330
87
100
AcDbEntity
  8
P-SANR-FIXT
100
AcDbLine
 10
815.6664074431876
 20
1961.473722344087
 30
0.0
 11
842.9164074431877
 21
1961.473722344087
 31
0.0
  0
LINE
  5
FA
330
87
100
AcDbEntity
  8
P-SANR-FIXT
100
AcDbLine
 10
815.666407443188
 20
1926.952252374075
 30
0.0
 11
822.8601547281565
 21
1926.952252374075
 31
0.0
  0
LINE
  5
FB
330
87
100
AcDbEntity
  8
P-SANR-FIXT
100
AcDbLine
 10
826.3589529631467
 20
1926.952252374075
 30
0.0
 11
833.5527002481153
 21
1926.952252374075
 31
0.0
  0
LINE
  5
FC
330
87
100
AcDbEntity
  8
P-SANR-FIXT
100
AcDbLine
 10
802.9424476745184
 20
2000.648103873191
 30
0.0
 11
792.1286722226015
 21
1970.937499999997
 31
0.0
  0
LINE
  5
FD
330
87
100
AcDbEntity
  8
P-SANR-FIXT
100
AcDbLine
 10
839.2041426637739
 20
1970.937499999997
 30
0.0
 11
828.3903672118572
 21
2000.648103873191
 31
0.0
  0
ENDBLK
  5
FF
330
87
100
AcDbEntity
  8
0
100
AcDbBlockEnd
  0
BLOCK
  5
16A
330
101
100
AcDbEntity
  8
0
100
AcDbBlockBegin
  2
Automatic flow rate regulator valve_Caleffi_121 DN15 - 1_2__-V1-Est - Idraulica
 70
     0
 10
0.0
 20
0.0
 30
0.0
  3
Automatic flow rate regulator valve_Caleffi_121 DN15 - 1_2__-V1-Est - Idraulica
  1

  0
LWPOLYLINE
  5
102
330
101
100
AcDbEntity
  8
P-SANR-FIXT
100
AcDbPolyline
 90
       41
 70
   128
 43
0.0
 10
789.1664074431887
 20
1659.997075844259
 10
790.2261247991345
 20
1659.997075844259
 10
791.2841468333716
 20
1659.997075844259
 10
792.3387809363451
 20
1659.997075844259
 10
793.3883399184663
 20
1659.997075844259
 10
794.4311447092581
 20
1659.997075844259
 10
795.465527043508
 20
1659.997075844259
 10
796.4898321301379
 20
1659.997075844259
 10
797.5024212995162
 20
1659.997075844259
 10
798.501674624979
 20
1659.997075844259
 10
799.4859935143682
 20
1659.997075844259
 10
800.4538032674382
 20
1659.997075844259
 10
801.4035555950385
 20
1659.997075844259
 10
802.3337310960481
 20
1659.997075844259
 10
803.2428416880927
 20
1659.997075844259
 10
804.1294329881578
 20
1659.997075844259
 10
804.9920866392929
 20
1659.997075844259
 10
805.8294225796789
 20
1659.997075844259
 10
806.6401012504336
 20
1659.997075844259
 10
807.422825738619
 20
1659.997075844259
 10
808.1763438520269
 20
1659.997075844259
 10
808.8994501224172
 20
1659.997075844259
 10
809.5909877340123
 20
1659.997075844259
 10
810.2498503741532
 20
1659.997075844259
 10
810.8749840031661
 20
1659.997075844259
 10
811.4653885405989
 20
1659.997075844259
 10
812.0201194651382
 20
1659.997075844259
 10
812.5382893256407
 20
1659.997075844259
 10
813.0190691608671
 20
1659.997075844259
 10
813.4616898256416
 20
1659.997075844259
 10
813.8654432213211
 20
1659.997075844259
 10
814.2296834286025
 20
1659.997075844259
 10
814.5538277408542
 20
1659.997075844259
 10
814.8373575963239
 20
1659.997075844259
 10
815.0798194077259
 20
1659.997075844259
 10
815.2808252878839
 20
1659.997075844259
 10
815.4400536702697
 20
1659.997075844259
 10
815.5572498234372
 20
1659.997075844259
 10
815.632226258543
 20
1659.997075844259
 10
815.6648630292838
 20
1659.997075844259
 10
815.6664074431898
 20
1659.997075844259
  0
LWPOLYLINE
  5
103
330
101
100
AcDbEntity
  8
P-SANR-FIXT
100
AcDbPolyline
 90
       41
 70
   128
 43
0.0
 10
815.6664074431901
 20
1693.497075844259
 10
815.6452102697061
 20
1693.497075844259
 10
815.5816526602096
 20
1693.497075844259
 10
815.4758362933176
 20
1693.497075844259
 10
815.3279304526442
 20
1693.497075844259
 10
815.1381717559829
 20
1693.497075844259
 10
814.9068637767689
 20
1693.497075844259
 10
814.6343765584255
 20
1693.497075844259
 10
814.3211460223747
 20
1693.497075844259
 10
813.9676732706554
 20
1693.497075844259
 10
813.5745237842666
 20
1693.497075844259
 10
813.142326518519
 20
1693.497075844259
 10
812.671772896841
 20
1693.497075844259
 10
812.1636157046477
 20
1693.497075844259
 10
811.6186678850453
 20
1693.497075844259
 10
811.0378012382964
 20
1693.497075844259
 10
810.4219450271235
 20
1693.497075844259
 10
809.7720844900894
 20
1693.497075844259
 10
809.0892592654235
 20
1693.497075844259
 10
808.3745617278236
 20
1693.497075844259
 10
807.6291352408896
 20
1693.497075844259
 10
806.8541723279842
 20
1693.497075844259
 10
806.050912764452
 20
1693.497075844259
 10
805.2206415942414
 20
1693.497075844259
 10
804.3646870741095
 20
1693.497075844259
 10
803.4844185486953
 20
1693.497075844259
 10
802.5812442598581
 20
1693.497075844259
 10
801.6566090937937
 20
1693.497075844259
 10
800.711992269522
 20
1693.497075844259
 10
799.7489049724556
 20
1693.497075844259
 10
798.7688879368209
 20
1693.497075844259
 10
797.7735089808168
 20
1693.497075844259
 10
796.7643604984361
 20
1693.497075844259
 10
795.7430569119771
 20
1693.497075844259
 10
794.7112320893117
 20
1693.497075844259
 10
793.6705367300454
 20
1693.497075844259
 10
792.6226357247498
 20
1693.497075844259
 10
791.5692054914932
 20
1693.497075844259
 10
790.5119312939287
 20
1693.497075844259
 10
789.4525045452328
 20
1693.497075844259
 10
789.1664074431889
 20
1693.497075844259
  0
LINE
  5
104
330
101
100
AcDbEntity
  8
P-SANR-FIXT
100
AcDbLine
 10
834.3664074431892
 20
1671.747075844259
 30
0.0
 11
834.3664074431892
 21
1681.747075844259
 31
0.0
  0
LINE
  5
105
330
101
100
AcDbEntity
  8
P-SANR-FIXT
100
AcDbLine
 10
798.1664074431886
 20
1671.74707584426
 30
0.0
 11
798.1664074431886
 21
1681.747075844261
 31
0.0
  0
LINE
  5
106
330
101
100
AcDbEntity
  8
P-SANR-FIXT
100
AcDbLine
 10
790.1664074431883
 20
1681.747075844261
 30
0.0
 11
790.1664074431883
 21
1671.74707584426
 31
0.0
  0
LINE
  5
107
330
101
100
AcDbEntity
  8
P-SANR-FIXT
100
AcDbLine
 10
789.1664074431888
 20
1687.397075844322
 30
0.0
 11
775.9664074431721
 21
1687.397075844322
 31
0.0
  0
LINE
  5
108
330
101
100
AcDbEntity
  8
P-SANR-FIXT
100
AcDbLine
 10
775.9664074431722
 20
1666.097075844196
 30
0.0
 11
789.1664074431888
 21
1666.097075844196
 31
0.0
  0
LINE
  5
109
330
101
100
AcDbEntity
  8
P-SANR-FIXT
100
AcDbLine
 10
775.9664074431721
 20
1687.397075844322
 30
0.0
 11
774.6664074431889
 21
1686.097075844339
 31
0.0
  0
LINE
  5
10A
330
101
100
AcDbEntity
  8
P-SANR-FIXT
100
AcDbLine
 10
774.6664074431887
 20
1667.397075844179
 30
0.0
 11
775.9664074431722
 21
1666.097075844196
 31
0.0
  0
LINE
  5
10B
330
101
100
AcDbEntity
  8
P-SANR-FIXT
100
AcDbLine
 10
789.1664074431877
 20
1659.997075844258
 30
0.0
 11
789.1664074431878
 21
1676.747075844259
 31
0.0
  0
LINE
  5
10C
330
101
100
AcDbEntity
  8
P-SANR-FIXT
100
AcDbLine
 10
789.1664074431878
 20
1676.747075844259
 30
0.0
 11
789.166407443188
 21
1693.497075844258
 31
0.0
  0
ARC
  5
10D
330
101
100
AcDbEntity
  8
P-SANR-FIXT
100
AcDbCircle
 10
815.6664074431891
 20
1676.747075844258
 30
0.0
 40
16.74999999999996
100
AcDbArc
 50
54.99999999999994
 51
65.00000000000046
  0
ARC
  5
10E
330
101
100
AcDbEntity
  8
P-SANR-FIXT
100
AcDbCircle
 10
815.6664074431891
 20
1676.747075844258
 30
0.0
 40
16.74999999999993
100
AcDbArc
 50
20.00000000000133
 51
45.00000000000082
  0
ARC
  5
10F
330
101
100
AcDbEntity
  8
P-SANR-FIXT
100
AcDbCircle
 10
815.6664074431891
 20
1676.747075844258
 30
0.0
 40
16.75000000000005
100
AcDbArc
 50
314.9999999999993
 51
339.9999999999999
  0
ARC
  5
110
330
101
100
AcDbEntity
  8
P-SANR-FIXT
100
AcDbCircle
 10
815.6664074431891
 20
1676.747075844258
 30
0.0
 40
16.74999999999989
100
AcDbArc
 50
304.999999999999
 51
309.9999999999992
  0
ARC
  5
111
330
101
100
AcDbEntity
  8
P-SANR-FIXT
100
AcDbCircle
 10
815.6664074431891
 20
1676.747075844258
 30
0.0
 40
16.75000000000004
100
AcDbArc
 50
279.9999999999994
 51
284.999999999999
  0
SPLINE
  5
112
330
101
100
AcDbEntity
  8
P-SANR-FIXT
100
AcDbSpline
210
0.0
220
0.0
230
1.0
 70
     8
 71
     3
 72
     9
 73
     5
 74
     0
 42
0.000000001
 43
0.0000000001
 40
-1.0
 40
-1.0
 40
-1.0
 40
-1.0
 40
-0.5
 40
0.0
 40
0.0
 40
0.0
 40
0.0
 10
830.5188569567896
 20
1671.747075844258
 30
0.0
 10
830.7791456809427
 20
1672.5584284002
 30
0.0
 10
831.1701398788899
 20
1674.203114289474
 30
0.0
 10
831.3019675761191
 20
1675.891761733532
 30
0.0
 10
831.3030897995544
 20
1676.747075844258
 30
0.0
  0
SPLINE
  5
113
330
101
100
AcDbEntity
  8
P-SANR-FIXT
100
AcDbSpline
210
0.0
220
0.0
230
1.0
 70
     8
 71
     3
 72
     9
 73
     5
 74
     0
 42
0.000000001
 43
0.0000000001
 40
-1.0
 40
-1.0
 40
-1.0
 40
-1.0
 40
-0.5
 40
0.0
 40
0.0
 40
0.0
 40
0.0
 10
831.3030897995544
 20
1676.747075844258
 30
0.0
 10
831.3019675761191
 20
1677.602389954984
 30
0.0
 10
831.1701398788899
 20
1679.291037399043
 30
0.0
 10
830.7791456809427
 20
1680.935723288317
 30
0.0
 10
830.5188569567896
 20
1681.747075844258
 30
0.0
  0
LINE
  5
114
330
101
100
AcDbEntity
  8
P-SANR-FIXT
100
AcDbLine
 10
834.3664074431881
 20
1671.747075844258
 30
0.0
 11
833.3664074431881
 21
1671.747075844258
 31
0.0
  0
LINE
  5
115
330
101
100
AcDbEntity
  8
P-SANR-FIXT
100
AcDbLine
 10
833.3664074431881
 20
1671.747075844258
 30
0.0
 11
830.5188569567896
 21
1671.747075844258
 31
0.0
  0
LINE
  5
116
330
101
100
AcDbEntity
  8
P-SANR-FIXT
100
AcDbLine
 10
833.3664074431881
 20
1681.747075844258
 30
0.0
 11
834.3664074431881
 21
1681.747075844258
 31
0.0
  0
LINE
  5
117
330
101
100
AcDbEntity
  8
P-SANR-FIXT
100
AcDbLine
 10
830.5188569567896
 20
1681.747075844258
 30
0.0
 11
833.3664074431881
 21
1681.747075844258
 31
0.0
  0
LINE
  5
118
330
101
100
AcDbEntity
  8
P-SANR-FIXT
100
AcDbLine
 10
798.1664074431876
 20
1671.747075844259
 30
0.0
 11
797.1664074431877
 21
1671.747075844259
 31
0.0
  0
LINE
  5
119
330
101
100
AcDbEntity
  8
P-SANR-FIXT
100
AcDbLine
 10
797.1664074431877
 20
1671.747075844259
 30
0.0
 11
791.1664074431874
 21
1671.747075844259
 31
0.0
  0
LINE
  5
11A
330
101
100
AcDbEntity
  8
P-SANR-FIXT
100
AcDbLine
 10
791.1664074431874
 20
1671.747075844259
 30
0.0
 11
790.1664074431874
 21
1671.747075844259
 31
0.0
  0
LINE
  5
11B
330
101
100
AcDbEntity
  8
P-SANR-FIXT
100
AcDbLine
 10
790.1664074431874
 20
1681.747075844259
 30
0.0
 11
791.1664074431874
 21
1681.747075844259
 31
0.0
  0
LINE
  5
11C
330
101
100
AcDbEntity
  8
P-SANR-FIXT
100
AcDbLine
 10
791.1664074431874
 20
1681.747075844259
 30
0.0
 11
797.1664074431877
 21
1681.747075844259
 31
0.0
  0
LINE
  5
11D
330
101
100
AcDbEntity
  8
P-SANR-FIXT
100
AcDbLine
 10
797.1664074431877
 20
1681.747075844259
 30
0.0
 11
798.1664074431876
 21
1681.747075844259
 31
0.0
  0
LINE
  5
11E
330
101
100
AcDbEntity
  8
P-SANR-FIXT
100
AcDbLine
 10
774.6664074431879
 20
1676.747075844259
 30
0.0
 11
774.6664074431879
 21
1686.097075844338
 31
0.0
  0
LINE
  5
11F
330
101
100
AcDbEntity
  8
P-SANR-FIXT
100
AcDbLine
 10
774.6664074431879
 20
1667.397075844178
 30
0.0
 11
774.6664074431879
 21
1676.747075844259
 31
0.0
  0
LINE
  5
120
330
101
100
AcDbEntity
  8
P-SANR-FIXT
100
AcDbLine
 10
775.9664074431711
 20
1687.397075844321
 30
0.0
 11
775.9664074431711
 21
1676.747075844259
 31
0.0
  0
LINE
  5
121
330
101
100
AcDbEntity
  8
P-SANR-FIXT
100
AcDbLine
 10
775.9664074431711
 20
1676.747075844259
 30
0.0
 11
775.9664074431711
 21
1666.097075844195
 31
0.0
  0
SPLINE
  5
122
330
101
100
AcDbEntity
  8
P-SANR-FIXT
100
AcDbSpline
210
0.0
220
0.0
230
1.0
 70
    24
 71
     3
 72
     9
 73
     5
 74
     0
 42
0.000000001
 43
0.0000000001
 40
-0.5996436125961027
 40
-0.5996436125961027
 40
-0.5996436125961027
 40
-0.5996436125961027
 40
-0.5
 40
0.0
 40
0.0
 40
0.0
 40
0.0
 10
818.5696256206909
 20
1660.247075844258
 30
0.0
 10
818.8092010525583
 20
1660.247075844258
 30
0.0
 10
820.2490169592708
 20
1660.247075844258
 30
0.0
 10
821.6772722917339
 20
1660.247075844258
 30
0.0
 10
822.8601547281558
 20
1660.247075844258
 30
0.0
  0
SPLINE
  5
123
330
101
100
AcDbEntity
  8
P-SANR-FIXT
100
AcDbSpline
210
0.0
220
0.0
230
1.0
 70
    24
 71
     3
 72
     8
 73
     4
 74
     0
 42
0.000000001
 43
0.0000000001
 40
-1.0
 40
-1.0
 40
-1.0
 40
-1.0
 40
-0.7141610762920197
 40
-0.7141610762920197
 40
-0.7141610762920197
 40
-0.7141610762920197
 10
826.358952963146
 20
1662.26710794707
 30
0.0
 10
827.0558290201359
 20
1663.474132684354
 30
0.0
 10
827.7494298213923
 20
1664.675484512301
 30
0.0
 10
828.4397553669158
 20
1665.87116343091
 30
0.0
  0
SPLINE
  5
124
330
101
100
AcDbEntity
  8
P-SANR-FIXT
100
AcDbSpline
210
0.0
220
0.0
230
1.0
 70
    24
 71
     3
 72
     8
 73
     4
 74
     0
 42
0.000000001
 43
0.0000000001
 40
-0.2921724875575282
 40
-0.2921724875575282
 40
-0.2921724875575282
 40
-0.2921724875575282
 40
-0.2325078132527631
 40
-0.2325078132527631
 40
-0.2325078132527631
 40
-0.2325078132527631
 10
831.4757560511887
 20
1671.129670867885
 30
0.0
 10
831.6178327621218
 20
1671.375754949793
 30
0.0
 10
831.7595396435992
 20
1671.621198468294
 30
0.0
 10
831.901015839616
 20
1671.866242427857
 30
0.0
  0
SPLINE
  5
125
330
101
100
AcDbEntity
  8
P-SANR-FIXT
100
AcDbSpline
210
0.0
220
0.0
230
1.0
 70
    24
 71
     3
 72
     8
 73
     4
 74
     0
 42
0.000000001
 43
0.0000000001
 40
-0.7731691781661166
 40
-0.7731691781661166
 40
-0.7731691781661166
 40
-0.7731691781661166
 40
-0.7145207811751522
 40
-0.7145207811751522
 40
-0.7145207811751522
 40
-0.7145207811751522
 10
831.8998454858475
 20
1681.629936372849
 30
0.0
 10
831.7579271110952
 20
1681.875746208448
 30
0.0
 10
831.6160191954928
 20
1682.121537928267
 30
0.0
 10
831.474203812135
 20
1682.367169377538
 30
0.0
  0
SPLINE
  5
126
330
101
100
AcDbEntity
  8
P-SANR-FIXT
100
AcDbSpline
210
0.0
220
0.0
230
1.0
 70
    24
 71
     3
 72
     8
 73
     4
 74
     0
 42
0.000000001
 43
0.0000000001
 40
-0.2925384255166037
 40
-0.2925384255166037
 40
-0.2925384255166037
 40
-0.2925384255166037
 40
0.0
 40
0.0
 40
0.0
 40
0.0
 10
828.4385113492483
 20
1687.625142959412
 30
0.0
 10
827.7418946344845
 20
1688.831718502784
 30
0.0
 10
827.048708505784
 20
1690.032352096796
 30
0.0
 10
826.3589529631465
 20
1691.227043741446
 30
0.0
  0
SPLINE
  5
127
330
101
100
AcDbEntity
  8
P-SANR-FIXT
100
AcDbSpline
210
0.0
220
0.0
230
1.0
 70
    24
 71
     3
 72
     9
 73
     5
 74
     0
 42
0.000000001
 43
0.0000000001
 40
-1.0
 40
-1.0
 40
-1.0
 40
-1.0
 40
-0.5
 40
-0.4035646181926831
 40
-0.4035646181926831
 40
-0.4035646181926831
 40
-0.4035646181926831
 10
822.8601547281563
 20
1693.247075844258
 30
0.0
 10
821.6772722917342
 20
1693.247075844258
 30
0.0
 10
820.256658452711
 20
1693.247075844258
 30
0.0
 10
818.8246074119618
 20
1693.247075844258
 30
0.0
 10
818.5927654973751
 20
1693.247075844258
 30
0.0
  0
ARC
  5
128
330
101
100
AcDbEntity
  8
P-SANR-FIXT
100
AcDbCircle
 10
815.6664074431873
 20
1676.747075844258
 30
0.0
 40
17.99999999999988
100
AcDbArc
 50
293.5564643090982
 51
306.4435356908983
  0
ARC
  5
129
330
101
100
AcDbEntity
  8
P-SANR-FIXT
100
AcDbCircle
 10
815.6664074431873
 20
1676.747075844258
 30
0.0
 40
17.99999999999993
100
AcDbArc
 50
53.55646430909884
 51
66.4435356908984
  0
LWPOLYLINE
  5
12A
330
101
100
AcDbEntity
  8
P-SANR-FIXT
100
AcDbPolyline
 90
        3
 70
   128
 43
0.0
 10
829.0934216432553
 20
1666.70196378734
 10
834.8817355401362
 20
1666.747075844258
 10
841.0152239836099
 20
1666.747075844258
  0
LWPOLYLINE
  5
12B
330
101
100
AcDbEntity
  8
P-SANR-FIXT
100
AcDbPolyline
 90
        3
 70
   128
 43
0.0
 10
841.0201487540884
 20
1686.734583117843
 10
834.888362008197
 20
1686.734583117843
 10
829.102973162892
 20
1686.779600658259
  0
LWPOLYLINE
  5
12C
330
101
100
AcDbEntity
  8
P-SANR-FIXT
100
AcDbPolyline
 90
        6
 70
   128
 43
0.0
 10
815.6664074431873
 20
1649.497075844258
 10
810.2692039842761
 20
1650.036914953258
 10
805.0923608745275
 20
1651.632298537585
 10
800.3340226570609
 20
1654.219748511213
 10
796.1775575089535
 20
1657.701151654529
 10
794.160497453577
 20
1660.012132297333
  0
ARC
  5
12D
330
101
100
AcDbEntity
  8
P-SANR-FIXT
100
AcDbCircle
 10
815.6664074431873
 20
1676.747075844258
 30
0.0
 40
27.25000000000003
100
AcDbArc
 50
90.0
 51
142.0424484016259
  0
ARC
  5
12E
330
101
100
AcDbEntity
  8
P-SANR-FIXT
100
AcDbCircle
 10
815.6664074431873
 20
1676.747075844258
 30
0.0
 40
27.24999999999998
100
AcDbArc
 50
21.50078833777444
 51
90.00000000000012
  0
ARC
  5
12F
330
101
100
AcDbEntity
  8
P-SANR-FIXT
100
AcDbCircle
 10
815.6664074431873
 20
1676.747075844258
 30
0.0
 40
27.25000000000011
100
AcDbArc
 50
338.4709771701595
 51
21.50078833777316
  0
LWPOLYLINE
  5
130
330
101
100
AcDbEntity
  8
P-SANR-FIXT
100
AcDbPolyline
 90
        7
 70
   128
 43
0.0
 10
841.0152239836099
 20
1666.747075844258
 10
838.5426122285554
 20
1661.940261378686
 10
835.1553982818156
 20
1657.701295836816
 10
830.9989135552829
 20
1654.219831087685
 10
826.2405443146699
 20
1651.632336557872
 10
821.063658809475
 20
1650.036924633733
 10
815.6664074431876
 20
1649.497075844258
  0
ARC
  5
131
330
101
100
AcDbEntity
  8
P-SANR-FIXT
100
AcDbCircle
 10
815.6664074431873
 20
1676.747075844258
 30
0.0
 40
27.24999999999996
100
AcDbArc
 50
93.81221055265564
 51
94.49999999999953
  0
ARC
  5
132
330
101
100
AcDbEntity
  8
P-SANR-FIXT
100
AcDbCircle
 10
815.6664074431873
 20
1676.747075844258
 30
0.0
 40
27.25000000000004
100
AcDbArc
 50
97.62519175428167
 51
98.99999999999945
  0
ARC
  5
133
330
101
100
AcDbEntity
  8
P-SANR-FIXT
100
AcDbCircle
 10
815.6664074431873
 20
1676.747075844258
 30
0.0
 40
27.24999999999991
100
AcDbArc
 50
103.4999999999995
 51
105.2457030083306
  0
ARC
  5
134
330
101
100
AcDbEntity
  8
P-SANR-FIXT
100
AcDbCircle
 10
815.6664074431873
 20
1676.747075844258
 30
0.0
 40
27.25000000000001
100
AcDbArc
 50
107.9999999999993
 51
109.0493874704234
  0
ARC
  5
135
330
101
100
AcDbEntity
  8
P-SANR-FIXT
100
AcDbCircle
 10
815.6664074431873
 20
1676.747075844258
 30
0.0
 40
27.24999999999983
100
AcDbArc
 50
112.4999999999994
 51
112.8474519942709
  0
ARC
  5
136
330
101
100
AcDbEntity
  8
P-SANR-FIXT
100
AcDbCircle
 10
815.6664074431873
 20
1676.747075844258
 30
0.0
 40
27.24999999999998
100
AcDbArc
 50
116.6515734593701
 51
116.9999999999996
  0
ARC
  5
137
330
101
100
AcDbEntity
  8
P-SANR-FIXT
100
AcDbCircle
 10
815.6664074431873
 20
1676.747075844258
 30
0.0
 40
27.24999999999998
100
AcDbArc
 50
120.4669244605936
 51
121.4999999999995
  0
ARC
  5
138
330
101
100
AcDbEntity
  8
P-SANR-FIXT
100
AcDbCircle
 10
815.6664074431873
 20
1676.747075844258
 30
0.0
 40
27.25000000000005
100
AcDbArc
 50
124.2819045713401
 51
125.9999999999994
  0
ARC
  5
139
330
101
100
AcDbEntity
  8
P-SANR-FIXT
100
AcDbCircle
 10
815.6664074431873
 20
1676.747075844258
 30
0.0
 40
27.25000000000008
100
AcDbArc
 50
130.4999999999993
 51
131.9026521711703
  0
ARC
  5
13A
330
101
100
AcDbEntity
  8
P-SANR-FIXT
100
AcDbCircle
 10
815.6664074431873
 20
1676.747075844258
 30
0.0
 40
27.24999999999994
100
AcDbArc
 50
134.9999999999993
 51
135.6560842395339
  0
ARC
  5
13B
330
101
100
AcDbEntity
  8
P-SANR-FIXT
100
AcDbCircle
 10
815.6664074431873
 20
1676.747075844258
 30
0.0
 40
27.24999999999996
100
AcDbArc
 50
224.3620736448701
 51
224.9999999999987
  0
ARC
  5
13C
330
101
100
AcDbEntity
  8
P-SANR-FIXT
100
AcDbCircle
 10
815.6664074431873
 20
1676.747075844258
 30
0.0
 40
27.24999999999996
100
AcDbArc
 50
228.1146775128588
 51
229.4999999999991
  0
ARC
  5
13D
330
101
100
AcDbEntity
  8
P-SANR-FIXT
100
AcDbCircle
 10
815.6664074431873
 20
1676.747075844258
 30
0.0
 40
27.24999999999993
100
AcDbArc
 50
233.9999999999992
 51
235.7320557772751
  0
ARC
  5
13E
330
101
100
AcDbEntity
  8
P-SANR-FIXT
100
AcDbCircle
 10
815.6664074431873
 20
1676.747075844258
 30
0.0
 40
27.24999999999998
100
AcDbArc
 50
238.499999999999
 51
239.5454198484364
  0
ARC
  5
13F
330
101
100
AcDbEntity
  8
P-SANR-FIXT
100
AcDbCircle
 10
815.6664074431873
 20
1676.747075844258
 30
0.0
 40
27.25000000000003
100
AcDbArc
 50
242.9999999999992
 51
243.3591897396174
  0
ARC
  5
140
330
101
100
AcDbEntity
  8
P-SANR-FIXT
100
AcDbCircle
 10
815.6664074431873
 20
1676.747075844258
 30
0.0
 40
27.25000000000002
100
AcDbArc
 50
247.162061797007
 51
247.499999999999
  0
ARC
  5
141
330
101
100
AcDbEntity
  8
P-SANR-FIXT
100
AcDbCircle
 10
815.6664074431873
 20
1676.747075844258
 30
0.0
 40
27.25000000000004
100
AcDbArc
 50
250.9584820286618
 51
251.9999999999992
  0
ARC
  5
142
330
101
100
AcDbEntity
  8
P-SANR-FIXT
100
AcDbCircle
 10
815.6664074431873
 20
1676.747075844258
 30
0.0
 40
27.25000000000003
100
AcDbArc
 50
254.7605547315086
 51
256.4999999999991
  0
ARC
  5
143
330
101
100
AcDbEntity
  8
P-SANR-FIXT
100
AcDbCircle
 10
815.6664074431873
 20
1676.747075844258
 30
0.0
 40
27.24999999999996
100
AcDbArc
 50
260.9999999999992
 51
262.3779174665698
  0
ARC
  5
144
330
101
100
AcDbEntity
  8
P-SANR-FIXT
100
AcDbCircle
 10
815.6664074431873
 20
1676.747075844258
 30
0.0
 40
27.25000000000007
100
AcDbArc
 50
265.499999999999
 51
266.189343572151
  0
ARC
  5
145
330
101
100
AcDbEntity
  8
P-SANR-FIXT
100
AcDbCircle
 10
815.6664074431873
 20
1676.747075844258
 30
0.0
 40
27.25000000000004
100
AcDbArc
 50
273.8106905891448
 51
274.4999999999996
  0
ARC
  5
146
330
101
100
AcDbEntity
  8
P-SANR-FIXT
100
AcDbCircle
 10
815.6664074431873
 20
1676.747075844258
 30
0.0
 40
27.24999999999996
100
AcDbArc
 50
277.6221508775039
 51
278.9999999999996
  0
ARC
  5
147
330
101
100
AcDbEntity
  8
P-SANR-FIXT
100
AcDbCircle
 10
815.6664074431873
 20
1676.747075844258
 30
0.0
 40
27.24999999999993
100
AcDbArc
 50
283.4999999999995
 51
285.2395828218194
  0
ARC
  5
148
330
101
100
AcDbEntity
  8
P-SANR-FIXT
100
AcDbCircle
 10
815.6664074431873
 20
1676.747075844258
 30
0.0
 40
27.24999999999997
100
AcDbArc
 50
287.9999999999995
 51
289.0416909546356
  0
ARC
  5
149
330
101
100
AcDbEntity
  8
P-SANR-FIXT
100
AcDbCircle
 10
815.6664074431873
 20
1676.747075844258
 30
0.0
 40
27.25000000000002
100
AcDbArc
 50
292.4999999999995
 51
292.8381473322306
  0
ARC
  5
14A
330
101
100
AcDbEntity
  8
P-SANR-FIXT
100
AcDbCircle
 10
815.6664074431873
 20
1676.747075844258
 30
0.0
 40
27.25000000000008
100
AcDbArc
 50
296.641046336556
 51
296.9999999999994
  0
ARC
  5
14B
330
101
100
AcDbEntity
  8
P-SANR-FIXT
100
AcDbCircle
 10
815.6664074431873
 20
1676.747075844258
 30
0.0
 40
27.25000000000019
100
AcDbArc
 50
300.4548504633756
 51
301.4999999999994
  0
ARC
  5
14C
330
101
100
AcDbEntity
  8
P-SANR-FIXT
100
AcDbCircle
 10
815.6664074431873
 20
1676.747075844258
 30
0.0
 40
27.25000000000017
100
AcDbArc
 50
304.2682511073552
 51
305.9999999999993
  0
ARC
  5
14D
330
101
100
AcDbEntity
  8
P-SANR-FIXT
100
AcDbCircle
 10
815.6664074431873
 20
1676.747075844258
 30
0.0
 40
27.25000000000006
100
AcDbArc
 50
310.4999999999995
 51
311.8856992884731
  0
ARC
  5
14E
330
101
100
AcDbEntity
  8
P-SANR-FIXT
100
AcDbCircle
 10
815.6664074431873
 20
1676.747075844258
 30
0.0
 40
27.2500000000001
100
AcDbArc
 50
314.9999999999995
 51
315.6383393007116
  0
ARC
  5
14F
330
101
100
AcDbEntity
  8
P-SANR-FIXT
100
AcDbCircle
 10
815.6664074431873
 20
1676.747075844258
 30
0.0
 40
27.24999999999997
100
AcDbArc
 50
323.2618422680719
 51
323.9999999999999
  0
ARC
  5
150
330
101
100
AcDbEntity
  8
P-SANR-FIXT
100
AcDbCircle
 10
815.6664074431873
 20
1676.747075844258
 30
0.0
 40
27.24999999999997
100
AcDbArc
 50
327.061445156704
 51
328.4999999999993
  0
ARC
  5
151
330
101
100
AcDbEntity
  8
P-SANR-FIXT
100
AcDbCircle
 10
815.6664074431873
 20
1676.747075844258
 30
0.0
 40
27.25000000000018
100
AcDbArc
 50
332.9999999999997
 51
334.6622736093901
  0
ARC
  5
152
330
101
100
AcDbEntity
  8
P-SANR-FIXT
100
AcDbCircle
 10
815.6664074431873
 20
1676.747075844258
 30
0.0
 40
27.2500000000001
100
AcDbArc
 50
337.4999999999998
 51
338.4597219681416
  0
ARC
  5
153
330
101
100
AcDbEntity
  8
P-SANR-FIXT
100
AcDbCircle
 10
815.6664074431873
 20
1676.747075844258
 30
0.0
 40
27.25000000000004
100
AcDbArc
 50
341.9999999999998
 51
343.2418515347149
  0
ARC
  5
154
330
101
100
AcDbEntity
  8
P-SANR-FIXT
100
AcDbCircle
 10
815.6664074431873
 20
1676.747075844258
 30
0.0
 40
27.25000000000001
100
AcDbArc
 50
346.4999999999994
 51
348.0250952513125
  0
ARC
  5
155
330
101
100
AcDbEntity
  8
P-SANR-FIXT
100
AcDbCircle
 10
815.6664074431873
 20
1676.747075844258
 30
0.0
 40
27.25000000000007
100
AcDbArc
 50
350.9999999999997
 51
9.000000000000438
  0
ARC
  5
156
330
101
100
AcDbEntity
  8
P-SANR-FIXT
100
AcDbCircle
 10
815.6664074431873
 20
1676.747075844258
 30
0.0
 40
27.25000000000008
100
AcDbArc
 50
11.9467340206978
 51
13.50000000000022
  0
ARC
  5
157
330
101
100
AcDbEntity
  8
P-SANR-FIXT
100
AcDbCircle
 10
815.6664074431873
 20
1676.747075844258
 30
0.0
 40
27.25
100
AcDbArc
 50
16.73004763740052
 51
18.00000000000023
  0
ARC
  5
158
330
101
100
AcDbEntity
  8
P-SANR-FIXT
100
AcDbCircle
 10
815.6664074431873
 20
1676.747075844258
 30
0.0
 40
27.25000000000007
100
AcDbArc
 50
21.51227316156255
 51
22.50000000000015
  0
ARC
  5
159
330
101
100
AcDbEntity
  8
P-SANR-FIXT
100
AcDbCircle
 10
815.6664074431873
 20
1676.747075844258
 30
0.0
 40
27.24999999999991
100
AcDbArc
 50
25.31192013985949
 51
26.99999999999988
  0
ARC
  5
15A
330
101
100
AcDbEntity
  8
P-SANR-FIXT
100
AcDbCircle
 10
815.6664074431873
 20
1676.747075844258
 30
0.0
 40
27.25000000000012
100
AcDbArc
 50
31.49999999999941
 51
32.91548968590424
  0
ARC
  5
15B
330
101
100
AcDbEntity
  8
P-SANR-FIXT
100
AcDbCircle
 10
815.6664074431873
 20
1676.747075844258
 30
0.0
 40
27.25000000000001
100
AcDbArc
 50
35.99999999999976
 51
36.7164777617167
  0
ARC
  5
15C
330
101
100
AcDbEntity
  8
P-SANR-FIXT
100
AcDbCircle
 10
815.6664074431873
 20
1676.747075844258
 30
0.0
 40
27.25000000000003
100
AcDbArc
 50
44.34391576046505
 51
44.99999999999959
  0
ARC
  5
15D
330
101
100
AcDbEntity
  8
P-SANR-FIXT
100
AcDbCircle
 10
815.6664074431873
 20
1676.747075844258
 30
0.0
 40
27.24999999999997
100
AcDbArc
 50
48.09734782882857
 51
49.49999999999971
  0
ARC
  5
15E
330
101
100
AcDbEntity
  8
P-SANR-FIXT
100
AcDbCircle
 10
815.6664074431873
 20
1676.747075844258
 30
0.0
 40
27.24999999999991
100
AcDbArc
 50
53.99999999999925
 51
55.71809542865882
  0
ARC
  5
15F
330
101
100
AcDbEntity
  8
P-SANR-FIXT
100
AcDbCircle
 10
815.6664074431873
 20
1676.747075844258
 30
0.0
 40
27.24999999999992
100
AcDbArc
 50
58.49999999999957
 51
59.53307553940498
  0
ARC
  5
160
330
101
100
AcDbEntity
  8
P-SANR-FIXT
100
AcDbCircle
 10
815.6664074431873
 20
1676.747075844258
 30
0.0
 40
27.24999999999998
100
AcDbArc
 50
62.99999999999984
 51
63.34842654062959
  0
ARC
  5
161
330
101
100
AcDbEntity
  8
P-SANR-FIXT
100
AcDbCircle
 10
815.6664074431873
 20
1676.747075844258
 30
0.0
 40
27.25
100
AcDbArc
 50
67.15254800572783
 51
67.4999999999997
  0
ARC
  5
162
330
101
100
AcDbEntity
  8
P-SANR-FIXT
100
AcDbCircle
 10
815.6664074431873
 20
1676.747075844258
 30
0.0
 40
27.25
100
AcDbArc
 50
70.95061252957581
 51
71.99999999999964
  0
ARC
  5
163
330
101
100
AcDbEntity
  8
P-SANR-FIXT
100
AcDbCircle
 10
815.6664074431873
 20
1676.747075844258
 30
0.0
 40
27.2500000000001
100
AcDbArc
 50
74.75429699166873
 51
76.49999999999974
  0
ARC
  5
164
330
101
100
AcDbEntity
  8
P-SANR-FIXT
100
AcDbCircle
 10
815.6664074431873
 20
1676.747075844258
 30
0.0
 40
27.25000000000007
100
AcDbArc
 50
80.99999999999957
 51
82.37480824571759
  0
ARC
  5
165
330
101
100
AcDbEntity
  8
P-SANR-FIXT
100
AcDbCircle
 10
815.6664074431873
 20
1676.747075844258
 30
0.0
 40
27.25000000000006
100
AcDbArc
 50
85.49999999999958
 51
86.18778944734321
  0
ARC
  5
166
330
101
100
AcDbEntity
  8
P-SANR-FIXT
100
AcDbCircle
 10
815.6664074431873
 20
1676.747075844258
 30
0.0
 40
24.00000000000001
100
AcDbArc
 50
269.9999999999999
 51
335.3690249542822
  0
ARC
  5
167
330
101
100
AcDbEntity
  8
P-SANR-FIXT
100
AcDbCircle
 10
815.6664074431873
 20
1676.747075844258
 30
0.0
 40
23.99999999999996
100
AcDbArc
 50
224.2737541866688
 51
269.9999999999994
  0
ARC
  5
168
330
101
100
AcDbEntity
  8
P-SANR-FIXT
100
AcDbCircle
 10
815.6664074431873
 20
1676.747075844258
 30
0.0
 40
24.00000000000003
100
AcDbArc
 50
90.0
 51
135.760869198613
  0
ARC
  5
169
330
101
100
AcDbEntity
  8
P-SANR-FIXT
100
AcDbCircle
 10
815.6664074431873
 20
1676.747075844258
 30
0.0
 40
24.0
100
AcDbArc
 50
24.59766341771318
 51
90.0
  0
ENDBLK
  5
16B
330
101
100
AcDbEntity
  8
0
100
AcDbBlockEnd
  0
BLOCK
  5
1D0
330
16D
100
AcDbEntity
  8
0
100
AcDbBlockBegin
  2
Automatic flow rate regulator valve_Caleffi_121 DN15 - 1_2__-V2-Est - Idraulica
 70
     0
 10
0.0
 20
0.0
 30
0.0
  3
Automatic flow rate regulator valve_Caleffi_121 DN15 - 1_2__-V2-Est - Idraulica
  1

  0
LINE
  5
16E
330
16D
100
AcDbEntity
  8
P-SANR-FIXT
100
AcDbLine
 10
1234.863156828902
 20
1995.364209253894
 30
0.0
 11
1234.920062063441
 21
1995.331355001416
 31
0.0
  0
LINE
  5
16F
330
16D
100
AcDbEntity
  8
P-SANR-FIXT
100
AcDbLine
 10
1234.925755382163
 20
1995.328067962319
 30
0.0
 11
1236.363156828981
 21
1994.49818385008
 31
0.0
  0
LINE
  5
170
330
16D
100
AcDbEntity
  8
P-SANR-FIXT
100
AcDbLine
 10
1259.363156828817
 20
1994.49818385008
 30
0.0
 11
1260.800558275634
 21
1995.328067962319
 31
0.0
  0
LINE
  5
171
330
16D
100
AcDbEntity
  8
P-SANR-FIXT
100
AcDbLine
 10
1260.806251594356
 20
1995.331355001416
 30
0.0
 11
1260.863156828895
 21
1995.364209253894
 31
0.0
  0
LWPOLYLINE
  5
172
330
16D
100
AcDbEntity
  8
P-SANR-FIXT
100
AcDbPolyline
 90
       77
 70
   128
 43
0.0
 10
1235.016099009385
 20
1998.299248930705
 10
1235.060044685125
 20
1998.300127961427
 10
1235.103920057158
 20
1998.302763647332
 10
1235.14765493425
 20
1998.307151771884
 10
1235.191179349925
 20
1998.313285315019
 10
1235.234423674404
 20
1998.321154464378
 10
1235.277318725992
 20
1998.330746631
 10
1235.319795881758
 20
1998.342046469465
 10
1235.361787187313
 20
1998.355035902442
 10
1235.403225465526
 20
1998.369694149608
 10
1235.444044423992
 20
1998.385997760896
 10
1235.484178761085
 20
1998.403920654005
 10
1235.523564270426
 20
1998.42343415613
 10
1235.562137943604
 20
1998.444507049829
 10
1235.599838070969
 20
1998.467105622968
 10
1235.63660434036
 20
1998.491193722652
 10
1235.672377933588
 20
1998.516732813058
 10
1235.707101620537
 20
1998.543682037091
 10
1235.740719850714
 20
1998.571998281741
 10
1235.773178842122
 20
1998.601636247056
 10
1235.804426667299
 20
1998.632548518616
 10
1235.834413336392
 20
1998.664685643378
 10
1235.863090877125
 20
1998.6979962088
 10
1235.890413411553
 20
1998.732426925083
 10
1235.916337229447
 20
1998.767922710425
 10
1235.940820858229
 20
1998.804426779142
 10
1235.963825129317
 20
1998.841880732511
 10
1235.985313240784
 20
1998.880224652197
 10
1236.005250816236
 20
1998.919397196107
 10
1236.023605959804
 20
1998.959335696528
 10
1236.040349307175
 20
1998.999976260378
 10
1236.055454072564
 20
1999.041253871426
 10
1236.06889609157
 20
1999.083102494299
 10
1236.080653859829
 20
1999.125455180127
 10
1236.09070856742
 20
1999.168244173647
 10
1236.099044128956
 20
1999.2114010216
 10
1236.105647209317
 20
1999.254856682232
 10
1236.110507244982
 20
1999.298541635758
 10
1236.113616460932
 20
1999.342385995572
 10
1236.114969883084
 20
1999.38631962005
 10
1236.114565346251
 20
1999.430272224764
 10
1236.112403497606
 20
1999.474173494925
 10
1236.108487795646
 20
1999.517953197864
 10
1236.102824504658
 20
1999.561541295396
 10
1236.0954226847
 20
1999.604868055864
 10
1236.086294177106
 20
1999.647864165692
 10
1236.075453585539
 20
1999.690460840277
 10
1236.062918252633
 20
1999.732589934027
 10
1236.048708232249
 20
1999.77418404938
 10
1236.032846257385
 20
1999.815176644622
 10
1236.015357703819
 20
1999.855502140347
 10
1235.996270549507
 20
1999.895096024363
 10
1235.975615329822
 20
1999.933894954903
 10
1235.95342508871
 20
1999.971836861954
 10
1235.929735325824
 20
2000.00886104656
 10
1235.90458393973
 20
2000.044908277921
 10
1235.878011167281
 20
2000.079920888158
 10
1235.850059519243
 20
2000.113842864564
 10
1235.820773712293
 20
2000.146619939213
 10
1235.790200597472
 20
2000.178199675776
 10
1235.758389085243
 20
2000.208531553413
 10
1235.72539006724
 20
2000.23756704759
 10
1235.691256334851
 20
2000.26525970771
 10
1235.656042494768
 20
2000.291565231424
 10
1235.619804881622
 20
2000.316441535505
 10
1235.582601467864
 20
2000.339848823174
 10
1235.54449177102
 20
2000.361749647765
 10
1235.505536758475
 20
2000.382108972628
 10
1235.46579874994
 20
2000.400894227188
 10
1235.42534131775
 20
2000.418075359045
 10
1235.384229185167
 20
2000.433624882053
 10
1235.342528122833
 20
2000.447517920292
 10
1235.300304843553
 20
2000.459732247865
 10
1235.257626895565
 20
2000.470248324453
 10
1235.214562554482
 20
2000.479049326577
 10
1235.171180714064
 20
2000.48612117451
 10
1235.169041189867
 20
2000.486424010359
  0
LWPOLYLINE
  5
173
330
16D
100
AcDbEntity
  8
P-SANR-FIXT
100
AcDbPolyline
 90
       77
 70
   128
 43
0.0
 10
1260.55727246793
 20
2000.486424010359
 10
1260.513876805917
 20
2000.479437478337
 10
1260.470795242568
 20
2000.470721171165
 10
1260.428096699196
 20
2000.460289033075
 10
1260.38584948436
 20
2000.448157753263
 10
1260.344121184592
 20
2000.434346739188
 10
1260.302978556271
 20
2000.418878085526
 10
1260.262487418825
 20
2000.401776538824
 10
1260.222712549436
 20
2000.383069457909
 10
1260.183717579411
 20
2000.362786770119
 10
1260.145564892382
 20
2000.340960923428
 10
1260.108315524511
 20
2000.317626834535
 10
1260.07202906684
 20
2000.292821833003
 10
1260.036763569961
 20
2000.266585601545
 10
1260.002575451145
 20
2000.238960112534
 10
1259.96951940409
 20
2000.209989560859
 10
1259.937648311419
 20
2000.179720293223
 10
1259.907013160082
 20
2000.148200733997
 10
1259.877662959786
 20
2000.115481307751
 10
1259.84964466459
 20
2000.081614358588
 10
1259.82300309779
 20
2000.046654066403
 10
1259.797780880208
 20
2000.010656360204
 10
1259.774018362014
 20
1999.973678828643
 10
1259.751753558167
 20
1999.935780627882
 10
1259.731022087604
 20
1999.897022386958
 10
1259.711857116255
 20
1999.857466110787
 10
1259.694289303985
 20
1999.817175080975
 10
1259.678346755548
 20
1999.776213754573
 10
1259.664054975619
 20
1999.734647660966
 10
1259.651436827997
 20
1999.692543297037
 10
1259.640512499027
 20
1999.649968020786
 10
1259.631299465306
 20
1999.606989943573
 10
1259.623812465722
 20
1999.563677821154
 10
1259.618063477876
 20
1999.520100943684
 10
1259.614061698923
 20
1999.476329024872
 10
1259.611813530856
 20
1999.432432090451
 10
1259.611322570264
 20
1999.38848036615
 10
1259.612589602579
 20
1999.344544165354
 10
1259.61561260082
 20
1999.300693776611
 10
1259.620386728835
 20
1999.256999351189
 10
1259.626904349036
 20
1999.213530790848
 10
1259.635155034623
 20
1999.17035763601
 10
1259.645125586258
 20
1999.127548954515
 10
1259.656800053186
 20
1999.08517323112
 10
1259.670159758749
 20
1999.043298257944
 10
1259.68518333027
 20
1999.001991026009
 10
1259.701846733237
 20
1998.961317618077
 10
1259.720123309762
 20
1998.921343102924
 10
1259.739983821221
 20
1998.882131431244
 10
1259.761396495031
 20
1998.84374533335
 10
1259.784327075484
 20
1998.806246218808
 10
1259.80873887854
 20
1998.769694078204
 10
1259.834592850524
 20
1998.734147387164
 10
1259.861847630596
 20
1998.69966301281
 10
1259.89045961692
 20
1998.666296122786
 10
1259.920383036423
 20
1998.634100096999
 10
1259.951570018017
 20
1998.603126442221
 10
1259.983970669184
 20
1998.573424709691
 10
1260.017533155794
 20
1998.545042415848
 10
1260.052203785028
 20
1998.518024966305
 10
1260.087927091275
 20
1998.492415583219
 10
1260.124645924866
 20
1998.46825523614
 10
1260.1623015435
 20
1998.445582576469
 10
1260.20083370622
 20
1998.424433875625
 10
1260.240180769785
 20
1998.404842967017
 10
1260.280279787288
 20
1998.386841191922
 10
1260.321066608854
 20
1998.370457349338
 10
1260.362475984269
 20
1998.355717649918
 10
1260.404441667367
 20
1998.342645674037
 10
1260.446896522006
 20
1998.331262334069
 10
1260.489772629476
 20
1998.321585840929
 10
1260.533001397151
 20
1998.313631674941
 10
1260.576513668225
 20
1998.307412561075
 10
1260.620239832345
 20
1998.302938448586
 10
1260.664109936978
 20
1998.300216495099
 10
1260.708053799314
 20
1998.29925105516
 10
1260.710214648412
 20
1998.299248930705
  0
LINE
  5
174
330
16D
100
AcDbEntity
  8
P-SANR-FIXT
100
AcDbLine
 10
1234.863156828902
 20
1998.309943689798
 30
0.0
 11
1234.863156828902
 21
1995.364209253894
 31
0.0
  0
LINE
  5
175
330
16D
100
AcDbEntity
  8
P-SANR-FIXT
100
AcDbLine
 10
1260.863156828895
 20
1995.364209253894
 30
0.0
 11
1260.863156828895
 21
1998.309943689798
 31
0.0
  0
LINE
  5
176
330
16D
100
AcDbEntity
  8
P-SANR-FIXT
100
AcDbLine
 10
1234.863156828899
 20
2014.998183850188
 30
0.0
 11
1234.863156828899
 21
2012.498183850012
 31
0.0
  0
LINE
  5
177
330
16D
100
AcDbEntity
  8
P-SANR-FIXT
100
AcDbLine
 10
1260.863156828898
 20
2012.498183850012
 30
0.0
 11
1260.863156828898
 21
2014.998183850188
 31
0.0
  0
LWPOLYLINE
  5
178
330
16D
100
AcDbEntity
  8
P-SANR-FIXT
100
AcDbPolyline
 90
       41
 70
   128
 43
0.0
 10
1247.863156828898
 20
2058.24818385019
 10
1248.532978176525
 20
2058.234785636761
 10
1249.201727952882
 20
2058.194612430758
 10
1249.868336300988
 20
2058.127728500742
 10
1250.531736789687
 20
2058.034240846731
 10
1251.190868119716
 20
2057.914299029031
 10
1251.844675821553
 20
2057.768094928961
 10
1252.492113942347
 20
2057.595862441894
 10
1253.132146719219
 20
2057.39787710307
 10
1253.763750236256
 20
2057.174455646795
 10
1254.385914062569
 20
2056.925955499738
 10
1254.997642868754
 20
2056.652774209124
 10
1255.597958019218
 20
2056.355348806742
 10
1256.185899137781
 20
2056.03415510979
 10
1256.760525644073
 20
2055.689706959665
 10
1257.320918258265
 20
2055.322555399927
 10
1257.866180471719
 20
2054.933287794751
 10
1258.395439981208
 20
2054.522526889267
 10
1258.907850084421
 20
2054.090929813299
 10
1259.4025910345
 20
2053.6391870301
 10
1259.878871351466
 20
2053.168021231754
 10
1260.33592908841
 20
2052.678186183031
 10
1260.773033050456
 20
2052.170465515516
 10
1261.189483964507
 20
2051.645671473968
 10
1261.58461559794
 20
2051.104643616903
 10
1261.957795824431
 20
2050.548247473481
 10
1262.308427635224
 20
2049.977373158839
 10
1262.635950094221
 20
2049.392933950099
 10
1262.939839235355
 20
2048.795864825324
 10
1263.219608900826
 20
2048.187120967744
 10
1263.47481151885
 20
2047.567676237673
 10
1263.705038819678
 20
2046.938521614539
 10
1263.909922488743
 20
2046.300663611525
 10
1264.089134755879
 20
2045.655122665367
 10
1264.24238891969
 20
2045.002931503871
 10
1264.369439806205
 20
2044.345133493768
 10
1264.470084161109
 20
2043.682780971554
 10
1264.544160974904
 20
2043.016933559966
 10
1264.591551740489
 20
2042.348656472827
 10
1264.612180642751
 20
2041.679018810915
 10
1264.613156828898
 20
2041.498183850189
  0
LWPOLYLINE
  5
179
330
16D
100
AcDbEntity
  8
P-SANR-FIXT
100
AcDbPolyline
 90
       41
 70
   128
 43
0.0
 10
1264.613156828898
 20
2041.498183850189
 10
1264.613156828898
 20
2041.476986676705
 10
1264.613156828899
 20
2041.413429067209
 10
1264.613156828898
 20
2041.307612700317
 10
1264.613156828898
 20
2041.159706859644
 10
1264.613156828898
 20
2040.969948162982
 10
1264.613156828898
 20
2040.738640183768
 10
1264.613156828898
 20
2040.466152965425
 10
1264.613156828898
 20
2040.152922429374
 10
1264.613156828898
 20
2039.799449677655
 10
1264.613156828898
 20
2039.406300191266
 10
1264.613156828898
 20
2038.974102925519
 10
1264.613156828898
 20
2038.503549303841
 10
1264.613156828898
 20
2037.995392111647
 10
1264.613156828899
 20
2037.450444292045
 10
1264.613156828899
 20
2036.869577645296
 10
1264.613156828899
 20
2036.253721434123
 10
1264.613156828899
 20
2035.603860897089
 10
1264.613156828899
 20
2034.921035672423
 10
1264.613156828899
 20
2034.206338134823
 10
1264.613156828898
 20
2033.460911647889
 10
1264.613156828898
 20
2032.685948734984
 10
1264.613156828899
 20
2031.882689171451
 10
1264.613156828899
 20
2031.052418001241
 10
1264.613156828899
 20
2030.196463481109
 10
1264.613156828899
 20
2029.316194955695
 10
1264.613156828899
 20
2028.413020666858
 10
1264.613156828899
 20
2027.488385500793
 10
1264.613156828899
 20
2026.543768676522
 10
1264.613156828899
 20
2025.580681379455
 10
1264.613156828899
 20
2024.600664343821
 10
1264.613156828899
 20
2023.605285387816
 10
1264.613156828899
 20
2022.596136905436
 10
1264.613156828899
 20
2021.574833318977
 10
1264.613156828899
 20
2020.543008496311
 10
1264.613156828899
 20
2019.502313137045
 10
1264.613156828899
 20
2018.454412131749
 10
1264.613156828899
 20
2017.400981898493
 10
1264.613156828899
 20
2016.343707700928
 10
1264.613156828899
 20
2015.284280952233
 10
1264.613156828899
 20
2014.998183850188
  0
LWPOLYLINE
  5
17A
330
16D
100
AcDbEntity
  8
P-SANR-FIXT
100
AcDbPolyline
 90
       41
 70
   128
 43
0.0
 10
1231.113156828898
 20
2041.498183850189
 10
1231.126555042327
 20
2042.168005197816
 10
1231.166728248329
 20
2042.836754974173
 10
1231.233612178346
 20
2043.503363322279
 10
1231.327099832357
 20
2044.166763810978
 10
1231.447041650058
 20
2044.825895141007
 10
1231.593245750127
 20
2045.479702842844
 10
1231.765478237193
 20
2046.127140963639
 10
1231.963463576017
 20
2046.767173740509
 10
1232.186885032293
 20
2047.398777257547
 10
1232.43538517935
 20
2048.020941083859
 10
1232.708566469964
 20
2048.632669890045
 10
1233.005991872345
 20
2049.232985040509
 10
1233.327185569298
 20
2049.820926159072
 10
1233.671633719424
 20
2050.395552665364
 10
1234.038785279161
 20
2050.955945279556
 10
1234.428052884336
 20
2051.501207493009
 10
1234.83881378982
 20
2052.030467002499
 10
1235.270410865788
 20
2052.542877105711
 10
1235.722153648988
 20
2053.037618055791
 10
1236.193319447333
 20
2053.513898372757
 10
1236.683154496057
 20
2053.970956109702
 10
1237.190875163572
 20
2054.408060071747
 10
1237.715669205121
 20
2054.824510985798
 10
1238.256697062185
 20
2055.219642619231
 10
1238.813093205607
 20
2055.592822845722
 10
1239.38396752025
 20
2055.943454656516
 10
1239.968406728988
 20
2056.270977115512
 10
1240.565475853763
 20
2056.574866256646
 10
1241.174219711343
 20
2056.854635922117
 10
1241.793664441414
 20
2057.10983854014
 10
1242.422819064549
 20
2057.340065840969
 10
1243.060677067563
 20
2057.544949510034
 10
1243.706218013721
 20
2057.724161777171
 10
1244.358409175217
 20
2057.877415940981
 10
1245.016207185319
 20
2058.004466827497
 10
1245.678559707534
 20
2058.1051111824
 10
1246.344407119121
 20
2058.179187996195
 10
1247.012684206261
 20
2058.226578761781
 10
1247.682321868173
 20
2058.247207664041
 10
1247.863156828898
 20
2058.24818385019
  0
LWPOLYLINE
  5
17B
330
16D
100
AcDbEntity
  8
P-SANR-FIXT
100
AcDbPolyline
 90
       41
 70
   128
 43
0.0
 10
1231.113156828898
 20
2014.998183850188
 10
1231.113156828898
 20
2016.057901206134
 10
1231.113156828898
 20
2017.115923240372
 10
1231.113156828898
 20
2018.170557343345
 10
1231.113156828898
 20
2019.220116325466
 10
1231.113156828898
 20
2020.262921116258
 10
1231.113156828898
 20
2021.297303450508
 10
1231.113156828898
 20
2022.321608537138
 10
1231.113156828898
 20
2023.334197706516
 10
1231.113156828898
 20
2024.333451031979
 10
1231.113156828898
 20
2025.317769921368
 10
1231.113156828898
 20
2026.285579674438
 10
1231.113156828898
 20
2027.235332002038
 10
1231.113156828898
 20
2028.165507503048
 10
1231.113156828898
 20
2029.074618095092
 10
1231.113156828898
 20
2029.961209395158
 10
1231.113156828898
 20
2030.823863046292
 10
1231.113156828898
 20
2031.661198986679
 10
1231.113156828898
 20
2032.471877657433
 10
1231.113156828898
 20
2033.254602145619
 10
1231.113156828899
 20
2034.008120259027
 10
1231.113156828899
 20
2034.731226529417
 10
1231.113156828899
 20
2035.422764141012
 10
1231.113156828899
 20
2036.081626781153
 10
1231.113156828899
 20
2036.706760410166
 10
1231.113156828899
 20
2037.297164947599
 10
1231.113156828899
 20
2037.851895872138
 10
1231.113156828898
 20
2038.370065732641
 10
1231.113156828898
 20
2038.850845567867
 10
1231.113156828898
 20
2039.293466232642
 10
1231.113156828898
 20
2039.697219628321
 10
1231.113156828898
 20
2040.061459835602
 10
1231.113156828898
 20
2040.385604147854
 10
1231.113156828898
 20
2040.669134003323
 10
1231.113156828898
 20
2040.911595814725
 10
1231.113156828898
 20
2041.112601694884
 10
1231.113156828898
 20
2041.271830077269
 10
1231.113156828899
 20
2041.389026230437
 10
1231.113156828898
 20
2041.464002665542
 10
1231.113156828898
 20
2041.496639436283
 10
1231.113156828898
 20
2041.498183850189
  0
LINE
  5
17C
330
16D
100
AcDbEntity
  8
P-SANR-FIXT
100
AcDbLine
 10
1252.863156828898
 20
2060.948183850189
 30
0.0
 11
1242.863156828897
 21
2060.948183850189
 31
0.0
  0
LINE
  5
17D
330
16D
100
AcDbEntity
  8
P-SANR-FIXT
100
AcDbLine
 10
1237.872512368677
 20
1995.364209253894
 30
0.0
 11
1234.8631568289
 21
1995.364209253894
 31
0.0
  0
LINE
  5
17E
330
16D
100
AcDbEntity
  8
P-SANR-FIXT
100
AcDbLine
 10
1260.863156828893
 20
1995.364209253894
 30
0.0
 11
1257.858172671761
 21
1995.364209253894
 31
0.0
  0
LINE
  5
17F
330
16D
100
AcDbEntity
  8
P-SANR-FIXT
100
AcDbLine
 10
1236.363156828979
 20
1994.498183850079
 30
0.0
 11
1237.872098783227
 21
1994.498183850079
 31
0.0
  0
LINE
  5
180
330
16D
100
AcDbEntity
  8
P-SANR-FIXT
100
AcDbLine
 10
1257.860168648324
 20
1994.498183850079
 30
0.0
 11
1259.363156828815
 21
1994.498183850079
 31
0.0
  0
LINE
  5
181
330
16D
100
AcDbEntity
  8
P-SANR-FIXT
100
AcDbLine
 10
1235.169041189865
 20
2000.486424010358
 30
0.0
 11
1237.866860010383
 21
2000.486424010358
 31
0.0
  0
LINE
  5
182
330
16D
100
AcDbEntity
  8
P-SANR-FIXT
100
AcDbLine
 10
1257.859726081908
 20
2000.486424010358
 30
0.0
 11
1260.557272467928
 21
2000.486424010358
 31
0.0
  0
LINE
  5
183
330
16D
100
AcDbEntity
  8
P-SANR-FIXT
100
AcDbLine
 10
1234.8631568289
 20
1998.309943689798
 30
0.0
 11
1237.872512368677
 21
1998.309943689798
 31
0.0
  0
LINE
  5
184
330
16D
100
AcDbEntity
  8
P-SANR-FIXT
100
AcDbLine
 10
1257.85580330665
 20
1998.309943689798
 30
0.0
 11
1260.450453872716
 21
1998.309943689798
 31
0.0
  0
LINE
  5
185
330
16D
100
AcDbEntity
  8
P-SANR-FIXT
100
AcDbLine
 10
1260.613365474135
 20
1998.309943689798
 30
0.0
 11
1260.863156828893
 21
1998.309943689798
 31
0.0
  0
ARC
  5
186
330
16D
100
AcDbEntity
  8
P-SANR-FIXT
100
AcDbCircle
 10
1247.863156828897
 20
2041.498183850189
 30
0.0
 40
16.75
100
AcDbArc
 50
269.9999999999997
 51
334.9848771416062
  0
ARC
  5
187
330
16D
100
AcDbEntity
  8
P-SANR-FIXT
100
AcDbCircle
 10
1247.863156828897
 20
2041.498183850189
 30
0.0
 40
16.74999999999994
100
AcDbArc
 50
339.9999999999999
 51
349.9999999999998
  0
ARC
  5
188
330
16D
100
AcDbEntity
  8
P-SANR-FIXT
100
AcDbCircle
 10
1247.863156828897
 20
2041.498183850189
 30
0.0
 40
16.74999999999995
100
AcDbArc
 50
350.6270756993452
 51
90.0
  0
ARC
  5
189
330
16D
100
AcDbEntity
  8
P-SANR-FIXT
100
AcDbCircle
 10
1247.863156828897
 20
2041.498183850189
 30
0.0
 40
16.75
100
AcDbArc
 50
90.0
 51
189.9999999999992
  0
ARC
  5
18A
330
16D
100
AcDbEntity
  8
P-SANR-FIXT
100
AcDbCircle
 10
1247.863156828897
 20
2041.498183850189
 30
0.0
 40
16.75000000000006
100
AcDbArc
 50
190.0966464625597
 51
269.9999999999997
  0
LINE
  5
18B
330
16D
100
AcDbEntity
  8
P-SANR-FIXT
100
AcDbLine
 10
1247.863156828897
 20
2014.998183850188
 30
0.0
 11
1231.113156828897
 21
2014.998183850188
 31
0.0
  0
LINE
  5
18C
330
16D
100
AcDbEntity
  8
P-SANR-FIXT
100
AcDbLine
 10
1264.613156828897
 20
2014.998183850188
 30
0.0
 11
1247.863156828897
 21
2014.998183850188
 31
0.0
  0
LINE
  5
18D
330
16D
100
AcDbEntity
  8
P-SANR-FIXT
100
AcDbLine
 10
1252.863156828896
 20
2060.948183850189
 30
0.0
 11
1252.863156828896
 21
2059.948183850188
 31
0.0
  0
LINE
  5
18E
330
16D
100
AcDbEntity
  8
P-SANR-FIXT
100
AcDbLine
 10
1252.863156828896
 20
2059.948183850188
 30
0.0
 11
1252.863156828896
 21
2057.472736005257
 31
0.0
  0
LINE
  5
18F
330
16D
100
AcDbEntity
  8
P-SANR-FIXT
100
AcDbLine
 10
1242.863156828895
 20
2059.948183850188
 30
0.0
 11
1242.863156828895
 21
2060.948183850189
 31
0.0
  0
LINE
  5
190
330
16D
100
AcDbEntity
  8
P-SANR-FIXT
100
AcDbLine
 10
1242.863156828895
 20
2057.472736005257
 30
0.0
 11
1242.863156828895
 21
2059.948183850188
 31
0.0
  0
ARC
  5
191
330
16D
100
AcDbEntity
  8
P-SANR-FIXT
100
AcDbCircle
 10
1247.863156828897
 20
2041.498183850188
 30
0.0
 40
9.350000000079944
100
AcDbArc
 50
90.0
 51
269.9999999999997
  0
ARC
  5
192
330
16D
100
AcDbEntity
  8
P-SANR-FIXT
100
AcDbCircle
 10
1247.863156828897
 20
2041.498183850188
 30
0.0
 40
9.350000000079717
100
AcDbArc
 50
269.9999999999997
 51
90.0
  0
ARC
  5
193
330
16D
100
AcDbEntity
  8
P-SANR-FIXT
100
AcDbCircle
 10
1247.863156828897
 20
2041.498183850188
 30
0.0
 40
10.65000000006307
100
AcDbArc
 50
90.0
 51
269.9999999999997
  0
ARC
  5
194
330
16D
100
AcDbEntity
  8
P-SANR-FIXT
100
AcDbCircle
 10
1247.863156828897
 20
2041.498183850188
 30
0.0
 40
10.65000000006307
100
AcDbArc
 50
269.9999999999997
 51
90.0
  0
LINE
  5
195
330
16D
100
AcDbEntity
  8
P-SANR-FIXT
100
AcDbLine
 10
1231.713156828899
 20
2012.498183850012
 30
0.0
 11
1231.363156828899
 21
2012.296111255796
 31
0.0
  0
LINE
  5
196
330
16D
100
AcDbEntity
  8
P-SANR-FIXT
100
AcDbLine
 10
1264.363156828898
 20
2012.296111255796
 30
0.0
 11
1264.013156828899
 21
2012.498183850012
 31
0.0
  0
LINE
  5
197
330
16D
100
AcDbEntity
  8
P-SANR-FIXT
100
AcDbLine
 10
1231.363156828899
 20
1916.642521417309
 30
0.0
 11
1231.613156828899
 21
1916.498183850012
 31
0.0
  0
LINE
  5
198
330
16D
100
AcDbEntity
  8
P-SANR-FIXT
100
AcDbLine
 10
1264.113156828899
 20
1916.498183850012
 30
0.0
 11
1264.363156828898
 21
1916.642521417309
 31
0.0
  0
LINE
  5
199
330
16D
100
AcDbEntity
  8
P-SANR-FIXT
100
AcDbLine
 10
1231.713156828899
 20
2003.798183850012
 30
0.0
 11
1231.713156828899
 21
2000.756759788564
 31
0.0
  0
LINE
  5
19A
330
16D
100
AcDbEntity
  8
P-SANR-FIXT
100
AcDbLine
 10
1264.013156828899
 20
2000.756759788564
 30
0.0
 11
1264.013156828899
 21
2003.798183850012
 31
0.0
  0
LINE
  5
19B
330
16D
100
AcDbEntity
  8
P-SANR-FIXT
100
AcDbLine
 10
1220.613156828898
 20
1970.956759788564
 30
0.0
 11
1220.613156828898
 21
1961.534406194102
 31
0.0
  0
LINE
  5
19C
330
16D
100
AcDbEntity
  8
P-SANR-FIXT
100
AcDbLine
 10
1275.113156828899
 20
1961.534406194102
 30
0.0
 11
1275.113156828899
 21
1970.956759788564
 31
0.0
  0
LINE
  5
19D
330
16D
100
AcDbEntity
  8
P-SANR-FIXT
100
AcDbLine
 10
1220.613156828898
 20
1961.534406194102
 30
0.0
 11
1229.863156828898
 21
1927.012936224089
 31
0.0
  0
LINE
  5
19E
330
16D
100
AcDbEntity
  8
P-SANR-FIXT
100
AcDbLine
 10
1265.863156828899
 20
1927.012936224089
 30
0.0
 11
1275.113156828899
 21
1961.534406194102
 31
0.0
  0
LINE
  5
19F
330
16D
100
AcDbEntity
  8
P-SANR-FIXT
100
AcDbLine
 10
1264.013156828897
 20
2012.498183850012
 30
0.0
 11
1231.713156828897
 21
2012.498183850012
 31
0.0
  0
SPLINE
  5
1A0
330
16D
100
AcDbEntity
  8
P-SANR-FIXT
100
AcDbSpline
210
0.0
220
0.0
230
1.0
 70
    24
 71
     3
 72
     9
 73
     5
 74
     0
 42
0.000000001
 43
0.0000000001
 40
-1.0
 40
-1.0
 40
-1.0
 40
-1.0
 40
-0.5
 40
0.0
 40
0.0
 40
0.0
 40
0.0
 10
1231.363156828897
 20
2012.296111255795
 30
0.0
 10
1231.363156828897
 20
2012.289318662521
 30
0.0
 10
1231.363156828897
 20
2012.13818850195
 30
0.0
 10
1231.363156828897
 20
2011.711968393331
 30
0.0
 10
1231.363156828897
 20
2011.430085852011
 30
0.0
  0
SPLINE
  5
1A1
330
16D
100
AcDbEntity
  8
P-SANR-FIXT
100
AcDbSpline
210
0.0
220
0.0
230
1.0
 70
     8
 71
     3
 72
     9
 73
     5
 74
     0
 42
0.000000001
 43
0.0000000001
 40
-1.0
 40
-1.0
 40
-1.0
 40
-1.0
 40
-0.5
 40
0.0
 40
0.0
 40
0.0
 40
0.0
 10
1233.383188931708
 20
2011.430085852011
 30
0.0
 10
1235.494561171756
 20
2012.007393949588
 30
0.0
 10
1239.682589377533
 20
2012.584702047165
 30
0.0
 10
1243.801185034674
 20
2012.007393949588
 30
0.0
 10
1245.843124726085
 20
2011.430085852011
 30
0.0
  0
SPLINE
  5
1A2
330
16D
100
AcDbEntity
  8
P-SANR-FIXT
100
AcDbSpline
210
0.0
220
0.0
230
1.0
 70
     8
 71
     3
 72
     9
 73
     5
 74
     0
 42
0.000000001
 43
0.0000000001
 40
-1.0
 40
-1.0
 40
-1.0
 40
-1.0
 40
-0.5
 40
0.0
 40
0.0
 40
0.0
 40
0.0
 10
1249.883188931708
 20
2011.430085852011
 30
0.0
 10
1251.994561171756
 20
2012.007393949588
 30
0.0
 10
1256.182589377533
 20
2012.584702047165
 30
0.0
 10
1260.301185034674
 20
2012.007393949588
 30
0.0
 10
1262.343124726085
 20
2011.430085852011
 30
0.0
  0
SPLINE
  5
1A3
330
16D
100
AcDbEntity
  8
P-SANR-FIXT
100
AcDbSpline
210
0.0
220
0.0
230
1.0
 70
    24
 71
     3
 72
     9
 73
     5
 74
     0
 42
0.000000001
 43
0.0000000001
 40
-1.0
 40
-1.0
 40
-1.0
 40
-1.0
 40
-0.5
 40
0.0
 40
0.0
 40
0.0
 40
0.0
 10
1264.363156828897
 20
2011.430085852011
 30
0.0
 10
1264.363156828897
 20
2011.711968393331
 30
0.0
 10
1264.363156828897
 20
2012.13818850195
 30
0.0
 10
1264.363156828897
 20
2012.289318662521
 30
0.0
 10
1264.363156828897
 20
2012.296111255795
 30
0.0
  0
LINE
  5
1A4
330
16D
100
AcDbEntity
  8
P-SANR-FIXT
100
AcDbLine
 10
1233.383188931709
 20
1927.012936224088
 30
0.0
 11
1231.363156828897
 21
1927.012936224088
 31
0.0
  0
LINE
  5
1A5
330
16D
100
AcDbEntity
  8
P-SANR-FIXT
100
AcDbLine
 10
1231.363156828897
 20
1927.012936224088
 30
0.0
 11
1231.363156828897
 21
1917.508546821093
 31
0.0
  0
LINE
  5
1A6
330
16D
100
AcDbEntity
  8
P-SANR-FIXT
100
AcDbLine
 10
1233.383188931709
 20
1917.508546821093
 30
0.0
 11
1233.383188931709
 21
1927.012936224088
 31
0.0
  0
LINE
  5
1A7
330
16D
100
AcDbEntity
  8
P-SANR-FIXT
100
AcDbLine
 10
1249.883188931708
 20
1927.012936224088
 30
0.0
 11
1245.843124726085
 21
1927.012936224088
 31
0.0
  0
LINE
  5
1A8
330
16D
100
AcDbEntity
  8
P-SANR-FIXT
100
AcDbLine
 10
1245.843124726085
 20
1927.012936224088
 30
0.0
 11
1245.843124726085
 21
1917.508546821093
 31
0.0
  0
LINE
  5
1A9
330
16D
100
AcDbEntity
  8
P-SANR-FIXT
100
AcDbLine
 10
1249.883188931708
 20
1917.508546821093
 30
0.0
 11
1249.883188931708
 21
1927.012936224088
 31
0.0
  0
LINE
  5
1AA
330
16D
100
AcDbEntity
  8
P-SANR-FIXT
100
AcDbLine
 10
1264.363156828897
 20
1927.012936224088
 30
0.0
 11
1262.343124726085
 21
1927.012936224088
 31
0.0
  0
LINE
  5
1AB
330
16D
100
AcDbEntity
  8
P-SANR-FIXT
100
AcDbLine
 10
1262.343124726085
 20
1927.012936224088
 30
0.0
 11
1262.343124726085
 21
1917.508546821093
 31
0.0
  0
LINE
  5
1AC
330
16D
100
AcDbEntity
  8
P-SANR-FIXT
100
AcDbLine
 10
1264.363156828897
 20
1917.508546821093
 30
0.0
 11
1264.363156828897
 21
1927.012936224088
 31
0.0
  0
SPLINE
  5
1AD
330
16D
100
AcDbEntity
  8
P-SANR-FIXT
100
AcDbSpline
210
0.0
220
0.0
230
1.0
 70
    24
 71
     3
 72
     9
 73
     5
 74
     0
 42
0.000000001
 43
0.0000000001
 40
-1.0
 40
-1.0
 40
-1.0
 40
-1.0
 40
-0.5
 40
0.0
 40
0.0
 40
0.0
 40
0.0
 10
1264.363156828897
 20
1916.642521417309
 30
0.0
 10
1264.363156828897
 20
1916.649314010583
 30
0.0
 10
1264.363156828897
 20
1916.800444171154
 30
0.0
 10
1264.363156828897
 20
1917.226664279772
 30
0.0
 10
1264.363156828897
 20
1917.508546821093
 30
0.0
  0
LINE
  5
1AE
330
16D
100
AcDbEntity
  8
P-SANR-FIXT
100
AcDbLine
 10
1262.343124726085
 20
1917.508546821093
 30
0.0
 11
1264.363156828897
 21
1917.508546821093
 31
0.0
  0
SPLINE
  5
1AF
330
16D
100
AcDbEntity
  8
P-SANR-FIXT
100
AcDbSpline
210
0.0
220
0.0
230
1.0
 70
     8
 71
     3
 72
     9
 73
     5
 74
     0
 42
0.000000001
 43
0.0000000001
 40
-1.0
 40
-1.0
 40
-1.0
 40
-1.0
 40
-0.5
 40
0.0
 40
0.0
 40
0.0
 40
0.0
 10
1262.343124726085
 20
1917.508546821093
 30
0.0
 10
1260.301185034674
 20
1916.931238723516
 30
0.0
 10
1256.182589377533
 20
1916.353930625939
 30
0.0
 10
1251.994561171757
 20
1916.931238723516
 30
0.0
 10
1249.883188931708
 20
1917.508546821093
 30
0.0
  0
LINE
  5
1B0
330
16D
100
AcDbEntity
  8
P-SANR-FIXT
100
AcDbLine
 10
1245.843124726085
 20
1917.508546821093
 30
0.0
 11
1249.883188931708
 21
1917.508546821093
 31
0.0
  0
SPLINE
  5
1B1
330
16D
100
AcDbEntity
  8
P-SANR-FIXT
100
AcDbSpline
210
0.0
220
0.0
230
1.0
 70
     8
 71
     3
 72
     9
 73
     5
 74
     0
 42
0.000000001
 43
0.0000000001
 40
-1.0
 40
-1.0
 40
-1.0
 40
-1.0
 40
-0.5
 40
0.0
 40
0.0
 40
0.0
 40
0.0
 10
1245.843124726085
 20
1917.508546821093
 30
0.0
 10
1243.801185034674
 20
1916.931238723516
 30
0.0
 10
1239.682589377534
 20
1916.353930625939
 30
0.0
 10
1235.494561171756
 20
1916.931238723516
 30
0.0
 10
1233.383188931709
 20
1917.508546821093
 30
0.0
  0
LINE
  5
1B2
330
16D
100
AcDbEntity
  8
P-SANR-FIXT
100
AcDbLine
 10
1231.363156828897
 20
1917.508546821093
 30
0.0
 11
1233.383188931709
 21
1917.508546821093
 31
0.0
  0
SPLINE
  5
1B3
330
16D
100
AcDbEntity
  8
P-SANR-FIXT
100
AcDbSpline
210
0.0
220
0.0
230
1.0
 70
    24
 71
     3
 72
     9
 73
     5
 74
     0
 42
0.000000001
 43
0.0000000001
 40
-1.0
 40
-1.0
 40
-1.0
 40
-1.0
 40
-0.5
 40
0.0
 40
0.0
 40
0.0
 40
0.0
 10
1231.363156828897
 20
1917.508546821093
 30
0.0
 10
1231.363156828897
 20
1917.226664279772
 30
0.0
 10
1231.363156828897
 20
1916.800444171154
 30
0.0
 10
1231.363156828897
 20
1916.649314010583
 30
0.0
 10
1231.363156828897
 20
1916.642521417309
 30
0.0
  0
LINE
  5
1B4
330
16D
100
AcDbEntity
  8
P-SANR-FIXT
100
AcDbLine
 10
1231.613156828897
 20
1916.498183850011
 30
0.0
 11
1264.113156828897
 21
1916.498183850011
 31
0.0
  0
LINE
  5
1B5
330
16D
100
AcDbEntity
  8
P-SANR-FIXT
100
AcDbLine
 10
1231.363156828897
 20
2011.430085852011
 30
0.0
 11
1233.383188931708
 21
2011.430085852011
 31
0.0
  0
LINE
  5
1B6
330
16D
100
AcDbEntity
  8
P-SANR-FIXT
100
AcDbLine
 10
1231.363156828897
 20
2011.430085852011
 30
0.0
 11
1231.363156828897
 21
2003.798183850011
 31
0.0
  0
LINE
  5
1B7
330
16D
100
AcDbEntity
  8
P-SANR-FIXT
100
AcDbLine
 10
1233.383188931708
 20
2011.430085852011
 30
0.0
 11
1233.383188931708
 21
2003.798183850011
 31
0.0
  0
LINE
  5
1B8
330
16D
100
AcDbEntity
  8
P-SANR-FIXT
100
AcDbLine
 10
1245.843124726085
 20
2011.430085852011
 30
0.0
 11
1249.883188931708
 21
2011.430085852011
 31
0.0
  0
LINE
  5
1B9
330
16D
100
AcDbEntity
  8
P-SANR-FIXT
100
AcDbLine
 10
1245.843124726085
 20
2003.798183850011
 30
0.0
 11
1245.843124726085
 21
2011.430085852011
 31
0.0
  0
LINE
  5
1BA
330
16D
100
AcDbEntity
  8
P-SANR-FIXT
100
AcDbLine
 10
1249.883188931708
 20
2003.798183850011
 30
0.0
 11
1249.883188931708
 21
2011.430085852011
 31
0.0
  0
LINE
  5
1BB
330
16D
100
AcDbEntity
  8
P-SANR-FIXT
100
AcDbLine
 10
1262.343124726085
 20
2011.430085852011
 30
0.0
 11
1264.363156828897
 21
2011.430085852011
 31
0.0
  0
LINE
  5
1BC
330
16D
100
AcDbEntity
  8
P-SANR-FIXT
100
AcDbLine
 10
1262.343124726085
 20
2011.430085852011
 30
0.0
 11
1262.343124726085
 21
2003.798183850011
 31
0.0
  0
LINE
  5
1BD
330
16D
100
AcDbEntity
  8
P-SANR-FIXT
100
AcDbLine
 10
1264.363156828897
 20
2003.798183850011
 30
0.0
 11
1264.363156828897
 21
2011.430085852011
 31
0.0
  0
LINE
  5
1BE
330
16D
100
AcDbEntity
  8
P-SANR-FIXT
100
AcDbLine
 10
1262.343124726085
 20
2003.798183850011
 30
0.0
 11
1264.363156828897
 21
2003.798183850011
 31
0.0
  0
LINE
  5
1BF
330
16D
100
AcDbEntity
  8
P-SANR-FIXT
100
AcDbLine
 10
1262.343124726085
 20
2003.798183850011
 30
0.0
 11
1249.883188931708
 21
2003.798183850011
 31
0.0
  0
LINE
  5
1C0
330
16D
100
AcDbEntity
  8
P-SANR-FIXT
100
AcDbLine
 10
1245.843124726085
 20
2003.798183850011
 30
0.0
 11
1249.883188931708
 21
2003.798183850011
 31
0.0
  0
LINE
  5
1C1
330
16D
100
AcDbEntity
  8
P-SANR-FIXT
100
AcDbLine
 10
1233.383188931708
 20
2003.798183850011
 30
0.0
 11
1245.843124726085
 21
2003.798183850011
 31
0.0
  0
LINE
  5
1C2
330
16D
100
AcDbEntity
  8
P-SANR-FIXT
100
AcDbLine
 10
1231.363156828897
 20
2003.798183850011
 30
0.0
 11
1233.383188931708
 21
2003.798183850011
 31
0.0
  0
LINE
  5
1C3
330
16D
100
AcDbEntity
  8
P-SANR-FIXT
100
AcDbLine
 10
1231.713156828897
 20
2000.756759788564
 30
0.0
 11
1237.875649555312
 21
2000.756759788564
 31
0.0
  0
LINE
  5
1C4
330
16D
100
AcDbEntity
  8
P-SANR-FIXT
100
AcDbLine
 10
1257.850664102482
 20
2000.756759788564
 30
0.0
 11
1264.013156828897
 21
2000.756759788564
 31
0.0
  0
LINE
  5
1C5
330
16D
100
AcDbEntity
  8
P-SANR-FIXT
100
AcDbLine
 10
1237.875649555312
 20
2000.798183850012
 30
0.0
 11
1257.850664102482
 21
2000.798183850012
 31
0.0
  0
LWPOLYLINE
  5
1C6
330
16D
100
AcDbEntity
  8
P-SANR-FIXT
100
AcDbPolyline
 90
        3
 70
   128
 43
0.0
 10
1237.875649555312
 20
2000.798183850012
 10
1237.875649555311
 20
1986.000722718078
 10
1237.875649555311
 20
1970.998183850011
  0
LWPOLYLINE
  5
1C7
330
16D
100
AcDbEntity
  8
P-SANR-FIXT
100
AcDbPolyline
 90
        3
 70
   128
 43
0.0
 10
1257.863156828897
 20
1970.998183850011
 10
1257.863156828897
 20
1986.001032867446
 10
1257.863156828897
 20
2000.798183850012
  0
LWPOLYLINE
  5
1C8
330
16D
100
AcDbEntity
  8
P-SANR-FIXT
100
AcDbPolyline
 90
        7
 70
   128
 43
0.0
 10
1275.113156828897
 20
1970.956759788563
 10
1274.573317719897
 20
1970.956759788563
 10
1272.97793413557
 20
1970.956759788563
 10
1270.390484161942
 20
1970.956759788563
 10
1266.909081018626
 20
1970.956759788563
 10
1262.670259936788
 20
1970.956759788563
 10
1257.863156828897
 20
1970.998183850011
  0
LINE
  5
1C9
330
16D
100
AcDbEntity
  8
P-SANR-FIXT
100
AcDbLine
 10
1237.875649555311
 20
1970.998183850011
 30
0.0
 11
1257.863156828896
 21
1970.998183850011
 31
0.0
  0
LINE
  5
1CA
330
16D
100
AcDbEntity
  8
P-SANR-FIXT
100
AcDbLine
 10
1237.875649555311
 20
1970.956759788563
 30
0.0
 11
1220.613156828897
 21
1970.956759788563
 31
0.0
  0
LINE
  5
1CB
330
16D
100
AcDbEntity
  8
P-SANR-FIXT
100
AcDbLine
 10
1220.613156828897
 20
1961.534406194101
 30
0.0
 11
1275.113156828897
 21
1961.534406194101
 31
0.0
  0
LINE
  5
1CC
330
16D
100
AcDbEntity
  8
P-SANR-FIXT
100
AcDbLine
 10
1229.863156828897
 20
1927.012936224089
 30
0.0
 11
1231.363156828896
 21
1927.012936224089
 31
0.0
  0
LINE
  5
1CD
330
16D
100
AcDbEntity
  8
P-SANR-FIXT
100
AcDbLine
 10
1233.383188931708
 20
1927.012936224089
 30
0.0
 11
1245.843124726085
 21
1927.012936224089
 31
0.0
  0
LINE
  5
1CE
330
16D
100
AcDbEntity
  8
P-SANR-FIXT
100
AcDbLine
 10
1249.883188931708
 20
1927.012936224089
 30
0.0
 11
1262.343124726085
 21
1927.012936224089
 31
0.0
  0
LINE
  5
1CF
330
16D
100
AcDbEntity
  8
P-SANR-FIXT
100
AcDbLine
 10
1264.363156828897
 20
1927.012936224089
 30
0.0
 11
1265.863156828897
 21
1927.012936224089
 31
0.0
  0
ENDBLK
  5
1D1
330
16D
100
AcDbEntity
  8
0
100
AcDbBlockEnd
  0
ENDSEC
  0
SECTION
  2
ENTITIES
  0
INSERT
  5
100
330
71
100
AcDbEntity
  8
P-SANR-FIXT
100
AcDbBlockReference
  2
Automatic flow rate regulator valve_Caleffi_121 DN15 - 1_2__-859151-Est - Idraulica
 10
0.0
 20
0.0
 30
0.0
1001
REVIT
1002
{
1070
     1
1000
863131
1002
}
1002
{
1070
     5
1000
859151
1002
}
1002
{
1070
     2
1000
-2001160
1002
}
  0
INSERT
  5
16C
330
71
100
AcDbEntity
  8
P-SANR-FIXT
100
AcDbBlockReference
  2
Automatic flow rate regulator valve_Caleffi_121 DN15 - 1_2__-V1-Est - Idraulica
 10
0.0
 20
0.0
 30
0.0
1001
REVIT
1002
{
1070
     1
1000
863152
1002
}
1002
{
1070
     5
1000
859151
1002
}
1002
{
1070
     2
1000
-2001160
1002
}
  0
INSERT
  5
1D2
330
71
100
AcDbEntity
  8
P-SANR-FIXT
100
AcDbBlockReference
  2
Automatic flow rate regulator valve_Caleffi_121 DN15 - 1_2__-V2-Est - Idraulica
 10
0.0
 20
0.0
 30
0.0
1001
REVIT
1002
{
1070
     1
1000
863172
1002
}
1002
{
1070
     5
1000
859151
1002
}
1002
{
1070
     2
1000
-2001160
1002
}
  0
ENDSEC
  0
SECTION
  2
OBJECTS
  0
DICTIONARY
  5
C
330
0
100
AcDbDictionary
281
     1
  3
ACAD_CIP_PREVIOUS_PRODUCT_INFO
350
7A
  3
ACAD_COLOR
350
63
  3
ACAD_DETAILVIEWSTYLE
350
6B
  3
ACAD_GROUP
350
D
  3
ACAD_IMAGE_VARS
350
7B
  3
ACAD_LAYOUT
350
62
  3
ACAD_MATERIAL
350
10
  3
ACAD_MLEADERSTYLE
350
66
  3
ACAD_MLINESTYLE
350
5F
  3
ACAD_PLOTSETTINGS
350
61
  3
ACAD_PLOTSTYLENAME
350
E
  3
ACAD_SCALELIST
350
42
  3
ACAD_SECTIONVIEWSTYLE
350
68
  3
ACAD_TABLESTYLE
350
64
  3
ACAD_VISUALSTYLE
350
29
  3
ACDB_RECOMPOSE_DATA
350
1DC
  3
AcDbVariableDictionary
350
7C
  3
REVIT_DICTIONARY
350
1D4
  0
DICTIONARY
  5
1D8
330
71
100
AcDbDictionary
280
     1
281
     1
  3
ACAD_SORTENTS
360
1D9
  0
XRECORD
  5
7A
102
{ACAD_REACTORS
330
C
102
}
330
C
100
AcDbXrecord
280
     1
300
RVT
300
2013
300
RVT2013
  0
DICTIONARY
  5
63
102
{ACAD_REACTORS
330
C
102
}
330
C
100
AcDbDictionary
281
     1
  0
DICTIONARY
  5
6B
102
{ACAD_REACTORS
330
C
102
}
330
C
100
AcDbDictionary
281
     1
  3
Imperial24
350
6C
  0
DICTIONARY
  5
D
102
{ACAD_REACTORS
330
C
102
}
330
C
100
AcDbDictionary
281
     1
  0
RASTERVARIABLES
  5
7B
102
{ACAD_REACTORS
330
C
102
}
330
C
100
AcDbRasterVariables
 90
        0
 70
     0
 71
     1
 72
     1
  0
DICTIONARY
  5
62
102
{ACAD_REACTORS
330
C
102
}
330
C
100
AcDbDictionary
281
     1
  3
Layout1
350
70
  3
Layout2
350
78
  3
Model
350
74
  0
DICTIONARY
  5
10
102
{ACAD_REACTORS
330
C
102
}
330
C
100
AcDbDictionary
281
     1
  3
ByBlock
350
19
  3
ByLayer
350
11
  3
Global
350
21
  0
DICTIONARY
  5
66
102
{ACAD_REACTORS
330
C
102
}
330
C
100
AcDbDictionary
281
     1
  3
Standard
350
67
  0
DICTIONARY
  5
5F
102
{ACAD_REACTORS
330
C
102
}
330
C
100
AcDbDictionary
281
     1
  3
Standard
350
60
  0
DICTIONARY
  5
61
102
{ACAD_REACTORS
330
C
102
}
330
C
100
AcDbDictionary
281
     1
  0
ACDBDICTIONARYWDFLT
  5
E
102
{ACAD_REACTORS
330
C
102
}
330
C
100
AcDbDictionary
281
     1
  3
Normal
350
F
100
AcDbDictionaryWithDefault
340
F
  0
DICTIONARY
  5
42
102
{ACAD_REACTORS
330
C
102
}
330
C
100
AcDbDictionary
281
     1
  3
A0
350
43
  3
A1
350
44
  3
A2
350
45
  3
A3
350
46
  3
A4
350
47
  3
A5
350
48
  3
A6
350
49
  3
A7
350
4A
  3
A8
350
4B
  3
A9
350
4C
  3
B0
350
4D
  3
B1
350
4E
  3
B2
350
4F
  3
B3
350
50
  3
B4
350
51
  3
B5
350
52
  3
B6
350
53
  0
DICTIONARY
  5
68
102
{ACAD_REACTORS
330
C
102
}
330
C
100
AcDbDictionary
281
     1
  3
Imperial24
350
6A
  0
DICTIONARY
  5
64
102
{ACAD_REACTORS
330
C
102
}
330
C
100
AcDbDictionary
281
     1
  3
Standard
350
65
  0
DICTIONARY
  5
29
102
{ACAD_REACTORS
330
C
102
}
330
C
100
AcDbDictionary
281
     1
  3
2dWireframe
350
2F
  3
Basic
350
2E
  3
Brighten
350
35
  3
ColorChange
350
39
  3
Conceptual
350
32
  3
Dim
350
34
  3
EdgeColorOff
350
41
  3
Facepattern
350
38
  3
Flat
350
2A
  3
FlatWithEdges
350
2B
  3
Gouraud
350
2C
  3
GouraudWithEdges
350
2D
  3
Hidden
350
31
  3
JitterOff
350
3F
  3
Linepattern
350
37
  3
OverhangOff
350
40
  3
Realistic
350
33
  3
Shaded
350
3E
  3
Shaded with edges
350
3D
  3
Shades of Gray
350
3A
  3
Sketchy
350
3B
  3
Thicken
350
36
  3
Wireframe
350
30
  3
X-Ray
350
3C
  0
XRECORD
  5
1DC
102
{ACAD_REACTORS
330
C
102
}
330
C
100
AcDbXrecord
280
     1
 90
        1
330
65
  0
DICTIONARY
  5
7C
102
{ACAD_REACTORS
330
C
102
}
330
C
100
AcDbDictionary
281
     1
  3
CANNOSCALE
350
81
  3
CMLEADERSTYLE
350
7E
  3
CTABLESTYLE
350
7D
  3
CVIEWDETAILSTYLE
350
7F
  3
CVIEWSECTIONSTYLE
350
80
  0
DICTIONARY
  5
1D4
102
{ACAD_REACTORS
330
C
102
}
330
C
100
AcDbDictionary
281
     1
  3
DRAWING_TOOL
350
1D7
  3
REVIT_CATEGORY_MAPPING
350
1D6
  3
REVIT_TYPE_MAPPING
350
1D5
  0
SORTENTSTABLE
  5
1D9
102
{ACAD_REACTORS
330
1D8
102
}
330
1D8
100
AcDbSortentsTable
330
71
  0
ACDBDETAILVIEWSTYLE
  5
6C
102
{ACAD_REACTORS
330
6B
102
}
330
6B
100
AcDbModelDocViewStyle
 70
     0
  3
Imperial24
290
     1
100
AcDbDetailViewStyle
 70
     0
 71
     0
 90
        3
 71
     1
340
55
 62
   256
 40
0.24
340
0
 62
   256
 40
0.24
300

 40
0.36
280
     3
 71
     2
340
5D
 90
       25
 62
   256
 71
     3
340
55
 62
   256
 40
0.24
 90
        1
 40
0.75
 90
        1
300
%<\AcVar ViewType \f "%tc1">% %<\AcVar ViewDetailId>%\PSCALA %<\AcVar ViewScale \f "%sn">%
 71
     4
340
5D
 90
       25
 62
   256
340
5D
 90
       25
 62
   256
280
     0
  0
LAYOUT
  5
70
102
{ACAD_REACTORS
330
62
102
}
330
62
100
AcDbPlotSettings
  1

  2

  4

  6

 40
0.0
 41
0.0
 42
0.0
 43
0.0
 44
0.0
 45
0.0
 46
0.0
 47
0.0
 48
0.0
 49
0.0
140
0.0
141
0.0
142
1.0
143
1.0
 70
   688
 72
     0
 73
     0
 74
     5
  7

 75
    16
147
1.0
 76
     0
 77
     2
 78
   300
148
0.0
149
0.0
100
AcDbLayout
  1
Layout1
 70
     1
 71
     1
 10
0.0
 20
0.0
 11
12.0
 21
9.0
 12
0.0
 22
0.0
 32
0.0
 14
0.0
 24
0.0
 34
0.0
 15
0.0
 25
0.0
 35
0.0
146
0.0
 13
0.0
 23
0.0
 33
0.0
 16
1.0
 26
0.0
 36
0.0
 17
0.0
 27
1.0
 37
0.0
 76
     0
330
6D
  0
LAYOUT
  5
78
102
{ACAD_REACTORS
330
62
102
}
330
62
100
AcDbPlotSettings
  1

  2

  4

  6

 40
0.0
 41
0.0
 42
0.0
 43
0.0
 44
0.0
 45
0.0
 46
0.0
 47
0.0
 48
0.0
 49
0.0
140
0.0
141
0.0
142
1.0
143
1.0
 70
   688
 72
     0
 73
     0
 74
     5
  7

 75
    16
147
1.0
 76
     0
 77
     2
 78
   300
148
0.0
149
0.0
100
AcDbLayout
  1
Layout2
 70
     1
 71
     2
 10
0.0
 20
0.0
 11
12.0
 21
9.0
 12
0.0
 22
0.0
 32
0.0
 14
0.0
 24
0.0
 34
0.0
 15
0.0
 25
0.0
 35
0.0
146
0.0
 13
0.0
 23
0.0
 33
0.0
 16
1.0
 26
0.0
 36
0.0
 17
0.0
 27
1.0
 37
0.0
 76
     0
330
75
  0
LAYOUT
  5
74
102
{ACAD_REACTORS
330
62
102
}
330
62
100
AcDbPlotSettings
  1

  2

  4

  6

 40
0.0
 41
0.0
 42
0.0
 43
0.0
 44
0.0
 45
0.0
 46
0.0
 47
0.0
 48
0.0
 49
0.0
140
0.0
141
0.0
142
1.0
143
1.0
 70
  1712
 72
     0
 73
     0
 74
     0
  7

 75
     0
147
1.0
 76
     0
 77
     2
 78
   300
148
0.0
149
0.0
100
AcDbLayout
  1
Model
 70
     1
 71
     0
 10
0.0
 20
0.0
 11
12.0
 21
9.0
 12
0.0
 22
0.0
 32
0.0
 14
0.0
 24
0.0
 34
0.0
 15
0.0
 25
0.0
 35
0.0
146
0.0
 13
0.0
 23
0.0
 33
0.0
 16
1.0
 26
0.0
 36
0.0
 17
0.0
 27
1.0
 37
0.0
 76
     0
330
71
  0
MATERIAL
  5
19
102
{ACAD_XDICTIONARY
360
1A
102
}
102
{ACAD_REACTORS
330
10
102
}
330
10
100
AcDbMaterial
  1
ByBlock
 72
     0
 43
0.0208333333333333
 43
0.0
 43
0.0
 43
0.0
 43
0.0
 43
0.0208333333333333
 43
0.0
 43
0.0
 43
0.0
 43
0.0
 43
1.0
 43
0.0
 43
0.0
 43
0.0
 43
0.0
 43
1.0
 77
     0
 47
0.0208333333333333
 47
0.0
 47
0.0
 47
0.0
 47
0.0
 47
0.0208333333333333
 47
0.0
 47
0.0
 47
0.0
 47
0.0
 47
1.0
 47
0.0
 47
0.0
 47
0.0
 47
0.0
 47
1.0
171
     0
 49
0.0208333333333333
 49
0.0
 49
0.0
 49
0.0
 49
0.0
 49
0.0208333333333333
 49
0.0
 49
0.0
 49
0.0
 49
0.0
 49
1.0
 49
0.0
 49
0.0
 49
0.0
 49
0.0
 49
1.0
175
     0
142
0.0208333333333333
142
0.0
142
0.0
142
0.0
142
0.0
142
0.0208333333333333
142
0.0
142
0.0
142
0.0
142
0.0
142
1.0
142
0.0
142
0.0
142
0.0
142
0.0
142
1.0
179
     0
144
0.0208333333333333
144
0.0
144
0.0
144
0.0
144
0.0
144
0.0208333333333333
144
0.0
144
0.0
144
0.0
144
0.0
144
1.0
144
0.0
144
0.0
144
0.0
144
0.0
144
1.0
147
0.0208333333333333
147
0.0
147
0.0
147
0.0
147
0.0
147
0.0208333333333333
147
0.0
147
0.0
147
0.0
147
0.0
147
1.0
147
0.0
147
0.0
147
0.0
147
0.0
147
1.0
  0
MATERIAL
  5
11
102
{ACAD_XDICTIONARY
360
12
102
}
102
{ACAD_REACTORS
330
10
102
}
330
10
100
AcDbMaterial
  1
ByLayer
 72
     0
 43
0.0208333333333333
 43
0.0
 43
0.0
 43
0.0
 43
0.0
 43
0.0208333333333333
 43
0.0
 43
0.0
 43
0.0
 43
0.0
 43
1.0
 43
0.0
 43
0.0
 43
0.0
 43
0.0
 43
1.0
 77
     0
 47
0.0208333333333333
 47
0.0
 47
0.0
 47
0.0
 47
0.0
 47
0.0208333333333333
 47
0.0
 47
0.0
 47
0.0
 47
0.0
 47
1.0
 47
0.0
 47
0.0
 47
0.0
 47
0.0
 47
1.0
171
     0
 49
0.0208333333333333
 49
0.0
 49
0.0
 49
0.0
 49
0.0
 49
0.0208333333333333
 49
0.0
 49
0.0
 49
0.0
 49
0.0
 49
1.0
 49
0.0
 49
0.0
 49
0.0
 49
0.0
 49
1.0
175
     0
142
0.0208333333333333
142
0.0
142
0.0
142
0.0
142
0.0
142
0.0208333333333333
142
0.0
142
0.0
142
0.0
142
0.0
142
1.0
142
0.0
142
0.0
142
0.0
142
0.0
142
1.0
179
     0
144
0.0208333333333333
144
0.0
144
0.0
144
0.0
144
0.0
144
0.0208333333333333
144
0.0
144
0.0
144
0.0
144
0.0
144
1.0
144
0.0
144
0.0
144
0.0
144
0.0
144
1.0
147
0.0208333333333333
147
0.0
147
0.0
147
0.0
147
0.0
147
0.0208333333333333
147
0.0
147
0.0
147
0.0
147
0.0
147
1.0
147
0.0
147
0.0
147
0.0
147
0.0
147
1.0
  0
MATERIAL
  5
21
102
{ACAD_XDICTIONARY
360
22
102
}
102
{ACAD_REACTORS
330
10
102
}
330
10
100
AcDbMaterial
  1
Global
 72
     0
 43
0.0208333333333333
 43
0.0
 43
0.0
 43
0.0
 43
0.0
 43
0.0208333333333333
 43
0.0
 43
0.0
 43
0.0
 43
0.0
 43
1.0
 43
0.0
 43
0.0
 43
0.0
 43
0.0
 43
1.0
 77
     0
 47
0.0208333333333333
 47
0.0
 47
0.0
 47
0.0
 47
0.0
 47
0.0208333333333333
 47
0.0
 47
0.0
 47
0.0
 47
0.0
 47
1.0
 47
0.0
 47
0.0
 47
0.0
 47
0.0
 47
1.0
171
     0
 49
0.0208333333333333
 49
0.0
 49
0.0
 49
0.0
 49
0.0
 49
0.0208333333333333
 49
0.0
 49
0.0
 49
0.0
 49
0.0
 49
1.0
 49
0.0
 49
0.0
 49
0.0
 49
0.0
 49
1.0
175
     0
142
0.0208333333333333
142
0.0
142
0.0
142
0.0
142
0.0
142
0.0208333333333333
142
0.0
142
0.0
142
0.0
142
0.0
142
1.0
142
0.0
142
0.0
142
0.0
142
0.0
142
1.0
179
     0
144
0.0208333333333333
144
0.0
144
0.0
144
0.0
144
0.0
144
0.0208333333333333
144
0.0
144
0.0
144
0.0
144
0.0
144
1.0
144
0.0
144
0.0
144
0.0
144
0.0
144
1.0
147
0.0208333333333333
147
0.0
147
0.0
147
0.0
147
0.0
147
0.0208333333333333
147
0.0
147
0.0
147
0.0
147
0.0
147
1.0
147
0.0
147
0.0
147
0.0
147
0.0
147
1.0
  0
MLEADERSTYLE
  5
67
102
{ACAD_REACTORS
330
66
102
}
330
66
100
AcDbMLeaderStyle
179
     2
170
     2
171
     1
172
     0
 90
        2
 40
0.0
 41
0.0
173
     1
 91
-1056964608
340
5B
 92
       -2
290
     1
 42
0.09
291
     1
 43
0.36
  3
Standard
 44
0.18
300

342
55
174
     1
178
     6
175
     1
176
     0
 93
-1056964608
 45
0.18
292
     0
297
     0
 46
0.18
 94
-1056964608
 47
1.0
 49
1.0
140
1.0
293
     1
141
0.0
294
     1
177
     0
142
1.0
295
     1
296
     0
143
0.125
271
     0
272
     9
273
     9
298
     1
  0
MLINESTYLE
  5
60
102
{ACAD_REACTORS
330
5F
102
}
330
5F
100
AcDbMlineStyle
  2
STANDARD
 70
     0
  3

 62
   256
 51
90.0
 52
90.0
 71
     2
 49
0.5
 62
   256
  6
BYLAYER
 49
-0.5
 62
   256
  6
BYLAYER
  0
ACDBPLACEHOLDER
  5
F
102
{ACAD_REACTORS
330
E
102
}
330
E
  0
SCALE
  5
43
102
{ACAD_REACTORS
330
42
102
}
330
42
100
AcDbScale
 70
     0
300
1:1
140
1.0
141
1.0
290
     1
  0
SCALE
  5
44
102
{ACAD_REACTORS
330
42
102
}
330
42
100
AcDbScale
 70
     0
300
1/128" = 1'-0"
140
0.0078125
141
12.0
290
     0
  0
SCALE
  5
45
102
{ACAD_REACTORS
330
42
102
}
330
42
100
AcDbScale
 70
     0
300
1/64" = 1'-0"
140
0.015625
141
12.0
290
     0
  0
SCALE
  5
46
102
{ACAD_REACTORS
330
42
102
}
330
42
100
AcDbScale
 70
     0
300
1/32" = 1'-0"
140
0.03125
141
12.0
290
     0
  0
SCALE
  5
47
102
{ACAD_REACTORS
330
42
102
}
330
42
100
AcDbScale
 70
     0
300
1/16" = 1'-0"
140
0.0625
141
12.0
290
     0
  0
SCALE
  5
48
102
{ACAD_REACTORS
330
42
102
}
330
42
100
AcDbScale
 70
     0
300
3/32" = 1'-0"
140
0.09375
141
12.0
290
     0
  0
SCALE
  5
49
102
{ACAD_REACTORS
330
42
102
}
330
42
100
AcDbScale
 70
     0
300
1/8" = 1'-0"
140
0.125
141
12.0
290
     0
  0
SCALE
  5
4A
102
{ACAD_REACTORS
330
42
102
}
330
42
100
AcDbScale
 70
     0
300
3/16" = 1'-0"
140
0.1875
141
12.0
290
     0
  0
SCALE
  5
4B
102
{ACAD_REACTORS
330
42
102
}
330
42
100
AcDbScale
 70
     0
300
1/4" = 1'-0"
140
0.25
141
12.0
290
     0
  0
SCALE
  5
4C
102
{ACAD_REACTORS
330
42
102
}
330
42
100
AcDbScale
 70
     0
300
3/8" = 1'-0"
140
0.375
141
12.0
290
     0
  0
SCALE
  5
4D
102
{ACAD_REACTORS
330
42
102
}
330
42
100
AcDbScale
 70
     0
300
1/2" = 1'-0"
140
0.5
141
12.0
290
     0
  0
SCALE
  5
4E
102
{ACAD_REACTORS
330
42
102
}
330
42
100
AcDbScale
 70
     0
300
3/4" = 1'-0"
140
0.75
141
12.0
290
     0
  0
SCALE
  5
4F
102
{ACAD_REACTORS
330
42
102
}
330
42
100
AcDbScale
 70
     0
300
1" = 1'-0"
140
1.0
141
12.0
290
     0
  0
SCALE
  5
50
102
{ACAD_REACTORS
330
42
102
}
330
42
100
AcDbScale
 70
     0
300
1-1/2" = 1'-0"
140
1.5
141
12.0
290
     0
  0
SCALE
  5
51
102
{ACAD_REACTORS
330
42
102
}
330
42
100
AcDbScale
 70
     0
300
3" = 1'-0"
140
3.0
141
12.0
290
     0
  0
SCALE
  5
52
102
{ACAD_REACTORS
330
42
102
}
330
42
100
AcDbScale
 70
     0
300
6" = 1'-0"
140
6.0
141
12.0
290
     0
  0
SCALE
  5
53
102
{ACAD_REACTORS
330
42
102
}
330
42
100
AcDbScale
 70
     0
300
1'-0" = 1'-0"
140
12.0
141
12.0
290
     0
  0
ACDBSECTIONVIEWSTYLE
  5
6A
102
{ACAD_REACTORS
330
68
102
}
330
68
100
AcDbModelDocViewStyle
 70
     0
  3
Imperial24
290
     1
100
AcDbSectionViewStyle
 70
     0
 71
     0
 90
       78
 71
     1
340
55
 62
   256
 40
0.24
340
0
340
0
 62
   256
 40
0.24
300
I, O, Q, S, X, Z
 40
0.48
 90
        3
 40
0.18
 90
        1
 71
     2
340
69
 90
       25
 62
   256
340
5D
 90
       50
 62
   256
 40
0.24
 40
0.0
 40
0.24
 71
     3
340
55
 62
   256
 40
0.24
 90
        1
 40
0.75
 90
        1
300
%<\AcVar ViewType \f "%tc1">% %<\AcVar ViewSectionStartId>%-%<\AcVar ViewSectionEndId>%\PSCALA %<\AcVar ViewScale \f "%sn">%
 71
     4
 62
   256
 62
   257
300
ANSI31
 40
1.0
 90
        0
290
     0
290
     0
 90
        6
 40
0.0
 40
1.570796326794896
 40
0.2617993877991494
 40
1.308996938995747
 40
-0.2617993877991494
 40
1.832595714594046
  0
TABLESTYLE
  5
65
102
{ACAD_XDICTIONARY
360
1DA
102
}
102
{ACAD_REACTORS
330
64
102
}
330
64
100
AcDbTableStyle
280
     0
  3
Standard
 70
     0
 71
     0
 40
0.06
 41
0.06
280
     0
281
     0
  7
Standard
140
0.18
170
     2
 62
     0
 63
     7
283
     0
 90
      512
 91
        0
  1

274
    -2
284
     1
 64
     0
275
    -2
285
     1
 65
     0
276
    -2
286
     1
 66
     0
277
    -2
287
     1
 67
     0
278
    -2
288
     1
 68
     0
279
    -2
289
     1
 69
     0
  7
Standard
140
0.25
170
     5
 62
     0
 63
     7
283
     0
 90
      512
 91
        0
  1

274
    -2
284
     1
 64
     0
275
    -2
285
     1
 65
     0
276
    -2
286
     1
 66
     0
277
    -2
287
     1
 67
     0
278
    -2
288
     1
 68
     0
279
    -2
289
     1
 69
     0
  7
Standard
140
0.18
170
     5
 62
     0
 63
     7
283
     0
 90
      512
 91
        0
  1

274
    -2
284
     1
 64
     0
275
    -2
285
     1
 65
     0
276
    -2
286
     1
 66
     0
277
    -2
287
     1
 67
     0
278
    -2
288
     1
 68
     0
279
    -2
289
     1
 69
     0
  0
VISUALSTYLE
  5
2F
102
{ACAD_REACTORS
330
29
102
}
330
29
100
AcDbVisualStyle
  2
2dWireframe
 70
     4
177
     3
291
     0
 70
    58
 90
        0
176
     1
 90
        2
176
     1
 90
        0
176
     1
 90
        0
176
     1
 40
0.6
176
     1
 40
30.0
176
     1
 62
     7
420
 16777215
176
     1
 90
        1
176
     1
 90
        4
176
     1
 62
     7
176
     1
 62
   257
176
     1
 90
        1
176
     1
 90
        1
176
     1
 40
1.0
176
     1
 90
        0
176
     1
 62
   257
176
     1
 40
1.0
176
     1
 90
        1
176
     1
 90
        6
176
     1
 90
        2
176
     1
 62
     7
176
     1
 90
        5
176
     1
 90
        0
176
     1
 90
        0
176
     1
290
     0
176
     1
 90
        1
176
     1
 40
0.0
176
     1
 90
        0
176
     1
290
     1
176
     1
290
     1
176
     1
290
     0
176
     1
290
     0
176
     1
290
     0
176
     1
290
     0
176
     1
290
     0
176
     1
290
     0
176
     1
290
     0
176
     1
 90
       50
176
     1
 40
0.0
176
     1
 40
1.0
176
     1
 90
        0
176
     1
 62
    18
420
        0
176
     1
 90
       50
176
     1
 90
        3
176
     1
 62
     5
420
      255
176
     1
290
     0
176
     1
 90
       50
176
     1
 90
       50
176
     1
 90
       50
176
     1
290
     0
176
     1
 90
       50
176
     1
 62
   256
176
     0
 40
1.0
176
     0
 90
        2
176
     1
  1
strokes_ogs.tif
176
     1
290
     0
176
     1
 40
1.0
176
     1
 40
1.0
176
     1
  0
VISUALSTYLE
  5
2E
102
{ACAD_REACTORS
330
29
102
}
330
29
100
AcDbVisualStyle
  2
Basic
 70
     7
177
     3
291
     1
 70
    58
 90
        1
176
     1
 90
        0
176
     1
 90
        1
176
     1
 90
        0
176
     1
 40
0.6
176
     1
 40
30.0
176
     1
 62
     7
420
 16777215
176
     1
 90
        0
176
     1
 90
        4
176
     1
 62
     7
176
     1
 62
   257
176
     1
 90
        1
176
     1
 90
        1
176
     1
 40
1.0
176
     1
 90
        8
176
     1
 62
     7
176
     1
 40
1.0
176
     1
 90
        1
176
     1
 90
        6
176
     1
 90
        2
176
     1
 62
     7
176
     1
 90
        5
176
     1
 90
        0
176
     1
 90
        0
176
     1
290
     0
176
     1
 90
        1
176
     1
 40
0.0
176
     1
 90
        0
176
     1
290
     0
176
     1
290
     1
176
     1
290
     1
176
     1
290
     0
176
     1
290
     0
176
     1
290
     0
176
     1
290
     0
176
     1
290
     0
176
     1
290
     0
176
     1
 90
       50
176
     1
 40
0.0
176
     1
 40
1.0
176
     1
 90
        0
176
     1
 62
    18
420
        0
176
     1
 90
       50
176
     1
 90
        3
176
     1
 62
     5
420
      255
176
     1
290
     0
176
     1
 90
       50
176
     1
 90
       50
176
     1
 90
       50
176
     1
290
     0
176
     1
 90
       50
176
     1
 62
   256
176
     0
 40
1.0
176
     0
 90
        2
176
     1
  1
strokes_ogs.tif
176
     1
290
     0
176
     1
 40
1.0
176
     1
 40
1.0
176
     1
  0
VISUALSTYLE
  5
35
102
{ACAD_REACTORS
330
29
102
}
330
29
100
AcDbVisualStyle
  2
Brighten
 70
    12
177
     3
291
     1
 70
    58
 90
        2
176
     1
 90
        2
176
     1
 90
        0
176
     1
 90
        0
176
     1
 40
0.6
176
     1
 40
30.0
176
     1
 62
     7
420
 16777215
176
     1
 90
        1
176
     1
 90
        4
176
     1
 62
     7
176
     1
 62
   257
176
     1
 90
        1
176
     1
 90
        1
176
     1
 40
1.0
176
     1
 90
        8
176
     1
 62
     7
176
     1
 40
1.0
176
     1
 90
        1
176
     1
 90
        6
176
     1
 90
        2
176
     1
 62
     7
176
     1
 90
        5
176
     1
 90
        0
176
     1
 90
        0
176
     1
290
     0
176
     1
 90
        1
176
     1
 40
50.0
176
     1
 90
        0
176
     1
290
     0
176
     1
290
     1
176
     1
290
     1
176
     1
290
     0
176
     1
290
     0
176
     1
290
     0
176
     1
290
     0
176
     1
290
     0
176
     1
290
     0
176
     1
 90
       50
176
     1
 40
0.0
176
     1
 40
1.0
176
     1
 90
        0
176
     1
 62
    18
420
        0
176
     1
 90
       50
176
     1
 90
        3
176
     1
 62
     5
420
      255
176
     1
290
     0
176
     1
 90
       50
176
     1
 90
       50
176
     1
 90
       50
176
     1
290
     0
176
     1
 90
       50
176
     1
 62
   256
176
     0
 40
1.0
176
     0
 90
        2
176
     1
  1
strokes_ogs.tif
176
     1
290
     0
176
     1
 40
1.0
176
     1
 40
1.0
176
     1
  0
VISUALSTYLE
  5
39
102
{ACAD_REACTORS
330
29
102
}
330
29
100
AcDbVisualStyle
  2
ColorChange
 70
    16
177
     3
291
     1
 70
    58
 90
        2
176
     1
 90
        2
176
     1
 90
        3
176
     1
 90
        0
176
     1
 40
0.6
176
     1
 40
30.0
176
     1
 62
     8
420
  8421504
176
     1
 90
        1
176
     1
 90
        4
176
     1
 62
     7
176
     1
 62
   257
176
     1
 90
        1
176
     1
 90
        1
176
     1
 40
1.0
176
     1
 90
        8
176
     1
 62
     8
420
  8421504
176
     1
 40
1.0
176
     1
 90
        1
176
     1
 90
        6
176
     1
 90
        2
176
     1
 62
     7
176
     1
 90
        5
176
     1
 90
        0
176
     1
 90
        0
176
     1
290
     0
176
     1
 90
        1
176
     1
 40
0.0
176
     1
 90
        0
176
     1
290
     0
176
     1
290
     1
176
     1
290
     1
176
     1
290
     0
176
     1
290
     0
176
     1
290
     0
176
     1
290
     0
176
     1
290
     0
176
     1
290
     0
176
     1
 90
       50
176
     1
 40
0.0
176
     1
 40
1.0
176
     1
 90
        0
176
     1
 62
    18
420
        0
176
     1
 90
       50
176
     1
 90
        3
176
     1
 62
     5
420
      255
176
     1
290
     0
176
     1
 90
       50
176
     1
 90
       50
176
     1
 90
       50
176
     1
290
     0
176
     1
 90
       50
176
     1
 62
   256
176
     0
 40
1.0
176
     0
 90
        2
176
     1
  1
strokes_ogs.tif
176
     1
290
     0
176
     1
 40
1.0
176
     1
 40
1.0
176
     1
  0
VISUALSTYLE
  5
32
102
{ACAD_REACTORS
330
29
102
}
330
29
100
AcDbVisualStyle
  2
Conceptual
 70
     9
177
     3
291
     0
 70
    58
 90
        3
176
     1
 90
        2
176
     1
 90
        0
176
     1
 90
        0
176
     1
 40
0.6
176
     1
 40
30.0
176
     1
 62
     7
420
 16777215
176
     1
 90
        2
176
     1
 90
        2
176
     1
 62
     7
176
     1
 62
   257
176
     1
 90
        1
176
     1
 90
        1
176
     1
 40
179.0
176
     1
 90
        8
176
     1
 62
     7
176
     1
 40
1.0
176
     1
 90
        1
176
     1
 90
        6
176
     1
 90
        2
176
     1
 62
     7
176
     1
 90
        3
176
     1
 90
        0
176
     1
 90
        0
176
     1
290
     0
176
     1
 90
        1
176
     1
 40
0.0
176
     1
 90
        0
176
     1
290
     0
176
     1
290
     1
176
     1
290
     1
176
     1
290
     0
176
     1
290
     0
176
     1
290
     0
176
     1
290
     0
176
     1
290
     0
176
     1
290
     0
176
     1
 90
       50
176
     1
 40
0.0
176
     1
 40
1.0
176
     1
 90
        0
176
     1
 62
    18
420
        0
176
     1
 90
       50
176
     1
 90
        3
176
     1
 62
     5
420
      255
176
     1
290
     0
176
     1
 90
       50
176
     1
 90
       50
176
     1
 90
       50
176
     1
290
     0
176
     1
 90
       50
176
     1
 62
   256
176
     0
 40
1.0
176
     0
 90
        2
176
     1
  1
strokes_ogs.tif
176
     1
290
     0
176
     1
 40
1.0
176
     1
 40
1.0
176
     1
  0
VISUALSTYLE
  5
34
102
{ACAD_REACTORS
330
29
102
}
330
29
100
AcDbVisualStyle
  2
Dim
 70
    11
177
     3
291
     1
 70
    58
 90
        2
176
     1
 90
        2
176
     1
 90
        0
176
     1
 90
        0
176
     1
 40
0.6
176
     1
 40
30.0
176
     1
 62
     7
420
 16777215
176
     1
 90
        1
176
     1
 90
        4
176
     1
 62
     7
176
     1
 62
   257
176
     1
 90
        1
176
     1
 90
        1
176
     1
 40
1.0
176
     1
 90
        8
176
     1
 62
     7
176
     1
 40
1.0
176
     1
 90
        1
176
     1
 90
        6
176
     1
 90
        2
176
     1
 62
     7
176
     1
 90
        5
176
     1
 90
        0
176
     1
 90
        0
176
     1
290
     0
176
     1
 90
        1
176
     1
 40
-50.0
176
     1
 90
        0
176
     1
290
     0
176
     1
290
     1
176
     1
290
     1
176
     1
290
     0
176
     1
290
     0
176
     1
290
     0
176
     1
290
     0
176
     1
290
     0
176
     1
290
     0
176
     1
 90
       50
176
     1
 40
0.0
176
     1
 40
1.0
176
     1
 90
        0
176
     1
 62
    18
420
        0
176
     1
 90
       50
176
     1
 90
        3
176
     1
 62
     5
420
      255
176
     1
290
     0
176
     1
 90
       50
176
     1
 90
       50
176
     1
 90
       50
176
     1
290
     0
176
     1
 90
       50
176
     1
 62
   256
176
     0
 40
1.0
176
     0
 90
        2
176
     1
  1
strokes_ogs.tif
176
     1
290
     0
176
     1
 40
1.0
176
     1
 40
1.0
176
     1
  0
VISUALSTYLE
  5
41
102
{ACAD_REACTORS
330
29
102
}
330
29
100
AcDbVisualStyle
  2
EdgeColorOff
 70
    22
177
     3
291
     1
 70
    58
 90
        2
176
     0
 90
        2
176
     0
 90
        0
176
     0
 90
        0
176
     0
 40
0.6
176
     0
 40
30.0
176
     0
 62
     7
420
 16777215
176
     0
 90
        1
176
     0
 90
        4
176
     0
 62
     7
176
     0
 62
   257
176
     0
 90
        1
176
     0
 90
        1
176
     0
 40
1.0
176
     0
 90
        8
176
     2
 62
     7
176
     0
 40
1.0
176
     0
 90
        1
176
     0
 90
        6
176
     0
 90
        2
176
     0
 62
     7
176
     0
 90
        5
176
     0
 90
        0
176
     0
 90
        0
176
     0
290
     0
176
     0
 90
        1
176
     0
 40
0.0
176
     0
 90
        0
176
     0
290
     0
176
     0
290
     1
176
     0
290
     1
176
     0
290
     0
176
     0
290
     0
176
     0
290
     0
176
     0
290
     0
176
     0
290
     0
176
     0
290
     0
176
     0
 90
       50
176
     0
 40
0.0
176
     0
 40
1.0
176
     0
 90
        0
176
     0
 62
    18
420
        0
176
     0
 90
       50
176
     0
 90
        3
176
     0
 62
     5
420
      255
176
     0
290
     0
176
     0
 90
       50
176
     0
 90
       50
176
     0
 90
       50
176
     0
290
     0
176
     0
 90
       50
176
     0
 62
   256
176
     0
 40
1.0
176
     0
 90
        2
176
     0
  1
strokes_ogs.tif
176
     0
290
     0
176
     0
 40
1.0
176
     0
 40
1.0
176
     0
  0
VISUALSTYLE
  5
38
102
{ACAD_REACTORS
330
29
102
}
330
29
100
AcDbVisualStyle
  2
Facepattern
 70
    15
177
     3
291
     1
 70
    58
 90
        2
176
     1
 90
        2
176
     1
 90
        0
176
     1
 90
        0
176
     1
 40
0.6
176
     1
 40
30.0
176
     1
 62
     7
420
 16777215
176
     1
 90
        1
176
     1
 90
        4
176
     1
 62
     7
176
     1
 62
   257
176
     1
 90
        1
176
     1
 90
        1
176
     1
 40
1.0
176
     1
 90
        8
176
     1
 62
     7
176
     1
 40
1.0
176
     1
 90
        1
176
     1
 90
        6
176
     1
 90
        2
176
     1
 62
     7
176
     1
 90
        5
176
     1
 90
        0
176
     1
 90
        0
176
     1
290
     0
176
     1
 90
        1
176
     1
 40
0.0
176
     1
 90
        0
176
     1
290
     0
176
     1
290
     1
176
     1
290
     1
176
     1
290
     0
176
     1
290
     0
176
     1
290
     0
176
     1
290
     0
176
     1
290
     0
176
     1
290
     0
176
     1
 90
       50
176
     1
 40
0.0
176
     1
 40
1.0
176
     1
 90
        0
176
     1
 62
    18
420
        0
176
     1
 90
       50
176
     1
 90
        3
176
     1
 62
     5
420
      255
176
     1
290
     0
176
     1
 90
       50
176
     1
 90
       50
176
     1
 90
       50
176
     1
290
     0
176
     1
 90
       50
176
     1
 62
   256
176
     0
 40
1.0
176
     0
 90
        2
176
     1
  1
strokes_ogs.tif
176
     1
290
     0
176
     1
 40
1.0
176
     1
 40
1.0
176
     1
  0
VISUALSTYLE
  5
2A
102
{ACAD_REACTORS
330
29
102
}
330
29
100
AcDbVisualStyle
  2
Flat
 70
     0
177
     3
291
     1
 70
    58
 90
        2
176
     1
 90
        1
176
     1
 90
        1
176
     1
 90
        2
176
     1
 40
0.6
176
     1
 40
30.0
176
     1
 62
     7
420
 16777215
176
     1
 90
        0
176
     1
 90
        0
176
     1
 62
     7
176
     1
 62
   257
176
     1
 90
        1
176
     1
 90
        1
176
     1
 40
1.0
176
     1
 90
        8
176
     1
 62
     7
176
     1
 40
1.0
176
     1
 90
        1
176
     1
 90
        6
176
     1
 90
        2
176
     1
 62
     7
176
     1
 90
        5
176
     1
 90
        0
176
     1
 90
        0
176
     1
290
     0
176
     1
 90
       13
176
     1
 40
0.0
176
     1
 90
        0
176
     1
290
     0
176
     1
290
     1
176
     1
290
     1
176
     1
290
     0
176
     1
290
     0
176
     1
290
     0
176
     1
290
     0
176
     1
290
     0
176
     1
290
     0
176
     1
 90
       50
176
     1
 40
0.0
176
     1
 40
1.0
176
     1
 90
        0
176
     1
 62
    18
420
        0
176
     1
 90
       50
176
     1
 90
        3
176
     1
 62
     5
420
      255
176
     1
290
     0
176
     1
 90
       50
176
     1
 90
       50
176
     1
 90
       50
176
     1
290
     0
176
     1
 90
       50
176
     1
 62
   256
176
     0
 40
1.0
176
     0
 90
        2
176
     1
  1
strokes_ogs.tif
176
     1
290
     0
176
     1
 40
1.0
176
     1
 40
1.0
176
     1
  0
VISUALSTYLE
  5
2B
102
{ACAD_REACTORS
330
29
102
}
330
29
100
AcDbVisualStyle
  2
FlatWithEdges
 70
     1
177
     3
291
     1
 70
    58
 90
        2
176
     1
 90
        1
176
     1
 90
        1
176
     1
 90
        2
176
     1
 40
0.6
176
     1
 40
30.0
176
     1
 62
     7
420
 16777215
176
     1
 90
        1
176
     1
 90
        0
176
     1
 62
     7
176
     1
 62
   257
176
     1
 90
        1
176
     1
 90
        1
176
     1
 40
1.0
176
     1
 90
        0
176
     1
 62
   257
176
     1
 40
1.0
176
     1
 90
        1
176
     1
 90
        6
176
     1
 90
        2
176
     1
 62
     7
176
     1
 90
        5
176
     1
 90
        0
176
     1
 90
        0
176
     1
290
     0
176
     1
 90
       13
176
     1
 40
0.0
176
     1
 90
        0
176
     1
290
     0
176
     1
290
     1
176
     1
290
     1
176
     1
290
     0
176
     1
290
     0
176
     1
290
     0
176
     1
290
     0
176
     1
290
     0
176
     1
290
     0
176
     1
 90
       50
176
     1
 40
0.0
176
     1
 40
1.0
176
     1
 90
        0
176
     1
 62
    18
420
        0
176
     1
 90
       50
176
     1
 90
        3
176
     1
 62
     5
420
      255
176
     1
290
     0
176
     1
 90
       50
176
     1
 90
       50
176
     1
 90
       50
176
     1
290
     0
176
     1
 90
       50
176
     1
 62
   256
176
     0
 40
1.0
176
     0
 90
        2
176
     1
  1
strokes_ogs.tif
176
     1
290
     0
176
     1
 40
1.0
176
     1
 40
1.0
176
     1
  0
VISUALSTYLE
  5
2C
102
{ACAD_REACTORS
330
29
102
}
330
29
100
AcDbVisualStyle
  2
Gouraud
 70
     2
177
     3
291
     1
 70
    58
 90
        2
176
     1
 90
        2
176
     1
 90
        1
176
     1
 90
        2
176
     1
 40
0.6
176
     1
 40
30.0
176
     1
 62
     7
420
 16777215
176
     1
 90
        0
176
     1
 90
        0
176
     1
 62
     7
176
     1
 62
   257
176
     1
 90
        1
176
     1
 90
        1
176
     1
 40
1.0
176
     1
 90
        0
176
     1
 62
     7
176
     1
 40
1.0
176
     1
 90
        1
176
     1
 90
        6
176
     1
 90
        2
176
     1
 62
     7
176
     1
 90
        5
176
     1
 90
        0
176
     1
 90
        0
176
     1
290
     0
176
     1
 90
       13
176
     1
 40
0.0
176
     1
 90
        0
176
     1
290
     0
176
     1
290
     1
176
     1
290
     1
176
     1
290
     0
176
     1
290
     0
176
     1
290
     0
176
     1
290
     0
176
     1
290
     0
176
     1
290
     0
176
     1
 90
       50
176
     1
 40
0.0
176
     1
 40
1.0
176
     1
 90
        0
176
     1
 62
    18
420
        0
176
     1
 90
       50
176
     1
 90
        3
176
     1
 62
     5
420
      255
176
     1
290
     0
176
     1
 90
       50
176
     1
 90
       50
176
     1
 90
       50
176
     1
290
     0
176
     1
 90
       50
176
     1
 62
   256
176
     0
 40
1.0
176
     0
 90
        2
176
     1
  1
strokes_ogs.tif
176
     1
290
     0
176
     1
 40
1.0
176
     1
 40
1.0
176
     1
  0
VISUALSTYLE
  5
2D
102
{ACAD_REACTORS
330
29
102
}
330
29
100
AcDbVisualStyle
  2
GouraudWithEdges
 70
     3
177
     3
291
     1
 70
    58
 90
        2
176
     1
 90
        2
176
     1
 90
        1
176
     1
 90
        2
176
     1
 40
0.6
176
     1
 40
30.0
176
     1
 62
     7
420
 16777215
176
     1
 90
        1
176
     1
 90
        0
176
     1
 62
     7
176
     1
 62
   257
176
     1
 90
        1
176
     1
 90
        1
176
     1
 40
1.0
176
     1
 90
        0
176
     1
 62
   257
176
     1
 40
1.0
176
     1
 90
        1
176
     1
 90
        6
176
     1
 90
        2
176
     1
 62
     7
176
     1
 90
        5
176
     1
 90
        0
176
     1
 90
        0
176
     1
290
     0
176
     1
 90
       13
176
     1
 40
0.0
176
     1
 90
        0
176
     1
290
     0
176
     1
290
     1
176
     1
290
     1
176
     1
290
     0
176
     1
290
     0
176
     1
290
     0
176
     1
290
     0
176
     1
290
     0
176
     1
290
     0
176
     1
 90
       50
176
     1
 40
0.0
176
     1
 40
1.0
176
     1
 90
        0
176
     1
 62
    18
420
        0
176
     1
 90
       50
176
     1
 90
        3
176
     1
 62
     5
420
      255
176
     1
290
     0
176
     1
 90
       50
176
     1
 90
       50
176
     1
 90
       50
176
     1
290
     0
176
     1
 90
       50
176
     1
 62
   256
176
     0
 40
1.0
176
     0
 90
        2
176
     1
  1
strokes_ogs.tif
176
     1
290
     0
176
     1
 40
1.0
176
     1
 40
1.0
176
     1
  0
VISUALSTYLE
  5
31
102
{ACAD_REACTORS
330
29
102
}
330
29
100
AcDbVisualStyle
  2
Hidden
 70
     6
177
     3
291
     0
 70
    58
 90
        1
176
     1
 90
        2
176
     1
 90
        2
176
     1
 90
        0
176
     1
 40
0.6
176
     1
 40
30.0
176
     1
 62
     7
420
 16777215
176
     1
 90
        2
176
     1
 90
        2
176
     1
 62
     7
176
     1
 62
   257
176
     1
 90
        2
176
     1
 90
        1
176
     1
 40
40.0
176
     1
 90
        0
176
     1
 62
   257
176
     1
 40
1.0
176
     1
 90
        1
176
     1
 90
        6
176
     1
 90
        2
176
     1
 62
     7
176
     1
 90
        3
176
     1
 90
        0
176
     1
 90
        0
176
     1
290
     0
176
     1
 90
        1
176
     1
 40
0.0
176
     1
 90
        0
176
     1
290
     0
176
     1
290
     1
176
     1
290
     1
176
     1
290
     0
176
     1
290
     0
176
     1
290
     0
176
     1
290
     0
176
     1
290
     0
176
     1
290
     0
176
     1
 90
       50
176
     1
 40
0.0
176
     1
 40
1.0
176
     1
 90
        0
176
     1
 62
    18
420
        0
176
     1
 90
       50
176
     1
 90
        3
176
     1
 62
     5
420
      255
176
     1
290
     0
176
     1
 90
       50
176
     1
 90
       50
176
     1
 90
       50
176
     1
290
     0
176
     1
 90
       50
176
     1
 62
   256
176
     0
 40
1.0
176
     0
 90
        2
176
     1
  1
strokes_ogs.tif
176
     1
290
     0
176
     1
 40
1.0
176
     1
 40
1.0
176
     1
  0
VISUALSTYLE
  5
3F
102
{ACAD_REACTORS
330
29
102
}
330
29
100
AcDbVisualStyle
  2
JitterOff
 70
    20
177
     3
291
     1
 70
    58
 90
        2
176
     0
 90
        2
176
     0
 90
        0
176
     0
 90
        0
176
     0
 40
0.6
176
     0
 40
30.0
176
     0
 62
     7
420
 16777215
176
     0
 90
        1
176
     0
 90
        4
176
     0
 62
     7
176
     0
 62
   257
176
     0
 90
        1
176
     0
 90
        1
176
     0
 40
1.0
176
     0
 90
       10
176
     2
 62
     7
176
     0
 40
1.0
176
     0
 90
        1
176
     0
 90
        6
176
     0
 90
        2
176
     0
 62
     7
176
     0
 90
        5
176
     0
 90
        0
176
     0
 90
        0
176
     0
290
     0
176
     0
 90
        1
176
     0
 40
0.0
176
     0
 90
        0
176
     0
290
     0
176
     0
290
     1
176
     0
290
     1
176
     0
290
     0
176
     0
290
     0
176
     0
290
     0
176
     0
290
     0
176
     0
290
     0
176
     0
290
     0
176
     0
 90
       50
176
     0
 40
0.0
176
     0
 40
1.0
176
     0
 90
        0
176
     0
 62
    18
420
        0
176
     0
 90
       50
176
     0
 90
        3
176
     0
 62
     5
420
      255
176
     0
290
     0
176
     0
 90
       50
176
     0
 90
       50
176
     0
 90
       50
176
     0
290
     0
176
     0
 90
       50
176
     0
 62
   256
176
     0
 40
1.0
176
     0
 90
        2
176
     0
  1
strokes_ogs.tif
176
     0
290
     0
176
     0
 40
1.0
176
     0
 40
1.0
176
     0
  0
VISUALSTYLE
  5
37
102
{ACAD_REACTORS
330
29
102
}
330
29
100
AcDbVisualStyle
  2
Linepattern
 70
    14
177
     3
291
     1
 70
    58
 90
        2
176
     1
 90
        2
176
     1
 90
        0
176
     1
 90
        0
176
     1
 40
0.6
176
     1
 40
30.0
176
     1
 62
     7
420
 16777215
176
     1
 90
        1
176
     1
 90
        4
176
     1
 62
     7
176
     1
 62
   257
176
     1
 90
        7
176
     1
 90
        7
176
     1
 40
1.0
176
     1
 90
        8
176
     1
 62
     7
176
     1
 40
1.0
176
     1
 90
        1
176
     1
 90
        6
176
     1
 90
        2
176
     1
 62
     7
176
     1
 90
        5
176
     1
 90
        0
176
     1
 90
        0
176
     1
290
     0
176
     1
 90
        1
176
     1
 40
0.0
176
     1
 90
        0
176
     1
290
     0
176
     1
290
     1
176
     1
290
     1
176
     1
290
     0
176
     1
290
     0
176
     1
290
     0
176
     1
290
     0
176
     1
290
     0
176
     1
290
     0
176
     1
 90
       50
176
     1
 40
0.0
176
     1
 40
1.0
176
     1
 90
        0
176
     1
 62
    18
420
        0
176
     1
 90
       50
176
     1
 90
        3
176
     1
 62
     5
420
      255
176
     1
290
     0
176
     1
 90
       50
176
     1
 90
       50
176
     1
 90
       50
176
     1
290
     0
176
     1
 90
       50
176
     1
 62
   256
176
     0
 40
1.0
176
     0
 90
        2
176
     1
  1
strokes_ogs.tif
176
     1
290
     0
176
     1
 40
1.0
176
     1
 40
1.0
176
     1
  0
VISUALSTYLE
  5
40
102
{ACAD_REACTORS
330
29
102
}
330
29
100
AcDbVisualStyle
  2
OverhangOff
 70
    21
177
     3
291
     1
 70
    58
 90
        2
176
     0
 90
        2
176
     0
 90
        0
176
     0
 90
        0
176
     0
 40
0.6
176
     0
 40
30.0
176
     0
 62
     7
420
 16777215
176
     0
 90
        1
176
     0
 90
        4
176
     0
 62
     7
176
     0
 62
   257
176
     0
 90
        1
176
     0
 90
        1
176
     0
 40
1.0
176
     0
 90
        9
176
     2
 62
     7
176
     0
 40
1.0
176
     0
 90
        1
176
     0
 90
        6
176
     0
 90
        2
176
     0
 62
     7
176
     0
 90
        5
176
     0
 90
        0
176
     0
 90
        0
176
     0
290
     0
176
     0
 90
        1
176
     0
 40
0.0
176
     0
 90
        0
176
     0
290
     0
176
     0
290
     1
176
     0
290
     1
176
     0
290
     0
176
     0
290
     0
176
     0
290
     0
176
     0
290
     0
176
     0
290
     0
176
     0
290
     0
176
     0
 90
       50
176
     0
 40
0.0
176
     0
 40
1.0
176
     0
 90
        0
176
     0
 62
    18
420
        0
176
     0
 90
       50
176
     0
 90
        3
176
     0
 62
     5
420
      255
176
     0
290
     0
176
     0
 90
       50
176
     0
 90
       50
176
     0
 90
       50
176
     0
290
     0
176
     0
 90
       50
176
     0
 62
   256
176
     0
 40
1.0
176
     0
 90
        2
176
     0
  1
strokes_ogs.tif
176
     0
290
     0
176
     0
 40
1.0
176
     0
 40
1.0
176
     0
  0
VISUALSTYLE
  5
33
102
{ACAD_REACTORS
330
29
102
}
330
29
100
AcDbVisualStyle
  2
Realistic
 70
     8
177
     3
291
     0
 70
    58
 90
        2
176
     1
 90
        3
176
     1
 90
        0
176
     1
 90
        2
176
     1
 40
0.6
176
     1
 40
30.0
176
     1
 62
     7
420
 16777215
176
     1
 90
        0
176
     1
 90
        0
176
     1
 62
     7
176
     1
 62
   257
176
     1
 90
        1
176
     1
 90
        1
176
     1
 40
1.0
176
     1
 90
        8
176
     1
 62
   257
176
     1
 40
1.0
176
     1
 90
        1
176
     1
 90
        6
176
     1
 90
        2
176
     1
 62
     7
176
     1
 90
        3
176
     1
 90
        0
176
     1
 90
        0
176
     1
290
     0
176
     1
 90
       13
176
     1
 40
0.0
176
     1
 90
        0
176
     1
290
     0
176
     1
290
     1
176
     1
290
     1
176
     1
290
     0
176
     1
290
     0
176
     1
290
     0
176
     1
290
     0
176
     1
290
     0
176
     1
290
     0
176
     1
 90
       50
176
     1
 40
0.0
176
     1
 40
1.0
176
     1
 90
        0
176
     1
 62
    18
420
        0
176
     1
 90
       50
176
     1
 90
        3
176
     1
 62
     5
420
      255
176
     1
290
     0
176
     1
 90
       50
176
     1
 90
       50
176
     1
 90
       50
176
     1
290
     0
176
     1
 90
       50
176
     1
 62
   256
176
     0
 40
1.0
176
     0
 90
        2
176
     1
  1
strokes_ogs.tif
176
     1
290
     0
176
     1
 40
1.0
176
     1
 40
1.0
176
     1
  0
VISUALSTYLE
  5
3E
102
{ACAD_REACTORS
330
29
102
}
330
29
100
AcDbVisualStyle
  2
Shaded
 70
    27
177
     3
291
     0
 70
    58
 90
        2
176
     1
 90
        2
176
     1
 90
        1
176
     1
 90
        2
176
     1
 40
0.6
176
     1
 40
30.0
176
     1
 62
     7
420
 16777215
176
     1
 90
        0
176
     1
 90
        4
176
     1
 62
     7
176
     1
 62
   257
176
     1
 90
        1
176
     1
 90
        1
176
     1
 40
1.0
176
     1
 90
        8
176
     1
 62
   257
176
     1
 40
1.0
176
     1
 90
        1
176
     1
 90
        6
176
     1
 90
        2
176
     1
 62
     8
420
  7895160
176
     1
 90
        3
176
     1
 90
        0
176
     1
 90
        0
176
     1
290
     0
176
     1
 90
        5
176
     1
 40
0.0
176
     1
 90
        0
176
     1
290
     0
176
     1
290
     1
176
     1
290
     1
176
     1
290
     0
176
     1
290
     0
176
     1
290
     0
176
     1
290
     0
176
     1
290
     0
176
     1
290
     0
176
     1
 90
       50
176
     1
 40
0.0
176
     1
 40
1.0
176
     1
 90
        0
176
     1
 62
    18
420
        0
176
     1
 90
       50
176
     1
 90
        3
176
     1
 62
     5
420
      255
176
     1
290
     0
176
     1
 90
       50
176
     1
 90
       50
176
     1
 90
       50
176
     1
290
     0
176
     1
 90
       50
176
     1
 62
   256
176
     0
 40
1.0
176
     0
 90
        2
176
     1
  1
strokes_ogs.tif
176
     1
290
     0
176
     1
 40
1.0
176
     1
 40
1.0
176
     1
  0
VISUALSTYLE
  5
3D
102
{ACAD_REACTORS
330
29
102
}
330
29
100
AcDbVisualStyle
  2
Shaded with edges
 70
    26
177
     3
291
     0
 70
    58
 90
        2
176
     1
 90
        2
176
     1
 90
        1
176
     1
 90
        2
176
     1
 40
0.6
176
     1
 40
30.0
176
     1
 62
     7
420
 16777215
176
     1
 90
        1
176
     1
 90
       10
176
     1
 62
     7
176
     1
 62
   257
176
     1
 90
        2
176
     1
 90
        1
176
     1
 40
1.0
176
     1
 90
        8
176
     1
 62
   257
176
     1
 40
1.0
176
     1
 90
        1
176
     1
 90
        6
176
     1
 90
        2
176
     1
 62
     7
176
     1
 90
        3
176
     1
 90
        0
176
     1
 90
        0
176
     1
290
     0
176
     1
 90
        5
176
     1
 40
0.0
176
     1
 90
        0
176
     1
290
     0
176
     1
290
     1
176
     1
290
     1
176
     1
290
     0
176
     1
290
     0
176
     1
290
     0
176
     1
290
     0
176
     1
290
     0
176
     1
290
     0
176
     1
 90
       50
176
     1
 40
0.0
176
     1
 40
1.0
176
     1
 90
        0
176
     1
 62
    18
420
        0
176
     1
 90
       50
176
     1
 90
        3
176
     1
 62
     5
420
      255
176
     1
290
     0
176
     1
 90
       50
176
     1
 90
       50
176
     1
 90
       50
176
     1
290
     0
176
     1
 90
       50
176
     1
 62
   256
176
     0
 40
1.0
176
     0
 90
        2
176
     1
  1
strokes_ogs.tif
176
     1
290
     0
176
     1
 40
1.0
176
     1
 40
1.0
176
     1
  0
VISUALSTYLE
  5
3A
102
{ACAD_REACTORS
330
29
102
}
330
29
100
AcDbVisualStyle
  2
Shades of Gray
 70
    23
177
     3
291
     0
 70
    58
 90
        2
176
     1
 90
        2
176
     1
 90
        3
176
     1
 90
        0
176
     1
 40
0.6
176
     1
 40
30.0
176
     1
 62
     7
420
 16777215
176
     1
 90
        2
176
     1
 90
        2
176
     1
 62
     7
176
     1
 62
     7
176
     1
 90
        1
176
     1
 90
        1
176
     1
 40
40.0
176
     1
 90
        8
176
     1
 62
     7
176
     1
 40
1.0
176
     1
 90
        1
176
     1
 90
        6
176
     1
 90
        2
176
     1
 62
     7
176
     1
 90
        3
176
     1
 90
        0
176
     1
 90
        0
176
     1
290
     0
176
     1
 90
        1
176
     1
 40
0.0
176
     1
 90
        0
176
     1
290
     0
176
     1
290
     1
176
     1
290
     1
176
     1
290
     0
176
     1
290
     0
176
     1
290
     0
176
     1
290
     0
176
     1
290
     0
176
     1
290
     0
176
     1
 90
       50
176
     1
 40
0.0
176
     1
 40
1.0
176
     1
 90
        0
176
     1
 62
    18
420
        0
176
     1
 90
       50
176
     1
 90
        3
176
     1
 62
     5
420
      255
176
     1
290
     0
176
     1
 90
       50
176
     1
 90
       50
176
     1
 90
       50
176
     1
290
     0
176
     1
 90
       50
176
     1
 62
   256
176
     0
 40
1.0
176
     0
 90
        2
176
     1
  1
strokes_ogs.tif
176
     1
290
     0
176
     1
 40
1.0
176
     1
 40
1.0
176
     1
  0
VISUALSTYLE
  5
3B
102
{ACAD_REACTORS
330
29
102
}
330
29
100
AcDbVisualStyle
  2
Sketchy
 70
    24
177
     3
291
     0
 70
    58
 90
        1
176
     1
 90
        2
176
     1
 90
        2
176
     1
 90
        0
176
     1
 40
0.6
176
     1
 40
30.0
176
     1
 62
     7
420
 16777215
176
     1
 90
        2
176
     1
 90
        2
176
     1
 62
     7
176
     1
 62
     7
176
     1
 90
        1
176
     1
 90
        1
176
     1
 40
40.0
176
     1
 90
       11
176
     1
 62
     7
176
     1
 40
1.0
176
     1
 90
        1
176
     1
 90
        6
176
     1
 90
        2
176
     1
 62
     7
176
     1
 90
        6
176
     1
 90
        0
176
     1
 90
        0
176
     1
290
     0
176
     1
 90
        1
176
     1
 40
0.0
176
     1
 90
        0
176
     1
290
     0
176
     1
290
     1
176
     1
290
     1
176
     1
290
     0
176
     1
290
     0
176
     1
290
     0
176
     1
290
     0
176
     1
290
     0
176
     1
290
     0
176
     1
 90
       50
176
     1
 40
0.0
176
     1
 40
1.0
176
     1
 90
        0
176
     1
 62
    18
420
        0
176
     1
 90
       50
176
     1
 90
        3
176
     1
 62
     5
420
      255
176
     1
290
     0
176
     1
 90
       50
176
     1
 90
       50
176
     1
 90
       50
176
     1
290
     0
176
     1
 90
       50
176
     1
 62
   256
176
     0
 40
1.0
176
     0
 90
        2
176
     1
  1
strokes_ogs.tif
176
     1
290
     0
176
     1
 40
1.0
176
     1
 40
1.0
176
     1
  0
VISUALSTYLE
  5
36
102
{ACAD_REACTORS
330
29
102
}
330
29
100
AcDbVisualStyle
  2
Thicken
 70
    13
177
     3
291
     1
 70
    58
 90
        2
176
     1
 90
        2
176
     1
 90
        0
176
     1
 90
        0
176
     1
 40
0.6
176
     1
 40
30.0
176
     1
 62
     7
420
 16777215
176
     1
 90
        1
176
     1
 90
        4
176
     1
 62
     7
176
     1
 62
   257
176
     1
 90
        1
176
     1
 90
        1
176
     1
 40
1.0
176
     1
 90
       12
176
     1
 62
     7
176
     1
 40
1.0
176
     1
 90
        1
176
     1
 90
        6
176
     1
 90
        2
176
     1
 62
     7
176
     1
 90
        5
176
     1
 90
        0
176
     1
 90
        0
176
     1
290
     0
176
     1
 90
        1
176
     1
 40
0.0
176
     1
 90
        0
176
     1
290
     0
176
     1
290
     1
176
     1
290
     1
176
     1
290
     0
176
     1
290
     0
176
     1
290
     0
176
     1
290
     0
176
     1
290
     0
176
     1
290
     0
176
     1
 90
       50
176
     1
 40
0.0
176
     1
 40
1.0
176
     1
 90
        0
176
     1
 62
    18
420
        0
176
     1
 90
       50
176
     1
 90
        3
176
     1
 62
     5
420
      255
176
     1
290
     0
176
     1
 90
       50
176
     1
 90
       50
176
     1
 90
       50
176
     1
290
     0
176
     1
 90
       50
176
     1
 62
   256
176
     0
 40
1.0
176
     0
 90
        2
176
     1
  1
strokes_ogs.tif
176
     1
290
     0
176
     1
 40
1.0
176
     1
 40
1.0
176
     1
  0
VISUALSTYLE
  5
30
102
{ACAD_REACTORS
330
29
102
}
330
29
100
AcDbVisualStyle
  2
Wireframe
 70
     5
177
     3
291
     0
 70
    58
 90
        0
176
     1
 90
        2
176
     1
 90
        0
176
     1
 90
        0
176
     1
 40
0.6
176
     1
 40
30.0
176
     1
 62
     7
420
 16777215
176
     1
 90
        1
176
     1
 90
        4
176
     1
 62
     7
176
     1
 62
   257
176
     1
 90
        1
176
     1
 90
        1
176
     1
 40
1.0
176
     1
 90
        0
176
     1
 62
   257
176
     1
 40
1.0
176
     1
 90
        1
176
     1
 90
        6
176
     1
 90
        2
176
     1
 62
     7
176
     1
 90
        3
176
     1
 90
        0
176
     1
 90
        0
176
     1
290
     0
176
     1
 90
        1
176
     1
 40
0.0
176
     1
 90
        0
176
     1
290
     0
176
     1
290
     1
176
     1
290
     1
176
     1
290
     0
176
     1
290
     0
176
     1
290
     0
176
     1
290
     0
176
     1
290
     0
176
     1
290
     0
176
     1
 90
       50
176
     1
 40
0.0
176
     1
 40
1.0
176
     1
 90
        0
176
     1
 62
    18
420
        0
176
     1
 90
       50
176
     1
 90
        3
176
     1
 62
     5
420
      255
176
     1
290
     0
176
     1
 90
       50
176
     1
 90
       50
176
     1
 90
       50
176
     1
290
     0
176
     1
 90
       50
176
     1
 62
   256
176
     0
 40
1.0
176
     0
 90
        2
176
     1
  1
strokes_ogs.tif
176
     1
290
     0
176
     1
 40
1.0
176
     1
 40
1.0
176
     1
  0
VISUALSTYLE
  5
3C
102
{ACAD_REACTORS
330
29
102
}
330
29
100
AcDbVisualStyle
  2
X-Ray
 70
    25
177
     3
291
     0
 70
    58
 90
        2
176
     1
 90
        2
176
     1
 90
        1
176
     1
 90
        1
176
     1
 40
0.5
176
     1
 40
30.0
176
     1
 62
     7
420
 16777215
176
     1
 90
        1
176
     1
 90
        0
176
     1
 62
     7
176
     1
 62
   257
176
     1
 90
        1
176
     1
 90
        1
176
     1
 40
1.0
176
     1
 90
        8
176
     1
 62
     7
176
     1
 40
1.0
176
     1
 90
        1
176
     1
 90
        6
176
     1
 90
        2
176
     1
 62
     7
176
     1
 90
        3
176
     1
 90
        0
176
     1
 90
        0
176
     1
290
     0
176
     1
 90
       13
176
     1
 40
0.0
176
     1
 90
        0
176
     1
290
     0
176
     1
290
     1
176
     1
290
     1
176
     1
290
     0
176
     1
290
     0
176
     1
290
     0
176
     1
290
     0
176
     1
290
     0
176
     1
290
     0
176
     1
 90
       50
176
     1
 40
0.0
176
     1
 40
1.0
176
     1
 90
        0
176
     1
 62
    18
420
        0
176
     1
 90
       50
176
     1
 90
        3
176
     1
 62
     5
420
      255
176
     1
290
     0
176
     1
 90
       50
176
     1
 90
       50
176
     1
 90
       50
176
     1
290
     0
176
     1
 90
       50
176
     1
 62
   256
176
     0
 40
1.0
176
     0
 90
        2
176
     1
  1
strokes_ogs.tif
176
     1
290
     0
176
     1
 40
1.0
176
     1
 40
1.0
176
     1
  0
DICTIONARYVAR
  5
81
102
{ACAD_REACTORS
330
7C
102
}
330
7C
100
DictionaryVariables
280
     0
  1
1:1
  0
DICTIONARYVAR
  5
7E
102
{ACAD_REACTORS
330
7C
102
}
330
7C
100
DictionaryVariables
280
     0
  1
STANDARD
  0
DICTIONARYVAR
  5
7D
102
{ACAD_REACTORS
330
7C
102
}
330
7C
100
DictionaryVariables
280
     0
  1
STANDARD
  0
DICTIONARYVAR
  5
7F
102
{ACAD_REACTORS
330
7C
102
}
330
7C
100
DictionaryVariables
280
     0
  1
Imperial24
  0
DICTIONARYVAR
  5
80
102
{ACAD_REACTORS
330
7C
102
}
330
7C
100
DictionaryVariables
280
     0
  1
Imperial24
  0
XRECORD
  5
1D7
102
{ACAD_REACTORS
330
1D4
102
}
330
1D4
100
AcDbXrecord
280
     1
  1
BUILDING_ID
  1
Progetto per messa in tavola DXF, DWG
  1
FLOOR_ID
  1
694395
  0
XRECORD
  5
1D6
102
{ACAD_REACTORS
330
1D4
102
}
330
1D4
100
AcDbXrecord
280
     1
  1
-2001160
  1
Apparecchi idraulici
  0
XRECORD
  5
1D5
102
{ACAD_REACTORS
330
1D4
102
}
330
1D4
100
AcDbXrecord
280
     1
  1
859151
  1
Automatic flow rate regulator valve_Caleffi_121 DN15 : 1/2''
  0
DICTIONARY
  5
1A
330
19
100
AcDbDictionary
280
     1
281
     1
  3
BUMPTILE
360
1C
  3
DIFFUSETILE
360
1B
  3
OPACITYTILE
360
1F
  3
REFLECTIONTILE
360
1E
  3
REFRACTIONTILE
360
20
  3
SPECULARTILE
360
1D
  0
DICTIONARY
  5
12
330
11
100
AcDbDictionary
280
     1
281
     1
  3
BUMPTILE
360
14
  3
DIFFUSETILE
360
13
  3
OPACITYTILE
360
17
  3
REFLECTIONTILE
360
16
  3
REFRACTIONTILE
360
18
  3
SPECULARTILE
360
15
  0
DICTIONARY
  5
22
330
21
100
AcDbDictionary
280
     1
281
     1
  3
BUMPTILE
360
24
  3
DIFFUSETILE
360
23
  3
OPACITYTILE
360
27
  3
REFLECTIONTILE
360
26
  3
REFRACTIONTILE
360
28
  3
SPECULARTILE
360
25
  0
DICTIONARY
  5
1DA
330
65
100
AcDbDictionary
280
     1
281
     1
  3
ACAD_ROUNDTRIP_2008_TABLESTYLE_CELLSTYLEMAP
360
1DB
  0
XRECORD
  5
1C
102
{ACAD_REACTORS
330
1A
102
}
330
1A
100
AcDbXrecord
280
     1
270
     1
271
     1
  0
XRECORD
  5
1B
102
{ACAD_REACTORS
330
1A
102
}
330
1A
100
AcDbXrecord
280
     1
270
     1
271
     1
  0
XRECORD
  5
1F
102
{ACAD_REACTORS
330
1A
102
}
330
1A
100
AcDbXrecord
280
     1
270
     1
271
     1
  0
XRECORD
  5
1E
102
{ACAD_REACTORS
330
1A
102
}
330
1A
100
AcDbXrecord
280
     1
270
     1
271
     1
  0
XRECORD
  5
20
102
{ACAD_REACTORS
330
1A
102
}
330
1A
100
AcDbXrecord
280
     1
270
     1
271
     1
  0
XRECORD
  5
1D
102
{ACAD_REACTORS
330
1A
102
}
330
1A
100
AcDbXrecord
280
     1
270
     1
271
     1
  0
XRECORD
  5
14
102
{ACAD_REACTORS
330
12
102
}
330
12
100
AcDbXrecord
280
     1
270
     1
271
     1
  0
XRECORD
  5
13
102
{ACAD_REACTORS
330
12
102
}
330
12
100
AcDbXrecord
280
     1
270
     1
271
     1
  0
XRECORD
  5
17
102
{ACAD_REACTORS
330
12
102
}
330
12
100
AcDbXrecord
280
     1
270
     1
271
     1
  0
XRECORD
  5
16
102
{ACAD_REACTORS
330
12
102
}
330
12
100
AcDbXrecord
280
     1
270
     1
271
     1
  0
XRECORD
  5
18
102
{ACAD_REACTORS
330
12
102
}
330
12
100
AcDbXrecord
280
     1
270
     1
271
     1
  0
XRECORD
  5
15
102
{ACAD_REACTORS
330
12
102
}
330
12
100
AcDbXrecord
280
     1
270
     1
271
     1
  0
XRECORD
  5
24
102
{ACAD_REACTORS
330
22
102
}
330
22
100
AcDbXrecord
280
     1
270
     1
271
     1
  0
XRECORD
  5
23
102
{ACAD_REACTORS
330
22
102
}
330
22
100
AcDbXrecord
280
     1
270
     1
271
     1
  0
XRECORD
  5
27
102
{ACAD_REACTORS
330
22
102
}
330
22
100
AcDbXrecord
280
     1
270
     1
271
     1
  0
XRECORD
  5
26
102
{ACAD_REACTORS
330
22
102
}
330
22
100
AcDbXrecord
280
     1
270
     1
271
     1
  0
XRECORD
  5
28
102
{ACAD_REACTORS
330
22
102
}
330
22
100
AcDbXrecord
280
     1
270
     1
271
     1
  0
XRECORD
  5
25
102
{ACAD_REACTORS
330
22
102
}
330
22
100
AcDbXrecord
280
     1
270
     1
271
     1
  0
CELLSTYLEMAP
  5
1DB
102
{ACAD_REACTORS
330
1DA
102
}
330
1DA
100
AcDbCellStyleMap
 90
        3
300
CELLSTYLE
  1
TABLEFORMAT_BEGIN
 90
        5
170
     1
 91
        0
 92
    32768
 62
   257
 93
        1
300
CONTENTFORMAT
  1
CONTENTFORMAT_BEGIN
 90
        0
 91
        0
 92
      512
 93
        0
300

 40
0.0
140
1.0
 94
        5
 62
     0
340
55
144
0.25
309
CONTENTFORMAT_END
171
     0
 94
        0
309
TABLEFORMAT_END
  1
CELLSTYLE_BEGIN
 90
        1
 91
        1
300
_TITLE
309
CELLSTYLE_END
300
CELLSTYLE
  1
TABLEFORMAT_BEGIN
 90
        5
170
     1
 91
        0
 92
        0
 62
   257
 93
        1
300
CONTENTFORMAT
  1
CONTENTFORMAT_BEGIN
 90
        0
 91
        0
 92
      512
 93
        0
300

 40
0.0
140
1.0
 94
        5
 62
     0
340
55
144
0.18
309
CONTENTFORMAT_END
171
     0
 94
        0
309
TABLEFORMAT_END
  1
CELLSTYLE_BEGIN
 90
        2
 91
        1
300
_HEADER
309
CELLSTYLE_END
300
CELLSTYLE
  1
TABLEFORMAT_BEGIN
 90
        5
170
     1
 91
        0
 92
        0
 62
   257
 93
        1
300
CONTENTFORMAT
  1
CONTENTFORMAT_BEGIN
 90
        0
 91
        0
 92
      512
 93
        0
300

 40
0.0
140
1.0
 94
        2
 62
     0
340
55
144
0.18
309
CONTENTFORMAT_END
171
     0
 94
        0
309
TABLEFORMAT_END
  1
CELLSTYLE_BEGIN
 90
        3
 91
        2
300
_DATA
309
CELLSTYLE_END
  0
ENDSEC
  0
EOF
