  0
SECTION
  2
HEADER
  9
$ACADVER
  1
AC1027
  9
$ACADMAINTVER
 70
    20
  9
$DWGCODEPAGE
  3
ANSI_1252
  9
$REQUIREDVERSIONS
160
                 0
  9
$INSBASE
 10
0.0
 20
0.0
 30
0.0
  9
$EXTMIN
 10
775.6664074331869
 20
1636.747075834258
 30
-0.00000001
  9
$EXTMAX
 10
1287.863156828899
 20
2052.885536225549
 30
0.00000001
  9
$LIMMIN
 10
0.0
 20
0.0
  9
$LIMMAX
 10
12.0
 20
9.0
  9
$ORTHOMODE
 70
     0
  9
$REGENMODE
 70
     1
  9
$FILLMODE
 70
     1
  9
$QTEXTMODE
 70
     0
  9
$MIRRTEXT
 70
     0
  9
$LTSCALE
 40
1.0
  9
$ATTMODE
 70
     1
  9
$TEXTSIZE
 40
0.2
  9
$TRACEWID
 40
0.05
  9
$TEXTSTYLE
  7
Standard
  9
$CLAYER
  8
0
  9
$CELTYPE
  6
ByLayer
  9
$CECOLOR
 62
   256
  9
$CELTSCALE
 40
1.0
  9
$DISPSILH
 70
     0
  9
$DIMSCALE
 40
1.0
  9
$DIMASZ
 40
0.18
  9
$DIMEXO
 40
0.0625
  9
$DIMDLI
 40
0.38
  9
$DIMRND
 40
0.0
  9
$DIMDLE
 40
0.0
  9
$DIMEXE
 40
0.18
  9
$DIMTP
 40
0.0
  9
$DIMTM
 40
0.0
  9
$DIMTXT
 40
0.18
  9
$DIMCEN
 40
0.09
  9
$DIMTSZ
 40
0.0
  9
$DIMTOL
 70
     0
  9
$DIMLIM
 70
     0
  9
$DIMTIH
 70
     1
  9
$DIMTOH
 70
     1
  9
$DIMSE1
 70
     0
  9
$DIMSE2
 70
     0
  9
$DIMTAD
 70
     0
  9
$DIMZIN
 70
     0
  9
$DIMBLK
  1

  9
$DIMASO
 70
     1
  9
$DIMSHO
 70
     1
  9
$DIMPOST
  1

  9
$DIMAPOST
  1

  9
$DIMALT
 70
     0
  9
$DIMALTD
 70
     2
  9
$DIMALTF
 40
25.4
  9
$DIMLFAC
 40
1.0
  9
$DIMTOFL
 70
     0
  9
$DIMTVP
 40
0.0
  9
$DIMTIX
 70
     0
  9
$DIMSOXD
 70
     0
  9
$DIMSAH
 70
     0
  9
$DIMBLK1
  1

  9
$DIMBLK2
  1

  9
$DIMSTYLE
  2
Standard
  9
$DIMCLRD
 70
     0
  9
$DIMCLRE
 70
     0
  9
$DIMCLRT
 70
     0
  9
$DIMTFAC
 40
1.0
  9
$DIMGAP
 40
0.09
  9
$DIMJUST
 70
     0
  9
$DIMSD1
 70
     0
  9
$DIMSD2
 70
     0
  9
$DIMTOLJ
 70
     1
  9
$DIMTZIN
 70
     0
  9
$DIMALTZ
 70
     0
  9
$DIMALTTZ
 70
     0
  9
$DIMUPT
 70
     0
  9
$DIMDEC
 70
     4
  9
$DIMTDEC
 70
     4
  9
$DIMALTU
 70
     2
  9
$DIMALTTD
 70
     2
  9
$DIMTXSTY
  7
Standard
  9
$DIMAUNIT
 70
     0
  9
$DIMADEC
 70
     0
  9
$DIMALTRND
 40
0.0
  9
$DIMAZIN
 70
     0
  9
$DIMDSEP
 70
    46
  9
$DIMATFIT
 70
     3
  9
$DIMFRAC
 70
     0
  9
$DIMLDRBLK
  1

  9
$DIMLUNIT
 70
     2
  9
$DIMLWD
 70
    -2
  9
$DIMLWE
 70
    -2
  9
$DIMTMOVE
 70
     0
  9
$DIMFXL
 40
1.0
  9
$DIMFXLON
 70
     0
  9
$DIMJOGANG
 40
0.7853981633974483
  9
$DIMTFILL
 70
     0
  9
$DIMTFILLCLR
 70
     0
  9
$DIMARCSYM
 70
     0
  9
$DIMLTYPE
  6

  9
$DIMLTEX1
  6

  9
$DIMLTEX2
  6

  9
$DIMTXTDIRECTION
 70
     0
  9
$LUNITS
 70
     2
  9
$LUPREC
 70
     4
  9
$SKETCHINC
 40
0.1
  9
$FILLETRAD
 40
0.0
  9
$AUNITS
 70
     0
  9
$AUPREC
 70
     0
  9
$MENU
  1
.
  9
$ELEVATION
 40
0.0
  9
$PELEVATION
 40
0.0
  9
$THICKNESS
 40
0.0
  9
$LIMCHECK
 70
     0
  9
$CHAMFERA
 40
0.0
  9
$CHAMFERB
 40
0.0
  9
$CHAMFERC
 40
0.0
  9
$CHAMFERD
 40
0.0
  9
$SKPOLY
 70
     0
  9
$TDCREATE
 40
2457569.675331551
  9
$TDUCREATE
 40
2457569.591998218
  9
$TDUPDATE
 40
2457569.675331551
  9
$TDUUPDATE
 40
2457569.591998218
  9
$TDINDWG
 40
0.0000131481
  9
$TDUSRTIMER
 40
0.0000131481
  9
$USRTIMER
 70
     1
  9
$ANGBASE
 50
0.0
  9
$ANGDIR
 70
     0
  9
$PDMODE
 70
     0
  9
$PDSIZE
 40
0.0
  9
$PLINEWID
 40
0.0
  9
$SPLFRAME
 70
     0
  9
$SPLINETYPE
 70
     6
  9
$SPLINESEGS
 70
     8
  9
$HANDSEED
  5
20A
  9
$SURFTAB1
 70
     6
  9
$SURFTAB2
 70
     6
  9
$SURFTYPE
 70
     6
  9
$SURFU
 70
     6
  9
$SURFV
 70
     6
  9
$UCSBASE
  2

  9
$UCSNAME
  2

  9
$UCSORG
 10
0.0
 20
0.0
 30
0.0
  9
$UCSXDIR
 10
1.0
 20
0.0
 30
0.0
  9
$UCSYDIR
 10
0.0
 20
1.0
 30
0.0
  9
$UCSORTHOREF
  2

  9
$UCSORTHOVIEW
 70
     0
  9
$UCSORGTOP
 10
0.0
 20
0.0
 30
0.0
  9
$UCSORGBOTTOM
 10
0.0
 20
0.0
 30
0.0
  9
$UCSORGLEFT
 10
0.0
 20
0.0
 30
0.0
  9
$UCSORGRIGHT
 10
0.0
 20
0.0
 30
0.0
  9
$UCSORGFRONT
 10
0.0
 20
0.0
 30
0.0
  9
$UCSORGBACK
 10
0.0
 20
0.0
 30
0.0
  9
$PUCSBASE
  2

  9
$PUCSNAME
  2

  9
$PUCSORG
 10
0.0
 20
0.0
 30
0.0
  9
$PUCSXDIR
 10
1.0
 20
0.0
 30
0.0
  9
$PUCSYDIR
 10
0.0
 20
1.0
 30
0.0
  9
$PUCSORTHOREF
  2

  9
$PUCSORTHOVIEW
 70
     0
  9
$PUCSORGTOP
 10
0.0
 20
0.0
 30
0.0
  9
$PUCSORGBOTTOM
 10
0.0
 20
0.0
 30
0.0
  9
$PUCSORGLEFT
 10
0.0
 20
0.0
 30
0.0
  9
$PUCSORGRIGHT
 10
0.0
 20
0.0
 30
0.0
  9
$PUCSORGFRONT
 10
0.0
 20
0.0
 30
0.0
  9
$PUCSORGBACK
 10
0.0
 20
0.0
 30
0.0
  9
$USERI1
 70
     0
  9
$USERI2
 70
     0
  9
$USERI3
 70
     0
  9
$USERI4
 70
     0
  9
$USERI5
 70
     0
  9
$USERR1
 40
0.0
  9
$USERR2
 40
0.0
  9
$USERR3
 40
0.0
  9
$USERR4
 40
0.0
  9
$USERR5
 40
0.0
  9
$WORLDVIEW
 70
     1
  9
$SHADEDGE
 70
     3
  9
$SHADEDIF
 70
    70
  9
$TILEMODE
 70
     1
  9
$MAXACTVP
 70
    64
  9
$PINSBASE
 10
0.0
 20
0.0
 30
0.0
  9
$PLIMCHECK
 70
     0
  9
$PEXTMIN
 10
1.000000000000000E+20
 20
1.000000000000000E+20
 30
1.000000000000000E+20
  9
$PEXTMAX
 10
-1.000000000000000E+20
 20
-1.000000000000000E+20
 30
-1.000000000000000E+20
  9
$PLIMMIN
 10
0.0
 20
0.0
  9
$PLIMMAX
 10
12.0
 20
9.0
  9
$UNITMODE
 70
     0
  9
$VISRETAIN
 70
     1
  9
$PLINEGEN
 70
     0
  9
$PSLTSCALE
 70
     1
  9
$TREEDEPTH
 70
  3020
  9
$CMLSTYLE
  2
Standard
  9
$CMLJUST
 70
     0
  9
$CMLSCALE
 40
1.0
  9
$PROXYGRAPHICS
 70
     1
  9
$MEASUREMENT
 70
     1
  9
$CELWEIGHT
370
    -1
  9
$ENDCAPS
280
     0
  9
$JOINSTYLE
280
     0
  9
$LWDISPLAY
290
     0
  9
$INSUNITS
 70
     4
  9
$HYPERLINKBASE
  1

  9
$STYLESHEET
  1

  9
$XEDIT
290
     1
  9
$CEPSNTYPE
380
     0
  9
$PSTYLEMODE
290
     1
  9
$FINGERPRINTGUID
  2
{A4BCFEA7-3787-4CC2-B925-3C0643DF04FE}
  9
$VERSIONGUID
  2
{90F2BB37-27AA-48CD-8D05-50DB78281B93}
  9
$EXTNAMES
290
     1
  9
$PSVPSCALE
 40
0.0
  9
$OLESTARTUP
290
     0
  9
$SORTENTS
280
   127
  9
$INDEXCTL
280
     0
  9
$HIDETEXT
280
     1
  9
$XCLIPFRAME
280
     2
  9
$HALOGAP
280
     0
  9
$OBSCOLOR
 70
   257
  9
$OBSLTYPE
280
     0
  9
$INTERSECTIONDISPLAY
280
     0
  9
$INTERSECTIONCOLOR
 70
   257
  9
$DIMASSOC
280
     2
  9
$PROJECTNAME
  1

  9
$CAMERADISPLAY
290
     0
  9
$LENSLENGTH
 40
50.0
  9
$CAMERAHEIGHT
 40
0.0
  9
$STEPSPERSEC
 40
2.0
  9
$STEPSIZE
 40
6.0
  9
$3DDWFPREC
 40
2.0
  9
$PSOLWIDTH
 40
0.25
  9
$PSOLHEIGHT
 40
4.0
  9
$LOFTANG1
 40
1.570796326794896
  9
$LOFTANG2
 40
1.570796326794896
  9
$LOFTMAG1
 40
0.0
  9
$LOFTMAG2
 40
0.0
  9
$LOFTPARAM
 70
     7
  9
$LOFTNORMALS
280
     1
  9
$LATITUDE
 40
37.795
  9
$LONGITUDE
 40
-122.394
  9
$NORTHDIRECTION
 40
0.0
  9
$TIMEZONE
 70
 -8000
  9
$LIGHTGLYPHDISPLAY
280
     1
  9
$TILEMODELIGHTSYNCH
280
     1
  9
$CMATERIAL
347
11
  9
$SOLIDHIST
280
     0
  9
$SHOWHIST
280
     1
  9
$DWFFRAME
280
     2
  9
$DGNFRAME
280
     0
  9
$REALWORLDSCALE
290
     1
  9
$INTERFERECOLOR
 62
     1
  9
$INTERFEREOBJVS
345
33
  9
$INTERFEREVPVS
346
30
  9
$CSHADOW
280
     0
  9
$SHADOWPLANELOCATION
 40
0.0
  0
ENDSEC
  0
SECTION
  2
CLASSES
  0
CLASS
  1
ACDBDICTIONARYWDFLT
  2
AcDbDictionaryWithDefault
  3
ObjectDBX Classes
 90
        0
 91
        1
280
     0
281
     0
  0
CLASS
  1
MATERIAL
  2
AcDbMaterial
  3
ObjectDBX Classes
 90
     1153
 91
        3
280
     0
281
     0
  0
CLASS
  1
VISUALSTYLE
  2
AcDbVisualStyle
  3
ObjectDBX Classes
 90
     4095
 91
       24
280
     0
281
     0
  0
CLASS
  1
SCALE
  2
AcDbScale
  3
ObjectDBX Classes
 90
     1153
 91
       17
280
     0
281
     0
  0
CLASS
  1
TABLESTYLE
  2
AcDbTableStyle
  3
ObjectDBX Classes
 90
     4095
 91
        1
280
     0
281
     0
  0
CLASS
  1
MLEADERSTYLE
  2
AcDbMLeaderStyle
  3
ACDB_MLEADERSTYLE_CLASS
 90
     4095
 91
        1
280
     0
281
     0
  0
CLASS
  1
ACDBSECTIONVIEWSTYLE
  2
AcDbSectionViewStyle
  3
ObjectDBX Classes
 90
     1025
 91
        1
280
     0
281
     0
  0
CLASS
  1
ACDBDETAILVIEWSTYLE
  2
AcDbDetailViewStyle
  3
ObjectDBX Classes
 90
     1025
 91
        1
280
     0
281
     0
  0
CLASS
  1
RASTERVARIABLES
  2
AcDbRasterVariables
  3
ISM
 90
        0
 91
        1
280
     0
281
     0
  0
CLASS
  1
DICTIONARYVAR
  2
AcDbDictionaryVar
  3
ObjectDBX Classes
 90
        0
 91
        5
280
     0
281
     0
  0
CLASS
  1
CELLSTYLEMAP
  2
AcDbCellStyleMap
  3
ObjectDBX Classes
 90
     1152
 91
        2
280
     0
281
     0
  0
CLASS
  1
SORTENTSTABLE
  2
AcDbSortentsTable
  3
ObjectDBX Classes
 90
        0
 91
        1
280
     0
281
     0
  0
ENDSEC
  0
SECTION
  2
TABLES
  0
TABLE
  2
VPORT
  5
8
330
0
100
AcDbSymbolTable
 70
     1
  0
VPORT
  5
57
330
8
100
AcDbSymbolTableRecord
100
AcDbViewportTableRecord
  2
*Active
 70
     0
 10
0.0
 20
0.0
 11
1.0
 21
1.0
 12
1031.764782131043
 22
1844.816306029904
 13
0.0
 23
0.0
 14
1.0
 24
1.0
 15
0.0
 25
0.0
 16
0.0
 26
0.0
 36
1.0
 17
0.0
 27
0.0
 37
0.0
 40
416.1384603912904
 41
1.230832518854659
 42
50.0
 43
0.0
 44
0.0
 50
0.0
 51
0.0
 71
     0
 72
  1000
 73
     1
 74
     1
 75
     0
 76
     0
 77
     0
 78
     0
281
     0
 65
     1
110
0.0
120
0.0
130
0.0
111
1.0
121
0.0
131
0.0
112
0.0
122
1.0
132
0.0
 79
     0
146
0.0
 60
     3
 61
     5
292
     1
282
     1
141
0.0
142
0.0
 63
   250
421
  3355443
  0
ENDTAB
  0
TABLE
  2
LTYPE
  5
5
330
0
100
AcDbSymbolTable
 70
     3
  0
LTYPE
  5
5B
330
5
100
AcDbSymbolTableRecord
100
AcDbLinetypeTableRecord
  2
ByBlock
 70
     0
  3

 72
    65
 73
     0
 40
0.0
  0
LTYPE
  5
5C
330
5
100
AcDbSymbolTableRecord
100
AcDbLinetypeTableRecord
  2
ByLayer
 70
     0
  3

 72
    65
 73
     0
 40
0.0
  0
LTYPE
  5
5D
330
5
100
AcDbSymbolTableRecord
100
AcDbLinetypeTableRecord
  2
Continuous
 70
     0
  3
Solid line
 72
    65
 73
     0
 40
0.0
  0
LTYPE
  5
69
330
5
100
AcDbSymbolTableRecord
100
AcDbLinetypeTableRecord
  2
PHANTOM2
 70
     0
  3
___ _ _ ___ _ _ ___ _ _ ___ _ _
 72
    65
 73
     6
 40
1.25
 49
0.625
 74
     0
 49
-0.125
 74
     0
 49
0.125
 74
     0
 49
-0.125
 74
     0
 49
0.125
 74
     0
 49
-0.125
 74
     0
  0
LTYPE
  5
86
330
5
100
AcDbSymbolTableRecord
100
AcDbLinetypeTableRecord
  2
Nascosto 1_5 mm
 70
     0
  3

 72
    65
 73
     2
 40
2.2
 49
1.5
 74
     0
 49
-0.7000000000000001
 74
     0
  0
ENDTAB
  0
TABLE
  2
LAYER
  5
2
330
0
100
AcDbSymbolTable
 70
     3
  0
LAYER
  5
54
330
2
100
AcDbSymbolTableRecord
100
AcDbLayerTableRecord
  2
0
 70
     0
 62
     7
  6
Continuous
370
    -3
390
F
347
21
348
0
  0
LAYER
  5
85
330
2
100
AcDbSymbolTableRecord
100
AcDbLayerTableRecord
  2
P-SANR-FIXT
 70
     0
 62
     6
  6
Continuous
370
    18
390
F
347
21
348
0
  0
ENDTAB
  0
TABLE
  2
STYLE
  5
3
330
0
100
AcDbSymbolTable
 70
     2
  0
STYLE
  5
55
330
3
100
AcDbSymbolTableRecord
100
AcDbTextStyleTableRecord
  2
Standard
 70
     0
 40
0.0
 41
1.0
 50
0.0
 71
     0
 42
0.2
  3
txt
  4

  0
STYLE
  5
5A
330
3
100
AcDbSymbolTableRecord
100
AcDbTextStyleTableRecord
  2
Annotative
 70
     0
 40
0.0
 41
1.0
 50
0.0
 71
     0
 42
0.2
  3
txt
  4

1001
AcadAnnotative
1000
AnnotativeData
1002
{
1070
     1
1070
     1
1002
}
  0
ENDTAB
  0
TABLE
  2
VIEW
  5
6
330
0
100
AcDbSymbolTable
 70
     0
  0
ENDTAB
  0
TABLE
  2
UCS
  5
7
330
0
100
AcDbSymbolTable
 70
     0
  0
ENDTAB
  0
TABLE
  2
APPID
  5
9
330
0
100
AcDbSymbolTable
 70
     3
  0
APPID
  5
56
330
9
100
AcDbSymbolTableRecord
100
AcDbRegAppTableRecord
  2
ACAD
 70
     0
  0
APPID
  5
5E
330
9
100
AcDbSymbolTableRecord
100
AcDbRegAppTableRecord
  2
AcadAnnotative
 70
     0
  0
APPID
  5
79
330
9
100
AcDbSymbolTableRecord
100
AcDbRegAppTableRecord
  2
REVIT
 70
     0
  0
ENDTAB
  0
TABLE
  2
DIMSTYLE
  5
A
330
0
100
AcDbSymbolTable
 70
     2
100
AcDbDimStyleTable
 71
     0
  0
DIMSTYLE
105
58
330
A
100
AcDbSymbolTableRecord
100
AcDbDimStyleTableRecord
  2
Standard
 70
     0
340
55
  0
DIMSTYLE
105
59
330
A
100
AcDbSymbolTableRecord
100
AcDbDimStyleTableRecord
  2
Annotative
 70
     0
340
55
1001
AcadAnnotative
1000
AnnotativeData
1002
{
1070
     1
1070
     1
1002
}
  0
ENDTAB
  0
TABLE
  2
BLOCK_RECORD
  5
1
330
0
100
AcDbSymbolTable
 70
     4
  0
BLOCK_RECORD
  5
71
102
{ACAD_XDICTIONARY
360
205
102
}
330
1
100
AcDbSymbolTableRecord
100
AcDbBlockTableRecord
  2
*Model_Space
340
74
 70
     0
280
     1
281
     0
  0
BLOCK_RECORD
  5
6D
330
1
100
AcDbSymbolTableRecord
100
AcDbBlockTableRecord
  2
*Paper_Space
340
70
 70
     0
280
     1
281
     0
  0
BLOCK_RECORD
  5
75
330
1
100
AcDbSymbolTableRecord
100
AcDbBlockTableRecord
  2
*Paper_Space0
340
78
 70
     0
280
     1
281
     0
  0
BLOCK_RECORD
  5
87
330
1
100
AcDbSymbolTableRecord
100
AcDbBlockTableRecord
  2
Automatic flow rate regulator valve_Caleffi_121 DN15 - 1_2__-859151-Est - Idraulica
340
0
102
{BLKREFS
331
DC
102
}
 70
     0
280
     1
281
     0
  0
BLOCK_RECORD
  5
DD
330
1
100
AcDbSymbolTableRecord
100
AcDbBlockTableRecord
  2
Automatic flow rate regulator valve_Caleffi_121 DN15 - 1_2__-V1-Est - Idraulica
340
0
102
{BLKREFS
331
17E
102
}
 70
     0
280
     1
281
     0
  0
BLOCK_RECORD
  5
17F
330
1
100
AcDbSymbolTableRecord
100
AcDbBlockTableRecord
  2
Automatic flow rate regulator valve_Caleffi_121 DN15 - 1_2__-V2-Est - Idraulica
340
0
102
{BLKREFS
331
1FF
102
}
 70
     0
280
     1
281
     0
  0
ENDTAB
  0
ENDSEC
  0
SECTION
  2
BLOCKS
  0
BLOCK
  5
72
330
71
100
AcDbEntity
  8
0
100
AcDbBlockBegin
  2
*Model_Space
 70
     0
 10
0.0
 20
0.0
 30
0.0
  3
*Model_Space
  1

  0
ENDBLK
  5
73
330
71
100
AcDbEntity
  8
0
100
AcDbBlockEnd
  0
BLOCK
  5
6E
330
6D
100
AcDbEntity
 67
     1
  8
0
100
AcDbBlockBegin
  2
*Paper_Space
 70
     0
 10
0.0
 20
0.0
 30
0.0
  3
*Paper_Space
  1

  0
ENDBLK
  5
6F
330
6D
100
AcDbEntity
 67
     1
  8
0
100
AcDbBlockEnd
  0
BLOCK
  5
76
330
75
100
AcDbEntity
 67
     1
  8
0
100
AcDbBlockBegin
  2
*Paper_Space0
 70
     0
 10
0.0
 20
0.0
 30
0.0
  3
*Paper_Space0
  1

  0
ENDBLK
  5
77
330
75
100
AcDbEntity
 67
     1
  8
0
100
AcDbBlockEnd
  0
BLOCK
  5
DA
330
87
100
AcDbEntity
  8
0
100
AcDbBlockBegin
  2
Automatic flow rate regulator valve_Caleffi_121 DN15 - 1_2__-859151-Est - Idraulica
 70
     0
 10
0.0
 20
0.0
 30
0.0
  3
Automatic flow rate regulator valve_Caleffi_121 DN15 - 1_2__-859151-Est - Idraulica
  1

  0
LINE
  5
88
330
87
100
AcDbEntity
  8
P-SANR-FIXT
100
AcDbLine
 10
791.6664074432089
 20
1937.937499999997
 30
0.0
 11
791.6664074432089
 21
1921.937499999919
 31
0.0
  0
LINE
  5
89
330
87
100
AcDbEntity
  8
P-SANR-FIXT
100
AcDbLine
 10
813.2040973782718
 20
1937.937499999997
 30
0.0
 11
813.2040973782718
 21
1921.937499999919
 31
0.0
  0
LINE
  5
8A
330
87
100
AcDbEntity
  8
P-SANR-FIXT
100
AcDbLine
 10
818.128717508104
 20
1921.937499999919
 30
0.0
 11
818.128717508104
 21
1937.937499999997
 31
0.0
  0
LINE
  5
8B
330
87
100
AcDbEntity
  8
P-SANR-FIXT
100
AcDbLine
 10
839.6664074431674
 20
1921.937499999919
 30
0.0
 11
837.2040973782514
 21
1921.937499999919
 31
0.0
  0
LINE
  5
8C
330
87
100
AcDbEntity
  8
P-SANR-FIXT
100
AcDbLine
 10
818.128717508104
 20
1921.937499999919
 30
0.0
 11
837.2040973782514
 21
1921.937499999919
 31
0.0
  0
LINE
  5
8D
330
87
100
AcDbEntity
  8
P-SANR-FIXT
100
AcDbLine
 10
813.2040973782718
 20
1921.937499999919
 30
0.0
 11
818.1287175081038
 21
1921.937499999919
 31
0.0
  0
LINE
  5
8E
330
87
100
AcDbEntity
  8
P-SANR-FIXT
100
AcDbLine
 10
813.204097378272
 20
1921.937499999919
 30
0.0
 11
794.1287175081249
 21
1921.937499999919
 31
0.0
  0
LINE
  5
8F
330
87
100
AcDbEntity
  8
P-SANR-FIXT
100
AcDbLine
 10
791.6664074432089
 20
1921.937499999919
 30
0.0
 11
794.1287175081249
 21
1921.937499999919
 31
0.0
  0
LINE
  5
90
330
87
100
AcDbEntity
  8
P-SANR-FIXT
100
AcDbLine
 10
794.1287175081249
 20
1921.937499999919
 30
0.0
 11
794.1287175081249
 21
1937.937499999997
 31
0.0
  0
LINE
  5
91
330
87
100
AcDbEntity
  8
P-SANR-FIXT
100
AcDbLine
 10
837.2040973782514
 20
1921.937499999919
 30
0.0
 11
837.2040973782514
 21
1937.937499999997
 31
0.0
  0
LINE
  5
92
330
87
100
AcDbEntity
  8
P-SANR-FIXT
100
AcDbLine
 10
839.6664074431674
 20
1921.937499999919
 30
0.0
 11
839.6664074431674
 21
1937.937499999997
 31
0.0
  0
LINE
  5
93
330
87
100
AcDbEntity
  8
P-SANR-FIXT
100
AcDbLine
 10
775.6664074431886
 20
2005.437499999998
 30
0.0
 11
775.6664074431886
 21
1970.937499999998
 31
0.0
  0
LINE
  5
94
330
87
100
AcDbEntity
  8
P-SANR-FIXT
100
AcDbLine
 10
855.6664074431891
 20
1970.937499999998
 30
0.0
 11
855.6664074431891
 21
2005.437499999999
 31
0.0
  0
LINE
  5
95
330
87
100
AcDbEntity
  8
P-SANR-FIXT
100
AcDbLine
 10
790.6664074431885
 20
2042.52941426062
 30
0.0
 11
788.3243920682352
 21
2041.676990375943
 31
0.0
  0
LINE
  5
96
330
87
100
AcDbEntity
  8
P-SANR-FIXT
100
AcDbLine
 10
843.0084228181423
 20
2041.676990375943
 30
0.0
 11
840.6664074431891
 21
2042.52941426062
 31
0.0
  0
LWPOLYLINE
  5
97
330
87
100
AcDbEntity
  8
P-SANR-FIXT
100
AcDbPolyline
 90
       32
 70
   128
 43
0.0
 10
843.0084228181423
 20
2041.676990375943
 10
843.0457269207531
 20
2041.662561564265
 10
843.0824241854887
 20
2041.646652527871
 10
843.1184559045538
 20
2041.629288717827
 10
843.1537644348841
 20
2041.610497912524
 10
843.1882932903631
 20
2041.590310173241
 10
843.2219872321883
 20
2041.568757796055
 10
843.2547923572398
 20
2041.545875260174
 10
843.2866561843159
 20
2041.521699172771
 10
843.3175277380907
 20
2041.49626821043
 10
843.3473576306633
 20
2041.469623057265
 10
843.3760981405693
 20
2041.441806339839
 10
843.4037032891236
 20
2041.412862558964
 10
843.4301289139776
 20
2041.382838018516
 10
843.4553327397685
 20
2041.351780751354
 10
843.4792744457515
 20
2041.319740442482
 10
843.5019157303043
 20
2041.286768349557
 10
843.5232203722019
 20
2041.252917220895
 10
843.5431542885613
 20
2041.218241211081
 10
843.5616855893693
 20
2041.182795794334
 10
843.5787846284977
 20
2041.146637675758
 10
843.5944240511311
 20
2041.10982470063
 10
843.6085788375297
 20
2041.072415761858
 10
843.6212263430549
 20
2041.034470705763
 10
843.6323463343958
 20
2040.996050236342
 10
843.6419210219384
 20
2040.957215818147
 10
843.649935088225
 20
2040.918029577965
 10
843.656375712459
 20
2040.878554205421
 10
843.6612325910161
 20
2040.838852852689
 10
843.6644979539263
 20
2040.798989033465
 10
843.6661665773053
 20
2040.759026521356
 10
843.6664026748168
 20
2040.737297755157
  0
LWPOLYLINE
  5
98
330
87
100
AcDbEntity
  8
P-SANR-FIXT
100
AcDbPolyline
 90
       32
 70
   128
 43
0.0
 10
787.6664122115609
 20
2040.737297755157
 10
787.6672121048999
 20
2040.777287089344
 10
787.6696105052583
 20
2040.817212449127
 10
787.673603575707
 20
2040.857009962446
 10
787.6791849281852
 20
2040.896615961772
 10
787.6863456337197
 20
2040.935967085952
 10
787.6950742367088
 20
2040.975000381584
 10
787.7053567732501
 20
2041.013653403721
 10
787.7171767934783
 20
2041.051864315774
 10
787.7305153878831
 20
2041.089571988432
 10
787.7453512175581
 20
2041.126716097466
 10
787.761660548341
 20
2041.163237220223
 10
787.7794172887814
 20
2041.199076930699
 10
787.7985930318832
 20
2041.234177893001
 10
787.8191571005474
 20
2041.268483953078
 10
787.8410765966512
 20
2041.301940228553
 10
787.8643164536765
 20
2041.33449319652
 10
787.8888394928099
 20
2041.366090779176
 10
787.9146064824198
 20
2041.396682427129
 10
787.94157620082
 20
2041.426219200268
 10
787.9697055022136
 20
2041.454653846057
 10
787.9989493857196
 20
2041.481940875128
 10
788.0292610673623
 20
2041.508036634056
 10
788.0605920549173
 20
2041.532899375194
 10
788.0928922254883
 20
2041.556489323458
 10
788.1261099056927
 20
2041.578768739965
 10
788.160191954328
 20
2041.5997019824
 10
788.195083847387
 20
2041.619255562042
 10
788.2307297652841
 20
2041.637398197334
 10
788.2670726821547
 20
2041.654100863929
 10
788.3040544570841
 20
2041.669336841124
 10
788.3243920682352
 20
2041.676990375943
  0
LINE
  5
99
330
87
100
AcDbEntity
  8
P-SANR-FIXT
100
AcDbLine
 10
787.6664122115597
 20
2040.737297755157
 30
0.0
 11
787.6664122115597
 21
2038.535881723403
 31
0.0
  0
LINE
  5
9A
330
87
100
AcDbEntity
  8
P-SANR-FIXT
100
AcDbLine
 10
843.6664026748177
 20
2038.535881723402
 30
0.0
 11
843.6664026748177
 21
2040.737297755157
 31
0.0
  0
LINE
  5
9B
330
87
100
AcDbEntity
  8
P-SANR-FIXT
100
AcDbLine
 10
775.6664074431893
 20
1970.937499999998
 30
0.0
 11
789.1664074431895
 21
1937.937499999998
 31
0.0
  0
LINE
  5
9C
330
87
100
AcDbEntity
  8
P-SANR-FIXT
100
AcDbLine
 10
842.1664074431884
 20
1937.937499999998
 30
0.0
 11
855.6664074431886
 21
1970.937499999998
 31
0.0
  0
LINE
  5
9D
330
87
100
AcDbEntity
  8
P-SANR-FIXT
100
AcDbLine
 10
775.6664074431887
 20
2006.437499999998
 30
0.0
 11
775.6664074431887
 21
2005.437499999998
 31
0.0
  0
LINE
  5
9E
330
87
100
AcDbEntity
  8
P-SANR-FIXT
100
AcDbLine
 10
855.6664074431889
 20
2005.437499999999
 30
0.0
 11
855.6664074431889
 21
2006.437499999998
 31
0.0
  0
SPLINE
  5
9F
330
87
100
AcDbEntity
  8
P-SANR-FIXT
100
AcDbSpline
210
0.0
220
0.0
230
1.0
 70
     8
 71
     3
 72
     8
 73
     4
 74
     0
 42
0.000000001
 43
0.0000000001
 40
-0.6731335174179492
 40
-0.6731335174179492
 40
-0.6731335174179492
 40
-0.6731335174179492
 40
-0.6666666666666668
 40
-0.6666666666666668
 40
-0.6666666666666668
 40
-0.6666666666666668
 10
830.0500446834778
 20
2052.587668994903
 30
0.0
 10
830.0132776417285
 20
2052.591116365098
 30
0.0
 10
829.976510633174
 20
2052.594563116761
 30
0.0
 10
829.9397440412707
 20
2052.598002104764
 30
0.0
  0
SPLINE
  5
A0
330
87
100
AcDbEntity
  8
P-SANR-FIXT
100
AcDbSpline
210
0.0
220
0.0
230
1.0
 70
     8
 71
     3
 72
     8
 73
     4
 74
     0
 42
0.000000001
 43
0.0000000001
 40
-0.5076515522402046
 40
-0.5076515522402046
 40
-0.5076515522402046
 40
-0.5076515522402046
 40
-0.5
 40
-0.5
 40
-0.5
 40
-0.5
 10
827.2343073775042
 20
2052.725840478813
 30
0.0
 10
827.1910139874032
 20
2052.726020744483
 30
0.0
 10
827.1477206702099
 20
2052.726199651631
 30
0.0
 10
827.104441718645
 20
2052.726110877319
 30
0.0
  0
SPLINE
  5
A1
330
87
100
AcDbEntity
  8
P-SANR-FIXT
100
AcDbSpline
210
0.0
220
0.0
230
1.0
 70
     8
 71
     3
 72
     8
 73
     4
 74
     0
 42
0.000000001
 43
0.0000000001
 40
-0.3401233190575942
 40
-0.3401233190575942
 40
-0.3401233190575942
 40
-0.3401233190575942
 40
-0.3333333333333334
 40
-0.3333333333333334
 40
-0.3333333333333334
 40
-0.3333333333333334
 10
824.3975799854663
 20
2052.608058309379
 30
0.0
 10
824.3593494059627
 20
2052.604715836308
 30
0.0
 10
824.3211301018206
 20
2052.601163264164
 30
0.0
 10
824.2829216258892
 20
2052.597408924916
 30
0.0
  0
SPLINE
  5
A2
330
87
100
AcDbEntity
  8
P-SANR-FIXT
100
AcDbSpline
210
0.0
220
0.0
230
1.0
 70
     8
 71
     3
 72
     8
 73
     4
 74
     0
 42
0.000000001
 43
0.0000000001
 40
-0.6731335174179481
 40
-0.6731335174179481
 40
-0.6731335174179481
 40
-0.6731335174179481
 40
-0.6666666666666668
 40
-0.6666666666666668
 40
-0.6666666666666668
 40
-0.6666666666666668
 10
807.0500446834783
 20
2052.587668994904
 30
0.0
 10
807.0132776417292
 20
2052.591116365098
 30
0.0
 10
806.9765106331745
 20
2052.594563116761
 30
0.0
 10
806.9397440412714
 20
2052.598002104765
 30
0.0
  0
SPLINE
  5
A3
330
87
100
AcDbEntity
  8
P-SANR-FIXT
100
AcDbSpline
210
0.0
220
0.0
230
1.0
 70
     8
 71
     3
 72
     8
 73
     4
 74
     0
 42
0.000000001
 43
0.0000000001
 40
-0.5076515522402141
 40
-0.5076515522402141
 40
-0.5076515522402141
 40
-0.5076515522402141
 40
-0.5
 40
-0.5
 40
-0.5
 40
-0.5
 10
804.2343073775045
 20
2052.725840478814
 30
0.0
 10
804.1910139874033
 20
2052.726020744484
 30
0.0
 10
804.1477206702099
 20
2052.726199651631
 30
0.0
 10
804.104441718645
 20
2052.726110877319
 30
0.0
  0
SPLINE
  5
A4
330
87
100
AcDbEntity
  8
P-SANR-FIXT
100
AcDbSpline
210
0.0
220
0.0
230
1.0
 70
     8
 71
     3
 72
     8
 73
     4
 74
     0
 42
0.000000001
 43
0.0000000001
 40
-0.3401233190575832
 40
-0.3401233190575832
 40
-0.3401233190575832
 40
-0.3401233190575832
 40
-0.3333333333333334
 40
-0.3333333333333334
 40
-0.3333333333333334
 40
-0.3333333333333334
 10
801.3975799854653
 20
2052.608058309379
 30
0.0
 10
801.3593494059621
 20
2052.604715836308
 30
0.0
 10
801.32113010182
 20
2052.601163264164
 30
0.0
 10
801.2829216258886
 20
2052.597408924916
 30
0.0
  0
LINE
  5
A5
330
87
100
AcDbEntity
  8
P-SANR-FIXT
100
AcDbLine
 10
838.6664074431877
 20
2052.437499999998
 30
0.0
 11
792.6664074431877
 21
2052.437499999998
 31
0.0
  0
SPLINE
  5
A6
330
87
100
AcDbEntity
  8
P-SANR-FIXT
100
AcDbSpline
210
0.0
220
0.0
230
1.0
 70
    24
 71
     3
 72
     9
 73
     5
 74
     0
 42
0.000000001
 43
0.0000000001
 40
-1.0
 40
-1.0
 40
-1.0
 40
-1.0
 40
-0.5
 40
0.0
 40
0.0
 40
0.0
 40
0.0
 10
792.6664074431877
 20
2052.437499999998
 30
0.0
 10
792.6664074431877
 20
2052.336627705192
 30
0.0
 10
792.6664074431877
 20
2052.091417843088
 30
0.0
 10
792.6664074431877
 20
2051.759277436002
 30
0.0
 10
792.6664074431877
 20
2051.571474596213
 30
0.0
  0
SPLINE
  5
A7
330
87
100
AcDbEntity
  8
P-SANR-FIXT
100
AcDbSpline
210
0.0
220
0.0
230
1.0
 70
     8
 71
     3
 72
     8
 73
     4
 74
     0
 42
0.000000001
 43
0.0000000001
 40
-1.0
 40
-1.0
 40
-1.0
 40
-1.0
 40
-0.7735423488698995
 40
-0.7735423488698995
 40
-0.7735423488698995
 40
-0.7735423488698995
 10
795.6811260689472
 20
2051.571474596213
 30
0.0
 10
796.9808741449801
 20
2051.920109556384
 30
0.0
 10
798.2763851644127
 20
2052.189793462374
 30
0.0
 10
799.567659127245
 20
2052.380526314181
 30
0.0
  0
SPLINE
  5
A8
330
87
100
AcDbEntity
  8
P-SANR-FIXT
100
AcDbSpline
210
0.0
220
0.0
230
1.0
 70
     8
 71
     3
 72
     8
 73
     4
 74
     0
 42
0.000000001
 43
0.0000000001
 40
-0.7597562408636413
 40
-0.7597562408636413
 40
-0.7597562408636413
 40
-0.7597562408636413
 40
-0.7444351465280468
 40
-0.7444351465280468
 40
-0.7444351465280468
 40
-0.7444351465280468
 10
799.803439454
 20
2052.414482375018
 30
0.0
 10
799.8907662731572
 20
2052.426736144592
 30
0.0
 10
799.9780927012166
 20
2052.438982626658
 30
0.0
 10
800.0654153756379
 20
2052.451159165435
 30
0.0
  0
SPLINE
  5
A9
330
87
100
AcDbEntity
  8
P-SANR-FIXT
100
AcDbSpline
210
0.0
220
0.0
230
1.0
 70
     8
 71
     3
 72
     9
 73
     5
 74
     0
 42
0.000000001
 43
0.0000000001
 40
-0.7343489724787569
 40
-0.7343489724787569
 40
-0.7343489724787569
 40
-0.7343489724787569
 40
-0.5
 40
-0.2627292742590142
 40
-0.2627292742590142
 40
-0.2627292742590142
 40
-0.2627292742590142
 10
800.2377267334495
 20
2052.472462961306
 30
0.0
 10
801.5724797088054
 20
2052.641561571981
 30
0.0
 10
804.2527621845279
 20
2052.872590134539
 30
0.0
 10
806.9015181539354
 20
2052.516170583219
 30
0.0
 10
808.2319698161294
 20
2052.29714813564
 30
0.0
  0
SPLINE
  5
AA
330
87
100
AcDbEntity
  8
P-SANR-FIXT
100
AcDbSpline
210
0.0
220
0.0
230
1.0
 70
     8
 71
     3
 72
     8
 73
     4
 74
     0
 42
0.000000001
 43
0.0000000001
 40
-0.2008211551717292
 40
-0.2008211551717292
 40
-0.2008211551717292
 40
-0.2008211551717292
 40
0.0
 40
0.0
 40
0.0
 40
0.0
 10
809.2834208192778
 20
2052.312714227184
 30
0.0
 10
810.4095088508675
 20
2052.127721662236
 30
0.0
 10
811.5322648502507
 20
2051.880641785245
 30
0.0
 10
812.651688817427
 20
2051.571474596213
 30
0.0
  0
SPLINE
  5
AB
330
87
100
AcDbEntity
  8
P-SANR-FIXT
100
AcDbSpline
210
0.0
220
0.0
230
1.0
 70
     8
 71
     3
 72
     8
 73
     4
 74
     0
 42
0.000000001
 43
0.0000000001
 40
-1.0
 40
-1.0
 40
-1.0
 40
-1.0
 40
-0.803293966700011
 40
-0.803293966700011
 40
-0.803293966700011
 40
-0.803293966700011
 10
818.6811260689482
 20
2051.571474596213
 30
0.0
 10
819.8101154718226
 20
2051.874306493226
 30
0.0
 10
820.9359079998835
 20
2052.117569529022
 30
0.0
 10
822.0585036531312
 20
2052.3012637036
 30
0.0
  0
SPLINE
  5
AC
330
87
100
AcDbEntity
  8
P-SANR-FIXT
100
AcDbSpline
210
0.0
220
0.0
230
1.0
 70
     8
 71
     3
 72
     9
 73
     5
 74
     0
 42
0.000000001
 43
0.0000000001
 40
-0.7419938852649609
 40
-0.7419938852649609
 40
-0.7419938852649609
 40
-0.7419938852649609
 40
-0.5
 40
-0.2910760754254285
 40
-0.2910760754254285
 40
-0.2910760754254285
 40
-0.2910760754254285
 10
823.1070856438732
 20
2052.45564406921
 30
0.0
 10
824.4856865215652
 20
2052.635955274616
 30
0.0
 10
827.0490150967638
 20
2052.869847143891
 30
0.0
 10
829.5823644329193
 20
2052.545121852881
 30
0.0
 10
830.7541115335082
 20
2052.356828992923
 30
0.0
  0
SPLINE
  5
AD
330
87
100
AcDbEntity
  8
P-SANR-FIXT
100
AcDbSpline
210
0.0
220
0.0
230
1.0
 70
     8
 71
     3
 72
     8
 73
     4
 74
     0
 42
0.000000001
 43
0.0000000001
 40
-0.2603699093056304
 40
-0.2603699093056304
 40
-0.2603699093056304
 40
-0.2603699093056304
 40
-0.2459114504732824
 40
-0.2459114504732824
 40
-0.2459114504732824
 40
-0.2459114504732824
 10
831.2807977310919
 20
2052.460902098736
 30
0.0
 10
831.3620146146638
 20
2052.450234239242
 30
0.0
 10
831.4431816014396
 20
2052.438636629446
 30
0.0
 10
831.5243041264837
 20
2052.426210543441
 30
0.0
  0
SPLINE
  5
AE
330
87
100
AcDbEntity
  8
P-SANR-FIXT
100
AcDbSpline
210
0.0
220
0.0
230
1.0
 70
     8
 71
     3
 72
     8
 73
     4
 74
     0
 42
0.000000001
 43
0.0000000001
 40
-0.2309061286132711
 40
-0.2309061286132711
 40
-0.2309061286132711
 40
-0.2309061286132711
 40
0.0
 40
0.0
 40
0.0
 40
0.0
 10
831.7770994701985
 20
2052.391675043384
 30
0.0
 10
833.0730344075515
 20
2052.200358203439
 30
0.0
 10
834.3645641899607
 20
2051.926958054381
 30
0.0
 10
835.6516888174262
 20
2051.571474596213
 30
0.0
  0
SPLINE
  5
AF
330
87
100
AcDbEntity
  8
P-SANR-FIXT
100
AcDbSpline
210
0.0
220
0.0
230
1.0
 70
    24
 71
     3
 72
     9
 73
     5
 74
     0
 42
0.000000001
 43
0.0000000001
 40
-1.0
 40
-1.0
 40
-1.0
 40
-1.0
 40
-0.5
 40
0.0
 40
0.0
 40
0.0
 40
0.0
 10
838.6664074431877
 20
2051.571474596213
 30
0.0
 10
838.6664074431877
 20
2051.759277436002
 30
0.0
 10
838.6664074431877
 20
2052.091417843089
 30
0.0
 10
838.6664074431877
 20
2052.336627705192
 30
0.0
 10
838.6664074431877
 20
2052.437499999998
 30
0.0
  0
LINE
  5
B0
330
87
100
AcDbEntity
  8
P-SANR-FIXT
100
AcDbLine
 10
799.9541496296753
 20
2052.437499999998
 30
0.0
 11
800.1960640275482
 21
2052.437499999998
 31
0.0
  0
LINE
  5
B1
330
87
100
AcDbEntity
  8
P-SANR-FIXT
100
AcDbLine
 10
831.1459575090836
 20
2052.437499999998
 30
0.0
 11
831.3889023507249
 21
2052.437499999998
 31
0.0
  0
LINE
  5
B2
330
87
100
AcDbEntity
  8
P-SANR-FIXT
100
AcDbLine
 10
831.3889023507249
 20
2052.437499999998
 30
0.0
 11
831.1459575090836
 21
2052.437499999998
 31
0.0
  0
LINE
  5
B3
330
87
100
AcDbEntity
  8
P-SANR-FIXT
100
AcDbLine
 10
800.1960640275482
 20
2052.437499999998
 30
0.0
 11
799.9541496296753
 21
2052.437499999998
 31
0.0
  0
LINE
  5
B4
330
87
100
AcDbEntity
  8
P-SANR-FIXT
100
AcDbLine
 10
792.6664074431876
 20
2051.571474596213
 30
0.0
 11
795.6811260689471
 21
2051.571474596213
 31
0.0
  0
LINE
  5
B5
330
87
100
AcDbEntity
  8
P-SANR-FIXT
100
AcDbLine
 10
792.6664074431872
 20
2051.571474596213
 30
0.0
 11
792.6664074431872
 21
2042.529414260619
 31
0.0
  0
LINE
  5
B6
330
87
100
AcDbEntity
  8
P-SANR-FIXT
100
AcDbLine
 10
795.6811260689478
 20
2042.529414260619
 30
0.0
 11
795.6811260689478
 21
2051.571474596213
 31
0.0
  0
LINE
  5
B7
330
87
100
AcDbEntity
  8
P-SANR-FIXT
100
AcDbLine
 10
812.6516888174268
 20
2051.571474596213
 30
0.0
 11
818.6811260689481
 21
2051.571474596213
 31
0.0
  0
LINE
  5
B8
330
87
100
AcDbEntity
  8
P-SANR-FIXT
100
AcDbLine
 10
812.6516888174265
 20
2051.571474596213
 30
0.0
 11
812.6516888174265
 21
2042.529414260619
 31
0.0
  0
LINE
  5
B9
330
87
100
AcDbEntity
  8
P-SANR-FIXT
100
AcDbLine
 10
818.6811260689477
 20
2042.529414260619
 30
0.0
 11
818.6811260689477
 21
2051.571474596213
 31
0.0
  0
LINE
  5
BA
330
87
100
AcDbEntity
  8
P-SANR-FIXT
100
AcDbLine
 10
835.6516888174258
 20
2051.571474596213
 30
0.0
 11
838.6664074431875
 21
2051.571474596213
 31
0.0
  0
LINE
  5
BB
330
87
100
AcDbEntity
  8
P-SANR-FIXT
100
AcDbLine
 10
835.6516888174265
 20
2051.571474596213
 30
0.0
 11
835.6516888174265
 21
2042.529414260619
 31
0.0
  0
LINE
  5
BC
330
87
100
AcDbEntity
  8
P-SANR-FIXT
100
AcDbLine
 10
838.6664074431871
 20
2042.529414260619
 30
0.0
 11
838.6664074431871
 21
2051.571474596213
 31
0.0
  0
LINE
  5
BD
330
87
100
AcDbEntity
  8
P-SANR-FIXT
100
AcDbLine
 10
840.6664074431873
 20
2042.529414260619
 30
0.0
 11
838.6664074431877
 21
2042.529414260619
 31
0.0
  0
LINE
  5
BE
330
87
100
AcDbEntity
  8
P-SANR-FIXT
100
AcDbLine
 10
835.6516888174258
 20
2042.529414260619
 30
0.0
 11
838.6664074431875
 21
2042.529414260619
 31
0.0
  0
LINE
  5
BF
330
87
100
AcDbEntity
  8
P-SANR-FIXT
100
AcDbLine
 10
835.6516888174262
 20
2042.529414260619
 30
0.0
 11
818.6811260689484
 21
2042.529414260619
 31
0.0
  0
LINE
  5
C0
330
87
100
AcDbEntity
  8
P-SANR-FIXT
100
AcDbLine
 10
812.6516888174268
 20
2042.529414260619
 30
0.0
 11
818.6811260689481
 21
2042.529414260619
 31
0.0
  0
LINE
  5
C1
330
87
100
AcDbEntity
  8
P-SANR-FIXT
100
AcDbLine
 10
812.6516888174272
 20
2042.529414260619
 30
0.0
 11
795.6811260689475
 21
2042.529414260619
 31
0.0
  0
LINE
  5
C2
330
87
100
AcDbEntity
  8
P-SANR-FIXT
100
AcDbLine
 10
792.6664074431876
 20
2042.529414260619
 30
0.0
 11
795.6811260689472
 21
2042.529414260619
 31
0.0
  0
LINE
  5
C3
330
87
100
AcDbEntity
  8
P-SANR-FIXT
100
AcDbLine
 10
792.6664074431879
 20
2042.529414260619
 30
0.0
 11
790.666407443187
 21
2042.529414260619
 31
0.0
  0
LWPOLYLINE
  5
C4
330
87
100
AcDbEntity
  8
P-SANR-FIXT
100
AcDbPolyline
 90
        4
 70
   128
 43
0.0
 10
787.6664122115583
 20
2038.535881723401
 10
788.2570663402796
 20
2038.410334312664
 10
790.0041092722156
 20
2038.038988873962
 10
792.8338339861856
 20
2037.437512318288
  0
LWPOLYLINE
  5
C5
330
87
100
AcDbEntity
  8
P-SANR-FIXT
100
AcDbPolyline
 90
        4
 70
   128
 43
0.0
 10
838.4989809001908
 20
2037.437512318288
 10
841.3287056141598
 20
2038.038988873962
 10
843.0757485460951
 20
2038.410334312664
 10
843.6664026748163
 20
2038.535881723401
  0
LINE
  5
C6
330
87
100
AcDbEntity
  8
P-SANR-FIXT
100
AcDbLine
 10
775.6664074431878
 20
1970.937499999997
 30
0.0
 11
855.666407443187
 21
1970.937499999998
 31
0.0
  0
LINE
  5
C7
330
87
100
AcDbEntity
  8
P-SANR-FIXT
100
AcDbLine
 10
855.6664074431873
 20
2006.437499999997
 30
0.0
 11
828.6664074431884
 21
2006.437499999997
 31
0.0
  0
LINE
  5
C8
330
87
100
AcDbEntity
  8
P-SANR-FIXT
100
AcDbLine
 10
828.6664074431879
 20
2006.437499999997
 30
0.0
 11
802.6664074431879
 21
2006.437499999997
 31
0.0
  0
LINE
  5
C9
330
87
100
AcDbEntity
  8
P-SANR-FIXT
100
AcDbLine
 10
802.6664074431881
 20
2006.437499999997
 30
0.0
 11
775.6664074431873
 21
2006.437499999997
 31
0.0
  0
LINE
  5
CA
330
87
100
AcDbEntity
  8
P-SANR-FIXT
100
AcDbLine
 10
789.166407443188
 20
1937.937499999997
 30
0.0
 11
842.166407443187
 21
1937.937499999997
 31
0.0
  0
SPLINE
  5
CB
330
87
100
AcDbEntity
  8
P-SANR-FIXT
100
AcDbSpline
210
0.0
220
0.0
230
1.0
 70
     8
 71
     3
 72
     8
 73
     4
 74
     0
 42
0.000000001
 43
0.0000000001
 40
-1.0
 40
-1.0
 40
-1.0
 40
-1.0
 40
-0.8571428571428572
 40
-0.8571428571428572
 40
-0.8571428571428572
 40
-0.8571428571428572
 10
828.6664074431879
 20
2006.437499999997
 30
0.0
 10
828.5219045151233
 20
2006.437499999997
 30
0.0
 10
828.3750029074042
 20
2006.45328898212
 30
0.0
 10
828.2298052850117
 20
2006.485724583275
 30
0.0
  0
SPLINE
  5
CC
330
87
100
AcDbEntity
  8
P-SANR-FIXT
100
AcDbSpline
210
0.0
220
0.0
230
1.0
 70
     8
 71
     3
 72
     8
 73
     4
 74
     0
 42
0.000000001
 43
0.0000000001
 40
-0.1428571428571428
 40
-0.1428571428571428
 40
-0.1428571428571428
 40
-0.1428571428571428
 40
0.0
 40
0.0
 40
0.0
 40
0.0
 10
803.1020119889975
 20
2006.485514170215
 30
0.0
 10
802.9569237207796
 20
2006.453102474313
 30
0.0
 10
802.8106137787482
 20
2006.437499999997
 30
0.0
 10
802.6664074431879
 20
2006.437499999997
 30
0.0
  0
SPLINE
  5
CD
330
87
100
AcDbEntity
  8
P-SANR-FIXT
100
AcDbSpline
210
0.0
220
0.0
230
1.0
 70
     8
 71
     3
 72
     8
 73
     4
 74
     0
 42
0.000000001
 43
0.0000000001
 40
-1.0
 40
-1.0
 40
-1.0
 40
-1.0
 40
-0.8571428571428572
 40
-0.8571428571428572
 40
-0.8571428571428572
 40
-0.8571428571428572
 10
802.6664074431876
 20
2006.437499999997
 30
0.0
 10
802.810613778748
 20
2006.437499999997
 30
0.0
 10
802.9572995312854
 20
2006.453226616268
 30
0.0
 10
803.1023489893756
 20
2006.485577004556
 30
0.0
  0
SPLINE
  5
CE
330
87
100
AcDbEntity
  8
P-SANR-FIXT
100
AcDbSpline
210
0.0
220
0.0
230
1.0
 70
     8
 71
     3
 72
     8
 73
     4
 74
     0
 42
0.000000001
 43
0.0000000001
 40
-0.1428571428571428
 40
-0.1428571428571428
 40
-0.1428571428571428
 40
-0.1428571428571428
 40
0.0
 40
0.0
 40
0.0
 40
0.0
 10
828.2301249904701
 20
2006.485665575295
 30
0.0
 10
828.3753583272241
 20
2006.453170777442
 30
0.0
 10
828.5219045151233
 20
2006.437499999997
 30
0.0
 10
828.6664074431877
 20
2006.437499999997
 30
0.0
  0
LINE
  5
CF
330
87
100
AcDbEntity
  8
P-SANR-FIXT
100
AcDbLine
 10
804.6664074431877
 20
2032.529414260633
 30
0.0
 11
804.6664074431875
 21
2008.437500000011
 31
0.0
  0
SPLINE
  5
D0
330
87
100
AcDbEntity
  8
P-SANR-FIXT
100
AcDbSpline
210
0.0
220
0.0
230
1.0
 70
     8
 71
     3
 72
    15
 73
    11
 74
     0
 42
0.000000001
 43
0.0000000001
 40
-1.0
 40
-1.0
 40
-1.0
 40
-1.0
 40
-0.7857142857142857
 40
-0.7321428571428572
 40
-0.6785714285714287
 40
-0.5714285714285714
 40
-0.4285714285714286
 40
-0.2857142857142857
 40
-0.1428571428571428
 40
0.0
 40
0.0
 40
0.0
 40
0.0
 10
804.6664074431875
 20
2008.437499999997
 30
0.0
 10
804.6664074431875
 20
2008.224429950159
 30
0.0
 10
804.6233922972742
 20
2007.952760224944
 30
0.0
 10
804.5036881653185
 20
2007.641428470319
 30
0.0
 10
804.4060165453524
 20
2007.439543272049
 30
0.0
 10
804.2301024143434
 20
2007.169091696024
 30
0.0
 10
803.9325017746969
 20
2006.866282639997
 30
0.0
 10
803.5398404378462
 20
2006.618690487657
 30
0.0
 10
803.1069681913928
 20
2006.469336856519
 30
0.0
 10
802.8120532769939
 20
2006.437499999997
 30
0.0
 10
802.6664074431876
 20
2006.437499999997
 30
0.0
  0
SPLINE
  5
D1
330
87
100
AcDbEntity
  8
P-SANR-FIXT
100
AcDbSpline
210
0.0
220
0.0
230
1.0
 70
     8
 71
     3
 72
    13
 73
     9
 74
     0
 42
0.000000001
 43
0.0000000001
 40
-1.0
 40
-1.0
 40
-1.0
 40
-1.0
 40
-0.7857142857142857
 40
-0.5714285714285714
 40
-0.4285714285714286
 40
-0.2857142857142857
 40
-0.1428571428571428
 40
0.0
 40
0.0
 40
0.0
 40
0.0
 10
828.6664074431877
 20
2006.437499999997
 30
0.0
 10
828.4479386924786
 20
2006.437499999997
 30
0.0
 10
828.001206623346
 20
2006.509720902374
 30
0.0
 10
827.4543365654803
 20
2006.811045173202
 30
0.0
 10
827.0756516907109
 20
2007.196670223267
 30
0.0
 10
826.8383084435832
 20
2007.585734064623
 30
0.0
 10
826.6967894081082
 20
2008.007709284124
 30
0.0
 10
826.6664074431876
 20
2008.295453300105
 30
0.0
 10
826.6664074431878
 20
2008.437499999997
 30
0.0
  0
LINE
  5
D2
330
87
100
AcDbEntity
  8
P-SANR-FIXT
100
AcDbLine
 10
826.6664074431878
 20
2008.437499999983
 30
0.0
 11
826.6664074431876
 21
2032.529414260605
 31
0.0
  0
SPLINE
  5
D3
330
87
100
AcDbEntity
  8
P-SANR-FIXT
100
AcDbSpline
210
0.0
220
0.0
230
1.0
 70
     8
 71
     3
 72
    14
 73
    10
 74
     0
 42
0.000000001
 43
0.0000000001
 40
-1.0
 40
-1.0
 40
-1.0
 40
-1.0
 40
-0.8571428571428571
 40
-0.7142857142857143
 40
-0.5714285714285714
 40
-0.4285714285714286
 40
-0.2857142857142857
 40
-0.1428571428571428
 40
0.0
 40
0.0
 40
0.0
 40
0.0
 10
826.6664074431876
 20
2032.529414260619
 30
0.0
 10
826.6664074431876
 20
2032.851034906547
 30
0.0
 10
826.7444682378085
 20
2033.484869880663
 30
0.0
 10
827.0680131510362
 20
2034.354074999665
 30
0.0
 10
827.5665046250887
 20
2035.10951250868
 30
0.0
 10
828.2071159338585
 20
2035.724770717027
 30
0.0
 10
828.9575175745756
 20
2036.180935525699
 30
0.0
 10
829.7854016501286
 20
2036.463932323755
 30
0.0
 10
830.372046608244
 20
2036.529414260619
 30
0.0
 10
830.6664074431875
 20
2036.529414260619
 30
0.0
  0
LINE
  5
D4
330
87
100
AcDbEntity
  8
P-SANR-FIXT
100
AcDbLine
 10
830.666407443188
 20
2036.529414260619
 30
0.0
 11
834.2267154357235
 21
2036.529414260619
 31
0.0
  0
SPLINE
  5
D5
330
87
100
AcDbEntity
  8
P-SANR-FIXT
100
AcDbSpline
210
0.0
220
0.0
230
1.0
 70
    24
 71
     3
 72
     9
 73
     5
 74
     0
 42
0.000000001
 43
0.0000000001
 40
-1.0
 40
-1.0
 40
-1.0
 40
-1.0
 40
-0.5
 40
0.0
 40
0.0
 40
0.0
 40
0.0
 10
834.2267154357234
 20
2036.529414260619
 30
0.0
 10
835.0352770937362
 20
2036.701279346545
 30
0.0
 10
836.5558829958271
 20
2037.024494108748
 30
0.0
 10
837.8834540700479
 20
2037.306678051657
 30
0.0
 10
838.4989809001908
 20
2037.437512318288
 30
0.0
  0
LINE
  5
D6
330
87
100
AcDbEntity
  8
P-SANR-FIXT
100
AcDbLine
 10
792.8338339861855
 20
2037.437512318288
 30
0.0
 11
838.4989809001906
 21
2037.437512318288
 31
0.0
  0
SPLINE
  5
D7
330
87
100
AcDbEntity
  8
P-SANR-FIXT
100
AcDbSpline
210
0.0
220
0.0
230
1.0
 70
    24
 71
     3
 72
     9
 73
     5
 74
     0
 42
0.000000001
 43
0.0000000001
 40
-1.0
 40
-1.0
 40
-1.0
 40
-1.0
 40
-0.5
 40
0.0
 40
0.0
 40
0.0
 40
0.0
 10
792.8338339861856
 20
2037.437512318288
 30
0.0
 10
793.4493608163283
 20
2037.306678051657
 30
0.0
 10
794.776931890549
 20
2037.024494108748
 30
0.0
 10
796.2975377926394
 20
2036.701279346544
 30
0.0
 10
797.1060994506521
 20
2036.529414260619
 30
0.0
  0
LINE
  5
D8
330
87
100
AcDbEntity
  8
P-SANR-FIXT
100
AcDbLine
 10
797.1060994506523
 20
2036.529414260619
 30
0.0
 11
800.6664074431879
 21
2036.529414260619
 31
0.0
  0
SPLINE
  5
D9
330
87
100
AcDbEntity
  8
P-SANR-FIXT
100
AcDbSpline
210
0.0
220
0.0
230
1.0
 70
     8
 71
     3
 72
    14
 73
    10
 74
     0
 42
0.000000001
 43
0.0000000001
 40
-1.0
 40
-1.0
 40
-1.0
 40
-1.0
 40
-0.8571428571428571
 40
-0.7142857142857144
 40
-0.5714285714285714
 40
-0.4285714285714286
 40
-0.2857142857142857
 40
-0.1428571428571428
 40
0.0
 40
0.0
 40
0.0
 40
0.0
 10
800.6664074431878
 20
2036.529414260619
 30
0.0
 10
800.9612187727197
 20
2036.529414260619
 30
0.0
 10
801.5485252054208
 20
2036.463719190404
 30
0.0
 10
802.3763882948189
 20
2036.180416301004
 30
0.0
 10
803.1265401087472
 20
2035.724102250779
 30
0.0
 10
803.7667662003824
 20
2035.10892116844
 30
0.0
 10
804.2649846719227
 20
2034.353681700362
 30
0.0
 10
804.5884049751197
 20
2033.484571136382
 30
0.0
 10
804.6664074431877
 20
2032.850928906942
 30
0.0
 10
804.6664074431877
 20
2032.529414260619
 30
0.0
  0
ENDBLK
  5
DB
330
87
100
AcDbEntity
  8
0
100
AcDbBlockEnd
  0
BLOCK
  5
17C
330
DD
100
AcDbEntity
  8
0
100
AcDbBlockBegin
  2
Automatic flow rate regulator valve_Caleffi_121 DN15 - 1_2__-V1-Est - Idraulica
 70
     0
 10
0.0
 20
0.0
 30
0.0
  3
Automatic flow rate regulator valve_Caleffi_121 DN15 - 1_2__-V1-Est - Idraulica
  1

  0
LWPOLYLINE
  5
DE
330
DD
100
AcDbEntity
  8
P-SANR-FIXT
100
AcDbPolyline
 90
       80
 70
   128
 43
0.0
 10
843.6664026748159
 20
1676.747075844259
 10
843.6440056651374
 20
1677.866777010801
 10
843.5768504665398
 20
1678.984686894333
 10
843.4650445130152
 20
1680.099017077516
 10
843.3087666702386
 20
1681.207984869769
 10
843.1082669494207
 20
1682.309816159191
 10
842.8638661073438
 20
1683.402748250764
 10
842.5759551332197
 20
1684.485032686288
 10
842.2449946231886
 20
1685.55493804154
 10
841.8715140434658
 20
1686.610752696187
 10
841.4561108833073
 20
1687.65078757201
 10
840.9994496991542
 20
1688.673378835069
 10
840.502261051486
 20
1689.676890557486
 10
839.9653403360774
 20
1690.659717334574
 10
839.3895465115363
 20
1691.62028685315
 10
838.7758007251518
 20
1692.557062406894
 10
838.1250848392573
 20
1693.468545354756
 10
837.4384398604577
 20
1694.353277518457
 10
836.7169642742435
 20
1695.209843515269
 10
835.9618122876455
 20
1696.036873022321
 10
835.1741919827517
 20
1696.833042968824
 10
834.3553633840336
 20
1697.597079652708
 10
833.5066364425745
 20
1698.32776077826
 10
832.6293689404289
 20
1699.023917411553
 10
831.7249643184601
 20
1699.684435850477
 10
830.7948694311335
 20
1700.308259406433
 10
829.8405722318593
 20
1700.894390094808
 10
828.8635993925835
 20
1701.441890231535
 10
827.8655138614398
 20
1701.949883933187
 10
826.8479123623642
 20
1702.41755851821
 10
825.8124228406781
 20
1702.844165807032
 10
824.7607018587242
 20
1703.229023318996
 10
823.6944319457178
 20
1703.571515364181
 10
822.6153189060614
 20
1703.871094028376
 10
821.5250890904199
 20
1704.127280049625
 10
820.425486633928
 20
1704.339663584945
 10
819.3182706659472
 20
1704.507904865984
 10
818.2052124958326
 20
1704.631734742582
 10
817.0880927792165
 20
1704.710955113354
 10
815.9686986693396
 20
1704.745439242604
 10
814.8488209579861
 20
1704.735131963082
 10
813.7302512105998
 20
1704.680049764237
 10
812.614778900161
 20
1704.580280765837
 10
811.5041885444117
 20
1704.435984576996
 10
810.4002568510075
 20
1704.247392040835
 10
809.3047498751657
 20
1704.014804865181
 10
808.2194201943512
 20
1703.738595139897
 10
807.1460041045291
 20
1703.419204741626
 10
806.0862188424597
 20
1703.057144626869
 10
805.041759838487
 20
1702.652994014575
 10
804.0142980042109
 20
1702.207399459509
 10
803.0054770593865
 20
1701.721073817906
 10
802.0169109023219
 20
1701.194795107047
 10
801.0501810279855
 20
1700.629405260602
 10
800.1068339979511
 20
1700.025808781716
 10
799.1883789662304
 20
1699.384971295996
 10
798.2962852649479
 20
1698.707918006713
 10
797.431980053722
 20
1697.995732054699
 10
796.5968460365155
 20
1697.249552785554
 10
795.7922192496035
 20
1696.470573926931
 10
795.0193869242007
 20
1695.660041678831
 10
794.2795854271653
 20
1694.819252719947
 10
793.5739982830771
 20
1693.949552133254
 10
792.903754280849
 20
1693.052331254164
 10
792.2699256679067
 20
1692.129025444687
 10
791.6735264348219
 20
1691.181111797157
 10
791.1155106931421
 20
1690.2101067712
 10
790.5967711490171
 20
1689.217563767719
 10
790.1181376750587
 20
1688.20507064379
 10
789.6803759827226
 20
1687.174247172423
 10
789.2841863973324
 20
1686.126742451276
 10
788.9302027377082
 20
1685.064232264447
 10
788.6189913021937
 20
1683.988416401577
 10
788.3510499626965
 20
1682.901015938552
 10
788.1268073682031
 20
1681.803770484147
 10
787.946622259028
 20
1680.698435397023
 10
787.8107828929089
 20
1679.586778977525
 10
787.719506583854
 20
1678.470579638785
 10
787.6729393544866
 20
1677.351623061636
 10
787.6664122115601
 20
1676.747075844259
  0
LWPOLYLINE
  5
DF
330
DD
100
AcDbEntity
  8
P-SANR-FIXT
100
AcDbPolyline
 90
       80
 70
   128
 43
0.0
 10
787.6664122115601
 20
1676.747075844259
 10
787.6888092212384
 20
1675.627374677717
 10
787.7559644198361
 20
1674.509464794185
 10
787.8677703733608
 20
1673.395134611002
 10
788.0240482161374
 20
1672.286166818748
 10
788.2245479369552
 20
1671.184335529327
 10
788.468948779032
 20
1670.091403437754
 10
788.7568597531563
 20
1669.00911900223
 10
789.0878202631873
 20
1667.939213646978
 10
789.4613008429102
 20
1666.883398992331
 10
789.8767040030689
 20
1665.843364116508
 10
790.3333651872217
 20
1664.820772853448
 10
790.83055383489
 20
1663.817261131032
 10
791.3674745502986
 20
1662.834434353943
 10
791.94326837484
 20
1661.873864835367
 10
792.5570141612243
 20
1660.937089281623
 10
793.2077300471187
 20
1660.025606333762
 10
793.8943750259181
 20
1659.140874170061
 10
794.6158506121324
 20
1658.284308173249
 10
795.3710025987305
 20
1657.457278666197
 10
796.1586229036242
 20
1656.661108719693
 10
796.9774515023425
 20
1655.89707203581
 10
797.8261784438014
 20
1655.166390910257
 10
798.7034459459469
 20
1654.470234276965
 10
799.6078505679161
 20
1653.809715838041
 10
800.5379454552425
 20
1653.185892282085
 10
801.4922426545167
 20
1652.59976159371
 10
802.4692154937921
 20
1652.052261456983
 10
803.4673010249361
 20
1651.54426775533
 10
804.484902524012
 20
1651.076593170308
 10
805.5203920456978
 20
1650.649985881485
 10
806.5721130276518
 20
1650.265128369522
 10
807.638382940658
 20
1649.922636324336
 10
808.7174959803146
 20
1649.623057660141
 10
809.8077257959561
 20
1649.366871638892
 10
810.907328252448
 20
1649.154488103573
 10
812.0145442204288
 20
1648.986246822534
 10
813.1276023905433
 20
1648.862416945935
 10
814.2447221071593
 20
1648.783196575164
 10
815.3641162170364
 20
1648.748712445914
 10
816.4839939283899
 20
1648.759019725435
 10
817.6025636757762
 20
1648.814101924281
 10
818.718035986215
 20
1648.913870922681
 10
819.8286263419642
 20
1649.058167111522
 10
820.9325580353684
 20
1649.246759647683
 10
822.0280650112103
 20
1649.479346823337
 10
823.1133946920248
 20
1649.75555654862
 10
824.1868107818469
 20
1650.074946946892
 10
825.2465960439163
 20
1650.437007061649
 10
826.291055047889
 20
1650.841157673943
 10
827.3185168821651
 20
1651.286752229008
 10
828.3273378269894
 20
1651.773077870612
 10
829.315903984054
 20
1652.299356581471
 10
830.2826338583907
 20
1652.864746427916
 10
831.2259808884249
 20
1653.468342906801
 10
832.1444359201455
 20
1654.109180392522
 10
833.036529621428
 20
1654.786233681805
 10
833.9008348326538
 20
1655.498419633819
 10
834.7359688498604
 20
1656.244598902964
 10
835.5405956367723
 20
1657.023577761587
 10
836.3134279621753
 20
1657.834110009687
 10
837.0532294592106
 20
1658.674898968571
 10
837.7588166032989
 20
1659.544599555264
 10
838.4290606055269
 20
1660.441820434354
 10
839.0628892184693
 20
1661.36512624383
 10
839.6592884515541
 20
1662.31303989136
 10
840.2173041932341
 20
1663.284044917318
 10
840.7360437373593
 20
1664.276587920799
 10
841.2146772113173
 20
1665.289081044728
 10
841.6524389036535
 20
1666.319904516095
 10
842.0486284890436
 20
1667.367409237242
 10
842.4026121486678
 20
1668.429919424071
 10
842.7138235841825
 20
1669.505735286941
 10
842.9817649236793
 20
1670.593135749966
 10
843.2060075181729
 20
1671.690381204371
 10
843.3861926273477
 20
1672.795716291495
 10
843.522031993467
 20
1673.907372710993
 10
843.6133083025218
 20
1675.023572049732
 10
843.6598755318893
 20
1676.142528626882
 10
843.6664026748159
 20
1676.747075844259
  0
ARC
  5
E0
330
DD
100
AcDbEntity
  8
P-SANR-FIXT
100
AcDbCircle
 10
815.6664074431867
 20
1676.747075844258
 30
0.0
 40
23.49999999999944
100
AcDbArc
 50
11.84027388186247
 51
168.1597261181222
  0
SPLINE
  5
E1
330
DD
100
AcDbEntity
  8
P-SANR-FIXT
100
AcDbSpline
210
0.0
220
0.0
230
1.0
 70
    24
 71
     3
 72
     9
 73
     5
 74
     0
 42
0.000000001
 43
0.0000000001
 40
-1.0
 40
-1.0
 40
-1.0
 40
-1.0
 40
-0.5
 40
0.0
 40
0.0
 40
0.0
 40
0.0
 10
838.6664074431875
 20
1681.568901224749
 30
0.0
 10
838.6664074431875
 20
1682.405721043353
 30
0.0
 10
838.6664074431875
 20
1684.071896460397
 30
0.0
 10
838.6664074431875
 20
1685.723143437114
 30
0.0
 10
838.6664074431875
 20
1686.54503481539
 30
0.0
  0
SPLINE
  5
E2
330
DD
100
AcDbEntity
  8
P-SANR-FIXT
100
AcDbSpline
210
0.0
220
0.0
230
1.0
 70
    24
 71
     3
 72
     8
 73
     4
 74
     0
 42
0.000000001
 43
0.0000000001
 40
-1.0
 40
-1.0
 40
-1.0
 40
-1.0
 40
-0.7592539745198144
 40
-0.7592539745198144
 40
-0.7592539745198144
 40
-0.7592539745198144
 10
835.6516888174262
 20
1691.766680645734
 30
0.0
 10
834.2699329709406
 20
1692.564437755656
 30
0.0
 10
832.892965724009
 20
1693.359430166338
 30
0.0
 10
831.5207870766313
 20
1694.151657877778
 30
0.0
  0
SPLINE
  5
E3
330
DD
100
AcDbEntity
  8
P-SANR-FIXT
100
AcDbSpline
210
0.0
220
0.0
230
1.0
 70
    24
 71
     3
 72
     9
 73
     5
 74
     0
 42
0.000000001
 43
0.0000000001
 40
-0.7437907309832829
 40
-0.7437907309832829
 40
-0.7437907309832829
 40
-0.7437907309832829
 40
-0.5
 40
-0.2609911020074427
 40
-0.2609911020074427
 40
-0.2609911020074427
 40
-0.2609911020074427
 10
831.2564390800817
 20
1694.304279264745
 30
0.0
 10
829.8675294716733
 20
1695.10616660104
 30
0.0
 10
827.1232653630994
 20
1696.690568222853
 30
0.0
 10
824.411775233246
 20
1698.256047779229
 30
0.0
 10
823.0715820449725
 20
1699.029808677244
 30
0.0
  0
SPLINE
  5
E4
330
DD
100
AcDbEntity
  8
P-SANR-FIXT
100
AcDbSpline
210
0.0
220
0.0
230
1.0
 70
    24
 71
     3
 72
     8
 73
     4
 74
     0
 42
0.000000001
 43
0.0000000001
 40
-0.25387705634047
 40
-0.25387705634047
 40
-0.25387705634047
 40
-0.25387705634047
 40
0.0
 40
0.0
 40
0.0
 40
0.0
 10
822.9426115271232
 20
1699.104269840442
 30
0.0
 10
821.5167911590272
 20
1699.927467613778
 30
0.0
 10
820.0962960063023
 20
1700.747590872587
 30
0.0
 10
818.6811260689484
 20
1701.564639616867
 30
0.0
  0
SPLINE
  5
E5
330
DD
100
AcDbEntity
  8
P-SANR-FIXT
100
AcDbSpline
210
0.0
220
0.0
230
1.0
 70
    24
 71
     3
 72
     8
 73
     4
 74
     0
 42
0.000000001
 43
0.0000000001
 40
-1.0
 40
-1.0
 40
-1.0
 40
-1.0
 40
-0.7514039433597564
 40
-0.7514039433597564
 40
-0.7514039433597564
 40
-0.7514039433597564
 10
812.6516888174274
 20
1701.564639616867
 30
0.0
 10
811.2248779116573
 20
1700.740869956338
 30
0.0
 10
809.8031729815378
 20
1699.920048232225
 30
0.0
 10
808.3865740270692
 20
1699.102174444529
 30
0.0
  0
SPLINE
  5
E6
330
DD
100
AcDbEntity
  8
P-SANR-FIXT
100
AcDbSpline
210
0.0
220
0.0
230
1.0
 70
    24
 71
     3
 72
     9
 73
     5
 74
     0
 42
0.000000001
 43
0.0000000001
 40
-0.7437907309833837
 40
-0.7437907309833837
 40
-0.7437907309833837
 40
-0.7437907309833837
 40
-0.5
 40
-0.2711928092158203
 40
-0.2711928092158203
 40
-0.2711928092158203
 40
-0.2711928092158203
 10
808.256439080084
 20
1699.027040997856
 30
0.0
 10
806.8675294716749
 20
1698.225153661562
 30
0.0
 10
804.1811219589089
 20
1696.674155560913
 30
0.0
 10
801.5266242137396
 20
1695.141580573176
 30
0.0
 10
800.2435490245936
 20
1694.400796767332
 30
0.0
  0
SPLINE
  5
E7
330
DD
100
AcDbEntity
  8
P-SANR-FIXT
100
AcDbSpline
210
0.0
220
0.0
230
1.0
 70
    24
 71
     3
 72
     8
 73
     4
 74
     0
 42
0.000000001
 43
0.0000000001
 40
-0.2454015940355355
 40
-0.2454015940355355
 40
-0.2454015940355355
 40
-0.2454015940355355
 40
0.0
 40
0.0
 40
0.0
 40
0.0
 10
799.7998300539566
 20
1694.14461550019
 30
0.0
 10
798.4219531305649
 20
1693.34909788756
 30
0.0
 10
797.0490518022285
 20
1692.556452936075
 30
0.0
 10
795.6811260689472
 20
1691.766680645733
 30
0.0
  0
SPLINE
  5
E8
330
DD
100
AcDbEntity
  8
P-SANR-FIXT
100
AcDbSpline
210
0.0
220
0.0
230
1.0
 70
    24
 71
     3
 72
     9
 73
     5
 74
     0
 42
0.000000001
 43
0.0000000001
 40
-1.0
 40
-1.0
 40
-1.0
 40
-1.0
 40
-0.5
 40
0.0
 40
0.0
 40
0.0
 40
0.0
 10
792.6664074431875
 20
1686.545034815393
 30
0.0
 10
792.6664074431875
 20
1685.723143437118
 30
0.0
 10
792.6664074431875
 20
1684.071896460402
 30
0.0
 10
792.6664074431875
 20
1682.405721043359
 30
0.0
 10
792.6664074431875
 20
1681.568901224755
 30
0.0
  0
ARC
  5
E9
330
DD
100
AcDbEntity
  8
P-SANR-FIXT
100
AcDbCircle
 10
815.6664074431867
 20
1676.747075844258
 30
0.0
 40
23.49999999999941
100
AcDbArc
 50
191.8402738818753
 51
348.1597261181359
  0
SPLINE
  5
EA
330
DD
100
AcDbEntity
  8
P-SANR-FIXT
100
AcDbSpline
210
0.0
220
0.0
230
1.0
 70
    24
 71
     3
 72
     9
 73
     5
 74
     0
 42
0.000000001
 43
0.0000000001
 40
-1.0
 40
-1.0
 40
-1.0
 40
-1.0
 40
-0.5
 40
0.0
 40
0.0
 40
0.0
 40
0.0
 10
792.6664074431873
 20
1671.925250463762
 30
0.0
 10
792.6664074431873
 20
1671.088430645158
 30
0.0
 10
792.6664074431873
 20
1669.422255228115
 30
0.0
 10
792.6664074431873
 20
1667.771008251399
 30
0.0
 10
792.6664074431873
 20
1666.949116873123
 30
0.0
  0
SPLINE
  5
EB
330
DD
100
AcDbEntity
  8
P-SANR-FIXT
100
AcDbSpline
210
0.0
220
0.0
230
1.0
 70
    24
 71
     3
 72
     8
 73
     4
 74
     0
 42
0.000000001
 43
0.0000000001
 40
-1.0
 40
-1.0
 40
-1.0
 40
-1.0
 40
-0.7597562408636403
 40
-0.7597562408636403
 40
-0.7597562408636403
 40
-0.7597562408636403
 10
795.6811260689467
 20
1661.727471042783
 30
0.0
 10
797.0599991702004
 20
1660.931378286597
 30
0.0
 10
798.4341036318848
 20
1660.138038705748
 30
0.0
 10
799.8034394539995
 20
1659.347452300239
 30
0.0
  0
SPLINE
  5
EC
330
DD
100
AcDbEntity
  8
P-SANR-FIXT
100
AcDbSpline
210
0.0
220
0.0
230
1.0
 70
    24
 71
     3
 72
     9
 73
     5
 74
     0
 42
0.000000001
 43
0.0000000001
 40
-0.7343489724787168
 40
-0.7343489724787168
 40
-0.7343489724787168
 40
-0.7343489724787168
 40
-0.5
 40
-0.2609911020073131
 40
-0.2609911020073131
 40
-0.2609911020073131
 40
-0.2609911020073131
 10
800.2377267334495
 20
1659.096716422543
 30
0.0
 10
801.5724797088054
 20
1658.32609643292
 30
0.0
 10
804.2626187733773
 20
1656.772943919832
 30
0.0
 10
806.9210861566007
 20
1655.238077060496
 30
0.0
 10
808.2612692523808
 20
1654.464321989384
 30
0.0
  0
SPLINE
  5
ED
330
DD
100
AcDbEntity
  8
P-SANR-FIXT
100
AcDbSpline
210
0.0
220
0.0
230
1.0
 70
    24
 71
     3
 72
     8
 73
     4
 74
     0
 42
0.000000001
 43
0.0000000001
 40
-0.2538801088805587
 40
-0.2538801088805587
 40
-0.2538801088805587
 40
-0.2538801088805587
 40
0.0
 40
0.0
 40
0.0
 40
0.0
 10
808.3901519283648
 20
1654.389911541711
 30
0.0
 10
809.8159895681481
 20
1653.566703796561
 30
0.0
 10
811.236501864502
 20
1652.746570639874
 30
0.0
 10
812.6516888174265
 20
1651.929512071649
 30
0.0
  0
SPLINE
  5
EE
330
DD
100
AcDbEntity
  8
P-SANR-FIXT
100
AcDbSpline
210
0.0
220
0.0
230
1.0
 70
    24
 71
     3
 72
     8
 73
     4
 74
     0
 42
0.000000001
 43
0.0000000001
 40
-1.0
 40
-1.0
 40
-1.0
 40
-1.0
 40
-0.751406950457521
 40
-0.751406950457521
 40
-0.751406950457521
 40
-0.751406950457521
 10
818.6811260689477
 20
1651.929512071649
 30
0.0
 10
820.1079197155547
 20
1652.753271767596
 30
0.0
 10
821.529607510037
 20
1653.574083598444
 30
0.0
 10
822.9461894523948
 20
1654.391947564193
 30
0.0
  0
SPLINE
  5
EF
330
DD
100
AcDbEntity
  8
P-SANR-FIXT
100
AcDbSpline
210
0.0
220
0.0
230
1.0
 70
    24
 71
     3
 72
     9
 73
     5
 74
     0
 42
0.000000001
 43
0.0000000001
 40
-0.7437907309832854
 40
-0.7437907309832854
 40
-0.7437907309832854
 40
-0.7437907309832854
 40
-0.5
 40
-0.2609911020074398
 40
-0.2609911020074398
 40
-0.2609911020074398
 40
-0.2609911020074398
 10
823.076375806292
 20
1654.467110690661
 30
0.0
 10
824.4652854147004
 20
1655.268998026955
 30
0.0
 10
827.2095495232747
 20
1656.853399648768
 30
0.0
 10
829.9210396531279
 20
1658.418879205144
 30
0.0
 10
831.2612328414015
 20
1659.192640103159
 30
0.0
  0
SPLINE
  5
F0
330
DD
100
AcDbEntity
  8
P-SANR-FIXT
100
AcDbSpline
210
0.0
220
0.0
230
1.0
 70
    24
 71
     3
 72
     8
 73
     4
 74
     0
 42
0.000000001
 43
0.0000000001
 40
-0.2459114504732829
 40
-0.2459114504732829
 40
-0.2459114504732829
 40
-0.2459114504732829
 40
0.0
 40
0.0
 40
0.0
 40
0.0
 10
831.524396566804
 20
1659.344577750862
 30
0.0
 10
832.9051569418789
 20
1660.141760125097
 30
0.0
 10
834.2809210254193
 20
1660.936057889071
 30
0.0
 10
835.6516888174255
 20
1661.727471042782
 30
0.0
  0
SPLINE
  5
F1
330
DD
100
AcDbEntity
  8
P-SANR-FIXT
100
AcDbSpline
210
0.0
220
0.0
230
1.0
 70
    24
 71
     3
 72
     9
 73
     5
 74
     0
 42
0.000000001
 43
0.0000000001
 40
-1.0
 40
-1.0
 40
-1.0
 40
-1.0
 40
-0.5
 40
0.0
 40
0.0
 40
0.0
 40
0.0
 10
838.6664074431873
 20
1666.949116873126
 30
0.0
 10
838.6664074431873
 20
1667.771008251402
 30
0.0
 10
838.6664074431873
 20
1669.422255228118
 30
0.0
 10
838.6664074431873
 20
1671.088430645162
 30
0.0
 10
838.6664074431873
 20
1671.925250463767
 30
0.0
  0
ARC
  5
F2
330
DD
100
AcDbEntity
  8
P-SANR-FIXT
100
AcDbCircle
 10
815.6664074431867
 20
1676.747075844258
 30
0.0
 40
15.90000000000043
100
AcDbArc
 50
0.0
 51
180.0
  0
LINE
  5
F3
330
DD
100
AcDbEntity
  8
P-SANR-FIXT
100
AcDbLine
 10
838.6664074431875
 20
1676.747075844258
 30
0.0
 11
838.6664074431875
 21
1681.568901224749
 31
0.0
  0
LINE
  5
F4
330
DD
100
AcDbEntity
  8
P-SANR-FIXT
100
AcDbLine
 10
792.6664074431875
 20
1681.568901224755
 30
0.0
 11
792.6664074431873
 21
1676.747075844258
 31
0.0
  0
ARC
  5
F5
330
DD
100
AcDbEntity
  8
P-SANR-FIXT
100
AcDbCircle
 10
815.6664074431867
 20
1676.747075844258
 30
0.0
 40
15.90000000000037
100
AcDbArc
 50
179.9999999999998
 51
359.9999999999994
  0
LINE
  5
F6
330
DD
100
AcDbEntity
  8
P-SANR-FIXT
100
AcDbLine
 10
792.6664074431873
 20
1676.747075844258
 30
0.0
 11
792.6664074431873
 21
1671.925250463762
 31
0.0
  0
LINE
  5
F7
330
DD
100
AcDbEntity
  8
P-SANR-FIXT
100
AcDbLine
 10
838.6664074431873
 20
1671.925250463767
 30
0.0
 11
838.6664074431875
 21
1676.747075844258
 31
0.0
  0
ARC
  5
F8
330
DD
100
AcDbEntity
  8
P-SANR-FIXT
100
AcDbCircle
 10
815.6664074431867
 20
1676.747075844258
 30
0.0
 40
25.00000000000039
100
AcDbArc
 50
143.073918065633
 51
156.9260819343622
  0
ARC
  5
F9
330
DD
100
AcDbEntity
  8
P-SANR-FIXT
100
AcDbCircle
 10
815.6664074431867
 20
1676.747075844258
 30
0.0
 40
25.00000000000049
100
AcDbArc
 50
83.07391806562996
 51
96.92608193436402
  0
ARC
  5
FA
330
DD
100
AcDbEntity
  8
P-SANR-FIXT
100
AcDbCircle
 10
815.6664074431867
 20
1676.747075844258
 30
0.0
 40
25.00000000000035
100
AcDbArc
 50
23.0739180656289
 51
36.92608193436759
  0
ARC
  5
FB
330
DD
100
AcDbEntity
  8
P-SANR-FIXT
100
AcDbCircle
 10
815.6664074431867
 20
1676.747075844258
 30
0.0
 40
25.00000000000031
100
AcDbArc
 50
203.0739180656352
 51
216.9260819343637
  0
ARC
  5
FC
330
DD
100
AcDbEntity
  8
P-SANR-FIXT
100
AcDbCircle
 10
815.6664074431867
 20
1676.747075844258
 30
0.0
 40
25.00000000000041
100
AcDbArc
 50
263.0739180656333
 51
276.9260819343673
  0
ARC
  5
FD
330
DD
100
AcDbEntity
  8
P-SANR-FIXT
100
AcDbCircle
 10
815.6664074431867
 20
1676.747075844258
 30
0.0
 40
25.00000000000043
100
AcDbArc
 50
323.07391806563
 51
336.9260819343697
  0
ARC
  5
FE
330
DD
100
AcDbEntity
  8
P-SANR-FIXT
100
AcDbCircle
 10
815.6664074431867
 20
1676.747075844258
 30
0.0
 40
25.0000000000005
100
AcDbArc
 50
156.9260819343627
 51
179.9999999999997
  0
ARC
  5
FF
330
DD
100
AcDbEntity
  8
P-SANR-FIXT
100
AcDbCircle
 10
815.6664074431867
 20
1676.747075844258
 30
0.0
 40
25.00000000000023
100
AcDbArc
 50
96.92608193436411
 51
143.0739180656335
  0
ARC
  5
100
330
DD
100
AcDbEntity
  8
P-SANR-FIXT
100
AcDbCircle
 10
815.6664074431867
 20
1676.747075844258
 30
0.0
 40
25.00000000000025
100
AcDbArc
 50
36.92608193436738
 51
83.07391806563016
  0
ARC
  5
101
330
DD
100
AcDbEntity
  8
P-SANR-FIXT
100
AcDbCircle
 10
815.6664074431867
 20
1676.747075844258
 30
0.0
 40
25.00000000000028
100
AcDbArc
 50
0.0
 51
23.07391806562929
  0
ARC
  5
102
330
DD
100
AcDbEntity
  8
P-SANR-FIXT
100
AcDbCircle
 10
815.6664074431867
 20
1676.747075844258
 30
0.0
 40
25.00000000000023
100
AcDbArc
 50
336.9260819343702
 51
0.0
  0
ARC
  5
103
330
DD
100
AcDbEntity
  8
P-SANR-FIXT
100
AcDbCircle
 10
815.6664074431867
 20
1676.747075844258
 30
0.0
 40
25.00000000000025
100
AcDbArc
 50
276.9260819343679
 51
323.0739180656312
  0
ARC
  5
104
330
DD
100
AcDbEntity
  8
P-SANR-FIXT
100
AcDbCircle
 10
815.6664074431867
 20
1676.747075844258
 30
0.0
 40
25.00000000000026
100
AcDbArc
 50
216.9260819343648
 51
263.073918065634
  0
ARC
  5
105
330
DD
100
AcDbEntity
  8
P-SANR-FIXT
100
AcDbCircle
 10
815.6664074431867
 20
1676.747075844258
 30
0.0
 40
25.00000000000014
100
AcDbArc
 50
180.0000000000001
 51
203.0739180656352
  0
ARC
  5
106
330
DD
100
AcDbEntity
  8
P-SANR-FIXT
100
AcDbCircle
 10
815.6664074431869
 20
1676.747075844258
 30
0.0
 40
39.9999999999996
100
AcDbArc
 50
4.736247486547928
 51
4.999999999999504
  0
ARC
  5
107
330
DD
100
AcDbEntity
  8
P-SANR-FIXT
100
AcDbCircle
 10
815.6664074431869
 20
1676.747075844258
 30
0.0
 40
39.99999999999959
100
AcDbArc
 50
9.474209605904986
 51
9.999999999999658
  0
ARC
  5
108
330
DD
100
AcDbEntity
  8
P-SANR-FIXT
100
AcDbCircle
 10
815.6664074431869
 20
1676.747075844258
 30
0.0
 40
39.99999999999955
100
AcDbArc
 50
14.21362978508357
 51
14.99999999999964
  0
ARC
  5
109
330
DD
100
AcDbEntity
  8
P-SANR-FIXT
100
AcDbCircle
 10
815.6664074431869
 20
1676.747075844258
 30
0.0
 40
39.9999999999995
100
AcDbArc
 50
18.9542913749622
 51
19.99999999999949
  0
ARC
  5
10A
330
DD
100
AcDbEntity
  8
P-SANR-FIXT
100
AcDbCircle
 10
815.6664074431869
 20
1676.747075844258
 30
0.0
 40
39.9999999999997
100
AcDbArc
 50
23.69600929556038
 51
66.28112509834
  0
ARC
  5
10B
330
DD
100
AcDbEntity
  8
P-SANR-FIXT
100
AcDbCircle
 10
815.6664074431869
 20
1676.747075844258
 30
0.0
 40
39.9999999999995
100
AcDbArc
 50
69.99999999999949
 51
71.02283165061102
  0
ARC
  5
10C
330
DD
100
AcDbEntity
  8
P-SANR-FIXT
100
AcDbCircle
 10
815.6664074431869
 20
1676.747075844258
 30
0.0
 40
39.99999999999962
100
AcDbArc
 50
74.99999999999963
 51
75.76919107130904
  0
ARC
  5
10D
330
DD
100
AcDbEntity
  8
P-SANR-FIXT
100
AcDbCircle
 10
815.6664074431869
 20
1676.747075844258
 30
0.0
 40
39.9999999999996
100
AcDbArc
 50
79.99999999999954
 51
80.51431516195739
  0
ARC
  5
10E
330
DD
100
AcDbEntity
  8
P-SANR-FIXT
100
AcDbCircle
 10
815.6664074431869
 20
1676.747075844258
 30
0.0
 40
39.99999999999965
100
AcDbArc
 50
84.9999999999995
 51
85.25799950683504
  0
ARC
  5
10F
330
DD
100
AcDbEntity
  8
P-SANR-FIXT
100
AcDbCircle
 10
815.6664074431869
 20
1676.747075844258
 30
0.0
 40
39.99999999999965
100
AcDbArc
 50
94.74200049316285
 51
94.99999999999953
  0
ARC
  5
110
330
DD
100
AcDbEntity
  8
P-SANR-FIXT
100
AcDbCircle
 10
815.6664074431869
 20
1676.747075844258
 30
0.0
 40
39.99999999999961
100
AcDbArc
 50
99.4856848380404
 51
99.99999999999948
  0
ARC
  5
111
330
DD
100
AcDbEntity
  8
P-SANR-FIXT
100
AcDbCircle
 10
815.6664074431869
 20
1676.747075844258
 30
0.0
 40
39.99999999999962
100
AcDbArc
 50
104.2308089286889
 51
104.9999999999995
  0
ARC
  5
112
330
DD
100
AcDbEntity
  8
P-SANR-FIXT
100
AcDbCircle
 10
815.6664074431869
 20
1676.747075844258
 30
0.0
 40
39.99999999999958
100
AcDbArc
 50
108.9771683493868
 51
109.9999999999994
  0
ARC
  5
113
330
DD
100
AcDbEntity
  8
P-SANR-FIXT
100
AcDbCircle
 10
815.6664074431869
 20
1676.747075844258
 30
0.0
 40
39.99999999999964
100
AcDbArc
 50
113.7188749016574
 51
156.3039907044371
  0
ARC
  5
114
330
DD
100
AcDbEntity
  8
P-SANR-FIXT
100
AcDbCircle
 10
815.6664074431869
 20
1676.747075844258
 30
0.0
 40
39.99999999999955
100
AcDbArc
 50
159.9999999999994
 51
161.0457086250358
  0
ARC
  5
115
330
DD
100
AcDbEntity
  8
P-SANR-FIXT
100
AcDbCircle
 10
815.6664074431869
 20
1676.747075844258
 30
0.0
 40
39.99999999999968
100
AcDbArc
 50
164.9999999999993
 51
165.7863702149144
  0
ARC
  5
116
330
DD
100
AcDbEntity
  8
P-SANR-FIXT
100
AcDbCircle
 10
815.6664074431869
 20
1676.747075844258
 30
0.0
 40
39.99999999999963
100
AcDbArc
 50
169.9999999999994
 51
170.5257903940931
  0
ARC
  5
117
330
DD
100
AcDbEntity
  8
P-SANR-FIXT
100
AcDbCircle
 10
815.6664074431869
 20
1676.747075844258
 30
0.0
 40
39.99999999999968
100
AcDbArc
 50
174.9999999999988
 51
175.2637525134507
  0
ARC
  5
118
330
DD
100
AcDbEntity
  8
P-SANR-FIXT
100
AcDbCircle
 10
815.6664074431869
 20
1676.747075844258
 30
0.0
 40
39.99999999999951
100
AcDbArc
 50
184.7362474865479
 51
184.9999999999991
  0
ARC
  5
119
330
DD
100
AcDbEntity
  8
P-SANR-FIXT
100
AcDbCircle
 10
815.6664074431869
 20
1676.747075844258
 30
0.0
 40
39.99999999999968
100
AcDbArc
 50
189.4742096059056
 51
189.9999999999989
  0
ARC
  5
11A
330
DD
100
AcDbEntity
  8
P-SANR-FIXT
100
AcDbCircle
 10
815.6664074431869
 20
1676.747075844258
 30
0.0
 40
39.9999999999995
100
AcDbArc
 50
194.2136297850834
 51
194.999999999999
  0
ARC
  5
11B
330
DD
100
AcDbEntity
  8
P-SANR-FIXT
100
AcDbCircle
 10
815.6664074431869
 20
1676.747075844258
 30
0.0
 40
39.99999999999958
100
AcDbArc
 50
198.954291374963
 51
199.9999999999992
  0
ARC
  5
11C
330
DD
100
AcDbEntity
  8
P-SANR-FIXT
100
AcDbCircle
 10
815.6664074431869
 20
1676.747075844258
 30
0.0
 40
39.99999999999965
100
AcDbArc
 50
203.6960092955616
 51
246.2811250983418
  0
ARC
  5
11D
330
DD
100
AcDbEntity
  8
P-SANR-FIXT
100
AcDbCircle
 10
815.6664074431869
 20
1676.747075844258
 30
0.0
 40
39.9999999999995
100
AcDbArc
 50
249.9999999999992
 51
251.0228316506119
  0
ARC
  5
11E
330
DD
100
AcDbEntity
  8
P-SANR-FIXT
100
AcDbCircle
 10
815.6664074431869
 20
1676.747075844258
 30
0.0
 40
39.99999999999962
100
AcDbArc
 50
254.9999999999993
 51
255.7691910713099
  0
ARC
  5
11F
330
DD
100
AcDbEntity
  8
P-SANR-FIXT
100
AcDbCircle
 10
815.6664074431869
 20
1676.747075844258
 30
0.0
 40
39.9999999999997
100
AcDbArc
 50
259.9999999999994
 51
260.5143151619586
  0
ARC
  5
120
330
DD
100
AcDbEntity
  8
P-SANR-FIXT
100
AcDbCircle
 10
815.6664074431869
 20
1676.747075844258
 30
0.0
 40
39.99999999999964
100
AcDbArc
 50
264.9999999999993
 51
265.257999506836
  0
ARC
  5
121
330
DD
100
AcDbEntity
  8
P-SANR-FIXT
100
AcDbCircle
 10
815.6664074431869
 20
1676.747075844258
 30
0.0
 40
39.99999999999963
100
AcDbArc
 50
274.7420004931641
 51
274.9999999999993
  0
ARC
  5
122
330
DD
100
AcDbEntity
  8
P-SANR-FIXT
100
AcDbCircle
 10
815.6664074431869
 20
1676.747075844258
 30
0.0
 40
39.99999999999955
100
AcDbArc
 50
279.4856848380415
 51
279.9999999999993
  0
ARC
  5
123
330
DD
100
AcDbEntity
  8
P-SANR-FIXT
100
AcDbCircle
 10
815.6664074431869
 20
1676.747075844258
 30
0.0
 40
39.99999999999945
100
AcDbArc
 50
284.2308089286903
 51
284.9999999999995
  0
ARC
  5
124
330
DD
100
AcDbEntity
  8
P-SANR-FIXT
100
AcDbCircle
 10
815.6664074431869
 20
1676.747075844258
 30
0.0
 40
39.99999999999948
100
AcDbArc
 50
288.9771683493876
 51
289.9999999999993
  0
ARC
  5
125
330
DD
100
AcDbEntity
  8
P-SANR-FIXT
100
AcDbCircle
 10
815.6664074431869
 20
1676.747075844258
 30
0.0
 40
39.99999999999971
100
AcDbArc
 50
293.7188749016593
 51
336.3039907044387
  0
ARC
  5
126
330
DD
100
AcDbEntity
  8
P-SANR-FIXT
100
AcDbCircle
 10
815.6664074431869
 20
1676.747075844258
 30
0.0
 40
39.99999999999947
100
AcDbArc
 50
339.9999999999995
 51
341.0457086250369
  0
ARC
  5
127
330
DD
100
AcDbEntity
  8
P-SANR-FIXT
100
AcDbCircle
 10
815.6664074431869
 20
1676.747075844258
 30
0.0
 40
39.99999999999962
100
AcDbArc
 50
344.999999999999
 51
345.7863702149151
  0
ARC
  5
128
330
DD
100
AcDbEntity
  8
P-SANR-FIXT
100
AcDbCircle
 10
815.6664074431869
 20
1676.747075844258
 30
0.0
 40
39.99999999999971
100
AcDbArc
 50
349.999999999999
 51
350.5257903940937
  0
ARC
  5
129
330
DD
100
AcDbEntity
  8
P-SANR-FIXT
100
AcDbCircle
 10
815.6664074431869
 20
1676.747075844258
 30
0.0
 40
39.99999999999965
100
AcDbArc
 50
354.9999999999991
 51
355.263752513451
  0
ARC
  5
12A
330
DD
100
AcDbEntity
  8
P-SANR-FIXT
100
AcDbCircle
 10
815.6664074431867
 20
1676.747075844258
 30
0.0
 40
39.99999999999972
100
AcDbArc
 50
108.9655749888475
 51
179.9999999999995
  0
ARC
  5
12B
330
DD
100
AcDbEntity
  8
P-SANR-FIXT
100
AcDbCircle
 10
815.6664074431867
 20
1676.747075844258
 30
0.0
 40
39.99999999999989
100
AcDbArc
 50
72.33025401333278
 51
107.6697459866651
  0
ARC
  5
12C
330
DD
100
AcDbEntity
  8
P-SANR-FIXT
100
AcDbCircle
 10
815.6664074431867
 20
1676.747075844258
 30
0.0
 40
40.0000000000002
100
AcDbArc
 50
359.9999999999993
 51
71.03442501115002
  0
ARC
  5
12D
330
DD
100
AcDbEntity
  8
P-SANR-FIXT
100
AcDbCircle
 10
815.6664074431867
 20
1676.747075844258
 30
0.0
 40
39.99999999999963
100
AcDbArc
 50
288.9655749888495
 51
0.0
  0
ARC
  5
12E
330
DD
100
AcDbEntity
  8
P-SANR-FIXT
100
AcDbCircle
 10
815.6664074431867
 20
1676.747075844258
 30
0.0
 40
39.99999999999987
100
AcDbArc
 50
252.330254013334
 51
287.6697459866667
  0
ARC
  5
12F
330
DD
100
AcDbEntity
  8
P-SANR-FIXT
100
AcDbCircle
 10
815.6664074431867
 20
1676.747075844258
 30
0.0
 40
39.99999999999986
100
AcDbArc
 50
180.0
 51
251.0344250111525
  0
ARC
  5
130
330
DD
100
AcDbEntity
  8
P-SANR-FIXT
100
AcDbCircle
 10
815.6664074431867
 20
1676.747075844258
 30
0.0
 40
37.31923062280698
100
AcDbArc
 50
359.9999999999992
 51
69.61382530378895
  0
SPLINE
  5
131
330
DD
100
AcDbEntity
  8
P-SANR-FIXT
100
AcDbSpline
210
0.0
220
0.0
230
1.0
 70
     8
 71
     3
 72
    13
 73
     9
 74
     0
 42
0.000000001
 43
0.0000000001
 40
-1.0
 40
-1.0
 40
-1.0
 40
-1.0
 40
-0.7857142857142857
 40
-0.5714285714285714
 40
-0.4285714285714286
 40
-0.2857142857142857
 40
-0.1428571428571428
 40
0.0
 40
0.0
 40
0.0
 40
0.0
 10
828.6664074431875
 20
1711.728856448999
 30
0.0
 10
828.4496530510907
 20
1711.810968812239
 30
0.0
 10
828.0053502084514
 20
1711.93942166661
 30
0.0
 10
827.4580102320728
 20
1712.004241974049
 30
0.0
 10
827.0775360189887
 20
1711.971403699198
 30
0.0
 10
826.8389144845352
 20
1711.889422532339
 30
0.0
 10
826.696813891521
 20
1711.761828641246
 30
0.0
 10
826.6664074431876
 20
1711.656139489707
 30
0.0
 10
826.6664074431876
 20
1711.597323114123
 30
0.0
  0
SPLINE
  5
132
330
DD
100
AcDbEntity
  8
P-SANR-FIXT
100
AcDbSpline
210
0.0
220
0.0
230
1.0
 70
     8
 71
     3
 72
    15
 73
    11
 74
     0
 42
0.000000001
 43
0.0000000001
 40
-1.0
 40
-1.0
 40
-1.0
 40
-1.0
 40
-0.7857142857142857
 40
-0.7321428571428572
 40
-0.6785714285714287
 40
-0.5714285714285714
 40
-0.4285714285714286
 40
-0.2857142857142857
 40
-0.1428571428571428
 40
0.0
 40
0.0
 40
0.0
 40
0.0
 10
804.6664074431875
 20
1711.597323114123
 30
0.0
 10
804.6664074431875
 20
1711.68571228959
 30
0.0
 10
804.6231683947116
 20
1711.780473238108
 30
0.0
 10
804.5027157180513
 20
1711.869960660267
 30
0.0
 10
804.4044238889636
 20
1711.920108818731
 30
0.0
 10
804.2273634230888
 20
1711.97418204978
 30
0.0
 10
803.9281886378434
 20
1711.999197381962
 30
0.0
 10
803.5348334460222
 20
1711.967164476708
 30
0.0
 10
803.1032336628108
 20
1711.875752933399
 30
0.0
 10
802.8106137787478
 20
1711.783500227807
 30
0.0
 10
802.6664074431874
 20
1711.728856448999
 30
0.0
  0
ARC
  5
133
330
DD
100
AcDbEntity
  8
P-SANR-FIXT
100
AcDbCircle
 10
815.6664074431867
 20
1676.747075844258
 30
0.0
 40
37.31923062280651
100
AcDbArc
 50
110.3861746962079
 51
179.9999999999989
  0
ARC
  5
134
330
DD
100
AcDbEntity
  8
P-SANR-FIXT
100
AcDbCircle
 10
815.6664074431867
 20
1676.747075844258
 30
0.0
 40
37.3192306228065
100
AcDbArc
 50
180.0000000000002
 51
249.6138253037912
  0
SPLINE
  5
135
330
DD
100
AcDbEntity
  8
P-SANR-FIXT
100
AcDbSpline
210
0.0
220
0.0
230
1.0
 70
     8
 71
     3
 72
    13
 73
     9
 74
     0
 42
0.000000001
 43
0.0000000001
 40
-1.0
 40
-1.0
 40
-1.0
 40
-1.0
 40
-0.7857142857142857
 40
-0.5714285714285714
 40
-0.4285714285714286
 40
-0.2857142857142857
 40
-0.1428571428571428
 40
0.0
 40
0.0
 40
0.0
 40
0.0
 10
802.6664074431872
 20
1641.765295239517
 30
0.0
 10
802.8827169465278
 20
1641.683329571305
 30
0.0
 10
803.3264933296056
 20
1641.554969246329
 30
0.0
 10
803.8738653717979
 20
1641.489938274674
 30
0.0
 10
804.2545747106249
 20
1641.522604919844
 30
0.0
 10
804.493495777795
 20
1641.604494199518
 30
0.0
 10
804.6358696906773
 20
1641.732058792555
 30
0.0
 10
804.6664074431872
 20
1641.837902457415
 30
0.0
 10
804.6664074431872
 20
1641.896828574393
 30
0.0
  0
SPLINE
  5
136
330
DD
100
AcDbEntity
  8
P-SANR-FIXT
100
AcDbSpline
210
0.0
220
0.0
230
1.0
 70
     8
 71
     3
 72
    15
 73
    11
 74
     0
 42
0.000000001
 43
0.0000000001
 40
-1.0
 40
-1.0
 40
-1.0
 40
-1.0
 40
-0.7857142857142857
 40
-0.7321428571428572
 40
-0.6785714285714287
 40
-0.5714285714285714
 40
-0.4285714285714286
 40
-0.2857142857142857
 40
-0.1428571428571428
 40
0.0
 40
0.0
 40
0.0
 40
0.0
 10
826.6664074431874
 20
1641.896828574394
 30
0.0
 10
826.6664074431874
 20
1641.808604011017
 30
0.0
 10
826.7094716977087
 20
1641.713942632796
 30
0.0
 10
826.8297276917646
 20
1641.624421268206
 30
0.0
 10
826.9278719652115
 20
1641.574248999587
 30
0.0
 10
827.1047330118896
 20
1641.520098852062
 30
0.0
 10
827.4037110367467
 20
1641.494946363474
 30
0.0
 10
827.7970506824985
 20
1641.526844342353
 30
0.0
 10
828.2288121393246
 20
1641.618172459453
 30
0.0
 10
828.5219045151228
 20
1641.710553664024
 30
0.0
 10
828.6664074431872
 20
1641.765295239517
 30
0.0
  0
ARC
  5
137
330
DD
100
AcDbEntity
  8
P-SANR-FIXT
100
AcDbCircle
 10
815.6664074431867
 20
1676.747075844258
 30
0.0
 40
37.31923062280708
100
AcDbArc
 50
290.3861746962104
 51
359.9999999999992
  0
LINE
  5
138
330
DD
100
AcDbEntity
  8
P-SANR-FIXT
100
AcDbLine
 10
804.6664074431875
 20
1714.398953510316
 30
0.0
 11
804.6664074431875
 21
1704.550030158661
 31
0.0
  0
SPLINE
  5
139
330
DD
100
AcDbEntity
  8
P-SANR-FIXT
100
AcDbSpline
210
0.0
220
0.0
230
1.0
 70
     8
 71
     3
 72
    14
 73
    10
 74
     0
 42
0.000000001
 43
0.0000000001
 40
-1.0
 40
-1.0
 40
-1.0
 40
-1.0
 40
-0.8571428571428571
 40
-0.7142857142857143
 40
-0.5714285714285714
 40
-0.4285714285714286
 40
-0.2857142857142857
 40
-0.1428571428571428
 40
0.0
 40
0.0
 40
0.0
 40
0.0
 10
804.6664074431875
 20
1704.550030158655
 30
0.0
 10
804.6664074431875
 20
1704.413547332821
 30
0.0
 10
804.5884049751196
 20
1704.122659564389
 30
0.0
 10
804.2649846719225
 20
1703.624134469376
 30
0.0
 10
803.7667662003824
 20
1703.088697208215
 30
0.0
 10
803.1265401087468
 20
1702.526624540473
 30
0.0
 10
802.3763882948188
 20
1701.950166689718
 30
0.0
 10
801.5485252054205
 20
1701.368751838044
 30
0.0
 10
800.9612187727196
 20
1700.992214290409
 30
0.0
 10
800.6664074431876
 20
1700.805515519898
 30
0.0
  0
ARC
  5
13A
330
DD
100
AcDbEntity
  8
P-SANR-FIXT
100
AcDbCircle
 10
815.6664074431867
 20
1676.747075844258
 30
0.0
 40
28.35151706040388
100
AcDbArc
 50
121.9427897112955
 51
130.8930826064012
  0
SPLINE
  5
13B
330
DD
100
AcDbEntity
  8
P-SANR-FIXT
100
AcDbSpline
210
0.0
220
0.0
230
1.0
 70
     8
 71
     3
 72
     9
 73
     5
 74
     0
 42
0.000000001
 43
0.0000000001
 40
-1.0
 40
-1.0
 40
-1.0
 40
-1.0
 40
-0.5
 40
-0.0448748285971994
 40
-0.0448748285971994
 40
-0.0448748285971994
 40
-0.0448748285971994
 10
797.106099450652
 20
1698.17890933672
 30
0.0
 10
796.2975377926392
 20
1697.390609557971
 30
0.0
 10
794.8451688197689
 20
1695.805988056501
 30
0.0
 10
793.5688985890719
 20
1694.070893119469
 30
0.0
 10
793.0007301239769
 20
1693.209939262268
 30
0.0
  0
ARC
  5
13C
330
DD
100
AcDbEntity
  8
P-SANR-FIXT
100
AcDbCircle
 10
815.6664074431867
 20
1676.747075844258
 30
0.0
 40
27.99999523162882
100
AcDbArc
 50
35.36819889401789
 51
36.0164687793176
  0
ARC
  5
13D
330
DD
100
AcDbEntity
  8
P-SANR-FIXT
100
AcDbCircle
 10
815.6664074431867
 20
1676.747075844258
 30
0.0
 40
27.99999523162898
100
AcDbArc
 50
39.92084898618268
 51
40.51801041372512
  0
ARC
  5
13E
330
DD
100
AcDbEntity
  8
P-SANR-FIXT
100
AcDbCircle
 10
815.6664074431867
 20
1676.747075844258
 30
0.0
 40
27.99999523162894
100
AcDbArc
 50
44.47349907834762
 51
44.98240896932319
  0
ARC
  5
13F
330
DD
100
AcDbEntity
  8
P-SANR-FIXT
100
AcDbCircle
 10
815.6664074431867
 20
1676.747075844258
 30
0.0
 40
27.99999523162884
100
AcDbArc
 50
49.02614917051238
 51
49.48631114024581
  0
ARC
  5
140
330
DD
100
AcDbEntity
  8
P-SANR-FIXT
100
AcDbCircle
 10
815.6664074431867
 20
1676.747075844258
 30
0.0
 40
27.99999523162888
100
AcDbArc
 50
53.57879926267742
 51
53.98953668294917
  0
ARC
  5
141
330
DD
100
AcDbEntity
  8
P-SANR-FIXT
100
AcDbCircle
 10
815.6664074431867
 20
1676.747075844258
 30
0.0
 40
27.99999523162892
100
AcDbArc
 50
58.13144935484208
 51
58.49220812827059
  0
ARC
  5
142
330
DD
100
AcDbEntity
  8
P-SANR-FIXT
100
AcDbCircle
 10
815.6664074431867
 20
1676.747075844258
 30
0.0
 40
27.99999523162899
100
AcDbArc
 50
62.68409944700703
 51
62.99441044382913
  0
ARC
  5
143
330
DD
100
AcDbEntity
  8
P-SANR-FIXT
100
AcDbCircle
 10
815.6664074431867
 20
1676.747075844258
 30
0.0
 40
27.99999523162898
100
AcDbArc
 50
67.23674953917178
 51
67.49620277333924
  0
ARC
  5
144
330
DD
100
AcDbEntity
  8
P-SANR-FIXT
100
AcDbCircle
 10
815.6664074431867
 20
1676.747075844258
 30
0.0
 40
27.9999952316289
100
AcDbArc
 50
71.78939963133661
 51
71.99762571677704
  0
ARC
  5
145
330
DD
100
AcDbEntity
  8
P-SANR-FIXT
100
AcDbCircle
 10
815.6664074431867
 20
1676.747075844258
 30
0.0
 40
27.999995231629
100
AcDbArc
 50
76.34204972350165
 51
76.49870592064321
  0
ARC
  5
146
330
DD
100
AcDbEntity
  8
P-SANR-FIXT
100
AcDbCircle
 10
815.6664074431867
 20
1676.747075844258
 30
0.0
 40
27.99999523162891
100
AcDbArc
 50
80.89469981566642
 51
80.99945895931057
  0
LINE
  5
147
330
DD
100
AcDbEntity
  8
P-SANR-FIXT
100
AcDbLine
 10
817.8889111867752
 20
1704.658725922335
 30
0.0
 11
817.863314822163
 21
1704.66075225815
 31
0.0
  0
LINE
  5
148
330
DD
100
AcDbEntity
  8
P-SANR-FIXT
100
AcDbLine
 10
813.4695000642111
 20
1704.66075225815
 30
0.0
 11
813.443903699602
 21
1704.658725922335
 31
0.0
  0
ARC
  5
149
330
DD
100
AcDbEntity
  8
P-SANR-FIXT
100
AcDbCircle
 10
815.6664074431867
 20
1676.747075844258
 30
0.0
 40
27.99999523162883
100
AcDbArc
 50
99.000541040688
 51
99.10530018432586
  0
ARC
  5
14A
330
DD
100
AcDbEntity
  8
P-SANR-FIXT
100
AcDbCircle
 10
815.6664074431867
 20
1676.747075844258
 30
0.0
 40
27.99999523162891
100
AcDbArc
 50
103.5012940793556
 51
103.6579502764907
  0
ARC
  5
14B
330
DD
100
AcDbEntity
  8
P-SANR-FIXT
100
AcDbCircle
 10
815.6664074431867
 20
1676.747075844258
 30
0.0
 40
27.99999523162887
100
AcDbArc
 50
108.0023742832217
 51
108.2106003686555
  0
ARC
  5
14C
330
DD
100
AcDbEntity
  8
P-SANR-FIXT
100
AcDbCircle
 10
815.6664074431867
 20
1676.747075844258
 30
0.0
 40
27.99999523162884
100
AcDbArc
 50
112.5037972266591
 51
112.7632504608203
  0
ARC
  5
14D
330
DD
100
AcDbEntity
  8
P-SANR-FIXT
100
AcDbCircle
 10
815.6664074431867
 20
1676.747075844258
 30
0.0
 40
27.99999523162879
100
AcDbArc
 50
117.0055895561698
 51
117.3159005529857
  0
ARC
  5
14E
330
DD
100
AcDbEntity
  8
P-SANR-FIXT
100
AcDbCircle
 10
815.6664074431867
 20
1676.747075844258
 30
0.0
 40
27.99999523162901
100
AcDbArc
 50
121.5077918717272
 51
121.8685506451503
  0
ARC
  5
14F
330
DD
100
AcDbEntity
  8
P-SANR-FIXT
100
AcDbCircle
 10
815.6664074431867
 20
1676.747075844258
 30
0.0
 40
27.99999523162897
100
AcDbArc
 50
126.0104633170497
 51
126.421200737315
  0
ARC
  5
150
330
DD
100
AcDbEntity
  8
P-SANR-FIXT
100
AcDbCircle
 10
815.6664074431867
 20
1676.747075844258
 30
0.0
 40
27.99999523162893
100
AcDbArc
 50
130.5136888597522
 51
130.9738508294797
  0
ARC
  5
151
330
DD
100
AcDbEntity
  8
P-SANR-FIXT
100
AcDbCircle
 10
815.6664074431867
 20
1676.747075844258
 30
0.0
 40
27.99999523162883
100
AcDbArc
 50
135.0175910306753
 51
135.5265009216449
  0
ARC
  5
152
330
DD
100
AcDbEntity
  8
P-SANR-FIXT
100
AcDbCircle
 10
815.6664074431867
 20
1676.747075844258
 30
0.0
 40
27.99999523162883
100
AcDbArc
 50
139.4819895862739
 51
140.0791510138099
  0
ARC
  5
153
330
DD
100
AcDbEntity
  8
P-SANR-FIXT
100
AcDbCircle
 10
815.6664074431867
 20
1676.747075844258
 30
0.0
 40
27.9999952316289
100
AcDbArc
 50
143.9835312206807
 51
144.6318011059744
  0
SPLINE
  5
154
330
DD
100
AcDbEntity
  8
P-SANR-FIXT
100
AcDbSpline
210
0.0
220
0.0
230
1.0
 70
     8
 71
     3
 72
     9
 73
     5
 74
     0
 42
0.000000001
 43
0.0000000001
 40
-0.9551251714023718
 40
-0.9551251714023718
 40
-0.9551251714023718
 40
-0.9551251714023718
 40
-0.5
 40
0.0
 40
0.0
 40
0.0
 40
0.0
 10
838.3320847623972
 20
1693.209939262268
 30
0.0
 10
837.7639162973025
 20
1694.070893119468
 30
0.0
 10
836.487646066606
 20
1695.8059880565
 30
0.0
 10
835.0352770937359
 20
1697.39060955797
 30
0.0
 10
834.226715435723
 20
1698.178909336719
 30
0.0
  0
ARC
  5
155
330
DD
100
AcDbEntity
  8
P-SANR-FIXT
100
AcDbCircle
 10
815.6664074431867
 20
1676.747075844258
 30
0.0
 40
28.35151706040391
100
AcDbArc
 50
49.10691739359389
 51
58.05721028869947
  0
SPLINE
  5
156
330
DD
100
AcDbEntity
  8
P-SANR-FIXT
100
AcDbSpline
210
0.0
220
0.0
230
1.0
 70
     8
 71
     3
 72
    14
 73
    10
 74
     0
 42
0.000000001
 43
0.0000000001
 40
-1.0
 40
-1.0
 40
-1.0
 40
-1.0
 40
-0.8571428571428571
 40
-0.7142857142857144
 40
-0.5714285714285714
 40
-0.4285714285714286
 40
-0.2857142857142857
 40
-0.1428571428571428
 40
0.0
 40
0.0
 40
0.0
 40
0.0
 10
830.6664074431875
 20
1700.805515519897
 30
0.0
 10
830.3720466082438
 20
1700.9919194405
 30
0.0
 10
829.7854016501284
 20
1701.368018171778
 30
0.0
 10
828.9575175745753
 20
1701.949365741389
 30
0.0
 10
828.2071159338583
 20
1702.525932376252
 30
0.0
 10
827.5665046250884
 20
1703.088244325186
 30
0.0
 10
827.068013151036
 20
1703.62389260376
 30
0.0
 10
826.7444682378084
 20
1704.122513646036
 30
0.0
 10
826.6664074431874
 20
1704.413499197636
 30
0.0
 10
826.6664074431874
 20
1704.550030158655
 30
0.0
  0
LINE
  5
157
330
DD
100
AcDbEntity
  8
P-SANR-FIXT
100
AcDbLine
 10
826.6664074431874
 20
1704.550030158649
 30
0.0
 11
826.6664074431876
 21
1714.398953510304
 31
0.0
  0
SPLINE
  5
158
330
DD
100
AcDbEntity
  8
P-SANR-FIXT
100
AcDbSpline
210
0.0
220
0.0
230
1.0
 70
     8
 71
     3
 72
    15
 73
    11
 74
     0
 42
0.000000001
 43
0.0000000001
 40
-1.0
 40
-1.0
 40
-1.0
 40
-1.0
 40
-0.7857142857142857
 40
-0.7321428571428572
 40
-0.6785714285714287
 40
-0.5714285714285714
 40
-0.4285714285714286
 40
-0.2857142857142857
 40
-0.1428571428571428
 40
0.0
 40
0.0
 40
0.0
 40
0.0
 10
826.6664074431876
 20
1714.39895351031
 30
0.0
 10
826.6664074431876
 20
1714.486515892842
 30
0.0
 10
826.709422589101
 20
1714.581372133598
 30
0.0
 10
826.8291267210566
 20
1714.672676565061
 30
0.0
 10
826.9267983410228
 20
1714.724576169146
 30
0.0
 10
827.1027124720319
 20
1714.782165744222
 30
0.0
 10
827.4003131116783
 20
1714.814074076638
 30
0.0
 10
827.7929744485291
 20
1714.791884288763
 30
0.0
 10
828.2258466949828
 20
1714.711657304854
 30
0.0
 10
828.5207616093813
 20
1714.626630919357
 30
0.0
 10
828.6664074431875
 20
1714.575636483013
 30
0.0
  0
SPLINE
  5
159
330
DD
100
AcDbEntity
  8
P-SANR-FIXT
100
AcDbSpline
210
0.0
220
0.0
230
1.0
 70
     8
 71
     3
 72
    13
 73
     9
 74
     0
 42
0.000000001
 43
0.0000000001
 40
-1.0
 40
-1.0
 40
-1.0
 40
-1.0
 40
-0.7857142857142857
 40
-0.5714285714285714
 40
-0.4285714285714286
 40
-0.2857142857142857
 40
-0.1428571428571428
 40
0.0
 40
0.0
 40
0.0
 40
0.0
 10
802.6664074431874
 20
1714.575636483014
 30
0.0
 10
802.8848761938968
 20
1714.652128137529
 30
0.0
 10
803.3316082630294
 20
1714.769353324384
 30
0.0
 10
803.8784783208949
 20
1714.820315480244
 30
0.0
 10
804.2571631956644
 20
1714.778918254195
 30
0.0
 10
804.4945064427921
 20
1714.692379496091
 30
0.0
 10
804.6360254782669
 20
1714.562892925273
 30
0.0
 10
804.6664074431875
 20
1714.457328431998
 30
0.0
 10
804.6664074431875
 20
1714.39895351031
 30
0.0
  0
LINE
  5
15A
330
DD
100
AcDbEntity
  8
P-SANR-FIXT
100
AcDbLine
 10
804.6664074431873
 20
1648.944121529867
 30
0.0
 11
804.6664074431872
 21
1639.095198178211
 31
0.0
  0
SPLINE
  5
15B
330
DD
100
AcDbEntity
  8
P-SANR-FIXT
100
AcDbSpline
210
0.0
220
0.0
230
1.0
 70
     8
 71
     3
 72
    15
 73
    11
 74
     0
 42
0.000000001
 43
0.0000000001
 40
-1.0
 40
-1.0
 40
-1.0
 40
-1.0
 40
-0.7857142857142857
 40
-0.7321428571428572
 40
-0.6785714285714287
 40
-0.5714285714285714
 40
-0.4285714285714286
 40
-0.2857142857142857
 40
-0.1428571428571428
 40
0.0
 40
0.0
 40
0.0
 40
0.0
 10
804.6664074431872
 20
1639.095198178206
 30
0.0
 10
804.6664074431872
 20
1639.007635795674
 30
0.0
 10
804.6233922972737
 20
1638.912779554918
 30
0.0
 10
804.5036881653182
 20
1638.821475123454
 30
0.0
 10
804.4060165453521
 20
1638.76957551937
 30
0.0
 10
804.230102414343
 20
1638.711985944295
 30
0.0
 10
803.9325017746966
 20
1638.680077611878
 30
0.0
 10
803.5398404378458
 20
1638.702267399754
 30
0.0
 10
803.1069681913923
 20
1638.782494383662
 30
0.0
 10
802.8120532769934
 20
1638.867520769159
 30
0.0
 10
802.6664074431872
 20
1638.918515205503
 30
0.0
  0
SPLINE
  5
15C
330
DD
100
AcDbEntity
  8
P-SANR-FIXT
100
AcDbSpline
210
0.0
220
0.0
230
1.0
 70
     8
 71
     3
 72
    13
 73
     9
 74
     0
 42
0.000000001
 43
0.0000000001
 40
-1.0
 40
-1.0
 40
-1.0
 40
-1.0
 40
-0.7857142857142857
 40
-0.5714285714285714
 40
-0.4285714285714286
 40
-0.2857142857142857
 40
-0.1428571428571428
 40
0.0
 40
0.0
 40
0.0
 40
0.0
 10
828.6664074431872
 20
1638.918515205503
 30
0.0
 10
828.4479386924783
 20
1638.842023550988
 30
0.0
 10
828.0012066233457
 20
1638.724798364132
 30
0.0
 10
827.45433656548
 20
1638.673836208273
 30
0.0
 10
827.0756516907106
 20
1638.715233434322
 30
0.0
 10
826.8383084435829
 20
1638.801772192425
 30
0.0
 10
826.6967894081078
 20
1638.931258763243
 30
0.0
 10
826.666407443187
 20
1639.036823256519
 30
0.0
 10
826.6664074431874
 20
1639.095198178206
 30
0.0
  0
LINE
  5
15D
330
DD
100
AcDbEntity
  8
P-SANR-FIXT
100
AcDbLine
 10
826.6664074431874
 20
1639.0951981782
 30
0.0
 11
826.666407443187
 21
1648.944121529856
 31
0.0
  0
SPLINE
  5
15E
330
DD
100
AcDbEntity
  8
P-SANR-FIXT
100
AcDbSpline
210
0.0
220
0.0
230
1.0
 70
     8
 71
     3
 72
    14
 73
    10
 74
     0
 42
0.000000001
 43
0.0000000001
 40
-1.0
 40
-1.0
 40
-1.0
 40
-1.0
 40
-0.8571428571428571
 40
-0.7142857142857143
 40
-0.5714285714285714
 40
-0.4285714285714286
 40
-0.2857142857142857
 40
-0.1428571428571428
 40
0.0
 40
0.0
 40
0.0
 40
0.0
 10
826.666407443187
 20
1648.944121529862
 30
0.0
 10
826.666407443187
 20
1649.080652490881
 30
0.0
 10
826.744468237808
 20
1649.37163804248
 30
0.0
 10
827.0680131510356
 20
1649.870259084757
 30
0.0
 10
827.5665046250884
 20
1650.40590736333
 30
0.0
 10
828.2071159338581
 20
1650.968219312264
 30
0.0
 10
828.9575175745753
 20
1651.544785947127
 30
0.0
 10
829.7854016501281
 20
1652.126133516738
 30
0.0
 10
830.3720466082436
 20
1652.502232248016
 30
0.0
 10
830.6664074431873
 20
1652.688636168619
 30
0.0
  0
ARC
  5
15F
330
DD
100
AcDbEntity
  8
P-SANR-FIXT
100
AcDbCircle
 10
815.6664074431867
 20
1676.747075844258
 30
0.0
 40
28.35151706040407
100
AcDbArc
 50
301.9427897112994
 51
310.8930826064053
  0
SPLINE
  5
160
330
DD
100
AcDbEntity
  8
P-SANR-FIXT
100
AcDbSpline
210
0.0
220
0.0
230
1.0
 70
     8
 71
     3
 72
     9
 73
     5
 74
     0
 42
0.000000001
 43
0.0000000001
 40
-1.0
 40
-1.0
 40
-1.0
 40
-1.0
 40
-0.5
 40
-0.044874828597628
 40
-0.044874828597628
 40
-0.044874828597628
 40
-0.044874828597628
 10
834.2267154357227
 20
1655.315242351797
 30
0.0
 10
835.0352770937357
 20
1656.103542130546
 30
0.0
 10
836.4876460666057
 20
1657.688163632016
 30
0.0
 10
837.7639162973023
 20
1659.423258569048
 30
0.0
 10
838.3320847623968
 20
1660.284212426248
 30
0.0
  0
ARC
  5
161
330
DD
100
AcDbEntity
  8
P-SANR-FIXT
100
AcDbCircle
 10
815.6664074431867
 20
1676.747075844258
 30
0.0
 40
27.99999523162895
100
AcDbArc
 50
215.3681988940238
 51
216.0164687793182
  0
ARC
  5
162
330
DD
100
AcDbEntity
  8
P-SANR-FIXT
100
AcDbCircle
 10
815.6664074431867
 20
1676.747075844258
 30
0.0
 40
27.99999523162878
100
AcDbArc
 50
219.9208489861887
 51
220.5180104137245
  0
ARC
  5
163
330
DD
100
AcDbEntity
  8
P-SANR-FIXT
100
AcDbCircle
 10
815.6664074431867
 20
1676.747075844258
 30
0.0
 40
27.9999952316289
100
AcDbArc
 50
224.4734990783535
 51
224.9824089693233
  0
ARC
  5
164
330
DD
100
AcDbEntity
  8
P-SANR-FIXT
100
AcDbCircle
 10
815.6664074431867
 20
1676.747075844258
 30
0.0
 40
27.99999523162898
100
AcDbArc
 50
229.0261491705184
 51
229.4863111402463
  0
ARC
  5
165
330
DD
100
AcDbEntity
  8
P-SANR-FIXT
100
AcDbCircle
 10
815.6664074431867
 20
1676.747075844258
 30
0.0
 40
27.99999523162893
100
AcDbArc
 50
233.5787992626833
 51
233.9895366829489
  0
ARC
  5
166
330
DD
100
AcDbEntity
  8
P-SANR-FIXT
100
AcDbCircle
 10
815.6664074431867
 20
1676.747075844258
 30
0.0
 40
27.99999523162883
100
AcDbArc
 50
238.131449354848
 51
238.4922081282712
  0
ARC
  5
167
330
DD
100
AcDbEntity
  8
P-SANR-FIXT
100
AcDbCircle
 10
815.6664074431867
 20
1676.747075844258
 30
0.0
 40
27.99999523162905
100
AcDbArc
 50
242.6840994470131
 51
242.9944104438292
  0
ARC
  5
168
330
DD
100
AcDbEntity
  8
P-SANR-FIXT
100
AcDbCircle
 10
815.6664074431867
 20
1676.747075844258
 30
0.0
 40
27.99999523162899
100
AcDbArc
 50
247.2367495391781
 51
247.4962027733397
  0
ARC
  5
169
330
DD
100
AcDbEntity
  8
P-SANR-FIXT
100
AcDbCircle
 10
815.6664074431867
 20
1676.747075844258
 30
0.0
 40
27.99999523162894
100
AcDbArc
 50
251.7893996313426
 51
251.9976257167773
  0
ARC
  5
16A
330
DD
100
AcDbEntity
  8
P-SANR-FIXT
100
AcDbCircle
 10
815.6664074431867
 20
1676.747075844258
 30
0.0
 40
27.99999523162908
100
AcDbArc
 50
256.3420497235076
 51
256.498705920643
  0
ARC
  5
16B
330
DD
100
AcDbEntity
  8
P-SANR-FIXT
100
AcDbCircle
 10
815.6664074431867
 20
1676.747075844258
 30
0.0
 40
27.99999523162888
100
AcDbArc
 50
260.8946998156724
 51
260.9994589593106
  0
LINE
  5
16C
330
DD
100
AcDbEntity
  8
P-SANR-FIXT
100
AcDbLine
 10
813.4439036996015
 20
1648.835425766182
 30
0.0
 11
813.4695000642107
 21
1648.833399430367
 31
0.0
  0
LINE
  5
16D
330
DD
100
AcDbEntity
  8
P-SANR-FIXT
100
AcDbLine
 10
817.8633148221628
 20
1648.833399430367
 30
0.0
 11
817.8889111867746
 21
1648.835425766182
 31
0.0
  0
ARC
  5
16E
330
DD
100
AcDbEntity
  8
P-SANR-FIXT
100
AcDbCircle
 10
815.6664074431867
 20
1676.747075844258
 30
0.0
 40
27.99999523162898
100
AcDbArc
 50
279.000541040688
 51
279.1053001843318
  0
ARC
  5
16F
330
DD
100
AcDbEntity
  8
P-SANR-FIXT
100
AcDbCircle
 10
815.6664074431867
 20
1676.747075844258
 30
0.0
 40
27.99999523162896
100
AcDbArc
 50
283.5012940793557
 51
283.6579502764966
  0
ARC
  5
170
330
DD
100
AcDbEntity
  8
P-SANR-FIXT
100
AcDbCircle
 10
815.6664074431867
 20
1676.747075844258
 30
0.0
 40
27.99999523162894
100
AcDbArc
 50
288.0023742832218
 51
288.2106003686616
  0
ARC
  5
171
330
DD
100
AcDbEntity
  8
P-SANR-FIXT
100
AcDbCircle
 10
815.6664074431867
 20
1676.747075844258
 30
0.0
 40
27.99999523162903
100
AcDbArc
 50
292.5037972266592
 51
292.7632504608265
  0
ARC
  5
172
330
DD
100
AcDbEntity
  8
P-SANR-FIXT
100
AcDbCircle
 10
815.6664074431867
 20
1676.747075844258
 30
0.0
 40
27.99999523162894
100
AcDbArc
 50
297.0055895561696
 51
297.3159005529913
  0
ARC
  5
173
330
DD
100
AcDbEntity
  8
P-SANR-FIXT
100
AcDbCircle
 10
815.6664074431867
 20
1676.747075844258
 30
0.0
 40
27.99999523162903
100
AcDbArc
 50
301.5077918717275
 51
301.8685506451563
  0
ARC
  5
174
330
DD
100
AcDbEntity
  8
P-SANR-FIXT
100
AcDbCircle
 10
815.6664074431867
 20
1676.747075844258
 30
0.0
 40
27.9999952316291
100
AcDbArc
 50
306.01046331705
 51
306.4212007373211
  0
ARC
  5
175
330
DD
100
AcDbEntity
  8
P-SANR-FIXT
100
AcDbCircle
 10
815.6664074431867
 20
1676.747075844258
 30
0.0
 40
27.99999523162907
100
AcDbArc
 50
310.5136888597526
 51
310.9738508294857
  0
ARC
  5
176
330
DD
100
AcDbEntity
  8
P-SANR-FIXT
100
AcDbCircle
 10
815.6664074431867
 20
1676.747075844258
 30
0.0
 40
27.99999523162907
100
AcDbArc
 50
315.0175910306753
 51
315.5265009216506
  0
ARC
  5
177
330
DD
100
AcDbEntity
  8
P-SANR-FIXT
100
AcDbCircle
 10
815.6664074431867
 20
1676.747075844258
 30
0.0
 40
27.99999523162892
100
AcDbArc
 50
319.4819895862742
 51
320.0791510138158
  0
ARC
  5
178
330
DD
100
AcDbEntity
  8
P-SANR-FIXT
100
AcDbCircle
 10
815.6664074431867
 20
1676.747075844258
 30
0.0
 40
27.99999523162906
100
AcDbArc
 50
323.9835312206807
 51
324.6318011059808
  0
SPLINE
  5
179
330
DD
100
AcDbEntity
  8
P-SANR-FIXT
100
AcDbSpline
210
0.0
220
0.0
230
1.0
 70
     8
 71
     3
 72
     9
 73
     5
 74
     0
 42
0.000000001
 43
0.0000000001
 40
-0.9551251714027703
 40
-0.9551251714027703
 40
-0.9551251714027703
 40
-0.9551251714027703
 40
-0.5
 40
0.0
 40
0.0
 40
0.0
 40
0.0
 10
793.0007301239768
 20
1660.284212426248
 30
0.0
 10
793.5688985890717
 20
1659.423258569048
 30
0.0
 10
794.8451688197686
 20
1657.688163632015
 30
0.0
 10
796.2975377926389
 20
1656.103542130545
 30
0.0
 10
797.1060994506517
 20
1655.315242351796
 30
0.0
  0
ARC
  5
17A
330
DD
100
AcDbEntity
  8
P-SANR-FIXT
100
AcDbCircle
 10
815.6664074431867
 20
1676.747075844258
 30
0.0
 40
28.35151706040391
100
AcDbArc
 50
229.106917393598
 51
238.0572102887037
  0
SPLINE
  5
17B
330
DD
100
AcDbEntity
  8
P-SANR-FIXT
100
AcDbSpline
210
0.0
220
0.0
230
1.0
 70
     8
 71
     3
 72
    14
 73
    10
 74
     0
 42
0.000000001
 43
0.0000000001
 40
-1.0
 40
-1.0
 40
-1.0
 40
-1.0
 40
-0.8571428571428571
 40
-0.7142857142857144
 40
-0.5714285714285714
 40
-0.4285714285714286
 40
-0.2857142857142857
 40
-0.1428571428571428
 40
0.0
 40
0.0
 40
0.0
 40
0.0
 10
800.6664074431872
 20
1652.688636168619
 30
0.0
 10
800.9612187727194
 20
1652.501937398108
 30
0.0
 10
801.5485252054205
 20
1652.125399850472
 30
0.0
 10
802.3763882948186
 20
1651.543984998798
 30
0.0
 10
803.1265401087468
 20
1650.967527148043
 30
0.0
 10
803.7667662003821
 20
1650.405454480302
 30
0.0
 10
804.2649846719223
 20
1649.87001721914
 30
0.0
 10
804.5884049751192
 20
1649.371492124127
 30
0.0
 10
804.6664074431873
 20
1649.080604355695
 30
0.0
 10
804.6664074431873
 20
1648.944121529861
 30
0.0
  0
ENDBLK
  5
17D
330
DD
100
AcDbEntity
  8
0
100
AcDbBlockEnd
  0
BLOCK
  5
1FD
330
17F
100
AcDbEntity
  8
0
100
AcDbBlockBegin
  2
Automatic flow rate regulator valve_Caleffi_121 DN15 - 1_2__-V2-Est - Idraulica
 70
     0
 10
0.0
 20
0.0
 30
0.0
  3
Automatic flow rate regulator valve_Caleffi_121 DN15 - 1_2__-V2-Est - Idraulica
  1

  0
LINE
  5
180
330
17F
100
AcDbEntity
  8
P-SANR-FIXT
100
AcDbLine
 10
1274.269406828898
 20
1921.998183849934
 30
0.0
 11
1274.269406828898
 21
1937.998183850012
 31
0.0
  0
LINE
  5
181
330
17F
100
AcDbEntity
  8
P-SANR-FIXT
100
AcDbLine
 10
1221.456906828899
 20
1937.998183850012
 30
0.0
 11
1221.456906828899
 21
1921.998183849934
 31
0.0
  0
LINE
  5
182
330
17F
100
AcDbEntity
  8
P-SANR-FIXT
100
AcDbLine
 10
1258.87633253182
 20
1937.998183850011
 30
0.0
 11
1258.87633253182
 21
1921.998183849933
 31
0.0
  0
LINE
  5
183
330
17F
100
AcDbEntity
  8
P-SANR-FIXT
100
AcDbLine
 10
1274.154354371167
 20
1937.998183850011
 30
0.0
 11
1274.154354371167
 21
1921.998183849933
 31
0.0
  0
LINE
  5
184
330
17F
100
AcDbEntity
  8
P-SANR-FIXT
100
AcDbLine
 10
1232.58513498955
 20
1921.998183849933
 30
0.0
 11
1221.571959286626
 21
1921.998183849933
 31
0.0
  0
LINE
  5
185
330
17F
100
AcDbEntity
  8
P-SANR-FIXT
100
AcDbLine
 10
1221.571959286626
 20
1921.998183849933
 30
0.0
 11
1221.456906828897
 21
1921.998183849933
 31
0.0
  0
LINE
  5
186
330
17F
100
AcDbEntity
  8
P-SANR-FIXT
100
AcDbLine
 10
1274.154354371167
 20
1921.998183849933
 30
0.0
 11
1274.269406828896
 21
1921.998183849933
 31
0.0
  0
LINE
  5
187
330
17F
100
AcDbEntity
  8
P-SANR-FIXT
100
AcDbLine
 10
1274.154354371167
 20
1921.998183849933
 30
0.0
 11
1263.141178668243
 21
1921.998183849933
 31
0.0
  0
LINE
  5
188
330
17F
100
AcDbEntity
  8
P-SANR-FIXT
100
AcDbLine
 10
1258.87633253182
 20
1921.998183849933
 30
0.0
 11
1263.141178668243
 21
1921.998183849933
 31
0.0
  0
LINE
  5
189
330
17F
100
AcDbEntity
  8
P-SANR-FIXT
100
AcDbLine
 10
1258.876332531821
 20
1921.998183849933
 30
0.0
 11
1236.849981125973
 21
1921.998183849933
 31
0.0
  0
LINE
  5
18A
330
17F
100
AcDbEntity
  8
P-SANR-FIXT
100
AcDbLine
 10
1236.849981125973
 20
1921.998183849933
 30
0.0
 11
1232.58513498955
 21
1921.998183849933
 31
0.0
  0
LINE
  5
18B
330
17F
100
AcDbEntity
  8
P-SANR-FIXT
100
AcDbLine
 10
1232.58513498955
 20
1937.998183850011
 30
0.0
 11
1232.58513498955
 21
1921.998183849933
 31
0.0
  0
LINE
  5
18C
330
17F
100
AcDbEntity
  8
P-SANR-FIXT
100
AcDbLine
 10
1236.849981125973
 20
1921.998183849933
 30
0.0
 11
1236.849981125973
 21
1937.998183850011
 31
0.0
  0
LINE
  5
18D
330
17F
100
AcDbEntity
  8
P-SANR-FIXT
100
AcDbLine
 10
1263.141178668243
 20
1921.998183849933
 30
0.0
 11
1263.141178668243
 21
1937.998183850011
 31
0.0
  0
LINE
  5
18E
330
17F
100
AcDbEntity
  8
P-SANR-FIXT
100
AcDbLine
 10
1221.571959286626
 20
1921.998183849933
 30
0.0
 11
1221.571959286626
 21
1937.998183850011
 31
0.0
  0
LINE
  5
18F
330
17F
100
AcDbEntity
  8
P-SANR-FIXT
100
AcDbLine
 10
1224.363156828899
 20
2052.498183850012
 30
0.0
 11
1222.863156828898
 21
2051.632158446228
 31
0.0
  0
LINE
  5
190
330
17F
100
AcDbEntity
  8
P-SANR-FIXT
100
AcDbLine
 10
1272.863156828899
 20
2051.632158446228
 30
0.0
 11
1271.363156828898
 21
2052.498183850012
 31
0.0
  0
LINE
  5
191
330
17F
100
AcDbEntity
  8
P-SANR-FIXT
100
AcDbLine
 10
1207.863156828898
 20
2005.498183850012
 30
0.0
 11
1207.863156828898
 21
1970.998183850012
 31
0.0
  0
LINE
  5
192
330
17F
100
AcDbEntity
  8
P-SANR-FIXT
100
AcDbLine
 10
1287.863156828899
 20
1970.998183850012
 30
0.0
 11
1287.863156828899
 21
2005.498183850012
 31
0.0
  0
LINE
  5
193
330
17F
100
AcDbEntity
  8
P-SANR-FIXT
100
AcDbLine
 10
1222.863156828898
 20
2051.632158446228
 30
0.0
 11
1222.863156828898
 21
2042.590098110634
 31
0.0
  0
LINE
  5
194
330
17F
100
AcDbEntity
  8
P-SANR-FIXT
100
AcDbLine
 10
1272.863156828899
 20
2042.590098110634
 30
0.0
 11
1272.863156828899
 21
2051.632158446228
 31
0.0
  0
LINE
  5
195
330
17F
100
AcDbEntity
  8
P-SANR-FIXT
100
AcDbLine
 10
1222.863156828898
 20
2042.590098110634
 30
0.0
 11
1220.521141453945
 21
2041.737674225957
 31
0.0
  0
LINE
  5
196
330
17F
100
AcDbEntity
  8
P-SANR-FIXT
100
AcDbLine
 10
1275.205172203852
 20
2041.737674225957
 30
0.0
 11
1272.863156828899
 21
2042.590098110634
 31
0.0
  0
LWPOLYLINE
  5
197
330
17F
100
AcDbEntity
  8
P-SANR-FIXT
100
AcDbPolyline
 90
       32
 70
   128
 43
0.0
 10
1219.863161597271
 20
2040.797981605171
 10
1219.86396149061
 20
2040.837970939358
 10
1219.866359890968
 20
2040.877896299141
 10
1219.870352961417
 20
2040.91769381246
 10
1219.875934313895
 20
2040.957299811786
 10
1219.883095019429
 20
2040.996650935967
 10
1219.891823622418
 20
2041.035684231598
 10
1219.90210615896
 20
2041.074337253736
 10
1219.913926179188
 20
2041.112548165788
 10
1219.927264773593
 20
2041.150255838447
 10
1219.942100603268
 20
2041.18739994748
 10
1219.958409934051
 20
2041.223921070237
 10
1219.976166674492
 20
2041.259760780713
 10
1219.995342417593
 20
2041.294861743015
 10
1220.015906486257
 20
2041.329167803092
 10
1220.037825982361
 20
2041.362624078567
 10
1220.061065839386
 20
2041.395177046534
 10
1220.08558887852
 20
2041.42677462919
 10
1220.11135586813
 20
2041.457366277143
 10
1220.13832558653
 20
2041.486903050282
 10
1220.166454887923
 20
2041.515337696071
 10
1220.195698771429
 20
2041.542624725142
 10
1220.226010453072
 20
2041.56872048407
 10
1220.257341440627
 20
2041.593583225207
 10
1220.289641611198
 20
2041.617173173472
 10
1220.322859291403
 20
2041.639452589979
 10
1220.356941340038
 20
2041.660385832415
 10
1220.391833233097
 20
2041.679939412057
 10
1220.427479150994
 20
2041.698082047348
 10
1220.463822067864
 20
2041.714784713943
 10
1220.500803842794
 20
2041.730020691139
 10
1220.521141453945
 20
2041.737674225957
  0
LWPOLYLINE
  5
198
330
17F
100
AcDbEntity
  8
P-SANR-FIXT
100
AcDbPolyline
 90
       32
 70
   128
 43
0.0
 10
1275.205172203852
 20
2041.737674225957
 10
1275.242476306463
 20
2041.723245414279
 10
1275.279173571199
 20
2041.707336377886
 10
1275.315205290264
 20
2041.689972567841
 10
1275.350513820594
 20
2041.671181762537
 10
1275.385042676073
 20
2041.650994023255
 10
1275.418736617898
 20
2041.62944164607
 10
1275.45154174295
 20
2041.606559110187
 10
1275.483405570026
 20
2041.582383022785
 10
1275.5142771238
 20
2041.556952060444
 10
1275.544107016373
 20
2041.53030690728
 10
1275.572847526279
 20
2041.502490189853
 10
1275.600452674834
 20
2041.473546408978
 10
1275.626878299688
 20
2041.44352186853
 10
1275.652082125478
 20
2041.412464601368
 10
1275.676023831461
 20
2041.380424292495
 10
1275.698665116014
 20
2041.347452199571
 10
1275.719969757912
 20
2041.313601070909
 10
1275.739903674271
 20
2041.278925061095
 10
1275.758434975079
 20
2041.243479644348
 10
1275.775534014207
 20
2041.207321525772
 10
1275.791173436841
 20
2041.170508550644
 10
1275.805328223239
 20
2041.133099611872
 10
1275.817975728765
 20
2041.095154555778
 10
1275.829095720105
 20
2041.056734086355
 10
1275.838670407648
 20
2041.017899668161
 10
1275.846684473935
 20
2040.978713427979
 10
1275.853125098169
 20
2040.939238055435
 10
1275.857981976726
 20
2040.899536702703
 10
1275.861247339636
 20
2040.859672883479
 10
1275.862915963015
 20
2040.81971037137
 10
1275.863152060526
 20
2040.797981605171
  0
LINE
  5
199
330
17F
100
AcDbEntity
  8
P-SANR-FIXT
100
AcDbLine
 10
1219.86316159727
 20
2040.797981605171
 30
0.0
 11
1219.86316159727
 21
2037.498196168303
 31
0.0
  0
LINE
  5
19A
330
17F
100
AcDbEntity
  8
P-SANR-FIXT
100
AcDbLine
 10
1275.863152060528
 20
2037.498196168303
 30
0.0
 11
1275.863152060528
 21
2040.797981605171
 31
0.0
  0
LINE
  5
19B
330
17F
100
AcDbEntity
  8
P-SANR-FIXT
100
AcDbLine
 10
1207.863156828899
 20
1970.998183850012
 30
0.0
 11
1221.363156828899
 21
1937.998183850012
 31
0.0
  0
LINE
  5
19C
330
17F
100
AcDbEntity
  8
P-SANR-FIXT
100
AcDbLine
 10
1274.363156828898
 20
1937.998183850012
 30
0.0
 11
1287.863156828898
 21
1970.998183850012
 31
0.0
  0
LINE
  5
19D
330
17F
100
AcDbEntity
  8
P-SANR-FIXT
100
AcDbLine
 10
1207.863156828899
 20
2006.498183850013
 30
0.0
 11
1207.863156828899
 21
2005.498183850012
 31
0.0
  0
LINE
  5
19E
330
17F
100
AcDbEntity
  8
P-SANR-FIXT
100
AcDbLine
 10
1287.863156828898
 20
2005.498183850012
 30
0.0
 11
1287.863156828898
 21
2006.498183850012
 31
0.0
  0
LINE
  5
19F
330
17F
100
AcDbEntity
  8
P-SANR-FIXT
100
AcDbLine
 10
1219.86316159727
 20
2037.498196168303
 30
0.0
 11
1207.863156828899
 21
2006.498183850013
 31
0.0
  0
LINE
  5
1A0
330
17F
100
AcDbEntity
  8
P-SANR-FIXT
100
AcDbLine
 10
1287.863156828898
 20
2006.498183850013
 30
0.0
 11
1275.863152060528
 21
2037.498196168303
 31
0.0
  0
LINE
  5
1A1
330
17F
100
AcDbEntity
  8
P-SANR-FIXT
100
AcDbLine
 10
1243.0413314484
 20
2052.498183850011
 30
0.0
 11
1225.781074073069
 21
2052.498183850012
 31
0.0
  0
LINE
  5
1A2
330
17F
100
AcDbEntity
  8
P-SANR-FIXT
100
AcDbLine
 10
1225.713128539106
 20
2052.498183850012
 30
0.0
 11
1224.363156828897
 21
2052.498183850012
 31
0.0
  0
LINE
  5
1A3
330
17F
100
AcDbEntity
  8
P-SANR-FIXT
100
AcDbLine
 10
1225.612175474102
 20
2052.498183850012
 30
0.0
 11
1225.63413177994
 21
2052.498183850012
 31
0.0
  0
LINE
  5
1A4
330
17F
100
AcDbEntity
  8
P-SANR-FIXT
100
AcDbLine
 10
1230.153097480204
 20
2052.498183850012
 30
0.0
 11
1230.303472637067
 21
2052.498183850012
 31
0.0
  0
SPLINE
  5
1A5
330
17F
100
AcDbEntity
  8
P-SANR-FIXT
100
AcDbSpline
210
0.0
220
0.0
230
1.0
 70
     8
 71
     3
 72
     8
 73
     4
 74
     0
 42
0.000000001
 43
0.0000000001
 40
-0.6731335174179854
 40
-0.6731335174179854
 40
-0.6731335174179854
 40
-0.6731335174179854
 40
-0.6666666666666668
 40
-0.6666666666666668
 40
-0.6666666666666668
 40
-0.6666666666666668
 10
1229.609441278782
 20
2052.648352844917
 30
0.0
 10
1229.58821381733
 20
2052.651800215111
 30
0.0
 10
1229.566986375044
 20
2052.655246966775
 30
0.0
 10
1229.545759173311
 20
2052.658685954778
 30
0.0
  0
SPLINE
  5
1A6
330
17F
100
AcDbEntity
  8
P-SANR-FIXT
100
AcDbSpline
210
0.0
220
0.0
230
1.0
 70
     8
 71
     3
 72
     8
 73
     4
 74
     0
 42
0.000000001
 43
0.0000000001
 40
-0.5076515522402524
 40
-0.5076515522402524
 40
-0.5076515522402524
 40
-0.5076515522402524
 40
-0.5
 40
-0.5
 40
-0.5
 40
-0.5
 10
1227.983774587211
 20
2052.786524328828
 30
0.0
 10
1227.958779136782
 20
2052.786704594498
 30
0.0
 10
1227.933783728446
 20
2052.786883501645
 30
0.0
 10
1227.908796614109
 20
2052.786794727333
 30
0.0
  0
SPLINE
  5
1A7
330
17F
100
AcDbEntity
  8
P-SANR-FIXT
100
AcDbSpline
210
0.0
220
0.0
230
1.0
 70
     8
 71
     3
 72
     8
 73
     4
 74
     0
 42
0.000000001
 43
0.0000000001
 40
-0.3401233190576143
 40
-0.3401233190576143
 40
-0.3401233190576143
 40
-0.3401233190576143
 40
-0.3333333333333334
 40
-0.3333333333333334
 40
-0.3333333333333334
 40
-0.3333333333333334
 10
1226.3459892638
 20
2052.668742159393
 30
0.0
 10
1226.323916828432
 20
2052.665399686322
 30
0.0
 10
1226.301850902897
 20
2052.661847114178
 30
0.0
 10
1226.279791229033
 20
2052.65809277493
 30
0.0
  0
SPLINE
  5
1A8
330
17F
100
AcDbEntity
  8
P-SANR-FIXT
100
AcDbSpline
210
0.0
220
0.0
230
1.0
 70
     8
 71
     3
 72
     8
 73
     4
 74
     0
 42
0.000000001
 43
0.0000000001
 40
-1.0
 40
-1.0
 40
-1.0
 40
-1.0
 40
-0.8032939675578457
 40
-0.8032939675578457
 40
-0.8032939675578457
 40
-0.8032939675578457
 10
1223.045593056288
 20
2051.632158446226
 30
0.0
 10
1223.697415389107
 20
2051.93499034192
 30
0.0
 10
1224.347392005408
 20
2052.178253376915
 30
0.0
 10
1224.995522905192
 20
2052.361947551211
 30
0.0
  0
SPLINE
  5
1A9
330
17F
100
AcDbEntity
  8
P-SANR-FIXT
100
AcDbSpline
210
0.0
220
0.0
230
1.0
 70
     8
 71
     3
 72
     8
 73
     4
 74
     0
 42
0.000000001
 43
0.0000000001
 40
-0.7459933694739883
 40
-0.7459933694739883
 40
-0.7459933694739883
 40
-0.7459933694739883
 40
-0.7354398551628736
 40
-0.7354398551628736
 40
-0.7354398551628736
 40
-0.7354398551628736
 10
1225.561455930978
 20
2052.507313917085
 30
0.0
 10
1225.596171238228
 20
2052.515307370288
 30
0.0
 10
1225.630886470318
 20
2052.523298397773
 30
0.0
 10
1225.665600953137
 20
2052.531265243227
 30
0.0
  0
SPLINE
  5
1AA
330
17F
100
AcDbEntity
  8
P-SANR-FIXT
100
AcDbSpline
210
0.0
220
0.0
230
1.0
 70
     8
 71
     3
 72
     9
 73
     5
 74
     0
 42
0.000000001
 43
0.0000000001
 40
-0.7275939346637417
 40
-0.7275939346637417
 40
-0.7275939346637417
 40
-0.7275939346637417
 40
-0.5
 40
-0.2770940616765408
 40
-0.2770940616765408
 40
-0.2770940616765408
 40
-0.2770940616765408
 10
1225.74297980669
 20
2052.547558712609
 30
0.0
 10
1226.491240237325
 20
2052.707049389092
 30
0.0
 10
1227.969320133927
 20
2052.92501171654
 30
0.0
 10
1229.43034532971
 20
2052.592548728156
 30
0.0
 10
1230.152044595563
 20
2052.388948135235
 30
0.0
  0
SPLINE
  5
1AB
330
17F
100
AcDbEntity
  8
P-SANR-FIXT
100
AcDbSpline
210
0.0
220
0.0
230
1.0
 70
     8
 71
     3
 72
     8
 73
     4
 74
     0
 42
0.000000001
 43
0.0000000001
 40
-0.2654691938675721
 40
-0.2654691938675721
 40
-0.2654691938675721
 40
-0.2654691938675721
 40
-0.2441956911417316
 40
-0.2441956911417316
 40
-0.2441956911417316
 40
-0.2441956911417316
 10
1230.270400309001
 20
2052.53275304283
 30
0.0
 10
1230.339403287185
 20
2052.517390863459
 30
0.0
 10
1230.408344961971
 20
2052.50005017138
 30
0.0
 10
1230.477234881254
 20
2052.481039116423
 30
0.0
  0
SPLINE
  5
1AC
330
17F
100
AcDbEntity
  8
P-SANR-FIXT
100
AcDbSpline
210
0.0
220
0.0
230
1.0
 70
     8
 71
     3
 72
     8
 73
     4
 74
     0
 42
0.000000001
 43
0.0000000001
 40
-0.2309061283308659
 40
-0.2309061283308659
 40
-0.2309061283308659
 40
-0.2309061283308659
 40
0.0
 40
0.0
 40
0.0
 40
0.0
 10
1230.606556827546
 20
2052.452358892696
 30
0.0
 10
1231.354765211557
 20
2052.261042052784
 30
0.0
 10
1232.100430278183
 20
2051.987641903961
 30
0.0
 10
1232.843552027422
 20
2051.632158446226
 30
0.0
  0
SPLINE
  5
1AD
330
17F
100
AcDbEntity
  8
P-SANR-FIXT
100
AcDbSpline
210
0.0
220
0.0
230
1.0
 70
     8
 71
     3
 72
     9
 73
     5
 74
     0
 42
0.000000001
 43
0.0000000001
 40
-1.0
 40
-1.0
 40
-1.0
 40
-1.0
 40
-0.5
 40
0.0
 40
0.0
 40
0.0
 40
0.0
 10
1238.065197857761
 20
2051.632158446226
 30
0.0
 10
1238.887089236037
 20
2051.819961286016
 30
0.0
 10
1240.538336212752
 20
2052.152101693103
 30
0.0
 10
1242.204511629796
 20
2052.397311555206
 30
0.0
 10
1243.0413314484
 20
2052.498183850011
 30
0.0
  0
LINE
  5
1AE
330
17F
100
AcDbEntity
  8
P-SANR-FIXT
100
AcDbLine
 10
1265.428460182678
 20
2052.498183850012
 30
0.0
 11
1265.579351455263
 21
2052.498183850012
 31
0.0
  0
LINE
  5
1AF
330
17F
100
AcDbEntity
  8
P-SANR-FIXT
100
AcDbLine
 10
1270.098261906589
 20
2052.498183850012
 30
0.0
 11
1270.118071559726
 21
2052.498183850012
 31
0.0
  0
LINE
  5
1B0
330
17F
100
AcDbEntity
  8
P-SANR-FIXT
100
AcDbLine
 10
1271.363156828896
 20
2052.498183850012
 30
0.0
 11
1270.017262576657
 21
2052.498183850012
 31
0.0
  0
LINE
  5
1B1
330
17F
100
AcDbEntity
  8
P-SANR-FIXT
100
AcDbLine
 10
1269.952241884772
 20
2052.498183850012
 30
0.0
 11
1252.684982209393
 21
2052.498183850011
 31
0.0
  0
SPLINE
  5
1B2
330
17F
100
AcDbEntity
  8
P-SANR-FIXT
100
AcDbSpline
210
0.0
220
0.0
230
1.0
 70
     8
 71
     3
 72
     9
 73
     5
 74
     0
 42
0.000000001
 43
0.0000000001
 40
-1.0
 40
-1.0
 40
-1.0
 40
-1.0
 40
-0.5
 40
0.0
 40
0.0
 40
0.0
 40
0.0
 10
1252.684982209393
 20
2052.498183850011
 30
0.0
 10
1253.521802027996
 20
2052.397311555206
 30
0.0
 10
1255.18797744504
 20
2052.152101693103
 30
0.0
 10
1256.839224421756
 20
2051.819961286016
 30
0.0
 10
1257.661115800031
 20
2051.632158446226
 30
0.0
  0
SPLINE
  5
1B3
330
17F
100
AcDbEntity
  8
P-SANR-FIXT
100
AcDbSpline
210
0.0
220
0.0
230
1.0
 70
     8
 71
     3
 72
     8
 73
     4
 74
     0
 42
0.000000001
 43
0.0000000001
 40
-1.0
 40
-1.0
 40
-1.0
 40
-1.0
 40
-0.7735423488697855
 40
-0.7735423488697855
 40
-0.7735423488697855
 40
-0.7735423488697855
 10
1262.882761630371
 20
2051.632158446226
 30
0.0
 10
1263.633171531948
 20
2051.980793406399
 30
0.0
 10
1264.381135167756
 20
2052.250477312389
 30
0.0
 10
1265.126652537795
 20
2052.441210164196
 30
0.0
  0
SPLINE
  5
1B4
330
17F
100
AcDbEntity
  8
P-SANR-FIXT
100
AcDbSpline
210
0.0
220
0.0
230
1.0
 70
     8
 71
     3
 72
     8
 73
     4
 74
     0
 42
0.000000001
 43
0.0000000001
 40
-0.7609441918095227
 40
-0.7609441918095227
 40
-0.7609441918095227
 40
-0.7609441918095227
 40
-0.7391896017414621
 40
-0.7391896017414621
 40
-0.7391896017414621
 40
-0.7391896017414621
 10
1265.251052359116
 20
2052.472309347409
 30
0.0
 10
1265.322644127217
 20
2052.489788181932
 30
0.0
 10
1265.394235249917
 20
2052.507246186715
 30
0.0
 10
1265.465820242438
 20
2052.524506345438
 30
0.0
  0
SPLINE
  5
1B5
330
17F
100
AcDbEntity
  8
P-SANR-FIXT
100
AcDbSpline
210
0.0
220
0.0
230
1.0
 70
     8
 71
     3
 72
     9
 73
     5
 74
     0
 42
0.000000001
 43
0.0000000001
 40
-0.6666666666666668
 40
-0.6666666666666668
 40
-0.6666666666666668
 40
-0.6666666666666668
 40
-0.5
 40
-0.2770940616765408
 40
-0.2770940616765408
 40
-0.2770940616765408
 40
-0.2770940616765408
 10
1266.180548778745
 20
2052.65850180721
 30
0.0
 10
1266.727529901419
 20
2052.744030420625
 30
0.0
 10
1268.004253200264
 20
2052.885536225549
 30
0.0
 10
1269.267718996212
 20
2052.599167903739
 30
0.0
 10
1269.989383659321
 20
2052.394450537976
 30
0.0
  0
SPLINE
  5
1B6
330
17F
100
AcDbEntity
  8
P-SANR-FIXT
100
AcDbSpline
210
0.0
220
0.0
230
1.0
 70
     8
 71
     3
 72
     8
 73
     4
 74
     0
 42
0.000000001
 43
0.0000000001
 40
-0.2696828724444434
 40
-0.2696828724444434
 40
-0.2696828724444434
 40
-0.2696828724444434
 40
-0.2589698766834342
 40
-0.2589698766834342
 40
-0.2589698766834342
 40
-0.2589698766834342
 10
1270.06656373334
 20
2052.541799478518
 30
0.0
 10
1270.101316836213
 20
2052.534202321532
 30
0.0
 10
1270.13605395027
 20
2052.526089139691
 30
0.0
 10
1270.170776328525
 20
2052.517500372934
 30
0.0
  0
SPLINE
  5
1B7
330
17F
100
AcDbEntity
  8
P-SANR-FIXT
100
AcDbSpline
210
0.0
220
0.0
230
1.0
 70
     8
 71
     3
 72
     8
 73
     4
 74
     0
 42
0.000000001
 43
0.0000000001
 40
-0.2008211551715363
 40
-0.2008211551715363
 40
-0.2008211551715363
 40
-0.2008211551715363
 40
0.0
 40
0.0
 40
0.0
 40
0.0
 10
1270.736050166073
 20
2052.373398077197
 30
0.0
 10
1271.386197394242
 20
2052.18840551225
 30
0.0
 10
1272.03442087272
 20
2051.94132563526
 30
0.0
 10
1272.680720601506
 20
2051.632158446226
 30
0.0
  0
SPLINE
  5
1B8
330
17F
100
AcDbEntity
  8
P-SANR-FIXT
100
AcDbSpline
210
0.0
220
0.0
230
1.0
 70
     8
 71
     3
 72
     8
 73
     4
 74
     0
 42
0.000000001
 43
0.0000000001
 40
-0.673133517417916
 40
-0.673133517417916
 40
-0.673133517417916
 40
-0.673133517417916
 40
-0.6666666666666668
 40
-0.6666666666666668
 40
-0.6666666666666668
 40
-0.6666666666666668
 10
1269.446609852866
 20
2052.648352844917
 30
0.0
 10
1269.425382391415
 20
2052.651800215111
 30
0.0
 10
1269.404154949128
 20
2052.655246966775
 30
0.0
 10
1269.382927747396
 20
2052.658685954778
 30
0.0
  0
SPLINE
  5
1B9
330
17F
100
AcDbEntity
  8
P-SANR-FIXT
100
AcDbSpline
210
0.0
220
0.0
230
1.0
 70
     8
 71
     3
 72
     8
 73
     4
 74
     0
 42
0.000000001
 43
0.0000000001
 40
-0.5076515522401446
 40
-0.5076515522401446
 40
-0.5076515522401446
 40
-0.5076515522401446
 40
-0.5
 40
-0.5
 40
-0.5
 40
-0.5
 10
1267.820943161294
 20
2052.786524328828
 30
0.0
 10
1267.795947710866
 20
2052.786704594498
 30
0.0
 10
1267.77095230253
 20
2052.786883501645
 30
0.0
 10
1267.745965188194
 20
2052.786794727333
 30
0.0
  0
SPLINE
  5
1BA
330
17F
100
AcDbEntity
  8
P-SANR-FIXT
100
AcDbSpline
210
0.0
220
0.0
230
1.0
 70
     8
 71
     3
 72
     8
 73
     4
 74
     0
 42
0.000000001
 43
0.0000000001
 40
-0.3401233190574876
 40
-0.3401233190574876
 40
-0.3401233190574876
 40
-0.3401233190574876
 40
-0.3333333333333334
 40
-0.3333333333333334
 40
-0.3333333333333334
 40
-0.3333333333333334
 10
1266.183157837883
 20
2052.668742159392
 30
0.0
 10
1266.161085402516
 20
2052.665399686322
 30
0.0
 10
1266.139019476981
 20
2052.661847114177
 30
0.0
 10
1266.116959803117
 20
2052.65809277493
 30
0.0
  0
LINE
  5
1BB
330
17F
100
AcDbEntity
  8
P-SANR-FIXT
100
AcDbLine
 10
1243.0413314484
 20
2052.498183850011
 30
0.0
 11
1247.863156828897
 21
2052.498183850011
 31
0.0
  0
LINE
  5
1BC
330
17F
100
AcDbEntity
  8
P-SANR-FIXT
100
AcDbLine
 10
1247.863156828897
 20
2052.498183850011
 30
0.0
 11
1252.684982209393
 21
2052.498183850011
 31
0.0
  0
LINE
  5
1BD
330
17F
100
AcDbEntity
  8
P-SANR-FIXT
100
AcDbLine
 10
1232.843552027421
 20
2051.632158446226
 30
0.0
 11
1238.065197857761
 21
2051.632158446226
 31
0.0
  0
LINE
  5
1BE
330
17F
100
AcDbEntity
  8
P-SANR-FIXT
100
AcDbLine
 10
1232.843552027421
 20
2051.632158446226
 30
0.0
 11
1232.843552027421
 21
2042.590098110633
 31
0.0
  0
LINE
  5
1BF
330
17F
100
AcDbEntity
  8
P-SANR-FIXT
100
AcDbLine
 10
1238.065197857763
 20
2042.590098110633
 30
0.0
 11
1238.065197857763
 21
2051.632158446226
 31
0.0
  0
LINE
  5
1C0
330
17F
100
AcDbEntity
  8
P-SANR-FIXT
100
AcDbLine
 10
1222.863156828897
 20
2051.632158446226
 30
0.0
 11
1223.045593056288
 21
2051.632158446226
 31
0.0
  0
LINE
  5
1C1
330
17F
100
AcDbEntity
  8
P-SANR-FIXT
100
AcDbLine
 10
1223.045593056288
 20
2042.590098110633
 30
0.0
 11
1223.045593056288
 21
2051.632158446226
 31
0.0
  0
LINE
  5
1C2
330
17F
100
AcDbEntity
  8
P-SANR-FIXT
100
AcDbLine
 10
1257.661115800031
 20
2051.632158446226
 30
0.0
 11
1262.882761630371
 21
2051.632158446226
 31
0.0
  0
LINE
  5
1C3
330
17F
100
AcDbEntity
  8
P-SANR-FIXT
100
AcDbLine
 10
1257.66111580003
 20
2051.632158446226
 30
0.0
 11
1257.66111580003
 21
2042.590098110633
 31
0.0
  0
LINE
  5
1C4
330
17F
100
AcDbEntity
  8
P-SANR-FIXT
100
AcDbLine
 10
1262.882761630372
 20
2042.590098110633
 30
0.0
 11
1262.882761630372
 21
2051.632158446226
 31
0.0
  0
LINE
  5
1C5
330
17F
100
AcDbEntity
  8
P-SANR-FIXT
100
AcDbLine
 10
1272.680720601506
 20
2051.632158446226
 30
0.0
 11
1272.863156828897
 21
2051.632158446226
 31
0.0
  0
LINE
  5
1C6
330
17F
100
AcDbEntity
  8
P-SANR-FIXT
100
AcDbLine
 10
1272.680720601506
 20
2051.632158446226
 30
0.0
 11
1272.680720601506
 21
2042.590098110633
 31
0.0
  0
LINE
  5
1C7
330
17F
100
AcDbEntity
  8
P-SANR-FIXT
100
AcDbLine
 10
1247.863156828897
 20
2042.590098110633
 30
0.0
 11
1238.065197857761
 21
2042.590098110633
 31
0.0
  0
LINE
  5
1C8
330
17F
100
AcDbEntity
  8
P-SANR-FIXT
100
AcDbLine
 10
1232.843552027421
 20
2042.590098110633
 30
0.0
 11
1238.065197857761
 21
2042.590098110633
 31
0.0
  0
LINE
  5
1C9
330
17F
100
AcDbEntity
  8
P-SANR-FIXT
100
AcDbLine
 10
1232.843552027422
 20
2042.590098110633
 30
0.0
 11
1223.045593056288
 21
2042.590098110633
 31
0.0
  0
LINE
  5
1CA
330
17F
100
AcDbEntity
  8
P-SANR-FIXT
100
AcDbLine
 10
1222.863156828897
 20
2042.590098110633
 30
0.0
 11
1223.045593056288
 21
2042.590098110633
 31
0.0
  0
LINE
  5
1CB
330
17F
100
AcDbEntity
  8
P-SANR-FIXT
100
AcDbLine
 10
1272.680720601506
 20
2042.590098110633
 30
0.0
 11
1272.863156828897
 21
2042.590098110633
 31
0.0
  0
LINE
  5
1CC
330
17F
100
AcDbEntity
  8
P-SANR-FIXT
100
AcDbLine
 10
1272.680720601506
 20
2042.590098110633
 30
0.0
 11
1262.882761630371
 21
2042.590098110633
 31
0.0
  0
LINE
  5
1CD
330
17F
100
AcDbEntity
  8
P-SANR-FIXT
100
AcDbLine
 10
1257.661115800031
 20
2042.590098110633
 30
0.0
 11
1262.882761630371
 21
2042.590098110633
 31
0.0
  0
LINE
  5
1CE
330
17F
100
AcDbEntity
  8
P-SANR-FIXT
100
AcDbLine
 10
1257.661115800031
 20
2042.590098110633
 30
0.0
 11
1247.863156828897
 21
2042.590098110633
 31
0.0
  0
LWPOLYLINE
  5
1CF
330
17F
100
AcDbEntity
  8
P-SANR-FIXT
100
AcDbPolyline
 90
        4
 70
   128
 43
0.0
 10
1231.655957123153
 20
2037.498196168302
 10
1236.662880691435
 20
2038.099672723976
 10
1242.14233929329
 20
2038.471018162678
 10
1247.863156828897
 20
2038.596565573416
  0
LWPOLYLINE
  5
1D0
330
17F
100
AcDbEntity
  8
P-SANR-FIXT
100
AcDbPolyline
 90
        4
 70
   128
 43
0.0
 10
1247.863156828897
 20
2038.596565573416
 10
1253.583974364503
 20
2038.471018162678
 10
1259.063432966358
 20
2038.099672723976
 10
1264.07035653464
 20
2037.498196168302
  0
LINE
  5
1D1
330
17F
100
AcDbEntity
  8
P-SANR-FIXT
100
AcDbLine
 10
1207.863156828897
 20
1970.998183850011
 30
0.0
 11
1247.863156828896
 21
1970.998183850011
 31
0.0
  0
LINE
  5
1D2
330
17F
100
AcDbEntity
  8
P-SANR-FIXT
100
AcDbLine
 10
1247.863156828897
 20
1970.998183850011
 30
0.0
 11
1287.863156828896
 21
1970.998183850011
 31
0.0
  0
LINE
  5
1D3
330
17F
100
AcDbEntity
  8
P-SANR-FIXT
100
AcDbLine
 10
1247.863156828897
 20
2006.498183850011
 30
0.0
 11
1210.034596190141
 21
2006.498183850011
 31
0.0
  0
LINE
  5
1D4
330
17F
100
AcDbEntity
  8
P-SANR-FIXT
100
AcDbLine
 10
1210.034596190141
 20
2006.498183850011
 30
0.0
 11
1209.934393658692
 21
2006.498183850011
 31
0.0
  0
LINE
  5
1D5
330
17F
100
AcDbEntity
  8
P-SANR-FIXT
100
AcDbLine
 10
1209.891127504607
 20
2006.498183850011
 30
0.0
 11
1207.863156828897
 21
2006.498183850011
 31
0.0
  0
LINE
  5
1D6
330
17F
100
AcDbEntity
  8
P-SANR-FIXT
100
AcDbLine
 10
1287.863156828897
 20
2006.498183850011
 30
0.0
 11
1285.835186153187
 21
2006.498183850011
 31
0.0
  0
LINE
  5
1D7
330
17F
100
AcDbEntity
  8
P-SANR-FIXT
100
AcDbLine
 10
1285.791919999101
 20
2006.498183850011
 30
0.0
 11
1285.691717467652
 21
2006.498183850011
 31
0.0
  0
LINE
  5
1D8
330
17F
100
AcDbEntity
  8
P-SANR-FIXT
100
AcDbLine
 10
1285.691717467652
 20
2006.498183850011
 30
0.0
 11
1247.863156828897
 21
2006.498183850011
 31
0.0
  0
LINE
  5
1D9
330
17F
100
AcDbEntity
  8
P-SANR-FIXT
100
AcDbLine
 10
1221.363156828897
 20
1937.998183850011
 30
0.0
 11
1247.863156828896
 21
1937.998183850011
 31
0.0
  0
LINE
  5
1DA
330
17F
100
AcDbEntity
  8
P-SANR-FIXT
100
AcDbLine
 10
1247.863156828897
 20
1937.998183850011
 30
0.0
 11
1274.363156828896
 21
1937.998183850011
 31
0.0
  0
SPLINE
  5
1DB
330
17F
100
AcDbEntity
  8
P-SANR-FIXT
100
AcDbSpline
210
0.0
220
0.0
230
1.0
 70
     8
 71
     3
 72
     9
 73
     5
 74
     0
 42
0.000000001
 43
0.0000000001
 40
-1.0
 40
-1.0
 40
-1.0
 40
-1.0
 40
-0.5
 40
0.0
 40
0.0
 40
0.0
 40
0.0
 10
1232.882401886437
 20
2037.031208610554
 30
0.0
 10
1232.401008848166
 20
2036.963757422457
 30
0.0
 10
1231.460706400975
 20
2036.822787817706
 30
0.0
 10
1230.565371212485
 20
2036.669683755843
 30
0.0
 10
1230.128945432916
 20
2036.590098110633
 30
0.0
  0
SPLINE
  5
1DC
330
17F
100
AcDbEntity
  8
P-SANR-FIXT
100
AcDbSpline
210
0.0
220
0.0
230
1.0
 70
     8
 71
     3
 72
    15
 73
    11
 74
     0
 42
0.000000001
 43
0.0000000001
 40
-1.0
 40
-1.0
 40
-1.0
 40
-1.0
 40
-0.7857142857142857
 40
-0.7321428571428572
 40
-0.6785714285714287
 40
-0.5714285714285714
 40
-0.4285714285714286
 40
-0.2857142857142857
 40
-0.1428571428571428
 40
0.0
 40
0.0
 40
0.0
 40
0.0
 10
1227.030795306133
 20
2036.590098110633
 30
0.0
 10
1226.714664932832
 20
2036.590098110633
 30
0.0
 10
1226.317062299174
 20
2036.501484632199
 30
0.0
 10
1225.837146433627
 20
2036.272044885844
 30
0.0
 10
1225.520661777105
 20
2036.086119418795
 30
0.0
 10
1225.075409780288
 20
2035.755752373453
 30
0.0
 10
1224.517929193728
 20
2035.197692470715
 30
0.0
 10
1223.942987678443
 20
2034.442277515053
 30
0.0
 10
1223.412822843409
 20
2033.564236803716
 30
0.0
 10
1223.107737061281
 20
2032.918665002464
 30
0.0
 10
1222.965741337103
 20
2032.590098110633
 30
0.0
  0
ARC
  5
1DD
330
17F
100
AcDbEntity
  8
P-SANR-FIXT
100
AcDbCircle
 10
2352.203877933799
 20
1554.8206182693
 30
0.0
 40
1226.14943828729
100
AcDbArc
 50
157.0672590447893
 51
157.3164343860502
  0
LINE
  5
1DE
330
17F
100
AcDbEntity
  8
P-SANR-FIXT
100
AcDbLine
 10
1213.608260865404
 20
2009.963696913601
 30
0.0
 11
1213.012909559039
 21
2008.498183850028
 31
0.0
  0
SPLINE
  5
1DF
330
17F
100
AcDbEntity
  8
P-SANR-FIXT
100
AcDbSpline
210
0.0
220
0.0
230
1.0
 70
     8
 71
     3
 72
    15
 73
    11
 74
     0
 42
0.000000001
 43
0.0000000001
 40
-1.0
 40
-1.0
 40
-1.0
 40
-1.0
 40
-0.7857142857142857
 40
-0.7321428571428572
 40
-0.6785714285714287
 40
-0.5714285714285714
 40
-0.4285714285714286
 40
-0.2857142857142857
 40
-0.1428571428571428
 40
0.0
 40
0.0
 40
0.0
 40
0.0
 10
1213.012909559032
 20
2008.498183850011
 30
0.0
 10
1212.924520383565
 20
2008.284571568934
 30
0.0
 10
1212.829759435047
 20
2008.012089995144
 30
0.0
 10
1212.740272012889
 20
2007.699831711169
 30
0.0
 10
1212.690123854425
 20
2007.497376139522
 30
0.0
 10
1212.636050623375
 20
2007.226257364943
 30
0.0
 10
1212.611035291193
 20
2006.923433729094
 30
0.0
 10
1212.643068196447
 20
2006.677051551112
 30
0.0
 10
1212.734479739756
 20
2006.529388798642
 30
0.0
 10
1212.826732445348
 20
2006.498183850011
 30
0.0
 10
1212.881376224155
 20
2006.498183850011
 30
0.0
  0
SPLINE
  5
1E0
330
17F
100
AcDbEntity
  8
P-SANR-FIXT
100
AcDbSpline
210
0.0
220
0.0
230
1.0
 70
     8
 71
     3
 72
    13
 73
     9
 74
     0
 42
0.000000001
 43
0.0000000001
 40
-1.0
 40
-1.0
 40
-1.0
 40
-1.0
 40
-0.7857142857142857
 40
-0.5714285714285714
 40
-0.4285714285714286
 40
-0.2857142857142857
 40
-0.1428571428571428
 40
0.0
 40
0.0
 40
0.0
 40
0.0
 10
1282.844937433638
 20
2006.498183850011
 30
0.0
 10
1282.926903101849
 20
2006.498183850011
 30
0.0
 10
1283.055263426826
 20
2006.568953623228
 30
0.0
 10
1283.120294398481
 20
2006.868181519543
 30
0.0
 10
1283.087627753311
 20
2007.253843197397
 30
0.0
 10
1283.005738473637
 20
2007.643960866351
 30
0.0
 10
1282.8781738806
 20
2008.067224705751
 30
0.0
 10
1282.77233021574
 20
2008.355775662626
 30
0.0
 10
1282.713404098762
 20
2008.498183850011
 30
0.0
  0
LINE
  5
1E1
330
17F
100
AcDbEntity
  8
P-SANR-FIXT
100
AcDbLine
 10
1282.713404098768
 20
2008.498183849995
 30
0.0
 11
1282.119001177866
 21
2009.961364236327
 31
0.0
  0
ARC
  5
1E2
330
17F
100
AcDbEntity
  8
P-SANR-FIXT
100
AcDbCircle
 10
143.4616655552034
 20
1554.79501151607
 30
0.0
 40
1226.215383036614
100
AcDbArc
 50
22.68345678921335
 51
22.93273645813702
  0
SPLINE
  5
1E3
330
17F
100
AcDbEntity
  8
P-SANR-FIXT
100
AcDbSpline
210
0.0
220
0.0
230
1.0
 70
     8
 71
     3
 72
    14
 73
    10
 74
     0
 42
0.000000001
 43
0.0000000001
 40
-1.0
 40
-1.0
 40
-1.0
 40
-1.0
 40
-0.8571428571428571
 40
-0.7142857142857143
 40
-0.5714285714285714
 40
-0.4285714285714286
 40
-0.2857142857142857
 40
-0.1428571428571428
 40
0.0
 40
0.0
 40
0.0
 40
0.0
 10
1272.760572320691
 20
2032.590098110633
 30
0.0
 10
1272.618576596513
 20
2032.918665002464
 30
0.0
 10
1272.313498167896
 20
2033.564238684083
 30
0.0
 10
1271.783300242061
 20
2034.442270933767
 30
0.0
 10
1271.208480059712
 20
2035.197716915491
 30
0.0
 10
1270.599867178889
 20
2035.806393894066
 30
0.0
 10
1269.970045124743
 20
2036.252884246326
 30
0.0
 10
1269.328361143449
 20
2036.527144616692
 30
0.0
 10
1268.906271933861
 20
2036.590098110633
 30
0.0
 10
1268.69551835166
 20
2036.590098110633
 30
0.0
  0
SPLINE
  5
1E4
330
17F
100
AcDbEntity
  8
P-SANR-FIXT
100
AcDbSpline
210
0.0
220
0.0
230
1.0
 70
     8
 71
     3
 72
     9
 73
     5
 74
     0
 42
0.000000001
 43
0.0000000001
 40
-1.0
 40
-1.0
 40
-1.0
 40
-1.0
 40
-0.5
 40
0.0
 40
0.0
 40
0.0
 40
0.0
 10
1265.597368224878
 20
2036.590098110633
 30
0.0
 10
1265.160942445308
 20
2036.669683755843
 30
0.0
 10
1264.265607256818
 20
2036.822787817706
 30
0.0
 10
1263.325304809627
 20
2036.963757422457
 30
0.0
 10
1262.843911771356
 20
2037.031208610554
 30
0.0
  0
ARC
  5
1E5
330
17F
100
AcDbEntity
  8
P-SANR-FIXT
100
AcDbCircle
 10
3426.695758098394
 20
1116.444746388916
 30
0.0
 40
2389.259881354128
100
AcDbArc
 50
157.4528765033289
 51
158.0770292942108
  0
SPLINE
  5
1E6
330
17F
100
AcDbEntity
  8
P-SANR-FIXT
100
AcDbSpline
210
0.0
220
0.0
230
1.0
 70
     8
 71
     3
 72
    14
 73
    10
 74
     0
 42
0.000000001
 43
0.0000000001
 40
-1.0
 40
-1.0
 40
-1.0
 40
-1.0
 40
-0.8571428571428571
 40
-0.7142857142857143
 40
-0.5714285714285714
 40
-0.4285714285714286
 40
-0.2857142857142857
 40
-0.1428571428571428
 40
0.0
 40
0.0
 40
0.0
 40
0.0
 10
1220.0602025145
 20
2032.590098110633
 30
0.0
 10
1220.196685340334
 20
2032.911612756956
 30
0.0
 10
1220.487573108766
 20
2033.545254986396
 30
0.0
 10
1220.986098203779
 20
2034.414365550377
 30
0.0
 10
1221.52153546494
 20
2035.169605018454
 30
0.0
 10
1222.083608132682
 20
2035.784786100792
 30
0.0
 10
1222.660065983437
 20
2036.241100151018
 30
0.0
 10
1223.241480835111
 20
2036.524403040418
 30
0.0
 10
1223.618018382746
 20
2036.590098110633
 30
0.0
 10
1223.804717153257
 20
2036.590098110633
 30
0.0
  0
LINE
  5
1E7
330
17F
100
AcDbEntity
  8
P-SANR-FIXT
100
AcDbLine
 10
1223.804717153257
 20
2036.590098110633
 30
0.0
 11
1226.431323336435
 21
2036.590098110633
 31
0.0
  0
SPLINE
  5
1E8
330
17F
100
AcDbEntity
  8
P-SANR-FIXT
100
AcDbSpline
210
0.0
220
0.0
230
1.0
 70
     8
 71
     3
 72
     9
 73
     5
 74
     0
 42
0.000000001
 43
0.0000000001
 40
-1.0
 40
-1.0
 40
-1.0
 40
-1.0
 40
-0.5
 40
0.0
 40
0.0
 40
0.0
 40
0.0
 10
1226.431323336435
 20
2036.590098110633
 30
0.0
 10
1227.219623115183
 20
2036.761963196559
 30
0.0
 10
1228.878695191719
 20
2037.085177958762
 30
0.0
 10
1230.702712306329
 20
2037.367361901671
 30
0.0
 10
1231.655957123153
 20
2037.498196168302
 30
0.0
  0
LINE
  5
1E9
330
17F
100
AcDbEntity
  8
P-SANR-FIXT
100
AcDbLine
 10
1219.863161597268
 20
2037.498196168302
 30
0.0
 11
1231.655957123152
 21
2037.498196168302
 31
0.0
  0
SPLINE
  5
1EA
330
17F
100
AcDbEntity
  8
P-SANR-FIXT
100
AcDbSpline
210
0.0
220
0.0
230
1.0
 70
     8
 71
     3
 72
     8
 73
     4
 74
     0
 42
0.000000001
 43
0.0000000001
 40
-1.0
 40
-1.0
 40
-1.0
 40
-1.0
 40
-0.8571428571428572
 40
-0.8571428571428572
 40
-0.8571428571428572
 40
-0.8571428571428572
 10
1210.034596190141
 20
2006.498183850011
 30
0.0
 10
1209.983601753798
 20
2006.498183850011
 30
0.0
 10
1209.940553566826
 20
2006.514232939428
 30
0.0
 10
1209.906006245939
 20
2006.547022266114
 30
0.0
  0
SPLINE
  5
1EB
330
17F
100
AcDbEntity
  8
P-SANR-FIXT
100
AcDbSpline
210
0.0
220
0.0
230
1.0
 70
     8
 71
     3
 72
    13
 73
     9
 74
     0
 42
0.000000001
 43
0.0000000001
 40
-0.8214285714285816
 40
-0.8214285714285816
 40
-0.8214285714285816
 40
-0.8214285714285816
 40
-0.7857142857142857
 40
-0.5714285714285714
 40
-0.4285714285714286
 40
-0.2857142857142857
 40
-0.1428571428571428
 40
0.0
 40
0.0
 40
0.0
 40
0.0
 10
1209.881698333551
 20
2006.5747638548
 30
0.0
 10
1209.874132777476
 20
2006.585064515316
 30
0.0
 10
1209.824953675064
 20
2006.664568587022
 30
0.0
 10
1209.78991719291
 20
2006.871729023216
 30
0.0
 10
1209.83131441896
 20
2007.257354073281
 30
0.0
 10
1209.917853177064
 20
2007.646417914638
 30
0.0
 10
1210.047339747882
 20
2008.068393134138
 30
0.0
 10
1210.152904241157
 20
2008.356137150119
 30
0.0
 10
1210.211279162844
 20
2008.498183850011
 30
0.0
  0
ARC
  5
1EC
330
17F
100
AcDbEntity
  8
P-SANR-FIXT
100
AcDbCircle
 10
-930.9694444406172
 20
1116.444746388909
 30
0.0
 40
2389.259881354149
100
AcDbArc
 50
21.92297070578995
 51
22.54712349667186
  0
SPLINE
  5
1ED
330
17F
100
AcDbEntity
  8
P-SANR-FIXT
100
AcDbSpline
210
0.0
220
0.0
230
1.0
 70
     8
 71
     3
 72
    14
 73
    10
 74
     0
 42
0.000000001
 43
0.0000000001
 40
-1.0
 40
-1.0
 40
-1.0
 40
-1.0
 40
-0.7857142857142857
 40
-0.7321428571428572
 40
-0.6785714285714287
 40
-0.5714285714285714
 40
-0.4285714285714286
 40
-0.2857142857142857
 40
-0.1785714285714389
 40
-0.1785714285714389
 40
-0.1785714285714389
 40
-0.1785714285714389
 10
1285.515034494949
 20
2008.498183850011
 30
0.0
 10
1285.602596877481
 20
2008.285113800173
 30
0.0
 10
1285.697453118237
 20
2008.013444074958
 30
0.0
 10
1285.7887575497
 20
2007.702112320333
 30
0.0
 10
1285.840657153785
 20
2007.500227122063
 30
0.0
 10
1285.898246728861
 20
2007.229775546038
 30
0.0
 10
1285.930155061277
 20
2006.926966490012
 30
0.0
 10
1285.909814422391
 20
2006.700007017033
 30
0.0
 10
1285.867247227322
 20
2006.605720840031
 30
0.0
 10
1285.844317230149
 20
2006.574758577528
 30
0.0
  0
SPLINE
  5
1EE
330
17F
100
AcDbEntity
  8
P-SANR-FIXT
100
AcDbSpline
210
0.0
220
0.0
230
1.0
 70
     8
 71
     3
 72
     8
 73
     4
 74
     0
 42
0.000000001
 43
0.0000000001
 40
-0.1428571428571428
 40
-0.1428571428571428
 40
-0.1428571428571428
 40
-0.1428571428571428
 40
0.0
 40
0.0
 40
0.0
 40
0.0
 10
1285.819852857103
 20
2006.546953764259
 30
0.0
 10
1285.785225096744
 20
2006.514102278272
 30
0.0
 10
1285.742711903996
 20
2006.498183850011
 30
0.0
 10
1285.691717467652
 20
2006.498183850011
 30
0.0
  0
LINE
  5
1EF
330
17F
100
AcDbEntity
  8
P-SANR-FIXT
100
AcDbLine
 10
1264.07035653464
 20
2037.498196168302
 30
0.0
 11
1275.863152060526
 21
2037.498196168302
 31
0.0
  0
SPLINE
  5
1F0
330
17F
100
AcDbEntity
  8
P-SANR-FIXT
100
AcDbSpline
210
0.0
220
0.0
230
1.0
 70
     8
 71
     3
 72
     9
 73
     5
 74
     0
 42
0.000000001
 43
0.0000000001
 40
-1.0
 40
-1.0
 40
-1.0
 40
-1.0
 40
-0.5
 40
0.0
 40
0.0
 40
0.0
 40
0.0
 10
1264.07035653464
 20
2037.498196168302
 30
0.0
 10
1265.023601351464
 20
2037.367361901671
 30
0.0
 10
1266.847618466074
 20
2037.085177958762
 30
0.0
 10
1268.50669054261
 20
2036.761963196559
 30
0.0
 10
1269.294990321358
 20
2036.590098110633
 30
0.0
  0
LINE
  5
1F1
330
17F
100
AcDbEntity
  8
P-SANR-FIXT
100
AcDbLine
 10
1269.294990321359
 20
2036.590098110633
 30
0.0
 11
1271.921596504536
 21
2036.590098110633
 31
0.0
  0
SPLINE
  5
1F2
330
17F
100
AcDbEntity
  8
P-SANR-FIXT
100
AcDbSpline
210
0.0
220
0.0
230
1.0
 70
     8
 71
     3
 72
    14
 73
    10
 74
     0
 42
0.000000001
 43
0.0000000001
 40
-1.0
 40
-1.0
 40
-1.0
 40
-1.0
 40
-0.8571428571428571
 40
-0.7142857142857144
 40
-0.5714285714285714
 40
-0.4285714285714286
 40
-0.2857142857142857
 40
-0.1428571428571428
 40
0.0
 40
0.0
 40
0.0
 40
0.0
 10
1271.921596504536
 20
2036.590098110633
 30
0.0
 10
1272.108295275047
 20
2036.590098110633
 30
0.0
 10
1272.484832822683
 20
2036.524403040418
 30
0.0
 10
1273.066247674357
 20
2036.241100151018
 30
0.0
 10
1273.642705525112
 20
2035.784786100792
 30
0.0
 10
1274.204778192853
 20
2035.169605018454
 30
0.0
 10
1274.740215454015
 20
2034.414365550377
 30
0.0
 10
1275.238740549028
 20
2033.545254986396
 30
0.0
 10
1275.52962831746
 20
2032.911612756956
 30
0.0
 10
1275.666111143294
 20
2032.590098110633
 30
0.0
  0
ARC
  5
1F3
330
17F
100
AcDbEntity
  8
P-SANR-FIXT
100
AcDbCircle
 10
1215.426842892865
 20
2010.796018611831
 30
0.0
 40
1.999999999999831
100
AcDbArc
 50
158.0770292942189
 51
204.5924419763233
  0
LINE
  5
1F4
330
17F
100
AcDbEntity
  8
P-SANR-FIXT
100
AcDbLine
 10
1213.571469606574
 20
2011.54273808293
 30
0.0
 11
1219.182407992665
 21
2025.484232306003
 31
0.0
  0
ARC
  5
1F5
330
17F
100
AcDbEntity
  8
P-SANR-FIXT
100
AcDbCircle
 10
1223.820841208392
 20
2023.617433628257
 30
0.0
 40
4.999999999999841
100
AcDbArc
 50
125.7634478902938
 51
158.0770292942163
  0
ARC
  5
1F6
330
17F
100
AcDbEntity
  8
P-SANR-FIXT
100
AcDbCircle
 10
1271.903219527465
 20
2023.617433628256
 30
0.0
 40
4.999999999999704
100
AcDbArc
 50
21.93807360732097
 51
54.19099889796101
  0
LINE
  5
1F7
330
17F
100
AcDbEntity
  8
P-SANR-FIXT
100
AcDbLine
 10
1276.541160502587
 20
2025.4854549106
 30
0.0
 11
1282.156664961767
 21
2011.543227124768
 31
0.0
  0
ARC
  5
1F8
330
17F
100
AcDbEntity
  8
P-SANR-FIXT
100
AcDbCircle
 10
1280.301488571718
 20
2010.796018611831
 30
0.0
 40
1.999999999999973
100
AcDbArc
 50
335.3340436870563
 51
21.93807360731952
  0
LINE
  5
1F9
330
17F
100
AcDbEntity
  8
P-SANR-FIXT
100
AcDbLine
 10
1230.128945432916
 20
2036.590098110633
 30
0.0
 11
1226.582775138304
 21
2036.590098110633
 31
0.0
  0
LINE
  5
1FA
330
17F
100
AcDbEntity
  8
P-SANR-FIXT
100
AcDbLine
 10
1269.143538519489
 20
2036.590098110633
 30
0.0
 11
1265.597368224878
 21
2036.590098110633
 31
0.0
  0
LWPOLYLINE
  5
1FB
330
17F
100
AcDbEntity
  8
P-SANR-FIXT
100
AcDbPolyline
 90
        4
 70
   128
 43
0.0
 10
1232.882401886437
 20
2037.031208610554
 10
1237.497220305936
 20
2037.597127060957
 10
1242.564539239546
 20
2037.94687133435
 10
1247.863156828897
 20
2038.065174169241
  0
LWPOLYLINE
  5
1FC
330
17F
100
AcDbEntity
  8
P-SANR-FIXT
100
AcDbPolyline
 90
        4
 70
   128
 43
0.0
 10
1247.863156828897
 20
2038.065174169241
 10
1253.161774418247
 20
2037.94687133435
 10
1258.229093351857
 20
2037.597127060957
 10
1262.843911771356
 20
2037.031208610554
  0
ENDBLK
  5
1FE
330
17F
100
AcDbEntity
  8
0
100
AcDbBlockEnd
  0
ENDSEC
  0
SECTION
  2
ENTITIES
  0
INSERT
  5
DC
330
71
100
AcDbEntity
  8
P-SANR-FIXT
100
AcDbBlockReference
  2
Automatic flow rate regulator valve_Caleffi_121 DN15 - 1_2__-859151-Est - Idraulica
 10
0.0
 20
0.0
 30
0.0
1001
REVIT
1002
{
1070
     1
1000
863131
1002
}
1002
{
1070
     5
1000
859151
1002
}
1002
{
1070
     2
1000
-2001160
1002
}
  0
INSERT
  5
17E
330
71
100
AcDbEntity
  8
P-SANR-FIXT
100
AcDbBlockReference
  2
Automatic flow rate regulator valve_Caleffi_121 DN15 - 1_2__-V1-Est - Idraulica
 10
0.0
 20
0.0
 30
0.0
1001
REVIT
1002
{
1070
     1
1000
863152
1002
}
1002
{
1070
     5
1000
859151
1002
}
1002
{
1070
     2
1000
-2001160
1002
}
  0
INSERT
  5
1FF
330
71
100
AcDbEntity
  8
P-SANR-FIXT
100
AcDbBlockReference
  2
Automatic flow rate regulator valve_Caleffi_121 DN15 - 1_2__-V2-Est - Idraulica
 10
0.0
 20
0.0
 30
0.0
1001
REVIT
1002
{
1070
     1
1000
863172
1002
}
1002
{
1070
     5
1000
859151
1002
}
1002
{
1070
     2
1000
-2001160
1002
}
  0
ENDSEC
  0
SECTION
  2
OBJECTS
  0
DICTIONARY
  5
C
330
0
100
AcDbDictionary
281
     1
  3
ACAD_CIP_PREVIOUS_PRODUCT_INFO
350
7A
  3
ACAD_COLOR
350
63
  3
ACAD_DETAILVIEWSTYLE
350
6B
  3
ACAD_GROUP
350
D
  3
ACAD_IMAGE_VARS
350
7B
  3
ACAD_LAYOUT
350
62
  3
ACAD_MATERIAL
350
10
  3
ACAD_MLEADERSTYLE
350
66
  3
ACAD_MLINESTYLE
350
5F
  3
ACAD_PLOTSETTINGS
350
61
  3
ACAD_PLOTSTYLENAME
350
E
  3
ACAD_SCALELIST
350
42
  3
ACAD_SECTIONVIEWSTYLE
350
68
  3
ACAD_TABLESTYLE
350
64
  3
ACAD_VISUALSTYLE
350
29
  3
ACDB_RECOMPOSE_DATA
350
209
  3
AcDbVariableDictionary
350
7C
  3
REVIT_DICTIONARY
350
201
  0
DICTIONARY
  5
205
330
71
100
AcDbDictionary
280
     1
281
     1
  3
ACAD_SORTENTS
360
206
  0
XRECORD
  5
7A
102
{ACAD_REACTORS
330
C
102
}
330
C
100
AcDbXrecord
280
     1
300
RVT
300
2013
300
RVT2013
  0
DICTIONARY
  5
63
102
{ACAD_REACTORS
330
C
102
}
330
C
100
AcDbDictionary
281
     1
  0
DICTIONARY
  5
6B
102
{ACAD_REACTORS
330
C
102
}
330
C
100
AcDbDictionary
281
     1
  3
Imperial24
350
6C
  0
DICTIONARY
  5
D
102
{ACAD_REACTORS
330
C
102
}
330
C
100
AcDbDictionary
281
     1
  0
RASTERVARIABLES
  5
7B
102
{ACAD_REACTORS
330
C
102
}
330
C
100
AcDbRasterVariables
 90
        0
 70
     0
 71
     1
 72
     1
  0
DICTIONARY
  5
62
102
{ACAD_REACTORS
330
C
102
}
330
C
100
AcDbDictionary
281
     1
  3
Layout1
350
70
  3
Layout2
350
78
  3
Model
350
74
  0
DICTIONARY
  5
10
102
{ACAD_REACTORS
330
C
102
}
330
C
100
AcDbDictionary
281
     1
  3
ByBlock
350
19
  3
ByLayer
350
11
  3
Global
350
21
  0
DICTIONARY
  5
66
102
{ACAD_REACTORS
330
C
102
}
330
C
100
AcDbDictionary
281
     1
  3
Standard
350
67
  0
DICTIONARY
  5
5F
102
{ACAD_REACTORS
330
C
102
}
330
C
100
AcDbDictionary
281
     1
  3
Standard
350
60
  0
DICTIONARY
  5
61
102
{ACAD_REACTORS
330
C
102
}
330
C
100
AcDbDictionary
281
     1
  0
ACDBDICTIONARYWDFLT
  5
E
102
{ACAD_REACTORS
330
C
102
}
330
C
100
AcDbDictionary
281
     1
  3
Normal
350
F
100
AcDbDictionaryWithDefault
340
F
  0
DICTIONARY
  5
42
102
{ACAD_REACTORS
330
C
102
}
330
C
100
AcDbDictionary
281
     1
  3
A0
350
43
  3
A1
350
44
  3
A2
350
45
  3
A3
350
46
  3
A4
350
47
  3
A5
350
48
  3
A6
350
49
  3
A7
350
4A
  3
A8
350
4B
  3
A9
350
4C
  3
B0
350
4D
  3
B1
350
4E
  3
B2
350
4F
  3
B3
350
50
  3
B4
350
51
  3
B5
350
52
  3
B6
350
53
  0
DICTIONARY
  5
68
102
{ACAD_REACTORS
330
C
102
}
330
C
100
AcDbDictionary
281
     1
  3
Imperial24
350
6A
  0
DICTIONARY
  5
64
102
{ACAD_REACTORS
330
C
102
}
330
C
100
AcDbDictionary
281
     1
  3
Standard
350
65
  0
DICTIONARY
  5
29
102
{ACAD_REACTORS
330
C
102
}
330
C
100
AcDbDictionary
281
     1
  3
2dWireframe
350
2F
  3
Basic
350
2E
  3
Brighten
350
35
  3
ColorChange
350
39
  3
Conceptual
350
32
  3
Dim
350
34
  3
EdgeColorOff
350
41
  3
Facepattern
350
38
  3
Flat
350
2A
  3
FlatWithEdges
350
2B
  3
Gouraud
350
2C
  3
GouraudWithEdges
350
2D
  3
Hidden
350
31
  3
JitterOff
350
3F
  3
Linepattern
350
37
  3
OverhangOff
350
40
  3
Realistic
350
33
  3
Shaded
350
3E
  3
Shaded with edges
350
3D
  3
Shades of Gray
350
3A
  3
Sketchy
350
3B
  3
Thicken
350
36
  3
Wireframe
350
30
  3
X-Ray
350
3C
  0
XRECORD
  5
209
102
{ACAD_REACTORS
330
C
102
}
330
C
100
AcDbXrecord
280
     1
 90
        1
330
65
  0
DICTIONARY
  5
7C
102
{ACAD_REACTORS
330
C
102
}
330
C
100
AcDbDictionary
281
     1
  3
CANNOSCALE
350
81
  3
CMLEADERSTYLE
350
7E
  3
CTABLESTYLE
350
7D
  3
CVIEWDETAILSTYLE
350
7F
  3
CVIEWSECTIONSTYLE
350
80
  0
DICTIONARY
  5
201
102
{ACAD_REACTORS
330
C
102
}
330
C
100
AcDbDictionary
281
     1
  3
DRAWING_TOOL
350
204
  3
REVIT_CATEGORY_MAPPING
350
203
  3
REVIT_TYPE_MAPPING
350
202
  0
SORTENTSTABLE
  5
206
102
{ACAD_REACTORS
330
205
102
}
330
205
100
AcDbSortentsTable
330
71
  0
ACDBDETAILVIEWSTYLE
  5
6C
102
{ACAD_REACTORS
330
6B
102
}
330
6B
100
AcDbModelDocViewStyle
 70
     0
  3
Imperial24
290
     1
100
AcDbDetailViewStyle
 70
     0
 71
     0
 90
        3
 71
     1
340
55
 62
   256
 40
0.24
340
0
 62
   256
 40
0.24
300

 40
0.36
280
     3
 71
     2
340
5D
 90
       25
 62
   256
 71
     3
340
55
 62
   256
 40
0.24
 90
        1
 40
0.75
 90
        1
300
%<\AcVar ViewType \f "%tc1">% %<\AcVar ViewDetailId>%\PSCALA %<\AcVar ViewScale \f "%sn">%
 71
     4
340
5D
 90
       25
 62
   256
340
5D
 90
       25
 62
   256
280
     0
  0
LAYOUT
  5
70
102
{ACAD_REACTORS
330
62
102
}
330
62
100
AcDbPlotSettings
  1

  2

  4

  6

 40
0.0
 41
0.0
 42
0.0
 43
0.0
 44
0.0
 45
0.0
 46
0.0
 47
0.0
 48
0.0
 49
0.0
140
0.0
141
0.0
142
1.0
143
1.0
 70
   688
 72
     0
 73
     0
 74
     5
  7

 75
    16
147
1.0
 76
     0
 77
     2
 78
   300
148
0.0
149
0.0
100
AcDbLayout
  1
Layout1
 70
     1
 71
     1
 10
0.0
 20
0.0
 11
12.0
 21
9.0
 12
0.0
 22
0.0
 32
0.0
 14
0.0
 24
0.0
 34
0.0
 15
0.0
 25
0.0
 35
0.0
146
0.0
 13
0.0
 23
0.0
 33
0.0
 16
1.0
 26
0.0
 36
0.0
 17
0.0
 27
1.0
 37
0.0
 76
     0
330
6D
  0
LAYOUT
  5
78
102
{ACAD_REACTORS
330
62
102
}
330
62
100
AcDbPlotSettings
  1

  2

  4

  6

 40
0.0
 41
0.0
 42
0.0
 43
0.0
 44
0.0
 45
0.0
 46
0.0
 47
0.0
 48
0.0
 49
0.0
140
0.0
141
0.0
142
1.0
143
1.0
 70
   688
 72
     0
 73
     0
 74
     5
  7

 75
    16
147
1.0
 76
     0
 77
     2
 78
   300
148
0.0
149
0.0
100
AcDbLayout
  1
Layout2
 70
     1
 71
     2
 10
0.0
 20
0.0
 11
12.0
 21
9.0
 12
0.0
 22
0.0
 32
0.0
 14
0.0
 24
0.0
 34
0.0
 15
0.0
 25
0.0
 35
0.0
146
0.0
 13
0.0
 23
0.0
 33
0.0
 16
1.0
 26
0.0
 36
0.0
 17
0.0
 27
1.0
 37
0.0
 76
     0
330
75
  0
LAYOUT
  5
74
102
{ACAD_REACTORS
330
62
102
}
330
62
100
AcDbPlotSettings
  1

  2

  4

  6

 40
0.0
 41
0.0
 42
0.0
 43
0.0
 44
0.0
 45
0.0
 46
0.0
 47
0.0
 48
0.0
 49
0.0
140
0.0
141
0.0
142
1.0
143
1.0
 70
  1712
 72
     0
 73
     0
 74
     0
  7

 75
     0
147
1.0
 76
     0
 77
     2
 78
   300
148
0.0
149
0.0
100
AcDbLayout
  1
Model
 70
     1
 71
     0
 10
0.0
 20
0.0
 11
12.0
 21
9.0
 12
0.0
 22
0.0
 32
0.0
 14
0.0
 24
0.0
 34
0.0
 15
0.0
 25
0.0
 35
0.0
146
0.0
 13
0.0
 23
0.0
 33
0.0
 16
1.0
 26
0.0
 36
0.0
 17
0.0
 27
1.0
 37
0.0
 76
     0
330
71
  0
MATERIAL
  5
19
102
{ACAD_XDICTIONARY
360
1A
102
}
102
{ACAD_REACTORS
330
10
102
}
330
10
100
AcDbMaterial
  1
ByBlock
 72
     0
 43
0.0208333333333333
 43
0.0
 43
0.0
 43
0.0
 43
0.0
 43
0.0208333333333333
 43
0.0
 43
0.0
 43
0.0
 43
0.0
 43
1.0
 43
0.0
 43
0.0
 43
0.0
 43
0.0
 43
1.0
 77
     0
 47
0.0208333333333333
 47
0.0
 47
0.0
 47
0.0
 47
0.0
 47
0.0208333333333333
 47
0.0
 47
0.0
 47
0.0
 47
0.0
 47
1.0
 47
0.0
 47
0.0
 47
0.0
 47
0.0
 47
1.0
171
     0
 49
0.0208333333333333
 49
0.0
 49
0.0
 49
0.0
 49
0.0
 49
0.0208333333333333
 49
0.0
 49
0.0
 49
0.0
 49
0.0
 49
1.0
 49
0.0
 49
0.0
 49
0.0
 49
0.0
 49
1.0
175
     0
142
0.0208333333333333
142
0.0
142
0.0
142
0.0
142
0.0
142
0.0208333333333333
142
0.0
142
0.0
142
0.0
142
0.0
142
1.0
142
0.0
142
0.0
142
0.0
142
0.0
142
1.0
179
     0
144
0.0208333333333333
144
0.0
144
0.0
144
0.0
144
0.0
144
0.0208333333333333
144
0.0
144
0.0
144
0.0
144
0.0
144
1.0
144
0.0
144
0.0
144
0.0
144
0.0
144
1.0
147
0.0208333333333333
147
0.0
147
0.0
147
0.0
147
0.0
147
0.0208333333333333
147
0.0
147
0.0
147
0.0
147
0.0
147
1.0
147
0.0
147
0.0
147
0.0
147
0.0
147
1.0
  0
MATERIAL
  5
11
102
{ACAD_XDICTIONARY
360
12
102
}
102
{ACAD_REACTORS
330
10
102
}
330
10
100
AcDbMaterial
  1
ByLayer
 72
     0
 43
0.0208333333333333
 43
0.0
 43
0.0
 43
0.0
 43
0.0
 43
0.0208333333333333
 43
0.0
 43
0.0
 43
0.0
 43
0.0
 43
1.0
 43
0.0
 43
0.0
 43
0.0
 43
0.0
 43
1.0
 77
     0
 47
0.0208333333333333
 47
0.0
 47
0.0
 47
0.0
 47
0.0
 47
0.0208333333333333
 47
0.0
 47
0.0
 47
0.0
 47
0.0
 47
1.0
 47
0.0
 47
0.0
 47
0.0
 47
0.0
 47
1.0
171
     0
 49
0.0208333333333333
 49
0.0
 49
0.0
 49
0.0
 49
0.0
 49
0.0208333333333333
 49
0.0
 49
0.0
 49
0.0
 49
0.0
 49
1.0
 49
0.0
 49
0.0
 49
0.0
 49
0.0
 49
1.0
175
     0
142
0.0208333333333333
142
0.0
142
0.0
142
0.0
142
0.0
142
0.0208333333333333
142
0.0
142
0.0
142
0.0
142
0.0
142
1.0
142
0.0
142
0.0
142
0.0
142
0.0
142
1.0
179
     0
144
0.0208333333333333
144
0.0
144
0.0
144
0.0
144
0.0
144
0.0208333333333333
144
0.0
144
0.0
144
0.0
144
0.0
144
1.0
144
0.0
144
0.0
144
0.0
144
0.0
144
1.0
147
0.0208333333333333
147
0.0
147
0.0
147
0.0
147
0.0
147
0.0208333333333333
147
0.0
147
0.0
147
0.0
147
0.0
147
1.0
147
0.0
147
0.0
147
0.0
147
0.0
147
1.0
  0
MATERIAL
  5
21
102
{ACAD_XDICTIONARY
360
22
102
}
102
{ACAD_REACTORS
330
10
102
}
330
10
100
AcDbMaterial
  1
Global
 72
     0
 43
0.0208333333333333
 43
0.0
 43
0.0
 43
0.0
 43
0.0
 43
0.0208333333333333
 43
0.0
 43
0.0
 43
0.0
 43
0.0
 43
1.0
 43
0.0
 43
0.0
 43
0.0
 43
0.0
 43
1.0
 77
     0
 47
0.0208333333333333
 47
0.0
 47
0.0
 47
0.0
 47
0.0
 47
0.0208333333333333
 47
0.0
 47
0.0
 47
0.0
 47
0.0
 47
1.0
 47
0.0
 47
0.0
 47
0.0
 47
0.0
 47
1.0
171
     0
 49
0.0208333333333333
 49
0.0
 49
0.0
 49
0.0
 49
0.0
 49
0.0208333333333333
 49
0.0
 49
0.0
 49
0.0
 49
0.0
 49
1.0
 49
0.0
 49
0.0
 49
0.0
 49
0.0
 49
1.0
175
     0
142
0.0208333333333333
142
0.0
142
0.0
142
0.0
142
0.0
142
0.0208333333333333
142
0.0
142
0.0
142
0.0
142
0.0
142
1.0
142
0.0
142
0.0
142
0.0
142
0.0
142
1.0
179
     0
144
0.0208333333333333
144
0.0
144
0.0
144
0.0
144
0.0
144
0.0208333333333333
144
0.0
144
0.0
144
0.0
144
0.0
144
1.0
144
0.0
144
0.0
144
0.0
144
0.0
144
1.0
147
0.0208333333333333
147
0.0
147
0.0
147
0.0
147
0.0
147
0.0208333333333333
147
0.0
147
0.0
147
0.0
147
0.0
147
1.0
147
0.0
147
0.0
147
0.0
147
0.0
147
1.0
  0
MLEADERSTYLE
  5
67
102
{ACAD_REACTORS
330
66
102
}
330
66
100
AcDbMLeaderStyle
179
     2
170
     2
171
     1
172
     0
 90
        2
 40
0.0
 41
0.0
173
     1
 91
-1056964608
340
5B
 92
       -2
290
     1
 42
0.09
291
     1
 43
0.36
  3
Standard
 44
0.18
300

342
55
174
     1
178
     6
175
     1
176
     0
 93
-1056964608
 45
0.18
292
     0
297
     0
 46
0.18
 94
-1056964608
 47
1.0
 49
1.0
140
1.0
293
     1
141
0.0
294
     1
177
     0
142
1.0
295
     1
296
     0
143
0.125
271
     0
272
     9
273
     9
298
     1
  0
MLINESTYLE
  5
60
102
{ACAD_REACTORS
330
5F
102
}
330
5F
100
AcDbMlineStyle
  2
STANDARD
 70
     0
  3

 62
   256
 51
90.0
 52
90.0
 71
     2
 49
0.5
 62
   256
  6
BYLAYER
 49
-0.5
 62
   256
  6
BYLAYER
  0
ACDBPLACEHOLDER
  5
F
102
{ACAD_REACTORS
330
E
102
}
330
E
  0
SCALE
  5
43
102
{ACAD_REACTORS
330
42
102
}
330
42
100
AcDbScale
 70
     0
300
1:1
140
1.0
141
1.0
290
     1
  0
SCALE
  5
44
102
{ACAD_REACTORS
330
42
102
}
330
42
100
AcDbScale
 70
     0
300
1/128" = 1'-0"
140
0.0078125
141
12.0
290
     0
  0
SCALE
  5
45
102
{ACAD_REACTORS
330
42
102
}
330
42
100
AcDbScale
 70
     0
300
1/64" = 1'-0"
140
0.015625
141
12.0
290
     0
  0
SCALE
  5
46
102
{ACAD_REACTORS
330
42
102
}
330
42
100
AcDbScale
 70
     0
300
1/32" = 1'-0"
140
0.03125
141
12.0
290
     0
  0
SCALE
  5
47
102
{ACAD_REACTORS
330
42
102
}
330
42
100
AcDbScale
 70
     0
300
1/16" = 1'-0"
140
0.0625
141
12.0
290
     0
  0
SCALE
  5
48
102
{ACAD_REACTORS
330
42
102
}
330
42
100
AcDbScale
 70
     0
300
3/32" = 1'-0"
140
0.09375
141
12.0
290
     0
  0
SCALE
  5
49
102
{ACAD_REACTORS
330
42
102
}
330
42
100
AcDbScale
 70
     0
300
1/8" = 1'-0"
140
0.125
141
12.0
290
     0
  0
SCALE
  5
4A
102
{ACAD_REACTORS
330
42
102
}
330
42
100
AcDbScale
 70
     0
300
3/16" = 1'-0"
140
0.1875
141
12.0
290
     0
  0
SCALE
  5
4B
102
{ACAD_REACTORS
330
42
102
}
330
42
100
AcDbScale
 70
     0
300
1/4" = 1'-0"
140
0.25
141
12.0
290
     0
  0
SCALE
  5
4C
102
{ACAD_REACTORS
330
42
102
}
330
42
100
AcDbScale
 70
     0
300
3/8" = 1'-0"
140
0.375
141
12.0
290
     0
  0
SCALE
  5
4D
102
{ACAD_REACTORS
330
42
102
}
330
42
100
AcDbScale
 70
     0
300
1/2" = 1'-0"
140
0.5
141
12.0
290
     0
  0
SCALE
  5
4E
102
{ACAD_REACTORS
330
42
102
}
330
42
100
AcDbScale
 70
     0
300
3/4" = 1'-0"
140
0.75
141
12.0
290
     0
  0
SCALE
  5
4F
102
{ACAD_REACTORS
330
42
102
}
330
42
100
AcDbScale
 70
     0
300
1" = 1'-0"
140
1.0
141
12.0
290
     0
  0
SCALE
  5
50
102
{ACAD_REACTORS
330
42
102
}
330
42
100
AcDbScale
 70
     0
300
1-1/2" = 1'-0"
140
1.5
141
12.0
290
     0
  0
SCALE
  5
51
102
{ACAD_REACTORS
330
42
102
}
330
42
100
AcDbScale
 70
     0
300
3" = 1'-0"
140
3.0
141
12.0
290
     0
  0
SCALE
  5
52
102
{ACAD_REACTORS
330
42
102
}
330
42
100
AcDbScale
 70
     0
300
6" = 1'-0"
140
6.0
141
12.0
290
     0
  0
SCALE
  5
53
102
{ACAD_REACTORS
330
42
102
}
330
42
100
AcDbScale
 70
     0
300
1'-0" = 1'-0"
140
12.0
141
12.0
290
     0
  0
ACDBSECTIONVIEWSTYLE
  5
6A
102
{ACAD_REACTORS
330
68
102
}
330
68
100
AcDbModelDocViewStyle
 70
     0
  3
Imperial24
290
     1
100
AcDbSectionViewStyle
 70
     0
 71
     0
 90
       78
 71
     1
340
55
 62
   256
 40
0.24
340
0
340
0
 62
   256
 40
0.24
300
I, O, Q, S, X, Z
 40
0.48
 90
        3
 40
0.18
 90
        1
 71
     2
340
69
 90
       25
 62
   256
340
5D
 90
       50
 62
   256
 40
0.24
 40
0.0
 40
0.24
 71
     3
340
55
 62
   256
 40
0.24
 90
        1
 40
0.75
 90
        1
300
%<\AcVar ViewType \f "%tc1">% %<\AcVar ViewSectionStartId>%-%<\AcVar ViewSectionEndId>%\PSCALA %<\AcVar ViewScale \f "%sn">%
 71
     4
 62
   256
 62
   257
300
ANSI31
 40
1.0
 90
        0
290
     0
290
     0
 90
        6
 40
0.0
 40
1.570796326794896
 40
0.2617993877991494
 40
1.308996938995747
 40
-0.2617993877991494
 40
1.832595714594046
  0
TABLESTYLE
  5
65
102
{ACAD_XDICTIONARY
360
207
102
}
102
{ACAD_REACTORS
330
64
102
}
330
64
100
AcDbTableStyle
280
     0
  3
Standard
 70
     0
 71
     0
 40
0.06
 41
0.06
280
     0
281
     0
  7
Standard
140
0.18
170
     2
 62
     0
 63
     7
283
     0
 90
      512
 91
        0
  1

274
    -2
284
     1
 64
     0
275
    -2
285
     1
 65
     0
276
    -2
286
     1
 66
     0
277
    -2
287
     1
 67
     0
278
    -2
288
     1
 68
     0
279
    -2
289
     1
 69
     0
  7
Standard
140
0.25
170
     5
 62
     0
 63
     7
283
     0
 90
      512
 91
        0
  1

274
    -2
284
     1
 64
     0
275
    -2
285
     1
 65
     0
276
    -2
286
     1
 66
     0
277
    -2
287
     1
 67
     0
278
    -2
288
     1
 68
     0
279
    -2
289
     1
 69
     0
  7
Standard
140
0.18
170
     5
 62
     0
 63
     7
283
     0
 90
      512
 91
        0
  1

274
    -2
284
     1
 64
     0
275
    -2
285
     1
 65
     0
276
    -2
286
     1
 66
     0
277
    -2
287
     1
 67
     0
278
    -2
288
     1
 68
     0
279
    -2
289
     1
 69
     0
  0
VISUALSTYLE
  5
2F
102
{ACAD_REACTORS
330
29
102
}
330
29
100
AcDbVisualStyle
  2
2dWireframe
 70
     4
177
     3
291
     0
 70
    58
 90
        0
176
     1
 90
        2
176
     1
 90
        0
176
     1
 90
        0
176
     1
 40
0.6
176
     1
 40
30.0
176
     1
 62
     7
420
 16777215
176
     1
 90
        1
176
     1
 90
        4
176
     1
 62
     7
176
     1
 62
   257
176
     1
 90
        1
176
     1
 90
        1
176
     1
 40
1.0
176
     1
 90
        0
176
     1
 62
   257
176
     1
 40
1.0
176
     1
 90
        1
176
     1
 90
        6
176
     1
 90
        2
176
     1
 62
     7
176
     1
 90
        5
176
     1
 90
        0
176
     1
 90
        0
176
     1
290
     0
176
     1
 90
        1
176
     1
 40
0.0
176
     1
 90
        0
176
     1
290
     1
176
     1
290
     1
176
     1
290
     0
176
     1
290
     0
176
     1
290
     0
176
     1
290
     0
176
     1
290
     0
176
     1
290
     0
176
     1
290
     0
176
     1
 90
       50
176
     1
 40
0.0
176
     1
 40
1.0
176
     1
 90
        0
176
     1
 62
    18
420
        0
176
     1
 90
       50
176
     1
 90
        3
176
     1
 62
     5
420
      255
176
     1
290
     0
176
     1
 90
       50
176
     1
 90
       50
176
     1
 90
       50
176
     1
290
     0
176
     1
 90
       50
176
     1
 62
   256
176
     0
 40
1.0
176
     0
 90
        2
176
     1
  1
strokes_ogs.tif
176
     1
290
     0
176
     1
 40
1.0
176
     1
 40
1.0
176
     1
  0
VISUALSTYLE
  5
2E
102
{ACAD_REACTORS
330
29
102
}
330
29
100
AcDbVisualStyle
  2
Basic
 70
     7
177
     3
291
     1
 70
    58
 90
        1
176
     1
 90
        0
176
     1
 90
        1
176
     1
 90
        0
176
     1
 40
0.6
176
     1
 40
30.0
176
     1
 62
     7
420
 16777215
176
     1
 90
        0
176
     1
 90
        4
176
     1
 62
     7
176
     1
 62
   257
176
     1
 90
        1
176
     1
 90
        1
176
     1
 40
1.0
176
     1
 90
        8
176
     1
 62
     7
176
     1
 40
1.0
176
     1
 90
        1
176
     1
 90
        6
176
     1
 90
        2
176
     1
 62
     7
176
     1
 90
        5
176
     1
 90
        0
176
     1
 90
        0
176
     1
290
     0
176
     1
 90
        1
176
     1
 40
0.0
176
     1
 90
        0
176
     1
290
     0
176
     1
290
     1
176
     1
290
     1
176
     1
290
     0
176
     1
290
     0
176
     1
290
     0
176
     1
290
     0
176
     1
290
     0
176
     1
290
     0
176
     1
 90
       50
176
     1
 40
0.0
176
     1
 40
1.0
176
     1
 90
        0
176
     1
 62
    18
420
        0
176
     1
 90
       50
176
     1
 90
        3
176
     1
 62
     5
420
      255
176
     1
290
     0
176
     1
 90
       50
176
     1
 90
       50
176
     1
 90
       50
176
     1
290
     0
176
     1
 90
       50
176
     1
 62
   256
176
     0
 40
1.0
176
     0
 90
        2
176
     1
  1
strokes_ogs.tif
176
     1
290
     0
176
     1
 40
1.0
176
     1
 40
1.0
176
     1
  0
VISUALSTYLE
  5
35
102
{ACAD_REACTORS
330
29
102
}
330
29
100
AcDbVisualStyle
  2
Brighten
 70
    12
177
     3
291
     1
 70
    58
 90
        2
176
     1
 90
        2
176
     1
 90
        0
176
     1
 90
        0
176
     1
 40
0.6
176
     1
 40
30.0
176
     1
 62
     7
420
 16777215
176
     1
 90
        1
176
     1
 90
        4
176
     1
 62
     7
176
     1
 62
   257
176
     1
 90
        1
176
     1
 90
        1
176
     1
 40
1.0
176
     1
 90
        8
176
     1
 62
     7
176
     1
 40
1.0
176
     1
 90
        1
176
     1
 90
        6
176
     1
 90
        2
176
     1
 62
     7
176
     1
 90
        5
176
     1
 90
        0
176
     1
 90
        0
176
     1
290
     0
176
     1
 90
        1
176
     1
 40
50.0
176
     1
 90
        0
176
     1
290
     0
176
     1
290
     1
176
     1
290
     1
176
     1
290
     0
176
     1
290
     0
176
     1
290
     0
176
     1
290
     0
176
     1
290
     0
176
     1
290
     0
176
     1
 90
       50
176
     1
 40
0.0
176
     1
 40
1.0
176
     1
 90
        0
176
     1
 62
    18
420
        0
176
     1
 90
       50
176
     1
 90
        3
176
     1
 62
     5
420
      255
176
     1
290
     0
176
     1
 90
       50
176
     1
 90
       50
176
     1
 90
       50
176
     1
290
     0
176
     1
 90
       50
176
     1
 62
   256
176
     0
 40
1.0
176
     0
 90
        2
176
     1
  1
strokes_ogs.tif
176
     1
290
     0
176
     1
 40
1.0
176
     1
 40
1.0
176
     1
  0
VISUALSTYLE
  5
39
102
{ACAD_REACTORS
330
29
102
}
330
29
100
AcDbVisualStyle
  2
ColorChange
 70
    16
177
     3
291
     1
 70
    58
 90
        2
176
     1
 90
        2
176
     1
 90
        3
176
     1
 90
        0
176
     1
 40
0.6
176
     1
 40
30.0
176
     1
 62
     8
420
  8421504
176
     1
 90
        1
176
     1
 90
        4
176
     1
 62
     7
176
     1
 62
   257
176
     1
 90
        1
176
     1
 90
        1
176
     1
 40
1.0
176
     1
 90
        8
176
     1
 62
     8
420
  8421504
176
     1
 40
1.0
176
     1
 90
        1
176
     1
 90
        6
176
     1
 90
        2
176
     1
 62
     7
176
     1
 90
        5
176
     1
 90
        0
176
     1
 90
        0
176
     1
290
     0
176
     1
 90
        1
176
     1
 40
0.0
176
     1
 90
        0
176
     1
290
     0
176
     1
290
     1
176
     1
290
     1
176
     1
290
     0
176
     1
290
     0
176
     1
290
     0
176
     1
290
     0
176
     1
290
     0
176
     1
290
     0
176
     1
 90
       50
176
     1
 40
0.0
176
     1
 40
1.0
176
     1
 90
        0
176
     1
 62
    18
420
        0
176
     1
 90
       50
176
     1
 90
        3
176
     1
 62
     5
420
      255
176
     1
290
     0
176
     1
 90
       50
176
     1
 90
       50
176
     1
 90
       50
176
     1
290
     0
176
     1
 90
       50
176
     1
 62
   256
176
     0
 40
1.0
176
     0
 90
        2
176
     1
  1
strokes_ogs.tif
176
     1
290
     0
176
     1
 40
1.0
176
     1
 40
1.0
176
     1
  0
VISUALSTYLE
  5
32
102
{ACAD_REACTORS
330
29
102
}
330
29
100
AcDbVisualStyle
  2
Conceptual
 70
     9
177
     3
291
     0
 70
    58
 90
        3
176
     1
 90
        2
176
     1
 90
        0
176
     1
 90
        0
176
     1
 40
0.6
176
     1
 40
30.0
176
     1
 62
     7
420
 16777215
176
     1
 90
        2
176
     1
 90
        2
176
     1
 62
     7
176
     1
 62
   257
176
     1
 90
        1
176
     1
 90
        1
176
     1
 40
179.0
176
     1
 90
        8
176
     1
 62
     7
176
     1
 40
1.0
176
     1
 90
        1
176
     1
 90
        6
176
     1
 90
        2
176
     1
 62
     7
176
     1
 90
        3
176
     1
 90
        0
176
     1
 90
        0
176
     1
290
     0
176
     1
 90
        1
176
     1
 40
0.0
176
     1
 90
        0
176
     1
290
     0
176
     1
290
     1
176
     1
290
     1
176
     1
290
     0
176
     1
290
     0
176
     1
290
     0
176
     1
290
     0
176
     1
290
     0
176
     1
290
     0
176
     1
 90
       50
176
     1
 40
0.0
176
     1
 40
1.0
176
     1
 90
        0
176
     1
 62
    18
420
        0
176
     1
 90
       50
176
     1
 90
        3
176
     1
 62
     5
420
      255
176
     1
290
     0
176
     1
 90
       50
176
     1
 90
       50
176
     1
 90
       50
176
     1
290
     0
176
     1
 90
       50
176
     1
 62
   256
176
     0
 40
1.0
176
     0
 90
        2
176
     1
  1
strokes_ogs.tif
176
     1
290
     0
176
     1
 40
1.0
176
     1
 40
1.0
176
     1
  0
VISUALSTYLE
  5
34
102
{ACAD_REACTORS
330
29
102
}
330
29
100
AcDbVisualStyle
  2
Dim
 70
    11
177
     3
291
     1
 70
    58
 90
        2
176
     1
 90
        2
176
     1
 90
        0
176
     1
 90
        0
176
     1
 40
0.6
176
     1
 40
30.0
176
     1
 62
     7
420
 16777215
176
     1
 90
        1
176
     1
 90
        4
176
     1
 62
     7
176
     1
 62
   257
176
     1
 90
        1
176
     1
 90
        1
176
     1
 40
1.0
176
     1
 90
        8
176
     1
 62
     7
176
     1
 40
1.0
176
     1
 90
        1
176
     1
 90
        6
176
     1
 90
        2
176
     1
 62
     7
176
     1
 90
        5
176
     1
 90
        0
176
     1
 90
        0
176
     1
290
     0
176
     1
 90
        1
176
     1
 40
-50.0
176
     1
 90
        0
176
     1
290
     0
176
     1
290
     1
176
     1
290
     1
176
     1
290
     0
176
     1
290
     0
176
     1
290
     0
176
     1
290
     0
176
     1
290
     0
176
     1
290
     0
176
     1
 90
       50
176
     1
 40
0.0
176
     1
 40
1.0
176
     1
 90
        0
176
     1
 62
    18
420
        0
176
     1
 90
       50
176
     1
 90
        3
176
     1
 62
     5
420
      255
176
     1
290
     0
176
     1
 90
       50
176
     1
 90
       50
176
     1
 90
       50
176
     1
290
     0
176
     1
 90
       50
176
     1
 62
   256
176
     0
 40
1.0
176
     0
 90
        2
176
     1
  1
strokes_ogs.tif
176
     1
290
     0
176
     1
 40
1.0
176
     1
 40
1.0
176
     1
  0
VISUALSTYLE
  5
41
102
{ACAD_REACTORS
330
29
102
}
330
29
100
AcDbVisualStyle
  2
EdgeColorOff
 70
    22
177
     3
291
     1
 70
    58
 90
        2
176
     0
 90
        2
176
     0
 90
        0
176
     0
 90
        0
176
     0
 40
0.6
176
     0
 40
30.0
176
     0
 62
     7
420
 16777215
176
     0
 90
        1
176
     0
 90
        4
176
     0
 62
     7
176
     0
 62
   257
176
     0
 90
        1
176
     0
 90
        1
176
     0
 40
1.0
176
     0
 90
        8
176
     2
 62
     7
176
     0
 40
1.0
176
     0
 90
        1
176
     0
 90
        6
176
     0
 90
        2
176
     0
 62
     7
176
     0
 90
        5
176
     0
 90
        0
176
     0
 90
        0
176
     0
290
     0
176
     0
 90
        1
176
     0
 40
0.0
176
     0
 90
        0
176
     0
290
     0
176
     0
290
     1
176
     0
290
     1
176
     0
290
     0
176
     0
290
     0
176
     0
290
     0
176
     0
290
     0
176
     0
290
     0
176
     0
290
     0
176
     0
 90
       50
176
     0
 40
0.0
176
     0
 40
1.0
176
     0
 90
        0
176
     0
 62
    18
420
        0
176
     0
 90
       50
176
     0
 90
        3
176
     0
 62
     5
420
      255
176
     0
290
     0
176
     0
 90
       50
176
     0
 90
       50
176
     0
 90
       50
176
     0
290
     0
176
     0
 90
       50
176
     0
 62
   256
176
     0
 40
1.0
176
     0
 90
        2
176
     0
  1
strokes_ogs.tif
176
     0
290
     0
176
     0
 40
1.0
176
     0
 40
1.0
176
     0
  0
VISUALSTYLE
  5
38
102
{ACAD_REACTORS
330
29
102
}
330
29
100
AcDbVisualStyle
  2
Facepattern
 70
    15
177
     3
291
     1
 70
    58
 90
        2
176
     1
 90
        2
176
     1
 90
        0
176
     1
 90
        0
176
     1
 40
0.6
176
     1
 40
30.0
176
     1
 62
     7
420
 16777215
176
     1
 90
        1
176
     1
 90
        4
176
     1
 62
     7
176
     1
 62
   257
176
     1
 90
        1
176
     1
 90
        1
176
     1
 40
1.0
176
     1
 90
        8
176
     1
 62
     7
176
     1
 40
1.0
176
     1
 90
        1
176
     1
 90
        6
176
     1
 90
        2
176
     1
 62
     7
176
     1
 90
        5
176
     1
 90
        0
176
     1
 90
        0
176
     1
290
     0
176
     1
 90
        1
176
     1
 40
0.0
176
     1
 90
        0
176
     1
290
     0
176
     1
290
     1
176
     1
290
     1
176
     1
290
     0
176
     1
290
     0
176
     1
290
     0
176
     1
290
     0
176
     1
290
     0
176
     1
290
     0
176
     1
 90
       50
176
     1
 40
0.0
176
     1
 40
1.0
176
     1
 90
        0
176
     1
 62
    18
420
        0
176
     1
 90
       50
176
     1
 90
        3
176
     1
 62
     5
420
      255
176
     1
290
     0
176
     1
 90
       50
176
     1
 90
       50
176
     1
 90
       50
176
     1
290
     0
176
     1
 90
       50
176
     1
 62
   256
176
     0
 40
1.0
176
     0
 90
        2
176
     1
  1
strokes_ogs.tif
176
     1
290
     0
176
     1
 40
1.0
176
     1
 40
1.0
176
     1
  0
VISUALSTYLE
  5
2A
102
{ACAD_REACTORS
330
29
102
}
330
29
100
AcDbVisualStyle
  2
Flat
 70
     0
177
     3
291
     1
 70
    58
 90
        2
176
     1
 90
        1
176
     1
 90
        1
176
     1
 90
        2
176
     1
 40
0.6
176
     1
 40
30.0
176
     1
 62
     7
420
 16777215
176
     1
 90
        0
176
     1
 90
        0
176
     1
 62
     7
176
     1
 62
   257
176
     1
 90
        1
176
     1
 90
        1
176
     1
 40
1.0
176
     1
 90
        8
176
     1
 62
     7
176
     1
 40
1.0
176
     1
 90
        1
176
     1
 90
        6
176
     1
 90
        2
176
     1
 62
     7
176
     1
 90
        5
176
     1
 90
        0
176
     1
 90
        0
176
     1
290
     0
176
     1
 90
       13
176
     1
 40
0.0
176
     1
 90
        0
176
     1
290
     0
176
     1
290
     1
176
     1
290
     1
176
     1
290
     0
176
     1
290
     0
176
     1
290
     0
176
     1
290
     0
176
     1
290
     0
176
     1
290
     0
176
     1
 90
       50
176
     1
 40
0.0
176
     1
 40
1.0
176
     1
 90
        0
176
     1
 62
    18
420
        0
176
     1
 90
       50
176
     1
 90
        3
176
     1
 62
     5
420
      255
176
     1
290
     0
176
     1
 90
       50
176
     1
 90
       50
176
     1
 90
       50
176
     1
290
     0
176
     1
 90
       50
176
     1
 62
   256
176
     0
 40
1.0
176
     0
 90
        2
176
     1
  1
strokes_ogs.tif
176
     1
290
     0
176
     1
 40
1.0
176
     1
 40
1.0
176
     1
  0
VISUALSTYLE
  5
2B
102
{ACAD_REACTORS
330
29
102
}
330
29
100
AcDbVisualStyle
  2
FlatWithEdges
 70
     1
177
     3
291
     1
 70
    58
 90
        2
176
     1
 90
        1
176
     1
 90
        1
176
     1
 90
        2
176
     1
 40
0.6
176
     1
 40
30.0
176
     1
 62
     7
420
 16777215
176
     1
 90
        1
176
     1
 90
        0
176
     1
 62
     7
176
     1
 62
   257
176
     1
 90
        1
176
     1
 90
        1
176
     1
 40
1.0
176
     1
 90
        0
176
     1
 62
   257
176
     1
 40
1.0
176
     1
 90
        1
176
     1
 90
        6
176
     1
 90
        2
176
     1
 62
     7
176
     1
 90
        5
176
     1
 90
        0
176
     1
 90
        0
176
     1
290
     0
176
     1
 90
       13
176
     1
 40
0.0
176
     1
 90
        0
176
     1
290
     0
176
     1
290
     1
176
     1
290
     1
176
     1
290
     0
176
     1
290
     0
176
     1
290
     0
176
     1
290
     0
176
     1
290
     0
176
     1
290
     0
176
     1
 90
       50
176
     1
 40
0.0
176
     1
 40
1.0
176
     1
 90
        0
176
     1
 62
    18
420
        0
176
     1
 90
       50
176
     1
 90
        3
176
     1
 62
     5
420
      255
176
     1
290
     0
176
     1
 90
       50
176
     1
 90
       50
176
     1
 90
       50
176
     1
290
     0
176
     1
 90
       50
176
     1
 62
   256
176
     0
 40
1.0
176
     0
 90
        2
176
     1
  1
strokes_ogs.tif
176
     1
290
     0
176
     1
 40
1.0
176
     1
 40
1.0
176
     1
  0
VISUALSTYLE
  5
2C
102
{ACAD_REACTORS
330
29
102
}
330
29
100
AcDbVisualStyle
  2
Gouraud
 70
     2
177
     3
291
     1
 70
    58
 90
        2
176
     1
 90
        2
176
     1
 90
        1
176
     1
 90
        2
176
     1
 40
0.6
176
     1
 40
30.0
176
     1
 62
     7
420
 16777215
176
     1
 90
        0
176
     1
 90
        0
176
     1
 62
     7
176
     1
 62
   257
176
     1
 90
        1
176
     1
 90
        1
176
     1
 40
1.0
176
     1
 90
        0
176
     1
 62
     7
176
     1
 40
1.0
176
     1
 90
        1
176
     1
 90
        6
176
     1
 90
        2
176
     1
 62
     7
176
     1
 90
        5
176
     1
 90
        0
176
     1
 90
        0
176
     1
290
     0
176
     1
 90
       13
176
     1
 40
0.0
176
     1
 90
        0
176
     1
290
     0
176
     1
290
     1
176
     1
290
     1
176
     1
290
     0
176
     1
290
     0
176
     1
290
     0
176
     1
290
     0
176
     1
290
     0
176
     1
290
     0
176
     1
 90
       50
176
     1
 40
0.0
176
     1
 40
1.0
176
     1
 90
        0
176
     1
 62
    18
420
        0
176
     1
 90
       50
176
     1
 90
        3
176
     1
 62
     5
420
      255
176
     1
290
     0
176
     1
 90
       50
176
     1
 90
       50
176
     1
 90
       50
176
     1
290
     0
176
     1
 90
       50
176
     1
 62
   256
176
     0
 40
1.0
176
     0
 90
        2
176
     1
  1
strokes_ogs.tif
176
     1
290
     0
176
     1
 40
1.0
176
     1
 40
1.0
176
     1
  0
VISUALSTYLE
  5
2D
102
{ACAD_REACTORS
330
29
102
}
330
29
100
AcDbVisualStyle
  2
GouraudWithEdges
 70
     3
177
     3
291
     1
 70
    58
 90
        2
176
     1
 90
        2
176
     1
 90
        1
176
     1
 90
        2
176
     1
 40
0.6
176
     1
 40
30.0
176
     1
 62
     7
420
 16777215
176
     1
 90
        1
176
     1
 90
        0
176
     1
 62
     7
176
     1
 62
   257
176
     1
 90
        1
176
     1
 90
        1
176
     1
 40
1.0
176
     1
 90
        0
176
     1
 62
   257
176
     1
 40
1.0
176
     1
 90
        1
176
     1
 90
        6
176
     1
 90
        2
176
     1
 62
     7
176
     1
 90
        5
176
     1
 90
        0
176
     1
 90
        0
176
     1
290
     0
176
     1
 90
       13
176
     1
 40
0.0
176
     1
 90
        0
176
     1
290
     0
176
     1
290
     1
176
     1
290
     1
176
     1
290
     0
176
     1
290
     0
176
     1
290
     0
176
     1
290
     0
176
     1
290
     0
176
     1
290
     0
176
     1
 90
       50
176
     1
 40
0.0
176
     1
 40
1.0
176
     1
 90
        0
176
     1
 62
    18
420
        0
176
     1
 90
       50
176
     1
 90
        3
176
     1
 62
     5
420
      255
176
     1
290
     0
176
     1
 90
       50
176
     1
 90
       50
176
     1
 90
       50
176
     1
290
     0
176
     1
 90
       50
176
     1
 62
   256
176
     0
 40
1.0
176
     0
 90
        2
176
     1
  1
strokes_ogs.tif
176
     1
290
     0
176
     1
 40
1.0
176
     1
 40
1.0
176
     1
  0
VISUALSTYLE
  5
31
102
{ACAD_REACTORS
330
29
102
}
330
29
100
AcDbVisualStyle
  2
Hidden
 70
     6
177
     3
291
     0
 70
    58
 90
        1
176
     1
 90
        2
176
     1
 90
        2
176
     1
 90
        0
176
     1
 40
0.6
176
     1
 40
30.0
176
     1
 62
     7
420
 16777215
176
     1
 90
        2
176
     1
 90
        2
176
     1
 62
     7
176
     1
 62
   257
176
     1
 90
        2
176
     1
 90
        1
176
     1
 40
40.0
176
     1
 90
        0
176
     1
 62
   257
176
     1
 40
1.0
176
     1
 90
        1
176
     1
 90
        6
176
     1
 90
        2
176
     1
 62
     7
176
     1
 90
        3
176
     1
 90
        0
176
     1
 90
        0
176
     1
290
     0
176
     1
 90
        1
176
     1
 40
0.0
176
     1
 90
        0
176
     1
290
     0
176
     1
290
     1
176
     1
290
     1
176
     1
290
     0
176
     1
290
     0
176
     1
290
     0
176
     1
290
     0
176
     1
290
     0
176
     1
290
     0
176
     1
 90
       50
176
     1
 40
0.0
176
     1
 40
1.0
176
     1
 90
        0
176
     1
 62
    18
420
        0
176
     1
 90
       50
176
     1
 90
        3
176
     1
 62
     5
420
      255
176
     1
290
     0
176
     1
 90
       50
176
     1
 90
       50
176
     1
 90
       50
176
     1
290
     0
176
     1
 90
       50
176
     1
 62
   256
176
     0
 40
1.0
176
     0
 90
        2
176
     1
  1
strokes_ogs.tif
176
     1
290
     0
176
     1
 40
1.0
176
     1
 40
1.0
176
     1
  0
VISUALSTYLE
  5
3F
102
{ACAD_REACTORS
330
29
102
}
330
29
100
AcDbVisualStyle
  2
JitterOff
 70
    20
177
     3
291
     1
 70
    58
 90
        2
176
     0
 90
        2
176
     0
 90
        0
176
     0
 90
        0
176
     0
 40
0.6
176
     0
 40
30.0
176
     0
 62
     7
420
 16777215
176
     0
 90
        1
176
     0
 90
        4
176
     0
 62
     7
176
     0
 62
   257
176
     0
 90
        1
176
     0
 90
        1
176
     0
 40
1.0
176
     0
 90
       10
176
     2
 62
     7
176
     0
 40
1.0
176
     0
 90
        1
176
     0
 90
        6
176
     0
 90
        2
176
     0
 62
     7
176
     0
 90
        5
176
     0
 90
        0
176
     0
 90
        0
176
     0
290
     0
176
     0
 90
        1
176
     0
 40
0.0
176
     0
 90
        0
176
     0
290
     0
176
     0
290
     1
176
     0
290
     1
176
     0
290
     0
176
     0
290
     0
176
     0
290
     0
176
     0
290
     0
176
     0
290
     0
176
     0
290
     0
176
     0
 90
       50
176
     0
 40
0.0
176
     0
 40
1.0
176
     0
 90
        0
176
     0
 62
    18
420
        0
176
     0
 90
       50
176
     0
 90
        3
176
     0
 62
     5
420
      255
176
     0
290
     0
176
     0
 90
       50
176
     0
 90
       50
176
     0
 90
       50
176
     0
290
     0
176
     0
 90
       50
176
     0
 62
   256
176
     0
 40
1.0
176
     0
 90
        2
176
     0
  1
strokes_ogs.tif
176
     0
290
     0
176
     0
 40
1.0
176
     0
 40
1.0
176
     0
  0
VISUALSTYLE
  5
37
102
{ACAD_REACTORS
330
29
102
}
330
29
100
AcDbVisualStyle
  2
Linepattern
 70
    14
177
     3
291
     1
 70
    58
 90
        2
176
     1
 90
        2
176
     1
 90
        0
176
     1
 90
        0
176
     1
 40
0.6
176
     1
 40
30.0
176
     1
 62
     7
420
 16777215
176
     1
 90
        1
176
     1
 90
        4
176
     1
 62
     7
176
     1
 62
   257
176
     1
 90
        7
176
     1
 90
        7
176
     1
 40
1.0
176
     1
 90
        8
176
     1
 62
     7
176
     1
 40
1.0
176
     1
 90
        1
176
     1
 90
        6
176
     1
 90
        2
176
     1
 62
     7
176
     1
 90
        5
176
     1
 90
        0
176
     1
 90
        0
176
     1
290
     0
176
     1
 90
        1
176
     1
 40
0.0
176
     1
 90
        0
176
     1
290
     0
176
     1
290
     1
176
     1
290
     1
176
     1
290
     0
176
     1
290
     0
176
     1
290
     0
176
     1
290
     0
176
     1
290
     0
176
     1
290
     0
176
     1
 90
       50
176
     1
 40
0.0
176
     1
 40
1.0
176
     1
 90
        0
176
     1
 62
    18
420
        0
176
     1
 90
       50
176
     1
 90
        3
176
     1
 62
     5
420
      255
176
     1
290
     0
176
     1
 90
       50
176
     1
 90
       50
176
     1
 90
       50
176
     1
290
     0
176
     1
 90
       50
176
     1
 62
   256
176
     0
 40
1.0
176
     0
 90
        2
176
     1
  1
strokes_ogs.tif
176
     1
290
     0
176
     1
 40
1.0
176
     1
 40
1.0
176
     1
  0
VISUALSTYLE
  5
40
102
{ACAD_REACTORS
330
29
102
}
330
29
100
AcDbVisualStyle
  2
OverhangOff
 70
    21
177
     3
291
     1
 70
    58
 90
        2
176
     0
 90
        2
176
     0
 90
        0
176
     0
 90
        0
176
     0
 40
0.6
176
     0
 40
30.0
176
     0
 62
     7
420
 16777215
176
     0
 90
        1
176
     0
 90
        4
176
     0
 62
     7
176
     0
 62
   257
176
     0
 90
        1
176
     0
 90
        1
176
     0
 40
1.0
176
     0
 90
        9
176
     2
 62
     7
176
     0
 40
1.0
176
     0
 90
        1
176
     0
 90
        6
176
     0
 90
        2
176
     0
 62
     7
176
     0
 90
        5
176
     0
 90
        0
176
     0
 90
        0
176
     0
290
     0
176
     0
 90
        1
176
     0
 40
0.0
176
     0
 90
        0
176
     0
290
     0
176
     0
290
     1
176
     0
290
     1
176
     0
290
     0
176
     0
290
     0
176
     0
290
     0
176
     0
290
     0
176
     0
290
     0
176
     0
290
     0
176
     0
 90
       50
176
     0
 40
0.0
176
     0
 40
1.0
176
     0
 90
        0
176
     0
 62
    18
420
        0
176
     0
 90
       50
176
     0
 90
        3
176
     0
 62
     5
420
      255
176
     0
290
     0
176
     0
 90
       50
176
     0
 90
       50
176
     0
 90
       50
176
     0
290
     0
176
     0
 90
       50
176
     0
 62
   256
176
     0
 40
1.0
176
     0
 90
        2
176
     0
  1
strokes_ogs.tif
176
     0
290
     0
176
     0
 40
1.0
176
     0
 40
1.0
176
     0
  0
VISUALSTYLE
  5
33
102
{ACAD_REACTORS
330
29
102
}
330
29
100
AcDbVisualStyle
  2
Realistic
 70
     8
177
     3
291
     0
 70
    58
 90
        2
176
     1
 90
        3
176
     1
 90
        0
176
     1
 90
        2
176
     1
 40
0.6
176
     1
 40
30.0
176
     1
 62
     7
420
 16777215
176
     1
 90
        0
176
     1
 90
        0
176
     1
 62
     7
176
     1
 62
   257
176
     1
 90
        1
176
     1
 90
        1
176
     1
 40
1.0
176
     1
 90
        8
176
     1
 62
   257
176
     1
 40
1.0
176
     1
 90
        1
176
     1
 90
        6
176
     1
 90
        2
176
     1
 62
     7
176
     1
 90
        3
176
     1
 90
        0
176
     1
 90
        0
176
     1
290
     0
176
     1
 90
       13
176
     1
 40
0.0
176
     1
 90
        0
176
     1
290
     0
176
     1
290
     1
176
     1
290
     1
176
     1
290
     0
176
     1
290
     0
176
     1
290
     0
176
     1
290
     0
176
     1
290
     0
176
     1
290
     0
176
     1
 90
       50
176
     1
 40
0.0
176
     1
 40
1.0
176
     1
 90
        0
176
     1
 62
    18
420
        0
176
     1
 90
       50
176
     1
 90
        3
176
     1
 62
     5
420
      255
176
     1
290
     0
176
     1
 90
       50
176
     1
 90
       50
176
     1
 90
       50
176
     1
290
     0
176
     1
 90
       50
176
     1
 62
   256
176
     0
 40
1.0
176
     0
 90
        2
176
     1
  1
strokes_ogs.tif
176
     1
290
     0
176
     1
 40
1.0
176
     1
 40
1.0
176
     1
  0
VISUALSTYLE
  5
3E
102
{ACAD_REACTORS
330
29
102
}
330
29
100
AcDbVisualStyle
  2
Shaded
 70
    27
177
     3
291
     0
 70
    58
 90
        2
176
     1
 90
        2
176
     1
 90
        1
176
     1
 90
        2
176
     1
 40
0.6
176
     1
 40
30.0
176
     1
 62
     7
420
 16777215
176
     1
 90
        0
176
     1
 90
        4
176
     1
 62
     7
176
     1
 62
   257
176
     1
 90
        1
176
     1
 90
        1
176
     1
 40
1.0
176
     1
 90
        8
176
     1
 62
   257
176
     1
 40
1.0
176
     1
 90
        1
176
     1
 90
        6
176
     1
 90
        2
176
     1
 62
     8
420
  7895160
176
     1
 90
        3
176
     1
 90
        0
176
     1
 90
        0
176
     1
290
     0
176
     1
 90
        5
176
     1
 40
0.0
176
     1
 90
        0
176
     1
290
     0
176
     1
290
     1
176
     1
290
     1
176
     1
290
     0
176
     1
290
     0
176
     1
290
     0
176
     1
290
     0
176
     1
290
     0
176
     1
290
     0
176
     1
 90
       50
176
     1
 40
0.0
176
     1
 40
1.0
176
     1
 90
        0
176
     1
 62
    18
420
        0
176
     1
 90
       50
176
     1
 90
        3
176
     1
 62
     5
420
      255
176
     1
290
     0
176
     1
 90
       50
176
     1
 90
       50
176
     1
 90
       50
176
     1
290
     0
176
     1
 90
       50
176
     1
 62
   256
176
     0
 40
1.0
176
     0
 90
        2
176
     1
  1
strokes_ogs.tif
176
     1
290
     0
176
     1
 40
1.0
176
     1
 40
1.0
176
     1
  0
VISUALSTYLE
  5
3D
102
{ACAD_REACTORS
330
29
102
}
330
29
100
AcDbVisualStyle
  2
Shaded with edges
 70
    26
177
     3
291
     0
 70
    58
 90
        2
176
     1
 90
        2
176
     1
 90
        1
176
     1
 90
        2
176
     1
 40
0.6
176
     1
 40
30.0
176
     1
 62
     7
420
 16777215
176
     1
 90
        1
176
     1
 90
       10
176
     1
 62
     7
176
     1
 62
   257
176
     1
 90
        2
176
     1
 90
        1
176
     1
 40
1.0
176
     1
 90
        8
176
     1
 62
   257
176
     1
 40
1.0
176
     1
 90
        1
176
     1
 90
        6
176
     1
 90
        2
176
     1
 62
     7
176
     1
 90
        3
176
     1
 90
        0
176
     1
 90
        0
176
     1
290
     0
176
     1
 90
        5
176
     1
 40
0.0
176
     1
 90
        0
176
     1
290
     0
176
     1
290
     1
176
     1
290
     1
176
     1
290
     0
176
     1
290
     0
176
     1
290
     0
176
     1
290
     0
176
     1
290
     0
176
     1
290
     0
176
     1
 90
       50
176
     1
 40
0.0
176
     1
 40
1.0
176
     1
 90
        0
176
     1
 62
    18
420
        0
176
     1
 90
       50
176
     1
 90
        3
176
     1
 62
     5
420
      255
176
     1
290
     0
176
     1
 90
       50
176
     1
 90
       50
176
     1
 90
       50
176
     1
290
     0
176
     1
 90
       50
176
     1
 62
   256
176
     0
 40
1.0
176
     0
 90
        2
176
     1
  1
strokes_ogs.tif
176
     1
290
     0
176
     1
 40
1.0
176
     1
 40
1.0
176
     1
  0
VISUALSTYLE
  5
3A
102
{ACAD_REACTORS
330
29
102
}
330
29
100
AcDbVisualStyle
  2
Shades of Gray
 70
    23
177
     3
291
     0
 70
    58
 90
        2
176
     1
 90
        2
176
     1
 90
        3
176
     1
 90
        0
176
     1
 40
0.6
176
     1
 40
30.0
176
     1
 62
     7
420
 16777215
176
     1
 90
        2
176
     1
 90
        2
176
     1
 62
     7
176
     1
 62
     7
176
     1
 90
        1
176
     1
 90
        1
176
     1
 40
40.0
176
     1
 90
        8
176
     1
 62
     7
176
     1
 40
1.0
176
     1
 90
        1
176
     1
 90
        6
176
     1
 90
        2
176
     1
 62
     7
176
     1
 90
        3
176
     1
 90
        0
176
     1
 90
        0
176
     1
290
     0
176
     1
 90
        1
176
     1
 40
0.0
176
     1
 90
        0
176
     1
290
     0
176
     1
290
     1
176
     1
290
     1
176
     1
290
     0
176
     1
290
     0
176
     1
290
     0
176
     1
290
     0
176
     1
290
     0
176
     1
290
     0
176
     1
 90
       50
176
     1
 40
0.0
176
     1
 40
1.0
176
     1
 90
        0
176
     1
 62
    18
420
        0
176
     1
 90
       50
176
     1
 90
        3
176
     1
 62
     5
420
      255
176
     1
290
     0
176
     1
 90
       50
176
     1
 90
       50
176
     1
 90
       50
176
     1
290
     0
176
     1
 90
       50
176
     1
 62
   256
176
     0
 40
1.0
176
     0
 90
        2
176
     1
  1
strokes_ogs.tif
176
     1
290
     0
176
     1
 40
1.0
176
     1
 40
1.0
176
     1
  0
VISUALSTYLE
  5
3B
102
{ACAD_REACTORS
330
29
102
}
330
29
100
AcDbVisualStyle
  2
Sketchy
 70
    24
177
     3
291
     0
 70
    58
 90
        1
176
     1
 90
        2
176
     1
 90
        2
176
     1
 90
        0
176
     1
 40
0.6
176
     1
 40
30.0
176
     1
 62
     7
420
 16777215
176
     1
 90
        2
176
     1
 90
        2
176
     1
 62
     7
176
     1
 62
     7
176
     1
 90
        1
176
     1
 90
        1
176
     1
 40
40.0
176
     1
 90
       11
176
     1
 62
     7
176
     1
 40
1.0
176
     1
 90
        1
176
     1
 90
        6
176
     1
 90
        2
176
     1
 62
     7
176
     1
 90
        6
176
     1
 90
        0
176
     1
 90
        0
176
     1
290
     0
176
     1
 90
        1
176
     1
 40
0.0
176
     1
 90
        0
176
     1
290
     0
176
     1
290
     1
176
     1
290
     1
176
     1
290
     0
176
     1
290
     0
176
     1
290
     0
176
     1
290
     0
176
     1
290
     0
176
     1
290
     0
176
     1
 90
       50
176
     1
 40
0.0
176
     1
 40
1.0
176
     1
 90
        0
176
     1
 62
    18
420
        0
176
     1
 90
       50
176
     1
 90
        3
176
     1
 62
     5
420
      255
176
     1
290
     0
176
     1
 90
       50
176
     1
 90
       50
176
     1
 90
       50
176
     1
290
     0
176
     1
 90
       50
176
     1
 62
   256
176
     0
 40
1.0
176
     0
 90
        2
176
     1
  1
strokes_ogs.tif
176
     1
290
     0
176
     1
 40
1.0
176
     1
 40
1.0
176
     1
  0
VISUALSTYLE
  5
36
102
{ACAD_REACTORS
330
29
102
}
330
29
100
AcDbVisualStyle
  2
Thicken
 70
    13
177
     3
291
     1
 70
    58
 90
        2
176
     1
 90
        2
176
     1
 90
        0
176
     1
 90
        0
176
     1
 40
0.6
176
     1
 40
30.0
176
     1
 62
     7
420
 16777215
176
     1
 90
        1
176
     1
 90
        4
176
     1
 62
     7
176
     1
 62
   257
176
     1
 90
        1
176
     1
 90
        1
176
     1
 40
1.0
176
     1
 90
       12
176
     1
 62
     7
176
     1
 40
1.0
176
     1
 90
        1
176
     1
 90
        6
176
     1
 90
        2
176
     1
 62
     7
176
     1
 90
        5
176
     1
 90
        0
176
     1
 90
        0
176
     1
290
     0
176
     1
 90
        1
176
     1
 40
0.0
176
     1
 90
        0
176
     1
290
     0
176
     1
290
     1
176
     1
290
     1
176
     1
290
     0
176
     1
290
     0
176
     1
290
     0
176
     1
290
     0
176
     1
290
     0
176
     1
290
     0
176
     1
 90
       50
176
     1
 40
0.0
176
     1
 40
1.0
176
     1
 90
        0
176
     1
 62
    18
420
        0
176
     1
 90
       50
176
     1
 90
        3
176
     1
 62
     5
420
      255
176
     1
290
     0
176
     1
 90
       50
176
     1
 90
       50
176
     1
 90
       50
176
     1
290
     0
176
     1
 90
       50
176
     1
 62
   256
176
     0
 40
1.0
176
     0
 90
        2
176
     1
  1
strokes_ogs.tif
176
     1
290
     0
176
     1
 40
1.0
176
     1
 40
1.0
176
     1
  0
VISUALSTYLE
  5
30
102
{ACAD_REACTORS
330
29
102
}
330
29
100
AcDbVisualStyle
  2
Wireframe
 70
     5
177
     3
291
     0
 70
    58
 90
        0
176
     1
 90
        2
176
     1
 90
        0
176
     1
 90
        0
176
     1
 40
0.6
176
     1
 40
30.0
176
     1
 62
     7
420
 16777215
176
     1
 90
        1
176
     1
 90
        4
176
     1
 62
     7
176
     1
 62
   257
176
     1
 90
        1
176
     1
 90
        1
176
     1
 40
1.0
176
     1
 90
        0
176
     1
 62
   257
176
     1
 40
1.0
176
     1
 90
        1
176
     1
 90
        6
176
     1
 90
        2
176
     1
 62
     7
176
     1
 90
        3
176
     1
 90
        0
176
     1
 90
        0
176
     1
290
     0
176
     1
 90
        1
176
     1
 40
0.0
176
     1
 90
        0
176
     1
290
     0
176
     1
290
     1
176
     1
290
     1
176
     1
290
     0
176
     1
290
     0
176
     1
290
     0
176
     1
290
     0
176
     1
290
     0
176
     1
290
     0
176
     1
 90
       50
176
     1
 40
0.0
176
     1
 40
1.0
176
     1
 90
        0
176
     1
 62
    18
420
        0
176
     1
 90
       50
176
     1
 90
        3
176
     1
 62
     5
420
      255
176
     1
290
     0
176
     1
 90
       50
176
     1
 90
       50
176
     1
 90
       50
176
     1
290
     0
176
     1
 90
       50
176
     1
 62
   256
176
     0
 40
1.0
176
     0
 90
        2
176
     1
  1
strokes_ogs.tif
176
     1
290
     0
176
     1
 40
1.0
176
     1
 40
1.0
176
     1
  0
VISUALSTYLE
  5
3C
102
{ACAD_REACTORS
330
29
102
}
330
29
100
AcDbVisualStyle
  2
X-Ray
 70
    25
177
     3
291
     0
 70
    58
 90
        2
176
     1
 90
        2
176
     1
 90
        1
176
     1
 90
        1
176
     1
 40
0.5
176
     1
 40
30.0
176
     1
 62
     7
420
 16777215
176
     1
 90
        1
176
     1
 90
        0
176
     1
 62
     7
176
     1
 62
   257
176
     1
 90
        1
176
     1
 90
        1
176
     1
 40
1.0
176
     1
 90
        8
176
     1
 62
     7
176
     1
 40
1.0
176
     1
 90
        1
176
     1
 90
        6
176
     1
 90
        2
176
     1
 62
     7
176
     1
 90
        3
176
     1
 90
        0
176
     1
 90
        0
176
     1
290
     0
176
     1
 90
       13
176
     1
 40
0.0
176
     1
 90
        0
176
     1
290
     0
176
     1
290
     1
176
     1
290
     1
176
     1
290
     0
176
     1
290
     0
176
     1
290
     0
176
     1
290
     0
176
     1
290
     0
176
     1
290
     0
176
     1
 90
       50
176
     1
 40
0.0
176
     1
 40
1.0
176
     1
 90
        0
176
     1
 62
    18
420
        0
176
     1
 90
       50
176
     1
 90
        3
176
     1
 62
     5
420
      255
176
     1
290
     0
176
     1
 90
       50
176
     1
 90
       50
176
     1
 90
       50
176
     1
290
     0
176
     1
 90
       50
176
     1
 62
   256
176
     0
 40
1.0
176
     0
 90
        2
176
     1
  1
strokes_ogs.tif
176
     1
290
     0
176
     1
 40
1.0
176
     1
 40
1.0
176
     1
  0
DICTIONARYVAR
  5
81
102
{ACAD_REACTORS
330
7C
102
}
330
7C
100
DictionaryVariables
280
     0
  1
1:1
  0
DICTIONARYVAR
  5
7E
102
{ACAD_REACTORS
330
7C
102
}
330
7C
100
DictionaryVariables
280
     0
  1
STANDARD
  0
DICTIONARYVAR
  5
7D
102
{ACAD_REACTORS
330
7C
102
}
330
7C
100
DictionaryVariables
280
     0
  1
STANDARD
  0
DICTIONARYVAR
  5
7F
102
{ACAD_REACTORS
330
7C
102
}
330
7C
100
DictionaryVariables
280
     0
  1
Imperial24
  0
DICTIONARYVAR
  5
80
102
{ACAD_REACTORS
330
7C
102
}
330
7C
100
DictionaryVariables
280
     0
  1
Imperial24
  0
XRECORD
  5
204
102
{ACAD_REACTORS
330
201
102
}
330
201
100
AcDbXrecord
280
     1
  1
BUILDING_ID
  1
Progetto per messa in tavola DXF, DWG
  1
FLOOR_ID
  1
694395
  0
XRECORD
  5
203
102
{ACAD_REACTORS
330
201
102
}
330
201
100
AcDbXrecord
280
     1
  1
-2001160
  1
Apparecchi idraulici
  0
XRECORD
  5
202
102
{ACAD_REACTORS
330
201
102
}
330
201
100
AcDbXrecord
280
     1
  1
859151
  1
Automatic flow rate regulator valve_Caleffi_121 DN15 : 1/2''
  0
DICTIONARY
  5
1A
330
19
100
AcDbDictionary
280
     1
281
     1
  3
BUMPTILE
360
1C
  3
DIFFUSETILE
360
1B
  3
OPACITYTILE
360
1F
  3
REFLECTIONTILE
360
1E
  3
REFRACTIONTILE
360
20
  3
SPECULARTILE
360
1D
  0
DICTIONARY
  5
12
330
11
100
AcDbDictionary
280
     1
281
     1
  3
BUMPTILE
360
14
  3
DIFFUSETILE
360
13
  3
OPACITYTILE
360
17
  3
REFLECTIONTILE
360
16
  3
REFRACTIONTILE
360
18
  3
SPECULARTILE
360
15
  0
DICTIONARY
  5
22
330
21
100
AcDbDictionary
280
     1
281
     1
  3
BUMPTILE
360
24
  3
DIFFUSETILE
360
23
  3
OPACITYTILE
360
27
  3
REFLECTIONTILE
360
26
  3
REFRACTIONTILE
360
28
  3
SPECULARTILE
360
25
  0
DICTIONARY
  5
207
330
65
100
AcDbDictionary
280
     1
281
     1
  3
ACAD_ROUNDTRIP_2008_TABLESTYLE_CELLSTYLEMAP
360
208
  0
XRECORD
  5
1C
102
{ACAD_REACTORS
330
1A
102
}
330
1A
100
AcDbXrecord
280
     1
270
     1
271
     1
  0
XRECORD
  5
1B
102
{ACAD_REACTORS
330
1A
102
}
330
1A
100
AcDbXrecord
280
     1
270
     1
271
     1
  0
XRECORD
  5
1F
102
{ACAD_REACTORS
330
1A
102
}
330
1A
100
AcDbXrecord
280
     1
270
     1
271
     1
  0
XRECORD
  5
1E
102
{ACAD_REACTORS
330
1A
102
}
330
1A
100
AcDbXrecord
280
     1
270
     1
271
     1
  0
XRECORD
  5
20
102
{ACAD_REACTORS
330
1A
102
}
330
1A
100
AcDbXrecord
280
     1
270
     1
271
     1
  0
XRECORD
  5
1D
102
{ACAD_REACTORS
330
1A
102
}
330
1A
100
AcDbXrecord
280
     1
270
     1
271
     1
  0
XRECORD
  5
14
102
{ACAD_REACTORS
330
12
102
}
330
12
100
AcDbXrecord
280
     1
270
     1
271
     1
  0
XRECORD
  5
13
102
{ACAD_REACTORS
330
12
102
}
330
12
100
AcDbXrecord
280
     1
270
     1
271
     1
  0
XRECORD
  5
17
102
{ACAD_REACTORS
330
12
102
}
330
12
100
AcDbXrecord
280
     1
270
     1
271
     1
  0
XRECORD
  5
16
102
{ACAD_REACTORS
330
12
102
}
330
12
100
AcDbXrecord
280
     1
270
     1
271
     1
  0
XRECORD
  5
18
102
{ACAD_REACTORS
330
12
102
}
330
12
100
AcDbXrecord
280
     1
270
     1
271
     1
  0
XRECORD
  5
15
102
{ACAD_REACTORS
330
12
102
}
330
12
100
AcDbXrecord
280
     1
270
     1
271
     1
  0
XRECORD
  5
24
102
{ACAD_REACTORS
330
22
102
}
330
22
100
AcDbXrecord
280
     1
270
     1
271
     1
  0
XRECORD
  5
23
102
{ACAD_REACTORS
330
22
102
}
330
22
100
AcDbXrecord
280
     1
270
     1
271
     1
  0
XRECORD
  5
27
102
{ACAD_REACTORS
330
22
102
}
330
22
100
AcDbXrecord
280
     1
270
     1
271
     1
  0
XRECORD
  5
26
102
{ACAD_REACTORS
330
22
102
}
330
22
100
AcDbXrecord
280
     1
270
     1
271
     1
  0
XRECORD
  5
28
102
{ACAD_REACTORS
330
22
102
}
330
22
100
AcDbXrecord
280
     1
270
     1
271
     1
  0
XRECORD
  5
25
102
{ACAD_REACTORS
330
22
102
}
330
22
100
AcDbXrecord
280
     1
270
     1
271
     1
  0
CELLSTYLEMAP
  5
208
102
{ACAD_REACTORS
330
207
102
}
330
207
100
AcDbCellStyleMap
 90
        3
300
CELLSTYLE
  1
TABLEFORMAT_BEGIN
 90
        5
170
     1
 91
        0
 92
    32768
 62
   257
 93
        1
300
CONTENTFORMAT
  1
CONTENTFORMAT_BEGIN
 90
        0
 91
        0
 92
      512
 93
        0
300

 40
0.0
140
1.0
 94
        5
 62
     0
340
55
144
0.25
309
CONTENTFORMAT_END
171
     0
 94
        0
309
TABLEFORMAT_END
  1
CELLSTYLE_BEGIN
 90
        1
 91
        1
300
_TITLE
309
CELLSTYLE_END
300
CELLSTYLE
  1
TABLEFORMAT_BEGIN
 90
        5
170
     1
 91
        0
 92
        0
 62
   257
 93
        1
300
CONTENTFORMAT
  1
CONTENTFORMAT_BEGIN
 90
        0
 91
        0
 92
      512
 93
        0
300

 40
0.0
140
1.0
 94
        5
 62
     0
340
55
144
0.18
309
CONTENTFORMAT_END
171
     0
 94
        0
309
TABLEFORMAT_END
  1
CELLSTYLE_BEGIN
 90
        2
 91
        1
300
_HEADER
309
CELLSTYLE_END
300
CELLSTYLE
  1
TABLEFORMAT_BEGIN
 90
        5
170
     1
 91
        0
 92
        0
 62
   257
 93
        1
300
CONTENTFORMAT
  1
CONTENTFORMAT_BEGIN
 90
        0
 91
        0
 92
      512
 93
        0
300

 40
0.0
140
1.0
 94
        2
 62
     0
340
55
144
0.18
309
CONTENTFORMAT_END
171
     0
 94
        0
309
TABLEFORMAT_END
  1
CELLSTYLE_BEGIN
 90
        3
 91
        2
300
_DATA
309
CELLSTYLE_END
  0
ENDSEC
  0
EOF
