  0
SECTION
  2
HEADER
  9
$ACADVER
  1
AC1027
  9
$ACADMAINTVER
 70
    20
  9
$DWGCODEPAGE
  3
ANSI_1252
  9
$REQUIREDVERSIONS
160
                 0
  9
$INSBASE
 10
0.0
 20
0.0
 30
0.0
  9
$EXTMIN
 10
730.6664074431205
 20
-0.000000000041149
 30
-0.00000001
  9
$EXTMAX
 10
3627.314353943097
 20
1760.000000000284
 30
0.00000001
  9
$LIMMIN
 10
0.0
 20
0.0
  9
$LIMMAX
 10
12.0
 20
9.0
  9
$ORTHOMODE
 70
     0
  9
$REGENMODE
 70
     1
  9
$FILLMODE
 70
     1
  9
$QTEXTMODE
 70
     0
  9
$MIRRTEXT
 70
     0
  9
$LTSCALE
 40
1.0
  9
$ATTMODE
 70
     1
  9
$TEXTSIZE
 40
0.2
  9
$TRACEWID
 40
0.05
  9
$TEXTSTYLE
  7
Standard
  9
$CLAYER
  8
0
  9
$CELTYPE
  6
ByLayer
  9
$CECOLOR
 62
   256
  9
$CELTSCALE
 40
1.0
  9
$DISPSILH
 70
     0
  9
$DIMSCALE
 40
1.0
  9
$DIMASZ
 40
0.18
  9
$DIMEXO
 40
0.0625
  9
$DIMDLI
 40
0.38
  9
$DIMRND
 40
0.0
  9
$DIMDLE
 40
0.0
  9
$DIMEXE
 40
0.18
  9
$DIMTP
 40
0.0
  9
$DIMTM
 40
0.0
  9
$DIMTXT
 40
0.18
  9
$DIMCEN
 40
0.09
  9
$DIMTSZ
 40
0.0
  9
$DIMTOL
 70
     0
  9
$DIMLIM
 70
     0
  9
$DIMTIH
 70
     1
  9
$DIMTOH
 70
     1
  9
$DIMSE1
 70
     0
  9
$DIMSE2
 70
     0
  9
$DIMTAD
 70
     0
  9
$DIMZIN
 70
     0
  9
$DIMBLK
  1

  9
$DIMASO
 70
     1
  9
$DIMSHO
 70
     1
  9
$DIMPOST
  1

  9
$DIMAPOST
  1

  9
$DIMALT
 70
     0
  9
$DIMALTD
 70
     2
  9
$DIMALTF
 40
25.4
  9
$DIMLFAC
 40
1.0
  9
$DIMTOFL
 70
     0
  9
$DIMTVP
 40
0.0
  9
$DIMTIX
 70
     0
  9
$DIMSOXD
 70
     0
  9
$DIMSAH
 70
     0
  9
$DIMBLK1
  1

  9
$DIMBLK2
  1

  9
$DIMSTYLE
  2
Standard
  9
$DIMCLRD
 70
     0
  9
$DIMCLRE
 70
     0
  9
$DIMCLRT
 70
     0
  9
$DIMTFAC
 40
1.0
  9
$DIMGAP
 40
0.09
  9
$DIMJUST
 70
     0
  9
$DIMSD1
 70
     0
  9
$DIMSD2
 70
     0
  9
$DIMTOLJ
 70
     1
  9
$DIMTZIN
 70
     0
  9
$DIMALTZ
 70
     0
  9
$DIMALTTZ
 70
     0
  9
$DIMUPT
 70
     0
  9
$DIMDEC
 70
     4
  9
$DIMTDEC
 70
     4
  9
$DIMALTU
 70
     2
  9
$DIMALTTD
 70
     2
  9
$DIMTXSTY
  7
Standard
  9
$DIMAUNIT
 70
     0
  9
$DIMADEC
 70
     0
  9
$DIMALTRND
 40
0.0
  9
$DIMAZIN
 70
     0
  9
$DIMDSEP
 70
    46
  9
$DIMATFIT
 70
     3
  9
$DIMFRAC
 70
     0
  9
$DIMLDRBLK
  1

  9
$DIMLUNIT
 70
     2
  9
$DIMLWD
 70
    -2
  9
$DIMLWE
 70
    -2
  9
$DIMTMOVE
 70
     0
  9
$DIMFXL
 40
1.0
  9
$DIMFXLON
 70
     0
  9
$DIMJOGANG
 40
0.7853981633974483
  9
$DIMTFILL
 70
     0
  9
$DIMTFILLCLR
 70
     0
  9
$DIMARCSYM
 70
     0
  9
$DIMLTYPE
  6

  9
$DIMLTEX1
  6

  9
$DIMLTEX2
  6

  9
$DIMTXTDIRECTION
 70
     0
  9
$LUNITS
 70
     2
  9
$LUPREC
 70
     4
  9
$SKETCHINC
 40
0.1
  9
$FILLETRAD
 40
0.0
  9
$AUNITS
 70
     0
  9
$AUPREC
 70
     0
  9
$MENU
  1
.
  9
$ELEVATION
 40
0.0
  9
$PELEVATION
 40
0.0
  9
$THICKNESS
 40
0.0
  9
$LIMCHECK
 70
     0
  9
$CHAMFERA
 40
0.0
  9
$CHAMFERB
 40
0.0
  9
$CHAMFERC
 40
0.0
  9
$CHAMFERD
 40
0.0
  9
$SKPOLY
 70
     0
  9
$TDCREATE
 40
2457571.626238148
  9
$TDUCREATE
 40
2457571.542904815
  9
$TDUPDATE
 40
2457571.626238148
  9
$TDUUPDATE
 40
2457571.542904815
  9
$TDINDWG
 40
0.0000715046
  9
$TDUSRTIMER
 40
0.0000715046
  9
$USRTIMER
 70
     1
  9
$ANGBASE
 50
0.0
  9
$ANGDIR
 70
     0
  9
$PDMODE
 70
     0
  9
$PDSIZE
 40
0.0
  9
$PLINEWID
 40
0.0
  9
$SPLFRAME
 70
     0
  9
$SPLINETYPE
 70
     6
  9
$SPLINESEGS
 70
     8
  9
$HANDSEED
  5
2DB
  9
$SURFTAB1
 70
     6
  9
$SURFTAB2
 70
     6
  9
$SURFTYPE
 70
     6
  9
$SURFU
 70
     6
  9
$SURFV
 70
     6
  9
$UCSBASE
  2

  9
$UCSNAME
  2

  9
$UCSORG
 10
0.0
 20
0.0
 30
0.0
  9
$UCSXDIR
 10
1.0
 20
0.0
 30
0.0
  9
$UCSYDIR
 10
0.0
 20
1.0
 30
0.0
  9
$UCSORTHOREF
  2

  9
$UCSORTHOVIEW
 70
     0
  9
$UCSORGTOP
 10
0.0
 20
0.0
 30
0.0
  9
$UCSORGBOTTOM
 10
0.0
 20
0.0
 30
0.0
  9
$UCSORGLEFT
 10
0.0
 20
0.0
 30
0.0
  9
$UCSORGRIGHT
 10
0.0
 20
0.0
 30
0.0
  9
$UCSORGFRONT
 10
0.0
 20
0.0
 30
0.0
  9
$UCSORGBACK
 10
0.0
 20
0.0
 30
0.0
  9
$PUCSBASE
  2

  9
$PUCSNAME
  2

  9
$PUCSORG
 10
0.0
 20
0.0
 30
0.0
  9
$PUCSXDIR
 10
1.0
 20
0.0
 30
0.0
  9
$PUCSYDIR
 10
0.0
 20
1.0
 30
0.0
  9
$PUCSORTHOREF
  2

  9
$PUCSORTHOVIEW
 70
     0
  9
$PUCSORGTOP
 10
0.0
 20
0.0
 30
0.0
  9
$PUCSORGBOTTOM
 10
0.0
 20
0.0
 30
0.0
  9
$PUCSORGLEFT
 10
0.0
 20
0.0
 30
0.0
  9
$PUCSORGRIGHT
 10
0.0
 20
0.0
 30
0.0
  9
$PUCSORGFRONT
 10
0.0
 20
0.0
 30
0.0
  9
$PUCSORGBACK
 10
0.0
 20
0.0
 30
0.0
  9
$USERI1
 70
     0
  9
$USERI2
 70
     0
  9
$USERI3
 70
     0
  9
$USERI4
 70
     0
  9
$USERI5
 70
     0
  9
$USERR1
 40
0.0
  9
$USERR2
 40
0.0
  9
$USERR3
 40
0.0
  9
$USERR4
 40
0.0
  9
$USERR5
 40
0.0
  9
$WORLDVIEW
 70
     1
  9
$SHADEDGE
 70
     3
  9
$SHADEDIF
 70
    70
  9
$TILEMODE
 70
     1
  9
$MAXACTVP
 70
    64
  9
$PINSBASE
 10
0.0
 20
0.0
 30
0.0
  9
$PLIMCHECK
 70
     0
  9
$PEXTMIN
 10
1.000000000000000E+20
 20
1.000000000000000E+20
 30
1.000000000000000E+20
  9
$PEXTMAX
 10
-1.000000000000000E+20
 20
-1.000000000000000E+20
 30
-1.000000000000000E+20
  9
$PLIMMIN
 10
0.0
 20
0.0
  9
$PLIMMAX
 10
12.0
 20
9.0
  9
$UNITMODE
 70
     0
  9
$VISRETAIN
 70
     1
  9
$PLINEGEN
 70
     0
  9
$PSLTSCALE
 70
     1
  9
$TREEDEPTH
 70
  3020
  9
$CMLSTYLE
  2
Standard
  9
$CMLJUST
 70
     0
  9
$CMLSCALE
 40
1.0
  9
$PROXYGRAPHICS
 70
     1
  9
$MEASUREMENT
 70
     1
  9
$CELWEIGHT
370
    -1
  9
$ENDCAPS
280
     0
  9
$JOINSTYLE
280
     0
  9
$LWDISPLAY
290
     0
  9
$INSUNITS
 70
     4
  9
$HYPERLINKBASE
  1

  9
$STYLESHEET
  1

  9
$XEDIT
290
     1
  9
$CEPSNTYPE
380
     0
  9
$PSTYLEMODE
290
     1
  9
$FINGERPRINTGUID
  2
{2BC6BDFF-85CA-4CB5-8B97-901A72BF46CF}
  9
$VERSIONGUID
  2
{0CBCF4BC-75FC-45A0-8DA6-812852638886}
  9
$EXTNAMES
290
     1
  9
$PSVPSCALE
 40
0.0
  9
$OLESTARTUP
290
     0
  9
$SORTENTS
280
   127
  9
$INDEXCTL
280
     0
  9
$HIDETEXT
280
     1
  9
$XCLIPFRAME
280
     2
  9
$HALOGAP
280
     0
  9
$OBSCOLOR
 70
   257
  9
$OBSLTYPE
280
     0
  9
$INTERSECTIONDISPLAY
280
     0
  9
$INTERSECTIONCOLOR
 70
   257
  9
$DIMASSOC
280
     2
  9
$PROJECTNAME
  1

  9
$CAMERADISPLAY
290
     0
  9
$LENSLENGTH
 40
50.0
  9
$CAMERAHEIGHT
 40
0.0
  9
$STEPSPERSEC
 40
2.0
  9
$STEPSIZE
 40
6.0
  9
$3DDWFPREC
 40
2.0
  9
$PSOLWIDTH
 40
0.25
  9
$PSOLHEIGHT
 40
4.0
  9
$LOFTANG1
 40
1.570796326794896
  9
$LOFTANG2
 40
1.570796326794896
  9
$LOFTMAG1
 40
0.0
  9
$LOFTMAG2
 40
0.0
  9
$LOFTPARAM
 70
     7
  9
$LOFTNORMALS
280
     1
  9
$LATITUDE
 40
37.795
  9
$LONGITUDE
 40
-122.394
  9
$NORTHDIRECTION
 40
0.0
  9
$TIMEZONE
 70
 -8000
  9
$LIGHTGLYPHDISPLAY
280
     1
  9
$TILEMODELIGHTSYNCH
280
     1
  9
$CMATERIAL
347
11
  9
$SOLIDHIST
280
     0
  9
$SHOWHIST
280
     1
  9
$DWFFRAME
280
     2
  9
$DGNFRAME
280
     0
  9
$REALWORLDSCALE
290
     1
  9
$INTERFERECOLOR
 62
     1
  9
$INTERFEREOBJVS
345
33
  9
$INTERFEREVPVS
346
30
  9
$CSHADOW
280
     0
  9
$SHADOWPLANELOCATION
 40
0.0
  0
ENDSEC
  0
SECTION
  2
CLASSES
  0
CLASS
  1
ACDBDICTIONARYWDFLT
  2
AcDbDictionaryWithDefault
  3
ObjectDBX Classes
 90
        0
 91
        1
280
     0
281
     0
  0
CLASS
  1
MATERIAL
  2
AcDbMaterial
  3
ObjectDBX Classes
 90
     1153
 91
        3
280
     0
281
     0
  0
CLASS
  1
VISUALSTYLE
  2
AcDbVisualStyle
  3
ObjectDBX Classes
 90
     4095
 91
       24
280
     0
281
     0
  0
CLASS
  1
SCALE
  2
AcDbScale
  3
ObjectDBX Classes
 90
     1153
 91
       17
280
     0
281
     0
  0
CLASS
  1
TABLESTYLE
  2
AcDbTableStyle
  3
ObjectDBX Classes
 90
     4095
 91
        1
280
     0
281
     0
  0
CLASS
  1
MLEADERSTYLE
  2
AcDbMLeaderStyle
  3
ACDB_MLEADERSTYLE_CLASS
 90
     4095
 91
        1
280
     0
281
     0
  0
CLASS
  1
ACDBSECTIONVIEWSTYLE
  2
AcDbSectionViewStyle
  3
ObjectDBX Classes
 90
     1025
 91
        1
280
     0
281
     0
  0
CLASS
  1
ACDBDETAILVIEWSTYLE
  2
AcDbDetailViewStyle
  3
ObjectDBX Classes
 90
     1025
 91
        1
280
     0
281
     0
  0
CLASS
  1
RASTERVARIABLES
  2
AcDbRasterVariables
  3
ISM
 90
        0
 91
        1
280
     0
281
     0
  0
CLASS
  1
DICTIONARYVAR
  2
AcDbDictionaryVar
  3
ObjectDBX Classes
 90
        0
 91
        5
280
     0
281
     0
  0
CLASS
  1
CELLSTYLEMAP
  2
AcDbCellStyleMap
  3
ObjectDBX Classes
 90
     1152
 91
        2
280
     0
281
     0
  0
CLASS
  1
SORTENTSTABLE
  2
AcDbSortentsTable
  3
ObjectDBX Classes
 90
        0
 91
        1
280
     0
281
     0
  0
ENDSEC
  0
SECTION
  2
TABLES
  0
TABLE
  2
VPORT
  5
8
330
0
100
AcDbSymbolTable
 70
     1
  0
VPORT
  5
57
330
8
100
AcDbSymbolTableRecord
100
AcDbViewportTableRecord
  2
*Active
 70
     0
 10
0.0
 20
0.0
 11
1.0
 21
1.0
 12
2178.990380693109
 22
880.0000000001421
 13
0.0
 23
0.0
 14
1.0
 24
1.0
 15
0.0
 25
0.0
 16
0.0
 26
0.0
 36
1.0
 17
0.0
 27
0.0
 37
0.0
 40
1760.000000000284
 41
1.64582269687472
 42
50.0
 43
0.0
 44
0.0
 50
0.0
 51
0.0
 71
     0
 72
  1000
 73
     1
 74
     1
 75
     0
 76
     0
 77
     0
 78
     0
281
     0
 65
     1
110
0.0
120
0.0
130
0.0
111
1.0
121
0.0
131
0.0
112
0.0
122
1.0
132
0.0
 79
     0
146
0.0
 60
     3
 61
     5
292
     1
282
     1
141
0.0
142
0.0
 63
   250
421
  3355443
  0
ENDTAB
  0
TABLE
  2
LTYPE
  5
5
330
0
100
AcDbSymbolTable
 70
     3
  0
LTYPE
  5
5B
330
5
100
AcDbSymbolTableRecord
100
AcDbLinetypeTableRecord
  2
ByBlock
 70
     0
  3

 72
    65
 73
     0
 40
0.0
  0
LTYPE
  5
5C
330
5
100
AcDbSymbolTableRecord
100
AcDbLinetypeTableRecord
  2
ByLayer
 70
     0
  3

 72
    65
 73
     0
 40
0.0
  0
LTYPE
  5
5D
330
5
100
AcDbSymbolTableRecord
100
AcDbLinetypeTableRecord
  2
Continuous
 70
     0
  3
Solid line
 72
    65
 73
     0
 40
0.0
  0
LTYPE
  5
69
330
5
100
AcDbSymbolTableRecord
100
AcDbLinetypeTableRecord
  2
PHANTOM2
 70
     0
  3
___ _ _ ___ _ _ ___ _ _ ___ _ _
 72
    65
 73
     6
 40
1.25
 49
0.625
 74
     0
 49
-0.125
 74
     0
 49
0.125
 74
     0
 49
-0.125
 74
     0
 49
0.125
 74
     0
 49
-0.125
 74
     0
  0
LTYPE
  5
86
330
5
100
AcDbSymbolTableRecord
100
AcDbLinetypeTableRecord
  2
Nascosto 1_5 mm
 70
     0
  3

 72
    65
 73
     2
 40
2.2
 49
1.5
 74
     0
 49
-0.7000000000000001
 74
     0
  0
ENDTAB
  0
TABLE
  2
LAYER
  5
2
330
0
100
AcDbSymbolTable
 70
     4
  0
LAYER
  5
54
330
2
100
AcDbSymbolTableRecord
100
AcDbLayerTableRecord
  2
0
 70
     0
 62
     7
  6
Continuous
370
    -3
390
F
347
21
348
0
  0
LAYER
  5
85
330
2
100
AcDbSymbolTableRecord
100
AcDbLayerTableRecord
  2
P-SANR-FIXT
 70
     0
 62
     6
  6
Continuous
370
    18
390
F
347
21
348
0
  0
LAYER
  5
88
330
2
100
AcDbSymbolTableRecord
100
AcDbLayerTableRecord
  2
M-PIPE
 70
     0
 62
     3
  6
Continuous
370
    18
390
F
347
21
348
0
  0
ENDTAB
  0
TABLE
  2
STYLE
  5
3
330
0
100
AcDbSymbolTable
 70
     2
  0
STYLE
  5
55
330
3
100
AcDbSymbolTableRecord
100
AcDbTextStyleTableRecord
  2
Standard
 70
     0
 40
0.0
 41
1.0
 50
0.0
 71
     0
 42
0.2
  3
txt
  4

  0
STYLE
  5
5A
330
3
100
AcDbSymbolTableRecord
100
AcDbTextStyleTableRecord
  2
Annotative
 70
     0
 40
0.0
 41
1.0
 50
0.0
 71
     0
 42
0.2
  3
txt
  4

1001
AcadAnnotative
1000
AnnotativeData
1002
{
1070
     1
1070
     1
1002
}
  0
ENDTAB
  0
TABLE
  2
VIEW
  5
6
330
0
100
AcDbSymbolTable
 70
     0
  0
ENDTAB
  0
TABLE
  2
UCS
  5
7
330
0
100
AcDbSymbolTable
 70
     0
  0
ENDTAB
  0
TABLE
  2
APPID
  5
9
330
0
100
AcDbSymbolTable
 70
     3
  0
APPID
  5
56
330
9
100
AcDbSymbolTableRecord
100
AcDbRegAppTableRecord
  2
ACAD
 70
     0
  0
APPID
  5
5E
330
9
100
AcDbSymbolTableRecord
100
AcDbRegAppTableRecord
  2
AcadAnnotative
 70
     0
  0
APPID
  5
79
330
9
100
AcDbSymbolTableRecord
100
AcDbRegAppTableRecord
  2
REVIT
 70
     0
  0
ENDTAB
  0
TABLE
  2
DIMSTYLE
  5
A
330
0
100
AcDbSymbolTable
 70
     2
100
AcDbDimStyleTable
 71
     0
  0
DIMSTYLE
105
58
330
A
100
AcDbSymbolTableRecord
100
AcDbDimStyleTableRecord
  2
Standard
 70
     0
340
55
  0
DIMSTYLE
105
59
330
A
100
AcDbSymbolTableRecord
100
AcDbDimStyleTableRecord
  2
Annotative
 70
     0
340
55
1001
AcadAnnotative
1000
AnnotativeData
1002
{
1070
     1
1070
     1
1002
}
  0
ENDTAB
  0
TABLE
  2
BLOCK_RECORD
  5
1
330
0
100
AcDbSymbolTable
 70
     3
  0
BLOCK_RECORD
  5
71
102
{ACAD_XDICTIONARY
360
2D6
102
}
330
1
100
AcDbSymbolTableRecord
100
AcDbBlockTableRecord
  2
*Model_Space
340
74
 70
     0
280
     1
281
     0
  0
BLOCK_RECORD
  5
6D
330
1
100
AcDbSymbolTableRecord
100
AcDbBlockTableRecord
  2
*Paper_Space
340
70
 70
     0
280
     1
281
     0
  0
BLOCK_RECORD
  5
75
330
1
100
AcDbSymbolTableRecord
100
AcDbBlockTableRecord
  2
*Paper_Space0
340
78
 70
     0
280
     1
281
     0
  0
BLOCK_RECORD
  5
87
330
1
100
AcDbSymbolTableRecord
100
AcDbBlockTableRecord
  2
Automatic flow rate regulator valve_Caleffi_121 DN15 - 2___Pressure gauge H-980146-Est - Idraulica
340
0
102
{BLKREFS
331
1B3
102
}
 70
     0
280
     1
281
     0
  0
BLOCK_RECORD
  5
1B4
330
1
100
AcDbSymbolTableRecord
100
AcDbBlockTableRecord
  2
Automatic flow rate regulator valve_Caleffi_121 DN15 - 2___Pressure gauge H-V1-Est - Idraulica
340
0
102
{BLKREFS
331
2CF
102
}
 70
     0
280
     1
281
     0
  0
ENDTAB
  0
ENDSEC
  0
SECTION
  2
BLOCKS
  0
BLOCK
  5
72
330
71
100
AcDbEntity
  8
0
100
AcDbBlockBegin
  2
*Model_Space
 70
     0
 10
0.0
 20
0.0
 30
0.0
  3
*Model_Space
  1

  0
ENDBLK
  5
73
330
71
100
AcDbEntity
  8
0
100
AcDbBlockEnd
  0
BLOCK
  5
6E
330
6D
100
AcDbEntity
 67
     1
  8
0
100
AcDbBlockBegin
  2
*Paper_Space
 70
     0
 10
0.0
 20
0.0
 30
0.0
  3
*Paper_Space
  1

  0
ENDBLK
  5
6F
330
6D
100
AcDbEntity
 67
     1
  8
0
100
AcDbBlockEnd
  0
BLOCK
  5
76
330
75
100
AcDbEntity
 67
     1
  8
0
100
AcDbBlockBegin
  2
*Paper_Space0
 70
     0
 10
0.0
 20
0.0
 30
0.0
  3
*Paper_Space0
  1

  0
ENDBLK
  5
77
330
75
100
AcDbEntity
 67
     1
  8
0
100
AcDbBlockEnd
  0
BLOCK
  5
1B1
330
87
100
AcDbEntity
  8
0
100
AcDbBlockBegin
  2
Automatic flow rate regulator valve_Caleffi_121 DN15 - 2___Pressure gauge H-980146-Est - Idraulica
 70
     0
 10
0.0
 20
0.0
 30
0.0
  3
Automatic flow rate regulator valve_Caleffi_121 DN15 - 2___Pressure gauge H-980146-Est - Idraulica
  1

  0
LINE
  5
89
330
87
100
AcDbEntity
  8
M-PIPE
100
AcDbLine
 10
1175.66640744312
 20
256.9999999999987
 30
0.0
 11
1177.614959259755
 21
256.9999999999987
 31
0.0
1001
REVIT
1002
{
1070
     3
1000
790271
1002
}
  0
LINE
  5
8A
330
87
100
AcDbEntity
  8
M-PIPE
100
AcDbLine
 10
1190.66640744312
 20
256.9999999999984
 30
0.0
 11
1200.66640744312
 21
256.9999999999984
 31
0.0
1001
REVIT
1002
{
1070
     3
1000
790271
1002
}
  0
LINE
  5
8B
330
87
100
AcDbEntity
  8
M-PIPE
100
AcDbLine
 10
1200.66640744312
 20
295.9999999999985
 30
0.0
 11
1175.66640744312
 21
295.9999999999985
 31
0.0
1001
REVIT
1002
{
1070
     3
1000
790271
1002
}
  0
LINE
  5
8C
330
87
100
AcDbEntity
  8
M-PIPE
100
AcDbLine
 10
1200.666407443119
 20
295.9999999999994
 30
0.0
 11
1200.666407443119
 21
256.9999999999994
 31
0.0
1001
REVIT
1002
{
1070
     3
1000
790271
1002
}
  0
LINE
  5
8D
330
87
100
AcDbEntity
  8
M-PIPE
100
AcDbLine
 10
1175.666407443118
 20
256.9999999999996
 30
0.0
 11
1175.666407443119
 21
295.9999999999996
 31
0.0
1001
REVIT
1002
{
1070
     3
1000
790271
1002
}
  0
LINE
  5
8E
330
87
100
AcDbEntity
  8
M-PIPE
100
AcDbLine
 10
1180.37429021697
 20
259.7593309572164
 30
0.0
 11
1190.666407443119
 21
259.7593309572163
 31
0.0
1001
REVIT
1002
{
1070
     3
1000
790271
1002
}
  0
LINE
  5
8F
330
87
100
AcDbEntity
  8
M-PIPE
100
AcDbLine
 10
1190.666407443119
 20
252.4999999999996
 30
0.0
 11
1190.666407443119
 21
256.9999999999997
 31
0.0
1001
REVIT
1002
{
1070
     3
1000
790271
1002
}
  0
LINE
  5
90
330
87
100
AcDbEntity
  8
M-PIPE
100
AcDbLine
 10
1190.666407443119
 20
256.9999999999997
 30
0.0
 11
1190.666407443119
 21
259.7593309572162
 31
0.0
1001
REVIT
1002
{
1070
     3
1000
790271
1002
}
  0
LINE
  5
91
330
87
100
AcDbEntity
  8
M-PIPE
100
AcDbLine
 10
1180.37429021697
 20
259.7593309572163
 30
0.0
 11
1164.666407443119
 21
244.0514481833643
 31
0.0
1001
REVIT
1002
{
1070
     3
1000
790271
1002
}
  0
LINE
  5
92
330
87
100
AcDbEntity
  8
M-PIPE
100
AcDbLine
 10
1164.666407443119
 20
244.0514481833643
 30
0.0
 11
1164.666407443118
 21
109.9955122061566
 31
0.0
1001
REVIT
1002
{
1070
     3
1000
790271
1002
}
  0
LINE
  5
93
330
87
100
AcDbEntity
  8
M-PIPE
100
AcDbLine
 10
1164.666407443118
 20
109.9955122061566
 30
0.0
 11
1175.566407443118
 21
109.9955122061565
 31
0.0
1001
REVIT
1002
{
1070
     3
1000
790271
1002
}
  0
LINE
  5
94
330
87
100
AcDbEntity
  8
M-PIPE
100
AcDbLine
 10
1175.566407443118
 20
109.9955122061565
 30
0.0
 11
1175.566407443119
 21
243.7820109352364
 31
0.0
1001
REVIT
1002
{
1070
     3
1000
790271
1002
}
  0
LINE
  5
95
330
87
100
AcDbEntity
  8
M-PIPE
100
AcDbLine
 10
1175.566407443119
 20
243.7820109352364
 30
0.0
 11
1190.666407443119
 21
252.4999999999996
 31
0.0
1001
REVIT
1002
{
1070
     3
1000
790271
1002
}
  0
LINE
  5
96
330
87
100
AcDbEntity
  8
M-PIPE
100
AcDbLine
 10
1241.325173425241
 20
215.0000000000638
 30
0.0
 11
1241.325173425241
 21
234.0000000000639
 31
0.0
1001
REVIT
1002
{
1070
     3
1000
790271
1002
}
  0
LINE
  5
97
330
87
100
AcDbEntity
  8
M-PIPE
100
AcDbLine
 10
1221.983939407402
 20
328.4999999999992
 30
0.0
 11
1241.325173425255
 21
328.4999999999992
 31
0.0
1001
REVIT
1002
{
1070
     3
1000
790271
1002
}
  0
LINE
  5
98
330
87
100
AcDbEntity
  8
M-PIPE
100
AcDbLine
 10
1241.325173425255
 20
328.4999999999992
 30
0.0
 11
1280.007641460959
 21
328.499999999999
 31
0.0
1001
REVIT
1002
{
1070
     3
1000
790271
1002
}
  0
LINE
  5
99
330
87
100
AcDbEntity
  8
M-PIPE
100
AcDbLine
 10
1280.007641460959
 20
328.499999999999
 30
0.0
 11
1299.348875478812
 21
328.499999999999
 31
0.0
1001
REVIT
1002
{
1070
     3
1000
790271
1002
}
  0
LINE
  5
9A
330
87
100
AcDbEntity
  8
M-PIPE
100
AcDbLine
 10
1299.348875478837
 20
215.0000000000637
 30
0.0
 11
1280.007641460972
 21
215.0000000000638
 31
0.0
1001
REVIT
1002
{
1070
     3
1000
790271
1002
}
  0
LINE
  5
9B
330
87
100
AcDbEntity
  8
M-PIPE
100
AcDbLine
 10
1280.007641460972
 20
215.0000000000638
 30
0.0
 11
1241.325173425241
 21
215.0000000000638
 31
0.0
1001
REVIT
1002
{
1070
     3
1000
790271
1002
}
  0
LINE
  5
9C
330
87
100
AcDbEntity
  8
M-PIPE
100
AcDbLine
 10
1221.983939407375
 20
215.0000000000639
 30
0.0
 11
1241.325173425241
 21
215.0000000000638
 31
0.0
1001
REVIT
1002
{
1070
     3
1000
790271
1002
}
  0
LINE
  5
9D
330
87
100
AcDbEntity
  8
M-PIPE
100
AcDbLine
 10
1241.325173425241
 20
234.0000000000639
 30
0.0
 11
1221.983939407375
 21
234.0000000000639
 31
0.0
1001
REVIT
1002
{
1070
     3
1000
790271
1002
}
  0
LINE
  5
9E
330
87
100
AcDbEntity
  8
M-PIPE
100
AcDbLine
 10
1241.325173425241
 20
234.0000000000639
 30
0.0
 11
1280.007641460972
 21
234.0000000000638
 31
0.0
1001
REVIT
1002
{
1070
     3
1000
790271
1002
}
  0
LINE
  5
9F
330
87
100
AcDbEntity
  8
M-PIPE
100
AcDbLine
 10
1280.007641460972
 20
234.0000000000638
 30
0.0
 11
1299.348875478837
 21
234.0000000000637
 31
0.0
1001
REVIT
1002
{
1070
     3
1000
790271
1002
}
  0
LINE
  5
A0
330
87
100
AcDbEntity
  8
M-PIPE
100
AcDbLine
 10
1299.348875478837
 20
215.0000000000637
 30
0.0
 11
1299.348875478837
 21
234.0000000000637
 31
0.0
1001
REVIT
1002
{
1070
     3
1000
790271
1002
}
  0
LINE
  5
A1
330
87
100
AcDbEntity
  8
M-PIPE
100
AcDbLine
 10
1280.007641460972
 20
234.0000000000638
 30
0.0
 11
1280.007641460972
 21
215.0000000000638
 31
0.0
1001
REVIT
1002
{
1070
     3
1000
790271
1002
}
  0
LINE
  5
A2
330
87
100
AcDbEntity
  8
M-PIPE
100
AcDbLine
 10
1221.983939407375
 20
234.0000000000639
 30
0.0
 11
1221.983939407375
 21
215.0000000000639
 31
0.0
1001
REVIT
1002
{
1070
     3
1000
790271
1002
}
  0
LINE
  5
A3
330
87
100
AcDbEntity
  8
M-PIPE
100
AcDbLine
 10
1299.348875478812
 20
310.4999999999989
 30
0.0
 11
1299.348875478812
 21
328.4999999999989
 31
0.0
1001
REVIT
1002
{
1070
     3
1000
790271
1002
}
  0
LINE
  5
A4
330
87
100
AcDbEntity
  8
M-PIPE
100
AcDbLine
 10
1280.007641460959
 20
328.499999999999
 30
0.0
 11
1280.007641460959
 21
310.499999999999
 31
0.0
1001
REVIT
1002
{
1070
     3
1000
790271
1002
}
  0
LINE
  5
A5
330
87
100
AcDbEntity
  8
M-PIPE
100
AcDbLine
 10
1241.325173425255
 20
328.4999999999991
 30
0.0
 11
1241.325173425255
 21
310.4999999999991
 31
0.0
1001
REVIT
1002
{
1070
     3
1000
790271
1002
}
  0
LINE
  5
A6
330
87
100
AcDbEntity
  8
M-PIPE
100
AcDbLine
 10
1221.983939407402
 20
328.4999999999992
 30
0.0
 11
1221.983939407402
 21
310.4999999999992
 31
0.0
1001
REVIT
1002
{
1070
     3
1000
790271
1002
}
  0
LINE
  5
A7
330
87
100
AcDbEntity
  8
M-PIPE
100
AcDbLine
 10
1294.166407443124
 20
234.0000000000624
 30
0.0
 11
1294.166407443123
 21
242.1000000000032
 31
0.0
1001
REVIT
1002
{
1070
     3
1000
790271
1002
}
  0
LINE
  5
A8
330
87
100
AcDbEntity
  8
M-PIPE
100
AcDbLine
 10
1227.166407443108
 20
242.0999999999967
 30
0.0
 11
1227.166407443109
 21
234.0000000000627
 31
0.0
1001
REVIT
1002
{
1070
     3
1000
790271
1002
}
  0
LINE
  5
A9
330
87
100
AcDbEntity
  8
M-PIPE
100
AcDbLine
 10
1294.166407443115
 20
242.1000000000032
 30
0.0
 11
1302.666407443114
 21
250.6000000000023
 31
0.0
1001
REVIT
1002
{
1070
     3
1000
790271
1002
}
  0
LINE
  5
AA
330
87
100
AcDbEntity
  8
M-PIPE
100
AcDbLine
 10
1218.666407443114
 20
250.5999999999939
 30
0.0
 11
1227.166407443115
 21
242.0999999999967
 31
0.0
1001
REVIT
1002
{
1070
     3
1000
790271
1002
}
  0
LINE
  5
AB
330
87
100
AcDbEntity
  8
M-PIPE
100
AcDbLine
 10
1302.666407443114
 20
250.6000000000023
 30
0.0
 11
1302.666407443109
 21
310.5000000000022
 31
0.0
1001
REVIT
1002
{
1070
     3
1000
790271
1002
}
  0
LINE
  5
AC
330
87
100
AcDbEntity
  8
M-PIPE
100
AcDbLine
 10
1218.666407443109
 20
310.4999999999939
 30
0.0
 11
1218.666407443111
 21
291.426986727874
 31
0.0
1001
REVIT
1002
{
1070
     3
1000
790271
1002
}
  0
LINE
  5
AD
330
87
100
AcDbEntity
  8
M-PIPE
100
AcDbLine
 10
1218.666407443113
 20
261.5730132721233
 30
0.0
 11
1218.666407443114
 21
250.5999999999939
 31
0.0
1001
REVIT
1002
{
1070
     3
1000
790271
1002
}
  0
LINE
  5
AE
330
87
100
AcDbEntity
  8
M-PIPE
100
AcDbLine
 10
1218.666407443107
 20
310.4999999999949
 30
0.0
 11
1302.666407443107
 21
310.5000000000032
 31
0.0
1001
REVIT
1002
{
1070
     3
1000
790271
1002
}
  0
LINE
  5
AF
330
87
100
AcDbEntity
  8
M-PIPE
100
AcDbLine
 10
1294.166407443114
 20
242.1000000000044
 30
0.0
 11
1227.166407443113
 21
242.0999999999977
 31
0.0
1001
REVIT
1002
{
1070
     3
1000
790271
1002
}
  0
LINE
  5
B0
330
87
100
AcDbEntity
  8
M-PIPE
100
AcDbLine
 10
1302.666407443113
 20
250.6000000000032
 30
0.0
 11
1218.666407443113
 21
250.5999999999949
 31
0.0
1001
REVIT
1002
{
1070
     3
1000
790271
1002
}
  0
LINE
  5
B1
330
87
100
AcDbEntity
  8
M-PIPE
100
AcDbLine
 10
1200.66640744312
 20
261.4999999999982
 30
0.0
 11
1218.704907922761
 21
261.4999999999982
 31
0.0
1001
REVIT
1002
{
1070
     3
1000
790271
1002
}
  0
LINE
  5
B2
330
87
100
AcDbEntity
  8
M-PIPE
100
AcDbLine
 10
1218.704907922757
 20
291.4999999999982
 30
0.0
 11
1200.66640744312
 21
291.4999999999984
 31
0.0
1001
REVIT
1002
{
1070
     3
1000
790271
1002
}
  0
LINE
  5
B3
330
87
100
AcDbEntity
  8
M-PIPE
100
AcDbLine
 10
827.9664074431313
 20
968.7000000001573
 30
0.0
 11
827.9664074431313
 21
966.2000000001572
 31
0.0
1001
REVIT
1002
{
1070
     3
1000
790271
1002
}
  0
LINE
  5
B4
330
87
100
AcDbEntity
  8
M-PIPE
100
AcDbLine
 10
852.9664074431194
 20
966.2000000001565
 30
0.0
 11
852.9664074431194
 21
968.7000000001566
 31
0.0
1001
REVIT
1002
{
1070
     3
1000
790271
1002
}
  0
LINE
  5
B5
330
87
100
AcDbEntity
  8
M-PIPE
100
AcDbLine
 10
828.466407443131
 20
969.2000000001572
 30
0.0
 11
827.9664074431311
 21
968.7000000001573
 31
0.0
1001
REVIT
1002
{
1070
     3
1000
790271
1002
}
  0
LINE
  5
B6
330
87
100
AcDbEntity
  8
M-PIPE
100
AcDbLine
 10
852.9664074431194
 20
968.7000000001566
 30
0.0
 11
852.4664074431195
 21
969.2000000001566
 31
0.0
1001
REVIT
1002
{
1070
     3
1000
790271
1002
}
  0
LINE
  5
B7
330
87
100
AcDbEntity
  8
M-PIPE
100
AcDbLine
 10
831.4664074431254
 20
973.5000000001898
 30
0.0
 11
830.0741025977222
 21
972.6961524229023
 31
0.0
1001
REVIT
1002
{
1070
     3
1000
790271
1002
}
  0
LINE
  5
B8
330
87
100
AcDbEntity
  8
M-PIPE
100
AcDbLine
 10
850.8587122885611
 20
972.6961524228828
 30
0.0
 11
849.4664074431252
 21
973.5000000001891
 31
0.0
1001
REVIT
1002
{
1070
     3
1000
790271
1002
}
  0
LINE
  5
B9
330
87
100
AcDbEntity
  8
M-PIPE
100
AcDbLine
 10
852.9664074431179
 20
966.2000000001569
 30
0.0
 11
827.9664074431298
 21
966.2000000001578
 31
0.0
1001
REVIT
1002
{
1070
     3
1000
790271
1002
}
  0
LINE
  5
BA
330
87
100
AcDbEntity
  8
M-PIPE
100
AcDbLine
 10
828.4664074431297
 20
969.2000000001575
 30
0.0
 11
852.466407443118
 21
969.200000000157
 31
0.0
1001
REVIT
1002
{
1070
     3
1000
790271
1002
}
  0
LINE
  5
BB
330
87
100
AcDbEntity
  8
M-PIPE
100
AcDbLine
 10
852.9664074431181
 20
968.7000000001569
 30
0.0
 11
827.9664074431298
 21
968.7000000001576
 31
0.0
1001
REVIT
1002
{
1070
     3
1000
790271
1002
}
  0
LINE
  5
BC
330
87
100
AcDbEntity
  8
M-PIPE
100
AcDbLine
 10
831.4664074431242
 20
973.5000000001901
 30
0.0
 11
832.6721788090642
 21
973.5000000001901
 31
0.0
1001
REVIT
1002
{
1070
     3
1000
790271
1002
}
  0
LINE
  5
BD
330
87
100
AcDbEntity
  8
M-PIPE
100
AcDbLine
 10
832.6721788090642
 20
973.5000000001901
 30
0.0
 11
840.466407443124
 21
973.5000000001896
 31
0.0
1001
REVIT
1002
{
1070
     3
1000
790271
1002
}
  0
LINE
  5
BE
330
87
100
AcDbEntity
  8
M-PIPE
100
AcDbLine
 10
840.466407443124
 20
973.5000000001896
 30
0.0
 11
848.2606360771839
 21
973.5000000001894
 31
0.0
1001
REVIT
1002
{
1070
     3
1000
790271
1002
}
  0
LINE
  5
BF
330
87
100
AcDbEntity
  8
M-PIPE
100
AcDbLine
 10
848.2606360771839
 20
973.5000000001894
 30
0.0
 11
849.4664074431241
 21
973.5000000001896
 31
0.0
1001
REVIT
1002
{
1070
     3
1000
790271
1002
}
  0
LINE
  5
C0
330
87
100
AcDbEntity
  8
M-PIPE
100
AcDbLine
 10
845.6625598658428
 20
969.2000000001264
 30
0.0
 11
845.662559865843
 21
972.696152422884
 31
0.0
1001
REVIT
1002
{
1070
     3
1000
790271
1002
}
  0
SPLINE
  5
C1
330
87
100
AcDbEntity
  8
M-PIPE
100
AcDbSpline
210
0.0
220
0.0
230
1.0
 70
     8
 71
     3
 72
     9
 73
     5
 74
     0
 42
0.000000001
 43
0.0000000001
 40
0.0
 40
0.0
 40
0.0
 40
0.0
 40
0.5
 40
1.0
 40
1.0
 40
1.0
 40
1.0
 10
845.662559865843
 20
972.696152422884
 30
0.0
 10
844.8028211263332
 20
972.9556181933501
 30
0.0
 10
843.0770569830373
 20
973.3490585600339
 30
0.0
 10
841.3387195111877
 20
973.4915165782201
 30
0.0
 10
840.466407443124
 20
973.5000000001898
 30
0.0
1001
REVIT
1002
{
1070
     3
1000
790271
1002
}
  0
SPLINE
  5
C2
330
87
100
AcDbEntity
  8
M-PIPE
100
AcDbSpline
210
0.0
220
0.0
230
1.0
 70
     8
 71
     3
 72
     9
 73
     5
 74
     0
 42
0.000000001
 43
0.0000000001
 40
0.0
 40
0.0
 40
0.0
 40
0.0
 40
0.5
 40
1.0
 40
1.0
 40
1.0
 40
1.0
 10
840.466407443124
 20
973.5000000001896
 30
0.0
 10
839.5940953750651
 20
973.4915165782208
 30
0.0
 10
837.8557579032239
 20
973.349058560036
 30
0.0
 10
836.1299937599355
 20
972.9556181933556
 30
0.0
 10
835.2702550204295
 20
972.6961524228915
 30
0.0
1001
REVIT
1002
{
1070
     3
1000
790271
1002
}
  0
LINE
  5
C3
330
87
100
AcDbEntity
  8
M-PIPE
100
AcDbLine
 10
835.2702550204295
 20
972.6961524228915
 30
0.0
 11
835.2702550204295
 21
969.2000000001266
 31
0.0
1001
REVIT
1002
{
1070
     3
1000
790271
1002
}
  0
SPLINE
  5
C4
330
87
100
AcDbEntity
  8
M-PIPE
100
AcDbSpline
210
0.0
220
0.0
230
1.0
 70
     8
 71
     3
 72
     9
 73
     5
 74
     0
 42
0.000000001
 43
0.0000000001
 40
0.0
 40
0.0
 40
0.0
 40
0.0
 40
0.5
 40
1.0
 40
1.0
 40
1.0
 40
1.0
 10
835.2702550204295
 20
972.6961524228915
 30
0.0
 10
834.8403856506743
 20
972.9556181933608
 30
0.0
 10
833.9775035790255
 20
973.3490585600463
 30
0.0
 10
833.1083348430988
 20
973.4915165782261
 30
0.0
 10
832.672178809066
 20
973.5000000001901
 30
0.0
1001
REVIT
1002
{
1070
     3
1000
790271
1002
}
  0
SPLINE
  5
C5
330
87
100
AcDbEntity
  8
M-PIPE
100
AcDbSpline
210
0.0
220
0.0
230
1.0
 70
     8
 71
     3
 72
     9
 73
     5
 74
     0
 42
0.000000001
 43
0.0000000001
 40
0.0
 40
0.0
 40
0.0
 40
0.0
 40
0.5
 40
1.0
 40
1.0
 40
1.0
 40
1.0
 10
832.672178809066
 20
973.5000000001901
 30
0.0
 10
832.2360227750358
 20
973.4915165782256
 30
0.0
 10
831.3668540391141
 20
973.3490585600476
 30
0.0
 10
830.5039719674686
 20
972.9556181933697
 30
0.0
 10
830.0741025977155
 20
972.6961524229063
 30
0.0
1001
REVIT
1002
{
1070
     3
1000
790271
1002
}
  0
LINE
  5
C6
330
87
100
AcDbEntity
  8
M-PIPE
100
AcDbLine
 10
830.074102597727
 20
972.6961524229061
 30
0.0
 11
830.0741025977229
 21
969.2000000001268
 31
0.0
1001
REVIT
1002
{
1070
     3
1000
790271
1002
}
  0
LINE
  5
C7
330
87
100
AcDbEntity
  8
M-PIPE
100
AcDbLine
 10
850.8587122885536
 20
972.6961524228869
 30
0.0
 11
850.8587122885497
 21
969.2000000001266
 31
0.0
1001
REVIT
1002
{
1070
     3
1000
790271
1002
}
  0
SPLINE
  5
C8
330
87
100
AcDbEntity
  8
M-PIPE
100
AcDbSpline
210
0.0
220
0.0
230
1.0
 70
     8
 71
     3
 72
     9
 73
     5
 74
     0
 42
0.000000001
 43
0.0000000001
 40
0.0
 40
0.0
 40
0.0
 40
0.0
 40
0.5
 40
1.0
 40
1.0
 40
1.0
 40
1.0
 10
850.8587122885536
 20
972.6961524228869
 30
0.0
 10
850.4288429187996
 20
972.9556181933517
 30
0.0
 10
849.5659608471536
 20
973.3490585600335
 30
0.0
 10
848.6967921112309
 20
973.4915165782201
 30
0.0
 10
848.2606360772004
 20
973.5000000001898
 30
0.0
1001
REVIT
1002
{
1070
     3
1000
790271
1002
}
  0
SPLINE
  5
C9
330
87
100
AcDbEntity
  8
M-PIPE
100
AcDbSpline
210
0.0
220
0.0
230
1.0
 70
     8
 71
     3
 72
     9
 73
     5
 74
     0
 42
0.000000001
 43
0.0000000001
 40
0.0
 40
0.0
 40
0.0
 40
0.0
 40
0.5
 40
1.0
 40
1.0
 40
1.0
 40
1.0
 10
848.2606360772004
 20
973.5000000001896
 30
0.0
 10
847.8244800431692
 20
973.4915165782201
 30
0.0
 10
846.955311307245
 20
973.349058560033
 30
0.0
 10
846.0924292355976
 20
972.9556181933496
 30
0.0
 10
845.662559865843
 20
972.696152422884
 30
0.0
1001
REVIT
1002
{
1070
     3
1000
790271
1002
}
  0
LINE
  5
CA
330
87
100
AcDbEntity
  8
M-PIPE
100
AcDbLine
 10
1668.366407443135
 20
968.7000000001486
 30
0.0
 11
1668.366407443135
 21
966.2000000001485
 31
0.0
1001
REVIT
1002
{
1070
     3
1000
790271
1002
}
  0
LINE
  5
CB
330
87
100
AcDbEntity
  8
M-PIPE
100
AcDbLine
 10
1693.366407443123
 20
966.200000000148
 30
0.0
 11
1693.366407443123
 21
968.7000000001479
 31
0.0
1001
REVIT
1002
{
1070
     3
1000
790271
1002
}
  0
LINE
  5
CC
330
87
100
AcDbEntity
  8
M-PIPE
100
AcDbLine
 10
1668.866407443135
 20
969.2000000001485
 30
0.0
 11
1668.366407443135
 21
968.7000000001486
 31
0.0
1001
REVIT
1002
{
1070
     3
1000
790271
1002
}
  0
LINE
  5
CD
330
87
100
AcDbEntity
  8
M-PIPE
100
AcDbLine
 10
1693.366407443123
 20
968.700000000148
 30
0.0
 11
1692.866407443124
 21
969.2000000001481
 31
0.0
1001
REVIT
1002
{
1070
     3
1000
790271
1002
}
  0
LINE
  5
CE
330
87
100
AcDbEntity
  8
M-PIPE
100
AcDbLine
 10
1671.866407443129
 20
973.5000000001809
 30
0.0
 11
1670.474102597738
 21
972.6961524229004
 31
0.0
1001
REVIT
1002
{
1070
     3
1000
790271
1002
}
  0
LINE
  5
CF
330
87
100
AcDbEntity
  8
M-PIPE
100
AcDbLine
 10
1691.258712288562
 20
972.6961524228761
 30
0.0
 11
1689.86640744313
 21
973.5000000001809
 31
0.0
1001
REVIT
1002
{
1070
     3
1000
790271
1002
}
  0
LINE
  5
D0
330
87
100
AcDbEntity
  8
M-PIPE
100
AcDbLine
 10
1674.61640744313
 20
966.2000000001485
 30
0.0
 11
1668.366407443133
 21
966.2000000001489
 31
0.0
1001
REVIT
1002
{
1070
     3
1000
790271
1002
}
  0
LINE
  5
D1
330
87
100
AcDbEntity
  8
M-PIPE
100
AcDbLine
 10
1693.366407443121
 20
966.2000000001484
 30
0.0
 11
1674.61640744313
 21
966.2000000001485
 31
0.0
1001
REVIT
1002
{
1070
     3
1000
790271
1002
}
  0
LINE
  5
D2
330
87
100
AcDbEntity
  8
M-PIPE
100
AcDbLine
 10
1668.866407443133
 20
969.2000000001486
 30
0.0
 11
1674.86640744313
 21
969.2000000001485
 31
0.0
1001
REVIT
1002
{
1070
     3
1000
790271
1002
}
  0
LINE
  5
D3
330
87
100
AcDbEntity
  8
M-PIPE
100
AcDbLine
 10
1674.86640744313
 20
969.2000000001485
 30
0.0
 11
1692.866407443121
 21
969.2000000001485
 31
0.0
1001
REVIT
1002
{
1070
     3
1000
790271
1002
}
  0
LINE
  5
D4
330
87
100
AcDbEntity
  8
M-PIPE
100
AcDbLine
 10
1674.61640744313
 20
968.7000000001486
 30
0.0
 11
1668.366407443133
 21
968.7000000001487
 31
0.0
1001
REVIT
1002
{
1070
     3
1000
790271
1002
}
  0
LINE
  5
D5
330
87
100
AcDbEntity
  8
M-PIPE
100
AcDbLine
 10
1693.366407443121
 20
968.7000000001484
 30
0.0
 11
1674.61640744313
 21
968.7000000001486
 31
0.0
1001
REVIT
1002
{
1070
     3
1000
790271
1002
}
  0
LINE
  5
D6
330
87
100
AcDbEntity
  8
M-PIPE
100
AcDbLine
 10
1671.866407443127
 20
973.5000000001813
 30
0.0
 11
1673.072178809067
 21
973.5000000001813
 31
0.0
1001
REVIT
1002
{
1070
     3
1000
790271
1002
}
  0
LINE
  5
D7
330
87
100
AcDbEntity
  8
M-PIPE
100
AcDbLine
 10
1673.072178809067
 20
973.5000000001813
 30
0.0
 11
1676.366407443127
 21
973.5000000001813
 31
0.0
1001
REVIT
1002
{
1070
     3
1000
790271
1002
}
  0
LINE
  5
D8
330
87
100
AcDbEntity
  8
M-PIPE
100
AcDbLine
 10
1676.366407443127
 20
973.5000000001813
 30
0.0
 11
1680.866407443127
 21
973.5000000001811
 31
0.0
1001
REVIT
1002
{
1070
     3
1000
790271
1002
}
  0
LINE
  5
D9
330
87
100
AcDbEntity
  8
M-PIPE
100
AcDbLine
 10
1680.866407443127
 20
973.5000000001809
 30
0.0
 11
1688.660636077187
 21
973.5000000001809
 31
0.0
1001
REVIT
1002
{
1070
     3
1000
790271
1002
}
  0
LINE
  5
DA
330
87
100
AcDbEntity
  8
M-PIPE
100
AcDbLine
 10
1688.660636077187
 20
973.5000000001811
 30
0.0
 11
1689.866407443127
 21
973.5000000001811
 31
0.0
1001
REVIT
1002
{
1070
     3
1000
790271
1002
}
  0
LINE
  5
DB
330
87
100
AcDbEntity
  8
M-PIPE
100
AcDbLine
 10
1691.258712288561
 20
969.2000000001179
 30
0.0
 11
1691.258712288561
 21
972.6961524228757
 31
0.0
1001
REVIT
1002
{
1070
     3
1000
790271
1002
}
  0
SPLINE
  5
DC
330
87
100
AcDbEntity
  8
M-PIPE
100
AcDbSpline
210
0.0
220
0.0
230
1.0
 70
     8
 71
     3
 72
     9
 73
     5
 74
     0
 42
0.000000001
 43
0.0000000001
 40
0.0
 40
0.0
 40
0.0
 40
0.0
 40
0.5
 40
1.0
 40
1.0
 40
1.0
 40
1.0
 10
1691.258712288561
 20
972.6961524228757
 30
0.0
 10
1690.828842918806
 20
972.9556181933418
 30
0.0
 10
1689.965960847158
 20
973.3490585600254
 30
0.0
 10
1689.096792111233
 20
973.4915165782121
 30
0.0
 10
1688.660636077202
 20
973.5000000001809
 30
0.0
1001
REVIT
1002
{
1070
     3
1000
790271
1002
}
  0
SPLINE
  5
DD
330
87
100
AcDbEntity
  8
M-PIPE
100
AcDbSpline
210
0.0
220
0.0
230
1.0
 70
     8
 71
     3
 72
     9
 73
     5
 74
     0
 42
0.000000001
 43
0.0000000001
 40
0.0
 40
0.0
 40
0.0
 40
0.0
 40
0.5
 40
1.0
 40
1.0
 40
1.0
 40
1.0
 10
1688.660636077202
 20
973.5000000001809
 30
0.0
 10
1688.224480043172
 20
973.4915165782123
 30
0.0
 10
1687.355311307252
 20
973.349058560027
 30
0.0
 10
1686.492429235607
 20
972.9556181933467
 30
0.0
 10
1686.062559865854
 20
972.6961524228828
 30
0.0
1001
REVIT
1002
{
1070
     3
1000
790271
1002
}
  0
LINE
  5
DE
330
87
100
AcDbEntity
  8
M-PIPE
100
AcDbLine
 10
1686.062559865854
 20
972.6961524228828
 30
0.0
 11
1686.062559865854
 21
969.2000000001179
 31
0.0
1001
REVIT
1002
{
1070
     3
1000
790271
1002
}
  0
SPLINE
  5
DF
330
87
100
AcDbEntity
  8
M-PIPE
100
AcDbSpline
210
0.0
220
0.0
230
1.0
 70
     8
 71
     3
 72
     9
 73
     5
 74
     0
 42
0.000000001
 43
0.0000000001
 40
0.0
 40
0.0
 40
0.0
 40
0.0
 40
0.5
 40
1.0
 40
1.0
 40
1.0
 40
1.0
 10
1686.062559865854
 20
972.6961524228828
 30
0.0
 10
1685.202821126344
 20
972.9556181933519
 30
0.0
 10
1683.477056983046
 20
973.3490585600375
 30
0.0
 10
1681.738719511193
 20
973.4915165782172
 30
0.0
 10
1680.866407443127
 20
973.5000000001813
 30
0.0
1001
REVIT
1002
{
1070
     3
1000
790271
1002
}
  0
SPLINE
  5
E0
330
87
100
AcDbEntity
  8
M-PIPE
100
AcDbSpline
210
0.0
220
0.0
230
1.0
 70
     8
 71
     3
 72
     9
 73
     5
 74
     0
 42
0.000000001
 43
0.0000000001
 40
0.0
 40
0.0
 40
0.0
 40
0.0
 40
0.5
 40
1.0
 40
1.0
 40
1.0
 40
1.0
 10
1680.866407443127
 20
973.5000000001811
 30
0.0
 10
1679.994095375067
 20
973.4915165782167
 30
0.0
 10
1678.255757903223
 20
973.3490585600383
 30
0.0
 10
1676.529993759932
 20
972.9556181933606
 30
0.0
 10
1675.670255020426
 20
972.6961524228972
 30
0.0
1001
REVIT
1002
{
1070
     3
1000
790271
1002
}
  0
LINE
  5
E1
330
87
100
AcDbEntity
  8
M-PIPE
100
AcDbLine
 10
1675.670255020437
 20
972.6961524228972
 30
0.0
 11
1675.670255020441
 21
969.2000000001179
 31
0.0
1001
REVIT
1002
{
1070
     3
1000
790271
1002
}
  0
SPLINE
  5
E2
330
87
100
AcDbEntity
  8
M-PIPE
100
AcDbSpline
210
0.0
220
0.0
230
1.0
 70
     8
 71
     3
 72
     9
 73
     5
 74
     0
 42
0.000000001
 43
0.0000000001
 40
0.0
 40
0.0
 40
0.0
 40
0.0
 40
0.5
 40
1.0
 40
1.0
 40
1.0
 40
1.0
 10
1675.670255020437
 20
972.6961524228972
 30
0.0
 10
1675.240385650684
 20
972.9556181933665
 30
0.0
 10
1674.377503579038
 20
973.3490585600499
 30
0.0
 10
1673.508334843115
 20
973.4915165782227
 30
0.0
 10
1673.072178809084
 20
973.5000000001813
 30
0.0
1001
REVIT
1002
{
1070
     3
1000
790271
1002
}
  0
SPLINE
  5
E3
330
87
100
AcDbEntity
  8
M-PIPE
100
AcDbSpline
210
0.0
220
0.0
230
1.0
 70
     8
 71
     3
 72
     9
 73
     5
 74
     0
 42
0.000000001
 43
0.0000000001
 40
0.0
 40
0.0
 40
0.0
 40
0.0
 40
0.5
 40
1.0
 40
1.0
 40
1.0
 40
1.0
 10
1673.072178809084
 20
973.5000000001813
 30
0.0
 10
1672.636022775053
 20
973.4915165782226
 30
0.0
 10
1671.766854039131
 20
973.3490585600502
 30
0.0
 10
1670.903971967487
 20
972.9556181933686
 30
0.0
 10
1670.474102597735
 20
972.6961524229
 30
0.0
1001
REVIT
1002
{
1070
     3
1000
790271
1002
}
  0
LINE
  5
E4
330
87
100
AcDbEntity
  8
M-PIPE
100
AcDbLine
 10
1670.474102597735
 20
972.6961524229
 30
0.0
 11
1670.474102597735
 21
969.2000000001181
 31
0.0
1001
REVIT
1002
{
1070
     3
1000
790271
1002
}
  0
LINE
  5
E5
330
87
100
AcDbEntity
  8
M-PIPE
100
AcDbLine
 10
793.9616239138232
 20
5.999999999959381
 30
0.0
 11
793.9616239138232
 21
-0.0000000000281545
 31
0.0
1001
REVIT
1002
{
1070
     3
1000
790271
1002
}
  0
LINE
  5
E6
330
87
100
AcDbEntity
  8
M-PIPE
100
AcDbLine
 10
873.6026400652043
 20
-0.0000000000018858
 30
0.0
 11
934.2244183301145
 21
-0.000000000002112
 31
0.0
1001
REVIT
1002
{
1070
     3
1000
790271
1002
}
  0
LINE
  5
E7
330
87
100
AcDbEntity
  8
M-PIPE
100
AcDbLine
 10
934.2244183301145
 20
-0.000000000002112
 30
0.0
 11
934.2244183301145
 21
5.999999999959534
 31
0.0
1001
REVIT
1002
{
1070
     3
1000
790271
1002
}
  0
LINE
  5
E8
330
87
100
AcDbEntity
  8
M-PIPE
100
AcDbLine
 10
934.2244183301149
 20
5.999999999959517
 30
0.0
 11
1081.970552248008
 21
301.4922678357427
 31
0.0
1001
REVIT
1002
{
1070
     3
1000
790271
1002
}
  0
ELLIPSE
  5
E9
330
87
100
AcDbEntity
  8
M-PIPE
100
AcDbEllipse
 10
1006.970552248008
 20
351.4922678357428
 30
0.0
 11
0.0
 21
99.99999999999992
 31
0.0
210
0.0
220
0.0
230
1.0
 40
0.8660254037844373
 41
4.188790204786369
 42
4.712388980384671
1001
REVIT
1002
{
1070
     3
1000
790271
1002
}
  0
LINE
  5
EA
330
87
100
AcDbEntity
  8
M-PIPE
100
AcDbLine
 10
1093.573092626452
 20
351.492267835742
 30
0.0
 11
1093.573092626452
 21
385.7656704822657
 31
0.0
1001
REVIT
1002
{
1070
     3
1000
790271
1002
}
  0
ELLIPSE
  5
EB
330
87
100
AcDbEntity
  8
M-PIPE
100
AcDbEllipse
 10
1089.772715434112
 20
569.943351868382
 30
0.0
 11
0.0
 21
169.9999999999999
 31
0.0
210
0.0
220
0.0
230
0.9999999999999998
 40
0.8660254037844376
 41
2.440864132286274
 42
2.472914045487075
1001
REVIT
1002
{
1070
     3
1000
790271
1002
}
  0
LINE
  5
EC
330
87
100
AcDbEntity
  8
M-PIPE
100
AcDbLine
 10
994.846196595029
 20
439.9999999999964
 30
0.0
 11
994.846196595029
 21
448.1918613317068
 31
0.0
1001
REVIT
1002
{
1070
     3
1000
790271
1002
}
  0
LINE
  5
ED
330
87
100
AcDbEntity
  8
M-PIPE
100
AcDbLine
 10
993.9603835161575
 20
499.9999999999959
 30
0.0
 11
989.6500441723228
 21
499.9999999999959
 31
0.0
1001
REVIT
1002
{
1070
     3
1000
790271
1002
}
  0
LINE
  5
EE
330
87
100
AcDbEntity
  8
M-PIPE
100
AcDbLine
 10
989.6500441723228
 20
499.9999999999959
 30
0.0
 11
989.6500441723224
 21
439.9999999999961
 31
0.0
1001
REVIT
1002
{
1070
     3
1000
790271
1002
}
  0
LINE
  5
EF
330
87
100
AcDbEntity
  8
M-PIPE
100
AcDbLine
 10
989.6500441723224
 20
439.9999999999961
 30
0.0
 11
873.6026400652042
 21
5.999999999959787
 31
0.0
1001
REVIT
1002
{
1070
     3
1000
790271
1002
}
  0
LINE
  5
F0
330
87
100
AcDbEntity
  8
M-PIPE
100
AcDbLine
 10
873.6026400652042
 20
5.999999999959759
 30
0.0
 11
838.9616239138225
 21
5.999999999959888
 31
0.0
1001
REVIT
1002
{
1070
     3
1000
790271
1002
}
  0
LINE
  5
F1
330
87
100
AcDbEntity
  8
M-PIPE
100
AcDbLine
 10
838.9616239138225
 20
-0.0000000000273267
 30
0.0
 11
873.6026400652043
 21
-0.0000000000018858
 31
0.0
1001
REVIT
1002
{
1070
     3
1000
790271
1002
}
  0
LINE
  5
F2
330
87
100
AcDbEntity
  8
M-PIPE
100
AcDbLine
 10
838.6026400652037
 20
5.999999999960464
 30
0.0
 11
954.6500441723217
 21
439.9999999999968
 31
0.0
1001
REVIT
1002
{
1070
     3
1000
790271
1002
}
  0
LINE
  5
F3
330
87
100
AcDbEntity
  8
M-PIPE
100
AcDbLine
 10
954.6500441723217
 20
439.9999999999968
 30
0.0
 11
954.6500441723221
 21
499.9999999999966
 31
0.0
1001
REVIT
1002
{
1070
     3
1000
790271
1002
}
  0
LINE
  5
F4
330
87
100
AcDbEntity
  8
M-PIPE
100
AcDbLine
 10
838.9616239138227
 20
-0.0000000000398417
 30
0.0
 11
811.6411158381339
 21
-0.0000000000398417
 31
0.0
1001
REVIT
1002
{
1070
     3
1000
790271
1002
}
  0
LINE
  5
F5
330
87
100
AcDbEntity
  8
M-PIPE
100
AcDbLine
 10
811.6411158381382
 20
-0.0000000000398417
 30
0.0
 11
796.6411158381376
 21
-0.0000000000395334
 31
0.0
1001
REVIT
1002
{
1070
     3
1000
790271
1002
}
  0
LINE
  5
F6
330
87
100
AcDbEntity
  8
M-PIPE
100
AcDbLine
 10
796.6411158381332
 20
-0.0000000000266075
 30
0.0
 11
793.961623913822
 21
-0.0000000000266075
 31
0.0
1001
REVIT
1002
{
1070
     3
1000
790271
1002
}
  0
LINE
  5
F7
330
87
100
AcDbEntity
  8
M-PIPE
100
AcDbLine
 10
793.961623913822
 20
5.999999999960467
 30
0.0
 11
796.6411158381331
 21
5.999999999960467
 31
0.0
1001
REVIT
1002
{
1070
     3
1000
790271
1002
}
  0
LINE
  5
F8
330
87
100
AcDbEntity
  8
M-PIPE
100
AcDbLine
 10
811.6411158381339
 20
5.999999999959888
 30
0.0
 11
838.9616239138225
 21
5.999999999959888
 31
0.0
1001
REVIT
1002
{
1070
     3
1000
790271
1002
}
  0
LINE
  5
F9
330
87
100
AcDbEntity
  8
M-PIPE
100
AcDbLine
 10
796.6411158381332
 20
5.999999999960467
 30
0.0
 11
811.6411158381335
 21
5.999999999960158
 31
0.0
1001
REVIT
1002
{
1070
     3
1000
790271
1002
}
  0
LINE
  5
FA
330
87
100
AcDbEntity
  8
M-PIPE
100
AcDbLine
 10
989.6500441723228
 20
499.9999999999959
 30
0.0
 11
954.6500441723221
 21
499.9999999999966
 31
0.0
1001
REVIT
1002
{
1070
     3
1000
790271
1002
}
  0
LINE
  5
FB
330
87
100
AcDbEntity
  8
M-PIPE
100
AcDbLine
 10
954.6500441723217
 20
439.9999999999968
 30
0.0
 11
989.6500441723222
 21
439.9999999999961
 31
0.0
1001
REVIT
1002
{
1070
     3
1000
790271
1002
}
  0
LINE
  5
FC
330
87
100
AcDbEntity
  8
M-PIPE
100
AcDbLine
 10
1727.371190972442
 20
-0.000000000041149
 30
0.0
 11
1727.371190972442
 21
5.99999999995857
 31
0.0
1001
REVIT
1002
{
1070
     3
1000
790271
1002
}
  0
LINE
  5
FD
330
87
100
AcDbEntity
  8
M-PIPE
100
AcDbLine
 10
1566.682770713944
 20
499.9999999999959
 30
0.0
 11
1566.682770713944
 21
439.9999999999961
 31
0.0
1001
REVIT
1002
{
1070
     3
1000
790271
1002
}
  0
LINE
  5
FE
330
87
100
AcDbEntity
  8
M-PIPE
100
AcDbLine
 10
1566.682770713944
 20
439.9999999999961
 30
0.0
 11
1682.730174821057
 21
5.999999999959787
 31
0.0
1001
REVIT
1002
{
1070
     3
1000
790271
1002
}
  0
LINE
  5
FF
330
87
100
AcDbEntity
  8
M-PIPE
100
AcDbLine
 10
1587.108396556146
 20
5.999999999960253
 30
0.0
 11
1587.108396556146
 21
-0.0000000000013927
 31
0.0
1001
REVIT
1002
{
1070
     3
1000
790271
1002
}
  0
LINE
  5
100
330
87
100
AcDbEntity
  8
M-PIPE
100
AcDbLine
 10
1587.108396556146
 20
-0.0000000000013927
 30
0.0
 11
1647.730174821057
 21
-0.0000000000011665
 31
0.0
1001
REVIT
1002
{
1070
     3
1000
790271
1002
}
  0
LINE
  5
101
330
87
100
AcDbEntity
  8
M-PIPE
100
AcDbLine
 10
1647.730174821057
 20
-0.0000000000011665
 30
0.0
 11
1682.371190972439
 21
-0.0000000000266075
 31
0.0
1001
REVIT
1002
{
1070
     3
1000
790271
1002
}
  0
LINE
  5
102
330
87
100
AcDbEntity
  8
M-PIPE
100
AcDbLine
 10
1682.371190972439
 20
5.999999999960607
 30
0.0
 11
1647.730174821057
 21
5.999999999960478
 31
0.0
1001
REVIT
1002
{
1070
     3
1000
790271
1002
}
  0
LINE
  5
103
330
87
100
AcDbEntity
  8
M-PIPE
100
AcDbLine
 10
1647.730174821057
 20
5.999999999960464
 30
0.0
 11
1531.682770713943
 21
439.9999999999968
 31
0.0
1001
REVIT
1002
{
1070
     3
1000
790271
1002
}
  0
LINE
  5
104
330
87
100
AcDbEntity
  8
M-PIPE
100
AcDbLine
 10
1531.682770713943
 20
439.9999999999968
 30
0.0
 11
1531.682770713944
 21
499.9999999999966
 31
0.0
1001
REVIT
1002
{
1070
     3
1000
790271
1002
}
  0
LINE
  5
105
330
87
100
AcDbEntity
  8
M-PIPE
100
AcDbLine
 10
1531.682770713944
 20
499.9999999999966
 30
0.0
 11
1527.372431370087
 21
499.9999999999966
 31
0.0
1001
REVIT
1002
{
1070
     3
1000
790271
1002
}
  0
LINE
  5
106
330
87
100
AcDbEntity
  8
M-PIPE
100
AcDbLine
 10
1526.486618291237
 20
448.1300289525667
 30
0.0
 11
1526.486618291237
 21
439.9999999999971
 31
0.0
1001
REVIT
1002
{
1070
     3
1000
790271
1002
}
  0
ELLIPSE
  5
107
330
87
100
AcDbEntity
  8
M-PIPE
100
AcDbEllipse
 10
1431.560099452155
 20
569.9433518683828
 30
0.0
 11
0.0
 21
170.0000000000001
 31
0.0
210
0.0
220
0.0
230
0.9999999999999998
 40
0.8660254037844355
 41
3.80968866185246
 42
3.842321174893303
1001
REVIT
1002
{
1070
     3
1000
790271
1002
}
  0
LINE
  5
108
330
87
100
AcDbEntity
  8
M-PIPE
100
AcDbLine
 10
1427.759722259813
 20
385.7227368885089
 30
0.0
 11
1427.759722259813
 21
351.4922678357428
 31
0.0
1001
REVIT
1002
{
1070
     3
1000
790271
1002
}
  0
ELLIPSE
  5
109
330
87
100
AcDbEntity
  8
M-PIPE
100
AcDbEllipse
 10
1514.362262638256
 20
351.4922678357436
 30
0.0
 11
0.0000000000027595
 21
100.0
 31
0.0
210
0.0
220
0.0
230
1.0
 40
0.8660254037844376
 41
1.570796326794928
 42
2.094395102393226
1001
REVIT
1002
{
1070
     3
1000
790271
1002
}
  0
LINE
  5
10A
330
87
100
AcDbEntity
  8
M-PIPE
100
AcDbLine
 10
1439.362262638256
 20
301.4922678357434
 30
0.0
 11
1587.108396556146
 21
5.999999999960262
 31
0.0
1001
REVIT
1002
{
1070
     3
1000
790271
1002
}
  0
LINE
  5
10B
330
87
100
AcDbEntity
  8
M-PIPE
100
AcDbLine
 10
1727.371190972439
 20
-0.0000000000398417
 30
0.0
 11
1724.691699048128
 21
-0.0000000000398417
 31
0.0
1001
REVIT
1002
{
1070
     3
1000
790271
1002
}
  0
LINE
  5
10C
330
87
100
AcDbEntity
  8
M-PIPE
100
AcDbLine
 10
1724.691699048124
 20
-0.0000000000398417
 30
0.0
 11
1709.691699048123
 21
-0.0000000000395334
 31
0.0
1001
REVIT
1002
{
1070
     3
1000
790271
1002
}
  0
LINE
  5
10D
330
87
100
AcDbEntity
  8
M-PIPE
100
AcDbLine
 10
1709.691699048128
 20
-0.0000000000266075
 30
0.0
 11
1682.371190972439
 21
-0.0000000000266075
 31
0.0
1001
REVIT
1002
{
1070
     3
1000
790271
1002
}
  0
LINE
  5
10E
330
87
100
AcDbEntity
  8
M-PIPE
100
AcDbLine
 10
1682.371190972439
 20
5.999999999960467
 30
0.0
 11
1709.691699048128
 21
5.999999999960467
 31
0.0
1001
REVIT
1002
{
1070
     3
1000
790271
1002
}
  0
LINE
  5
10F
330
87
100
AcDbEntity
  8
M-PIPE
100
AcDbLine
 10
1724.691699048128
 20
5.999999999959888
 30
0.0
 11
1727.371190972439
 21
5.999999999959888
 31
0.0
1001
REVIT
1002
{
1070
     3
1000
790271
1002
}
  0
LINE
  5
110
330
87
100
AcDbEntity
  8
M-PIPE
100
AcDbLine
 10
1709.691699048128
 20
5.999999999960467
 30
0.0
 11
1724.691699048128
 21
5.999999999960158
 31
0.0
1001
REVIT
1002
{
1070
     3
1000
790271
1002
}
  0
LINE
  5
111
330
87
100
AcDbEntity
  8
M-PIPE
100
AcDbLine
 10
1566.682770713944
 20
499.9999999999959
 30
0.0
 11
1531.682770713944
 21
499.9999999999966
 31
0.0
1001
REVIT
1002
{
1070
     3
1000
790271
1002
}
  0
LINE
  5
112
330
87
100
AcDbEntity
  8
M-PIPE
100
AcDbLine
 10
1531.682770713943
 20
439.9999999999968
 30
0.0
 11
1566.682770713944
 21
439.9999999999961
 31
0.0
1001
REVIT
1002
{
1070
     3
1000
790271
1002
}
  0
LINE
  5
113
330
87
100
AcDbEntity
  8
M-PIPE
100
AcDbLine
 10
1225.666407443115
 20
-0.000000000002112
 30
0.0
 11
1225.666407443115
 21
5.999999999959534
 31
0.0
1001
REVIT
1002
{
1070
     3
1000
790271
1002
}
  0
LINE
  5
114
330
87
100
AcDbEntity
  8
M-PIPE
100
AcDbLine
 10
1225.666407443115
 20
5.999999999959517
 30
0.0
 11
1225.666407443114
 21
215.0000000000638
 31
0.0
1001
REVIT
1002
{
1070
     3
1000
790271
1002
}
  0
LINE
  5
115
330
87
100
AcDbEntity
  8
M-PIPE
100
AcDbLine
 10
1225.666407443114
 20
234.0000000000638
 30
0.0
 11
1225.666407443114
 21
243.5999999999969
 31
0.0
1001
REVIT
1002
{
1070
     3
1000
790271
1002
}
  0
LINE
  5
116
330
87
100
AcDbEntity
  8
M-PIPE
100
AcDbLine
 10
1225.666407443113
 20
328.4811391004492
 30
0.0
 11
1225.666407443113
 21
351.4922678357414
 31
0.0
1001
REVIT
1002
{
1070
     3
1000
790271
1002
}
  0
LINE
  5
117
330
87
100
AcDbEntity
  8
M-PIPE
100
AcDbLine
 10
1225.666407443113
 20
351.492267835742
 30
0.0
 11
1225.666407443113
 21
360.0423111458118
 31
0.0
1001
REVIT
1002
{
1070
     3
1000
790271
1002
}
  0
LINE
  5
118
330
87
100
AcDbEntity
  8
M-PIPE
100
AcDbLine
 10
1295.666407443116
 20
5.999999999960253
 30
0.0
 11
1295.666407443116
 21
-0.0000000000013927
 31
0.0
1001
REVIT
1002
{
1070
     3
1000
790271
1002
}
  0
LINE
  5
119
330
87
100
AcDbEntity
  8
M-PIPE
100
AcDbLine
 10
1295.666407443113
 20
360.0414581564092
 30
0.0
 11
1295.666407443113
 21
351.4922678357428
 31
0.0
1001
REVIT
1002
{
1070
     3
1000
790271
1002
}
  0
LINE
  5
11A
330
87
100
AcDbEntity
  8
M-PIPE
100
AcDbLine
 10
1295.666407443113
 20
351.4922678357428
 30
0.0
 11
1295.666407443113
 21
328.4811391004498
 31
0.0
1001
REVIT
1002
{
1070
     3
1000
790271
1002
}
  0
LINE
  5
11B
330
87
100
AcDbEntity
  8
M-PIPE
100
AcDbLine
 10
1295.666407443114
 20
243.6000000000045
 30
0.0
 11
1295.666407443114
 21
234.0000000000635
 31
0.0
1001
REVIT
1002
{
1070
     3
1000
790271
1002
}
  0
LINE
  5
11C
330
87
100
AcDbEntity
  8
M-PIPE
100
AcDbLine
 10
1295.666407443114
 20
215.0000000000638
 30
0.0
 11
1295.666407443116
 21
5.999999999960262
 31
0.0
1001
REVIT
1002
{
1070
     3
1000
790271
1002
}
  0
LINE
  5
11D
330
87
100
AcDbEntity
  8
M-PIPE
100
AcDbLine
 10
1295.666407443116
 20
-0.0000000000013927
 30
0.0
 11
1225.666407443115
 21
-0.000000000002112
 31
0.0
1001
REVIT
1002
{
1070
     3
1000
790271
1002
}
  0
LINE
  5
11E
330
87
100
AcDbEntity
  8
M-PIPE
100
AcDbLine
 10
1295.666407443116
 20
5.99999999996023
 30
0.0
 11
1225.666407443115
 21
5.999999999959485
 31
0.0
1001
REVIT
1002
{
1070
     3
1000
790271
1002
}
  0
LINE
  5
11F
330
87
100
AcDbEntity
  8
P-SANR-FIXT
100
AcDbLine
 10
850.4664074431005
 20
1418.500000000192
 30
0.0
 11
849.4643931990488
 21
1418.500000000192
 31
0.0
  0
LINE
  5
120
330
87
100
AcDbEntity
  8
P-SANR-FIXT
100
AcDbLine
 10
849.4643931990488
 20
1401.500000000193
 30
0.0
 11
850.4664074431005
 21
1401.500000000193
 31
0.0
  0
LINE
  5
121
330
87
100
AcDbEntity
  8
P-SANR-FIXT
100
AcDbLine
 10
849.4643931990488
 20
1417.661530855849
 30
0.0
 11
833.8291405072293
 21
1417.661530855849
 31
0.0
  0
LINE
  5
122
330
87
100
AcDbEntity
  8
P-SANR-FIXT
100
AcDbLine
 10
833.8291405072293
 20
1402.338469144535
 30
0.0
 11
849.4643931990488
 21
1402.338469144535
 31
0.0
  0
LINE
  5
123
330
87
100
AcDbEntity
  8
P-SANR-FIXT
100
AcDbLine
 10
833.8291405072293
 20
1418.457101704576
 30
0.0
 11
832.6680789395506
 21
1418.457101704576
 31
0.0
  0
LINE
  5
124
330
87
100
AcDbEntity
  8
P-SANR-FIXT
100
AcDbLine
 10
832.6680789395506
 20
1401.542898295809
 30
0.0
 11
833.8291405072293
 21
1401.542898295809
 31
0.0
  0
LINE
  5
125
330
87
100
AcDbEntity
  8
P-SANR-FIXT
100
AcDbLine
 10
832.6680789395506
 20
1415.773502692105
 30
0.0
 11
829.8601371203375
 21
1415.773502692105
 31
0.0
  0
LINE
  5
126
330
87
100
AcDbEntity
  8
P-SANR-FIXT
100
AcDbLine
 10
829.8601371203375
 20
1404.226497308279
 30
0.0
 11
832.6680789395506
 21
1404.226497308279
 31
0.0
  0
LINE
  5
127
330
87
100
AcDbEntity
  8
P-SANR-FIXT
100
AcDbLine
 10
829.8601371203375
 20
1412.06903586449
 30
0.0
 11
827.791150294983
 21
1412.06903586449
 31
0.0
  0
LINE
  5
128
330
87
100
AcDbEntity
  8
P-SANR-FIXT
100
AcDbLine
 10
827.791150294983
 20
1407.930964135895
 30
0.0
 11
829.8601371203375
 21
1407.930964135895
 31
0.0
  0
LINE
  5
129
330
87
100
AcDbEntity
  8
P-SANR-FIXT
100
AcDbLine
 10
850.4664074430991
 20
1418.500000000192
 30
0.0
 11
850.4664074430991
 21
1401.500000000193
 31
0.0
  0
LINE
  5
12A
330
87
100
AcDbEntity
  8
P-SANR-FIXT
100
AcDbLine
 10
849.4643931990474
 20
1418.500000000192
 30
0.0
 11
849.4643931990474
 21
1401.500000000193
 31
0.0
  0
LINE
  5
12B
330
87
100
AcDbEntity
  8
P-SANR-FIXT
100
AcDbLine
 10
833.8291405072281
 20
1418.457101704576
 30
0.0
 11
833.8291405072281
 21
1401.542898295809
 31
0.0
  0
LINE
  5
12C
330
87
100
AcDbEntity
  8
P-SANR-FIXT
100
AcDbLine
 10
832.6680789395492
 20
1418.457101704576
 30
0.0
 11
832.6680789395492
 21
1401.542898295809
 31
0.0
  0
LINE
  5
12D
330
87
100
AcDbEntity
  8
P-SANR-FIXT
100
AcDbLine
 10
829.8601371203361
 20
1415.773502692105
 30
0.0
 11
829.8601371203361
 21
1404.226497308279
 31
0.0
  0
LINE
  5
12E
330
87
100
AcDbEntity
  8
P-SANR-FIXT
100
AcDbLine
 10
827.7911502949816
 20
1412.06903586449
 30
0.0
 11
827.7911502949816
 21
1407.930964135895
 31
0.0
  0
LINE
  5
12F
330
87
100
AcDbEntity
  8
P-SANR-FIXT
100
AcDbLine
 10
1233.166407443143
 20
1742.00000000019
 30
0.0
 11
1233.166407443143
 21
1733.500000000162
 31
0.0
  0
LINE
  5
130
330
87
100
AcDbEntity
  8
P-SANR-FIXT
100
AcDbLine
 10
1288.166407443127
 20
1733.500000000162
 30
0.0
 11
1288.166407443127
 21
1742.000000000189
 31
0.0
  0
LINE
  5
131
330
87
100
AcDbEntity
  8
P-SANR-FIXT
100
AcDbLine
 10
1233.166407443143
 20
1733.500000000162
 30
0.0
 11
1234.1664074431
 21
1732.500000000206
 31
0.0
  0
LINE
  5
132
330
87
100
AcDbEntity
  8
P-SANR-FIXT
100
AcDbLine
 10
1287.166407443171
 20
1732.500000000205
 30
0.0
 11
1288.166407443127
 21
1733.500000000162
 31
0.0
  0
LINE
  5
133
330
87
100
AcDbEntity
  8
P-SANR-FIXT
100
AcDbLine
 10
1234.949719480906
 20
1732.500000000206
 30
0.0
 11
1234.949719480906
 21
1681.327965773189
 31
0.0
  0
LINE
  5
134
330
87
100
AcDbEntity
  8
P-SANR-FIXT
100
AcDbLine
 10
1286.383095405363
 20
1681.327965773188
 30
0.0
 11
1286.383095405364
 21
1732.500000000205
 31
0.0
  0
LINE
  5
135
330
87
100
AcDbEntity
  8
P-SANR-FIXT
100
AcDbLine
 10
1221.666407443151
 20
1681.327965773189
 30
0.0
 11
1221.666407443151
 21
1675.000000000096
 31
0.0
  0
LINE
  5
136
330
87
100
AcDbEntity
  8
P-SANR-FIXT
100
AcDbLine
 10
1299.666407443118
 20
1675.000000000095
 30
0.0
 11
1299.666407443118
 21
1681.327965773188
 31
0.0
  0
LINE
  5
137
330
87
100
AcDbEntity
  8
P-SANR-FIXT
100
AcDbLine
 10
1267.166407443134
 20
1760.000000000284
 30
0.0
 11
1267.166407443134
 21
1748.500000000284
 31
0.0
  0
LINE
  5
138
330
87
100
AcDbEntity
  8
P-SANR-FIXT
100
AcDbLine
 10
1278.166407443134
 20
1748.500000000284
 30
0.0
 11
1278.166407443134
 21
1760.000000000284
 31
0.0
  0
LINE
  5
139
330
87
100
AcDbEntity
  8
P-SANR-FIXT
100
AcDbLine
 10
1269.666407443134
 20
1748.500000000284
 30
0.0
 11
1269.666407443134
 21
1745.00000000019
 31
0.0
  0
LINE
  5
13A
330
87
100
AcDbEntity
  8
P-SANR-FIXT
100
AcDbLine
 10
1275.666407443134
 20
1745.00000000019
 30
0.0
 11
1275.666407443134
 21
1748.500000000284
 31
0.0
  0
LINE
  5
13B
330
87
100
AcDbEntity
  8
P-SANR-FIXT
100
AcDbLine
 10
1265.416407443134
 20
1745.00000000019
 30
0.0
 11
1265.416407443134
 21
1742.00000000019
 31
0.0
  0
LINE
  5
13C
330
87
100
AcDbEntity
  8
P-SANR-FIXT
100
AcDbLine
 10
1279.916407443134
 20
1742.00000000019
 30
0.0
 11
1279.916407443134
 21
1745.00000000019
 31
0.0
  0
LINE
  5
13D
330
87
100
AcDbEntity
  8
P-SANR-FIXT
100
AcDbLine
 10
1299.666407443116
 20
1675.000000000095
 30
0.0
 11
1277.148519651013
 21
1675.000000000094
 31
0.0
  0
LINE
  5
13E
330
87
100
AcDbEntity
  8
P-SANR-FIXT
100
AcDbLine
 10
1277.143904793333
 20
1675.000000000094
 30
0.0
 11
1274.005193032828
 21
1675.000000000094
 31
0.0
  0
LINE
  5
13F
330
87
100
AcDbEntity
  8
P-SANR-FIXT
100
AcDbLine
 10
1274.001441899016
 20
1675.000000000094
 30
0.0
 11
1270.760350202127
 21
1675.000000000094
 31
0.0
  0
LINE
  5
140
330
87
100
AcDbEntity
  8
P-SANR-FIXT
100
AcDbLine
 10
1270.757499844415
 20
1675.000000000094
 30
0.0
 11
1264.06548141029
 21
1675.000000000094
 31
0.0
  0
LINE
  5
141
330
87
100
AcDbEntity
  8
P-SANR-FIXT
100
AcDbLine
 10
1264.0645140445
 20
1675.000000000094
 30
0.0
 11
1257.268300841766
 21
1675.000000000094
 31
0.0
  0
LINE
  5
142
330
87
100
AcDbEntity
  8
P-SANR-FIXT
100
AcDbLine
 10
1257.267333475976
 20
1675.000000000094
 30
0.0
 11
1253.896048471139
 21
1675.000000000094
 31
0.0
  0
LINE
  5
143
330
87
100
AcDbEntity
  8
P-SANR-FIXT
100
AcDbLine
 10
1253.894128514126
 20
1675.000000000094
 30
0.0
 11
1250.57531504185
 21
1675.000000000094
 31
0.0
  0
LINE
  5
144
330
87
100
AcDbEntity
  8
P-SANR-FIXT
100
AcDbLine
 10
1250.572464684139
 20
1675.000000000094
 30
0.0
 11
1247.33137298725
 21
1675.000000000095
 31
0.0
  0
LINE
  5
145
330
87
100
AcDbEntity
  8
P-SANR-FIXT
100
AcDbLine
 10
1247.327621853438
 20
1675.000000000095
 30
0.0
 11
1244.188910092933
 21
1675.000000000095
 31
0.0
  0
LINE
  5
146
330
87
100
AcDbEntity
  8
P-SANR-FIXT
100
AcDbLine
 10
1244.184295235253
 20
1675.000000000095
 30
0.0
 11
1221.66640744315
 21
1675.000000000095
 31
0.0
  0
LINE
  5
147
330
87
100
AcDbEntity
  8
P-SANR-FIXT
100
AcDbLine
 10
1233.166407443142
 20
1742.00000000019
 30
0.0
 11
1288.166407443126
 21
1742.000000000189
 31
0.0
  0
LINE
  5
148
330
87
100
AcDbEntity
  8
P-SANR-FIXT
100
AcDbLine
 10
1233.166407443142
 20
1733.500000000162
 30
0.0
 11
1288.166407443125
 21
1733.500000000161
 31
0.0
  0
LINE
  5
149
330
87
100
AcDbEntity
  8
P-SANR-FIXT
100
AcDbLine
 10
1234.166407443098
 20
1732.500000000205
 30
0.0
 11
1287.166407443169
 21
1732.500000000205
 31
0.0
  0
LINE
  5
14A
330
87
100
AcDbEntity
  8
P-SANR-FIXT
100
AcDbLine
 10
1221.66640744315
 20
1681.327965773189
 30
0.0
 11
1299.666407443116
 21
1681.327965773188
 31
0.0
  0
LINE
  5
14B
330
87
100
AcDbEntity
  8
P-SANR-FIXT
100
AcDbLine
 10
1267.166407443132
 20
1760.000000000284
 30
0.0
 11
1278.166407443132
 21
1760.000000000284
 31
0.0
  0
LINE
  5
14C
330
87
100
AcDbEntity
  8
P-SANR-FIXT
100
AcDbLine
 10
1267.166407443132
 20
1748.500000000283
 30
0.0
 11
1278.166407443132
 21
1748.500000000283
 31
0.0
  0
LINE
  5
14D
330
87
100
AcDbEntity
  8
P-SANR-FIXT
100
AcDbLine
 10
1265.416407443132
 20
1745.00000000019
 30
0.0
 11
1279.916407443132
 21
1745.00000000019
 31
0.0
  0
LINE
  5
14E
330
87
100
AcDbEntity
  8
P-SANR-FIXT
100
AcDbLine
 10
1790.666407443129
 20
983.6817996285164
 30
0.0
 11
1785.66640744313
 21
983.6817996285164
 31
0.0
  0
LINE
  5
14F
330
87
100
AcDbEntity
  8
P-SANR-FIXT
100
AcDbLine
 10
1785.666407443126
 20
596.3182003716014
 30
0.0
 11
1790.666407443125
 21
596.3182003716014
 31
0.0
  0
LINE
  5
150
330
87
100
AcDbEntity
  8
P-SANR-FIXT
100
AcDbLine
 10
1785.66640744313
 20
1035.000000000059
 30
0.0
 11
1750.66640744313
 21
1035.00000000006
 31
0.0
  0
LINE
  5
151
330
87
100
AcDbEntity
  8
P-SANR-FIXT
100
AcDbLine
 10
1750.666407443125
 20
545.0000000000591
 30
0.0
 11
1785.666407443125
 21
545.0000000000589
 31
0.0
  0
LINE
  5
152
330
87
100
AcDbEntity
  8
P-SANR-FIXT
100
AcDbLine
 10
1750.666407443128
 20
926.5000000000613
 30
0.0
 11
1693.366407443128
 21
926.500000000062
 31
0.0
  0
LINE
  5
153
330
87
100
AcDbEntity
  8
P-SANR-FIXT
100
AcDbLine
 10
1685.666407443125
 20
653.5000000000581
 30
0.0
 11
1750.666407443125
 21
653.5000000000573
 31
0.0
  0
LINE
  5
154
330
87
100
AcDbEntity
  8
P-SANR-FIXT
100
AcDbLine
 10
1590.866407443127
 20
653.5000000000656
 30
0.0
 11
1685.666407443125
 21
653.5000000000644
 31
0.0
  0
LINE
  5
155
330
87
100
AcDbEntity
  8
P-SANR-FIXT
100
AcDbLine
 10
1668.366407443128
 20
926.500000000056
 30
0.0
 11
1590.866407443129
 21
926.5000000000567
 31
0.0
  0
LINE
  5
156
330
87
100
AcDbEntity
  8
P-SANR-FIXT
100
AcDbLine
 10
835.6664074431229
 20
653.5000000000739
 30
0.0
 11
930.4664074431228
 21
653.5000000000728
 31
0.0
  0
LINE
  5
157
330
87
100
AcDbEntity
  8
P-SANR-FIXT
100
AcDbLine
 10
930.4664074431254
 20
926.5000000000629
 30
0.0
 11
852.966407443125
 21
926.5000000000636
 31
0.0
  0
LINE
  5
158
330
87
100
AcDbEntity
  8
P-SANR-FIXT
100
AcDbLine
 10
770.6664074431227
 20
653.5000000000758
 30
0.0
 11
835.6664074431236
 21
653.5000000000754
 31
0.0
  0
LINE
  5
159
330
87
100
AcDbEntity
  8
P-SANR-FIXT
100
AcDbLine
 10
827.966407443125
 20
926.5000000000625
 30
0.0
 11
770.6664074431256
 21
926.5000000000632
 31
0.0
  0
LINE
  5
15A
330
87
100
AcDbEntity
  8
P-SANR-FIXT
100
AcDbLine
 10
770.6664074431259
 20
1035.00000000006
 30
0.0
 11
735.6664074431259
 21
1035.00000000006
 31
0.0
  0
LINE
  5
15B
330
87
100
AcDbEntity
  8
P-SANR-FIXT
100
AcDbLine
 10
735.6664074431209
 20
545.0000000000793
 30
0.0
 11
770.6664074431208
 21
545.0000000000791
 31
0.0
  0
LINE
  5
15C
330
87
100
AcDbEntity
  8
P-SANR-FIXT
100
AcDbLine
 10
735.6664074431253
 20
983.6817996285132
 30
0.0
 11
730.6664074431258
 21
983.6817996285132
 31
0.0
  0
LINE
  5
15D
330
87
100
AcDbEntity
  8
P-SANR-FIXT
100
AcDbLine
 10
730.6664074431218
 20
596.3182003716267
 30
0.0
 11
735.6664074431214
 21
596.3182003716267
 31
0.0
  0
LWPOLYLINE
  5
15E
330
87
100
AcDbEntity
  8
P-SANR-FIXT
100
AcDbPolyline
 90
       21
 70
   128
 43
0.0
 10
1299.65527991619
 20
1675.00000000006
 10
1299.735258584563
 20
1674.998400213382
 10
1299.815109304128
 20
1674.993603412665
 10
1299.894704330768
 20
1674.985617271768
 10
1299.973916329418
 20
1674.974454566811
 10
1300.05261857778
 20
1674.960133155743
 10
1300.130685169044
 20
1674.942675949764
 10
1300.207991213318
 20
1674.922110876681
 10
1300.284413037422
 20
1674.898470836225
 10
1300.35982838274
 20
1674.871793647415
 10
1300.434116600807
 20
1674.842121988065
 10
1300.507158846321
 20
1674.8095033265
 10
1300.578838267273
 20
1674.773989845618
 10
1300.649040191877
 20
1674.735638359415
 10
1300.717652312031
 20
1674.694510222087
 10
1300.78456486298
 20
1674.650671229879
 10
1300.849670798915
 20
1674.604191515829
 10
1300.912865964227
 20
1674.555145437562
 10
1300.974049260133
 20
1674.503611458342
 10
1301.033122806411
 20
1674.449672021542
 10
1301.069493478563
 20
1674.414213562433
  0
LWPOLYLINE
  5
15F
330
87
100
AcDbEntity
  8
P-SANR-FIXT
100
AcDbPolyline
 90
       21
 70
   128
 43
0.0
 10
1220.263321407706
 20
1674.414213562434
 10
1220.321006086472
 20
1674.469635801182
 10
1220.380860922074
 20
1674.522706936155
 10
1220.442790159543
 20
1674.573342064856
 10
1220.506694725311
 20
1674.621460181882
 10
1220.572472385705
 20
1674.66698430851
 10
1220.6400179105
 20
1674.70984161585
 10
1220.709223241265
 20
1674.74996354135
 10
1220.779977664235
 20
1674.78728589849
 10
1220.852167987424
 20
1674.82174897946
 10
1220.925678721717
 20
1674.853297650682
 10
1221.00039226562
 20
1674.881881441012
 10
1221.076189093401
 20
1674.907454622484
 10
1221.152947946304
 20
1674.929976283461
 10
1221.23054602654
 20
1674.949410394091
 10
1221.308859193731
 20
1674.965725863942
 10
1221.38776216352
 20
1674.978896591745
 10
1221.467128707983
 20
1674.988901507142
 10
1221.546831857581
 20
1674.995724604405
 10
1221.626744104278
 20
1674.999354968032
 10
1221.677534970079
 20
1675.000000000061
  0
LWPOLYLINE
  5
160
330
87
100
AcDbEntity
  8
P-SANR-FIXT
100
AcDbPolyline
 90
        3
 70
   128
 43
0.0
 10
1221.677534970079
 20
1675.000000000061
 10
1221.708721909467
 20
1675.000000000061
 10
1221.766697911994
 20
1675.000000000061
  0
LWPOLYLINE
  5
161
330
87
100
AcDbEntity
  8
P-SANR-FIXT
100
AcDbPolyline
 90
        4
 70
   128
 43
0.0
 10
1299.564140018766
 20
1675.00000000006
 10
1299.581348128227
 20
1675.00000000006
 10
1299.646191130957
 20
1675.00000000006
 10
1299.65527991619
 20
1675.00000000006
  0
LWPOLYLINE
  5
162
330
87
100
AcDbEntity
  8
P-SANR-FIXT
100
AcDbPolyline
 90
       80
 70
   128
 43
0.0
 10
1299.65527991619
 20
1675.00000000006
 10
1299.624092976803
 20
1675.00000000006
 10
1299.530582051091
 20
1675.00000000006
 10
1299.374896736589
 20
1675.00000000006
 10
1299.157286096588
 20
1675.00000000006
 10
1298.87809826169
 20
1675.00000000006
 10
1298.537779872876
 20
1675.00000000006
 10
1298.136875366969
 20
1675.00000000006
 10
1297.676026105658
 20
1675.00000000006
 10
1297.155969349451
 20
1675.00000000006
 10
1296.577537078219
 20
1675.00000000006
 10
1295.941654660202
 20
1675.00000000006
 10
1295.249339371624
 20
1675.00000000006
 10
1294.501698769258
 20
1675.00000000006
 10
1293.699928918581
 20
1675.00000000006
 10
1292.845312480319
 20
1675.00000000006
 10
1291.939216658464
 20
1675.00000000006
 10
1290.983091013041
 20
1675.00000000006
 10
1289.978465141121
 20
1675.00000000006
 10
1288.92694622979
 20
1675.00000000006
 10
1287.830216484993
 20
1675.00000000006
 10
1286.690030440366
 20
1675.00000000006
 10
1285.508212150354
 20
1675.00000000006
 10
1284.286652272113
 20
1675.00000000006
 10
1283.027305040862
 20
1675.00000000006
 10
1281.732185143525
 20
1675.00000000006
 10
1280.40336449566
 20
1675.00000000006
 10
1279.042968926838
 20
1675.00000000006
 10
1277.653174779766
 20
1675.00000000006
 10
1276.236205428606
 20
1675.00000000006
 10
1274.794327722048
 20
1675.00000000006
 10
1273.32984835684
 20
1675.00000000006
 10
1271.84511018756
 20
1675.00000000006
 10
1270.342488478552
 20
1675.00000000006
 10
1268.824387104007
 20
1675.00000000006
 10
1267.293234702281
 20
1675.00000000006
 10
1265.751480790589
 20
1675.00000000006
 10
1264.201591846298
 20
1675.00000000006
 10
1262.646047361095
 20
1675.00000000006
 10
1261.087335874323
 20
1675.00000000006
 10
1259.527950991855
 20
1675.00000000006
 10
1257.970387396851
 20
1675.00000000006
 10
1256.417136858802
 20
1675.00000000006
 10
1254.870684247224
 20
1675.00000000006
 10
1253.333503556405
 20
1675.00000000006
 10
1251.808053947535
 20
1675.00000000006
 10
1250.296775814576
 20
1675.00000000006
 10
1248.802086880154
 20
1675.00000000006
 10
1247.326378327712
 20
1675.00000000006
 10
1245.872010976133
 20
1675.00000000006
 10
1244.441311502933
 20
1675.00000000006
 10
1243.036568722067
 20
1675.00000000006
 10
1241.660029922323
 20
1675.00000000006
 10
1240.313897272136
 20
1675.00000000006
 10
1239.000324296584
 20
1675.00000000006
 10
1237.721412432215
 20
1675.00000000006
 10
1236.479207665193
 20
1675.00000000006
 10
1235.275697258155
 20
1675.00000000006
 10
1234.112806571017
 20
1675.00000000006
 10
1232.992395980808
 20
1675.00000000006
 10
1231.916257905464
 20
1675.00000000006
 10
1230.886113936344
 20
1675.00000000006
 10
1229.903612084043
 20
1675.00000000006
 10
1228.970324141936
 20
1675.00000000006
 10
1228.087743171642
 20
1675.00000000006
 10
1227.257281114437
 20
1675.00000000006
 10
1226.480266532459
 20
1675.00000000006
 10
1225.757942483282
 20
1675.00000000006
 10
1225.0914645313
 20
1675.00000000006
 10
1224.48189889906
 20
1675.00000000006
 10
1223.930220761541
 20
1675.00000000006
 10
1223.437312686076
 20
1675.000000000061
 10
1223.00396322044
 20
1675.000000000061
 10
1222.630865631334
 20
1675.000000000061
 10
1222.318616795311
 20
1675.000000000061
 10
1222.067716243898
 20
1675.000000000061
 10
1221.878565364456
 20
1675.000000000061
 10
1221.751466758042
 20
1675.000000000061
 10
1221.686623755312
 20
1675.000000000061
 10
1221.677534970079
 20
1675.000000000061
  0
LINE
  5
163
330
87
100
AcDbEntity
  8
P-SANR-FIXT
100
AcDbLine
 10
1220.263321407706
 20
1674.414213562434
 30
0.0
 11
1217.252193880761
 21
1671.403086035489
 31
0.0
  0
LINE
  5
164
330
87
100
AcDbEntity
  8
P-SANR-FIXT
100
AcDbLine
 10
1304.080621005508
 20
1671.403086035488
 30
0.0
 11
1301.069493478563
 21
1674.414213562433
 31
0.0
  0
LWPOLYLINE
  5
165
330
87
100
AcDbEntity
  8
P-SANR-FIXT
100
AcDbPolyline
 90
       21
 70
   128
 43
0.0
 10
1304.080621005508
 20
1671.403086035488
 10
1304.136043244256
 20
1671.345401356722
 10
1304.189114379229
 20
1671.28554652112
 10
1304.23974950793
 20
1671.223617283651
 10
1304.287867624956
 20
1671.159712717883
 10
1304.333391751584
 20
1671.093935057488
 10
1304.376249058923
 20
1671.026389532694
 10
1304.416370984424
 20
1670.957184201929
 10
1304.453693341564
 20
1670.886429778959
 10
1304.488156422534
 20
1670.81423945577
 10
1304.519705093756
 20
1670.740728721477
 10
1304.548288884086
 20
1670.666015177573
 10
1304.573862065557
 20
1670.590218349793
 10
1304.596383726535
 20
1670.51345949689
 10
1304.615817837165
 20
1670.435861416654
 10
1304.632133307016
 20
1670.357548249462
 10
1304.645304034818
 20
1670.278645279674
 10
1304.655308950216
 20
1670.199278735211
 10
1304.662132047478
 20
1670.119575585612
 10
1304.665762411105
 20
1670.039663338916
 10
1304.666407443134
 20
1669.988872473114
  0
LWPOLYLINE
  5
166
330
87
100
AcDbEntity
  8
P-SANR-FIXT
100
AcDbPolyline
 90
       21
 70
   128
 43
0.0
 10
1216.666407443134
 20
1669.988872473116
 10
1216.668007229812
 20
1670.068851141489
 10
1216.672804030529
 20
1670.148701861054
 10
1216.680790171427
 20
1670.228296887693
 10
1216.691952876383
 20
1670.307508886345
 10
1216.706274287452
 20
1670.386211134706
 10
1216.72373149343
 20
1670.46427772597
 10
1216.744296566513
 20
1670.541583770244
 10
1216.767936606969
 20
1670.618005594348
 10
1216.794613795779
 20
1670.693420939666
 10
1216.824285455128
 20
1670.767709157732
 10
1216.856904116695
 20
1670.840751403247
 10
1216.892417597576
 20
1670.912430824198
 10
1216.930769083779
 20
1670.982632748803
 10
1216.971897221108
 20
1671.051244868958
 10
1217.015736213315
 20
1671.118157419905
 10
1217.062215927366
 20
1671.18326335584
 10
1217.111262005633
 20
1671.246458521153
 10
1217.162795984852
 20
1671.307641817058
 10
1217.216735421652
 20
1671.366715363336
 10
1217.252193880761
 20
1671.403086035489
  0
LINE
  5
167
330
87
100
AcDbEntity
  8
P-SANR-FIXT
100
AcDbLine
 10
1216.666407443132
 20
1669.988872473116
 30
0.0
 11
1216.666407443132
 21
1660.000000000124
 31
0.0
  0
LINE
  5
168
330
87
100
AcDbEntity
  8
P-SANR-FIXT
100
AcDbLine
 10
1304.666407443137
 20
1660.000000000123
 30
0.0
 11
1304.666407443137
 21
1669.988872473115
 31
0.0
  0
LWPOLYLINE
  5
169
330
87
100
AcDbEntity
  8
P-SANR-FIXT
100
AcDbPolyline
 90
        3
 70
   128
 43
0.0
 10
1328.529786345731
 20
1659.522668776211
 10
1330.774301468653
 20
1659.47777248742
 10
1332.904874513867
 20
1659.349784482228
  0
LWPOLYLINE
  5
16A
330
87
100
AcDbEntity
  8
P-SANR-FIXT
100
AcDbPolyline
 90
        3
 70
   128
 43
0.0
 10
1354.443205836751
 20
1658.055931606647
 10
1356.840428433118
 20
1657.911925401931
 10
1360.969605029303
 20
1657.49762582217
  0
LWPOLYLINE
  5
16B
330
87
100
AcDbEntity
  8
P-SANR-FIXT
100
AcDbPolyline
 90
        3
 70
   128
 43
0.0
 10
1379.188414745748
 20
1655.669647523483
 10
1382.823088093863
 20
1655.304963764962
 10
1390.243665342135
 20
1654.259241957151
  0
LWPOLYLINE
  5
16C
330
87
100
AcDbEntity
  8
P-SANR-FIXT
100
AcDbPolyline
 90
        3
 70
   128
 43
0.0
 10
1405.421729105596
 20
1652.120320449195
 10
1408.680713738102
 20
1651.66105815901
 10
1412.485002788559
 20
1650.968793472166
  0
LWPOLYLINE
  5
16D
330
87
100
AcDbEntity
  8
P-SANR-FIXT
100
AcDbPolyline
 90
        3
 70
   128
 43
0.0
 10
1431.011516062563
 20
1647.597532576938
 10
1434.371938680806
 20
1646.986038055721
 10
1435.76555180342
 20
1646.67439909542
  0
LWPOLYLINE
  5
16E
330
87
100
AcDbEntity
  8
P-SANR-FIXT
100
AcDbPolyline
 90
        3
 70
   128
 43
0.0
 10
1456.692365611707
 20
1641.994757097382
 10
1459.855662442566
 20
1641.287382489973
 10
1464.954274717665
 20
1639.931041791887
  0
LWPOLYLINE
  5
16F
330
87
100
AcDbEntity
  8
P-SANR-FIXT
100
AcDbPolyline
 90
        3
 70
   128
 43
0.0
 10
1476.113281337483
 20
1636.962505646749
 10
1485.091116501603
 20
1634.574208095026
 10
1492.11424984908
 20
1632.401698364809
  0
LWPOLYLINE
  5
170
330
87
100
AcDbEntity
  8
P-SANR-FIXT
100
AcDbPolyline
 90
        3
 70
   128
 43
0.0
 10
1506.821526354297
 20
1627.852204608714
 10
1510.037929514697
 20
1626.857254517842
 10
1514.209140306504
 20
1625.381743434705
  0
LWPOLYLINE
  5
171
330
87
100
AcDbEntity
  8
P-SANR-FIXT
100
AcDbPolyline
 90
        3
 70
   128
 43
0.0
 10
1529.85939546973
 20
1619.845671032749
 10
1534.656191902733
 20
1618.14886723795
 10
1543.277348735229
 20
1614.83402770662
  0
LINE
  5
172
330
87
100
AcDbEntity
  8
P-SANR-FIXT
100
AcDbLine
 10
978.0554661510389
 20
1614.834027706627
 30
0.0
 11
983.6383053286931
 21
1616.898203672662
 31
0.0
  0
LWPOLYLINE
  5
173
330
87
100
AcDbEntity
  8
P-SANR-FIXT
100
AcDbPolyline
 90
        3
 70
   128
 43
0.0
 10
991.1964018828932
 20
1619.692703166504
 10
1002.548066319206
 20
1623.889820826229
 10
1007.123674822379
 20
1625.376467063068
  0
LWPOLYLINE
  5
174
330
87
100
AcDbEntity
  8
P-SANR-FIXT
100
AcDbPolyline
 90
        3
 70
   128
 43
0.0
 10
1022.588522543907
 20
1630.40110097844
 10
1027.383210157027
 20
1631.958927504011
 10
1029.218566717629
 20
1632.475082190841
  0
LWPOLYLINE
  5
175
330
87
100
AcDbEntity
  8
P-SANR-FIXT
100
AcDbPolyline
 90
        3
 70
   128
 43
0.0
 10
1049.197197546186
 20
1638.093643815309
 10
1052.521166732245
 20
1639.028438890606
 10
1057.9204311784
 20
1640.316285530511
  0
LWPOLYLINE
  5
176
330
87
100
AcDbEntity
  8
P-SANR-FIXT
100
AcDbPolyline
 90
        3
 70
   128
 43
0.0
 10
1074.354990718583
 20
1644.236299542274
 10
1077.921720676817
 20
1645.087045275877
 10
1080.356179903414
 20
1645.565719085231
  0
LWPOLYLINE
  5
177
330
87
100
AcDbEntity
  8
P-SANR-FIXT
100
AcDbPolyline
 90
        3
 70
   128
 43
0.0
 10
1100.563390797542
 20
1649.538947517006
 10
1103.544236522926
 20
1650.125054182041
 10
1105.42082037453
 20
1650.416638206222
  0
LWPOLYLINE
  5
178
330
87
100
AcDbEntity
  8
P-SANR-FIXT
100
AcDbPolyline
 90
        3
 70
   128
 43
0.0
 10
1126.657253028861
 20
1653.716359925185
 10
1129.347723711066
 20
1654.134405869568
 10
1134.728616388763
 20
1654.751303426903
  0
LWPOLYLINE
  5
179
330
87
100
AcDbEntity
  8
P-SANR-FIXT
100
AcDbPolyline
 90
        3
 70
   128
 43
0.0
 10
1153.157418177453
 20
1656.864090930576
 10
1155.290902166184
 20
1657.108686231039
 10
1157.800053396123
 20
1657.295075440641
  0
LWPOLYLINE
  5
17A
330
87
100
AcDbEntity
  8
P-SANR-FIXT
100
AcDbPolyline
 90
        3
 70
   128
 43
0.0
 10
1179.499049471897
 20
1658.906958646199
 10
1181.332268337002
 20
1659.043137052355
 10
1183.103323816647
 20
1659.103637837073
  0
LWPOLYLINE
  5
17B
330
87
100
AcDbEntity
  8
P-SANR-FIXT
100
AcDbPolyline
 90
        3
 70
   128
 43
0.0
 10
1205.620893722513
 20
1659.872857471876
 10
1207.430161592843
 20
1659.934663624862
 10
1211.863645838236
 20
1659.966025695023
  0
LWPOLYLINE
  5
17C
330
87
100
AcDbEntity
  8
P-SANR-FIXT
100
AcDbPolyline
 90
        8
 70
   128
 43
0.0
 10
1216.666407443135
 20
1660.000000000124
 10
1216.701602750052
 20
1660.000000000124
 10
1216.80713236582
 20
1660.000000000124
 10
1216.982827465564
 20
1660.000000000124
 10
1217.228406974607
 20
1660.000000000124
 10
1217.54347801812
 20
1660.000000000124
 10
1217.927536549645
 20
1660.000000000124
 10
1218.16086076774
 20
1660.000000000124
  0
LWPOLYLINE
  5
17D
330
87
100
AcDbEntity
  8
P-SANR-FIXT
100
AcDbPolyline
 90
        8
 70
   128
 43
0.0
 10
1303.18540135956
 20
1660.000000000123
 10
1303.590547936702
 20
1660.000000000123
 10
1303.94292921663
 20
1660.000000000123
 10
1304.226077293553
 20
1660.000000000123
 10
1304.43953919095
 20
1660.000000000123
 10
1304.58297341532
 20
1660.000000000123
 10
1304.656150502503
 20
1660.000000000123
 10
1304.666407443134
 20
1660.000000000123
  0
LWPOLYLINE
  5
17E
330
87
100
AcDbEntity
  8
P-SANR-FIXT
100
AcDbPolyline
 90
       80
 70
   128
 43
0.0
 10
1304.666407443134
 20
1660.000000000123
 10
1304.631212136217
 20
1660.000000000123
 10
1304.525682520449
 20
1660.000000000123
 10
1304.349987420704
 20
1660.000000000123
 10
1304.104407911662
 20
1660.000000000123
 10
1303.789336868149
 20
1660.000000000123
 10
1303.405278336623
 20
1660.000000000123
 10
1302.952846728808
 20
1660.000000000123
 10
1302.432765838761
 20
1660.000000000123
 10
1301.845867684963
 20
1660.000000000123
 10
1301.193091179261
 20
1660.000000000123
 10
1300.475480624812
 20
1660.000000000123
 10
1299.694184045423
 20
1660.000000000123
 10
1298.850451348951
 20
1660.000000000123
 10
1297.945632327724
 20
1660.000000000123
 10
1296.98117449916
 20
1660.000000000123
 10
1295.958620790043
 20
1660.000000000123
 10
1294.879607068175
 20
1660.000000000123
 10
1293.745859525333
 20
1660.000000000123
 10
1292.559191915734
 20
1660.000000000123
 10
1291.32150265441
 20
1660.000000000123
 10
1290.034771780152
 20
1660.000000000123
 10
1288.701057787872
 20
1660.000000000123
 10
1287.322494335447
 20
1660.000000000123
 10
1285.901286830322
 20
1660.000000000123
 10
1284.439708901332
 20
1660.000000000123
 10
1282.940098761377
 20
1660.000000000123
 10
1281.404855466779
 20
1660.000000000123
 10
1279.83643507931
 20
1660.000000000123
 10
1278.23734673701
 20
1660.000000000123
 10
1276.610148640108
 20
1660.000000000123
 10
1274.95744395844
 20
1660.000000000123
 10
1273.28187666694
 20
1660.000000000123
 10
1271.586127315839
 20
1660.000000000123
 10
1269.872908742357
 20
1660.000000000123
 10
1268.144961730745
 20
1660.000000000123
 10
1266.405050627613
 20
1660.000000000123
 10
1264.655958919564
 20
1660.000000000123
 10
1262.900484780212
 20
1660.000000000123
 10
1261.141436593698
 20
1660.000000000123
 10
1259.381628461878
 20
1660.000000000123
 10
1257.623875702356
 20
1660.000000000123
 10
1255.87099034458
 20
1660.000000000123
 10
1254.125776631195
 20
1660.000000000123
 10
1252.391026531848
 20
1660.000000000123
 10
1250.669515276638
 20
1660.000000000123
 10
1248.963996916339
 20
1660.000000000123
 10
1247.277199916502
 20
1660.000000000123
 10
1245.611822792495
 20
1660.000000000123
 10
1243.970529792456
 20
1660.000000000123
 10
1242.355946635061
 20
1660.000000000123
 10
1240.770656308934
 20
1660.000000000123
 10
1239.217194940423
 20
1660.000000000123
 10
1237.698047736327
 20
1660.000000000123
 10
1236.215645008108
 20
1660.000000000123
 10
1234.7723582839
 20
1660.000000000123
 10
1233.370496514577
 20
1660.000000000123
 10
1232.012302379923
 20
1660.000000000123
 10
1230.69994870082
 20
1660.000000000124
 10
1229.435534963201
 20
1660.000000000124
 10
1228.22108395932
 20
1660.000000000124
 10
1227.058538551713
 20
1660.000000000124
 10
1225.949758565035
 20
1660.000000000124
 10
1224.89651781074
 20
1660.000000000124
 10
1223.900501249353
 20
1660.000000000124
 10
1222.963302294901
 20
1660.000000000124
 10
1222.086420265786
 20
1660.000000000124
 10
1221.271257986197
 20
1660.000000000124
 10
1220.519119541888
 20
1660.000000000124
 10
1219.831208193924
 20
1660.000000000124
 10
1219.208624453714
 20
1660.000000000124
 10
1218.652364322431
 20
1660.000000000124
 10
1218.163317697624
 20
1660.000000000124
 10
1217.742266949567
 20
1660.000000000124
 10
1217.389885669638
 20
1660.000000000124
 10
1217.106737592715
 20
1660.000000000124
 10
1216.893275695319
 20
1660.000000000124
 10
1216.749841470948
 20
1660.000000000124
 10
1216.676664383766
 20
1660.000000000124
 10
1216.666407443135
 20
1660.000000000124
  0
LWPOLYLINE
  5
17F
330
87
100
AcDbEntity
  8
P-SANR-FIXT
100
AcDbPolyline
 90
       31
 70
   128
 43
0.0
 10
1543.277348735229
 20
1614.83402770662
 10
1546.047136810156
 20
1613.682040691073
 10
1548.768642156308
 20
1612.420213161312
 10
1551.437510945688
 20
1611.050563772209
 10
1554.049473557561
 20
1609.57528367061
 10
1556.600351408938
 20
1607.996732989968
 10
1559.086063639414
 20
1606.317437074633
 10
1561.502633639677
 20
1604.540082439839
 10
1563.846195413236
 20
1602.667512473852
 10
1566.112999761183
 20
1600.702722889158
 10
1568.299420280124
 20
1598.64885692996
 10
1570.401959163638
 20
1596.509200343657
 10
1572.41725279803
 20
1594.287176124352
 10
1574.342077143391
 20
1591.986339036789
 10
1576.173352891377
 20
1589.61036992949
 10
1577.90815039144
 20
1587.163069846179
 10
1579.543694337652
 20
1584.648353944927
 10
1581.077368208596
 20
1582.070245234733
 10
1582.506718453245
 20
1579.432868139564
 10
1583.829458416119
 20
1576.740441900164
 10
1585.043471995447
 20
1573.99727382416
 10
1586.146817028479
 20
1571.207752395298
 10
1587.137728398528
 20
1568.376340252796
 10
1588.014620858786
 20
1565.507567052082
 10
1588.776091568378
 20
1562.606022218302
 10
1589.420922336605
 20
1559.676347604228
 10
1589.948081571796
 20
1556.72323006428
 10
1590.356725931628
 20
1553.751393956555
 10
1590.646201672299
 20
1550.765593584869
 10
1590.816045694376
 20
1547.770605592879
 10
1590.866407443131
 20
1545.022565198796
  0
LWPOLYLINE
  5
180
330
87
100
AcDbEntity
  8
P-SANR-FIXT
100
AcDbPolyline
 90
       31
 70
   128
 43
0.0
 10
930.4664074431352
 20
1545.022565198803
 10
930.5263994435618
 20
1548.021765262801
 10
930.7062794704386
 20
1551.016167246491
 10
931.0057597540952
 20
1554.000980745472
 10
931.424361189963
 20
1556.971430694871
 10
931.9614141050422
 20
1559.922765008433
 10
932.6160593292332
 20
1562.850262180838
 10
933.3872495698274
 20
1565.749238841112
 10
934.2737510869524
 20
1568.615057245012
 10
935.2741456672902
 20
1571.443132694435
 10
936.3868328929191
 20
1574.228940871952
 10
937.6100327016381
 20
1576.968025078753
 10
938.9417882346892
 20
1579.656003364414
 10
940.3799689673117
 20
1582.288575537083
 10
941.9222741171292
 20
1584.861530042869
 10
943.5662363249095
 20
1587.370750703431
 10
945.3092256018136
 20
1589.812223300983
 10
947.148453536816
 20
1592.182042000188
 10
949.0809777575686
 20
1594.476415596663
 10
951.1037066375676
 20
1596.691673582094
 10
953.2134042420983
 20
1598.824272016267
 10
955.4066955050375
 20
1600.870799196617
 10
957.6800716282422
 20
1602.827981116226
 10
960.029895694876
 20
1604.692686701531
 10
962.4524084877014
 20
1606.461932821378
 10
964.9437345030253
 20
1608.132889059395
 10
967.4998881506773
 20
1609.702882242054
 10
970.1167801301053
 20
1611.169400715175
 10
972.7902239723823
 20
1612.53009836204
 10
975.5159427376653
 20
1613.782798356686
 10
978.0554661510391
 20
1614.834027706627
  0
LINE
  5
181
330
87
100
AcDbEntity
  8
P-SANR-FIXT
100
AcDbLine
 10
930.466407443132
 20
1545.022565198802
 30
0.0
 11
930.4664074431306
 21
1418.500000000191
 31
0.0
  0
LINE
  5
182
330
87
100
AcDbEntity
  8
P-SANR-FIXT
100
AcDbLine
 10
930.4664074431306
 20
1401.500000000191
 30
0.0
 11
930.4664074431254
 21
926.5000000000629
 31
0.0
  0
LINE
  5
183
330
87
100
AcDbEntity
  8
P-SANR-FIXT
100
AcDbLine
 10
930.4664074431228
 20
653.5000000000731
 30
0.0
 11
930.4664074431206
 21
458.0649192841911
 31
0.0
  0
LINE
  5
184
330
87
100
AcDbEntity
  8
P-SANR-FIXT
100
AcDbLine
 10
1590.866407443123
 20
458.0649192841841
 30
0.0
 11
1590.866407443125
 21
653.5000000000656
 31
0.0
  0
LINE
  5
185
330
87
100
AcDbEntity
  8
P-SANR-FIXT
100
AcDbLine
 10
1590.866407443128
 20
926.5000000000567
 30
0.0
 11
1590.866407443134
 21
1545.022565198795
 31
0.0
  0
LINE
  5
186
330
87
100
AcDbEntity
  8
P-SANR-FIXT
100
AcDbLine
 10
1230.516407443107
 20
360.0000000000595
 30
0.0
 11
1230.516407443107
 21
328.4999999999979
 31
0.0
  0
LINE
  5
187
330
87
100
AcDbEntity
  8
P-SANR-FIXT
100
AcDbLine
 10
1290.816407443135
 20
328.4999999999979
 30
0.0
 11
1290.816407443135
 21
360.0000000000587
 31
0.0
  0
LINE
  5
188
330
87
100
AcDbEntity
  8
P-SANR-FIXT
100
AcDbLine
 10
852.966407443125
 20
926.5000000000636
 30
0.0
 11
852.9664074431257
 21
966.2000000001281
 31
0.0
  0
LINE
  5
189
330
87
100
AcDbEntity
  8
P-SANR-FIXT
100
AcDbLine
 10
827.9664074431261
 20
966.2000000001283
 30
0.0
 11
827.966407443125
 21
926.5000000000625
 31
0.0
  0
LINE
  5
18A
330
87
100
AcDbEntity
  8
P-SANR-FIXT
100
AcDbLine
 10
1668.366407443128
 20
966.2000000001196
 30
0.0
 11
1668.366407443128
 21
926.5000000000556
 31
0.0
  0
LINE
  5
18B
330
87
100
AcDbEntity
  8
P-SANR-FIXT
100
AcDbLine
 10
1693.366407443128
 20
926.5000000000618
 30
0.0
 11
1693.366407443128
 21
966.2000000001196
 31
0.0
  0
LWPOLYLINE
  5
18C
330
87
100
AcDbEntity
  8
P-SANR-FIXT
100
AcDbPolyline
 90
       25
 70
   128
 43
0.0
 10
1590.86640744311
 20
458.0649192841844
 10
1590.830412242854
 20
456.2653992457861
 10
1590.722484226728
 20
454.4687580555718
 10
1590.542796056534
 20
452.6778699561829
 10
1590.291635195014
 20
450.8955999865436
 10
1589.969403445967
 20
449.1247993984067
 10
1589.576616311452
 20
447.3683010949632
 10
1589.113902167095
 20
445.6289150987992
 10
1588.58200125682
 20
443.9094240564593
 10
1587.981764508617
 20
442.2125787868057
 10
1587.31415217324
 20
440.5410938802956
 10
1586.580232288009
 20
438.8976433562149
 10
1585.781178968178
 20
437.2848563848182
 10
1584.918270528605
 20
435.7053130812167
 10
1583.992887438714
 20
434.1615403777452
 10
1583.006510114046
 20
432.6560079814083
 10
1581.960716547903
 20
431.1911244228772
 10
1580.857179786902
 20
429.7692332033539
 10
1579.69766525445
 20
428.3926090454682
 10
1578.484027926451
 20
427.0634542542102
 10
1577.218209363732
 20
425.7838951937062
 10
1575.902234605969
 20
424.5559788854964
 10
1574.538208932046
 20
423.381669733731
 10
1573.128314492066
 20
422.2628463825484
 10
1571.703716148035
 20
421.2224122102369
  0
LWPOLYLINE
  5
18D
330
87
100
AcDbEntity
  8
P-SANR-FIXT
100
AcDbPolyline
 90
       26
 70
   128
 43
0.0
 10
949.6292250877967
 20
421.2228847387766
 10
948.2236725291421
 20
422.2482556427238
 10
946.8131792795276
 20
423.3663239840304
 10
945.4485250826122
 20
424.5399026758448
 10
944.1318930940003
 20
425.7671142426104
 10
942.8653896440073
 20
427.0459954076116
 10
941.6510408679796
 20
428.3745002337976
 10
940.4907894649124
 20
429.7505033968461
 10
939.3864915895429
 20
431.1718035852279
 10
938.3399138829009
 20
432.6361270218359
 10
937.3527306460594
 20
434.1411311015438
 10
936.4265211616087
 20
435.6844081388747
 10
935.562767167144
 20
437.2634892197842
 10
934.7628504847978
 20
438.8758481513947
 10
934.0280508106229
 20
440.5189055033671
 10
933.3595436673483
 20
442.1900327344391
 10
932.758398523797
 20
443.8865563975293
 10
932.2255770839602
 20
445.6057624166815
 10
931.7619317484798
 20
447.3449004290107
 10
931.3682042509864
 20
449.1011881846922
 10
931.0450244714857
 20
450.8718159979726
 10
930.7929094286835
 20
452.6539512420637
 10
930.6122624528663
 20
454.4447428807437
 10
930.5033725406595
 20
456.2413260294065
 10
930.4664138926939
 20
458.0408265382645
 10
930.4664074431336
 20
458.0649192841916
  0
LWPOLYLINE
  5
18E
330
87
100
AcDbEntity
  8
P-SANR-FIXT
100
AcDbPolyline
 90
        3
 70
   128
 43
0.0
 10
1409.862551216993
 20
370.4883417230785
 10
1406.791937866666
 20
369.8969709633199
 10
1404.147643902228
 20
369.4966192480658
  0
LWPOLYLINE
  5
18F
330
87
100
AcDbEntity
  8
P-SANR-FIXT
100
AcDbPolyline
 90
        3
 70
   128
 43
0.0
 10
1382.068042400319
 20
366.1537207457465
 10
1379.723616738227
 20
365.7987697275443
 10
1377.720307737419
 20
365.5769834931543
  0
LWPOLYLINE
  5
190
330
87
100
AcDbEntity
  8
P-SANR-FIXT
100
AcDbPolyline
 90
        3
 70
   128
 43
0.0
 10
1355.641032542383
 20
363.1325880945502
 10
1352.513063040777
 20
362.786290755115
 10
1351.873268960386
 20
362.7412641092508
  0
LWPOLYLINE
  5
191
330
87
100
AcDbEntity
  8
P-SANR-FIXT
100
AcDbPolyline
 90
        3
 70
   128
 43
0.0
 10
1329.344430521427
 20
361.1557570512639
 10
1325.203807855621
 20
360.8643533697605
 10
1321.590608023161
 20
360.754981186877
  0
LWPOLYLINE
  5
192
330
87
100
AcDbEntity
  8
P-SANR-FIXT
100
AcDbPolyline
 90
        3
 70
   128
 43
0.0
 10
1300.729193931049
 20
360.1235025798001
 10
1297.839540165394
 20
360.0360322613062
 10
1293.504728150085
 20
360.0137924596147
  0
LINE
  5
193
330
87
100
AcDbEntity
  8
P-SANR-FIXT
100
AcDbLine
 10
1218.228386005203
 20
360.2457932021185
 30
0.0
 11
1216.463003666981
 21
360.2811055573229
 31
0.0
  0
LWPOLYLINE
  5
194
330
87
100
AcDbEntity
  8
P-SANR-FIXT
100
AcDbPolyline
 90
        3
 70
   128
 43
0.0
 10
1205.033769033529
 20
360.5097207328283
 10
1203.145081089668
 20
360.5474995290125
 10
1201.544155319917
 20
360.6436705080793
  0
LINE
  5
195
330
87
100
AcDbEntity
  8
P-SANR-FIXT
100
AcDbLine
 10
1182.230384797601
 20
361.8038893362696
 30
0.0
 11
1181.402167170418
 21
361.8536421115644
 31
0.0
  0
LWPOLYLINE
  5
196
330
87
100
AcDbEntity
  8
P-SANR-FIXT
100
AcDbPolyline
 90
        3
 70
   128
 43
0.0
 10
1180.867316191932
 20
361.8857717350785
 10
1175.81754301948
 20
362.1891222334185
 10
1171.992520150342
 20
362.5729046487131
  0
LWPOLYLINE
  5
197
330
87
100
AcDbEntity
  8
P-SANR-FIXT
100
AcDbPolyline
 90
        3
 70
   128
 43
0.0
 10
1151.074503465068
 20
364.6717069935081
 10
1148.577511463902
 20
364.9222418671451
 10
1146.442216802289
 20
365.2231516372401
  0
LWPOLYLINE
  5
198
330
87
100
AcDbEntity
  8
P-SANR-FIXT
100
AcDbPolyline
 90
        3
 70
   128
 43
0.0
 10
1122.574477454744
 20
368.58663869543
 10
1121.468564662525
 20
368.7424860218125
 10
1118.736540967248
 20
369.2396310869686
  0
LWPOLYLINE
  5
199
330
87
100
AcDbEntity
  8
P-SANR-FIXT
100
AcDbPolyline
 90
        3
 70
   128
 43
0.0
 10
1096.46035067546
 20
373.2932189431757
 10
1094.534071147298
 20
373.643743121715
 10
1093.573092626454
 20
373.8586365826379
  0
LWPOLYLINE
  5
19A
330
87
100
AcDbEntity
  8
P-SANR-FIXT
100
AcDbPolyline
 90
        9
 70
   128
 43
0.0
 10
1290.816407443128
 20
360.0000000000584
 10
1290.792290658956
 20
360.0000000000584
 10
1290.719978888152
 20
360.0000000000584
 10
1290.599587814122
 20
360.0000000000584
 10
1290.431310036903
 20
360.0000000000584
 10
1290.215414765041
 20
360.0000000000584
 10
1289.952247384916
 20
360.0000000000584
 10
1289.642228908197
 20
360.0000000000584
 10
1289.285855298313
 20
360.0000000000584
  0
LWPOLYLINE
  5
19B
330
87
100
AcDbEntity
  8
P-SANR-FIXT
100
AcDbPolyline
 90
       10
 70
   128
 43
0.0
 10
1232.056463862985
 20
360.0000000000595
 10
1231.877239259269
 20
360.0000000000595
 10
1231.542131174315
 20
360.0000000000595
 10
1231.253615718545
 20
360.0000000000592
 10
1231.012154455139
 20
360.0000000000592
 10
1230.81813367061
 20
360.0000000000592
 10
1230.671863756826
 20
360.0000000000592
 10
1230.573578714446
 20
360.0000000000592
 10
1230.523435778569
 20
360.0000000000592
 10
1230.516407443114
 20
360.0000000000592
  0
LWPOLYLINE
  5
19C
330
87
100
AcDbEntity
  8
P-SANR-FIXT
100
AcDbPolyline
 90
       80
 70
   128
 43
0.0
 10
1230.516407443114
 20
360.0000000000592
 10
1230.540524227285
 20
360.0000000000592
 10
1230.61283599809
 20
360.0000000000592
 10
1230.73322707212
 20
360.0000000000592
 10
1230.901504849339
 20
360.0000000000592
 10
1231.117400121201
 20
360.0000000000592
 10
1231.380567501325
 20
360.0000000000592
 10
1231.690585978045
 20
360.0000000000592
 10
1232.046959587929
 20
360.0000000000592
 10
1232.449118209224
 20
360.0000000000592
 10
1232.896418473927
 20
360.0000000000587
 10
1233.388144797033
 20
360.0000000000587
 10
1233.923510521319
 20
360.0000000000587
 10
1234.501659175834
 20
360.0000000000587
 10
1235.121665846061
 20
360.0000000000587
 10
1235.782538653589
 20
360.0000000000587
 10
1236.483220342904
 20
360.0000000000587
 10
1237.222589972775
 20
360.0000000000587
 10
1237.999464709518
 20
360.0000000000587
 10
1238.812601719278
 20
360.0000000000587
 10
1239.660700156299
 20
360.0000000000587
 10
1240.542403244001
 20
360.0000000000587
 10
1241.45630044553
 20
360.0000000000587
 10
1242.400929720317
 20
360.0000000000584
 10
1243.374779863033
 20
360.0000000000584
 10
1244.376292921193
 20
360.0000000000584
 10
1245.403866687549
 20
360.0000000000584
 10
1246.45585726328
 20
360.0000000000584
 10
1247.530581687876
 20
360.0000000000584
 10
1248.626320631519
 20
360.0000000000584
 10
1249.741321145647
 20
360.0000000000584
 10
1250.87379946729
 20
360.0000000000584
 10
1252.021943872716
 20
360.0000000000584
 10
1253.1839175758
 20
360.0000000000584
 10
1254.357861666493
 20
360.0000000000584
 10
1255.541898084677
 20
360.0000000000584
 10
1256.734132624665
 20
360.0000000000584
 10
1257.932657965521
 20
360.0000000000584
 10
1259.135556722373
 20
360.0000000000584
 10
1260.340904513814
 20
360.0000000000581
 10
1261.546773040505
 20
360.0000000000581
 10
1262.751233170041
 20
360.0000000000581
 10
1263.952358023154
 20
360.0000000000581
 10
1265.148226056304
 20
360.0000000000581
 10
1266.336924135743
 20
360.0000000000581
 10
1267.516550598119
 20
360.0000000000581
 10
1268.685218292734
 20
360.0000000000581
 10
1269.841057600577
 20
360.0000000000581
 10
1270.982219425323
 20
360.0000000000581
 10
1272.106878151486
 20
360.0000000000581
 10
1273.21323456502
 20
360.0000000000581
 10
1274.299518731673
 20
360.0000000000581
 10
1275.363992828505
 20
360.0000000000581
 10
1276.404953924039
 20
360.0000000000581
 10
1277.420736702581
 20
360.0000000000581
 10
1278.409716128374
 20
360.0000000000581
 10
1279.370310045308
 20
360.0000000000581
 10
1280.300981708031
 20
360.0000000000581
 10
1281.200242240416
 20
360.0000000000581
 10
1282.066653017444
 20
360.0000000000581
 10
1282.898827966695
 20
360.0000000000581
 10
1283.695435785771
 20
360.0000000000581
 10
1284.455202072097
 20
360.0000000000581
 10
1285.176911361688
 20
360.0000000000581
 10
1285.859409073639
 20
360.0000000000581
 10
1286.501603357201
 20
360.0000000000581
 10
1287.102466838515
 20
360.0000000000581
 10
1287.661038264188
 20
360.0000000000581
 10
1288.176424039095
 20
360.0000000000581
 10
1288.647799655939
 20
360.0000000000581
 10
1289.074411014287
 20
360.0000000000581
 10
1289.455575626973
 20
360.0000000000581
 10
1289.790683711926
 20
360.0000000000581
 10
1290.079199167698
 20
360.0000000000584
 10
1290.320660431103
 20
360.0000000000584
 10
1290.514681215631
 20
360.0000000000584
 10
1290.660951129416
 20
360.0000000000584
 10
1290.759236171797
 20
360.0000000000584
 10
1290.809379107673
 20
360.0000000000584
 10
1290.816407443128
 20
360.0000000000584
  0
LINE
  5
19D
330
87
100
AcDbEntity
  8
P-SANR-FIXT
100
AcDbLine
 10
850.4664074431333
 20
1401.500000000191
 30
0.0
 11
930.4664074431306
 21
1401.500000000191
 31
0.0
  0
LINE
  5
19E
330
87
100
AcDbEntity
  8
P-SANR-FIXT
100
AcDbLine
 10
930.4664074431306
 20
1418.500000000191
 30
0.0
 11
850.4664074431335
 21
1418.500000000191
 31
0.0
  0
LINE
  5
19F
330
87
100
AcDbEntity
  8
P-SANR-FIXT
100
AcDbLine
 10
1790.666407443127
 20
983.6817996285168
 30
0.0
 11
1790.666407443123
 21
596.3182003716022
 31
0.0
  0
LINE
  5
1A0
330
87
100
AcDbEntity
  8
P-SANR-FIXT
100
AcDbLine
 10
1785.666407443128
 20
1035.000000000059
 30
0.0
 11
1785.666407443123
 21
545.0000000000594
 31
0.0
  0
LINE
  5
1A1
330
87
100
AcDbEntity
  8
P-SANR-FIXT
100
AcDbLine
 10
1750.666407443128
 20
1035.00000000006
 30
0.0
 11
1750.666407443123
 21
545.0000000000598
 31
0.0
  0
SPLINE
  5
1A2
330
87
100
AcDbEntity
  8
P-SANR-FIXT
100
AcDbSpline
210
0.0
220
0.0
230
1.0
 70
     8
 71
     3
 72
    11
 73
     7
 74
     0
 42
0.000000001
 43
0.0000000001
 40
0.0
 40
0.0
 40
0.0
 40
0.0
 40
0.2
 40
0.4
 40
0.7
 40
1.0
 40
1.0
 40
1.0
 40
1.0
 10
1693.366407443126
 20
926.5000000000624
 30
0.0
 10
1693.363129367936
 20
926.5000000000624
 30
0.0
 10
1693.134932367794
 20
926.4783871363141
 30
0.0
 10
1691.939422857364
 20
926.3735951146145
 30
0.0
 10
1689.523269985242
 20
926.1890336118014
 30
0.0
 10
1687.044801754547
 20
926.0602378356056
 30
0.0
 10
1685.666407443126
 20
926.0111760114472
 30
0.0
  0
SPLINE
  5
1A3
330
87
100
AcDbEntity
  8
P-SANR-FIXT
100
AcDbSpline
210
0.0
220
0.0
230
1.0
 70
     8
 71
     3
 72
    15
 73
    11
 74
     0
 42
0.000000001
 43
0.0000000001
 40
0.0
 40
0.0
 40
0.0
 40
0.0
 40
0.125
 40
0.25
 40
0.375
 40
0.5
 40
0.625
 40
0.75
 40
0.875
 40
1.0
 40
1.0
 40
1.0
 40
1.0
 10
1685.666407443126
 20
926.011176011441
 30
0.0
 10
1684.702125118319
 20
925.9774636643131
 30
0.0
 10
1682.745427899851
 20
925.9279581373242
 30
0.0
 10
1679.638859215266
 20
925.9202242880164
 30
0.0
 10
1676.622143124753
 20
925.982299628802
 30
0.0
 10
1673.857814897606
 20
926.0989244322459
 30
0.0
 10
1671.51575483083
 20
926.2424760238596
 30
0.0
 10
1669.734505210098
 20
926.379051486014
 30
0.0
 10
1668.617568155901
 20
926.4764880565399
 30
0.0
 10
1668.370265505739
 20
926.5000000000567
 30
0.0
 10
1668.366407443127
 20
926.5000000000563
 30
0.0
  0
SPLINE
  5
1A4
330
87
100
AcDbEntity
  8
P-SANR-FIXT
100
AcDbSpline
210
0.0
220
0.0
230
1.0
 70
     8
 71
     3
 72
    28
 73
    24
 74
     0
 42
0.000000001
 43
0.0000000001
 40
0.0
 40
0.0
 40
0.0
 40
0.0
 40
0.0909090909090909
 40
0.1363636363636363
 40
0.1818181818181818
 40
0.2272727272727272
 40
0.2727272727272727
 40
0.3181818181818182
 40
0.3636363636363637
 40
0.4090909090909091
 40
0.4545454545454545
 40
0.5
 40
0.5454545454545455
 40
0.5909090909090909
 40
0.6363636363636364
 40
0.6818181818181819
 40
0.7272727272727274
 40
0.7727272727272727
 40
0.8181818181818181
 40
0.8636363636363636
 40
0.9090909090909089
 40
0.9545454545454546
 40
1.0
 40
1.0
 40
1.0
 40
1.0
 10
1590.866407443126
 20
926.5000000000569
 30
0.0
 10
1590.849790966962
 20
926.5000000000567
 30
0.0
 10
1589.656067636873
 20
923.6166294485705
 30
0.0
 10
1586.023275419497
 20
914.4054926616078
 30
0.0
 10
1582.534607559988
 20
905.0267367411958
 30
0.0
 10
1578.537889589155
 20
893.3934353953402
 30
0.0
 10
1574.333029198073
 20
879.7325247347682
 30
0.0
 10
1570.234902671344
 20
864.2697038955963
 30
0.0
 10
1566.568451569211
 20
847.2459310414809
 30
0.0
 10
1563.651833556036
 20
828.9436051875853
 30
0.0
 10
1561.766954784593
 20
809.7153602446196
 30
0.0
 10
1561.114360307388
 20
789.9956421437447
 30
0.0
 10
1561.767518884281
 20
770.2762379900725
 30
0.0
 10
1563.652827807757
 20
751.0488417913919
 30
0.0
 10
1566.569666604572
 20
732.7476999983472
 30
0.0
 10
1570.236144918655
 20
715.72524783215
 30
0.0
 10
1574.334076401079
 20
700.2637843445357
 30
0.0
 10
1578.538792278671
 20
686.6041612917143
 30
0.0
 10
1582.534535013284
 20
674.9724255524015
 30
0.0
 10
1586.025068970979
 20
665.5935085891315
 30
0.0
 10
1588.741767923219
 20
658.688364505731
 30
0.0
 10
1590.474825216857
 20
654.4524590129938
 30
0.0
 10
1590.858099760813
 20
653.5000000000658
 30
0.0
 10
1590.866407443124
 20
653.5000000000661
 30
0.0
  0
SPLINE
  5
1A5
330
87
100
AcDbEntity
  8
P-SANR-FIXT
100
AcDbSpline
210
0.0
220
0.0
230
1.0
 70
     8
 71
     3
 72
    28
 73
    24
 74
     0
 42
0.000000001
 43
0.0000000001
 40
0.0
 40
0.0
 40
0.0
 40
0.0
 40
0.0909090909090909
 40
0.1363636363636363
 40
0.1818181818181818
 40
0.2272727272727272
 40
0.2727272727272727
 40
0.3181818181818182
 40
0.3636363636363637
 40
0.4090909090909091
 40
0.4545454545454545
 40
0.5
 40
0.5454545454545455
 40
0.5909090909090909
 40
0.6363636363636364
 40
0.6818181818181819
 40
0.7272727272727274
 40
0.7727272727272727
 40
0.8181818181818181
 40
0.8636363636363636
 40
0.9090909090909089
 40
0.9545454545454546
 40
1.0
 40
1.0
 40
1.0
 40
1.0
 10
930.4664074431213
 20
653.5000000000735
 30
0.0
 10
930.4830228077424
 20
653.5000000000733
 30
0.0
 10
931.6767368041874
 20
656.383349585046
 30
0.0
 10
935.3093927754844
 20
665.5941301707786
 30
0.0
 10
938.7978385980991
 20
674.9722590001085
 30
0.0
 10
942.7941408468017
 20
686.6042059192814
 30
0.0
 10
946.9987068031169
 20
700.263772386603
 30
0.0
 10
951.0966784565614
 20
715.7252510363555
 30
0.0
 10
954.763146007842
 20
732.747699139497
 30
0.0
 10
957.6799876848458
 20
751.0488420226262
 30
0.0
 10
959.5652958503723
 20
770.2762379240245
 30
0.0
 10
960.2184545788748
 20
789.9956421767377
 30
0.0
 10
959.5658602531836
 20
809.7153601787322
 30
0.0
 10
957.6809807240799
 20
828.9436054181777
 30
0.0
 10
954.7643655900365
 20
847.2459301850349
 30
0.0
 10
951.0979037290388
 20
864.269707090825
 30
0.0
 10
946.9998173586374
 20
879.7325128103363
 30
0.0
 10
942.7948071011153
 20
893.3934798978757
 30
0.0
 10
938.7986484397167
 20
905.0265706555235
 30
0.0
 10
935.307893208914
 20
914.4061125017991
 30
0.0
 10
932.5910892216215
 20
921.3115319767753
 30
0.0
 10
930.8580022822198
 20
925.5475097429593
 30
0.0
 10
930.4747156812059
 20
926.5000000000631
 30
0.0
 10
930.4664074431244
 20
926.5000000000632
 30
0.0
  0
SPLINE
  5
1A6
330
87
100
AcDbEntity
  8
P-SANR-FIXT
100
AcDbSpline
210
0.0
220
0.0
230
1.0
 70
     8
 71
     3
 72
    15
 73
    11
 74
     0
 42
0.000000001
 43
0.0000000001
 40
0.0
 40
0.0
 40
0.0
 40
0.0
 40
0.125
 40
0.25
 40
0.375
 40
0.5
 40
0.625
 40
0.75
 40
0.875
 40
1.0
 40
1.0
 40
1.0
 40
1.0
 10
852.9664074431236
 20
926.5000000000641
 30
0.0
 10
852.9625493805115
 20
926.5000000000641
 30
0.0
 10
852.7152467303489
 20
926.4764880565477
 30
0.0
 10
851.5983096761518
 20
926.3790514860218
 30
0.0
 10
849.8170600554194
 20
926.2424760238678
 30
0.0
 10
847.4749999886443
 20
926.0989244322535
 30
0.0
 10
844.7106717614975
 20
925.9822996288109
 30
0.0
 10
841.6939556709836
 20
925.9202242880247
 30
0.0
 10
838.5873869863997
 20
925.9279581373315
 30
0.0
 10
836.6306897679312
 20
925.9774636643211
 30
0.0
 10
835.6664074431245
 20
926.0111760114494
 30
0.0
  0
SPLINE
  5
1A7
330
87
100
AcDbEntity
  8
P-SANR-FIXT
100
AcDbSpline
210
0.0
220
0.0
230
1.0
 70
     8
 71
     3
 72
    11
 73
     7
 74
     0
 42
0.000000001
 43
0.0000000001
 40
0.0
 40
0.0
 40
0.0
 40
0.0
 40
0.2
 40
0.4
 40
0.7
 40
1.0
 40
1.0
 40
1.0
 40
1.0
 10
835.6664074431245
 20
926.0111760114478
 30
0.0
 10
834.7474779021769
 20
926.0438838942201
 30
0.0
 10
833.0502459767696
 20
926.1216113731723
 30
0.0
 10
830.5034917260508
 20
926.2836775706087
 30
0.0
 10
828.4926038761346
 20
926.450281318117
 30
0.0
 10
827.971324555909
 20
926.5000000000631
 30
0.0
 10
827.966407443124
 20
926.5000000000631
 30
0.0
  0
LINE
  5
1A8
330
87
100
AcDbEntity
  8
P-SANR-FIXT
100
AcDbLine
 10
770.6664074431246
 20
1035.00000000006
 30
0.0
 11
770.6664074431195
 21
545.0000000000797
 31
0.0
  0
LINE
  5
1A9
330
87
100
AcDbEntity
  8
P-SANR-FIXT
100
AcDbLine
 10
735.6664074431247
 20
1035.00000000006
 30
0.0
 11
735.6664074431196
 21
545.00000000008
 31
0.0
  0
LINE
  5
1AA
330
87
100
AcDbEntity
  8
P-SANR-FIXT
100
AcDbLine
 10
730.6664074431246
 20
983.6817996285136
 30
0.0
 11
730.6664074431205
 21
596.3182003716275
 31
0.0
  0
LINE
  5
1AB
330
87
100
AcDbEntity
  8
P-SANR-FIXT
100
AcDbLine
 10
1216.666407443133
 20
1660.000000000124
 30
0.0
 11
1304.666407443132
 21
1660.000000000123
 31
0.0
  0
SPLINE
  5
1AC
330
87
100
AcDbEntity
  8
P-SANR-FIXT
100
AcDbSpline
210
0.0
220
0.0
230
1.0
 70
     8
 71
     3
 72
    23
 73
    19
 74
     0
 42
0.000000001
 43
0.0000000001
 40
0.0
 40
0.0
 40
0.0
 40
0.0
 40
0.0555555555555556
 40
0.1111111111111111
 40
0.1666666666666666
 40
0.2222222222222222
 40
0.2777777777777778
 40
0.3333333333333333
 40
0.3888888888888888
 40
0.4444444444444445
 40
0.5138888888888889
 40
0.5486111111111111
 40
0.5833333333333333
 40
0.6527777777777777
 40
0.7222222222222223
 40
0.7916666666666668
 40
0.861111111111111
 40
1.0
 40
1.0
 40
1.0
 40
1.0
 10
930.4664074431292
 20
1418.500000000191
 30
0.0
 10
930.4664074431292
 20
1418.494944296368
 30
0.0
 10
930.4688266506097
 20
1418.403163605596
 30
0.0
 10
930.4783050331444
 20
1418.032172104891
 30
0.0
 10
930.4931780635296
 20
1417.39279798515
 30
0.0
 10
930.5114700820125
 20
1416.545571022991
 30
0.0
 10
930.5307334491208
 20
1415.487528635966
 30
0.0
 10
930.5490751592019
 20
1414.273886252174
 30
0.0
 10
930.5637563084097
 20
1412.919311769
 30
0.0
 10
930.5744815305608
 20
1411.363105040045
 30
0.0
 10
930.5767182841156
 20
1409.932863286951
 30
0.0
 10
930.5737069908349
 20
1408.697777783819
 30
0.0
 10
930.5672660984503
 20
1407.50671895963
 30
0.0
 10
930.553420464677
 20
1406.030575990599
 30
0.0
 10
930.5308093882224
 20
1404.496013018363
 30
0.0
 10
930.5066097048962
 20
1403.206306460314
 30
0.0
 10
930.4773262672286
 20
1401.904524059865
 30
0.0
 10
930.466407443129
 20
1401.512997219308
 30
0.0
 10
930.466407443129
 20
1401.500000000191
 30
0.0
  0
LINE
  5
1AD
330
87
100
AcDbEntity
  8
P-SANR-FIXT
100
AcDbLine
 10
1290.816407443133
 20
360.0000000000597
 30
0.0
 11
1230.516407443105
 21
360.0000000000604
 31
0.0
  0
LINE
  5
1AE
330
87
100
AcDbEntity
  8
P-SANR-FIXT
100
AcDbLine
 10
827.9664074431247
 20
966.2000000001288
 30
0.0
 11
852.9664074431245
 21
966.2000000001283
 31
0.0
  0
LINE
  5
1AF
330
87
100
AcDbEntity
  8
P-SANR-FIXT
100
AcDbLine
 10
1668.366407443127
 20
966.2000000001199
 30
0.0
 11
1693.366407443126
 21
966.2000000001199
 31
0.0
  0
LINE
  5
1B0
330
87
100
AcDbEntity
  8
P-SANR-FIXT
100
AcDbLine
 10
850.4664074431323
 20
1401.500000000191
 30
0.0
 11
850.4664074431323
 21
1418.500000000192
 31
0.0
  0
ENDBLK
  5
1B2
330
87
100
AcDbEntity
  8
0
100
AcDbBlockEnd
  0
BLOCK
  5
2CD
330
1B4
100
AcDbEntity
  8
0
100
AcDbBlockBegin
  2
Automatic flow rate regulator valve_Caleffi_121 DN15 - 2___Pressure gauge H-V1-Est - Idraulica
 70
     0
 10
0.0
 20
0.0
 30
0.0
  3
Automatic flow rate regulator valve_Caleffi_121 DN15 - 2___Pressure gauge H-V1-Est - Idraulica
  1

  0
LINE
  5
1B5
330
1B4
100
AcDbEntity
  8
M-PIPE
100
AcDbLine
 10
3287.114353943076
 20
259.7593309572153
 30
0.0
 11
3288.133237741944
 21
259.191344599253
 31
0.0
1001
REVIT
1002
{
1070
     3
1000
790271
1002
}
  0
LINE
  5
1B6
330
1B4
100
AcDbEntity
  8
M-PIPE
100
AcDbLine
 10
3289.184260655824
 20
258.6852976321378
 30
0.0
 11
3290.263661576903
 21
258.2430009556858
 31
0.0
1001
REVIT
1002
{
1070
     3
1000
790271
1002
}
  0
LINE
  5
1B7
330
1B4
100
AcDbEntity
  8
M-PIPE
100
AcDbLine
 10
3291.367577846067
 20
257.8660373379445
 30
0.0
 11
3291.453308653046
 21
257.8398133389757
 31
0.0
1001
REVIT
1002
{
1070
     3
1000
790271
1002
}
  0
LINE
  5
1B8
330
1B4
100
AcDbEntity
  8
M-PIPE
100
AcDbLine
 10
3292.492059075509
 20
257.5557557512236
 30
0.0
 11
3293.633081285275
 21
257.3132665447691
 31
0.0
1001
REVIT
1002
{
1070
     3
1000
790271
1002
}
  0
LINE
  5
1B9
330
1B4
100
AcDbEntity
  8
M-PIPE
100
AcDbLine
 10
3294.786561303162
 20
257.1394374713548
 30
0.0
 11
3295.948371376433
 21
257.0348905820105
 31
0.0
1001
REVIT
1002
{
1070
     3
1000
790271
1002
}
  0
ARC
  5
1BA
330
1B4
100
AcDbEntity
  8
M-PIPE
100
AcDbCircle
 10
3297.114353943074
 20
276.4999999999996
 30
0.0
 40
19.50000000000009
100
AcDbArc
 50
90.00000000000026
 51
270.0000000000012
1001
REVIT
1002
{
1070
     3
1000
790271
1002
}
  0
ARC
  5
1BB
330
1B4
100
AcDbEntity
  8
M-PIPE
100
AcDbCircle
 10
3297.114353943074
 20
276.4999999999996
 30
0.0
 40
19.49999999999997
100
AcDbArc
 50
270.0000000000007
 51
89.99999999999968
1001
REVIT
1002
{
1070
     3
1000
790271
1002
}
  0
LINE
  5
1BC
330
1B4
100
AcDbEntity
  8
M-PIPE
100
AcDbLine
 10
3298.280336509717
 20
257.0348905820106
 30
0.0
 11
3299.442146582989
 21
257.1394374713549
 31
0.0
1001
REVIT
1002
{
1070
     3
1000
790271
1002
}
  0
LINE
  5
1BD
330
1B4
100
AcDbEntity
  8
M-PIPE
100
AcDbLine
 10
3300.595626600875
 20
257.3132665447693
 30
0.0
 11
3301.736648810641
 21
257.555755751224
 31
0.0
1001
REVIT
1002
{
1070
     3
1000
790271
1002
}
  0
LINE
  5
1BE
330
1B4
100
AcDbEntity
  8
M-PIPE
100
AcDbLine
 10
3302.775399233104
 20
257.8398133389762
 30
0.0
 11
3302.861130040084
 21
257.866037337945
 31
0.0
1001
REVIT
1002
{
1070
     3
1000
790271
1002
}
  0
LINE
  5
1BF
330
1B4
100
AcDbEntity
  8
M-PIPE
100
AcDbLine
 10
3303.965046309248
 20
258.2430009556864
 30
0.0
 11
3305.044447230327
 21
258.6852976321385
 31
0.0
1001
REVIT
1002
{
1070
     3
1000
790271
1002
}
  0
LINE
  5
1C0
330
1B4
100
AcDbEntity
  8
M-PIPE
100
AcDbLine
 10
3306.095470144207
 20
259.1913445992539
 30
0.0
 11
3307.114353943074
 21
259.7593309572163
 31
0.0
1001
REVIT
1002
{
1070
     3
1000
790271
1002
}
  0
LINE
  5
1C1
330
1B4
100
AcDbEntity
  8
M-PIPE
100
AcDbLine
 10
3307.114353943074
 20
259.7593309572163
 30
0.0
 11
3307.114353943074
 21
244.0514481833643
 31
0.0
1001
REVIT
1002
{
1070
     3
1000
790271
1002
}
  0
LINE
  5
1C2
330
1B4
100
AcDbEntity
  8
M-PIPE
100
AcDbLine
 10
3307.114353943074
 20
244.0514481833643
 30
0.0
 11
3307.114353943076
 21
109.9955122061566
 31
0.0
1001
REVIT
1002
{
1070
     3
1000
790271
1002
}
  0
LINE
  5
1C3
330
1B4
100
AcDbEntity
  8
M-PIPE
100
AcDbLine
 10
3287.114353943078
 20
109.9955122061563
 30
0.0
 11
3287.114353943076
 21
244.0514481833641
 31
0.0
1001
REVIT
1002
{
1070
     3
1000
790271
1002
}
  0
LINE
  5
1C4
330
1B4
100
AcDbEntity
  8
M-PIPE
100
AcDbLine
 10
3287.114353943076
 20
244.0514481833641
 30
0.0
 11
3287.114353943076
 21
259.7593309572153
 31
0.0
1001
REVIT
1002
{
1070
     3
1000
790271
1002
}
  0
LINE
  5
1C5
330
1B4
100
AcDbEntity
  8
M-PIPE
100
AcDbLine
 10
3287.114353943076
 20
244.0514481833641
 30
0.0
 11
3307.114353943074
 21
244.0514481833643
 31
0.0
1001
REVIT
1002
{
1070
     3
1000
790271
1002
}
  0
LINE
  5
1C6
330
1B4
100
AcDbEntity
  8
M-PIPE
100
AcDbLine
 10
3287.114353943078
 20
109.9955122061563
 30
0.0
 11
3307.114353943076
 21
109.9955122061566
 31
0.0
1001
REVIT
1002
{
1070
     3
1000
790271
1002
}
  0
LINE
  5
1C7
330
1B4
100
AcDbEntity
  8
M-PIPE
100
AcDbLine
 10
3330.614353943114
 20
215.0000000000638
 30
0.0
 11
3330.614353943114
 21
234.0000000000639
 31
0.0
1001
REVIT
1002
{
1070
     3
1000
790271
1002
}
  0
LINE
  5
1C8
330
1B4
100
AcDbEntity
  8
M-PIPE
100
AcDbLine
 10
3263.614353943069
 20
215.0000000000638
 30
0.0
 11
3263.614353943069
 21
234.0000000000639
 31
0.0
1001
REVIT
1002
{
1070
     3
1000
790271
1002
}
  0
LINE
  5
1C9
330
1B4
100
AcDbEntity
  8
M-PIPE
100
AcDbLine
 10
3263.614353943091
 20
328.4999999999992
 30
0.0
 11
3297.114353943091
 21
328.4999999999992
 31
0.0
1001
REVIT
1002
{
1070
     3
1000
790271
1002
}
  0
LINE
  5
1CA
330
1B4
100
AcDbEntity
  8
M-PIPE
100
AcDbLine
 10
3297.114353943091
 20
328.4999999999992
 30
0.0
 11
3330.614353943091
 21
328.4999999999992
 31
0.0
1001
REVIT
1002
{
1070
     3
1000
790271
1002
}
  0
LINE
  5
1CB
330
1B4
100
AcDbEntity
  8
M-PIPE
100
AcDbLine
 10
3307.114353943075
 20
215.0000000000638
 30
0.0
 11
3330.614353943114
 21
215.0000000000638
 31
0.0
1001
REVIT
1002
{
1070
     3
1000
790271
1002
}
  0
LINE
  5
1CC
330
1B4
100
AcDbEntity
  8
M-PIPE
100
AcDbLine
 10
3287.114353943077
 20
215.0000000000638
 30
0.0
 11
3263.614353943069
 21
215.0000000000638
 31
0.0
1001
REVIT
1002
{
1070
     3
1000
790271
1002
}
  0
LINE
  5
1CD
330
1B4
100
AcDbEntity
  8
M-PIPE
100
AcDbLine
 10
3263.614353943069
 20
234.0000000000639
 30
0.0
 11
3287.114353943076
 21
234.0000000000639
 31
0.0
1001
REVIT
1002
{
1070
     3
1000
790271
1002
}
  0
LINE
  5
1CE
330
1B4
100
AcDbEntity
  8
M-PIPE
100
AcDbLine
 10
3330.614353943114
 20
234.0000000000639
 30
0.0
 11
3307.114353943074
 21
234.0000000000639
 31
0.0
1001
REVIT
1002
{
1070
     3
1000
790271
1002
}
  0
LINE
  5
1CF
330
1B4
100
AcDbEntity
  8
M-PIPE
100
AcDbLine
 10
3330.614353943091
 20
328.4999999999991
 30
0.0
 11
3330.614353943091
 21
310.4999999999991
 31
0.0
1001
REVIT
1002
{
1070
     3
1000
790271
1002
}
  0
LINE
  5
1D0
330
1B4
100
AcDbEntity
  8
M-PIPE
100
AcDbLine
 10
3297.114353943091
 20
328.4999999999992
 30
0.0
 11
3297.114353943091
 21
310.4999999999992
 31
0.0
1001
REVIT
1002
{
1070
     3
1000
790271
1002
}
  0
LINE
  5
1D1
330
1B4
100
AcDbEntity
  8
M-PIPE
100
AcDbLine
 10
3263.614353943091
 20
328.4999999999991
 30
0.0
 11
3263.614353943091
 21
310.4999999999991
 31
0.0
1001
REVIT
1002
{
1070
     3
1000
790271
1002
}
  0
LINE
  5
1D2
330
1B4
100
AcDbEntity
  8
M-PIPE
100
AcDbLine
 10
3263.614353943072
 20
242.0999999999994
 30
0.0
 11
3263.614353943072
 21
234.0000000000627
 31
0.0
1001
REVIT
1002
{
1070
     3
1000
790271
1002
}
  0
LINE
  5
1D3
330
1B4
100
AcDbEntity
  8
M-PIPE
100
AcDbLine
 10
3330.614353943087
 20
234.0000000000627
 30
0.0
 11
3330.614353943087
 21
242.1000000000005
 31
0.0
1001
REVIT
1002
{
1070
     3
1000
790271
1002
}
  0
LINE
  5
1D4
330
1B4
100
AcDbEntity
  8
M-PIPE
100
AcDbLine
 10
3255.114353943079
 20
250.5999999999977
 30
0.0
 11
3263.614353943079
 21
242.0999999999994
 31
0.0
1001
REVIT
1002
{
1070
     3
1000
790271
1002
}
  0
LINE
  5
1D5
330
1B4
100
AcDbEntity
  8
M-PIPE
100
AcDbLine
 10
3330.61435394308
 20
242.1000000000005
 30
0.0
 11
3339.11435394308
 21
250.5999999999985
 31
0.0
1001
REVIT
1002
{
1070
     3
1000
790271
1002
}
  0
LINE
  5
1D6
330
1B4
100
AcDbEntity
  8
M-PIPE
100
AcDbLine
 10
3255.114353943078
 20
310.4999999999974
 30
0.0
 11
3255.114353943079
 21
250.5999999999977
 31
0.0
1001
REVIT
1002
{
1070
     3
1000
790271
1002
}
  0
LINE
  5
1D7
330
1B4
100
AcDbEntity
  8
M-PIPE
100
AcDbLine
 10
3339.114353943079
 20
250.5999999999985
 30
0.0
 11
3339.114353943079
 21
310.4999999999987
 31
0.0
1001
REVIT
1002
{
1070
     3
1000
790271
1002
}
  0
LINE
  5
1D8
330
1B4
100
AcDbEntity
  8
M-PIPE
100
AcDbLine
 10
3255.114353943075
 20
310.4999999999985
 30
0.0
 11
3297.114353943074
 21
310.4999999999949
 31
0.0
1001
REVIT
1002
{
1070
     3
1000
790271
1002
}
  0
LINE
  5
1D9
330
1B4
100
AcDbEntity
  8
M-PIPE
100
AcDbLine
 10
3297.114353943074
 20
310.4999999999949
 30
0.0
 11
3339.114353943074
 21
310.4999999999997
 31
0.0
1001
REVIT
1002
{
1070
     3
1000
790271
1002
}
  0
LINE
  5
1DA
330
1B4
100
AcDbEntity
  8
M-PIPE
100
AcDbLine
 10
3287.104806612637
 20
242.0999999999977
 30
0.0
 11
3263.614353943075
 21
242.1000000000006
 31
0.0
1001
REVIT
1002
{
1070
     3
1000
790271
1002
}
  0
LINE
  5
1DB
330
1B4
100
AcDbEntity
  8
M-PIPE
100
AcDbLine
 10
3330.614353943076
 20
242.1000000000015
 30
0.0
 11
3307.123901273515
 21
242.099999999998
 31
0.0
1001
REVIT
1002
{
1070
     3
1000
790271
1002
}
  0
LINE
  5
1DC
330
1B4
100
AcDbEntity
  8
M-PIPE
100
AcDbLine
 10
3287.107767648284
 20
250.5999999999949
 30
0.0
 11
3255.114353943076
 21
250.5999999999985
 31
0.0
1001
REVIT
1002
{
1070
     3
1000
790271
1002
}
  0
LINE
  5
1DD
330
1B4
100
AcDbEntity
  8
M-PIPE
100
AcDbLine
 10
3339.114353943076
 20
250.5999999999996
 30
0.0
 11
3307.120940237868
 21
250.5999999999951
 31
0.0
1001
REVIT
1002
{
1070
     3
1000
790271
1002
}
  0
LINE
  5
1DE
330
1B4
100
AcDbEntity
  8
M-PIPE
100
AcDbLine
 10
3583.679734999844
 20
-0.000000000041149
 30
0.0
 11
3583.679734999844
 21
5.99999999995857
 31
0.0
1001
REVIT
1002
{
1070
     3
1000
790271
1002
}
  0
LINE
  5
1DF
330
1B4
100
AcDbEntity
  8
M-PIPE
100
AcDbLine
 10
3494.00024307553
 20
499.9999999999959
 30
0.0
 11
3494.000243075529
 21
439.9999999999961
 31
0.0
1001
REVIT
1002
{
1070
     3
1000
790271
1002
}
  0
LINE
  5
1E0
330
1B4
100
AcDbEntity
  8
M-PIPE
100
AcDbLine
 10
3494.000243075529
 20
439.9999999999961
 30
0.0
 11
3561.000243075526
 21
5.999999999959787
 31
0.0
1001
REVIT
1002
{
1070
     3
1000
790271
1002
}
  0
LINE
  5
1E1
330
1B4
100
AcDbEntity
  8
M-PIPE
100
AcDbLine
 10
3465.378464810616
 20
5.999999999960253
 30
0.0
 11
3465.378464810616
 21
-0.0000000000013927
 31
0.0
1001
REVIT
1002
{
1070
     3
1000
790271
1002
}
  0
LINE
  5
1E2
330
1B4
100
AcDbEntity
  8
M-PIPE
100
AcDbLine
 10
3465.378464810616
 20
-0.0000000000013927
 30
0.0
 11
3500.378464810615
 21
-0.0000000000011665
 31
0.0
1001
REVIT
1002
{
1070
     3
1000
790271
1002
}
  0
LINE
  5
1E3
330
1B4
100
AcDbEntity
  8
M-PIPE
100
AcDbLine
 10
3500.378464810615
 20
-0.0000000000011665
 30
0.0
 11
3520.378464810617
 21
-0.0000000000266075
 31
0.0
1001
REVIT
1002
{
1070
     3
1000
790271
1002
}
  0
LINE
  5
1E4
330
1B4
100
AcDbEntity
  8
M-PIPE
100
AcDbLine
 10
3520.378464810617
 20
5.999999999960607
 30
0.0
 11
3500.378464810615
 21
5.999999999960478
 31
0.0
1001
REVIT
1002
{
1070
     3
1000
790271
1002
}
  0
LINE
  5
1E5
330
1B4
100
AcDbEntity
  8
M-PIPE
100
AcDbLine
 10
3500.378464810615
 20
5.999999999960464
 30
0.0
 11
3433.378464810618
 21
439.9999999999968
 31
0.0
1001
REVIT
1002
{
1070
     3
1000
790271
1002
}
  0
LINE
  5
1E6
330
1B4
100
AcDbEntity
  8
M-PIPE
100
AcDbLine
 10
3433.378464810618
 20
439.9999999999968
 30
0.0
 11
3433.378464810618
 21
499.9999999999966
 31
0.0
1001
REVIT
1002
{
1070
     3
1000
790271
1002
}
  0
LINE
  5
1E7
330
1B4
100
AcDbEntity
  8
M-PIPE
100
AcDbLine
 10
3433.378464810618
 20
499.9999999999966
 30
0.0
 11
3430.901089815913
 21
499.9999999999966
 31
0.0
1001
REVIT
1002
{
1070
     3
1000
790271
1002
}
  0
LINE
  5
1E8
330
1B4
100
AcDbEntity
  8
M-PIPE
100
AcDbLine
 10
3430.378464810618
 20
447.9400174614506
 30
0.0
 11
3430.378464810618
 21
439.9999999999971
 31
0.0
1001
REVIT
1002
{
1070
     3
1000
790271
1002
}
  0
ELLIPSE
  5
1E9
330
1B4
100
AcDbEntity
  8
M-PIPE
100
AcDbEllipse
 10
3375.572613605642
 20
569.9433518683828
 30
0.0
 11
0.0
 21
170.0000000000001
 31
0.0
210
0.0
220
0.0
230
0.9999999999999998
 40
0.4999999999999966
 41
3.810732192350632
 42
3.842321174893289
1001
REVIT
1002
{
1070
     3
1000
790271
1002
}
  0
LINE
  5
1EA
330
1B4
100
AcDbEntity
  8
M-PIPE
100
AcDbLine
 10
3373.378464810619
 20
385.7534232037434
 30
0.0
 11
3373.378464810619
 21
351.4922678357428
 31
0.0
1001
REVIT
1002
{
1070
     3
1000
790271
1002
}
  0
ELLIPSE
  5
1EB
330
1B4
100
AcDbEntity
  8
M-PIPE
100
AcDbEllipse
 10
3423.378464810619
 20
351.4922678357436
 30
0.0
 11
0.0000000000011386
 21
100.0
 31
0.0
210
0.0
220
0.0
230
1.0
 40
0.4999999999999999
 41
1.57079632679491
 42
2.094395102393204
1001
REVIT
1002
{
1070
     3
1000
790271
1002
}
  0
LINE
  5
1EC
330
1B4
100
AcDbEntity
  8
M-PIPE
100
AcDbLine
 10
3380.077194621396
 20
301.4922678357434
 30
0.0
 11
3465.378464810616
 21
5.999999999960262
 31
0.0
1001
REVIT
1002
{
1070
     3
1000
790271
1002
}
  0
LINE
  5
1ED
330
1B4
100
AcDbEntity
  8
M-PIPE
100
AcDbLine
 10
3583.67973499984
 20
-0.0000000000398417
 30
0.0
 11
3573.679734999841
 21
-0.0000000000398417
 31
0.0
1001
REVIT
1002
{
1070
     3
1000
790271
1002
}
  0
LINE
  5
1EE
330
1B4
100
AcDbEntity
  8
M-PIPE
100
AcDbLine
 10
3573.679734999838
 20
-0.0000000000398417
 30
0.0
 11
3547.698972886303
 21
-0.0000000000395334
 31
0.0
1001
REVIT
1002
{
1070
     3
1000
790271
1002
}
  0
LINE
  5
1EF
330
1B4
100
AcDbEntity
  8
M-PIPE
100
AcDbLine
 10
3547.698972886306
 20
-0.0000000000266075
 30
0.0
 11
3520.378464810617
 21
-0.0000000000266075
 31
0.0
1001
REVIT
1002
{
1070
     3
1000
790271
1002
}
  0
LINE
  5
1F0
330
1B4
100
AcDbEntity
  8
M-PIPE
100
AcDbLine
 10
3520.378464810617
 20
5.999999999960467
 30
0.0
 11
3547.698972886305
 21
5.999999999960467
 31
0.0
1001
REVIT
1002
{
1070
     3
1000
790271
1002
}
  0
LINE
  5
1F1
330
1B4
100
AcDbEntity
  8
M-PIPE
100
AcDbLine
 10
3573.679734999841
 20
5.999999999959888
 30
0.0
 11
3583.67973499984
 21
5.999999999959888
 31
0.0
1001
REVIT
1002
{
1070
     3
1000
790271
1002
}
  0
LINE
  5
1F2
330
1B4
100
AcDbEntity
  8
M-PIPE
100
AcDbLine
 10
3547.698972886306
 20
5.999999999960467
 30
0.0
 11
3573.679734999841
 21
5.999999999960158
 31
0.0
1001
REVIT
1002
{
1070
     3
1000
790271
1002
}
  0
LINE
  5
1F3
330
1B4
100
AcDbEntity
  8
M-PIPE
100
AcDbLine
 10
3494.00024307553
 20
499.9999999999959
 30
0.0
 11
3433.378464810618
 21
499.9999999999966
 31
0.0
1001
REVIT
1002
{
1070
     3
1000
790271
1002
}
  0
LINE
  5
1F4
330
1B4
100
AcDbEntity
  8
M-PIPE
100
AcDbLine
 10
3433.378464810618
 20
439.9999999999968
 30
0.0
 11
3494.000243075529
 21
439.9999999999961
 31
0.0
1001
REVIT
1002
{
1070
     3
1000
790271
1002
}
  0
LINE
  5
1F5
330
1B4
100
AcDbEntity
  8
M-PIPE
100
AcDbLine
 10
2769.964353943081
 20
5.99999999995857
 30
0.0
 11
2769.964353943081
 21
-0.000000000041149
 31
0.0
1001
REVIT
1002
{
1070
     3
1000
790271
1002
}
  0
LINE
  5
1F6
330
1B4
100
AcDbEntity
  8
M-PIPE
100
AcDbLine
 10
2829.964353943082
 20
-0.0000000000018858
 30
0.0
 11
2899.964353943082
 21
-0.000000000002112
 31
0.0
1001
REVIT
1002
{
1070
     3
1000
790271
1002
}
  0
LINE
  5
1F7
330
1B4
100
AcDbEntity
  8
M-PIPE
100
AcDbLine
 10
2899.964353943082
 20
-0.000000000002112
 30
0.0
 11
2899.964353943082
 21
5.999999999959534
 31
0.0
1001
REVIT
1002
{
1070
     3
1000
790271
1002
}
  0
LINE
  5
1F8
330
1B4
100
AcDbEntity
  8
M-PIPE
100
AcDbLine
 10
2899.964353943082
 20
5.999999999959517
 30
0.0
 11
3070.566894321525
 21
301.4922678357427
 31
0.0
1001
REVIT
1002
{
1070
     3
1000
790271
1002
}
  0
ARC
  5
1F9
330
1B4
100
AcDbEntity
  8
M-PIPE
100
AcDbCircle
 10
2983.964353943081
 20
351.4922678357428
 30
0.0
 40
100.0000000000004
100
AcDbArc
 50
329.9999999999987
 51
359.9999999999988
1001
REVIT
1002
{
1070
     3
1000
790271
1002
}
  0
LINE
  5
1FA
330
1B4
100
AcDbEntity
  8
M-PIPE
100
AcDbLine
 10
3083.964353943081
 20
351.492267835742
 30
0.0
 11
3083.964353943081
 21
385.746579900427
 31
0.0
1001
REVIT
1002
{
1070
     3
1000
790271
1002
}
  0
ARC
  5
1FB
330
1B4
100
AcDbEntity
  8
M-PIPE
100
AcDbCircle
 10
3079.576056353041
 20
569.943351868382
 30
0.0
 40
170.0
100
AcDbArc
 50
229.8512131448655
 51
231.6808942000263
1001
REVIT
1002
{
1070
     3
1000
790271
1002
}
  0
LINE
  5
1FC
330
1B4
100
AcDbEntity
  8
M-PIPE
100
AcDbLine
 10
2969.964353943084
 20
439.9999999999964
 30
0.0
 11
2969.964353943084
 21
448.0192392175884
 31
0.0
1001
REVIT
1002
{
1070
     3
1000
790271
1002
}
  0
LINE
  5
1FD
330
1B4
100
AcDbEntity
  8
M-PIPE
100
AcDbLine
 10
2968.941505103991
 20
499.9999999999959
 30
0.0
 11
2963.964353943083
 21
499.9999999999959
 31
0.0
1001
REVIT
1002
{
1070
     3
1000
790271
1002
}
  0
LINE
  5
1FE
330
1B4
100
AcDbEntity
  8
M-PIPE
100
AcDbLine
 10
2963.964353943083
 20
499.9999999999959
 30
0.0
 11
2963.964353943083
 21
439.9999999999961
 31
0.0
1001
REVIT
1002
{
1070
     3
1000
790271
1002
}
  0
LINE
  5
1FF
330
1B4
100
AcDbEntity
  8
M-PIPE
100
AcDbLine
 10
2963.964353943083
 20
439.9999999999961
 30
0.0
 11
2829.964353943082
 21
5.999999999959787
 31
0.0
1001
REVIT
1002
{
1070
     3
1000
790271
1002
}
  0
LINE
  5
200
330
1B4
100
AcDbEntity
  8
M-PIPE
100
AcDbLine
 10
2829.964353943082
 20
5.999999999959759
 30
0.0
 11
2789.964353943077
 21
5.999999999959888
 31
0.0
1001
REVIT
1002
{
1070
     3
1000
790271
1002
}
  0
LINE
  5
201
330
1B4
100
AcDbEntity
  8
M-PIPE
100
AcDbLine
 10
2789.964353943077
 20
-0.0000000000273267
 30
0.0
 11
2829.964353943082
 21
-0.0000000000018858
 31
0.0
1001
REVIT
1002
{
1070
     3
1000
790271
1002
}
  0
LINE
  5
202
330
1B4
100
AcDbEntity
  8
M-PIPE
100
AcDbLine
 10
2789.964353943077
 20
-0.0000000000398417
 30
0.0
 11
2769.964353943077
 21
-0.0000000000398417
 31
0.0
1001
REVIT
1002
{
1070
     3
1000
790271
1002
}
  0
LINE
  5
203
330
1B4
100
AcDbEntity
  8
M-PIPE
100
AcDbLine
 10
2769.964353943077
 20
5.999999999959888
 30
0.0
 11
2789.964353943077
 21
5.999999999959888
 31
0.0
1001
REVIT
1002
{
1070
     3
1000
790271
1002
}
  0
ARC
  5
204
330
1B4
100
AcDbEntity
  8
P-SANR-FIXT
100
AcDbCircle
 10
3297.114353943087
 20
1410.000000000192
 30
0.0
 40
8.499999999999198
100
AcDbArc
 50
247.4999999999997
 51
247.6169433625677
  0
ARC
  5
205
330
1B4
100
AcDbEntity
  8
P-SANR-FIXT
100
AcDbCircle
 10
3297.114353943087
 20
1410.000000000192
 30
0.0
 40
8.499999999999459
100
AcDbArc
 50
239.9999999999976
 51
240.1613217897145
  0
ARC
  5
206
330
1B4
100
AcDbEntity
  8
P-SANR-FIXT
100
AcDbCircle
 10
3297.114353943087
 20
1410.000000000192
 30
0.0
 40
8.499999999999621
100
AcDbArc
 50
232.499999999999
 51
232.7118627465261
  0
ARC
  5
207
330
1B4
100
AcDbEntity
  8
P-SANR-FIXT
100
AcDbCircle
 10
3297.114353943087
 20
1410.000000000192
 30
0.0
 40
8.49999999999965
100
AcDbArc
 50
224.727846742059
 51
225.2721532579403
  0
ARC
  5
208
330
1B4
100
AcDbEntity
  8
P-SANR-FIXT
100
AcDbCircle
 10
3297.114353943087
 20
1410.000000000192
 30
0.0
 40
8.499999999999324
100
AcDbArc
 50
217.2881372534727
 51
217.4999999999995
  0
ARC
  5
209
330
1B4
100
AcDbEntity
  8
P-SANR-FIXT
100
AcDbCircle
 10
3297.114353943087
 20
1410.000000000192
 30
0.0
 40
8.499999999999712
100
AcDbArc
 50
209.8386782102847
 51
209.9999999999988
  0
ARC
  5
20A
330
1B4
100
AcDbEntity
  8
P-SANR-FIXT
100
AcDbCircle
 10
3297.114353943087
 20
1410.000000000192
 30
0.0
 40
8.499999999999385
100
AcDbArc
 50
202.3830566374285
 51
202.4999999999981
  0
ARC
  5
20B
330
1B4
100
AcDbEntity
  8
P-SANR-FIXT
100
AcDbCircle
 10
3297.114353943087
 20
1410.000000000192
 30
0.0
 40
8.499999999999198
100
AcDbArc
 50
157.5000000000001
 51
157.616943362567
  0
ARC
  5
20C
330
1B4
100
AcDbEntity
  8
P-SANR-FIXT
100
AcDbCircle
 10
3297.114353943087
 20
1410.000000000192
 30
0.0
 40
8.499999999999232
100
AcDbArc
 50
149.9999999999998
 51
150.1613217897164
  0
ARC
  5
20D
330
1B4
100
AcDbEntity
  8
P-SANR-FIXT
100
AcDbCircle
 10
3297.114353943087
 20
1410.000000000192
 30
0.0
 40
8.499999999999896
100
AcDbArc
 50
142.4999999999959
 51
142.7118627465239
  0
ARC
  5
20E
330
1B4
100
AcDbEntity
  8
P-SANR-FIXT
100
AcDbCircle
 10
3297.114353943087
 20
1410.000000000192
 30
0.0
 40
8.499999999999323
100
AcDbArc
 50
134.7278467420669
 51
135.2721532579363
  0
ARC
  5
20F
330
1B4
100
AcDbEntity
  8
P-SANR-FIXT
100
AcDbCircle
 10
3297.114353943087
 20
1410.000000000192
 30
0.0
 40
8.499999999999324
100
AcDbArc
 50
127.2881372534738
 51
127.5000000000009
  0
ARC
  5
210
330
1B4
100
AcDbEntity
  8
P-SANR-FIXT
100
AcDbCircle
 10
3297.114353943087
 20
1410.000000000192
 30
0.0
 40
8.499999999999712
100
AcDbArc
 50
119.8386782102854
 51
120.0000000000008
  0
ARC
  5
211
330
1B4
100
AcDbEntity
  8
P-SANR-FIXT
100
AcDbCircle
 10
3297.114353943087
 20
1410.000000000192
 30
0.0
 40
8.499999999999385
100
AcDbArc
 50
112.3830566374306
 51
112.4999999999986
  0
ARC
  5
212
330
1B4
100
AcDbEntity
  8
P-SANR-FIXT
100
AcDbCircle
 10
3297.114353943087
 20
1410.000000000192
 30
0.0
 40
8.499999999999445
100
AcDbArc
 50
67.50000000000127
 51
67.61694336257268
  0
ARC
  5
213
330
1B4
100
AcDbEntity
  8
P-SANR-FIXT
100
AcDbCircle
 10
3297.114353943087
 20
1410.000000000192
 30
0.0
 40
8.499999999999685
100
AcDbArc
 50
59.99999999999844
 51
60.16132178971187
  0
ARC
  5
214
330
1B4
100
AcDbEntity
  8
P-SANR-FIXT
100
AcDbCircle
 10
3297.114353943087
 20
1410.000000000192
 30
0.0
 40
8.499999999999449
100
AcDbArc
 50
52.50000000000242
 51
52.71186274651944
  0
ARC
  5
215
330
1B4
100
AcDbEntity
  8
P-SANR-FIXT
100
AcDbCircle
 10
3297.114353943087
 20
1410.000000000192
 30
0.0
 40
8.499999999999326
100
AcDbArc
 50
44.72784674206152
 51
45.27215325794062
  0
ARC
  5
216
330
1B4
100
AcDbEntity
  8
P-SANR-FIXT
100
AcDbCircle
 10
3297.114353943087
 20
1410.000000000192
 30
0.0
 40
8.499999999999047
100
AcDbArc
 50
37.28813725347539
 51
37.50000000000035
  0
ARC
  5
217
330
1B4
100
AcDbEntity
  8
P-SANR-FIXT
100
AcDbCircle
 10
3297.114353943087
 20
1410.000000000192
 30
0.0
 40
8.499999999999712
100
AcDbArc
 50
29.83867821028481
 51
30.00000000000012
  0
ARC
  5
218
330
1B4
100
AcDbEntity
  8
P-SANR-FIXT
100
AcDbCircle
 10
3297.114353943087
 20
1410.000000000192
 30
0.0
 40
8.499999999999385
100
AcDbArc
 50
22.38305663742931
 51
22.50000000000014
  0
ARC
  5
219
330
1B4
100
AcDbEntity
  8
P-SANR-FIXT
100
AcDbCircle
 10
3297.114353943087
 20
1410.000000000192
 30
0.0
 40
8.499999999999198
100
AcDbArc
 50
337.5000000000005
 51
337.6169433625673
  0
ARC
  5
21A
330
1B4
100
AcDbEntity
  8
P-SANR-FIXT
100
AcDbCircle
 10
3297.114353943087
 20
1410.000000000192
 30
0.0
 40
8.499999999999459
100
AcDbArc
 50
329.9999999999995
 51
330.1613217897149
  0
ARC
  5
21B
330
1B4
100
AcDbEntity
  8
P-SANR-FIXT
100
AcDbCircle
 10
3297.114353943087
 20
1410.000000000192
 30
0.0
 40
8.499999999999259
100
AcDbArc
 50
322.4999999999984
 51
322.7118627465246
  0
ARC
  5
21C
330
1B4
100
AcDbEntity
  8
P-SANR-FIXT
100
AcDbCircle
 10
3297.114353943087
 20
1410.000000000192
 30
0.0
 40
8.499999999999644
100
AcDbArc
 50
314.7278467420568
 51
315.2721532579338
  0
ARC
  5
21D
330
1B4
100
AcDbEntity
  8
P-SANR-FIXT
100
AcDbCircle
 10
3297.114353943087
 20
1410.000000000192
 30
0.0
 40
8.499999999999047
100
AcDbArc
 50
307.2881372534742
 51
307.4999999999989
  0
ARC
  5
21E
330
1B4
100
AcDbEntity
  8
P-SANR-FIXT
100
AcDbCircle
 10
3297.114353943087
 20
1410.000000000192
 30
0.0
 40
8.499999999999712
100
AcDbArc
 50
299.8386782102787
 51
300.0
  0
ARC
  5
21F
330
1B4
100
AcDbEntity
  8
P-SANR-FIXT
100
AcDbCircle
 10
3297.114353943087
 20
1410.000000000192
 30
0.0
 40
8.499999999999385
100
AcDbArc
 50
292.3830566374302
 51
292.4999999999981
  0
ARC
  5
220
330
1B4
100
AcDbEntity
  8
P-SANR-FIXT
100
AcDbCircle
 10
3297.114353943087
 20
1410.000000000192
 30
0.0
 40
8.457101704383743
100
AcDbArc
 50
90.00000000000156
 51
269.9999999999981
  0
ARC
  5
221
330
1B4
100
AcDbEntity
  8
P-SANR-FIXT
100
AcDbCircle
 10
3297.114353943087
 20
1410.000000000192
 30
0.0
 40
8.457101704383603
100
AcDbArc
 50
269.9999999999965
 51
90.0
  0
ARC
  5
222
330
1B4
100
AcDbEntity
  8
P-SANR-FIXT
100
AcDbCircle
 10
3297.114353943087
 20
1410.000000000192
 30
0.0
 40
5.773502691913249
100
AcDbArc
 50
90.00000000000225
 51
269.9999999999973
  0
ARC
  5
223
330
1B4
100
AcDbEntity
  8
P-SANR-FIXT
100
AcDbCircle
 10
3297.114353943087
 20
1410.000000000192
 30
0.0
 40
5.773502691913108
100
AcDbArc
 50
269.9999999999951
 51
90.0
  0
ARC
  5
224
330
1B4
100
AcDbEntity
  8
P-SANR-FIXT
100
AcDbCircle
 10
3297.114353943087
 20
1410.000000000192
 30
0.0
 40
2.069035864297347
100
AcDbArc
 50
90.0
 51
269.9999999999997
  0
ARC
  5
225
330
1B4
100
AcDbEntity
  8
P-SANR-FIXT
100
AcDbCircle
 10
3297.114353943087
 20
1410.000000000192
 30
0.0
 40
2.069035864297347
100
AcDbArc
 50
269.9999999999997
 51
90.0
  0
LINE
  5
226
330
1B4
100
AcDbEntity
  8
P-SANR-FIXT
100
AcDbLine
 10
3269.614353943107
 20
1742.00000000019
 30
0.0
 11
3269.614353943107
 21
1733.500000000162
 31
0.0
  0
LINE
  5
227
330
1B4
100
AcDbEntity
  8
P-SANR-FIXT
100
AcDbLine
 10
3324.61435394309
 20
1733.500000000162
 30
0.0
 11
3324.61435394309
 21
1742.000000000189
 31
0.0
  0
LINE
  5
228
330
1B4
100
AcDbEntity
  8
P-SANR-FIXT
100
AcDbLine
 10
3269.614353943107
 20
1733.500000000162
 30
0.0
 11
3270.614353943062
 21
1732.500000000206
 31
0.0
  0
LINE
  5
229
330
1B4
100
AcDbEntity
  8
P-SANR-FIXT
100
AcDbLine
 10
3323.614353943133
 20
1732.500000000205
 30
0.0
 11
3324.61435394309
 21
1733.500000000162
 31
0.0
  0
LINE
  5
22A
330
1B4
100
AcDbEntity
  8
P-SANR-FIXT
100
AcDbLine
 10
3271.397665980869
 20
1732.500000000206
 30
0.0
 11
3271.397665980869
 21
1681.32796577319
 31
0.0
  0
LINE
  5
22B
330
1B4
100
AcDbEntity
  8
P-SANR-FIXT
100
AcDbLine
 10
3322.831041905326
 20
1681.327965773188
 30
0.0
 11
3322.831041905327
 21
1732.500000000205
 31
0.0
  0
LINE
  5
22C
330
1B4
100
AcDbEntity
  8
P-SANR-FIXT
100
AcDbLine
 10
3258.114353943114
 20
1681.32796577319
 30
0.0
 11
3258.114353943114
 21
1675.000000000096
 31
0.0
  0
LINE
  5
22D
330
1B4
100
AcDbEntity
  8
P-SANR-FIXT
100
AcDbLine
 10
3336.114353943081
 20
1675.000000000095
 30
0.0
 11
3336.114353943081
 21
1681.327965773188
 31
0.0
  0
LINE
  5
22E
330
1B4
100
AcDbEntity
  8
P-SANR-FIXT
100
AcDbLine
 10
3291.614353943099
 20
1760.000000000284
 30
0.0
 11
3291.614353943098
 21
1748.500000000284
 31
0.0
  0
LINE
  5
22F
330
1B4
100
AcDbEntity
  8
P-SANR-FIXT
100
AcDbLine
 10
3302.614353943098
 20
1748.500000000284
 30
0.0
 11
3302.614353943098
 21
1760.000000000284
 31
0.0
  0
LINE
  5
230
330
1B4
100
AcDbEntity
  8
P-SANR-FIXT
100
AcDbLine
 10
3294.114353943099
 20
1748.500000000284
 30
0.0
 11
3294.114353943099
 21
1745.00000000019
 31
0.0
  0
LINE
  5
231
330
1B4
100
AcDbEntity
  8
P-SANR-FIXT
100
AcDbLine
 10
3300.114353943098
 20
1745.00000000019
 30
0.0
 11
3300.114353943099
 21
1748.500000000284
 31
0.0
  0
LINE
  5
232
330
1B4
100
AcDbEntity
  8
P-SANR-FIXT
100
AcDbLine
 10
3289.864353943098
 20
1745.00000000019
 30
0.0
 11
3289.864353943098
 21
1742.00000000019
 31
0.0
  0
LINE
  5
233
330
1B4
100
AcDbEntity
  8
P-SANR-FIXT
100
AcDbLine
 10
3304.364353943098
 20
1742.00000000019
 30
0.0
 11
3304.364353943098
 21
1745.00000000019
 31
0.0
  0
LINE
  5
234
330
1B4
100
AcDbEntity
  8
P-SANR-FIXT
100
AcDbLine
 10
3297.114353943094
 20
1675.000000000095
 30
0.0
 11
3293.716247341726
 21
1675.000000000096
 31
0.0
  0
LINE
  5
235
330
1B4
100
AcDbEntity
  8
P-SANR-FIXT
100
AcDbLine
 10
3293.715279975936
 20
1675.000000000096
 30
0.0
 11
3290.343994971099
 21
1675.000000000096
 31
0.0
  0
LINE
  5
236
330
1B4
100
AcDbEntity
  8
P-SANR-FIXT
100
AcDbLine
 10
3290.342075014086
 20
1675.000000000096
 30
0.0
 11
3258.11435394311
 21
1675.000000000096
 31
0.0
  0
LINE
  5
237
330
1B4
100
AcDbEntity
  8
P-SANR-FIXT
100
AcDbLine
 10
3336.114353943076
 20
1675.000000000094
 30
0.0
 11
3303.886632872101
 21
1675.000000000095
 31
0.0
  0
LINE
  5
238
330
1B4
100
AcDbEntity
  8
P-SANR-FIXT
100
AcDbLine
 10
3303.884712915088
 20
1675.000000000095
 30
0.0
 11
3300.513427910251
 21
1675.000000000095
 31
0.0
  0
LINE
  5
239
330
1B4
100
AcDbEntity
  8
P-SANR-FIXT
100
AcDbLine
 10
3300.512460544461
 20
1675.000000000095
 30
0.0
 11
3297.114353943094
 21
1675.000000000095
 31
0.0
  0
LINE
  5
23A
330
1B4
100
AcDbEntity
  8
P-SANR-FIXT
100
AcDbLine
 10
3269.614353943102
 20
1742.00000000019
 30
0.0
 11
3297.114353943094
 21
1742.00000000019
 31
0.0
  0
LINE
  5
23B
330
1B4
100
AcDbEntity
  8
P-SANR-FIXT
100
AcDbLine
 10
3297.114353943094
 20
1742.00000000019
 30
0.0
 11
3324.614353943086
 21
1742.000000000189
 31
0.0
  0
LINE
  5
23C
330
1B4
100
AcDbEntity
  8
P-SANR-FIXT
100
AcDbLine
 10
3269.614353943102
 20
1733.500000000162
 30
0.0
 11
3297.114353943094
 21
1733.500000000162
 31
0.0
  0
LINE
  5
23D
330
1B4
100
AcDbEntity
  8
P-SANR-FIXT
100
AcDbLine
 10
3297.114353943094
 20
1733.500000000162
 30
0.0
 11
3324.614353943085
 21
1733.500000000161
 31
0.0
  0
LINE
  5
23E
330
1B4
100
AcDbEntity
  8
P-SANR-FIXT
100
AcDbLine
 10
3270.614353943058
 20
1732.500000000205
 30
0.0
 11
3297.114353943094
 21
1732.500000000205
 31
0.0
  0
LINE
  5
23F
330
1B4
100
AcDbEntity
  8
P-SANR-FIXT
100
AcDbLine
 10
3297.114353943094
 20
1732.500000000205
 30
0.0
 11
3323.614353943129
 21
1732.500000000205
 31
0.0
  0
LINE
  5
240
330
1B4
100
AcDbEntity
  8
P-SANR-FIXT
100
AcDbLine
 10
3258.11435394311
 20
1681.327965773189
 30
0.0
 11
3297.114353943094
 21
1681.327965773189
 31
0.0
  0
LINE
  5
241
330
1B4
100
AcDbEntity
  8
P-SANR-FIXT
100
AcDbLine
 10
3297.114353943094
 20
1681.327965773189
 30
0.0
 11
3336.114353943076
 21
1681.327965773188
 31
0.0
  0
LINE
  5
242
330
1B4
100
AcDbEntity
  8
P-SANR-FIXT
100
AcDbLine
 10
3291.614353943094
 20
1760.000000000284
 30
0.0
 11
3297.114353943094
 21
1760.000000000284
 31
0.0
  0
LINE
  5
243
330
1B4
100
AcDbEntity
  8
P-SANR-FIXT
100
AcDbLine
 10
3297.114353943095
 20
1760.000000000284
 30
0.0
 11
3302.614353943095
 21
1760.000000000284
 31
0.0
  0
LINE
  5
244
330
1B4
100
AcDbEntity
  8
P-SANR-FIXT
100
AcDbLine
 10
3291.614353943094
 20
1748.500000000283
 30
0.0
 11
3297.114353943094
 21
1748.500000000283
 31
0.0
  0
LINE
  5
245
330
1B4
100
AcDbEntity
  8
P-SANR-FIXT
100
AcDbLine
 10
3297.114353943094
 20
1748.500000000283
 30
0.0
 11
3302.614353943095
 21
1748.500000000283
 31
0.0
  0
LINE
  5
246
330
1B4
100
AcDbEntity
  8
P-SANR-FIXT
100
AcDbLine
 10
3289.864353943094
 20
1745.00000000019
 30
0.0
 11
3297.114353943094
 21
1745.00000000019
 31
0.0
  0
LINE
  5
247
330
1B4
100
AcDbEntity
  8
P-SANR-FIXT
100
AcDbLine
 10
3297.114353943094
 20
1745.00000000019
 30
0.0
 11
3304.364353943094
 21
1745.00000000019
 31
0.0
  0
LWPOLYLINE
  5
248
330
1B4
100
AcDbEntity
  8
P-SANR-FIXT
100
AcDbPolyline
 90
       21
 70
   128
 43
0.0
 10
3256.711267907669
 20
1674.414213562434
 10
3256.768952586435
 20
1674.469635801182
 10
3256.828807422036
 20
1674.522706936155
 10
3256.890736659507
 20
1674.573342064856
 10
3256.954641225274
 20
1674.621460181882
 10
3257.020418885669
 20
1674.66698430851
 10
3257.087964410463
 20
1674.70984161585
 10
3257.157169741229
 20
1674.74996354135
 10
3257.227924164198
 20
1674.78728589849
 10
3257.300114487388
 20
1674.82174897946
 10
3257.37362522168
 20
1674.853297650683
 10
3257.448338765583
 20
1674.881881441012
 10
3257.524135593364
 20
1674.907454622484
 10
3257.600894446267
 20
1674.929976283461
 10
3257.678492526502
 20
1674.949410394091
 10
3257.756805693695
 20
1674.965725863942
 10
3257.835708663483
 20
1674.978896591745
 10
3257.915075207946
 20
1674.988901507142
 10
3257.994778357544
 20
1674.995724604405
 10
3258.074690604241
 20
1674.999354968032
 10
3258.125481470042
 20
1675.000000000061
  0
LWPOLYLINE
  5
249
330
1B4
100
AcDbEntity
  8
P-SANR-FIXT
100
AcDbPolyline
 90
       41
 70
   128
 43
0.0
 10
3297.114353943098
 20
1675.000000000061
 10
3295.555214892213
 20
1675.000000000061
 10
3293.99857013121
 20
1675.000000000061
 10
3292.446909959642
 20
1675.000000000061
 10
3290.902716702779
 20
1675.000000000061
 10
3289.368460740421
 20
1675.000000000061
 10
3287.84659655482
 20
1675.000000000061
 10
3286.339558804023
 20
1675.000000000061
 10
3284.849758426948
 20
1675.000000000061
 10
3283.379578786392
 20
1675.000000000061
 10
3281.931371856158
 20
1675.000000000061
 10
3280.507454458398
 20
1675.000000000061
 10
3279.110104557199
 20
1675.000000000061
 10
3277.741557614314
 20
1675.000000000061
 10
3276.404003012913
 20
1675.000000000061
 10
3275.099580555028
 20
1675.000000000061
 10
3273.830377038329
 20
1675.000000000061
 10
3272.598422917694
 20
1675.000000000061
 10
3271.405689056915
 20
1675.000000000061
 10
3270.254083575729
 20
1675.000000000061
 10
3269.145448797247
 20
1675.000000000061
 10
3268.081558300616
 20
1675.000000000061
 10
3267.06411408368
 20
1675.000000000061
 10
3266.094743840144
 20
1675.000000000061
 10
3265.174998355608
 20
1675.000000000061
 10
3264.306349026647
 20
1675.000000000061
 10
3263.490185506884
 20
1675.000000000061
 10
3262.727813483845
 20
1675.000000000061
 10
3262.020452590138
 20
1675.000000000061
 10
3261.369234452295
 20
1675.000000000061
 10
3260.775200880419
 20
1675.000000000061
 10
3260.239302201504
 20
1675.000000000061
 10
3259.762395739116
 20
1675.000000000061
 10
3259.345244441864
 20
1675.000000000061
 10
3258.988515662833
 20
1675.000000000061
 10
3258.692780091971
 20
1675.000000000061
 10
3258.458510843107
 20
1675.000000000061
 10
3258.286082697062
 20
1675.000000000061
 10
3258.175771502087
 20
1675.000000000061
 10
3258.127753732564
 20
1675.000000000061
 10
3258.125481470042
 20
1675.000000000061
  0
LWPOLYLINE
  5
24A
330
1B4
100
AcDbEntity
  8
P-SANR-FIXT
100
AcDbPolyline
 90
        3
 70
   128
 43
0.0
 10
3258.125481470042
 20
1675.000000000061
 10
3258.15666840943
 20
1675.000000000061
 10
3258.214644411957
 20
1675.000000000061
  0
LWPOLYLINE
  5
24B
330
1B4
100
AcDbEntity
  8
P-SANR-FIXT
100
AcDbPolyline
 90
       21
 70
   128
 43
0.0
 10
3336.103226416152
 20
1675.00000000006
 10
3336.183205084527
 20
1674.998400213382
 10
3336.263055804091
 20
1674.993603412665
 10
3336.342650830731
 20
1674.985617271768
 10
3336.421862829381
 20
1674.974454566811
 10
3336.500565077743
 20
1674.960133155742
 10
3336.578631669007
 20
1674.942675949764
 10
3336.65593771328
 20
1674.922110876681
 10
3336.732359537384
 20
1674.898470836225
 10
3336.807774882702
 20
1674.871793647415
 10
3336.88206310077
 20
1674.842121988065
 10
3336.955105346284
 20
1674.8095033265
 10
3337.026784767235
 20
1674.773989845618
 10
3337.09698669184
 20
1674.735638359415
 10
3337.165598811995
 20
1674.694510222086
 10
3337.232511362943
 20
1674.650671229879
 10
3337.297617298877
 20
1674.604191515829
 10
3337.36081246419
 20
1674.555145437561
 10
3337.421995760095
 20
1674.503611458342
 10
3337.481069306374
 20
1674.449672021542
 10
3337.517439978525
 20
1674.414213562433
  0
LWPOLYLINE
  5
24C
330
1B4
100
AcDbEntity
  8
P-SANR-FIXT
100
AcDbPolyline
 90
        4
 70
   128
 43
0.0
 10
3336.00550150253
 20
1675.00000000006
 10
3336.052936384108
 20
1675.00000000006
 10
3336.100954153632
 20
1675.00000000006
 10
3336.103226416152
 20
1675.00000000006
  0
LWPOLYLINE
  5
24D
330
1B4
100
AcDbEntity
  8
P-SANR-FIXT
100
AcDbPolyline
 90
       41
 70
   128
 43
0.0
 10
3336.103226416152
 20
1675.00000000006
 10
3336.072039476766
 20
1675.00000000006
 10
3335.978528551054
 20
1675.00000000006
 10
3335.822843236552
 20
1675.00000000006
 10
3335.605232596551
 20
1675.00000000006
 10
3335.326044761654
 20
1675.00000000006
 10
3334.98572637284
 20
1675.00000000006
 10
3334.584821866933
 20
1675.00000000006
 10
3334.123972605622
 20
1675.00000000006
 10
3333.603915849414
 20
1675.00000000006
 10
3333.025483578182
 20
1675.00000000006
 10
3332.389601160166
 20
1675.00000000006
 10
3331.697285871587
 20
1675.00000000006
 10
3330.949645269221
 20
1675.00000000006
 10
3330.147875418544
 20
1675.00000000006
 10
3329.293258980282
 20
1675.00000000006
 10
3328.387163158427
 20
1675.00000000006
 10
3327.431037513004
 20
1675.00000000006
 10
3326.426411641084
 20
1675.00000000006
 10
3325.374892729754
 20
1675.00000000006
 10
3324.278162984957
 20
1675.00000000006
 10
3323.13797694033
 20
1675.00000000006
 10
3321.956158650318
 20
1675.00000000006
 10
3320.734598772077
 20
1675.00000000006
 10
3319.475251540826
 20
1675.00000000006
 10
3318.180131643489
 20
1675.00000000006
 10
3316.851310995625
 20
1675.00000000006
 10
3315.490915426802
 20
1675.00000000006
 10
3314.10112127973
 20
1675.00000000006
 10
3312.684151928568
 20
1675.00000000006
 10
3311.242274222012
 20
1675.00000000006
 10
3309.777794856803
 20
1675.00000000006
 10
3308.293056687524
 20
1675.000000000061
 10
3306.790434978515
 20
1675.000000000061
 10
3305.272333603971
 20
1675.000000000061
 10
3303.741181202246
 20
1675.000000000061
 10
3302.199427290553
 20
1675.000000000061
 10
3300.649538346262
 20
1675.000000000061
 10
3299.093993861059
 20
1675.000000000061
 10
3297.535282374287
 20
1675.000000000061
 10
3297.114353943098
 20
1675.000000000061
  0
LINE
  5
24E
330
1B4
100
AcDbEntity
  8
P-SANR-FIXT
100
AcDbLine
 10
3256.711267907669
 20
1674.414213562434
 30
0.0
 11
3253.700140380724
 21
1671.403086035489
 31
0.0
  0
LINE
  5
24F
330
1B4
100
AcDbEntity
  8
P-SANR-FIXT
100
AcDbLine
 10
3340.52856750547
 20
1671.403086035488
 30
0.0
 11
3337.517439978525
 21
1674.414213562433
 31
0.0
  0
LWPOLYLINE
  5
250
330
1B4
100
AcDbEntity
  8
P-SANR-FIXT
100
AcDbPolyline
 90
       21
 70
   128
 43
0.0
 10
3253.114353943097
 20
1669.988872473116
 10
3253.115953729775
 20
1670.068851141489
 10
3253.120750530493
 20
1670.148701861054
 10
3253.128736671389
 20
1670.228296887693
 10
3253.139899376347
 20
1670.307508886345
 10
3253.154220787415
 20
1670.386211134706
 10
3253.171677993393
 20
1670.46427772597
 10
3253.192243066476
 20
1670.541583770244
 10
3253.215883106932
 20
1670.618005594348
 10
3253.242560295742
 20
1670.693420939666
 10
3253.272231955091
 20
1670.767709157733
 10
3253.304850616657
 20
1670.840751403248
 10
3253.340364097539
 20
1670.912430824198
 10
3253.378715583743
 20
1670.982632748803
 10
3253.419843721071
 20
1671.051244868958
 10
3253.463682713277
 20
1671.118157419906
 10
3253.510162427329
 20
1671.18326335584
 10
3253.559208505595
 20
1671.246458521153
 10
3253.610742484816
 20
1671.307641817058
 10
3253.664681921616
 20
1671.366715363337
 10
3253.700140380724
 20
1671.403086035489
  0
LWPOLYLINE
  5
251
330
1B4
100
AcDbEntity
  8
P-SANR-FIXT
100
AcDbPolyline
 90
       21
 70
   128
 43
0.0
 10
3340.52856750547
 20
1671.403086035488
 10
3340.583989744219
 20
1671.345401356722
 10
3340.637060879191
 20
1671.28554652112
 10
3340.687696007893
 20
1671.223617283651
 10
3340.735814124919
 20
1671.159712717883
 10
3340.781338251547
 20
1671.093935057488
 10
3340.824195558886
 20
1671.026389532693
 10
3340.864317484387
 20
1670.957184201928
 10
3340.901639841527
 20
1670.886429778959
 10
3340.936102922497
 20
1670.81423945577
 10
3340.967651593719
 20
1670.740728721477
 10
3340.996235384049
 20
1670.666015177573
 10
3341.021808565521
 20
1670.590218349793
 10
3341.044330226497
 20
1670.51345949689
 10
3341.063764337127
 20
1670.435861416654
 10
3341.080079806979
 20
1670.357548249462
 10
3341.093250534781
 20
1670.278645279674
 10
3341.103255450178
 20
1670.199278735211
 10
3341.110078547441
 20
1670.119575585612
 10
3341.113708911068
 20
1670.039663338916
 10
3341.114353943098
 20
1669.988872473114
  0
LINE
  5
252
330
1B4
100
AcDbEntity
  8
P-SANR-FIXT
100
AcDbLine
 10
3253.114353943095
 20
1669.988872473116
 30
0.0
 11
3253.114353943094
 21
1660.000000000124
 31
0.0
  0
LINE
  5
253
330
1B4
100
AcDbEntity
  8
P-SANR-FIXT
100
AcDbLine
 10
3341.1143539431
 20
1660.000000000123
 30
0.0
 11
3341.1143539431
 21
1669.988872473114
 31
0.0
  0
LWPOLYLINE
  5
254
330
1B4
100
AcDbEntity
  8
P-SANR-FIXT
100
AcDbPolyline
 90
       11
 70
   128
 43
0.0
 10
3014.503412651001
 20
1614.834027706627
 10
3038.996012819169
 20
1623.889820826229
 10
3063.83115665699
 20
1631.958927504011
 10
3088.969113232209
 20
1639.028438890606
 10
3114.369667176781
 20
1645.087045275877
 10
3139.992183022889
 20
1650.125054182042
 10
3165.795670211029
 20
1654.134405869568
 10
3191.738848666147
 20
1657.108686231039
 10
3217.780214836965
 20
1659.043137052355
 10
3243.878108092806
 20
1659.934663624862
 10
3253.114353943097
 20
1660.000000000124
  0
LWPOLYLINE
  5
255
330
1B4
100
AcDbEntity
  8
P-SANR-FIXT
100
AcDbPolyline
 90
       41
 70
   128
 43
0.0
 10
3297.114353943097
 20
1660.000000000124
 10
3295.354823238885
 20
1660.000000000124
 10
3293.598107408453
 20
1660.000000000124
 10
3291.847016822384
 20
1660.000000000124
 10
3290.104352852071
 20
1660.000000000124
 10
3288.372903388114
 20
1660.000000000124
 10
3286.655438380303
 20
1660.000000000124
 10
3284.954705406276
 20
1660.000000000124
 10
3283.273425275988
 20
1660.000000000124
 10
3281.614287678993
 20
1660.000000000124
 10
3279.979946881517
 20
1660.000000000124
 10
3278.373017480193
 20
1660.000000000124
 10
3276.796070219272
 20
1660.000000000124
 10
3275.251627877973
 20
1660.000000000124
 10
3273.742161234578
 20
1660.000000000124
 10
3272.270085113716
 20
1660.000000000124
 10
3270.837754523152
 20
1660.000000000124
 10
3269.447460886285
 20
1660.000000000124
 10
3268.101428376353
 20
1660.000000000124
 10
3266.801810358233
 20
1660.000000000124
 10
3265.550685943519
 20
1660.000000000124
 10
3264.35005666438
 20
1660.000000000124
 10
3263.201843271543
 20
1660.000000000124
 10
3262.107882661498
 20
1660.000000000124
 10
3261.069924937853
 20
1660.000000000124
 10
3260.08963061155
 20
1660.000000000124
 10
3259.168567944391
 20
1660.000000000124
 10
3258.30821044016
 20
1660.000000000124
 10
3257.509934487332
 20
1660.000000000124
 10
3256.77501715714
 20
1660.000000000124
 10
3256.104634160541
 20
1660.000000000124
 10
3255.499857967318
 20
1660.000000000124
 10
3254.961656090372
 20
1660.000000000124
 10
3254.490889537895
 20
1660.000000000124
 10
3254.088311435944
 20
1660.000000000124
 10
3253.754565823605
 20
1660.000000000124
 10
3253.490186622663
 20
1660.000000000124
 10
3253.295596783441
 20
1660.000000000124
 10
3253.171107608173
 20
1660.000000000124
 10
3253.116918252979
 20
1660.000000000124
 10
3253.114353943097
 20
1660.000000000124
  0
LWPOLYLINE
  5
256
330
1B4
100
AcDbEntity
  8
P-SANR-FIXT
100
AcDbPolyline
 90
        8
 70
   128
 43
0.0
 10
3253.114353943097
 20
1660.000000000124
 10
3253.149549250014
 20
1660.000000000124
 10
3253.255078865782
 20
1660.000000000124
 10
3253.430773965528
 20
1660.000000000124
 10
3253.67635347457
 20
1660.000000000124
 10
3253.991424518083
 20
1660.000000000124
 10
3254.375483049609
 20
1660.000000000124
 10
3254.608807267704
 20
1660.000000000124
  0
LWPOLYLINE
  5
257
330
1B4
100
AcDbEntity
  8
P-SANR-FIXT
100
AcDbPolyline
 90
       11
 70
   128
 43
0.0
 10
3341.114353943098
 20
1660.000000000123
 10
3367.222247968616
 20
1659.47777248742
 10
3393.288374933081
 20
1657.911925401931
 10
3419.271034593825
 20
1655.304963764962
 10
3445.128660238065
 20
1651.66105815901
 10
3470.819885180769
 20
1646.98603805572
 10
3496.303608942529
 20
1641.287382489973
 10
3521.539063001566
 20
1634.574208095025
 10
3546.485876014661
 20
1626.857254517841
 10
3571.104138402696
 20
1618.148867237949
 10
3579.725295235192
 20
1614.83402770662
  0
LWPOLYLINE
  5
258
330
1B4
100
AcDbEntity
  8
P-SANR-FIXT
100
AcDbPolyline
 90
        9
 70
   128
 43
0.0
 10
3339.624739457802
 20
1660.000000000123
 10
3339.737818348301
 20
1660.000000000123
 10
3340.140396450252
 20
1660.000000000123
 10
3340.47414206259
 20
1660.000000000123
 10
3340.738521263532
 20
1660.000000000123
 10
3340.933111102753
 20
1660.000000000123
 10
3341.057600278023
 20
1660.000000000123
 10
3341.111789633216
 20
1660.000000000123
 10
3341.114353943097
 20
1660.000000000123
  0
LWPOLYLINE
  5
259
330
1B4
100
AcDbEntity
  8
P-SANR-FIXT
100
AcDbPolyline
 90
       41
 70
   128
 43
0.0
 10
3341.114353943097
 20
1660.000000000123
 10
3341.07915863618
 20
1660.000000000123
 10
3340.973629020413
 20
1660.000000000123
 10
3340.797933920667
 20
1660.000000000123
 10
3340.552354411624
 20
1660.000000000123
 10
3340.237283368111
 20
1660.000000000123
 10
3339.853224836587
 20
1660.000000000123
 10
3339.400793228771
 20
1660.000000000123
 10
3338.880712338725
 20
1660.000000000123
 10
3338.293814184926
 20
1660.000000000123
 10
3337.641037679225
 20
1660.000000000123
 10
3336.923427124776
 20
1660.000000000123
 10
3336.142130545386
 20
1660.000000000123
 10
3335.298397848914
 20
1660.000000000123
 10
3334.393578827688
 20
1660.000000000123
 10
3333.429120999123
 20
1660.000000000123
 10
3332.406567290006
 20
1660.000000000123
 10
3331.327553568139
 20
1660.000000000123
 10
3330.193806025297
 20
1660.000000000123
 10
3329.007138415697
 20
1660.000000000124
 10
3327.769449154373
 20
1660.000000000124
 10
3326.482718280115
 20
1660.000000000124
 10
3325.149004287835
 20
1660.000000000124
 10
3323.77044083541
 20
1660.000000000124
 10
3322.349233330285
 20
1660.000000000124
 10
3320.887655401295
 20
1660.000000000124
 10
3319.38804526134
 20
1660.000000000124
 10
3317.852801966742
 20
1660.000000000124
 10
3316.284381579272
 20
1660.000000000124
 10
3314.685293236973
 20
1660.000000000124
 10
3313.058095140071
 20
1660.000000000124
 10
3311.405390458403
 20
1660.000000000124
 10
3309.729823166904
 20
1660.000000000124
 10
3308.034073815802
 20
1660.000000000124
 10
3306.320855242319
 20
1660.000000000124
 10
3304.592908230708
 20
1660.000000000124
 10
3302.852997127576
 20
1660.000000000124
 10
3301.103905419527
 20
1660.000000000124
 10
3299.348431280174
 20
1660.000000000124
 10
3297.589383093662
 20
1660.000000000124
 10
3297.114353943097
 20
1660.000000000124
  0
LWPOLYLINE
  5
25A
330
1B4
100
AcDbEntity
  8
P-SANR-FIXT
100
AcDbPolyline
 90
       31
 70
   128
 43
0.0
 10
2966.914353943098
 20
1545.022565198804
 10
2966.974345943524
 20
1548.021765262802
 10
2967.154225970401
 20
1551.016167246492
 10
2967.453706254058
 20
1554.000980745473
 10
2967.872307689926
 20
1556.971430694873
 10
2968.409360605005
 20
1559.922765008434
 10
2969.064005829195
 20
1562.850262180839
 10
2969.83519606979
 20
1565.749238841113
 10
2970.721697586914
 20
1568.615057245013
 10
2971.722092167253
 20
1571.443132694436
 10
2972.834779392881
 20
1574.228940871953
 10
2974.057979201601
 20
1576.968025078754
 10
2975.389734734651
 20
1579.656003364415
 10
2976.827915467274
 20
1582.288575537084
 10
2978.370220617092
 20
1584.861530042871
 10
2980.014182824872
 20
1587.370750703432
 10
2981.757172101776
 20
1589.812223300984
 10
2983.596400036778
 20
1592.182042000189
 10
2985.528924257531
 20
1594.476415596665
 10
2987.55165313753
 20
1596.691673582095
 10
2989.661350742061
 20
1598.824272016268
 10
2991.854642005
 20
1600.870799196618
 10
2994.128018128204
 20
1602.827981116227
 10
2996.477842194839
 20
1604.692686701531
 10
2998.900354987664
 20
1606.461932821379
 10
3001.391681002988
 20
1608.132889059396
 10
3003.94783465064
 20
1609.702882242054
 10
3006.564726630068
 20
1611.169400715175
 10
3009.238170472345
 20
1612.530098362042
 10
3011.963889237628
 20
1613.782798356686
 10
3014.503412651001
 20
1614.834027706627
  0
LWPOLYLINE
  5
25B
330
1B4
100
AcDbEntity
  8
P-SANR-FIXT
100
AcDbPolyline
 90
       31
 70
   128
 43
0.0
 10
3579.725295235191
 20
1614.83402770662
 10
3582.495083310119
 20
1613.682040691072
 10
3585.21658865627
 20
1612.420213161311
 10
3587.885457445651
 20
1611.050563772208
 10
3590.497420057523
 20
1609.575283670609
 10
3593.048297908901
 20
1607.996732989967
 10
3595.534010139377
 20
1606.317437074632
 10
3597.95058013964
 20
1604.540082439838
 10
3600.294141913198
 20
1602.667512473851
 10
3602.560946261146
 20
1600.702722889157
 10
3604.747366780087
 20
1598.648856929959
 10
3606.849905663601
 20
1596.509200343656
 10
3608.865199297993
 20
1594.287176124351
 10
3610.790023643354
 20
1591.986339036788
 10
3612.621299391339
 20
1589.610369929489
 10
3614.356096891402
 20
1587.163069846178
 10
3615.991640837614
 20
1584.648353944926
 10
3617.525314708558
 20
1582.070245234732
 10
3618.954664953207
 20
1579.432868139563
 10
3620.277404916082
 20
1576.740441900162
 10
3621.49141849541
 20
1573.997273824159
 10
3622.594763528442
 20
1571.207752395297
 10
3623.585674898491
 20
1568.376340252795
 10
3624.46256735875
 20
1565.50756705208
 10
3625.224038068341
 20
1562.6060222183
 10
3625.868868836568
 20
1559.676347604227
 10
3626.396028071758
 20
1556.723230064279
 10
3626.804672431591
 20
1553.751393956555
 10
3627.094148172262
 20
1550.765593584868
 10
3627.263992194338
 20
1547.770605592878
 10
3627.314353943094
 20
1545.022565198795
  0
LINE
  5
25C
330
1B4
100
AcDbEntity
  8
P-SANR-FIXT
100
AcDbLine
 10
2966.914353943094
 20
1545.022565198803
 30
0.0
 11
2966.91435394308
 21
499.9999999999949
 31
0.0
  0
LINE
  5
25D
330
1B4
100
AcDbEntity
  8
P-SANR-FIXT
100
AcDbLine
 10
3627.314353943082
 20
458.064919284183
 30
0.0
 11
3627.314353943097
 21
1545.022565198794
 31
0.0
  0
LINE
  5
25E
330
1B4
100
AcDbEntity
  8
P-SANR-FIXT
100
AcDbLine
 10
3266.964353943065
 20
360.0000000000595
 30
0.0
 11
3266.964353943065
 21
328.4999999999979
 31
0.0
  0
LINE
  5
25F
330
1B4
100
AcDbEntity
  8
P-SANR-FIXT
100
AcDbLine
 10
3327.264353943093
 20
328.4999999999979
 30
0.0
 11
3327.264353943093
 21
360.0000000000584
 31
0.0
  0
LWPOLYLINE
  5
260
330
1B4
100
AcDbEntity
  8
P-SANR-FIXT
100
AcDbPolyline
 90
        3
 70
   128
 43
0.0
 10
2971.103865870271
 20
439.1149527127961
 10
2970.475997310581
 20
440.5189055033685
 10
2969.964353943086
 20
441.7979062928437
  0
LWPOLYLINE
  5
261
330
1B4
100
AcDbEntity
  8
P-SANR-FIXT
100
AcDbPolyline
 90
       31
 70
   128
 43
0.0
 10
3627.314353943069
 20
458.0649192841835
 10
3627.278358742813
 20
456.2653992457851
 10
3627.170430726687
 20
454.4687580555705
 10
3626.990742556493
 20
452.6778699561821
 10
3626.739581694972
 20
450.8955999865423
 10
3626.417349945925
 20
449.1247993984059
 10
3626.02456281141
 20
447.3683010949624
 10
3625.561848667054
 20
445.6289150987982
 10
3625.029947756779
 20
443.9094240564579
 10
3624.429711008576
 20
442.2125787868044
 10
3623.762098673199
 20
440.5410938802942
 10
3623.028178787967
 20
438.8976433562135
 10
3622.229125468137
 20
437.2848563848168
 10
3621.366217028563
 20
435.7053130812154
 10
3620.440833938672
 20
434.1615403777439
 10
3619.454456614004
 20
432.6560079814068
 10
3618.408663047862
 20
431.1911244228759
 10
3617.30512628686
 20
429.7692332033526
 10
3616.14561175441
 20
428.3926090454672
 10
3614.931974426408
 20
427.0634542542088
 10
3613.666155863691
 20
425.7838951937051
 10
3612.350181105928
 20
424.555978885495
 10
3610.986155432004
 20
423.3816697337302
 10
3609.576260992024
 20
422.2628463825473
 10
3608.12275331633
 20
421.2012987106386
 10
3606.627957707135
 20
420.1987249678285
 10
3605.094265518543
 20
419.2567290582336
 10
3603.524130330887
 20
418.3768179743614
 10
3601.920064025521
 20
417.5603993862411
 10
3600.284632766351
 20
416.8087793894548
 10
3600.262541886421
 20
416.7991641166111
  0
LWPOLYLINE
  5
262
330
1B4
100
AcDbEntity
  8
P-SANR-FIXT
100
AcDbPolyline
 90
        8
 70
   128
 43
0.0
 10
3266.964353943075
 20
360.0000000000595
 10
3239.593027589626
 20
360.5474995290128
 10
3212.26548951944
 20
362.1891222334191
 10
3185.025457963861
 20
364.9222418671454
 10
3157.916511162484
 20
368.7424860218128
 10
3130.982017647256
 20
373.6437431217152
 10
3104.265066862085
 20
379.6181722010395
 10
3083.964353943086
 20
385.0185991498939
  0
LWPOLYLINE
  5
263
330
1B4
100
AcDbEntity
  8
P-SANR-FIXT
100
AcDbPolyline
 90
       10
 70
   128
 43
0.0
 10
3268.502362951537
 20
360.0000000000592
 10
3268.230175755353
 20
360.0000000000592
 10
3267.907593674507
 20
360.0000000000592
 10
3267.631736179648
 20
360.0000000000592
 10
3267.403044583922
 20
360.0000000000592
 10
3267.221884745094
 20
360.0000000000592
 10
3267.088546480263
 20
360.0000000000592
 10
3267.003243102209
 20
360.0000000000592
 10
3266.966111078139
 20
360.0000000000595
 10
3266.964353943072
 20
360.0000000000595
  0
LWPOLYLINE
  5
264
330
1B4
100
AcDbEntity
  8
P-SANR-FIXT
100
AcDbPolyline
 90
       41
 70
   128
 43
0.0
 10
3266.964353943072
 20
360.0000000000595
 10
3266.988470727244
 20
360.0000000000595
 10
3267.060782498049
 20
360.0000000000595
 10
3267.181173572079
 20
360.0000000000595
 10
3267.349451349297
 20
360.0000000000595
 10
3267.56534662116
 20
360.0000000000595
 10
3267.828514001285
 20
360.0000000000595
 10
3268.138532478003
 20
360.0000000000595
 10
3268.494906087888
 20
360.0000000000595
 10
3268.897064709184
 20
360.0000000000595
 10
3269.344364973886
 20
360.0000000000595
 10
3269.836091296992
 20
360.0000000000595
 10
3270.371457021278
 20
360.0000000000595
 10
3270.949605675792
 20
360.0000000000595
 10
3271.569612346019
 20
360.0000000000595
 10
3272.230485153548
 20
360.0000000000595
 10
3272.931166842863
 20
360.0000000000595
 10
3273.670536472734
 20
360.0000000000595
 10
3274.447411209477
 20
360.0000000000595
 10
3275.260548219236
 20
360.0000000000595
 10
3276.108646656258
 20
360.0000000000595
 10
3276.99034974396
 20
360.0000000000595
 10
3277.904246945488
 20
360.0000000000595
 10
3278.848876220275
 20
360.0000000000595
 10
3279.822726362991
 20
360.0000000000595
 10
3280.824239421151
 20
360.0000000000595
 10
3281.851813187508
 20
360.0000000000595
 10
3282.903803763238
 20
360.0000000000595
 10
3283.978528187834
 20
360.0000000000595
 10
3285.074267131478
 20
360.0000000000595
 10
3286.189267645606
 20
360.0000000000595
 10
3287.321745967248
 20
360.0000000000595
 10
3288.469890372674
 20
360.0000000000595
 10
3289.631864075759
 20
360.0000000000592
 10
3290.805808166452
 20
360.0000000000592
 10
3291.989844584636
 20
360.0000000000592
 10
3293.182079124624
 20
360.0000000000592
 10
3294.38060446548
 20
360.0000000000592
 10
3295.583503222331
 20
360.0000000000592
 10
3296.788851013773
 20
360.0000000000592
 10
3297.114353943079
 20
360.0000000000592
  0
LWPOLYLINE
  5
265
330
1B4
100
AcDbEntity
  8
P-SANR-FIXT
100
AcDbPolyline
 90
        5
 70
   128
 43
0.0
 10
3600.262541886426
 20
416.7991641166127
 10
3574.944206856255
 20
406.3842146025154
 10
3549.229636896974
 20
396.9900592977312
 10
3523.159969835036
 20
388.6317268467684
 10
3502.80109107517
 20
382.9915219127919
  0
LWPOLYLINE
  5
266
330
1B4
100
AcDbEntity
  8
P-SANR-FIXT
100
AcDbPolyline
 90
        4
 70
   128
 43
0.0
 10
3373.378464810624
 20
361.68964146634
 10
3361.651754355581
 20
360.8643533697603
 10
3334.287486665353
 20
360.0360322613056
 10
3327.264353943085
 20
360.0000000000581
  0
LWPOLYLINE
  5
267
330
1B4
100
AcDbEntity
  8
P-SANR-FIXT
100
AcDbPolyline
 90
       41
 70
   128
 43
0.0
 10
3297.11435394308
 20
360.0000000000592
 10
3298.320032368807
 20
360.0000000000592
 10
3299.523781966251
 20
360.0000000000592
 10
3300.723676992841
 20
360.0000000000592
 10
3301.9177978725
 20
360.0000000000592
 10
3303.104234266553
 20
360.0000000000592
 10
3304.281088129859
 20
360.0000000000592
 10
3305.44647674729
 20
360.0000000000592
 10
3306.598535745657
 20
360.0000000000592
 10
3307.735422076326
 20
360.0000000000592
 10
3308.855316963688
 20
360.0000000000587
 10
3309.956428814822
 20
360.0000000000587
 10
3311.036996085658
 20
360.0000000000587
 10
3312.095290099072
 20
360.0000000000587
 10
3313.129617810397
 20
360.0000000000587
 10
3314.138324515944
 20
360.0000000000587
 10
3315.11979650016
 20
360.0000000000587
 10
3316.072463617241
 20
360.0000000000587
 10
3316.994801803024
 20
360.0000000000587
 10
3317.885335513167
 20
360.0000000000587
 10
3318.742640083705
 20
360.0000000000587
 10
3319.565344010206
 20
360.0000000000587
 10
3320.352131141889
 20
360.0000000000587
 10
3321.101742787181
 20
360.0000000000584
 10
3321.812979727361
 20
360.0000000000584
 10
3322.484704135044
 20
360.0000000000584
 10
3323.115841394472
 20
360.0000000000584
 10
3323.705381820667
 20
360.0000000000584
 10
3324.252382274707
 20
360.0000000000584
 10
3324.755967672555
 20
360.0000000000584
 10
3325.215332384998
 20
360.0000000000584
 10
3325.62974152649
 20
360.0000000000584
 10
3325.998532130807
 20
360.0000000000584
 10
3326.321114211652
 20
360.0000000000584
 10
3326.596971706511
 20
360.0000000000584
 10
3326.825663302238
 20
360.0000000000584
 10
3327.006823141065
 20
360.0000000000584
 10
3327.140161405896
 20
360.0000000000584
 10
3327.22546478395
 20
360.0000000000584
 10
3327.262596808019
 20
360.0000000000581
 10
3327.264353943086
 20
360.0000000000581
  0
LWPOLYLINE
  5
268
330
1B4
100
AcDbEntity
  8
P-SANR-FIXT
100
AcDbPolyline
 90
        9
 70
   128
 43
0.0
 10
3327.264353943086
 20
360.0000000000581
 10
3327.240237158914
 20
360.0000000000581
 10
3327.16792538811
 20
360.0000000000581
 10
3327.04753431408
 20
360.0000000000581
 10
3326.879256536861
 20
360.0000000000581
 10
3326.663361265
 20
360.0000000000581
 10
3326.400193884875
 20
360.0000000000581
 10
3326.090175408156
 20
360.0000000000581
 10
3325.733801798272
 20
360.0000000000581
  0
ARC
  5
269
330
1B4
100
AcDbEntity
  8
P-SANR-FIXT
100
AcDbCircle
 10
3297.114353943078
 20
790.0000000000703
 30
0.0
 40
244.9999999999905
100
AcDbArc
 50
89.99999999999962
 51
269.9999999999992
  0
ARC
  5
26A
330
1B4
100
AcDbEntity
  8
P-SANR-FIXT
100
AcDbCircle
 10
3297.114353943078
 20
790.0000000000703
 30
0.0
 40
244.9999999999906
100
AcDbArc
 50
269.9999999999991
 51
89.99999999999943
  0
ARC
  5
26B
330
1B4
100
AcDbEntity
  8
P-SANR-FIXT
100
AcDbCircle
 10
3297.114353943078
 20
790.0000000000706
 30
0.0
 40
193.6817996284434
100
AcDbArc
 50
89.99999999999969
 51
269.999999999999
  0
ARC
  5
26C
330
1B4
100
AcDbEntity
  8
P-SANR-FIXT
100
AcDbCircle
 10
3297.114353943078
 20
790.0000000000624
 30
0.0
 40
124.9999999999965
100
AcDbArc
 50
90.00000000000005
 51
269.9999999999991
  0
ARC
  5
26D
330
1B4
100
AcDbEntity
  8
P-SANR-FIXT
100
AcDbCircle
 10
3297.114353943078
 20
790.0000000000706
 30
0.0
 40
193.6817996284432
100
AcDbArc
 50
269.999999999999
 51
89.99999999999925
  0
ARC
  5
26E
330
1B4
100
AcDbEntity
  8
P-SANR-FIXT
100
AcDbCircle
 10
3297.114353943078
 20
790.0000000000624
 30
0.0
 40
124.9999999999968
100
AcDbArc
 50
269.999999999999
 51
89.99999999999854
  0
LINE
  5
26F
330
1B4
100
AcDbEntity
  8
P-SANR-FIXT
100
AcDbLine
 10
3253.114353943094
 20
1660.000000000124
 30
0.0
 11
3297.114353943092
 21
1660.000000000124
 31
0.0
  0
LINE
  5
270
330
1B4
100
AcDbEntity
  8
P-SANR-FIXT
100
AcDbLine
 10
3297.114353943093
 20
1660.000000000124
 30
0.0
 11
3341.114353943093
 21
1660.000000000123
 31
0.0
  0
SPLINE
  5
271
330
1B4
100
AcDbEntity
  8
P-SANR-FIXT
100
AcDbSpline
210
0.0
220
0.0
230
1.0
 70
     8
 71
     3
 72
     8
 73
     4
 74
     0
 42
0.000000001
 43
0.0000000001
 40
0.037037037037037
 40
0.037037037037037
 40
0.037037037037037
 40
0.037037037037037
 40
0.0409048609282612
 40
0.0409048609282612
 40
0.0409048609282612
 40
0.0409048609282612
 10
3296.108851166231
 20
1401.562432540466
 30
0.0
 10
3296.07456886373
 20
1401.566442085718
 30
0.0
 10
3296.040357458081
 20
1401.570645991452
 30
0.0
 10
3296.006215615012
 20
1401.575045072041
 30
0.0
  0
SPLINE
  5
272
330
1B4
100
AcDbEntity
  8
P-SANR-FIXT
100
AcDbSpline
210
0.0
220
0.0
230
1.0
 70
     8
 71
     3
 72
     8
 73
     4
 74
     0
 42
0.000000001
 43
0.0000000001
 40
0.0740740740740741
 40
0.0740740740740741
 40
0.0740740740740741
 40
0.0740740740740741
 40
0.0829564064875622
 40
0.0829564064875622
 40
0.0829564064875622
 40
0.0829564064875622
 10
3295.142353108702
 20
1401.731794771857
 30
0.0
 10
3295.066462027897
 20
1401.74972211143
 30
0.0
 10
3294.990877460097
 20
1401.768715587826
 30
0.0
 10
3294.915583245862
 20
1401.788785063918
 30
0.0
  0
SPLINE
  5
273
330
1B4
100
AcDbEntity
  8
P-SANR-FIXT
100
AcDbSpline
210
0.0
220
0.0
230
1.0
 70
     8
 71
     3
 72
     8
 73
     4
 74
     0
 42
0.000000001
 43
0.0000000001
 40
0.1111111111111111
 40
0.1111111111111111
 40
0.1111111111111111
 40
0.1111111111111111
 40
0.1253122135196905
 40
0.1253122135196905
 40
0.1253122135196905
 40
0.1253122135196905
 10
3294.207830627189
 20
1402.012376936091
 30
0.0
 10
3294.090133315201
 20
1402.055528404465
 30
0.0
 10
3293.973047266088
 20
1402.101510226277
 30
0.0
 10
3293.856782387294
 20
1402.150182888593
 30
0.0
  0
SPLINE
  5
274
330
1B4
100
AcDbEntity
  8
P-SANR-FIXT
100
AcDbSpline
210
0.0
220
0.0
230
1.0
 70
     8
 71
     3
 72
     9
 73
     5
 74
     0
 42
0.000000001
 43
0.0000000001
 40
0.1481481481481481
 40
0.1481481481481481
 40
0.1481481481481481
 40
0.1481481481481481
 40
0.1666666666666666
 40
0.1851851851851852
 40
0.1851851851851852
 40
0.1851851851851852
 40
0.1851851851851852
 10
3293.303149749452
 20
1402.405279341401
 30
0.0
 10
3293.155689688284
 20
1402.479563959097
 30
0.0
 10
3292.864710253431
 20
1402.636521597342
 30
0.0
 10
3292.583474050162
 20
1402.809018585235
 30
0.0
 10
3292.445551795765
 20
1402.899172329125
 30
0.0
  0
SPLINE
  5
275
330
1B4
100
AcDbEntity
  8
P-SANR-FIXT
100
AcDbSpline
210
0.0
220
0.0
230
1.0
 70
     8
 71
     3
 72
     8
 73
     4
 74
     0
 42
0.000000001
 43
0.0000000001
 40
0.2087286254739162
 40
0.2087286254739162
 40
0.2087286254739162
 40
0.2087286254739162
 40
0.2222222222222222
 40
0.2222222222222222
 40
0.2222222222222222
 40
0.2222222222222222
 10
3291.933117551977
 20
1403.26200042914
 30
0.0
 10
3291.837920892856
 20
1403.334950799236
 30
0.0
 10
3291.744331096849
 20
1403.409988386152
 30
0.0
 10
3291.652448750973
 20
1403.48712109203
 30
0.0
  0
SPLINE
  5
276
330
1B4
100
AcDbEntity
  8
P-SANR-FIXT
100
AcDbSpline
210
0.0
220
0.0
230
1.0
 70
     8
 71
     3
 72
     8
 73
     4
 74
     0
 42
0.000000001
 43
0.0000000001
 40
0.2505861890898969
 40
0.2505861890898969
 40
0.2505861890898969
 40
0.2505861890898969
 40
0.2592592592592593
 40
0.2592592592592593
 40
0.2592592592592593
 40
0.2592592592592593
 10
3291.09594498443
 20
1404.000028325512
 30
0.0
 10
3291.041587153793
 20
1404.05487847265
 30
0.0
 10
3290.987961049553
 20
1404.110475351616
 30
0.0
 10
3290.935074727748
 20
1404.166782623127
 30
0.0
  0
SPLINE
  5
277
330
1B4
100
AcDbEntity
  8
P-SANR-FIXT
100
AcDbSpline
210
0.0
220
0.0
230
1.0
 70
     8
 71
     3
 72
     8
 73
     4
 74
     0
 42
0.000000001
 43
0.0000000001
 40
0.2914046604971911
 40
0.2914046604971911
 40
0.2914046604971911
 40
0.2914046604971911
 40
0.2962962962962963
 40
0.2962962962962963
 40
0.2962962962962963
 40
0.2962962962962963
 10
3290.378027259945
 20
1404.820389672442
 30
0.0
 10
3290.351390533725
 20
1404.854870922659
 30
0.0
 10
3290.325011576854
 20
1404.889547984912
 30
0.0
 10
3290.298896479099
 20
1404.924418893102
 30
0.0
  0
SPLINE
  5
278
330
1B4
100
AcDbEntity
  8
P-SANR-FIXT
100
AcDbSpline
210
0.0
220
0.0
230
1.0
 70
     8
 71
     3
 72
     8
 73
     4
 74
     0
 42
0.000000001
 43
0.0000000001
 40
0.3703703703703703
 40
0.3703703703703703
 40
0.3703703703703703
 40
0.3703703703703703
 40
0.3750656338349325
 40
0.3750656338349325
 40
0.3750656338349325
 40
0.3750656338349325
 10
3289.311971927322
 20
1406.633155697121
 30
0.0
 10
3289.295509543695
 20
1406.671583281861
 30
0.0
 10
3289.279323644459
 20
1406.710130891674
 30
0.0
 10
3289.263413097884
 20
1406.74879282623
 30
0.0
  0
SPLINE
  5
279
330
1B4
100
AcDbEntity
  8
P-SANR-FIXT
100
AcDbSpline
210
0.0
220
0.0
230
1.0
 70
     8
 71
     3
 72
     8
 73
     4
 74
     0
 42
0.000000001
 43
0.0000000001
 40
0.4074074074074074
 40
0.4074074074074074
 40
0.4074074074074074
 40
0.4074074074074074
 40
0.4164668260273218
 40
0.4164668260273218
 40
0.4164668260273218
 40
0.4164668260273218
 10
3288.973775700943
 20
1407.562291423185
 30
0.0
 10
3288.950450640996
 20
1407.639482972256
 30
0.0
 10
3288.928199729523
 20
1407.716991285832
 30
0.0
 10
3288.907052796786
 20
1407.794793852636
 30
0.0
  0
SPLINE
  5
27A
330
1B4
100
AcDbEntity
  8
P-SANR-FIXT
100
AcDbSpline
210
0.0
220
0.0
230
1.0
 70
     8
 71
     3
 72
     8
 73
     4
 74
     0
 42
0.000000001
 43
0.0000000001
 40
0.4444444444444445
 40
0.4444444444444445
 40
0.4444444444444445
 40
0.4444444444444445
 40
0.4583631727348327
 40
0.4583631727348327
 40
0.4583631727348327
 40
0.4583631727348327
 10
3288.743597857744
 20
1408.523367832151
 30
0.0
 10
3288.722022961423
 20
1408.645363522946
 30
0.0
 10
3288.703271012636
 20
1408.767890171502
 30
0.0
 10
3288.687289693666
 20
1408.890817998416
 30
0.0
  0
SPLINE
  5
27B
330
1B4
100
AcDbEntity
  8
P-SANR-FIXT
100
AcDbSpline
210
0.0
220
0.0
230
1.0
 70
     8
 71
     3
 72
     9
 73
     5
 74
     0
 42
0.000000001
 43
0.0000000001
 40
0.4814814814814815
 40
0.4814814814814815
 40
0.4814814814814815
 40
0.4814814814814815
 40
0.5138888888888889
 40
0.5185185185185186
 40
0.5185185185185186
 40
0.5185185185185186
 40
0.5185185185185186
 10
3288.630364383516
 20
1409.506060583857
 30
0.0
 10
3288.614252032091
 20
1409.794543095729
 30
0.0
 10
3288.612445934011
 20
1410.12540579412
 30
0.0
 10
3288.628786254298
 20
1410.455432916416
 30
0.0
 10
3288.631115267806
 20
1410.496662266639
 30
0.0
  0
SPLINE
  5
27C
330
1B4
100
AcDbEntity
  8
P-SANR-FIXT
100
AcDbSpline
210
0.0
220
0.0
230
1.0
 70
     8
 71
     3
 72
     9
 73
     5
 74
     0
 42
0.000000001
 43
0.0000000001
 40
0.5417189618944071
 40
0.5417189618944071
 40
0.5417189618944071
 40
0.5417189618944071
 40
0.5486111111111111
 40
0.5555555555555556
 40
0.5555555555555556
 40
0.5555555555555556
 40
0.5555555555555556
 10
3288.688060969181
 20
1411.113326909205
 30
0.0
 10
3288.695916256645
 20
1411.173931891706
 30
0.0
 10
3288.713036930055
 20
1411.29523876589
 30
0.0
 10
3288.732880280032
 20
1411.415702063692
 30
0.0
 10
3288.743523346385
 20
1411.475982459086
 30
0.0
  0
SPLINE
  5
27D
330
1B4
100
AcDbEntity
  8
P-SANR-FIXT
100
AcDbSpline
210
0.0
220
0.0
230
1.0
 70
     8
 71
     3
 72
     8
 73
     4
 74
     0
 42
0.000000001
 43
0.0000000001
 40
0.5835985377512222
 40
0.5835985377512222
 40
0.5835985377512222
 40
0.5835985377512222
 40
0.5925925925925926
 40
0.5925925925925926
 40
0.5925925925925926
 40
0.5925925925925926
 10
3288.905785307671
 20
1412.199717746781
 30
0.0
 10
3288.926640465439
 20
1412.276674265603
 30
0.0
 10
3288.948634633867
 20
1412.353544047178
 30
0.0
 10
3288.971742810281
 20
1412.430259410075
 30
0.0
  0
SPLINE
  5
27E
330
1B4
100
AcDbEntity
  8
P-SANR-FIXT
100
AcDbSpline
210
0.0
220
0.0
230
1.0
 70
     8
 71
     3
 72
     8
 73
     4
 74
     0
 42
0.000000001
 43
0.0000000001
 40
0.6249716501430345
 40
0.6249716501430345
 40
0.6249716501430345
 40
0.6249716501430345
 40
0.6296296296296296
 40
0.6296296296296296
 40
0.6296296296296296
 40
0.6296296296296296
 10
3289.262811949731
 20
1413.250456927471
 30
0.0
 10
3289.27875327943
 20
1413.289173153155
 30
0.0
 10
3289.294982754465
 20
1413.327764192403
 30
0.0
 10
3289.311494227834
 20
1413.366224707049
 30
0.0
  0
SPLINE
  5
27F
330
1B4
100
AcDbEntity
  8
P-SANR-FIXT
100
AcDbSpline
210
0.0
220
0.0
230
1.0
 70
     8
 71
     3
 72
     8
 73
     4
 74
     0
 42
0.000000001
 43
0.0000000001
 40
0.7037037037037035
 40
0.7037037037037035
 40
0.7037037037037035
 40
0.7037037037037035
 40
0.7086647972230532
 40
0.7086647972230532
 40
0.7086647972230532
 40
0.7086647972230532
 10
3290.29961617445
 20
1415.07672877348
 30
0.0
 10
3290.325896765131
 20
1415.111871831965
 30
0.0
 10
3290.352415613907
 20
1415.146852950368
 30
0.0
 10
3290.379189027703
 20
1415.181635500737
 30
0.0
  0
SPLINE
  5
280
330
1B4
100
AcDbEntity
  8
P-SANR-FIXT
100
AcDbSpline
210
0.0
220
0.0
230
1.0
 70
     8
 71
     3
 72
     8
 73
     4
 74
     0
 42
0.000000001
 43
0.0000000001
 40
0.7407407407407405
 40
0.7407407407407405
 40
0.7407407407407405
 40
0.7407407407407405
 40
0.7495326800556295
 40
0.7495326800556295
 40
0.7495326800556295
 40
0.7495326800556295
 10
3290.930834990471
 20
1415.828866938197
 30
0.0
 10
3290.984092189453
 20
1415.88554767328
 30
0.0
 10
3291.038305472315
 20
1415.941171933858
 30
0.0
 10
3291.093385772621
 20
1415.995902586353
 30
0.0
  0
SPLINE
  5
281
330
1B4
100
AcDbEntity
  8
P-SANR-FIXT
100
AcDbSpline
210
0.0
220
0.0
230
1.0
 70
     8
 71
     3
 72
     8
 73
     4
 74
     0
 42
0.000000001
 43
0.0000000001
 40
0.7777777777777775
 40
0.7777777777777775
 40
0.7777777777777775
 40
0.7777777777777775
 40
0.7914019721544889
 40
0.7914019721544889
 40
0.7914019721544889
 40
0.7914019721544889
 10
3291.645617361175
 20
1416.506297501781
 30
0.0
 10
3291.738384838273
 20
1416.584393551212
 30
0.0
 10
3291.833450989986
 20
1416.659565524495
 30
0.0
 10
3291.929605463155
 20
1416.734741461226
 30
0.0
  0
SPLINE
  5
282
330
1B4
100
AcDbEntity
  8
P-SANR-FIXT
100
AcDbSpline
210
0.0
220
0.0
230
1.0
 70
     8
 71
     3
 72
     8
 73
     4
 74
     0
 42
0.000000001
 43
0.0000000001
 40
0.8148148148148145
 40
0.8148148148148145
 40
0.8148148148148145
 40
0.8148148148148145
 40
0.8518518518518513
 40
0.8518518518518513
 40
0.8518518518518513
 40
0.8518518518518513
 10
3292.442851971554
 20
1417.099304972715
 30
0.0
 10
3292.721053444798
 20
1417.281694293012
 30
0.0
 10
3293.005456802148
 20
1417.462617741447
 30
0.0
 10
3293.302532806499
 20
1417.605191573204
 30
0.0
  0
SPLINE
  5
283
330
1B4
100
AcDbEntity
  8
P-SANR-FIXT
100
AcDbSpline
210
0.0
220
0.0
230
1.0
 70
     8
 71
     3
 72
     8
 73
     4
 74
     0
 42
0.000000001
 43
0.0000000001
 40
0.8747231526769617
 40
0.8747231526769617
 40
0.8747231526769617
 40
0.8747231526769617
 40
0.8888888888888883
 40
0.8888888888888883
 40
0.8888888888888883
 40
0.8888888888888883
 10
3293.858284497894
 20
1417.850341914697
 30
0.0
 10
3293.973622503975
 20
1417.898381658986
 30
0.0
 10
3294.091296042815
 20
1417.939041464712
 30
0.0
 10
3294.210796275183
 20
1417.973921353391
 30
0.0
  0
SPLINE
  5
284
330
1B4
100
AcDbEntity
  8
P-SANR-FIXT
100
AcDbSpline
210
0.0
220
0.0
230
1.0
 70
     8
 71
     3
 72
     8
 73
     4
 74
     0
 42
0.000000001
 43
0.0000000001
 40
0.9170510351392609
 40
0.9170510351392609
 40
0.9170510351392609
 40
0.9170510351392609
 40
0.9259259259259254
 40
0.9259259259259254
 40
0.9259259259259254
 40
0.9259259259259254
 10
3294.912881174795
 20
1418.20892829425
 30
0.0
 10
3294.988093284505
 20
1418.228979835648
 30
0.0
 10
3295.064293913823
 20
1418.24615057941
 30
0.0
 10
3295.141279146005
 20
1418.261033081563
 30
0.0
  0
SPLINE
  5
285
330
1B4
100
AcDbEntity
  8
P-SANR-FIXT
100
AcDbSpline
210
0.0
220
0.0
230
1.0
 70
     8
 71
     3
 72
     8
 73
     4
 74
     0
 42
0.000000001
 43
0.0000000001
 40
0.9590932225135066
 40
0.9590932225135066
 40
0.9590932225135066
 40
0.9590932225135066
 40
0.9629629629629622
 40
0.9629629629629622
 40
0.9629629629629622
 40
0.9629629629629622
 10
3296.004724921245
 20
1418.423887443659
 30
0.0
 10
3296.038954523717
 20
1418.428345749722
 30
0.0
 10
3296.073386674426
 20
1418.432256928298
 30
0.0
 10
3296.10798430334
 20
1418.435720994905
 30
0.0
  0
SPLINE
  5
286
330
1B4
100
AcDbEntity
  8
P-SANR-FIXT
100
AcDbSpline
210
0.0
220
0.0
230
1.0
 70
     8
 71
     3
 72
     8
 73
     4
 74
     0
 42
0.000000001
 43
0.0000000001
 40
0.037037037037037
 40
0.037037037037037
 40
0.037037037037037
 40
0.037037037037037
 40
0.0409067774863892
 40
0.0409067774863892
 40
0.0409067774863892
 40
0.0409067774863892
 10
3298.1226246951
 20
1418.436019558601
 30
0.0
 10
3298.157048600405
 20
1418.431935237613
 30
0.0
 10
3298.191396804393
 20
1418.42765909309
 30
0.0
 10
3298.225668235383
 20
1418.423191783342
 30
0.0
  0
SPLINE
  5
287
330
1B4
100
AcDbEntity
  8
P-SANR-FIXT
100
AcDbSpline
210
0.0
220
0.0
230
1.0
 70
     8
 71
     3
 72
     8
 73
     4
 74
     0
 42
0.000000001
 43
0.0000000001
 40
0.0740740740740741
 40
0.0740740740740741
 40
0.0740740740740741
 40
0.0740740740740741
 40
0.0829489648606036
 40
0.0829489648606036
 40
0.0829489648606036
 40
0.0829489648606036
 10
3299.089757872631
 20
1418.266321090945
 30
0.0
 10
3299.165382307823
 20
1418.248533006013
 30
0.0
 10
3299.24066237899
 20
1418.229702844142
 30
0.0
 10
3299.315636798596
 20
1418.209806782457
 30
0.0
  0
SPLINE
  5
288
330
1B4
100
AcDbEntity
  8
P-SANR-FIXT
100
AcDbSpline
210
0.0
220
0.0
230
1.0
 70
     8
 71
     3
 72
     8
 73
     4
 74
     0
 42
0.000000001
 43
0.0000000001
 40
0.1111111111111111
 40
0.1111111111111111
 40
0.1111111111111111
 40
0.1111111111111111
 40
0.1252768473229374
 40
0.1252768473229374
 40
0.1252768473229374
 40
0.1252768473229374
 10
3300.021375717551
 20
1417.987441668385
 30
0.0
 10
3300.138572763405
 20
1417.944503949815
 30
0.0
 10
3300.255304066251
 20
1417.898658016444
 30
0.0
 10
3300.371315873542
 20
1417.850071113307
 30
0.0
  0
SPLINE
  5
289
330
1B4
100
AcDbEntity
  8
P-SANR-FIXT
100
AcDbSpline
210
0.0
220
0.0
230
1.0
 70
     8
 71
     3
 72
     9
 73
     5
 74
     0
 42
0.000000001
 43
0.0000000001
 40
0.1481481481481481
 40
0.1481481481481481
 40
0.1481481481481481
 40
0.1481481481481481
 40
0.1666666666666666
 40
0.1851851851851852
 40
0.1851851851851852
 40
0.1851851851851852
 40
0.1851851851851852
 10
3300.926542063078
 20
1417.594001670999
 30
0.0
 10
3301.074299489763
 20
1417.519484616024
 30
0.0
 10
3301.365954844624
 20
1417.362004969881
 30
0.0
 10
3301.647623550085
 20
1417.1891288232
 30
0.0
 10
3301.785707329284
 20
1417.09882333534
 30
0.0
  0
SPLINE
  5
28A
330
1B4
100
AcDbEntity
  8
P-SANR-FIXT
100
AcDbSpline
210
0.0
220
0.0
230
1.0
 70
     8
 71
     3
 72
     8
 73
     4
 74
     0
 42
0.000000001
 43
0.0000000001
 40
0.2085980278454356
 40
0.2085980278454356
 40
0.2085980278454356
 40
0.2085980278454356
 40
0.2222222222222222
 40
0.2222222222222222
 40
0.2222222222222222
 40
0.2222222222222222
 10
3302.295739641011
 20
1416.737722973493
 30
0.0
 10
3302.39191328962
 20
1416.664068589485
 30
0.0
 10
3302.486424385442
 20
1416.588308400696
 30
0.0
 10
3302.579171832622
 20
1416.510435118846
 30
0.0
  0
SPLINE
  5
28B
330
1B4
100
AcDbEntity
  8
P-SANR-FIXT
100
AcDbSpline
210
0.0
220
0.0
230
1.0
 70
     8
 71
     3
 72
     8
 73
     4
 74
     0
 42
0.000000001
 43
0.0000000001
 40
0.2504673199442733
 40
0.2504673199442733
 40
0.2504673199442733
 40
0.2504673199442733
 40
0.2592592592592593
 40
0.2592592592592593
 40
0.2592592592592593
 40
0.2592592592592593
 10
3303.133034935515
 20
1416.000067758452
 30
0.0
 10
3303.18809392294
 20
1415.944537187265
 30
0.0
 10
3303.242395555666
 20
1415.888243823998
 30
0.0
 10
3303.295932695092
 20
1415.831224145318
 30
0.0
  0
SPLINE
  5
28C
330
1B4
100
AcDbEntity
  8
P-SANR-FIXT
100
AcDbSpline
210
0.0
220
0.0
230
1.0
 70
     8
 71
     3
 72
     8
 73
     4
 74
     0
 42
0.000000001
 43
0.0000000001
 40
0.2913352027768852
 40
0.2913352027768852
 40
0.2913352027768852
 40
0.2913352027768852
 40
0.2962962962962963
 40
0.2962962962962963
 40
0.2962962962962963
 40
0.2962962962962963
 10
3303.850926012831
 20
1415.179813889284
 30
0.0
 10
3303.877898862221
 20
1415.144886483179
 30
0.0
 10
3303.904606934527
 20
1415.109757034164
 30
0.0
 10
3303.931044170408
 20
1415.074427281918
 30
0.0
  0
SPLINE
  5
28D
330
1B4
100
AcDbEntity
  8
P-SANR-FIXT
100
AcDbSpline
210
0.0
220
0.0
230
1.0
 70
     8
 71
     3
 72
     8
 73
     4
 74
     0
 42
0.000000001
 43
0.0000000001
 40
0.3703703703703703
 40
0.3703703703703703
 40
0.3703703703703703
 40
0.3703703703703703
 40
0.3750283498569086
 40
0.3750283498569086
 40
0.3750283498569086
 40
0.3750283498569086
 10
3304.916921394475
 20
1413.365921014094
 30
0.0
 10
3304.933256499785
 20
1413.327773552132
 30
0.0
 10
3304.949320306855
 20
1413.289507044313
 30
0.0
 10
3304.965113716807
 20
1413.251127299593
 30
0.0
  0
SPLINE
  5
28E
330
1B4
100
AcDbEntity
  8
P-SANR-FIXT
100
AcDbSpline
210
0.0
220
0.0
230
1.0
 70
     8
 71
     3
 72
     8
 73
     4
 74
     0
 42
0.000000001
 43
0.0000000001
 40
0.4074074074074074
 40
0.4074074074074074
 40
0.4074074074074074
 40
0.4074074074074074
 40
0.4164014622487532
 40
0.4164014622487532
 40
0.4164014622487532
 40
0.4164014622487532
 10
3305.255259769285
 20
1412.436126424626
 30
0.0
 10
3305.278427295352
 20
1412.359440142993
 30
0.0
 10
3305.300535064493
 20
1412.282443090878
 30
0.0
 10
3305.321553372549
 20
1412.205157907938
 30
0.0
  0
SPLINE
  5
28F
330
1B4
100
AcDbEntity
  8
P-SANR-FIXT
100
AcDbSpline
210
0.0
220
0.0
230
1.0
 70
     8
 71
     3
 72
     8
 73
     4
 74
     0
 42
0.000000001
 43
0.0000000001
 40
0.4444444444444445
 40
0.4444444444444445
 40
0.4444444444444445
 40
0.4444444444444445
 40
0.4582810381055857
 40
0.4582810381055857
 40
0.4582810381055857
 40
0.4582810381055857
 10
3305.485480996721
 20
1411.474527670986
 30
0.0
 10
3305.506918358022
 20
1411.353206597758
 30
0.0
 10
3305.525558480407
 20
1411.231370188012
 30
0.0
 10
3305.541454624537
 20
1411.109144354071
 30
0.0
  0
SPLINE
  5
290
330
1B4
100
AcDbEntity
  8
P-SANR-FIXT
100
AcDbSpline
210
0.0
220
0.0
230
1.0
 70
     8
 71
     3
 72
     9
 73
     5
 74
     0
 42
0.000000001
 43
0.0000000001
 40
0.4814814814814815
 40
0.4814814814814815
 40
0.4814814814814815
 40
0.4814814814814815
 40
0.5138888888888889
 40
0.5185185185185186
 40
0.5185185185185186
 40
0.5185185185185186
 40
0.5185185185185186
 10
3305.598506713891
 20
1410.491642418658
 30
0.0
 10
3305.614532239482
 20
1410.20314481424
 30
0.0
 10
3305.61622330217
 20
1409.872297070423
 30
0.0
 10
3305.599781167723
 20
1409.542295123735
 30
0.0
 10
3305.597439698126
 20
1409.501069165583
 30
0.0
  0
SPLINE
  5
291
330
1B4
100
AcDbEntity
  8
P-SANR-FIXT
100
AcDbSpline
210
0.0
220
0.0
230
1.0
 70
     8
 71
     3
 72
     9
 73
     5
 74
     0
 42
0.000000001
 43
0.0000000001
 40
0.5416368272651882
 40
0.5416368272651882
 40
0.5416368272651882
 40
0.5416368272651882
 40
0.5486111111111111
 40
0.5555555555555556
 40
0.5555555555555556
 40
0.5555555555555556
 40
0.5555555555555556
 10
3305.54061617547
 20
1408.886651106544
 30
0.0
 10
3305.532671152414
 20
1408.825331606084
 30
0.0
 10
3305.515443340356
 20
1408.703326527301
 30
0.0
 10
3305.495466612707
 20
1408.582182351933
 30
0.0
 10
3305.48481736575
 20
1408.52192100977
 30
0.0
  0
SPLINE
  5
292
330
1B4
100
AcDbEntity
  8
P-SANR-FIXT
100
AcDbSpline
210
0.0
220
0.0
230
1.0
 70
     8
 71
     3
 72
     8
 73
     4
 74
     0
 42
0.000000001
 43
0.0000000001
 40
0.5835331739726995
 40
0.5835331739726995
 40
0.5835331739726995
 40
0.5835331739726995
 40
0.5925925925925926
 40
0.5925925925925926
 40
0.5925925925925926
 40
0.5925925925925926
 10
3305.323016691294
 20
1407.800202443389
 30
0.0
 10
3305.302036217458
 20
1407.722735424499
 30
0.0
 10
3305.2799030798
 20
1407.645360344863
 30
0.0
 10
3305.256641364853
 20
1407.568144518677
 30
0.0
  0
SPLINE
  5
293
330
1B4
100
AcDbEntity
  8
P-SANR-FIXT
100
AcDbSpline
210
0.0
220
0.0
230
1.0
 70
     8
 71
     3
 72
     8
 73
     4
 74
     0
 42
0.000000001
 43
0.0000000001
 40
0.6249343661650875
 40
0.6249343661650875
 40
0.6249343661650875
 40
0.6249343661650875
 40
0.6296296296296296
 40
0.6296296296296296
 40
0.6296296296296296
 40
0.6296296296296296
 10
3304.96610825418
 20
1406.749501625928
 30
0.0
 10
3304.950047801764
 20
1406.710500641792
 30
0.0
 10
3304.933693594661
 20
1406.671625666057
 30
0.0
 10
3304.917051720299
 20
1406.63288191941
 30
0.0
  0
SPLINE
  5
294
330
1B4
100
AcDbEntity
  8
P-SANR-FIXT
100
AcDbSpline
210
0.0
220
0.0
230
1.0
 70
     8
 71
     3
 72
     8
 73
     4
 74
     0
 42
0.000000001
 43
0.0000000001
 40
0.7037037037037035
 40
0.7037037037037035
 40
0.7037037037037035
 40
0.7037037037037035
 40
0.7085953395028661
 40
0.7085953395028661
 40
0.7085953395028661
 40
0.7085953395028661
 10
3303.927816884775
 20
1404.922072262172
 30
0.0
 10
3303.901859996736
 20
1404.887389147799
 30
0.0
 10
3303.875670991724
 20
1404.852862732103
 30
0.0
 10
3303.849234453124
 20
1404.818528360869
 30
0.0
  0
SPLINE
  5
295
330
1B4
100
AcDbEntity
  8
P-SANR-FIXT
100
AcDbSpline
210
0.0
220
0.0
230
1.0
 70
     8
 71
     3
 72
     8
 73
     4
 74
     0
 42
0.000000001
 43
0.0000000001
 40
0.7407407407407405
 40
0.7407407407407405
 40
0.7407407407407405
 40
0.7407407407407405
 40
0.7494138109101729
 40
0.7494138109101729
 40
0.7494138109101729
 40
0.7494138109101729
 10
3303.295600032083
 20
1404.169175691859
 30
0.0
 10
3303.242992846398
 20
1404.113207175614
 30
0.0
 10
3303.189459197405
 20
1404.058270032572
 30
0.0
 10
3303.135085888059
 20
1404.004209049431
 30
0.0
  0
SPLINE
  5
296
330
1B4
100
AcDbEntity
  8
P-SANR-FIXT
100
AcDbSpline
210
0.0
220
0.0
230
1.0
 70
     8
 71
     3
 72
     8
 73
     4
 74
     0
 42
0.000000001
 43
0.0000000001
 40
0.7777777777777775
 40
0.7777777777777775
 40
0.7777777777777775
 40
0.7777777777777775
 40
0.7912713745261905
 40
0.7912713745261905
 40
0.7912713745261905
 40
0.7912713745261905
 10
3302.580234642971
 20
1403.491315133134
 30
0.0
 10
3302.488336947059
 20
1403.413959557872
 30
0.0
 10
3302.394206730409
 20
1403.339492260112
 30
0.0
 10
3302.299028651753
 20
1403.265074826469
 30
0.0
  0
SPLINE
  5
297
330
1B4
100
AcDbEntity
  8
P-SANR-FIXT
100
AcDbSpline
210
0.0
220
0.0
230
1.0
 70
     8
 71
     3
 72
     8
 73
     4
 74
     0
 42
0.000000001
 43
0.0000000001
 40
0.8148148148148145
 40
0.8148148148148145
 40
0.8148148148148145
 40
0.8148148148148145
 40
0.8518518518518513
 40
0.8518518518518513
 40
0.8518518518518513
 40
0.8518518518518513
 10
3301.783413204992
 20
1402.898742535314
 30
0.0
 10
3301.505514783029
 20
1402.716642109335
 30
0.0
 10
3301.221572257502
 20
1402.536149655753
 30
0.0
 10
3300.924850109713
 20
1402.393896335346
 30
0.0
  0
SPLINE
  5
298
330
1B4
100
AcDbEntity
  8
P-SANR-FIXT
100
AcDbSpline
210
0.0
220
0.0
230
1.0
 70
     8
 71
     3
 72
     8
 73
     4
 74
     0
 42
0.000000001
 43
0.0000000001
 40
0.8746877864804373
 40
0.8746877864804373
 40
0.8746877864804373
 40
0.8746877864804373
 40
0.8888888888888883
 40
0.8888888888888883
 40
0.8888888888888883
 40
0.8888888888888883
 10
3300.37053874043
 20
1402.149621323584
 30
0.0
 10
3300.255021584673
 20
1402.101541017066
 30
0.0
 10
3300.137134225969
 20
1402.060852323105
 30
0.0
 10
3300.017394055382
 20
1402.025949241579
 30
0.0
  0
SPLINE
  5
299
330
1B4
100
AcDbEntity
  8
P-SANR-FIXT
100
AcDbSpline
210
0.0
220
0.0
230
1.0
 70
     8
 71
     3
 72
     8
 73
     4
 74
     0
 42
0.000000001
 43
0.0000000001
 40
0.9170435935125723
 40
0.9170435935125723
 40
0.9170435935125723
 40
0.9170435935125723
 40
0.9259259259259254
 40
0.9259259259259254
 40
0.9259259259259254
 40
0.9259259259259254
 10
3299.315917461587
 20
1401.791268421012
 30
0.0
 10
3299.240670052038
 20
1401.771217983685
 30
0.0
 10
3299.164425613556
 20
1401.754045728951
 30
0.0
 10
3299.087389944825
 20
1401.739159199204
 30
0.0
  0
SPLINE
  5
29A
330
1B4
100
AcDbEntity
  8
P-SANR-FIXT
100
AcDbSpline
210
0.0
220
0.0
230
1.0
 70
     8
 71
     3
 72
     8
 73
     4
 74
     0
 42
0.000000001
 43
0.0000000001
 40
0.9590951390718677
 40
0.9590951390718677
 40
0.9590951390718677
 40
0.9590951390718677
 40
0.9629629629629622
 40
0.9629629629629622
 40
0.9629629629629622
 40
0.9629629629629622
 10
3298.224021358452
 20
1401.576326752532
 30
0.0
 10
3298.189809187208
 20
1401.571867661291
 30
0.0
 10
3298.155393781495
 20
1401.567954180945
 30
0.0
 10
3298.120812319395
 20
1401.564486615111
 30
0.0
  0
LINE
  5
29B
330
1B4
100
AcDbEntity
  8
P-SANR-FIXT
100
AcDbLine
 10
3297.114353943075
 20
360.0000000000604
 30
0.0
 11
3266.964353943061
 21
360.0000000000604
 31
0.0
  0
LINE
  5
29C
330
1B4
100
AcDbEntity
  8
P-SANR-FIXT
100
AcDbLine
 10
3327.264353943089
 20
360.0000000000596
 30
0.0
 11
3297.114353943075
 21
360.0000000000604
 31
0.0
  0
ARC
  5
29D
330
1B4
100
AcDbEntity
  8
P-SANR-FIXT
100
AcDbCircle
 10
3297.114353943078
 20
790.0000000000622
 30
0.0
 40
124.9999999999964
100
AcDbArc
 50
99.53373631443579
 51
101.3996801074996
  0
ARC
  5
29E
330
1B4
100
AcDbEntity
  8
P-SANR-FIXT
100
AcDbCircle
 10
3297.114353943078
 20
790.0000000000622
 30
0.0
 40
124.9999999999967
100
AcDbArc
 50
104.3081845849841
 51
106.2852899191545
  0
ARC
  5
29F
330
1B4
100
AcDbEntity
  8
P-SANR-FIXT
100
AcDbCircle
 10
3297.114353943078
 20
790.0000000000622
 30
0.0
 40
124.9999999999966
100
AcDbArc
 50
109.0914284919103
 51
111.1106173971368
  0
ARC
  5
2A0
330
1B4
100
AcDbEntity
  8
P-SANR-FIXT
100
AcDbCircle
 10
3297.114353943078
 20
790.0000000000622
 30
0.0
 40
124.9999999999967
100
AcDbArc
 50
113.8893826028624
 51
115.9085715080851
  0
ARC
  5
2A1
330
1B4
100
AcDbEntity
  8
P-SANR-FIXT
100
AcDbCircle
 10
3297.114353943078
 20
790.0000000000622
 30
0.0
 40
124.9999999999968
100
AcDbArc
 50
118.7147100808511
 51
120.6918154150084
  0
ARC
  5
2A2
330
1B4
100
AcDbEntity
  8
P-SANR-FIXT
100
AcDbCircle
 10
3297.114353943078
 20
790.0000000000622
 30
0.0
 40
124.9999999999963
100
AcDbArc
 50
123.6003198925009
 51
125.4662636855608
  0
ARC
  5
2A3
330
1B4
100
AcDbEntity
  8
P-SANR-FIXT
100
AcDbCircle
 10
3297.114353943078
 20
790.0000000000622
 30
0.0
 40
124.9999999999962
100
AcDbArc
 50
144.533736314438
 51
146.3996801074667
  0
ARC
  5
2A4
330
1B4
100
AcDbEntity
  8
P-SANR-FIXT
100
AcDbCircle
 10
3297.114353943078
 20
790.0000000000622
 30
0.0
 40
124.9999999999964
100
AcDbArc
 50
149.3081845850079
 51
151.2852899191118
  0
ARC
  5
2A5
330
1B4
100
AcDbEntity
  8
P-SANR-FIXT
100
AcDbCircle
 10
3297.114353943078
 20
790.0000000000622
 30
0.0
 40
124.9999999999964
100
AcDbArc
 50
154.0914284919202
 51
156.1106173971275
  0
ARC
  5
2A6
330
1B4
100
AcDbEntity
  8
P-SANR-FIXT
100
AcDbCircle
 10
3297.114353943078
 20
790.0000000000622
 30
0.0
 40
124.9999999999965
100
AcDbArc
 50
158.889382602862
 51
160.9085715080749
  0
ARC
  5
2A7
330
1B4
100
AcDbEntity
  8
P-SANR-FIXT
100
AcDbCircle
 10
3297.114353943078
 20
790.0000000000622
 30
0.0
 40
124.9999999999964
100
AcDbArc
 50
163.7147100809058
 51
165.6918154149718
  0
ARC
  5
2A8
330
1B4
100
AcDbEntity
  8
P-SANR-FIXT
100
AcDbCircle
 10
3297.114353943078
 20
790.0000000000622
 30
0.0
 40
124.9999999999965
100
AcDbArc
 50
168.6003198925211
 51
170.4662636855636
  0
ARC
  5
2A9
330
1B4
100
AcDbEntity
  8
P-SANR-FIXT
100
AcDbCircle
 10
3297.114353943078
 20
790.0000000000622
 30
0.0
 40
124.9999999999967
100
AcDbArc
 50
189.5337363144377
 51
191.3996801074338
  0
ARC
  5
2AA
330
1B4
100
AcDbEntity
  8
P-SANR-FIXT
100
AcDbCircle
 10
3297.114353943078
 20
790.0000000000622
 30
0.0
 40
124.9999999999966
100
AcDbArc
 50
194.3081845850487
 51
196.2852899190431
  0
ARC
  5
2AB
330
1B4
100
AcDbEntity
  8
P-SANR-FIXT
100
AcDbCircle
 10
3297.114353943078
 20
790.0000000000622
 30
0.0
 40
124.9999999999961
100
AcDbArc
 50
199.0914284919273
 51
201.1106173971322
  0
ARC
  5
2AC
330
1B4
100
AcDbEntity
  8
P-SANR-FIXT
100
AcDbCircle
 10
3297.114353943078
 20
790.0000000000622
 30
0.0
 40
124.9999999999963
100
AcDbArc
 50
203.8893826028638
 51
205.9085715080636
  0
ARC
  5
2AD
330
1B4
100
AcDbEntity
  8
P-SANR-FIXT
100
AcDbCircle
 10
3297.114353943078
 20
790.0000000000622
 30
0.0
 40
124.9999999999963
100
AcDbArc
 50
208.7147100809761
 51
210.6918154149277
  0
ARC
  5
2AE
330
1B4
100
AcDbEntity
  8
P-SANR-FIXT
100
AcDbCircle
 10
3297.114353943078
 20
790.0000000000622
 30
0.0
 40
124.9999999999962
100
AcDbArc
 50
213.6003198925633
 51
215.4662636855595
  0
ARC
  5
2AF
330
1B4
100
AcDbEntity
  8
P-SANR-FIXT
100
AcDbCircle
 10
3297.114353943078
 20
790.0000000000622
 30
0.0
 40
124.9999999999961
100
AcDbArc
 50
234.5337363144345
 51
236.399680107417
  0
ARC
  5
2B0
330
1B4
100
AcDbEntity
  8
P-SANR-FIXT
100
AcDbCircle
 10
3297.114353943078
 20
790.0000000000622
 30
0.0
 40
124.9999999999962
100
AcDbArc
 50
239.3081845850852
 51
241.2852899189886
  0
ARC
  5
2B1
330
1B4
100
AcDbEntity
  8
P-SANR-FIXT
100
AcDbCircle
 10
3297.114353943078
 20
790.0000000000622
 30
0.0
 40
124.9999999999963
100
AcDbArc
 50
244.091428491939
 51
246.1106173971293
  0
ARC
  5
2B2
330
1B4
100
AcDbEntity
  8
P-SANR-FIXT
100
AcDbCircle
 10
3297.114353943078
 20
790.0000000000622
 30
0.0
 40
124.9999999999962
100
AcDbArc
 50
248.889382602865
 51
250.9085715080568
  0
ARC
  5
2B3
330
1B4
100
AcDbEntity
  8
P-SANR-FIXT
100
AcDbCircle
 10
3297.114353943078
 20
790.0000000000622
 30
0.0
 40
124.9999999999966
100
AcDbArc
 50
253.7147100810182
 51
255.691815414903
  0
ARC
  5
2B4
330
1B4
100
AcDbEntity
  8
P-SANR-FIXT
100
AcDbCircle
 10
3297.114353943078
 20
790.0000000000622
 30
0.0
 40
124.9999999999963
100
AcDbArc
 50
258.6003198925916
 51
260.4662636855601
  0
ARC
  5
2B5
330
1B4
100
AcDbEntity
  8
P-SANR-FIXT
100
AcDbCircle
 10
3297.114353943078
 20
790.0000000000622
 30
0.0
 40
124.9999999999964
100
AcDbArc
 50
279.5337363144403
 51
281.3996801073957
  0
ARC
  5
2B6
330
1B4
100
AcDbEntity
  8
P-SANR-FIXT
100
AcDbCircle
 10
3297.114353943078
 20
790.0000000000622
 30
0.0
 40
124.9999999999964
100
AcDbArc
 50
284.3081845850937
 51
286.2852899189804
  0
ARC
  5
2B7
330
1B4
100
AcDbEntity
  8
P-SANR-FIXT
100
AcDbCircle
 10
3297.114353943078
 20
790.0000000000622
 30
0.0
 40
124.9999999999963
100
AcDbArc
 50
289.0914284919402
 51
291.1106173971321
  0
ARC
  5
2B8
330
1B4
100
AcDbEntity
  8
P-SANR-FIXT
100
AcDbCircle
 10
3297.114353943078
 20
790.0000000000622
 30
0.0
 40
124.9999999999965
100
AcDbArc
 50
293.889382602866
 51
295.9085715080595
  0
ARC
  5
2B9
330
1B4
100
AcDbEntity
  8
P-SANR-FIXT
100
AcDbCircle
 10
3297.114353943078
 20
790.0000000000622
 30
0.0
 40
124.9999999999966
100
AcDbArc
 50
298.7147100810119
 51
300.6918154149103
  0
ARC
  5
2BA
330
1B4
100
AcDbEntity
  8
P-SANR-FIXT
100
AcDbCircle
 10
3297.114353943078
 20
790.0000000000622
 30
0.0
 40
124.9999999999966
100
AcDbArc
 50
303.6003198925835
 51
305.4662636855629
  0
ARC
  5
2BB
330
1B4
100
AcDbEntity
  8
P-SANR-FIXT
100
AcDbCircle
 10
3297.114353943078
 20
790.0000000000622
 30
0.0
 40
124.9999999999964
100
AcDbArc
 50
324.5337363144424
 51
326.3996801074196
  0
ARC
  5
2BC
330
1B4
100
AcDbEntity
  8
P-SANR-FIXT
100
AcDbCircle
 10
3297.114353943078
 20
790.0000000000622
 30
0.0
 40
124.9999999999968
100
AcDbArc
 50
329.3081845850645
 51
331.2852899190289
  0
ARC
  5
2BD
330
1B4
100
AcDbEntity
  8
P-SANR-FIXT
100
AcDbCircle
 10
3297.114353943078
 20
790.0000000000622
 30
0.0
 40
124.9999999999961
100
AcDbArc
 50
334.0914284919449
 51
336.1106173971214
  0
ARC
  5
2BE
330
1B4
100
AcDbEntity
  8
P-SANR-FIXT
100
AcDbCircle
 10
3297.114353943078
 20
790.0000000000622
 30
0.0
 40
124.9999999999962
100
AcDbArc
 50
338.8893826028702
 51
340.908571508067
  0
ARC
  5
2BF
330
1B4
100
AcDbEntity
  8
P-SANR-FIXT
100
AcDbCircle
 10
3297.114353943078
 20
790.0000000000622
 30
0.0
 40
124.999999999996
100
AcDbArc
 50
343.7147100809619
 51
345.6918154149418
  0
ARC
  5
2C0
330
1B4
100
AcDbEntity
  8
P-SANR-FIXT
100
AcDbCircle
 10
3297.114353943078
 20
790.0000000000622
 30
0.0
 40
124.9999999999969
100
AcDbArc
 50
348.6003198925675
 51
350.4662636855595
  0
ARC
  5
2C1
330
1B4
100
AcDbEntity
  8
P-SANR-FIXT
100
AcDbCircle
 10
3297.114353943078
 20
790.0000000000622
 30
0.0
 40
124.999999999996
100
AcDbArc
 50
9.533736314443439
 51
11.39968010745659
  0
ARC
  5
2C2
330
1B4
100
AcDbEntity
  8
P-SANR-FIXT
100
AcDbCircle
 10
3297.114353943078
 20
790.0000000000622
 30
0.0
 40
124.9999999999963
100
AcDbArc
 50
14.30818458502163
 51
16.28528991909991
  0
ARC
  5
2C3
330
1B4
100
AcDbEntity
  8
P-SANR-FIXT
100
AcDbCircle
 10
3297.114353943078
 20
790.0000000000622
 30
0.0
 40
124.9999999999963
100
AcDbArc
 50
19.09142849192839
 51
21.11061739712968
  0
ARC
  5
2C4
330
1B4
100
AcDbEntity
  8
P-SANR-FIXT
100
AcDbCircle
 10
3297.114353943078
 20
790.0000000000622
 30
0.0
 40
124.9999999999964
100
AcDbArc
 50
23.88938260287604
 51
25.90857150807383
  0
ARC
  5
2C5
330
1B4
100
AcDbEntity
  8
P-SANR-FIXT
100
AcDbCircle
 10
3297.114353943078
 20
790.0000000000622
 30
0.0
 40
124.9999999999961
100
AcDbArc
 50
28.71471008089006
 51
30.69181541498747
  0
ARC
  5
2C6
330
1B4
100
AcDbEntity
  8
P-SANR-FIXT
100
AcDbCircle
 10
3297.114353943078
 20
790.0000000000622
 30
0.0
 40
124.9999999999961
100
AcDbArc
 50
33.60031989253344
 51
35.46626368555961
  0
ARC
  5
2C7
330
1B4
100
AcDbEntity
  8
P-SANR-FIXT
100
AcDbCircle
 10
3297.114353943078
 20
790.0000000000622
 30
0.0
 40
124.9999999999964
100
AcDbArc
 50
54.53373631443846
 51
56.39968010749258
  0
ARC
  5
2C8
330
1B4
100
AcDbEntity
  8
P-SANR-FIXT
100
AcDbCircle
 10
3297.114353943078
 20
790.0000000000622
 30
0.0
 40
124.9999999999963
100
AcDbArc
 50
59.30818458499284
 51
61.28528991914346
  0
ARC
  5
2C9
330
1B4
100
AcDbEntity
  8
P-SANR-FIXT
100
AcDbCircle
 10
3297.114353943078
 20
790.0000000000622
 30
0.0
 40
124.9999999999964
100
AcDbArc
 50
64.09142849191688
 51
66.11061739713064
  0
ARC
  5
2CA
330
1B4
100
AcDbEntity
  8
P-SANR-FIXT
100
AcDbCircle
 10
3297.114353943078
 20
790.0000000000622
 30
0.0
 40
124.9999999999963
100
AcDbArc
 50
68.88938260286916
 51
70.90857150808254
  0
ARC
  5
2CB
330
1B4
100
AcDbEntity
  8
P-SANR-FIXT
100
AcDbCircle
 10
3297.114353943078
 20
790.0000000000622
 30
0.0
 40
124.9999999999968
100
AcDbArc
 50
73.71471008084355
 51
75.69181541501435
  0
ARC
  5
2CC
330
1B4
100
AcDbEntity
  8
P-SANR-FIXT
100
AcDbCircle
 10
3297.114353943078
 20
790.0000000000622
 30
0.0
 40
124.9999999999961
100
AcDbArc
 50
78.60031989249756
 51
80.46626368556207
  0
ENDBLK
  5
2CE
330
1B4
100
AcDbEntity
  8
0
100
AcDbBlockEnd
  0
ENDSEC
  0
SECTION
  2
ENTITIES
  0
INSERT
  5
1B3
330
71
100
AcDbEntity
  8
P-SANR-FIXT
100
AcDbBlockReference
  2
Automatic flow rate regulator valve_Caleffi_121 DN15 - 2___Pressure gauge H-980146-Est - Idraulica
 10
0.0
 20
0.0
 30
0.0
1001
REVIT
1002
{
1070
     1
1000
863152
1002
}
1002
{
1070
     5
1000
980146
1002
}
1002
{
1070
     2
1000
-2001160
1002
}
  0
INSERT
  5
2CF
330
71
100
AcDbEntity
  8
P-SANR-FIXT
100
AcDbBlockReference
  2
Automatic flow rate regulator valve_Caleffi_121 DN15 - 2___Pressure gauge H-V1-Est - Idraulica
 10
0.0
 20
0.0
 30
0.0
1001
REVIT
1002
{
1070
     1
1000
863172
1002
}
1002
{
1070
     5
1000
980146
1002
}
1002
{
1070
     2
1000
-2001160
1002
}
  0
ENDSEC
  0
SECTION
  2
OBJECTS
  0
DICTIONARY
  5
C
330
0
100
AcDbDictionary
281
     1
  3
ACAD_CIP_PREVIOUS_PRODUCT_INFO
350
7A
  3
ACAD_COLOR
350
63
  3
ACAD_DETAILVIEWSTYLE
350
6B
  3
ACAD_GROUP
350
D
  3
ACAD_IMAGE_VARS
350
7B
  3
ACAD_LAYOUT
350
62
  3
ACAD_MATERIAL
350
10
  3
ACAD_MLEADERSTYLE
350
66
  3
ACAD_MLINESTYLE
350
5F
  3
ACAD_PLOTSETTINGS
350
61
  3
ACAD_PLOTSTYLENAME
350
E
  3
ACAD_SCALELIST
350
42
  3
ACAD_SECTIONVIEWSTYLE
350
68
  3
ACAD_TABLESTYLE
350
64
  3
ACAD_VISUALSTYLE
350
29
  3
ACDB_RECOMPOSE_DATA
350
2DA
  3
AcDbVariableDictionary
350
7C
  3
REVIT_DICTIONARY
350
2D1
  0
DICTIONARY
  5
2D6
330
71
100
AcDbDictionary
280
     1
281
     1
  3
ACAD_SORTENTS
360
2D7
  0
XRECORD
  5
7A
102
{ACAD_REACTORS
330
C
102
}
330
C
100
AcDbXrecord
280
     1
300
RVT
300
2013
300
RVT2013
  0
DICTIONARY
  5
63
102
{ACAD_REACTORS
330
C
102
}
330
C
100
AcDbDictionary
281
     1
  0
DICTIONARY
  5
6B
102
{ACAD_REACTORS
330
C
102
}
330
C
100
AcDbDictionary
281
     1
  3
Imperial24
350
6C
  0
DICTIONARY
  5
D
102
{ACAD_REACTORS
330
C
102
}
330
C
100
AcDbDictionary
281
     1
  0
RASTERVARIABLES
  5
7B
102
{ACAD_REACTORS
330
C
102
}
330
C
100
AcDbRasterVariables
 90
        0
 70
     0
 71
     1
 72
     1
  0
DICTIONARY
  5
62
102
{ACAD_REACTORS
330
C
102
}
330
C
100
AcDbDictionary
281
     1
  3
Layout1
350
70
  3
Layout2
350
78
  3
Model
350
74
  0
DICTIONARY
  5
10
102
{ACAD_REACTORS
330
C
102
}
330
C
100
AcDbDictionary
281
     1
  3
ByBlock
350
19
  3
ByLayer
350
11
  3
Global
350
21
  0
DICTIONARY
  5
66
102
{ACAD_REACTORS
330
C
102
}
330
C
100
AcDbDictionary
281
     1
  3
Standard
350
67
  0
DICTIONARY
  5
5F
102
{ACAD_REACTORS
330
C
102
}
330
C
100
AcDbDictionary
281
     1
  3
Standard
350
60
  0
DICTIONARY
  5
61
102
{ACAD_REACTORS
330
C
102
}
330
C
100
AcDbDictionary
281
     1
  0
ACDBDICTIONARYWDFLT
  5
E
102
{ACAD_REACTORS
330
C
102
}
330
C
100
AcDbDictionary
281
     1
  3
Normal
350
F
100
AcDbDictionaryWithDefault
340
F
  0
DICTIONARY
  5
42
102
{ACAD_REACTORS
330
C
102
}
330
C
100
AcDbDictionary
281
     1
  3
A0
350
43
  3
A1
350
44
  3
A2
350
45
  3
A3
350
46
  3
A4
350
47
  3
A5
350
48
  3
A6
350
49
  3
A7
350
4A
  3
A8
350
4B
  3
A9
350
4C
  3
B0
350
4D
  3
B1
350
4E
  3
B2
350
4F
  3
B3
350
50
  3
B4
350
51
  3
B5
350
52
  3
B6
350
53
  0
DICTIONARY
  5
68
102
{ACAD_REACTORS
330
C
102
}
330
C
100
AcDbDictionary
281
     1
  3
Imperial24
350
6A
  0
DICTIONARY
  5
64
102
{ACAD_REACTORS
330
C
102
}
330
C
100
AcDbDictionary
281
     1
  3
Standard
350
65
  0
DICTIONARY
  5
29
102
{ACAD_REACTORS
330
C
102
}
330
C
100
AcDbDictionary
281
     1
  3
2dWireframe
350
2F
  3
Basic
350
2E
  3
Brighten
350
35
  3
ColorChange
350
39
  3
Conceptual
350
32
  3
Dim
350
34
  3
EdgeColorOff
350
41
  3
Facepattern
350
38
  3
Flat
350
2A
  3
FlatWithEdges
350
2B
  3
Gouraud
350
2C
  3
GouraudWithEdges
350
2D
  3
Hidden
350
31
  3
JitterOff
350
3F
  3
Linepattern
350
37
  3
OverhangOff
350
40
  3
Realistic
350
33
  3
Shaded
350
3E
  3
Shaded with edges
350
3D
  3
Shades of Gray
350
3A
  3
Sketchy
350
3B
  3
Thicken
350
36
  3
Wireframe
350
30
  3
X-Ray
350
3C
  0
XRECORD
  5
2DA
102
{ACAD_REACTORS
330
C
102
}
330
C
100
AcDbXrecord
280
     1
 90
        1
330
65
  0
DICTIONARY
  5
7C
102
{ACAD_REACTORS
330
C
102
}
330
C
100
AcDbDictionary
281
     1
  3
CANNOSCALE
350
81
  3
CMLEADERSTYLE
350
7E
  3
CTABLESTYLE
350
7D
  3
CVIEWDETAILSTYLE
350
7F
  3
CVIEWSECTIONSTYLE
350
80
  0
DICTIONARY
  5
2D1
102
{ACAD_REACTORS
330
C
102
}
330
C
100
AcDbDictionary
281
     1
  3
DRAWING_TOOL
350
2D5
  3
REVIT_CATEGORY_MAPPING
350
2D3
  3
REVIT_SUB_CATEGORY_MAPPING
350
2D4
  3
REVIT_TYPE_MAPPING
350
2D2
  0
SORTENTSTABLE
  5
2D7
102
{ACAD_REACTORS
330
2D6
102
}
330
2D6
100
AcDbSortentsTable
330
71
  0
ACDBDETAILVIEWSTYLE
  5
6C
102
{ACAD_REACTORS
330
6B
102
}
330
6B
100
AcDbModelDocViewStyle
 70
     0
  3
Imperial24
290
     1
100
AcDbDetailViewStyle
 70
     0
 71
     0
 90
        3
 71
     1
340
55
 62
   256
 40
0.24
340
0
 62
   256
 40
0.24
300

 40
0.36
280
     3
 71
     2
340
5D
 90
       25
 62
   256
 71
     3
340
55
 62
   256
 40
0.24
 90
        1
 40
0.75
 90
        1
300
%<\AcVar ViewType \f "%tc1">% %<\AcVar ViewDetailId>%\PSCALA %<\AcVar ViewScale \f "%sn">%
 71
     4
340
5D
 90
       25
 62
   256
340
5D
 90
       25
 62
   256
280
     0
  0
LAYOUT
  5
70
102
{ACAD_REACTORS
330
62
102
}
330
62
100
AcDbPlotSettings
  1

  2

  4

  6

 40
0.0
 41
0.0
 42
0.0
 43
0.0
 44
0.0
 45
0.0
 46
0.0
 47
0.0
 48
0.0
 49
0.0
140
0.0
141
0.0
142
1.0
143
1.0
 70
   688
 72
     0
 73
     0
 74
     5
  7

 75
    16
147
1.0
 76
     0
 77
     2
 78
   300
148
0.0
149
0.0
100
AcDbLayout
  1
Layout1
 70
     1
 71
     1
 10
0.0
 20
0.0
 11
12.0
 21
9.0
 12
0.0
 22
0.0
 32
0.0
 14
0.0
 24
0.0
 34
0.0
 15
0.0
 25
0.0
 35
0.0
146
0.0
 13
0.0
 23
0.0
 33
0.0
 16
1.0
 26
0.0
 36
0.0
 17
0.0
 27
1.0
 37
0.0
 76
     0
330
6D
  0
LAYOUT
  5
78
102
{ACAD_REACTORS
330
62
102
}
330
62
100
AcDbPlotSettings
  1

  2

  4

  6

 40
0.0
 41
0.0
 42
0.0
 43
0.0
 44
0.0
 45
0.0
 46
0.0
 47
0.0
 48
0.0
 49
0.0
140
0.0
141
0.0
142
1.0
143
1.0
 70
   688
 72
     0
 73
     0
 74
     5
  7

 75
    16
147
1.0
 76
     0
 77
     2
 78
   300
148
0.0
149
0.0
100
AcDbLayout
  1
Layout2
 70
     1
 71
     2
 10
0.0
 20
0.0
 11
12.0
 21
9.0
 12
0.0
 22
0.0
 32
0.0
 14
0.0
 24
0.0
 34
0.0
 15
0.0
 25
0.0
 35
0.0
146
0.0
 13
0.0
 23
0.0
 33
0.0
 16
1.0
 26
0.0
 36
0.0
 17
0.0
 27
1.0
 37
0.0
 76
     0
330
75
  0
LAYOUT
  5
74
102
{ACAD_REACTORS
330
62
102
}
330
62
100
AcDbPlotSettings
  1

  2

  4

  6

 40
0.0
 41
0.0
 42
0.0
 43
0.0
 44
0.0
 45
0.0
 46
0.0
 47
0.0
 48
0.0
 49
0.0
140
0.0
141
0.0
142
1.0
143
1.0
 70
  1712
 72
     0
 73
     0
 74
     0
  7

 75
     0
147
1.0
 76
     0
 77
     2
 78
   300
148
0.0
149
0.0
100
AcDbLayout
  1
Model
 70
     1
 71
     0
 10
0.0
 20
0.0
 11
12.0
 21
9.0
 12
0.0
 22
0.0
 32
0.0
 14
0.0
 24
0.0
 34
0.0
 15
0.0
 25
0.0
 35
0.0
146
0.0
 13
0.0
 23
0.0
 33
0.0
 16
1.0
 26
0.0
 36
0.0
 17
0.0
 27
1.0
 37
0.0
 76
     0
330
71
  0
MATERIAL
  5
19
102
{ACAD_XDICTIONARY
360
1A
102
}
102
{ACAD_REACTORS
330
10
102
}
330
10
100
AcDbMaterial
  1
ByBlock
 72
     0
 43
0.0208333333333333
 43
0.0
 43
0.0
 43
0.0
 43
0.0
 43
0.0208333333333333
 43
0.0
 43
0.0
 43
0.0
 43
0.0
 43
1.0
 43
0.0
 43
0.0
 43
0.0
 43
0.0
 43
1.0
 77
     0
 47
0.0208333333333333
 47
0.0
 47
0.0
 47
0.0
 47
0.0
 47
0.0208333333333333
 47
0.0
 47
0.0
 47
0.0
 47
0.0
 47
1.0
 47
0.0
 47
0.0
 47
0.0
 47
0.0
 47
1.0
171
     0
 49
0.0208333333333333
 49
0.0
 49
0.0
 49
0.0
 49
0.0
 49
0.0208333333333333
 49
0.0
 49
0.0
 49
0.0
 49
0.0
 49
1.0
 49
0.0
 49
0.0
 49
0.0
 49
0.0
 49
1.0
175
     0
142
0.0208333333333333
142
0.0
142
0.0
142
0.0
142
0.0
142
0.0208333333333333
142
0.0
142
0.0
142
0.0
142
0.0
142
1.0
142
0.0
142
0.0
142
0.0
142
0.0
142
1.0
179
     0
144
0.0208333333333333
144
0.0
144
0.0
144
0.0
144
0.0
144
0.0208333333333333
144
0.0
144
0.0
144
0.0
144
0.0
144
1.0
144
0.0
144
0.0
144
0.0
144
0.0
144
1.0
147
0.0208333333333333
147
0.0
147
0.0
147
0.0
147
0.0
147
0.0208333333333333
147
0.0
147
0.0
147
0.0
147
0.0
147
1.0
147
0.0
147
0.0
147
0.0
147
0.0
147
1.0
  0
MATERIAL
  5
11
102
{ACAD_XDICTIONARY
360
12
102
}
102
{ACAD_REACTORS
330
10
102
}
330
10
100
AcDbMaterial
  1
ByLayer
 72
     0
 43
0.0208333333333333
 43
0.0
 43
0.0
 43
0.0
 43
0.0
 43
0.0208333333333333
 43
0.0
 43
0.0
 43
0.0
 43
0.0
 43
1.0
 43
0.0
 43
0.0
 43
0.0
 43
0.0
 43
1.0
 77
     0
 47
0.0208333333333333
 47
0.0
 47
0.0
 47
0.0
 47
0.0
 47
0.0208333333333333
 47
0.0
 47
0.0
 47
0.0
 47
0.0
 47
1.0
 47
0.0
 47
0.0
 47
0.0
 47
0.0
 47
1.0
171
     0
 49
0.0208333333333333
 49
0.0
 49
0.0
 49
0.0
 49
0.0
 49
0.0208333333333333
 49
0.0
 49
0.0
 49
0.0
 49
0.0
 49
1.0
 49
0.0
 49
0.0
 49
0.0
 49
0.0
 49
1.0
175
     0
142
0.0208333333333333
142
0.0
142
0.0
142
0.0
142
0.0
142
0.0208333333333333
142
0.0
142
0.0
142
0.0
142
0.0
142
1.0
142
0.0
142
0.0
142
0.0
142
0.0
142
1.0
179
     0
144
0.0208333333333333
144
0.0
144
0.0
144
0.0
144
0.0
144
0.0208333333333333
144
0.0
144
0.0
144
0.0
144
0.0
144
1.0
144
0.0
144
0.0
144
0.0
144
0.0
144
1.0
147
0.0208333333333333
147
0.0
147
0.0
147
0.0
147
0.0
147
0.0208333333333333
147
0.0
147
0.0
147
0.0
147
0.0
147
1.0
147
0.0
147
0.0
147
0.0
147
0.0
147
1.0
  0
MATERIAL
  5
21
102
{ACAD_XDICTIONARY
360
22
102
}
102
{ACAD_REACTORS
330
10
102
}
330
10
100
AcDbMaterial
  1
Global
 72
     0
 43
0.0208333333333333
 43
0.0
 43
0.0
 43
0.0
 43
0.0
 43
0.0208333333333333
 43
0.0
 43
0.0
 43
0.0
 43
0.0
 43
1.0
 43
0.0
 43
0.0
 43
0.0
 43
0.0
 43
1.0
 77
     0
 47
0.0208333333333333
 47
0.0
 47
0.0
 47
0.0
 47
0.0
 47
0.0208333333333333
 47
0.0
 47
0.0
 47
0.0
 47
0.0
 47
1.0
 47
0.0
 47
0.0
 47
0.0
 47
0.0
 47
1.0
171
     0
 49
0.0208333333333333
 49
0.0
 49
0.0
 49
0.0
 49
0.0
 49
0.0208333333333333
 49
0.0
 49
0.0
 49
0.0
 49
0.0
 49
1.0
 49
0.0
 49
0.0
 49
0.0
 49
0.0
 49
1.0
175
     0
142
0.0208333333333333
142
0.0
142
0.0
142
0.0
142
0.0
142
0.0208333333333333
142
0.0
142
0.0
142
0.0
142
0.0
142
1.0
142
0.0
142
0.0
142
0.0
142
0.0
142
1.0
179
     0
144
0.0208333333333333
144
0.0
144
0.0
144
0.0
144
0.0
144
0.0208333333333333
144
0.0
144
0.0
144
0.0
144
0.0
144
1.0
144
0.0
144
0.0
144
0.0
144
0.0
144
1.0
147
0.0208333333333333
147
0.0
147
0.0
147
0.0
147
0.0
147
0.0208333333333333
147
0.0
147
0.0
147
0.0
147
0.0
147
1.0
147
0.0
147
0.0
147
0.0
147
0.0
147
1.0
  0
MLEADERSTYLE
  5
67
102
{ACAD_REACTORS
330
66
102
}
330
66
100
AcDbMLeaderStyle
179
     2
170
     2
171
     1
172
     0
 90
        2
 40
0.0
 41
0.0
173
     1
 91
-1056964608
340
5B
 92
       -2
290
     1
 42
0.09
291
     1
 43
0.36
  3
Standard
 44
0.18
300

342
55
174
     1
178
     6
175
     1
176
     0
 93
-1056964608
 45
0.18
292
     0
297
     0
 46
0.18
 94
-1056964608
 47
1.0
 49
1.0
140
1.0
293
     1
141
0.0
294
     1
177
     0
142
1.0
295
     1
296
     0
143
0.125
271
     0
272
     9
273
     9
298
     1
  0
MLINESTYLE
  5
60
102
{ACAD_REACTORS
330
5F
102
}
330
5F
100
AcDbMlineStyle
  2
STANDARD
 70
     0
  3

 62
   256
 51
90.0
 52
90.0
 71
     2
 49
0.5
 62
   256
  6
BYLAYER
 49
-0.5
 62
   256
  6
BYLAYER
  0
ACDBPLACEHOLDER
  5
F
102
{ACAD_REACTORS
330
E
102
}
330
E
  0
SCALE
  5
43
102
{ACAD_REACTORS
330
42
102
}
330
42
100
AcDbScale
 70
     0
300
1:1
140
1.0
141
1.0
290
     1
  0
SCALE
  5
44
102
{ACAD_REACTORS
330
42
102
}
330
42
100
AcDbScale
 70
     0
300
1/128" = 1'-0"
140
0.0078125
141
12.0
290
     0
  0
SCALE
  5
45
102
{ACAD_REACTORS
330
42
102
}
330
42
100
AcDbScale
 70
     0
300
1/64" = 1'-0"
140
0.015625
141
12.0
290
     0
  0
SCALE
  5
46
102
{ACAD_REACTORS
330
42
102
}
330
42
100
AcDbScale
 70
     0
300
1/32" = 1'-0"
140
0.03125
141
12.0
290
     0
  0
SCALE
  5
47
102
{ACAD_REACTORS
330
42
102
}
330
42
100
AcDbScale
 70
     0
300
1/16" = 1'-0"
140
0.0625
141
12.0
290
     0
  0
SCALE
  5
48
102
{ACAD_REACTORS
330
42
102
}
330
42
100
AcDbScale
 70
     0
300
3/32" = 1'-0"
140
0.09375
141
12.0
290
     0
  0
SCALE
  5
49
102
{ACAD_REACTORS
330
42
102
}
330
42
100
AcDbScale
 70
     0
300
1/8" = 1'-0"
140
0.125
141
12.0
290
     0
  0
SCALE
  5
4A
102
{ACAD_REACTORS
330
42
102
}
330
42
100
AcDbScale
 70
     0
300
3/16" = 1'-0"
140
0.1875
141
12.0
290
     0
  0
SCALE
  5
4B
102
{ACAD_REACTORS
330
42
102
}
330
42
100
AcDbScale
 70
     0
300
1/4" = 1'-0"
140
0.25
141
12.0
290
     0
  0
SCALE
  5
4C
102
{ACAD_REACTORS
330
42
102
}
330
42
100
AcDbScale
 70
     0
300
3/8" = 1'-0"
140
0.375
141
12.0
290
     0
  0
SCALE
  5
4D
102
{ACAD_REACTORS
330
42
102
}
330
42
100
AcDbScale
 70
     0
300
1/2" = 1'-0"
140
0.5
141
12.0
290
     0
  0
SCALE
  5
4E
102
{ACAD_REACTORS
330
42
102
}
330
42
100
AcDbScale
 70
     0
300
3/4" = 1'-0"
140
0.75
141
12.0
290
     0
  0
SCALE
  5
4F
102
{ACAD_REACTORS
330
42
102
}
330
42
100
AcDbScale
 70
     0
300
1" = 1'-0"
140
1.0
141
12.0
290
     0
  0
SCALE
  5
50
102
{ACAD_REACTORS
330
42
102
}
330
42
100
AcDbScale
 70
     0
300
1-1/2" = 1'-0"
140
1.5
141
12.0
290
     0
  0
SCALE
  5
51
102
{ACAD_REACTORS
330
42
102
}
330
42
100
AcDbScale
 70
     0
300
3" = 1'-0"
140
3.0
141
12.0
290
     0
  0
SCALE
  5
52
102
{ACAD_REACTORS
330
42
102
}
330
42
100
AcDbScale
 70
     0
300
6" = 1'-0"
140
6.0
141
12.0
290
     0
  0
SCALE
  5
53
102
{ACAD_REACTORS
330
42
102
}
330
42
100
AcDbScale
 70
     0
300
1'-0" = 1'-0"
140
12.0
141
12.0
290
     0
  0
ACDBSECTIONVIEWSTYLE
  5
6A
102
{ACAD_REACTORS
330
68
102
}
330
68
100
AcDbModelDocViewStyle
 70
     0
  3
Imperial24
290
     1
100
AcDbSectionViewStyle
 70
     0
 71
     0
 90
       78
 71
     1
340
55
 62
   256
 40
0.24
340
0
340
0
 62
   256
 40
0.24
300
I, O, Q, S, X, Z
 40
0.48
 90
        3
 40
0.18
 90
        1
 71
     2
340
69
 90
       25
 62
   256
340
5D
 90
       50
 62
   256
 40
0.24
 40
0.0
 40
0.24
 71
     3
340
55
 62
   256
 40
0.24
 90
        1
 40
0.75
 90
        1
300
%<\AcVar ViewType \f "%tc1">% %<\AcVar ViewSectionStartId>%-%<\AcVar ViewSectionEndId>%\PSCALA %<\AcVar ViewScale \f "%sn">%
 71
     4
 62
   256
 62
   257
300
ANSI31
 40
1.0
 90
        0
290
     0
290
     0
 90
        6
 40
0.0
 40
1.570796326794896
 40
0.2617993877991494
 40
1.308996938995747
 40
-0.2617993877991494
 40
1.832595714594046
  0
TABLESTYLE
  5
65
102
{ACAD_XDICTIONARY
360
2D8
102
}
102
{ACAD_REACTORS
330
64
102
}
330
64
100
AcDbTableStyle
280
     0
  3
Standard
 70
     0
 71
     0
 40
0.06
 41
0.06
280
     0
281
     0
  7
Standard
140
0.18
170
     2
 62
     0
 63
     7
283
     0
 90
      512
 91
        0
  1

274
    -2
284
     1
 64
     0
275
    -2
285
     1
 65
     0
276
    -2
286
     1
 66
     0
277
    -2
287
     1
 67
     0
278
    -2
288
     1
 68
     0
279
    -2
289
     1
 69
     0
  7
Standard
140
0.25
170
     5
 62
     0
 63
     7
283
     0
 90
      512
 91
        0
  1

274
    -2
284
     1
 64
     0
275
    -2
285
     1
 65
     0
276
    -2
286
     1
 66
     0
277
    -2
287
     1
 67
     0
278
    -2
288
     1
 68
     0
279
    -2
289
     1
 69
     0
  7
Standard
140
0.18
170
     5
 62
     0
 63
     7
283
     0
 90
      512
 91
        0
  1

274
    -2
284
     1
 64
     0
275
    -2
285
     1
 65
     0
276
    -2
286
     1
 66
     0
277
    -2
287
     1
 67
     0
278
    -2
288
     1
 68
     0
279
    -2
289
     1
 69
     0
  0
VISUALSTYLE
  5
2F
102
{ACAD_REACTORS
330
29
102
}
330
29
100
AcDbVisualStyle
  2
2dWireframe
 70
     4
177
     3
291
     0
 70
    58
 90
        0
176
     1
 90
        2
176
     1
 90
        0
176
     1
 90
        0
176
     1
 40
0.6
176
     1
 40
30.0
176
     1
 62
     7
420
 16777215
176
     1
 90
        1
176
     1
 90
        4
176
     1
 62
     7
176
     1
 62
   257
176
     1
 90
        1
176
     1
 90
        1
176
     1
 40
1.0
176
     1
 90
        0
176
     1
 62
   257
176
     1
 40
1.0
176
     1
 90
        1
176
     1
 90
        6
176
     1
 90
        2
176
     1
 62
     7
176
     1
 90
        5
176
     1
 90
        0
176
     1
 90
        0
176
     1
290
     0
176
     1
 90
        1
176
     1
 40
0.0
176
     1
 90
        0
176
     1
290
     1
176
     1
290
     1
176
     1
290
     0
176
     1
290
     0
176
     1
290
     0
176
     1
290
     0
176
     1
290
     0
176
     1
290
     0
176
     1
290
     0
176
     1
 90
       50
176
     1
 40
0.0
176
     1
 40
1.0
176
     1
 90
        0
176
     1
 62
    18
420
        0
176
     1
 90
       50
176
     1
 90
        3
176
     1
 62
     5
420
      255
176
     1
290
     0
176
     1
 90
       50
176
     1
 90
       50
176
     1
 90
       50
176
     1
290
     0
176
     1
 90
       50
176
     1
 62
   256
176
     0
 40
1.0
176
     0
 90
        2
176
     1
  1
strokes_ogs.tif
176
     1
290
     0
176
     1
 40
1.0
176
     1
 40
1.0
176
     1
  0
VISUALSTYLE
  5
2E
102
{ACAD_REACTORS
330
29
102
}
330
29
100
AcDbVisualStyle
  2
Basic
 70
     7
177
     3
291
     1
 70
    58
 90
        1
176
     1
 90
        0
176
     1
 90
        1
176
     1
 90
        0
176
     1
 40
0.6
176
     1
 40
30.0
176
     1
 62
     7
420
 16777215
176
     1
 90
        0
176
     1
 90
        4
176
     1
 62
     7
176
     1
 62
   257
176
     1
 90
        1
176
     1
 90
        1
176
     1
 40
1.0
176
     1
 90
        8
176
     1
 62
     7
176
     1
 40
1.0
176
     1
 90
        1
176
     1
 90
        6
176
     1
 90
        2
176
     1
 62
     7
176
     1
 90
        5
176
     1
 90
        0
176
     1
 90
        0
176
     1
290
     0
176
     1
 90
        1
176
     1
 40
0.0
176
     1
 90
        0
176
     1
290
     0
176
     1
290
     1
176
     1
290
     1
176
     1
290
     0
176
     1
290
     0
176
     1
290
     0
176
     1
290
     0
176
     1
290
     0
176
     1
290
     0
176
     1
 90
       50
176
     1
 40
0.0
176
     1
 40
1.0
176
     1
 90
        0
176
     1
 62
    18
420
        0
176
     1
 90
       50
176
     1
 90
        3
176
     1
 62
     5
420
      255
176
     1
290
     0
176
     1
 90
       50
176
     1
 90
       50
176
     1
 90
       50
176
     1
290
     0
176
     1
 90
       50
176
     1
 62
   256
176
     0
 40
1.0
176
     0
 90
        2
176
     1
  1
strokes_ogs.tif
176
     1
290
     0
176
     1
 40
1.0
176
     1
 40
1.0
176
     1
  0
VISUALSTYLE
  5
35
102
{ACAD_REACTORS
330
29
102
}
330
29
100
AcDbVisualStyle
  2
Brighten
 70
    12
177
     3
291
     1
 70
    58
 90
        2
176
     1
 90
        2
176
     1
 90
        0
176
     1
 90
        0
176
     1
 40
0.6
176
     1
 40
30.0
176
     1
 62
     7
420
 16777215
176
     1
 90
        1
176
     1
 90
        4
176
     1
 62
     7
176
     1
 62
   257
176
     1
 90
        1
176
     1
 90
        1
176
     1
 40
1.0
176
     1
 90
        8
176
     1
 62
     7
176
     1
 40
1.0
176
     1
 90
        1
176
     1
 90
        6
176
     1
 90
        2
176
     1
 62
     7
176
     1
 90
        5
176
     1
 90
        0
176
     1
 90
        0
176
     1
290
     0
176
     1
 90
        1
176
     1
 40
50.0
176
     1
 90
        0
176
     1
290
     0
176
     1
290
     1
176
     1
290
     1
176
     1
290
     0
176
     1
290
     0
176
     1
290
     0
176
     1
290
     0
176
     1
290
     0
176
     1
290
     0
176
     1
 90
       50
176
     1
 40
0.0
176
     1
 40
1.0
176
     1
 90
        0
176
     1
 62
    18
420
        0
176
     1
 90
       50
176
     1
 90
        3
176
     1
 62
     5
420
      255
176
     1
290
     0
176
     1
 90
       50
176
     1
 90
       50
176
     1
 90
       50
176
     1
290
     0
176
     1
 90
       50
176
     1
 62
   256
176
     0
 40
1.0
176
     0
 90
        2
176
     1
  1
strokes_ogs.tif
176
     1
290
     0
176
     1
 40
1.0
176
     1
 40
1.0
176
     1
  0
VISUALSTYLE
  5
39
102
{ACAD_REACTORS
330
29
102
}
330
29
100
AcDbVisualStyle
  2
ColorChange
 70
    16
177
     3
291
     1
 70
    58
 90
        2
176
     1
 90
        2
176
     1
 90
        3
176
     1
 90
        0
176
     1
 40
0.6
176
     1
 40
30.0
176
     1
 62
     8
420
  8421504
176
     1
 90
        1
176
     1
 90
        4
176
     1
 62
     7
176
     1
 62
   257
176
     1
 90
        1
176
     1
 90
        1
176
     1
 40
1.0
176
     1
 90
        8
176
     1
 62
     8
420
  8421504
176
     1
 40
1.0
176
     1
 90
        1
176
     1
 90
        6
176
     1
 90
        2
176
     1
 62
     7
176
     1
 90
        5
176
     1
 90
        0
176
     1
 90
        0
176
     1
290
     0
176
     1
 90
        1
176
     1
 40
0.0
176
     1
 90
        0
176
     1
290
     0
176
     1
290
     1
176
     1
290
     1
176
     1
290
     0
176
     1
290
     0
176
     1
290
     0
176
     1
290
     0
176
     1
290
     0
176
     1
290
     0
176
     1
 90
       50
176
     1
 40
0.0
176
     1
 40
1.0
176
     1
 90
        0
176
     1
 62
    18
420
        0
176
     1
 90
       50
176
     1
 90
        3
176
     1
 62
     5
420
      255
176
     1
290
     0
176
     1
 90
       50
176
     1
 90
       50
176
     1
 90
       50
176
     1
290
     0
176
     1
 90
       50
176
     1
 62
   256
176
     0
 40
1.0
176
     0
 90
        2
176
     1
  1
strokes_ogs.tif
176
     1
290
     0
176
     1
 40
1.0
176
     1
 40
1.0
176
     1
  0
VISUALSTYLE
  5
32
102
{ACAD_REACTORS
330
29
102
}
330
29
100
AcDbVisualStyle
  2
Conceptual
 70
     9
177
     3
291
     0
 70
    58
 90
        3
176
     1
 90
        2
176
     1
 90
        0
176
     1
 90
        0
176
     1
 40
0.6
176
     1
 40
30.0
176
     1
 62
     7
420
 16777215
176
     1
 90
        2
176
     1
 90
        2
176
     1
 62
     7
176
     1
 62
   257
176
     1
 90
        1
176
     1
 90
        1
176
     1
 40
179.0
176
     1
 90
        8
176
     1
 62
     7
176
     1
 40
1.0
176
     1
 90
        1
176
     1
 90
        6
176
     1
 90
        2
176
     1
 62
     7
176
     1
 90
        3
176
     1
 90
        0
176
     1
 90
        0
176
     1
290
     0
176
     1
 90
        1
176
     1
 40
0.0
176
     1
 90
        0
176
     1
290
     0
176
     1
290
     1
176
     1
290
     1
176
     1
290
     0
176
     1
290
     0
176
     1
290
     0
176
     1
290
     0
176
     1
290
     0
176
     1
290
     0
176
     1
 90
       50
176
     1
 40
0.0
176
     1
 40
1.0
176
     1
 90
        0
176
     1
 62
    18
420
        0
176
     1
 90
       50
176
     1
 90
        3
176
     1
 62
     5
420
      255
176
     1
290
     0
176
     1
 90
       50
176
     1
 90
       50
176
     1
 90
       50
176
     1
290
     0
176
     1
 90
       50
176
     1
 62
   256
176
     0
 40
1.0
176
     0
 90
        2
176
     1
  1
strokes_ogs.tif
176
     1
290
     0
176
     1
 40
1.0
176
     1
 40
1.0
176
     1
  0
VISUALSTYLE
  5
34
102
{ACAD_REACTORS
330
29
102
}
330
29
100
AcDbVisualStyle
  2
Dim
 70
    11
177
     3
291
     1
 70
    58
 90
        2
176
     1
 90
        2
176
     1
 90
        0
176
     1
 90
        0
176
     1
 40
0.6
176
     1
 40
30.0
176
     1
 62
     7
420
 16777215
176
     1
 90
        1
176
     1
 90
        4
176
     1
 62
     7
176
     1
 62
   257
176
     1
 90
        1
176
     1
 90
        1
176
     1
 40
1.0
176
     1
 90
        8
176
     1
 62
     7
176
     1
 40
1.0
176
     1
 90
        1
176
     1
 90
        6
176
     1
 90
        2
176
     1
 62
     7
176
     1
 90
        5
176
     1
 90
        0
176
     1
 90
        0
176
     1
290
     0
176
     1
 90
        1
176
     1
 40
-50.0
176
     1
 90
        0
176
     1
290
     0
176
     1
290
     1
176
     1
290
     1
176
     1
290
     0
176
     1
290
     0
176
     1
290
     0
176
     1
290
     0
176
     1
290
     0
176
     1
290
     0
176
     1
 90
       50
176
     1
 40
0.0
176
     1
 40
1.0
176
     1
 90
        0
176
     1
 62
    18
420
        0
176
     1
 90
       50
176
     1
 90
        3
176
     1
 62
     5
420
      255
176
     1
290
     0
176
     1
 90
       50
176
     1
 90
       50
176
     1
 90
       50
176
     1
290
     0
176
     1
 90
       50
176
     1
 62
   256
176
     0
 40
1.0
176
     0
 90
        2
176
     1
  1
strokes_ogs.tif
176
     1
290
     0
176
     1
 40
1.0
176
     1
 40
1.0
176
     1
  0
VISUALSTYLE
  5
41
102
{ACAD_REACTORS
330
29
102
}
330
29
100
AcDbVisualStyle
  2
EdgeColorOff
 70
    22
177
     3
291
     1
 70
    58
 90
        2
176
     0
 90
        2
176
     0
 90
        0
176
     0
 90
        0
176
     0
 40
0.6
176
     0
 40
30.0
176
     0
 62
     7
420
 16777215
176
     0
 90
        1
176
     0
 90
        4
176
     0
 62
     7
176
     0
 62
   257
176
     0
 90
        1
176
     0
 90
        1
176
     0
 40
1.0
176
     0
 90
        8
176
     2
 62
     7
176
     0
 40
1.0
176
     0
 90
        1
176
     0
 90
        6
176
     0
 90
        2
176
     0
 62
     7
176
     0
 90
        5
176
     0
 90
        0
176
     0
 90
        0
176
     0
290
     0
176
     0
 90
        1
176
     0
 40
0.0
176
     0
 90
        0
176
     0
290
     0
176
     0
290
     1
176
     0
290
     1
176
     0
290
     0
176
     0
290
     0
176
     0
290
     0
176
     0
290
     0
176
     0
290
     0
176
     0
290
     0
176
     0
 90
       50
176
     0
 40
0.0
176
     0
 40
1.0
176
     0
 90
        0
176
     0
 62
    18
420
        0
176
     0
 90
       50
176
     0
 90
        3
176
     0
 62
     5
420
      255
176
     0
290
     0
176
     0
 90
       50
176
     0
 90
       50
176
     0
 90
       50
176
     0
290
     0
176
     0
 90
       50
176
     0
 62
   256
176
     0
 40
1.0
176
     0
 90
        2
176
     0
  1
strokes_ogs.tif
176
     0
290
     0
176
     0
 40
1.0
176
     0
 40
1.0
176
     0
  0
VISUALSTYLE
  5
38
102
{ACAD_REACTORS
330
29
102
}
330
29
100
AcDbVisualStyle
  2
Facepattern
 70
    15
177
     3
291
     1
 70
    58
 90
        2
176
     1
 90
        2
176
     1
 90
        0
176
     1
 90
        0
176
     1
 40
0.6
176
     1
 40
30.0
176
     1
 62
     7
420
 16777215
176
     1
 90
        1
176
     1
 90
        4
176
     1
 62
     7
176
     1
 62
   257
176
     1
 90
        1
176
     1
 90
        1
176
     1
 40
1.0
176
     1
 90
        8
176
     1
 62
     7
176
     1
 40
1.0
176
     1
 90
        1
176
     1
 90
        6
176
     1
 90
        2
176
     1
 62
     7
176
     1
 90
        5
176
     1
 90
        0
176
     1
 90
        0
176
     1
290
     0
176
     1
 90
        1
176
     1
 40
0.0
176
     1
 90
        0
176
     1
290
     0
176
     1
290
     1
176
     1
290
     1
176
     1
290
     0
176
     1
290
     0
176
     1
290
     0
176
     1
290
     0
176
     1
290
     0
176
     1
290
     0
176
     1
 90
       50
176
     1
 40
0.0
176
     1
 40
1.0
176
     1
 90
        0
176
     1
 62
    18
420
        0
176
     1
 90
       50
176
     1
 90
        3
176
     1
 62
     5
420
      255
176
     1
290
     0
176
     1
 90
       50
176
     1
 90
       50
176
     1
 90
       50
176
     1
290
     0
176
     1
 90
       50
176
     1
 62
   256
176
     0
 40
1.0
176
     0
 90
        2
176
     1
  1
strokes_ogs.tif
176
     1
290
     0
176
     1
 40
1.0
176
     1
 40
1.0
176
     1
  0
VISUALSTYLE
  5
2A
102
{ACAD_REACTORS
330
29
102
}
330
29
100
AcDbVisualStyle
  2
Flat
 70
     0
177
     3
291
     1
 70
    58
 90
        2
176
     1
 90
        1
176
     1
 90
        1
176
     1
 90
        2
176
     1
 40
0.6
176
     1
 40
30.0
176
     1
 62
     7
420
 16777215
176
     1
 90
        0
176
     1
 90
        0
176
     1
 62
     7
176
     1
 62
   257
176
     1
 90
        1
176
     1
 90
        1
176
     1
 40
1.0
176
     1
 90
        8
176
     1
 62
     7
176
     1
 40
1.0
176
     1
 90
        1
176
     1
 90
        6
176
     1
 90
        2
176
     1
 62
     7
176
     1
 90
        5
176
     1
 90
        0
176
     1
 90
        0
176
     1
290
     0
176
     1
 90
       13
176
     1
 40
0.0
176
     1
 90
        0
176
     1
290
     0
176
     1
290
     1
176
     1
290
     1
176
     1
290
     0
176
     1
290
     0
176
     1
290
     0
176
     1
290
     0
176
     1
290
     0
176
     1
290
     0
176
     1
 90
       50
176
     1
 40
0.0
176
     1
 40
1.0
176
     1
 90
        0
176
     1
 62
    18
420
        0
176
     1
 90
       50
176
     1
 90
        3
176
     1
 62
     5
420
      255
176
     1
290
     0
176
     1
 90
       50
176
     1
 90
       50
176
     1
 90
       50
176
     1
290
     0
176
     1
 90
       50
176
     1
 62
   256
176
     0
 40
1.0
176
     0
 90
        2
176
     1
  1
strokes_ogs.tif
176
     1
290
     0
176
     1
 40
1.0
176
     1
 40
1.0
176
     1
  0
VISUALSTYLE
  5
2B
102
{ACAD_REACTORS
330
29
102
}
330
29
100
AcDbVisualStyle
  2
FlatWithEdges
 70
     1
177
     3
291
     1
 70
    58
 90
        2
176
     1
 90
        1
176
     1
 90
        1
176
     1
 90
        2
176
     1
 40
0.6
176
     1
 40
30.0
176
     1
 62
     7
420
 16777215
176
     1
 90
        1
176
     1
 90
        0
176
     1
 62
     7
176
     1
 62
   257
176
     1
 90
        1
176
     1
 90
        1
176
     1
 40
1.0
176
     1
 90
        0
176
     1
 62
   257
176
     1
 40
1.0
176
     1
 90
        1
176
     1
 90
        6
176
     1
 90
        2
176
     1
 62
     7
176
     1
 90
        5
176
     1
 90
        0
176
     1
 90
        0
176
     1
290
     0
176
     1
 90
       13
176
     1
 40
0.0
176
     1
 90
        0
176
     1
290
     0
176
     1
290
     1
176
     1
290
     1
176
     1
290
     0
176
     1
290
     0
176
     1
290
     0
176
     1
290
     0
176
     1
290
     0
176
     1
290
     0
176
     1
 90
       50
176
     1
 40
0.0
176
     1
 40
1.0
176
     1
 90
        0
176
     1
 62
    18
420
        0
176
     1
 90
       50
176
     1
 90
        3
176
     1
 62
     5
420
      255
176
     1
290
     0
176
     1
 90
       50
176
     1
 90
       50
176
     1
 90
       50
176
     1
290
     0
176
     1
 90
       50
176
     1
 62
   256
176
     0
 40
1.0
176
     0
 90
        2
176
     1
  1
strokes_ogs.tif
176
     1
290
     0
176
     1
 40
1.0
176
     1
 40
1.0
176
     1
  0
VISUALSTYLE
  5
2C
102
{ACAD_REACTORS
330
29
102
}
330
29
100
AcDbVisualStyle
  2
Gouraud
 70
     2
177
     3
291
     1
 70
    58
 90
        2
176
     1
 90
        2
176
     1
 90
        1
176
     1
 90
        2
176
     1
 40
0.6
176
     1
 40
30.0
176
     1
 62
     7
420
 16777215
176
     1
 90
        0
176
     1
 90
        0
176
     1
 62
     7
176
     1
 62
   257
176
     1
 90
        1
176
     1
 90
        1
176
     1
 40
1.0
176
     1
 90
        0
176
     1
 62
     7
176
     1
 40
1.0
176
     1
 90
        1
176
     1
 90
        6
176
     1
 90
        2
176
     1
 62
     7
176
     1
 90
        5
176
     1
 90
        0
176
     1
 90
        0
176
     1
290
     0
176
     1
 90
       13
176
     1
 40
0.0
176
     1
 90
        0
176
     1
290
     0
176
     1
290
     1
176
     1
290
     1
176
     1
290
     0
176
     1
290
     0
176
     1
290
     0
176
     1
290
     0
176
     1
290
     0
176
     1
290
     0
176
     1
 90
       50
176
     1
 40
0.0
176
     1
 40
1.0
176
     1
 90
        0
176
     1
 62
    18
420
        0
176
     1
 90
       50
176
     1
 90
        3
176
     1
 62
     5
420
      255
176
     1
290
     0
176
     1
 90
       50
176
     1
 90
       50
176
     1
 90
       50
176
     1
290
     0
176
     1
 90
       50
176
     1
 62
   256
176
     0
 40
1.0
176
     0
 90
        2
176
     1
  1
strokes_ogs.tif
176
     1
290
     0
176
     1
 40
1.0
176
     1
 40
1.0
176
     1
  0
VISUALSTYLE
  5
2D
102
{ACAD_REACTORS
330
29
102
}
330
29
100
AcDbVisualStyle
  2
GouraudWithEdges
 70
     3
177
     3
291
     1
 70
    58
 90
        2
176
     1
 90
        2
176
     1
 90
        1
176
     1
 90
        2
176
     1
 40
0.6
176
     1
 40
30.0
176
     1
 62
     7
420
 16777215
176
     1
 90
        1
176
     1
 90
        0
176
     1
 62
     7
176
     1
 62
   257
176
     1
 90
        1
176
     1
 90
        1
176
     1
 40
1.0
176
     1
 90
        0
176
     1
 62
   257
176
     1
 40
1.0
176
     1
 90
        1
176
     1
 90
        6
176
     1
 90
        2
176
     1
 62
     7
176
     1
 90
        5
176
     1
 90
        0
176
     1
 90
        0
176
     1
290
     0
176
     1
 90
       13
176
     1
 40
0.0
176
     1
 90
        0
176
     1
290
     0
176
     1
290
     1
176
     1
290
     1
176
     1
290
     0
176
     1
290
     0
176
     1
290
     0
176
     1
290
     0
176
     1
290
     0
176
     1
290
     0
176
     1
 90
       50
176
     1
 40
0.0
176
     1
 40
1.0
176
     1
 90
        0
176
     1
 62
    18
420
        0
176
     1
 90
       50
176
     1
 90
        3
176
     1
 62
     5
420
      255
176
     1
290
     0
176
     1
 90
       50
176
     1
 90
       50
176
     1
 90
       50
176
     1
290
     0
176
     1
 90
       50
176
     1
 62
   256
176
     0
 40
1.0
176
     0
 90
        2
176
     1
  1
strokes_ogs.tif
176
     1
290
     0
176
     1
 40
1.0
176
     1
 40
1.0
176
     1
  0
VISUALSTYLE
  5
31
102
{ACAD_REACTORS
330
29
102
}
330
29
100
AcDbVisualStyle
  2
Hidden
 70
     6
177
     3
291
     0
 70
    58
 90
        1
176
     1
 90
        2
176
     1
 90
        2
176
     1
 90
        0
176
     1
 40
0.6
176
     1
 40
30.0
176
     1
 62
     7
420
 16777215
176
     1
 90
        2
176
     1
 90
        2
176
     1
 62
     7
176
     1
 62
   257
176
     1
 90
        2
176
     1
 90
        1
176
     1
 40
40.0
176
     1
 90
        0
176
     1
 62
   257
176
     1
 40
1.0
176
     1
 90
        1
176
     1
 90
        6
176
     1
 90
        2
176
     1
 62
     7
176
     1
 90
        3
176
     1
 90
        0
176
     1
 90
        0
176
     1
290
     0
176
     1
 90
        1
176
     1
 40
0.0
176
     1
 90
        0
176
     1
290
     0
176
     1
290
     1
176
     1
290
     1
176
     1
290
     0
176
     1
290
     0
176
     1
290
     0
176
     1
290
     0
176
     1
290
     0
176
     1
290
     0
176
     1
 90
       50
176
     1
 40
0.0
176
     1
 40
1.0
176
     1
 90
        0
176
     1
 62
    18
420
        0
176
     1
 90
       50
176
     1
 90
        3
176
     1
 62
     5
420
      255
176
     1
290
     0
176
     1
 90
       50
176
     1
 90
       50
176
     1
 90
       50
176
     1
290
     0
176
     1
 90
       50
176
     1
 62
   256
176
     0
 40
1.0
176
     0
 90
        2
176
     1
  1
strokes_ogs.tif
176
     1
290
     0
176
     1
 40
1.0
176
     1
 40
1.0
176
     1
  0
VISUALSTYLE
  5
3F
102
{ACAD_REACTORS
330
29
102
}
330
29
100
AcDbVisualStyle
  2
JitterOff
 70
    20
177
     3
291
     1
 70
    58
 90
        2
176
     0
 90
        2
176
     0
 90
        0
176
     0
 90
        0
176
     0
 40
0.6
176
     0
 40
30.0
176
     0
 62
     7
420
 16777215
176
     0
 90
        1
176
     0
 90
        4
176
     0
 62
     7
176
     0
 62
   257
176
     0
 90
        1
176
     0
 90
        1
176
     0
 40
1.0
176
     0
 90
       10
176
     2
 62
     7
176
     0
 40
1.0
176
     0
 90
        1
176
     0
 90
        6
176
     0
 90
        2
176
     0
 62
     7
176
     0
 90
        5
176
     0
 90
        0
176
     0
 90
        0
176
     0
290
     0
176
     0
 90
        1
176
     0
 40
0.0
176
     0
 90
        0
176
     0
290
     0
176
     0
290
     1
176
     0
290
     1
176
     0
290
     0
176
     0
290
     0
176
     0
290
     0
176
     0
290
     0
176
     0
290
     0
176
     0
290
     0
176
     0
 90
       50
176
     0
 40
0.0
176
     0
 40
1.0
176
     0
 90
        0
176
     0
 62
    18
420
        0
176
     0
 90
       50
176
     0
 90
        3
176
     0
 62
     5
420
      255
176
     0
290
     0
176
     0
 90
       50
176
     0
 90
       50
176
     0
 90
       50
176
     0
290
     0
176
     0
 90
       50
176
     0
 62
   256
176
     0
 40
1.0
176
     0
 90
        2
176
     0
  1
strokes_ogs.tif
176
     0
290
     0
176
     0
 40
1.0
176
     0
 40
1.0
176
     0
  0
VISUALSTYLE
  5
37
102
{ACAD_REACTORS
330
29
102
}
330
29
100
AcDbVisualStyle
  2
Linepattern
 70
    14
177
     3
291
     1
 70
    58
 90
        2
176
     1
 90
        2
176
     1
 90
        0
176
     1
 90
        0
176
     1
 40
0.6
176
     1
 40
30.0
176
     1
 62
     7
420
 16777215
176
     1
 90
        1
176
     1
 90
        4
176
     1
 62
     7
176
     1
 62
   257
176
     1
 90
        7
176
     1
 90
        7
176
     1
 40
1.0
176
     1
 90
        8
176
     1
 62
     7
176
     1
 40
1.0
176
     1
 90
        1
176
     1
 90
        6
176
     1
 90
        2
176
     1
 62
     7
176
     1
 90
        5
176
     1
 90
        0
176
     1
 90
        0
176
     1
290
     0
176
     1
 90
        1
176
     1
 40
0.0
176
     1
 90
        0
176
     1
290
     0
176
     1
290
     1
176
     1
290
     1
176
     1
290
     0
176
     1
290
     0
176
     1
290
     0
176
     1
290
     0
176
     1
290
     0
176
     1
290
     0
176
     1
 90
       50
176
     1
 40
0.0
176
     1
 40
1.0
176
     1
 90
        0
176
     1
 62
    18
420
        0
176
     1
 90
       50
176
     1
 90
        3
176
     1
 62
     5
420
      255
176
     1
290
     0
176
     1
 90
       50
176
     1
 90
       50
176
     1
 90
       50
176
     1
290
     0
176
     1
 90
       50
176
     1
 62
   256
176
     0
 40
1.0
176
     0
 90
        2
176
     1
  1
strokes_ogs.tif
176
     1
290
     0
176
     1
 40
1.0
176
     1
 40
1.0
176
     1
  0
VISUALSTYLE
  5
40
102
{ACAD_REACTORS
330
29
102
}
330
29
100
AcDbVisualStyle
  2
OverhangOff
 70
    21
177
     3
291
     1
 70
    58
 90
        2
176
     0
 90
        2
176
     0
 90
        0
176
     0
 90
        0
176
     0
 40
0.6
176
     0
 40
30.0
176
     0
 62
     7
420
 16777215
176
     0
 90
        1
176
     0
 90
        4
176
     0
 62
     7
176
     0
 62
   257
176
     0
 90
        1
176
     0
 90
        1
176
     0
 40
1.0
176
     0
 90
        9
176
     2
 62
     7
176
     0
 40
1.0
176
     0
 90
        1
176
     0
 90
        6
176
     0
 90
        2
176
     0
 62
     7
176
     0
 90
        5
176
     0
 90
        0
176
     0
 90
        0
176
     0
290
     0
176
     0
 90
        1
176
     0
 40
0.0
176
     0
 90
        0
176
     0
290
     0
176
     0
290
     1
176
     0
290
     1
176
     0
290
     0
176
     0
290
     0
176
     0
290
     0
176
     0
290
     0
176
     0
290
     0
176
     0
290
     0
176
     0
 90
       50
176
     0
 40
0.0
176
     0
 40
1.0
176
     0
 90
        0
176
     0
 62
    18
420
        0
176
     0
 90
       50
176
     0
 90
        3
176
     0
 62
     5
420
      255
176
     0
290
     0
176
     0
 90
       50
176
     0
 90
       50
176
     0
 90
       50
176
     0
290
     0
176
     0
 90
       50
176
     0
 62
   256
176
     0
 40
1.0
176
     0
 90
        2
176
     0
  1
strokes_ogs.tif
176
     0
290
     0
176
     0
 40
1.0
176
     0
 40
1.0
176
     0
  0
VISUALSTYLE
  5
33
102
{ACAD_REACTORS
330
29
102
}
330
29
100
AcDbVisualStyle
  2
Realistic
 70
     8
177
     3
291
     0
 70
    58
 90
        2
176
     1
 90
        3
176
     1
 90
        0
176
     1
 90
        2
176
     1
 40
0.6
176
     1
 40
30.0
176
     1
 62
     7
420
 16777215
176
     1
 90
        0
176
     1
 90
        0
176
     1
 62
     7
176
     1
 62
   257
176
     1
 90
        1
176
     1
 90
        1
176
     1
 40
1.0
176
     1
 90
        8
176
     1
 62
   257
176
     1
 40
1.0
176
     1
 90
        1
176
     1
 90
        6
176
     1
 90
        2
176
     1
 62
     7
176
     1
 90
        3
176
     1
 90
        0
176
     1
 90
        0
176
     1
290
     0
176
     1
 90
       13
176
     1
 40
0.0
176
     1
 90
        0
176
     1
290
     0
176
     1
290
     1
176
     1
290
     1
176
     1
290
     0
176
     1
290
     0
176
     1
290
     0
176
     1
290
     0
176
     1
290
     0
176
     1
290
     0
176
     1
 90
       50
176
     1
 40
0.0
176
     1
 40
1.0
176
     1
 90
        0
176
     1
 62
    18
420
        0
176
     1
 90
       50
176
     1
 90
        3
176
     1
 62
     5
420
      255
176
     1
290
     0
176
     1
 90
       50
176
     1
 90
       50
176
     1
 90
       50
176
     1
290
     0
176
     1
 90
       50
176
     1
 62
   256
176
     0
 40
1.0
176
     0
 90
        2
176
     1
  1
strokes_ogs.tif
176
     1
290
     0
176
     1
 40
1.0
176
     1
 40
1.0
176
     1
  0
VISUALSTYLE
  5
3E
102
{ACAD_REACTORS
330
29
102
}
330
29
100
AcDbVisualStyle
  2
Shaded
 70
    27
177
     3
291
     0
 70
    58
 90
        2
176
     1
 90
        2
176
     1
 90
        1
176
     1
 90
        2
176
     1
 40
0.6
176
     1
 40
30.0
176
     1
 62
     7
420
 16777215
176
     1
 90
        0
176
     1
 90
        4
176
     1
 62
     7
176
     1
 62
   257
176
     1
 90
        1
176
     1
 90
        1
176
     1
 40
1.0
176
     1
 90
        8
176
     1
 62
   257
176
     1
 40
1.0
176
     1
 90
        1
176
     1
 90
        6
176
     1
 90
        2
176
     1
 62
     8
420
  7895160
176
     1
 90
        3
176
     1
 90
        0
176
     1
 90
        0
176
     1
290
     0
176
     1
 90
        5
176
     1
 40
0.0
176
     1
 90
        0
176
     1
290
     0
176
     1
290
     1
176
     1
290
     1
176
     1
290
     0
176
     1
290
     0
176
     1
290
     0
176
     1
290
     0
176
     1
290
     0
176
     1
290
     0
176
     1
 90
       50
176
     1
 40
0.0
176
     1
 40
1.0
176
     1
 90
        0
176
     1
 62
    18
420
        0
176
     1
 90
       50
176
     1
 90
        3
176
     1
 62
     5
420
      255
176
     1
290
     0
176
     1
 90
       50
176
     1
 90
       50
176
     1
 90
       50
176
     1
290
     0
176
     1
 90
       50
176
     1
 62
   256
176
     0
 40
1.0
176
     0
 90
        2
176
     1
  1
strokes_ogs.tif
176
     1
290
     0
176
     1
 40
1.0
176
     1
 40
1.0
176
     1
  0
VISUALSTYLE
  5
3D
102
{ACAD_REACTORS
330
29
102
}
330
29
100
AcDbVisualStyle
  2
Shaded with edges
 70
    26
177
     3
291
     0
 70
    58
 90
        2
176
     1
 90
        2
176
     1
 90
        1
176
     1
 90
        2
176
     1
 40
0.6
176
     1
 40
30.0
176
     1
 62
     7
420
 16777215
176
     1
 90
        1
176
     1
 90
       10
176
     1
 62
     7
176
     1
 62
   257
176
     1
 90
        2
176
     1
 90
        1
176
     1
 40
1.0
176
     1
 90
        8
176
     1
 62
   257
176
     1
 40
1.0
176
     1
 90
        1
176
     1
 90
        6
176
     1
 90
        2
176
     1
 62
     7
176
     1
 90
        3
176
     1
 90
        0
176
     1
 90
        0
176
     1
290
     0
176
     1
 90
        5
176
     1
 40
0.0
176
     1
 90
        0
176
     1
290
     0
176
     1
290
     1
176
     1
290
     1
176
     1
290
     0
176
     1
290
     0
176
     1
290
     0
176
     1
290
     0
176
     1
290
     0
176
     1
290
     0
176
     1
 90
       50
176
     1
 40
0.0
176
     1
 40
1.0
176
     1
 90
        0
176
     1
 62
    18
420
        0
176
     1
 90
       50
176
     1
 90
        3
176
     1
 62
     5
420
      255
176
     1
290
     0
176
     1
 90
       50
176
     1
 90
       50
176
     1
 90
       50
176
     1
290
     0
176
     1
 90
       50
176
     1
 62
   256
176
     0
 40
1.0
176
     0
 90
        2
176
     1
  1
strokes_ogs.tif
176
     1
290
     0
176
     1
 40
1.0
176
     1
 40
1.0
176
     1
  0
VISUALSTYLE
  5
3A
102
{ACAD_REACTORS
330
29
102
}
330
29
100
AcDbVisualStyle
  2
Shades of Gray
 70
    23
177
     3
291
     0
 70
    58
 90
        2
176
     1
 90
        2
176
     1
 90
        3
176
     1
 90
        0
176
     1
 40
0.6
176
     1
 40
30.0
176
     1
 62
     7
420
 16777215
176
     1
 90
        2
176
     1
 90
        2
176
     1
 62
     7
176
     1
 62
     7
176
     1
 90
        1
176
     1
 90
        1
176
     1
 40
40.0
176
     1
 90
        8
176
     1
 62
     7
176
     1
 40
1.0
176
     1
 90
        1
176
     1
 90
        6
176
     1
 90
        2
176
     1
 62
     7
176
     1
 90
        3
176
     1
 90
        0
176
     1
 90
        0
176
     1
290
     0
176
     1
 90
        1
176
     1
 40
0.0
176
     1
 90
        0
176
     1
290
     0
176
     1
290
     1
176
     1
290
     1
176
     1
290
     0
176
     1
290
     0
176
     1
290
     0
176
     1
290
     0
176
     1
290
     0
176
     1
290
     0
176
     1
 90
       50
176
     1
 40
0.0
176
     1
 40
1.0
176
     1
 90
        0
176
     1
 62
    18
420
        0
176
     1
 90
       50
176
     1
 90
        3
176
     1
 62
     5
420
      255
176
     1
290
     0
176
     1
 90
       50
176
     1
 90
       50
176
     1
 90
       50
176
     1
290
     0
176
     1
 90
       50
176
     1
 62
   256
176
     0
 40
1.0
176
     0
 90
        2
176
     1
  1
strokes_ogs.tif
176
     1
290
     0
176
     1
 40
1.0
176
     1
 40
1.0
176
     1
  0
VISUALSTYLE
  5
3B
102
{ACAD_REACTORS
330
29
102
}
330
29
100
AcDbVisualStyle
  2
Sketchy
 70
    24
177
     3
291
     0
 70
    58
 90
        1
176
     1
 90
        2
176
     1
 90
        2
176
     1
 90
        0
176
     1
 40
0.6
176
     1
 40
30.0
176
     1
 62
     7
420
 16777215
176
     1
 90
        2
176
     1
 90
        2
176
     1
 62
     7
176
     1
 62
     7
176
     1
 90
        1
176
     1
 90
        1
176
     1
 40
40.0
176
     1
 90
       11
176
     1
 62
     7
176
     1
 40
1.0
176
     1
 90
        1
176
     1
 90
        6
176
     1
 90
        2
176
     1
 62
     7
176
     1
 90
        6
176
     1
 90
        0
176
     1
 90
        0
176
     1
290
     0
176
     1
 90
        1
176
     1
 40
0.0
176
     1
 90
        0
176
     1
290
     0
176
     1
290
     1
176
     1
290
     1
176
     1
290
     0
176
     1
290
     0
176
     1
290
     0
176
     1
290
     0
176
     1
290
     0
176
     1
290
     0
176
     1
 90
       50
176
     1
 40
0.0
176
     1
 40
1.0
176
     1
 90
        0
176
     1
 62
    18
420
        0
176
     1
 90
       50
176
     1
 90
        3
176
     1
 62
     5
420
      255
176
     1
290
     0
176
     1
 90
       50
176
     1
 90
       50
176
     1
 90
       50
176
     1
290
     0
176
     1
 90
       50
176
     1
 62
   256
176
     0
 40
1.0
176
     0
 90
        2
176
     1
  1
strokes_ogs.tif
176
     1
290
     0
176
     1
 40
1.0
176
     1
 40
1.0
176
     1
  0
VISUALSTYLE
  5
36
102
{ACAD_REACTORS
330
29
102
}
330
29
100
AcDbVisualStyle
  2
Thicken
 70
    13
177
     3
291
     1
 70
    58
 90
        2
176
     1
 90
        2
176
     1
 90
        0
176
     1
 90
        0
176
     1
 40
0.6
176
     1
 40
30.0
176
     1
 62
     7
420
 16777215
176
     1
 90
        1
176
     1
 90
        4
176
     1
 62
     7
176
     1
 62
   257
176
     1
 90
        1
176
     1
 90
        1
176
     1
 40
1.0
176
     1
 90
       12
176
     1
 62
     7
176
     1
 40
1.0
176
     1
 90
        1
176
     1
 90
        6
176
     1
 90
        2
176
     1
 62
     7
176
     1
 90
        5
176
     1
 90
        0
176
     1
 90
        0
176
     1
290
     0
176
     1
 90
        1
176
     1
 40
0.0
176
     1
 90
        0
176
     1
290
     0
176
     1
290
     1
176
     1
290
     1
176
     1
290
     0
176
     1
290
     0
176
     1
290
     0
176
     1
290
     0
176
     1
290
     0
176
     1
290
     0
176
     1
 90
       50
176
     1
 40
0.0
176
     1
 40
1.0
176
     1
 90
        0
176
     1
 62
    18
420
        0
176
     1
 90
       50
176
     1
 90
        3
176
     1
 62
     5
420
      255
176
     1
290
     0
176
     1
 90
       50
176
     1
 90
       50
176
     1
 90
       50
176
     1
290
     0
176
     1
 90
       50
176
     1
 62
   256
176
     0
 40
1.0
176
     0
 90
        2
176
     1
  1
strokes_ogs.tif
176
     1
290
     0
176
     1
 40
1.0
176
     1
 40
1.0
176
     1
  0
VISUALSTYLE
  5
30
102
{ACAD_REACTORS
330
29
102
}
330
29
100
AcDbVisualStyle
  2
Wireframe
 70
     5
177
     3
291
     0
 70
    58
 90
        0
176
     1
 90
        2
176
     1
 90
        0
176
     1
 90
        0
176
     1
 40
0.6
176
     1
 40
30.0
176
     1
 62
     7
420
 16777215
176
     1
 90
        1
176
     1
 90
        4
176
     1
 62
     7
176
     1
 62
   257
176
     1
 90
        1
176
     1
 90
        1
176
     1
 40
1.0
176
     1
 90
        0
176
     1
 62
   257
176
     1
 40
1.0
176
     1
 90
        1
176
     1
 90
        6
176
     1
 90
        2
176
     1
 62
     7
176
     1
 90
        3
176
     1
 90
        0
176
     1
 90
        0
176
     1
290
     0
176
     1
 90
        1
176
     1
 40
0.0
176
     1
 90
        0
176
     1
290
     0
176
     1
290
     1
176
     1
290
     1
176
     1
290
     0
176
     1
290
     0
176
     1
290
     0
176
     1
290
     0
176
     1
290
     0
176
     1
290
     0
176
     1
 90
       50
176
     1
 40
0.0
176
     1
 40
1.0
176
     1
 90
        0
176
     1
 62
    18
420
        0
176
     1
 90
       50
176
     1
 90
        3
176
     1
 62
     5
420
      255
176
     1
290
     0
176
     1
 90
       50
176
     1
 90
       50
176
     1
 90
       50
176
     1
290
     0
176
     1
 90
       50
176
     1
 62
   256
176
     0
 40
1.0
176
     0
 90
        2
176
     1
  1
strokes_ogs.tif
176
     1
290
     0
176
     1
 40
1.0
176
     1
 40
1.0
176
     1
  0
VISUALSTYLE
  5
3C
102
{ACAD_REACTORS
330
29
102
}
330
29
100
AcDbVisualStyle
  2
X-Ray
 70
    25
177
     3
291
     0
 70
    58
 90
        2
176
     1
 90
        2
176
     1
 90
        1
176
     1
 90
        1
176
     1
 40
0.5
176
     1
 40
30.0
176
     1
 62
     7
420
 16777215
176
     1
 90
        1
176
     1
 90
        0
176
     1
 62
     7
176
     1
 62
   257
176
     1
 90
        1
176
     1
 90
        1
176
     1
 40
1.0
176
     1
 90
        8
176
     1
 62
     7
176
     1
 40
1.0
176
     1
 90
        1
176
     1
 90
        6
176
     1
 90
        2
176
     1
 62
     7
176
     1
 90
        3
176
     1
 90
        0
176
     1
 90
        0
176
     1
290
     0
176
     1
 90
       13
176
     1
 40
0.0
176
     1
 90
        0
176
     1
290
     0
176
     1
290
     1
176
     1
290
     1
176
     1
290
     0
176
     1
290
     0
176
     1
290
     0
176
     1
290
     0
176
     1
290
     0
176
     1
290
     0
176
     1
 90
       50
176
     1
 40
0.0
176
     1
 40
1.0
176
     1
 90
        0
176
     1
 62
    18
420
        0
176
     1
 90
       50
176
     1
 90
        3
176
     1
 62
     5
420
      255
176
     1
290
     0
176
     1
 90
       50
176
     1
 90
       50
176
     1
 90
       50
176
     1
290
     0
176
     1
 90
       50
176
     1
 62
   256
176
     0
 40
1.0
176
     0
 90
        2
176
     1
  1
strokes_ogs.tif
176
     1
290
     0
176
     1
 40
1.0
176
     1
 40
1.0
176
     1
  0
DICTIONARYVAR
  5
81
102
{ACAD_REACTORS
330
7C
102
}
330
7C
100
DictionaryVariables
280
     0
  1
1:1
  0
DICTIONARYVAR
  5
7E
102
{ACAD_REACTORS
330
7C
102
}
330
7C
100
DictionaryVariables
280
     0
  1
STANDARD
  0
DICTIONARYVAR
  5
7D
102
{ACAD_REACTORS
330
7C
102
}
330
7C
100
DictionaryVariables
280
     0
  1
STANDARD
  0
DICTIONARYVAR
  5
7F
102
{ACAD_REACTORS
330
7C
102
}
330
7C
100
DictionaryVariables
280
     0
  1
Imperial24
  0
DICTIONARYVAR
  5
80
102
{ACAD_REACTORS
330
7C
102
}
330
7C
100
DictionaryVariables
280
     0
  1
Imperial24
  0
XRECORD
  5
2D5
102
{ACAD_REACTORS
330
2D1
102
}
330
2D1
100
AcDbXrecord
280
     1
  1
BUILDING_ID
  1
Progetto per messa in tavola DXF, DWG
  1
FLOOR_ID
  1
694395
  0
XRECORD
  5
2D3
102
{ACAD_REACTORS
330
2D1
102
}
330
2D1
100
AcDbXrecord
280
     1
  1
-2001160
  1
Apparecchi idraulici
  0
XRECORD
  5
2D4
102
{ACAD_REACTORS
330
2D1
102
}
330
2D1
100
AcDbXrecord
280
     1
  1
790271
  1
Body
  0
XRECORD
  5
2D2
102
{ACAD_REACTORS
330
2D1
102
}
330
2D1
100
AcDbXrecord
280
     1
  1
980146
  1
Automatic flow rate regulator valve_Caleffi_121 DN15 : 2''_Pressure gauge H
  0
DICTIONARY
  5
1A
330
19
100
AcDbDictionary
280
     1
281
     1
  3
BUMPTILE
360
1C
  3
DIFFUSETILE
360
1B
  3
OPACITYTILE
360
1F
  3
REFLECTIONTILE
360
1E
  3
REFRACTIONTILE
360
20
  3
SPECULARTILE
360
1D
  0
DICTIONARY
  5
12
330
11
100
AcDbDictionary
280
     1
281
     1
  3
BUMPTILE
360
14
  3
DIFFUSETILE
360
13
  3
OPACITYTILE
360
17
  3
REFLECTIONTILE
360
16
  3
REFRACTIONTILE
360
18
  3
SPECULARTILE
360
15
  0
DICTIONARY
  5
22
330
21
100
AcDbDictionary
280
     1
281
     1
  3
BUMPTILE
360
24
  3
DIFFUSETILE
360
23
  3
OPACITYTILE
360
27
  3
REFLECTIONTILE
360
26
  3
REFRACTIONTILE
360
28
  3
SPECULARTILE
360
25
  0
DICTIONARY
  5
2D8
330
65
100
AcDbDictionary
280
     1
281
     1
  3
ACAD_ROUNDTRIP_2008_TABLESTYLE_CELLSTYLEMAP
360
2D9
  0
XRECORD
  5
1C
102
{ACAD_REACTORS
330
1A
102
}
330
1A
100
AcDbXrecord
280
     1
270
     1
271
     1
  0
XRECORD
  5
1B
102
{ACAD_REACTORS
330
1A
102
}
330
1A
100
AcDbXrecord
280
     1
270
     1
271
     1
  0
XRECORD
  5
1F
102
{ACAD_REACTORS
330
1A
102
}
330
1A
100
AcDbXrecord
280
     1
270
     1
271
     1
  0
XRECORD
  5
1E
102
{ACAD_REACTORS
330
1A
102
}
330
1A
100
AcDbXrecord
280
     1
270
     1
271
     1
  0
XRECORD
  5
20
102
{ACAD_REACTORS
330
1A
102
}
330
1A
100
AcDbXrecord
280
     1
270
     1
271
     1
  0
XRECORD
  5
1D
102
{ACAD_REACTORS
330
1A
102
}
330
1A
100
AcDbXrecord
280
     1
270
     1
271
     1
  0
XRECORD
  5
14
102
{ACAD_REACTORS
330
12
102
}
330
12
100
AcDbXrecord
280
     1
270
     1
271
     1
  0
XRECORD
  5
13
102
{ACAD_REACTORS
330
12
102
}
330
12
100
AcDbXrecord
280
     1
270
     1
271
     1
  0
XRECORD
  5
17
102
{ACAD_REACTORS
330
12
102
}
330
12
100
AcDbXrecord
280
     1
270
     1
271
     1
  0
XRECORD
  5
16
102
{ACAD_REACTORS
330
12
102
}
330
12
100
AcDbXrecord
280
     1
270
     1
271
     1
  0
XRECORD
  5
18
102
{ACAD_REACTORS
330
12
102
}
330
12
100
AcDbXrecord
280
     1
270
     1
271
     1
  0
XRECORD
  5
15
102
{ACAD_REACTORS
330
12
102
}
330
12
100
AcDbXrecord
280
     1
270
     1
271
     1
  0
XRECORD
  5
24
102
{ACAD_REACTORS
330
22
102
}
330
22
100
AcDbXrecord
280
     1
270
     1
271
     1
  0
XRECORD
  5
23
102
{ACAD_REACTORS
330
22
102
}
330
22
100
AcDbXrecord
280
     1
270
     1
271
     1
  0
XRECORD
  5
27
102
{ACAD_REACTORS
330
22
102
}
330
22
100
AcDbXrecord
280
     1
270
     1
271
     1
  0
XRECORD
  5
26
102
{ACAD_REACTORS
330
22
102
}
330
22
100
AcDbXrecord
280
     1
270
     1
271
     1
  0
XRECORD
  5
28
102
{ACAD_REACTORS
330
22
102
}
330
22
100
AcDbXrecord
280
     1
270
     1
271
     1
  0
XRECORD
  5
25
102
{ACAD_REACTORS
330
22
102
}
330
22
100
AcDbXrecord
280
     1
270
     1
271
     1
  0
CELLSTYLEMAP
  5
2D9
102
{ACAD_REACTORS
330
2D8
102
}
330
2D8
100
AcDbCellStyleMap
 90
        3
300
CELLSTYLE
  1
TABLEFORMAT_BEGIN
 90
        5
170
     1
 91
        0
 92
    32768
 62
   257
 93
        1
300
CONTENTFORMAT
  1
CONTENTFORMAT_BEGIN
 90
        0
 91
        0
 92
      512
 93
        0
300

 40
0.0
140
1.0
 94
        5
 62
     0
340
55
144
0.25
309
CONTENTFORMAT_END
171
     0
 94
        0
309
TABLEFORMAT_END
  1
CELLSTYLE_BEGIN
 90
        1
 91
        1
300
_TITLE
309
CELLSTYLE_END
300
CELLSTYLE
  1
TABLEFORMAT_BEGIN
 90
        5
170
     1
 91
        0
 92
        0
 62
   257
 93
        1
300
CONTENTFORMAT
  1
CONTENTFORMAT_BEGIN
 90
        0
 91
        0
 92
      512
 93
        0
300

 40
0.0
140
1.0
 94
        5
 62
     0
340
55
144
0.18
309
CONTENTFORMAT_END
171
     0
 94
        0
309
TABLEFORMAT_END
  1
CELLSTYLE_BEGIN
 90
        2
 91
        1
300
_HEADER
309
CELLSTYLE_END
300
CELLSTYLE
  1
TABLEFORMAT_BEGIN
 90
        5
170
     1
 91
        0
 92
        0
 62
   257
 93
        1
300
CONTENTFORMAT
  1
CONTENTFORMAT_BEGIN
 90
        0
 91
        0
 92
      512
 93
        0
300

 40
0.0
140
1.0
 94
        2
 62
     0
340
55
144
0.18
309
CONTENTFORMAT_END
171
     0
 94
        0
309
TABLEFORMAT_END
  1
CELLSTYLE_BEGIN
 90
        3
 91
        2
300
_DATA
309
CELLSTYLE_END
  0
ENDSEC
  0
EOF
