  0
SECTION
  2
HEADER
  9
$ACADVER
  1
AC1027
  9
$ACADMAINTVER
 70
    20
  9
$DWGCODEPAGE
  3
ANSI_1252
  9
$REQUIREDVERSIONS
160
                 0
  9
$INSBASE
 10
0.0
 20
0.0
 30
0.0
  9
$EXTMIN
 10
810.6664074431225
 20
-0.000000000041149
 30
-0.00000001
  9
$EXTMAX
 10
3146.1143539431
 20
1550.625000000285
 30
0.00000001
  9
$LIMMIN
 10
0.0
 20
0.0
  9
$LIMMAX
 10
12.0
 20
9.0
  9
$ORTHOMODE
 70
     0
  9
$REGENMODE
 70
     1
  9
$FILLMODE
 70
     1
  9
$QTEXTMODE
 70
     0
  9
$MIRRTEXT
 70
     0
  9
$LTSCALE
 40
1.0
  9
$ATTMODE
 70
     1
  9
$TEXTSIZE
 40
0.2
  9
$TRACEWID
 40
0.05
  9
$TEXTSTYLE
  7
Standard
  9
$CLAYER
  8
0
  9
$CELTYPE
  6
ByLayer
  9
$CECOLOR
 62
   256
  9
$CELTSCALE
 40
1.0
  9
$DISPSILH
 70
     0
  9
$DIMSCALE
 40
1.0
  9
$DIMASZ
 40
0.18
  9
$DIMEXO
 40
0.0625
  9
$DIMDLI
 40
0.38
  9
$DIMRND
 40
0.0
  9
$DIMDLE
 40
0.0
  9
$DIMEXE
 40
0.18
  9
$DIMTP
 40
0.0
  9
$DIMTM
 40
0.0
  9
$DIMTXT
 40
0.18
  9
$DIMCEN
 40
0.09
  9
$DIMTSZ
 40
0.0
  9
$DIMTOL
 70
     0
  9
$DIMLIM
 70
     0
  9
$DIMTIH
 70
     1
  9
$DIMTOH
 70
     1
  9
$DIMSE1
 70
     0
  9
$DIMSE2
 70
     0
  9
$DIMTAD
 70
     0
  9
$DIMZIN
 70
     0
  9
$DIMBLK
  1

  9
$DIMASO
 70
     1
  9
$DIMSHO
 70
     1
  9
$DIMPOST
  1

  9
$DIMAPOST
  1

  9
$DIMALT
 70
     0
  9
$DIMALTD
 70
     2
  9
$DIMALTF
 40
25.4
  9
$DIMLFAC
 40
1.0
  9
$DIMTOFL
 70
     0
  9
$DIMTVP
 40
0.0
  9
$DIMTIX
 70
     0
  9
$DIMSOXD
 70
     0
  9
$DIMSAH
 70
     0
  9
$DIMBLK1
  1

  9
$DIMBLK2
  1

  9
$DIMSTYLE
  2
Standard
  9
$DIMCLRD
 70
     0
  9
$DIMCLRE
 70
     0
  9
$DIMCLRT
 70
     0
  9
$DIMTFAC
 40
1.0
  9
$DIMGAP
 40
0.09
  9
$DIMJUST
 70
     0
  9
$DIMSD1
 70
     0
  9
$DIMSD2
 70
     0
  9
$DIMTOLJ
 70
     1
  9
$DIMTZIN
 70
     0
  9
$DIMALTZ
 70
     0
  9
$DIMALTTZ
 70
     0
  9
$DIMUPT
 70
     0
  9
$DIMDEC
 70
     4
  9
$DIMTDEC
 70
     4
  9
$DIMALTU
 70
     2
  9
$DIMALTTD
 70
     2
  9
$DIMTXSTY
  7
Standard
  9
$DIMAUNIT
 70
     0
  9
$DIMADEC
 70
     0
  9
$DIMALTRND
 40
0.0
  9
$DIMAZIN
 70
     0
  9
$DIMDSEP
 70
    46
  9
$DIMATFIT
 70
     3
  9
$DIMFRAC
 70
     0
  9
$DIMLDRBLK
  1

  9
$DIMLUNIT
 70
     2
  9
$DIMLWD
 70
    -2
  9
$DIMLWE
 70
    -2
  9
$DIMTMOVE
 70
     0
  9
$DIMFXL
 40
1.0
  9
$DIMFXLON
 70
     0
  9
$DIMJOGANG
 40
0.7853981633974483
  9
$DIMTFILL
 70
     0
  9
$DIMTFILLCLR
 70
     0
  9
$DIMARCSYM
 70
     0
  9
$DIMLTYPE
  6

  9
$DIMLTEX1
  6

  9
$DIMLTEX2
  6

  9
$DIMTXTDIRECTION
 70
     0
  9
$LUNITS
 70
     2
  9
$LUPREC
 70
     4
  9
$SKETCHINC
 40
0.1
  9
$FILLETRAD
 40
0.0
  9
$AUNITS
 70
     0
  9
$AUPREC
 70
     0
  9
$MENU
  1
.
  9
$ELEVATION
 40
0.0
  9
$PELEVATION
 40
0.0
  9
$THICKNESS
 40
0.0
  9
$LIMCHECK
 70
     0
  9
$CHAMFERA
 40
0.0
  9
$CHAMFERB
 40
0.0
  9
$CHAMFERC
 40
0.0
  9
$CHAMFERD
 40
0.0
  9
$SKPOLY
 70
     0
  9
$TDCREATE
 40
2457571.623408426
  9
$TDUCREATE
 40
2457571.540075093
  9
$TDUPDATE
 40
2457571.623408426
  9
$TDUUPDATE
 40
2457571.540075093
  9
$TDINDWG
 40
0.0000471991
  9
$TDUSRTIMER
 40
0.0000471991
  9
$USRTIMER
 70
     1
  9
$ANGBASE
 50
0.0
  9
$ANGDIR
 70
     0
  9
$PDMODE
 70
     0
  9
$PDSIZE
 40
0.0
  9
$PLINEWID
 40
0.0
  9
$SPLFRAME
 70
     0
  9
$SPLINETYPE
 70
     6
  9
$SPLINESEGS
 70
     8
  9
$HANDSEED
  5
235
  9
$SURFTAB1
 70
     6
  9
$SURFTAB2
 70
     6
  9
$SURFTYPE
 70
     6
  9
$SURFU
 70
     6
  9
$SURFV
 70
     6
  9
$UCSBASE
  2

  9
$UCSNAME
  2

  9
$UCSORG
 10
0.0
 20
0.0
 30
0.0
  9
$UCSXDIR
 10
1.0
 20
0.0
 30
0.0
  9
$UCSYDIR
 10
0.0
 20
1.0
 30
0.0
  9
$UCSORTHOREF
  2

  9
$UCSORTHOVIEW
 70
     0
  9
$UCSORGTOP
 10
0.0
 20
0.0
 30
0.0
  9
$UCSORGBOTTOM
 10
0.0
 20
0.0
 30
0.0
  9
$UCSORGLEFT
 10
0.0
 20
0.0
 30
0.0
  9
$UCSORGRIGHT
 10
0.0
 20
0.0
 30
0.0
  9
$UCSORGFRONT
 10
0.0
 20
0.0
 30
0.0
  9
$UCSORGBACK
 10
0.0
 20
0.0
 30
0.0
  9
$PUCSBASE
  2

  9
$PUCSNAME
  2

  9
$PUCSORG
 10
0.0
 20
0.0
 30
0.0
  9
$PUCSXDIR
 10
1.0
 20
0.0
 30
0.0
  9
$PUCSYDIR
 10
0.0
 20
1.0
 30
0.0
  9
$PUCSORTHOREF
  2

  9
$PUCSORTHOVIEW
 70
     0
  9
$PUCSORGTOP
 10
0.0
 20
0.0
 30
0.0
  9
$PUCSORGBOTTOM
 10
0.0
 20
0.0
 30
0.0
  9
$PUCSORGLEFT
 10
0.0
 20
0.0
 30
0.0
  9
$PUCSORGRIGHT
 10
0.0
 20
0.0
 30
0.0
  9
$PUCSORGFRONT
 10
0.0
 20
0.0
 30
0.0
  9
$PUCSORGBACK
 10
0.0
 20
0.0
 30
0.0
  9
$USERI1
 70
     0
  9
$USERI2
 70
     0
  9
$USERI3
 70
     0
  9
$USERI4
 70
     0
  9
$USERI5
 70
     0
  9
$USERR1
 40
0.0
  9
$USERR2
 40
0.0
  9
$USERR3
 40
0.0
  9
$USERR4
 40
0.0
  9
$USERR5
 40
0.0
  9
$WORLDVIEW
 70
     1
  9
$SHADEDGE
 70
     3
  9
$SHADEDIF
 70
    70
  9
$TILEMODE
 70
     1
  9
$MAXACTVP
 70
    64
  9
$PINSBASE
 10
0.0
 20
0.0
 30
0.0
  9
$PLIMCHECK
 70
     0
  9
$PEXTMIN
 10
1.000000000000000E+20
 20
1.000000000000000E+20
 30
1.000000000000000E+20
  9
$PEXTMAX
 10
-1.000000000000000E+20
 20
-1.000000000000000E+20
 30
-1.000000000000000E+20
  9
$PLIMMIN
 10
0.0
 20
0.0
  9
$PLIMMAX
 10
12.0
 20
9.0
  9
$UNITMODE
 70
     0
  9
$VISRETAIN
 70
     1
  9
$PLINEGEN
 70
     0
  9
$PSLTSCALE
 70
     1
  9
$TREEDEPTH
 70
  3020
  9
$CMLSTYLE
  2
Standard
  9
$CMLJUST
 70
     0
  9
$CMLSCALE
 40
1.0
  9
$PROXYGRAPHICS
 70
     1
  9
$MEASUREMENT
 70
     1
  9
$CELWEIGHT
370
    -1
  9
$ENDCAPS
280
     0
  9
$JOINSTYLE
280
     0
  9
$LWDISPLAY
290
     0
  9
$INSUNITS
 70
     4
  9
$HYPERLINKBASE
  1

  9
$STYLESHEET
  1

  9
$XEDIT
290
     1
  9
$CEPSNTYPE
380
     0
  9
$PSTYLEMODE
290
     1
  9
$FINGERPRINTGUID
  2
{DEAB707E-9333-4FD5-B965-793AC8E0E103}
  9
$VERSIONGUID
  2
{905797D2-FC9B-4D96-A9B5-114471C4087F}
  9
$EXTNAMES
290
     1
  9
$PSVPSCALE
 40
0.0
  9
$OLESTARTUP
290
     0
  9
$SORTENTS
280
   127
  9
$INDEXCTL
280
     0
  9
$HIDETEXT
280
     1
  9
$XCLIPFRAME
280
     2
  9
$HALOGAP
280
     0
  9
$OBSCOLOR
 70
   257
  9
$OBSLTYPE
280
     0
  9
$INTERSECTIONDISPLAY
280
     0
  9
$INTERSECTIONCOLOR
 70
   257
  9
$DIMASSOC
280
     2
  9
$PROJECTNAME
  1

  9
$CAMERADISPLAY
290
     0
  9
$LENSLENGTH
 40
50.0
  9
$CAMERAHEIGHT
 40
0.0
  9
$STEPSPERSEC
 40
2.0
  9
$STEPSIZE
 40
6.0
  9
$3DDWFPREC
 40
2.0
  9
$PSOLWIDTH
 40
0.25
  9
$PSOLHEIGHT
 40
4.0
  9
$LOFTANG1
 40
1.570796326794896
  9
$LOFTANG2
 40
1.570796326794896
  9
$LOFTMAG1
 40
0.0
  9
$LOFTMAG2
 40
0.0
  9
$LOFTPARAM
 70
     7
  9
$LOFTNORMALS
280
     1
  9
$LATITUDE
 40
37.795
  9
$LONGITUDE
 40
-122.394
  9
$NORTHDIRECTION
 40
0.0
  9
$TIMEZONE
 70
 -8000
  9
$LIGHTGLYPHDISPLAY
280
     1
  9
$TILEMODELIGHTSYNCH
280
     1
  9
$CMATERIAL
347
11
  9
$SOLIDHIST
280
     0
  9
$SHOWHIST
280
     1
  9
$DWFFRAME
280
     2
  9
$DGNFRAME
280
     0
  9
$REALWORLDSCALE
290
     1
  9
$INTERFERECOLOR
 62
     1
  9
$INTERFEREOBJVS
345
33
  9
$INTERFEREVPVS
346
30
  9
$CSHADOW
280
     0
  9
$SHADOWPLANELOCATION
 40
0.0
  0
ENDSEC
  0
SECTION
  2
CLASSES
  0
CLASS
  1
ACDBDICTIONARYWDFLT
  2
AcDbDictionaryWithDefault
  3
ObjectDBX Classes
 90
        0
 91
        1
280
     0
281
     0
  0
CLASS
  1
MATERIAL
  2
AcDbMaterial
  3
ObjectDBX Classes
 90
     1153
 91
        3
280
     0
281
     0
  0
CLASS
  1
VISUALSTYLE
  2
AcDbVisualStyle
  3
ObjectDBX Classes
 90
     4095
 91
       24
280
     0
281
     0
  0
CLASS
  1
SCALE
  2
AcDbScale
  3
ObjectDBX Classes
 90
     1153
 91
       17
280
     0
281
     0
  0
CLASS
  1
TABLESTYLE
  2
AcDbTableStyle
  3
ObjectDBX Classes
 90
     4095
 91
        1
280
     0
281
     0
  0
CLASS
  1
MLEADERSTYLE
  2
AcDbMLeaderStyle
  3
ACDB_MLEADERSTYLE_CLASS
 90
     4095
 91
        1
280
     0
281
     0
  0
CLASS
  1
ACDBSECTIONVIEWSTYLE
  2
AcDbSectionViewStyle
  3
ObjectDBX Classes
 90
     1025
 91
        1
280
     0
281
     0
  0
CLASS
  1
ACDBDETAILVIEWSTYLE
  2
AcDbDetailViewStyle
  3
ObjectDBX Classes
 90
     1025
 91
        1
280
     0
281
     0
  0
CLASS
  1
RASTERVARIABLES
  2
AcDbRasterVariables
  3
ISM
 90
        0
 91
        1
280
     0
281
     0
  0
CLASS
  1
DICTIONARYVAR
  2
AcDbDictionaryVar
  3
ObjectDBX Classes
 90
        0
 91
        5
280
     0
281
     0
  0
CLASS
  1
CELLSTYLEMAP
  2
AcDbCellStyleMap
  3
ObjectDBX Classes
 90
     1152
 91
        2
280
     0
281
     0
  0
CLASS
  1
SORTENTSTABLE
  2
AcDbSortentsTable
  3
ObjectDBX Classes
 90
        0
 91
        1
280
     0
281
     0
  0
ENDSEC
  0
SECTION
  2
TABLES
  0
TABLE
  2
VPORT
  5
8
330
0
100
AcDbSymbolTable
 70
     1
  0
VPORT
  5
57
330
8
100
AcDbSymbolTableRecord
100
AcDbViewportTableRecord
  2
*Active
 70
     0
 10
0.0
 20
0.0
 11
1.0
 21
1.0
 12
1978.390380693111
 22
775.3125000001426
 13
0.0
 23
0.0
 14
1.0
 24
1.0
 15
0.0
 25
0.0
 16
0.0
 26
0.0
 36
1.0
 17
0.0
 27
0.0
 37
0.0
 40
1550.625000000285
 41
1.506133298830824
 42
50.0
 43
0.0
 44
0.0
 50
0.0
 51
0.0
 71
     0
 72
  1000
 73
     1
 74
     1
 75
     0
 76
     0
 77
     0
 78
     0
281
     0
 65
     1
110
0.0
120
0.0
130
0.0
111
1.0
121
0.0
131
0.0
112
0.0
122
1.0
132
0.0
 79
     0
146
0.0
 60
     3
 61
     5
292
     1
282
     1
141
0.0
142
0.0
 63
   250
421
  3355443
  0
ENDTAB
  0
TABLE
  2
LTYPE
  5
5
330
0
100
AcDbSymbolTable
 70
     3
  0
LTYPE
  5
5B
330
5
100
AcDbSymbolTableRecord
100
AcDbLinetypeTableRecord
  2
ByBlock
 70
     0
  3

 72
    65
 73
     0
 40
0.0
  0
LTYPE
  5
5C
330
5
100
AcDbSymbolTableRecord
100
AcDbLinetypeTableRecord
  2
ByLayer
 70
     0
  3

 72
    65
 73
     0
 40
0.0
  0
LTYPE
  5
5D
330
5
100
AcDbSymbolTableRecord
100
AcDbLinetypeTableRecord
  2
Continuous
 70
     0
  3
Solid line
 72
    65
 73
     0
 40
0.0
  0
LTYPE
  5
69
330
5
100
AcDbSymbolTableRecord
100
AcDbLinetypeTableRecord
  2
PHANTOM2
 70
     0
  3
___ _ _ ___ _ _ ___ _ _ ___ _ _
 72
    65
 73
     6
 40
1.25
 49
0.625
 74
     0
 49
-0.125
 74
     0
 49
0.125
 74
     0
 49
-0.125
 74
     0
 49
0.125
 74
     0
 49
-0.125
 74
     0
  0
LTYPE
  5
86
330
5
100
AcDbSymbolTableRecord
100
AcDbLinetypeTableRecord
  2
Nascosto 1_5 mm
 70
     0
  3

 72
    65
 73
     2
 40
2.2
 49
1.5
 74
     0
 49
-0.7000000000000001
 74
     0
  0
ENDTAB
  0
TABLE
  2
LAYER
  5
2
330
0
100
AcDbSymbolTable
 70
     4
  0
LAYER
  5
54
330
2
100
AcDbSymbolTableRecord
100
AcDbLayerTableRecord
  2
0
 70
     0
 62
     7
  6
Continuous
370
    -3
390
F
347
21
348
0
  0
LAYER
  5
85
330
2
100
AcDbSymbolTableRecord
100
AcDbLayerTableRecord
  2
P-SANR-FIXT
 70
     0
 62
     6
  6
Continuous
370
    18
390
F
347
21
348
0
  0
LAYER
  5
88
330
2
100
AcDbSymbolTableRecord
100
AcDbLayerTableRecord
  2
M-PIPE
 70
     0
 62
     3
  6
Continuous
370
    18
390
F
347
21
348
0
  0
ENDTAB
  0
TABLE
  2
STYLE
  5
3
330
0
100
AcDbSymbolTable
 70
     2
  0
STYLE
  5
55
330
3
100
AcDbSymbolTableRecord
100
AcDbTextStyleTableRecord
  2
Standard
 70
     0
 40
0.0
 41
1.0
 50
0.0
 71
     0
 42
0.2
  3
txt
  4

  0
STYLE
  5
5A
330
3
100
AcDbSymbolTableRecord
100
AcDbTextStyleTableRecord
  2
Annotative
 70
     0
 40
0.0
 41
1.0
 50
0.0
 71
     0
 42
0.2
  3
txt
  4

1001
AcadAnnotative
1000
AnnotativeData
1002
{
1070
     1
1070
     1
1002
}
  0
ENDTAB
  0
TABLE
  2
VIEW
  5
6
330
0
100
AcDbSymbolTable
 70
     0
  0
ENDTAB
  0
TABLE
  2
UCS
  5
7
330
0
100
AcDbSymbolTable
 70
     0
  0
ENDTAB
  0
TABLE
  2
APPID
  5
9
330
0
100
AcDbSymbolTable
 70
     3
  0
APPID
  5
56
330
9
100
AcDbSymbolTableRecord
100
AcDbRegAppTableRecord
  2
ACAD
 70
     0
  0
APPID
  5
5E
330
9
100
AcDbSymbolTableRecord
100
AcDbRegAppTableRecord
  2
AcadAnnotative
 70
     0
  0
APPID
  5
79
330
9
100
AcDbSymbolTableRecord
100
AcDbRegAppTableRecord
  2
REVIT
 70
     0
  0
ENDTAB
  0
TABLE
  2
DIMSTYLE
  5
A
330
0
100
AcDbSymbolTable
 70
     2
100
AcDbDimStyleTable
 71
     0
  0
DIMSTYLE
105
58
330
A
100
AcDbSymbolTableRecord
100
AcDbDimStyleTableRecord
  2
Standard
 70
     0
340
55
  0
DIMSTYLE
105
59
330
A
100
AcDbSymbolTableRecord
100
AcDbDimStyleTableRecord
  2
Annotative
 70
     0
340
55
1001
AcadAnnotative
1000
AnnotativeData
1002
{
1070
     1
1070
     1
1002
}
  0
ENDTAB
  0
TABLE
  2
BLOCK_RECORD
  5
1
330
0
100
AcDbSymbolTable
 70
     3
  0
BLOCK_RECORD
  5
71
102
{ACAD_XDICTIONARY
360
230
102
}
330
1
100
AcDbSymbolTableRecord
100
AcDbBlockTableRecord
  2
*Model_Space
340
74
 70
     0
280
     1
281
     0
  0
BLOCK_RECORD
  5
6D
330
1
100
AcDbSymbolTableRecord
100
AcDbBlockTableRecord
  2
*Paper_Space
340
70
 70
     0
280
     1
281
     0
  0
BLOCK_RECORD
  5
75
330
1
100
AcDbSymbolTableRecord
100
AcDbBlockTableRecord
  2
*Paper_Space0
340
78
 70
     0
280
     1
281
     0
  0
BLOCK_RECORD
  5
87
330
1
100
AcDbSymbolTableRecord
100
AcDbBlockTableRecord
  2
Automatic flow rate regulator valve_Caleffi_121 DN15 - 2___Pressure gauge H-980146-Est - Idraulica
340
0
102
{BLKREFS
331
18D
102
}
 70
     0
280
     1
281
     0
  0
BLOCK_RECORD
  5
18E
330
1
100
AcDbSymbolTableRecord
100
AcDbBlockTableRecord
  2
Automatic flow rate regulator valve_Caleffi_121 DN15 - 2___Pressure gauge H-V1-Est - Idraulica
340
0
102
{BLKREFS
331
229
102
}
 70
     0
280
     1
281
     0
  0
ENDTAB
  0
ENDSEC
  0
SECTION
  2
BLOCKS
  0
BLOCK
  5
72
330
71
100
AcDbEntity
  8
0
100
AcDbBlockBegin
  2
*Model_Space
 70
     0
 10
0.0
 20
0.0
 30
0.0
  3
*Model_Space
  1

  0
ENDBLK
  5
73
330
71
100
AcDbEntity
  8
0
100
AcDbBlockEnd
  0
BLOCK
  5
6E
330
6D
100
AcDbEntity
 67
     1
  8
0
100
AcDbBlockBegin
  2
*Paper_Space
 70
     0
 10
0.0
 20
0.0
 30
0.0
  3
*Paper_Space
  1

  0
ENDBLK
  5
6F
330
6D
100
AcDbEntity
 67
     1
  8
0
100
AcDbBlockEnd
  0
BLOCK
  5
76
330
75
100
AcDbEntity
 67
     1
  8
0
100
AcDbBlockBegin
  2
*Paper_Space0
 70
     0
 10
0.0
 20
0.0
 30
0.0
  3
*Paper_Space0
  1

  0
ENDBLK
  5
77
330
75
100
AcDbEntity
 67
     1
  8
0
100
AcDbBlockEnd
  0
BLOCK
  5
18B
330
87
100
AcDbEntity
  8
0
100
AcDbBlockBegin
  2
Automatic flow rate regulator valve_Caleffi_121 DN15 - 2___Pressure gauge H-980146-Est - Idraulica
 70
     0
 10
0.0
 20
0.0
 30
0.0
  3
Automatic flow rate regulator valve_Caleffi_121 DN15 - 2___Pressure gauge H-980146-Est - Idraulica
  1

  0
LINE
  5
89
330
87
100
AcDbEntity
  8
M-PIPE
100
AcDbLine
 10
1175.666407443125
 20
257.6250000000619
 30
0.0
 11
1177.614959259761
 21
257.6250000000619
 31
0.0
1001
REVIT
1002
{
1070
     3
1000
790271
1002
}
  0
LINE
  5
8A
330
87
100
AcDbEntity
  8
M-PIPE
100
AcDbLine
 10
1190.666407443125
 20
257.6250000000619
 30
0.0
 11
1200.666407443125
 21
257.6250000000616
 31
0.0
1001
REVIT
1002
{
1070
     3
1000
790271
1002
}
  0
LINE
  5
8B
330
87
100
AcDbEntity
  8
M-PIPE
100
AcDbLine
 10
1200.666407443125
 20
296.6250000000617
 30
0.0
 11
1175.666407443125
 21
296.6250000000617
 31
0.0
1001
REVIT
1002
{
1070
     3
1000
790271
1002
}
  0
LINE
  5
8C
330
87
100
AcDbEntity
  8
M-PIPE
100
AcDbLine
 10
1200.666407443123
 20
296.625000000063
 30
0.0
 11
1200.666407443123
 21
257.625000000063
 31
0.0
1001
REVIT
1002
{
1070
     3
1000
790271
1002
}
  0
LINE
  5
8D
330
87
100
AcDbEntity
  8
M-PIPE
100
AcDbLine
 10
1175.666407443123
 20
257.625000000063
 30
0.0
 11
1175.666407443123
 21
296.6250000000631
 31
0.0
1001
REVIT
1002
{
1070
     3
1000
790271
1002
}
  0
LINE
  5
8E
330
87
100
AcDbEntity
  8
M-PIPE
100
AcDbLine
 10
1180.374290216975
 20
260.3843309572799
 30
0.0
 11
1190.666407443123
 21
260.3843309572798
 31
0.0
1001
REVIT
1002
{
1070
     3
1000
790271
1002
}
  0
LINE
  5
8F
330
87
100
AcDbEntity
  8
M-PIPE
100
AcDbLine
 10
1190.666407443123
 20
253.1250000000631
 30
0.0
 11
1190.666407443123
 21
257.6250000000632
 31
0.0
1001
REVIT
1002
{
1070
     3
1000
790271
1002
}
  0
LINE
  5
90
330
87
100
AcDbEntity
  8
M-PIPE
100
AcDbLine
 10
1190.666407443123
 20
257.6250000000632
 30
0.0
 11
1190.666407443123
 21
260.3843309572797
 31
0.0
1001
REVIT
1002
{
1070
     3
1000
790271
1002
}
  0
LINE
  5
91
330
87
100
AcDbEntity
  8
M-PIPE
100
AcDbLine
 10
1180.374290216975
 20
260.3843309572797
 30
0.0
 11
1164.666407443123
 21
244.6764481834278
 31
0.0
1001
REVIT
1002
{
1070
     3
1000
790271
1002
}
  0
LINE
  5
92
330
87
100
AcDbEntity
  8
M-PIPE
100
AcDbLine
 10
1164.666407443123
 20
244.6764481834278
 30
0.0
 11
1164.666407443123
 21
110.6205122062201
 31
0.0
1001
REVIT
1002
{
1070
     3
1000
790271
1002
}
  0
LINE
  5
93
330
87
100
AcDbEntity
  8
M-PIPE
100
AcDbLine
 10
1164.666407443123
 20
110.6205122062201
 30
0.0
 11
1175.566407443123
 21
110.6205122062201
 31
0.0
1001
REVIT
1002
{
1070
     3
1000
790271
1002
}
  0
LINE
  5
94
330
87
100
AcDbEntity
  8
M-PIPE
100
AcDbLine
 10
1175.566407443123
 20
110.6205122062201
 30
0.0
 11
1175.566407443123
 21
244.4070109352999
 31
0.0
1001
REVIT
1002
{
1070
     3
1000
790271
1002
}
  0
LINE
  5
95
330
87
100
AcDbEntity
  8
M-PIPE
100
AcDbLine
 10
1175.566407443123
 20
244.4070109352999
 30
0.0
 11
1190.666407443123
 21
253.1250000000631
 31
0.0
1001
REVIT
1002
{
1070
     3
1000
790271
1002
}
  0
LINE
  5
96
330
87
100
AcDbEntity
  8
M-PIPE
100
AcDbLine
 10
1299.348875478842
 20
215.6250000001275
 30
0.0
 11
1280.007641460977
 21
215.6250000001277
 31
0.0
1001
REVIT
1002
{
1070
     3
1000
790271
1002
}
  0
LINE
  5
97
330
87
100
AcDbEntity
  8
M-PIPE
100
AcDbLine
 10
1280.007641460977
 20
215.6250000001277
 30
0.0
 11
1241.325173425246
 21
215.6250000001277
 31
0.0
1001
REVIT
1002
{
1070
     3
1000
790271
1002
}
  0
LINE
  5
98
330
87
100
AcDbEntity
  8
M-PIPE
100
AcDbLine
 10
1241.325173425246
 20
215.6250000001277
 30
0.0
 11
1221.98393940738
 21
215.6250000001275
 31
0.0
1001
REVIT
1002
{
1070
     3
1000
790271
1002
}
  0
LINE
  5
99
330
87
100
AcDbEntity
  8
M-PIPE
100
AcDbLine
 10
1221.98393940738
 20
234.6250000001276
 30
0.0
 11
1241.325173425246
 21
234.6250000001277
 31
0.0
1001
REVIT
1002
{
1070
     3
1000
790271
1002
}
  0
LINE
  5
9A
330
87
100
AcDbEntity
  8
M-PIPE
100
AcDbLine
 10
1241.325173425246
 20
234.6250000001277
 30
0.0
 11
1280.007641460977
 21
234.6250000001277
 31
0.0
1001
REVIT
1002
{
1070
     3
1000
790271
1002
}
  0
LINE
  5
9B
330
87
100
AcDbEntity
  8
M-PIPE
100
AcDbLine
 10
1280.007641460977
 20
234.6250000001277
 30
0.0
 11
1299.348875478842
 21
234.6250000001276
 31
0.0
1001
REVIT
1002
{
1070
     3
1000
790271
1002
}
  0
LINE
  5
9C
330
87
100
AcDbEntity
  8
M-PIPE
100
AcDbLine
 10
1299.348875478842
 20
215.6250000001275
 30
0.0
 11
1299.348875478842
 21
234.6250000001276
 31
0.0
1001
REVIT
1002
{
1070
     3
1000
790271
1002
}
  0
LINE
  5
9D
330
87
100
AcDbEntity
  8
M-PIPE
100
AcDbLine
 10
1280.007641460977
 20
234.6250000001277
 30
0.0
 11
1280.007641460977
 21
215.6250000001277
 31
0.0
1001
REVIT
1002
{
1070
     3
1000
790271
1002
}
  0
LINE
  5
9E
330
87
100
AcDbEntity
  8
M-PIPE
100
AcDbLine
 10
1241.325173425246
 20
234.6250000001277
 30
0.0
 11
1241.325173425246
 21
215.6250000001277
 31
0.0
1001
REVIT
1002
{
1070
     3
1000
790271
1002
}
  0
LINE
  5
9F
330
87
100
AcDbEntity
  8
M-PIPE
100
AcDbLine
 10
1221.98393940738
 20
234.6250000001276
 30
0.0
 11
1221.98393940738
 21
215.6250000001275
 31
0.0
1001
REVIT
1002
{
1070
     3
1000
790271
1002
}
  0
LINE
  5
A0
330
87
100
AcDbEntity
  8
M-PIPE
100
AcDbLine
 10
1221.983939407407
 20
329.1250000000628
 30
0.0
 11
1241.325173425259
 21
329.125000000063
 31
0.0
1001
REVIT
1002
{
1070
     3
1000
790271
1002
}
  0
LINE
  5
A1
330
87
100
AcDbEntity
  8
M-PIPE
100
AcDbLine
 10
1241.325173425259
 20
329.125000000063
 30
0.0
 11
1280.007641460964
 21
329.125000000063
 31
0.0
1001
REVIT
1002
{
1070
     3
1000
790271
1002
}
  0
LINE
  5
A2
330
87
100
AcDbEntity
  8
M-PIPE
100
AcDbLine
 10
1280.007641460964
 20
329.125000000063
 30
0.0
 11
1299.348875478816
 21
329.1250000000628
 31
0.0
1001
REVIT
1002
{
1070
     3
1000
790271
1002
}
  0
LINE
  5
A3
330
87
100
AcDbEntity
  8
M-PIPE
100
AcDbLine
 10
1299.348875478816
 20
311.1250000000628
 30
0.0
 11
1299.348875478816
 21
329.1250000000628
 31
0.0
1001
REVIT
1002
{
1070
     3
1000
790271
1002
}
  0
LINE
  5
A4
330
87
100
AcDbEntity
  8
M-PIPE
100
AcDbLine
 10
1280.007641460964
 20
329.1250000000629
 30
0.0
 11
1280.007641460964
 21
311.1250000000629
 31
0.0
1001
REVIT
1002
{
1070
     3
1000
790271
1002
}
  0
LINE
  5
A5
330
87
100
AcDbEntity
  8
M-PIPE
100
AcDbLine
 10
1241.325173425259
 20
329.1250000000629
 30
0.0
 11
1241.325173425259
 21
311.1250000000629
 31
0.0
1001
REVIT
1002
{
1070
     3
1000
790271
1002
}
  0
LINE
  5
A6
330
87
100
AcDbEntity
  8
M-PIPE
100
AcDbLine
 10
1221.983939407407
 20
329.1250000000628
 30
0.0
 11
1221.983939407407
 21
311.1250000000628
 31
0.0
1001
REVIT
1002
{
1070
     3
1000
790271
1002
}
  0
LINE
  5
A7
330
87
100
AcDbEntity
  8
M-PIPE
100
AcDbLine
 10
1294.166407443129
 20
234.6250000001262
 30
0.0
 11
1294.166407443128
 21
242.7250000000669
 31
0.0
1001
REVIT
1002
{
1070
     3
1000
790271
1002
}
  0
LINE
  5
A8
330
87
100
AcDbEntity
  8
M-PIPE
100
AcDbLine
 10
1227.166407443113
 20
242.7250000000601
 30
0.0
 11
1227.166407443114
 21
234.6250000001262
 31
0.0
1001
REVIT
1002
{
1070
     3
1000
790271
1002
}
  0
LINE
  5
A9
330
87
100
AcDbEntity
  8
M-PIPE
100
AcDbLine
 10
1294.16640744312
 20
242.7250000000669
 30
0.0
 11
1302.666407443119
 21
251.2250000000658
 31
0.0
1001
REVIT
1002
{
1070
     3
1000
790271
1002
}
  0
LINE
  5
AA
330
87
100
AcDbEntity
  8
M-PIPE
100
AcDbLine
 10
1218.666407443119
 20
251.2250000000571
 30
0.0
 11
1227.16640744312
 21
242.7250000000601
 31
0.0
1001
REVIT
1002
{
1070
     3
1000
790271
1002
}
  0
LINE
  5
AB
330
87
100
AcDbEntity
  8
M-PIPE
100
AcDbLine
 10
1302.666407443119
 20
251.2250000000658
 30
0.0
 11
1302.666407443114
 21
311.125000000066
 31
0.0
1001
REVIT
1002
{
1070
     3
1000
790271
1002
}
  0
LINE
  5
AC
330
87
100
AcDbEntity
  8
M-PIPE
100
AcDbLine
 10
1218.666407443113
 20
311.1250000000573
 30
0.0
 11
1218.666407443116
 21
292.0519867279372
 31
0.0
1001
REVIT
1002
{
1070
     3
1000
790271
1002
}
  0
LINE
  5
AD
330
87
100
AcDbEntity
  8
M-PIPE
100
AcDbLine
 10
1218.666407443118
 20
262.1980132721862
 30
0.0
 11
1218.666407443119
 21
251.2250000000571
 31
0.0
1001
REVIT
1002
{
1070
     3
1000
790271
1002
}
  0
LINE
  5
AE
330
87
100
AcDbEntity
  8
M-PIPE
100
AcDbLine
 10
1218.666407443112
 20
311.1250000000585
 30
0.0
 11
1302.666407443111
 21
311.1250000000671
 31
0.0
1001
REVIT
1002
{
1070
     3
1000
790271
1002
}
  0
LINE
  5
AF
330
87
100
AcDbEntity
  8
M-PIPE
100
AcDbLine
 10
1294.166407443119
 20
242.7250000000682
 30
0.0
 11
1227.166407443118
 21
242.7250000000613
 31
0.0
1001
REVIT
1002
{
1070
     3
1000
790271
1002
}
  0
LINE
  5
B0
330
87
100
AcDbEntity
  8
M-PIPE
100
AcDbLine
 10
1302.666407443118
 20
251.2250000000671
 30
0.0
 11
1218.666407443118
 21
251.2250000000585
 31
0.0
1001
REVIT
1002
{
1070
     3
1000
790271
1002
}
  0
LINE
  5
B1
330
87
100
AcDbEntity
  8
M-PIPE
100
AcDbLine
 10
1200.666407443125
 20
262.1250000000617
 30
0.0
 11
1218.704907922766
 21
262.1250000000617
 31
0.0
1001
REVIT
1002
{
1070
     3
1000
790271
1002
}
  0
LINE
  5
B2
330
87
100
AcDbEntity
  8
M-PIPE
100
AcDbLine
 10
1218.704907922762
 20
292.1250000000616
 30
0.0
 11
1200.666407443125
 21
292.1250000000616
 31
0.0
1001
REVIT
1002
{
1070
     3
1000
790271
1002
}
  0
LINE
  5
B3
330
87
100
AcDbEntity
  8
M-PIPE
100
AcDbLine
 10
904.1664074431293
 20
876.7500000000953
 30
0.0
 11
904.1664074431293
 21
874.2500000000955
 31
0.0
1001
REVIT
1002
{
1070
     3
1000
790271
1002
}
  0
LINE
  5
B4
330
87
100
AcDbEntity
  8
M-PIPE
100
AcDbLine
 10
929.1664074431174
 20
874.2500000000946
 30
0.0
 11
929.1664074431174
 21
876.7500000000946
 31
0.0
1001
REVIT
1002
{
1070
     3
1000
790271
1002
}
  0
LINE
  5
B5
330
87
100
AcDbEntity
  8
M-PIPE
100
AcDbLine
 10
904.6664074431294
 20
877.2500000000952
 30
0.0
 11
904.2139737169824
 21
876.7975662739486
 31
0.0
1001
REVIT
1002
{
1070
     3
1000
790271
1002
}
  0
LINE
  5
B6
330
87
100
AcDbEntity
  8
M-PIPE
100
AcDbLine
 10
904.2048471603722
 20
876.7884397173386
 30
0.0
 11
904.1664074431292
 21
876.7500000000953
 31
0.0
1001
REVIT
1002
{
1070
     3
1000
790271
1002
}
  0
LINE
  5
B7
330
87
100
AcDbEntity
  8
M-PIPE
100
AcDbLine
 10
929.1664074431176
 20
876.7500000000946
 30
0.0
 11
928.6664074431175
 21
877.2500000000947
 31
0.0
1001
REVIT
1002
{
1070
     3
1000
790271
1002
}
  0
LINE
  5
B8
330
87
100
AcDbEntity
  8
M-PIPE
100
AcDbLine
 10
907.6664074431237
 20
881.5500000001279
 30
0.0
 11
906.2741025977205
 21
880.7461524228404
 31
0.0
1001
REVIT
1002
{
1070
     3
1000
790271
1002
}
  0
LINE
  5
B9
330
87
100
AcDbEntity
  8
M-PIPE
100
AcDbLine
 10
927.0587122885592
 20
880.7461524228211
 30
0.0
 11
925.6664074431233
 21
881.5500000001273
 31
0.0
1001
REVIT
1002
{
1070
     3
1000
790271
1002
}
  0
LINE
  5
BA
330
87
100
AcDbEntity
  8
M-PIPE
100
AcDbLine
 10
929.166407443116
 20
874.2500000000953
 30
0.0
 11
904.1664074431277
 21
874.250000000096
 31
0.0
1001
REVIT
1002
{
1070
     3
1000
790271
1002
}
  0
LINE
  5
BB
330
87
100
AcDbEntity
  8
M-PIPE
100
AcDbLine
 10
904.6664074431278
 20
877.250000000096
 30
0.0
 11
928.6664074431161
 21
877.2500000000954
 31
0.0
1001
REVIT
1002
{
1070
     3
1000
790271
1002
}
  0
LINE
  5
BC
330
87
100
AcDbEntity
  8
M-PIPE
100
AcDbLine
 10
929.166407443116
 20
876.7500000000952
 30
0.0
 11
904.1664074431279
 21
876.7500000000961
 31
0.0
1001
REVIT
1002
{
1070
     3
1000
790271
1002
}
  0
LINE
  5
BD
330
87
100
AcDbEntity
  8
M-PIPE
100
AcDbLine
 10
907.6664074431221
 20
881.5500000001286
 30
0.0
 11
908.8721788090619
 21
881.5500000001284
 31
0.0
1001
REVIT
1002
{
1070
     3
1000
790271
1002
}
  0
LINE
  5
BE
330
87
100
AcDbEntity
  8
M-PIPE
100
AcDbLine
 10
908.8721788090619
 20
881.5500000001284
 30
0.0
 11
916.6664074431221
 21
881.5500000001279
 31
0.0
1001
REVIT
1002
{
1070
     3
1000
790271
1002
}
  0
LINE
  5
BF
330
87
100
AcDbEntity
  8
M-PIPE
100
AcDbLine
 10
916.6664074431221
 20
881.5500000001279
 30
0.0
 11
924.460636077182
 21
881.5500000001279
 31
0.0
1001
REVIT
1002
{
1070
     3
1000
790271
1002
}
  0
LINE
  5
C0
330
87
100
AcDbEntity
  8
M-PIPE
100
AcDbLine
 10
924.460636077182
 20
881.5500000001279
 30
0.0
 11
925.6664074431219
 21
881.5500000001279
 31
0.0
1001
REVIT
1002
{
1070
     3
1000
790271
1002
}
  0
LINE
  5
C1
330
87
100
AcDbEntity
  8
M-PIPE
100
AcDbLine
 10
921.8625598658409
 20
877.2500000000647
 30
0.0
 11
921.8625598658409
 21
880.7461524228225
 31
0.0
1001
REVIT
1002
{
1070
     3
1000
790271
1002
}
  0
SPLINE
  5
C2
330
87
100
AcDbEntity
  8
M-PIPE
100
AcDbSpline
210
0.0
220
0.0
230
1.0
 70
     8
 71
     3
 72
     9
 73
     5
 74
     0
 42
0.000000001
 43
0.0000000001
 40
0.0
 40
0.0
 40
0.0
 40
0.0
 40
0.5
 40
1.0
 40
1.0
 40
1.0
 40
1.0
 10
921.8625598658409
 20
880.7461524228225
 30
0.0
 10
921.0028211263312
 20
881.0056181932885
 30
0.0
 10
919.2770569830353
 20
881.3990585599723
 30
0.0
 10
917.5387195111854
 20
881.541516578159
 30
0.0
 10
916.6664074431219
 20
881.550000000128
 30
0.0
1001
REVIT
1002
{
1070
     3
1000
790271
1002
}
  0
SPLINE
  5
C3
330
87
100
AcDbEntity
  8
M-PIPE
100
AcDbSpline
210
0.0
220
0.0
230
1.0
 70
     8
 71
     3
 72
     9
 73
     5
 74
     0
 42
0.000000001
 43
0.0000000001
 40
0.0
 40
0.0
 40
0.0
 40
0.0
 40
0.5
 40
1.0
 40
1.0
 40
1.0
 40
1.0
 10
916.6664074431219
 20
881.5500000001279
 30
0.0
 10
915.794095375063
 20
881.5415165781592
 30
0.0
 10
914.0557579032217
 20
881.3990585599739
 30
0.0
 10
912.3299937599332
 20
881.0056181932933
 30
0.0
 10
911.4702550204276
 20
880.7461524228298
 30
0.0
1001
REVIT
1002
{
1070
     3
1000
790271
1002
}
  0
LINE
  5
C4
330
87
100
AcDbEntity
  8
M-PIPE
100
AcDbLine
 10
911.4702550204276
 20
880.7461524228299
 30
0.0
 11
911.4702550204276
 21
877.250000000065
 31
0.0
1001
REVIT
1002
{
1070
     3
1000
790271
1002
}
  0
SPLINE
  5
C5
330
87
100
AcDbEntity
  8
M-PIPE
100
AcDbSpline
210
0.0
220
0.0
230
1.0
 70
     8
 71
     3
 72
     9
 73
     5
 74
     0
 42
0.000000001
 43
0.0000000001
 40
0.0
 40
0.0
 40
0.0
 40
0.0
 40
0.5
 40
1.0
 40
1.0
 40
1.0
 40
1.0
 10
911.4702550204276
 20
880.7461524228299
 30
0.0
 10
911.0403856506724
 20
881.005618193299
 30
0.0
 10
910.1775035790236
 20
881.3990585599846
 30
0.0
 10
909.3083348430969
 20
881.5415165781645
 30
0.0
 10
908.8721788090639
 20
881.5500000001286
 30
0.0
1001
REVIT
1002
{
1070
     3
1000
790271
1002
}
  0
SPLINE
  5
C6
330
87
100
AcDbEntity
  8
M-PIPE
100
AcDbSpline
210
0.0
220
0.0
230
1.0
 70
     8
 71
     3
 72
     9
 73
     5
 74
     0
 42
0.000000001
 43
0.0000000001
 40
0.0
 40
0.0
 40
0.0
 40
0.0
 40
0.5
 40
1.0
 40
1.0
 40
1.0
 40
1.0
 10
908.8721788090639
 20
881.5500000001284
 30
0.0
 10
908.4360227750337
 20
881.541516578164
 30
0.0
 10
907.5668540391118
 20
881.3990585599857
 30
0.0
 10
906.7039719674667
 20
881.0056181933077
 30
0.0
 10
906.2741025977132
 20
880.7461524228447
 30
0.0
1001
REVIT
1002
{
1070
     3
1000
790271
1002
}
  0
LINE
  5
C7
330
87
100
AcDbEntity
  8
M-PIPE
100
AcDbLine
 10
906.2741025977249
 20
880.7461524228445
 30
0.0
 11
906.274102597721
 21
877.250000000065
 31
0.0
1001
REVIT
1002
{
1070
     3
1000
790271
1002
}
  0
LINE
  5
C8
330
87
100
AcDbEntity
  8
M-PIPE
100
AcDbLine
 10
927.0587122885515
 20
880.7461524228253
 30
0.0
 11
927.0587122885475
 21
877.2500000000649
 31
0.0
1001
REVIT
1002
{
1070
     3
1000
790271
1002
}
  0
SPLINE
  5
C9
330
87
100
AcDbEntity
  8
M-PIPE
100
AcDbSpline
210
0.0
220
0.0
230
1.0
 70
     8
 71
     3
 72
     9
 73
     5
 74
     0
 42
0.000000001
 43
0.0000000001
 40
0.0
 40
0.0
 40
0.0
 40
0.0
 40
0.5
 40
1.0
 40
1.0
 40
1.0
 40
1.0
 10
927.0587122885515
 20
880.7461524228253
 30
0.0
 10
926.6288429187978
 20
881.00561819329
 30
0.0
 10
925.7659608471517
 20
881.3990585599718
 30
0.0
 10
924.8967921112289
 20
881.5415165781583
 30
0.0
 10
924.4606360771983
 20
881.550000000128
 30
0.0
1001
REVIT
1002
{
1070
     3
1000
790271
1002
}
  0
SPLINE
  5
CA
330
87
100
AcDbEntity
  8
M-PIPE
100
AcDbSpline
210
0.0
220
0.0
230
1.0
 70
     8
 71
     3
 72
     9
 73
     5
 74
     0
 42
0.000000001
 43
0.0000000001
 40
0.0
 40
0.0
 40
0.0
 40
0.0
 40
0.5
 40
1.0
 40
1.0
 40
1.0
 40
1.0
 10
924.4606360771983
 20
881.5500000001279
 30
0.0
 10
924.0244800431669
 20
881.5415165781583
 30
0.0
 10
923.1553113072429
 20
881.3990585599711
 30
0.0
 10
922.2924292355953
 20
881.0056181932877
 30
0.0
 10
921.8625598658409
 20
880.7461524228225
 30
0.0
1001
REVIT
1002
{
1070
     3
1000
790271
1002
}
  0
LINE
  5
CB
330
87
100
AcDbEntity
  8
M-PIPE
100
AcDbLine
 10
1592.166407443135
 20
876.7500000000882
 30
0.0
 11
1592.166407443135
 21
874.2500000000882
 31
0.0
1001
REVIT
1002
{
1070
     3
1000
790271
1002
}
  0
LINE
  5
CC
330
87
100
AcDbEntity
  8
M-PIPE
100
AcDbLine
 10
1617.166407443124
 20
874.2500000000877
 30
0.0
 11
1617.166407443124
 21
876.7500000000877
 31
0.0
1001
REVIT
1002
{
1070
     3
1000
790271
1002
}
  0
LINE
  5
CD
330
87
100
AcDbEntity
  8
M-PIPE
100
AcDbLine
 10
1592.666407443136
 20
877.2500000000883
 30
0.0
 11
1592.213973716989
 21
876.7975662739416
 31
0.0
1001
REVIT
1002
{
1070
     3
1000
790271
1002
}
  0
LINE
  5
CE
330
87
100
AcDbEntity
  8
M-PIPE
100
AcDbLine
 10
1592.204847160379
 20
876.7884397173322
 30
0.0
 11
1592.166407443135
 21
876.7500000000882
 31
0.0
1001
REVIT
1002
{
1070
     3
1000
790271
1002
}
  0
LINE
  5
CF
330
87
100
AcDbEntity
  8
M-PIPE
100
AcDbLine
 10
1617.166407443124
 20
876.7500000000879
 30
0.0
 11
1617.127967725881
 21
876.7884397173308
 31
0.0
1001
REVIT
1002
{
1070
     3
1000
790271
1002
}
  0
LINE
  5
D0
330
87
100
AcDbEntity
  8
M-PIPE
100
AcDbLine
 10
1617.11884116927
 20
876.7975662739409
 30
0.0
 11
1616.666407443124
 21
877.2500000000878
 31
0.0
1001
REVIT
1002
{
1070
     3
1000
790271
1002
}
  0
LINE
  5
D1
330
87
100
AcDbEntity
  8
M-PIPE
100
AcDbLine
 10
1595.66640744313
 20
881.5500000001206
 30
0.0
 11
1594.274102597738
 21
880.7461524228399
 31
0.0
1001
REVIT
1002
{
1070
     3
1000
790271
1002
}
  0
LINE
  5
D2
330
87
100
AcDbEntity
  8
M-PIPE
100
AcDbLine
 10
1615.058712288563
 20
880.7461524228155
 30
0.0
 11
1613.66640744313
 21
881.5500000001206
 31
0.0
1001
REVIT
1002
{
1070
     3
1000
790271
1002
}
  0
LINE
  5
D3
330
87
100
AcDbEntity
  8
M-PIPE
100
AcDbLine
 10
1598.41640744313
 20
874.2500000000886
 30
0.0
 11
1592.166407443133
 21
874.2500000000889
 31
0.0
1001
REVIT
1002
{
1070
     3
1000
790271
1002
}
  0
LINE
  5
D4
330
87
100
AcDbEntity
  8
M-PIPE
100
AcDbLine
 10
1617.166407443121
 20
874.2500000000884
 30
0.0
 11
1598.41640744313
 21
874.2500000000886
 31
0.0
1001
REVIT
1002
{
1070
     3
1000
790271
1002
}
  0
LINE
  5
D5
330
87
100
AcDbEntity
  8
M-PIPE
100
AcDbLine
 10
1592.666407443133
 20
877.2500000000887
 30
0.0
 11
1598.66640744313
 21
877.2500000000885
 31
0.0
1001
REVIT
1002
{
1070
     3
1000
790271
1002
}
  0
LINE
  5
D6
330
87
100
AcDbEntity
  8
M-PIPE
100
AcDbLine
 10
1598.66640744313
 20
877.2500000000885
 30
0.0
 11
1616.666407443122
 21
877.2500000000885
 31
0.0
1001
REVIT
1002
{
1070
     3
1000
790271
1002
}
  0
LINE
  5
D7
330
87
100
AcDbEntity
  8
M-PIPE
100
AcDbLine
 10
1598.41640744313
 20
876.7500000000886
 30
0.0
 11
1592.166407443133
 21
876.750000000089
 31
0.0
1001
REVIT
1002
{
1070
     3
1000
790271
1002
}
  0
LINE
  5
D8
330
87
100
AcDbEntity
  8
M-PIPE
100
AcDbLine
 10
1617.166407443121
 20
876.7500000000882
 30
0.0
 11
1598.41640744313
 21
876.7500000000886
 31
0.0
1001
REVIT
1002
{
1070
     3
1000
790271
1002
}
  0
LINE
  5
D9
330
87
100
AcDbEntity
  8
M-PIPE
100
AcDbLine
 10
1595.666407443127
 20
881.5500000001213
 30
0.0
 11
1596.872178809067
 21
881.5500000001213
 31
0.0
1001
REVIT
1002
{
1070
     3
1000
790271
1002
}
  0
LINE
  5
DA
330
87
100
AcDbEntity
  8
M-PIPE
100
AcDbLine
 10
1596.872178809067
 20
881.5500000001213
 30
0.0
 11
1600.166407443127
 21
881.5500000001213
 31
0.0
1001
REVIT
1002
{
1070
     3
1000
790271
1002
}
  0
LINE
  5
DB
330
87
100
AcDbEntity
  8
M-PIPE
100
AcDbLine
 10
1600.166407443127
 20
881.5500000001213
 30
0.0
 11
1604.666407443127
 21
881.5500000001209
 31
0.0
1001
REVIT
1002
{
1070
     3
1000
790271
1002
}
  0
LINE
  5
DC
330
87
100
AcDbEntity
  8
M-PIPE
100
AcDbLine
 10
1604.666407443127
 20
881.5500000001209
 30
0.0
 11
1612.460636077187
 21
881.5500000001209
 31
0.0
1001
REVIT
1002
{
1070
     3
1000
790271
1002
}
  0
LINE
  5
DD
330
87
100
AcDbEntity
  8
M-PIPE
100
AcDbLine
 10
1612.460636077187
 20
881.5500000001209
 30
0.0
 11
1613.666407443127
 21
881.5500000001209
 31
0.0
1001
REVIT
1002
{
1070
     3
1000
790271
1002
}
  0
LINE
  5
DE
330
87
100
AcDbEntity
  8
M-PIPE
100
AcDbLine
 10
1615.058712288561
 20
877.2500000000578
 30
0.0
 11
1615.058712288561
 21
880.7461524228155
 31
0.0
1001
REVIT
1002
{
1070
     3
1000
790271
1002
}
  0
SPLINE
  5
DF
330
87
100
AcDbEntity
  8
M-PIPE
100
AcDbSpline
210
0.0
220
0.0
230
1.0
 70
     8
 71
     3
 72
     9
 73
     5
 74
     0
 42
0.000000001
 43
0.0000000001
 40
0.0
 40
0.0
 40
0.0
 40
0.0
 40
0.5
 40
1.0
 40
1.0
 40
1.0
 40
1.0
 10
1615.058712288561
 20
880.7461524228155
 30
0.0
 10
1614.628842918807
 20
881.0056181932818
 30
0.0
 10
1613.765960847159
 20
881.3990585599658
 30
0.0
 10
1612.896792111234
 20
881.5415165781523
 30
0.0
 10
1612.460636077202
 20
881.5500000001208
 30
0.0
1001
REVIT
1002
{
1070
     3
1000
790271
1002
}
  0
SPLINE
  5
E0
330
87
100
AcDbEntity
  8
M-PIPE
100
AcDbSpline
210
0.0
220
0.0
230
1.0
 70
     8
 71
     3
 72
     9
 73
     5
 74
     0
 42
0.000000001
 43
0.0000000001
 40
0.0
 40
0.0
 40
0.0
 40
0.0
 40
0.5
 40
1.0
 40
1.0
 40
1.0
 40
1.0
 10
1612.460636077202
 20
881.5500000001209
 30
0.0
 10
1612.024480043173
 20
881.5415165781521
 30
0.0
 10
1611.155311307252
 20
881.3990585599672
 30
0.0
 10
1610.292429235607
 20
881.0056181932871
 30
0.0
 10
1609.862559865854
 20
880.7461524228228
 30
0.0
1001
REVIT
1002
{
1070
     3
1000
790271
1002
}
  0
LINE
  5
E1
330
87
100
AcDbEntity
  8
M-PIPE
100
AcDbLine
 10
1609.862559865854
 20
880.7461524228228
 30
0.0
 11
1609.862559865854
 21
877.2500000000578
 31
0.0
1001
REVIT
1002
{
1070
     3
1000
790271
1002
}
  0
SPLINE
  5
E2
330
87
100
AcDbEntity
  8
M-PIPE
100
AcDbSpline
210
0.0
220
0.0
230
1.0
 70
     8
 71
     3
 72
     9
 73
     5
 74
     0
 42
0.000000001
 43
0.0000000001
 40
0.0
 40
0.0
 40
0.0
 40
0.0
 40
0.5
 40
1.0
 40
1.0
 40
1.0
 40
1.0
 10
1609.862559865854
 20
880.7461524228228
 30
0.0
 10
1609.002821126344
 20
881.0056181932919
 30
0.0
 10
1607.277056983046
 20
881.3990585599775
 30
0.0
 10
1605.538719511192
 20
881.5415165781573
 30
0.0
 10
1604.666407443128
 20
881.5500000001213
 30
0.0
1001
REVIT
1002
{
1070
     3
1000
790271
1002
}
  0
SPLINE
  5
E3
330
87
100
AcDbEntity
  8
M-PIPE
100
AcDbSpline
210
0.0
220
0.0
230
1.0
 70
     8
 71
     3
 72
     9
 73
     5
 74
     0
 42
0.000000001
 43
0.0000000001
 40
0.0
 40
0.0
 40
0.0
 40
0.0
 40
0.5
 40
1.0
 40
1.0
 40
1.0
 40
1.0
 10
1604.666407443127
 20
881.5500000001209
 30
0.0
 10
1603.794095375067
 20
881.5415165781567
 30
0.0
 10
1602.055757903223
 20
881.399058559978
 30
0.0
 10
1600.329993759932
 20
881.0056181933008
 30
0.0
 10
1599.470255020426
 20
880.746152422837
 30
0.0
1001
REVIT
1002
{
1070
     3
1000
790271
1002
}
  0
LINE
  5
E4
330
87
100
AcDbEntity
  8
M-PIPE
100
AcDbLine
 10
1599.470255020437
 20
880.746152422837
 30
0.0
 11
1599.470255020441
 21
877.2500000000578
 31
0.0
1001
REVIT
1002
{
1070
     3
1000
790271
1002
}
  0
SPLINE
  5
E5
330
87
100
AcDbEntity
  8
M-PIPE
100
AcDbSpline
210
0.0
220
0.0
230
1.0
 70
     8
 71
     3
 72
     9
 73
     5
 74
     0
 42
0.000000001
 43
0.0000000001
 40
0.0
 40
0.0
 40
0.0
 40
0.0
 40
0.5
 40
1.0
 40
1.0
 40
1.0
 40
1.0
 10
1599.470255020437
 20
880.746152422837
 30
0.0
 10
1599.040385650684
 20
881.0056181933063
 30
0.0
 10
1598.177503579039
 20
881.3990585599894
 30
0.0
 10
1597.308334843115
 20
881.5415165781624
 30
0.0
 10
1596.872178809084
 20
881.5500000001213
 30
0.0
1001
REVIT
1002
{
1070
     3
1000
790271
1002
}
  0
SPLINE
  5
E6
330
87
100
AcDbEntity
  8
M-PIPE
100
AcDbSpline
210
0.0
220
0.0
230
1.0
 70
     8
 71
     3
 72
     9
 73
     5
 74
     0
 42
0.000000001
 43
0.0000000001
 40
0.0
 40
0.0
 40
0.0
 40
0.0
 40
0.5
 40
1.0
 40
1.0
 40
1.0
 40
1.0
 10
1596.872178809084
 20
881.5500000001213
 30
0.0
 10
1596.436022775053
 20
881.5415165781626
 30
0.0
 10
1595.566854039131
 20
881.3990585599901
 30
0.0
 10
1594.703971967487
 20
881.0056181933086
 30
0.0
 10
1594.274102597735
 20
880.7461524228399
 30
0.0
1001
REVIT
1002
{
1070
     3
1000
790271
1002
}
  0
LINE
  5
E7
330
87
100
AcDbEntity
  8
M-PIPE
100
AcDbLine
 10
1594.274102597735
 20
880.7461524228401
 30
0.0
 11
1594.274102597735
 21
877.2500000000581
 31
0.0
1001
REVIT
1002
{
1070
     3
1000
790271
1002
}
  0
LINE
  5
E8
330
87
100
AcDbEntity
  8
M-PIPE
100
AcDbLine
 10
858.0475037938974
 20
5.99999999995857
 30
0.0
 11
858.0475037938974
 21
-0.0000000000289667
 31
0.0
1001
REVIT
1002
{
1070
     3
1000
790271
1002
}
  0
LINE
  5
E9
330
87
100
AcDbEntity
  8
M-PIPE
100
AcDbLine
 10
902.6885199452779
 20
5.999999999959787
 30
0.0
 11
1018.735924052392
 21
439.9999999999961
 31
0.0
1001
REVIT
1002
{
1070
     3
1000
790271
1002
}
  0
LINE
  5
EA
330
87
100
AcDbEntity
  8
M-PIPE
100
AcDbLine
 10
1018.735924052392
 20
439.9999999999961
 30
0.0
 11
1018.735924052392
 21
499.9999999999959
 31
0.0
1001
REVIT
1002
{
1070
     3
1000
790271
1002
}
  0
LINE
  5
EB
330
87
100
AcDbEntity
  8
M-PIPE
100
AcDbLine
 10
998.3102982101888
 20
5.999999999960262
 30
0.0
 11
1146.056432128079
 21
301.4922678357434
 31
0.0
1001
REVIT
1002
{
1070
     3
1000
790271
1002
}
  0
ELLIPSE
  5
EC
330
87
100
AcDbEntity
  8
M-PIPE
100
AcDbEllipse
 10
1071.056432128079
 20
351.4922678357436
 30
0.0
 11
0.0
 21
99.99999999999992
 31
0.0
210
0.0
220
0.0
230
1.0
 40
0.8660254037844417
 41
4.188790204786371
 42
4.712388980384669
1001
REVIT
1002
{
1070
     3
1000
790271
1002
}
  0
LINE
  5
ED
330
87
100
AcDbEntity
  8
M-PIPE
100
AcDbLine
 10
1157.658972506523
 20
351.4922678357428
 30
0.0
 11
1157.658972506523
 21
370.5343633584935
 31
0.0
1001
REVIT
1002
{
1070
     3
1000
790271
1002
}
  0
ELLIPSE
  5
EE
330
87
100
AcDbEntity
  8
M-PIPE
100
AcDbEllipse
 10
1171.752087255567
 20
549.2193216575071
 30
0.0
 11
0.0
 21
169.9999999999998
 31
0.0
210
0.0
220
0.0
230
1.0
 40
0.8660254037844408
 41
2.268509050214315
 42
2.31388814009016
1001
REVIT
1002
{
1070
     3
1000
790271
1002
}
  0
LINE
  5
EF
330
87
100
AcDbEntity
  8
M-PIPE
100
AcDbLine
 10
1058.932076475099
 20
439.9999999999972
 30
0.0
 11
1058.932076475098
 21
499.9999999999966
 31
0.0
1001
REVIT
1002
{
1070
     3
1000
790271
1002
}
  0
LINE
  5
F0
330
87
100
AcDbEntity
  8
M-PIPE
100
AcDbLine
 10
1058.932076475098
 20
499.9999999999966
 30
0.0
 11
1053.735924052392
 21
499.9999999999966
 31
0.0
1001
REVIT
1002
{
1070
     3
1000
790271
1002
}
  0
LINE
  5
F1
330
87
100
AcDbEntity
  8
M-PIPE
100
AcDbLine
 10
1053.735924052392
 20
499.9999999999966
 30
0.0
 11
1053.735924052392
 21
439.9999999999968
 31
0.0
1001
REVIT
1002
{
1070
     3
1000
790271
1002
}
  0
LINE
  5
F2
330
87
100
AcDbEntity
  8
M-PIPE
100
AcDbLine
 10
1053.735924052392
 20
439.9999999999968
 30
0.0
 11
937.6885199452781
 21
5.999999999960464
 31
0.0
1001
REVIT
1002
{
1070
     3
1000
790271
1002
}
  0
LINE
  5
F3
330
87
100
AcDbEntity
  8
M-PIPE
100
AcDbLine
 10
937.6885199452781
 20
5.999999999960478
 30
0.0
 11
903.0475037938963
 21
5.999999999960607
 31
0.0
1001
REVIT
1002
{
1070
     3
1000
790271
1002
}
  0
LINE
  5
F4
330
87
100
AcDbEntity
  8
M-PIPE
100
AcDbLine
 10
903.0475037938963
 20
-0.0000000000266075
 30
0.0
 11
937.6885199452782
 21
-0.0000000000011665
 31
0.0
1001
REVIT
1002
{
1070
     3
1000
790271
1002
}
  0
LINE
  5
F5
330
87
100
AcDbEntity
  8
M-PIPE
100
AcDbLine
 10
937.6885199452782
 20
-0.0000000000011665
 30
0.0
 11
998.3102982101888
 21
-0.0000000000013927
 31
0.0
1001
REVIT
1002
{
1070
     3
1000
790271
1002
}
  0
LINE
  5
F6
330
87
100
AcDbEntity
  8
M-PIPE
100
AcDbLine
 10
998.3102982101888
 20
-0.0000000000013927
 30
0.0
 11
998.3102982101888
 21
5.999999999960253
 31
0.0
1001
REVIT
1002
{
1070
     3
1000
790271
1002
}
  0
LINE
  5
F7
330
87
100
AcDbEntity
  8
M-PIPE
100
AcDbLine
 10
903.0475037938964
 20
-0.0000000000395334
 30
0.0
 11
875.7269957182074
 21
-0.0000000000395334
 31
0.0
1001
REVIT
1002
{
1070
     3
1000
790271
1002
}
  0
LINE
  5
F8
330
87
100
AcDbEntity
  8
M-PIPE
100
AcDbLine
 10
875.7269957182117
 20
-0.0000000000395334
 30
0.0
 11
860.7269957182115
 21
-0.0000000000398417
 31
0.0
1001
REVIT
1002
{
1070
     3
1000
790271
1002
}
  0
LINE
  5
F9
330
87
100
AcDbEntity
  8
M-PIPE
100
AcDbLine
 10
860.726995718207
 20
-0.0000000000273267
 30
0.0
 11
858.047503793896
 21
-0.0000000000273267
 31
0.0
1001
REVIT
1002
{
1070
     3
1000
790271
1002
}
  0
LINE
  5
FA
330
87
100
AcDbEntity
  8
M-PIPE
100
AcDbLine
 10
858.047503793896
 20
5.999999999960158
 30
0.0
 11
860.726995718207
 21
5.999999999960158
 31
0.0
1001
REVIT
1002
{
1070
     3
1000
790271
1002
}
  0
LINE
  5
FB
330
87
100
AcDbEntity
  8
M-PIPE
100
AcDbLine
 10
875.7269957182074
 20
5.999999999960607
 30
0.0
 11
903.0475037938963
 21
5.999999999960607
 31
0.0
1001
REVIT
1002
{
1070
     3
1000
790271
1002
}
  0
LINE
  5
FC
330
87
100
AcDbEntity
  8
M-PIPE
100
AcDbLine
 10
860.726995718207
 20
5.999999999960158
 30
0.0
 11
875.7269957182074
 21
5.999999999960467
 31
0.0
1001
REVIT
1002
{
1070
     3
1000
790271
1002
}
  0
LINE
  5
FD
330
87
100
AcDbEntity
  8
M-PIPE
100
AcDbLine
 10
1053.735924052392
 20
499.9999999999966
 30
0.0
 11
1018.735924052392
 21
499.9999999999959
 31
0.0
1001
REVIT
1002
{
1070
     3
1000
790271
1002
}
  0
LINE
  5
FE
330
87
100
AcDbEntity
  8
M-PIPE
100
AcDbLine
 10
1018.735924052392
 20
439.9999999999961
 30
0.0
 11
1053.735924052392
 21
439.9999999999968
 31
0.0
1001
REVIT
1002
{
1070
     3
1000
790271
1002
}
  0
LINE
  5
FF
330
87
100
AcDbEntity
  8
M-PIPE
100
AcDbLine
 10
1663.285311092379
 20
-0.000000000041149
 30
0.0
 11
1663.285311092379
 21
5.99999999995884
 31
0.0
1001
REVIT
1002
{
1070
     3
1000
790271
1002
}
  0
LINE
  5
100
330
87
100
AcDbEntity
  8
M-PIPE
100
AcDbLine
 10
1583.644294940994
 20
-0.0000000000018858
 30
0.0
 11
1618.285311092376
 21
-0.0000000000273267
 31
0.0
1001
REVIT
1002
{
1070
     3
1000
790271
1002
}
  0
LINE
  5
101
330
87
100
AcDbEntity
  8
M-PIPE
100
AcDbLine
 10
1618.285311092376
 20
5.999999999959888
 30
0.0
 11
1583.644294940994
 21
5.999999999959759
 31
0.0
1001
REVIT
1002
{
1070
     3
1000
790271
1002
}
  0
LINE
  5
102
330
87
100
AcDbEntity
  8
M-PIPE
100
AcDbLine
 10
1583.644294940994
 20
5.999999999959787
 30
0.0
 11
1467.596890833876
 21
439.9999999999961
 31
0.0
1001
REVIT
1002
{
1070
     3
1000
790271
1002
}
  0
LINE
  5
103
330
87
100
AcDbEntity
  8
M-PIPE
100
AcDbLine
 10
1467.596890833876
 20
439.9999999999961
 30
0.0
 11
1467.596890833875
 21
499.9999999999959
 31
0.0
1001
REVIT
1002
{
1070
     3
1000
790271
1002
}
  0
LINE
  5
104
330
87
100
AcDbEntity
  8
M-PIPE
100
AcDbLine
 10
1467.596890833875
 20
499.9999999999959
 30
0.0
 11
1462.400738411169
 21
499.9999999999959
 31
0.0
1001
REVIT
1002
{
1070
     3
1000
790271
1002
}
  0
LINE
  5
105
330
87
100
AcDbEntity
  8
M-PIPE
100
AcDbLine
 10
1462.400738411169
 20
499.9999999999959
 30
0.0
 11
1462.400738411169
 21
439.9999999999965
 31
0.0
1001
REVIT
1002
{
1070
     3
1000
790271
1002
}
  0
ELLIPSE
  5
106
330
87
100
AcDbEntity
  8
M-PIPE
100
AcDbEllipse
 10
1349.5807276307
 20
549.2193216575063
 30
0.0
 11
0.0
 21
170.0000000000002
 31
0.0
210
0.0
220
0.0
230
1.0
 40
0.8660254037844371
 41
3.968296844148044
 42
4.014676256965275
1001
REVIT
1002
{
1070
     3
1000
790271
1002
}
  0
LINE
  5
107
330
87
100
AcDbEntity
  8
M-PIPE
100
AcDbLine
 10
1363.673842379745
 20
370.5418037004592
 30
0.0
 11
1363.673842379746
 21
351.492267835742
 31
0.0
1001
REVIT
1002
{
1070
     3
1000
790271
1002
}
  0
ELLIPSE
  5
108
330
87
100
AcDbEntity
  8
M-PIPE
100
AcDbEllipse
 10
1450.27638275819
 20
351.4922678357428
 30
0.0
 11
0.0
 21
100.0
 31
0.0
210
0.0
220
0.0
230
1.0
 40
0.8660254037844399
 41
1.5707963267949
 42
2.0943951023932
1001
REVIT
1002
{
1070
     3
1000
790271
1002
}
  0
LINE
  5
109
330
87
100
AcDbEntity
  8
M-PIPE
100
AcDbLine
 10
1375.27638275819
 20
301.4922678357427
 30
0.0
 11
1523.022516676084
 21
5.999999999959517
 31
0.0
1001
REVIT
1002
{
1070
     3
1000
790271
1002
}
  0
LINE
  5
10A
330
87
100
AcDbEntity
  8
M-PIPE
100
AcDbLine
 10
1523.022516676084
 20
5.999999999959534
 30
0.0
 11
1523.022516676084
 21
-0.0000000000021118
 31
0.0
1001
REVIT
1002
{
1070
     3
1000
790271
1002
}
  0
LINE
  5
10B
330
87
100
AcDbEntity
  8
M-PIPE
100
AcDbLine
 10
1523.022516676084
 20
-0.000000000002112
 30
0.0
 11
1583.644294940994
 21
-0.0000000000018858
 31
0.0
1001
REVIT
1002
{
1070
     3
1000
790271
1002
}
  0
LINE
  5
10C
330
87
100
AcDbEntity
  8
M-PIPE
100
AcDbLine
 10
1502.596890833876
 20
499.9999999999966
 30
0.0
 11
1502.596890833876
 21
439.9999999999968
 31
0.0
1001
REVIT
1002
{
1070
     3
1000
790271
1002
}
  0
LINE
  5
10D
330
87
100
AcDbEntity
  8
M-PIPE
100
AcDbLine
 10
1502.596890833876
 20
439.9999999999968
 30
0.0
 11
1618.644294940995
 21
5.999999999960464
 31
0.0
1001
REVIT
1002
{
1070
     3
1000
790271
1002
}
  0
LINE
  5
10E
330
87
100
AcDbEntity
  8
M-PIPE
100
AcDbLine
 10
1663.285311092376
 20
-0.0000000000395334
 30
0.0
 11
1660.605819168065
 21
-0.0000000000395334
 31
0.0
1001
REVIT
1002
{
1070
     3
1000
790271
1002
}
  0
LINE
  5
10F
330
87
100
AcDbEntity
  8
M-PIPE
100
AcDbLine
 10
1660.605819168061
 20
-0.0000000000395334
 30
0.0
 11
1645.605819168061
 21
-0.0000000000398417
 31
0.0
1001
REVIT
1002
{
1070
     3
1000
790271
1002
}
  0
LINE
  5
110
330
87
100
AcDbEntity
  8
M-PIPE
100
AcDbLine
 10
1645.605819168065
 20
-0.0000000000273267
 30
0.0
 11
1618.285311092376
 21
-0.0000000000273267
 31
0.0
1001
REVIT
1002
{
1070
     3
1000
790271
1002
}
  0
LINE
  5
111
330
87
100
AcDbEntity
  8
M-PIPE
100
AcDbLine
 10
1618.285311092376
 20
5.999999999960158
 30
0.0
 11
1645.605819168064
 21
5.999999999960158
 31
0.0
1001
REVIT
1002
{
1070
     3
1000
790271
1002
}
  0
LINE
  5
112
330
87
100
AcDbEntity
  8
M-PIPE
100
AcDbLine
 10
1660.605819168065
 20
5.999999999960607
 30
0.0
 11
1663.285311092376
 21
5.999999999960607
 31
0.0
1001
REVIT
1002
{
1070
     3
1000
790271
1002
}
  0
LINE
  5
113
330
87
100
AcDbEntity
  8
M-PIPE
100
AcDbLine
 10
1645.605819168065
 20
5.999999999960158
 30
0.0
 11
1660.605819168065
 21
5.999999999960467
 31
0.0
1001
REVIT
1002
{
1070
     3
1000
790271
1002
}
  0
LINE
  5
114
330
87
100
AcDbEntity
  8
M-PIPE
100
AcDbLine
 10
1502.596890833876
 20
499.9999999999966
 30
0.0
 11
1467.596890833876
 21
499.9999999999959
 31
0.0
1001
REVIT
1002
{
1070
     3
1000
790271
1002
}
  0
LINE
  5
115
330
87
100
AcDbEntity
  8
M-PIPE
100
AcDbLine
 10
1467.596890833876
 20
439.9999999999961
 30
0.0
 11
1502.596890833876
 21
439.9999999999968
 31
0.0
1001
REVIT
1002
{
1070
     3
1000
790271
1002
}
  0
LINE
  5
116
330
87
100
AcDbEntity
  8
M-PIPE
100
AcDbLine
 10
1295.66640744312
 20
360.6697988349215
 30
0.0
 11
1295.66640744312
 21
351.492267835742
 31
0.0
1001
REVIT
1002
{
1070
     3
1000
790271
1002
}
  0
LINE
  5
117
330
87
100
AcDbEntity
  8
M-PIPE
100
AcDbLine
 10
1295.66640744312
 20
351.4922678357419
 30
0.0
 11
1295.66640744312
 21
329.1047995642476
 31
0.0
1001
REVIT
1002
{
1070
     3
1000
790271
1002
}
  0
LINE
  5
118
330
87
100
AcDbEntity
  8
M-PIPE
100
AcDbLine
 10
1295.666407443119
 20
244.225000000068
 30
0.0
 11
1295.666407443119
 21
234.6250000001276
 31
0.0
1001
REVIT
1002
{
1070
     3
1000
790271
1002
}
  0
LINE
  5
119
330
87
100
AcDbEntity
  8
M-PIPE
100
AcDbLine
 10
1295.666407443118
 20
215.6250000001275
 30
0.0
 11
1295.666407443116
 21
5.999999999959517
 31
0.0
1001
REVIT
1002
{
1070
     3
1000
790271
1002
}
  0
LINE
  5
11A
330
87
100
AcDbEntity
  8
M-PIPE
100
AcDbLine
 10
1295.666407443116
 20
5.999999999959534
 30
0.0
 11
1295.666407443116
 21
-0.0000000000021118
 31
0.0
1001
REVIT
1002
{
1070
     3
1000
790271
1002
}
  0
LINE
  5
11B
330
87
100
AcDbEntity
  8
M-PIPE
100
AcDbLine
 10
1225.666407443116
 20
5.999999999960262
 30
0.0
 11
1225.666407443118
 21
215.6250000001275
 31
0.0
1001
REVIT
1002
{
1070
     3
1000
790271
1002
}
  0
LINE
  5
11C
330
87
100
AcDbEntity
  8
M-PIPE
100
AcDbLine
 10
1225.666407443118
 20
234.6250000001276
 30
0.0
 11
1225.666407443118
 21
244.2250000000609
 31
0.0
1001
REVIT
1002
{
1070
     3
1000
790271
1002
}
  0
LINE
  5
11D
330
87
100
AcDbEntity
  8
M-PIPE
100
AcDbLine
 10
1225.666407443119
 20
329.104799564247
 30
0.0
 11
1225.666407443119
 21
351.492267835742
 31
0.0
1001
REVIT
1002
{
1070
     3
1000
790271
1002
}
  0
LINE
  5
11E
330
87
100
AcDbEntity
  8
M-PIPE
100
AcDbLine
 10
1225.666407443119
 20
351.4922678357428
 30
0.0
 11
1225.666407443119
 21
360.6697238134175
 31
0.0
1001
REVIT
1002
{
1070
     3
1000
790271
1002
}
  0
LINE
  5
11F
330
87
100
AcDbEntity
  8
M-PIPE
100
AcDbLine
 10
1225.666407443116
 20
-0.0000000000013927
 30
0.0
 11
1225.666407443116
 21
5.999999999960253
 31
0.0
1001
REVIT
1002
{
1070
     3
1000
790271
1002
}
  0
LINE
  5
120
330
87
100
AcDbEntity
  8
M-PIPE
100
AcDbLine
 10
1295.666407443116
 20
5.999999999959485
 30
0.0
 11
1225.666407443116
 21
5.99999999996023
 31
0.0
1001
REVIT
1002
{
1070
     3
1000
790271
1002
}
  0
LINE
  5
121
330
87
100
AcDbEntity
  8
M-PIPE
100
AcDbLine
 10
1295.666407443116
 20
-0.000000000002112
 30
0.0
 11
1225.666407443116
 21
-0.0000000000013927
 31
0.0
1001
REVIT
1002
{
1070
     3
1000
790271
1002
}
  0
LINE
  5
122
330
87
100
AcDbEntity
  8
P-SANR-FIXT
100
AcDbLine
 10
1233.166407443137
 20
1532.625000000128
 30
0.0
 11
1233.166407443137
 21
1524.125000000194
 31
0.0
  0
LINE
  5
123
330
87
100
AcDbEntity
  8
P-SANR-FIXT
100
AcDbLine
 10
1288.166407443129
 20
1524.125000000194
 30
0.0
 11
1288.166407443129
 21
1532.625000000127
 31
0.0
  0
LINE
  5
124
330
87
100
AcDbEntity
  8
P-SANR-FIXT
100
AcDbLine
 10
1233.166407443137
 20
1524.125000000194
 30
0.0
 11
1234.166407443125
 21
1523.125000000207
 31
0.0
  0
LINE
  5
125
330
87
100
AcDbEntity
  8
P-SANR-FIXT
100
AcDbLine
 10
1287.166407443141
 20
1523.125000000206
 30
0.0
 11
1288.166407443129
 21
1524.125000000194
 31
0.0
  0
LINE
  5
126
330
87
100
AcDbEntity
  8
P-SANR-FIXT
100
AcDbLine
 10
1234.947168844483
 20
1523.125000000207
 30
0.0
 11
1234.947168844483
 21
1471.95296577319
 31
0.0
  0
LINE
  5
127
330
87
100
AcDbEntity
  8
P-SANR-FIXT
100
AcDbLine
 10
1286.385646041782
 20
1471.952965773189
 30
0.0
 11
1286.385646041783
 21
1523.125000000206
 31
0.0
  0
LINE
  5
128
330
87
100
AcDbEntity
  8
P-SANR-FIXT
100
AcDbLine
 10
1221.666407443146
 20
1471.95296577319
 30
0.0
 11
1221.666407443146
 21
1465.625000000098
 31
0.0
  0
LINE
  5
129
330
87
100
AcDbEntity
  8
P-SANR-FIXT
100
AcDbLine
 10
1299.666407443119
 20
1465.625000000097
 30
0.0
 11
1299.666407443119
 21
1471.952965773189
 31
0.0
  0
LINE
  5
12A
330
87
100
AcDbEntity
  8
P-SANR-FIXT
100
AcDbLine
 10
1267.166407443128
 20
1550.625000000285
 30
0.0
 11
1267.166407443128
 21
1539.125000000284
 31
0.0
  0
LINE
  5
12B
330
87
100
AcDbEntity
  8
P-SANR-FIXT
100
AcDbLine
 10
1278.166407443128
 20
1539.125000000284
 30
0.0
 11
1278.166407443128
 21
1550.625000000285
 31
0.0
  0
LINE
  5
12C
330
87
100
AcDbEntity
  8
P-SANR-FIXT
100
AcDbLine
 10
1269.666407443128
 20
1539.125000000284
 30
0.0
 11
1269.666407443128
 21
1535.62500000019
 31
0.0
  0
LINE
  5
12D
330
87
100
AcDbEntity
  8
P-SANR-FIXT
100
AcDbLine
 10
1275.666407443128
 20
1535.62500000019
 30
0.0
 11
1275.666407443128
 21
1539.125000000284
 31
0.0
  0
LINE
  5
12E
330
87
100
AcDbEntity
  8
P-SANR-FIXT
100
AcDbLine
 10
1265.416407443128
 20
1535.62500000019
 30
0.0
 11
1265.416407443128
 21
1532.625000000128
 31
0.0
  0
LINE
  5
12F
330
87
100
AcDbEntity
  8
P-SANR-FIXT
100
AcDbLine
 10
1279.916407443128
 20
1532.625000000128
 30
0.0
 11
1279.916407443128
 21
1535.62500000019
 31
0.0
  0
LINE
  5
130
330
87
100
AcDbEntity
  8
P-SANR-FIXT
100
AcDbLine
 10
1233.166407443135
 20
1532.625000000127
 30
0.0
 11
1288.166407443127
 21
1532.625000000127
 31
0.0
  0
LINE
  5
131
330
87
100
AcDbEntity
  8
P-SANR-FIXT
100
AcDbLine
 10
1233.166407443136
 20
1524.125000000194
 30
0.0
 11
1288.166407443127
 21
1524.125000000194
 31
0.0
  0
LINE
  5
132
330
87
100
AcDbEntity
  8
P-SANR-FIXT
100
AcDbLine
 10
1234.166407443124
 20
1523.125000000206
 30
0.0
 11
1287.166407443139
 21
1523.125000000206
 31
0.0
  0
LINE
  5
133
330
87
100
AcDbEntity
  8
P-SANR-FIXT
100
AcDbLine
 10
1221.666407443144
 20
1471.95296577319
 30
0.0
 11
1299.666407443117
 21
1471.952965773189
 31
0.0
  0
LINE
  5
134
330
87
100
AcDbEntity
  8
P-SANR-FIXT
100
AcDbLine
 10
1267.166407443126
 20
1550.625000000285
 30
0.0
 11
1278.166407443126
 21
1550.625000000285
 31
0.0
  0
LINE
  5
135
330
87
100
AcDbEntity
  8
P-SANR-FIXT
100
AcDbLine
 10
1267.166407443126
 20
1539.125000000284
 30
0.0
 11
1278.166407443126
 21
1539.125000000284
 31
0.0
  0
LINE
  5
136
330
87
100
AcDbEntity
  8
P-SANR-FIXT
100
AcDbLine
 10
1265.416407443126
 20
1535.62500000019
 30
0.0
 11
1279.916407443126
 21
1535.62500000019
 31
0.0
  0
LINE
  5
137
330
87
100
AcDbEntity
  8
P-SANR-FIXT
100
AcDbLine
 10
1006.666407443122
 20
834.5500000000654
 30
0.0
 11
935.6664074431257
 21
834.5500000000656
 31
0.0
  0
LINE
  5
138
330
87
100
AcDbEntity
  8
P-SANR-FIXT
100
AcDbLine
 10
935.666407443125
 20
615.4500000000568
 30
0.0
 11
1006.666407443121
 21
615.4500000000564
 31
0.0
  0
LINE
  5
139
330
87
100
AcDbEntity
  8
P-SANR-FIXT
100
AcDbLine
 10
935.6664074431257
 20
834.550000000066
 30
0.0
 11
929.1664074431228
 21
834.5500000000662
 31
0.0
  0
LINE
  5
13A
330
87
100
AcDbEntity
  8
P-SANR-FIXT
100
AcDbLine
 10
904.1664074431224
 20
834.5500000000662
 30
0.0
 11
845.666407443125
 21
834.5500000000663
 31
0.0
  0
LINE
  5
13B
330
87
100
AcDbEntity
  8
P-SANR-FIXT
100
AcDbLine
 10
845.6664074431243
 20
615.4500000000568
 30
0.0
 11
935.666407443125
 21
615.4500000000564
 31
0.0
  0
LINE
  5
13C
330
87
100
AcDbEntity
  8
P-SANR-FIXT
100
AcDbLine
 10
845.6664074431252
 20
900.0000000000618
 30
0.0
 11
815.6664074431251
 21
900.0000000000621
 31
0.0
  0
LINE
  5
13D
330
87
100
AcDbEntity
  8
P-SANR-FIXT
100
AcDbLine
 10
815.6664074431239
 20
550.0000000000615
 30
0.0
 11
845.6664074431241
 21
550.000000000061
 31
0.0
  0
LWPOLYLINE
  5
13E
330
87
100
AcDbEntity
  8
P-SANR-FIXT
100
AcDbPolyline
 90
       21
 70
   128
 43
0.0
 10
1299.837980318386
 20
1465.62500000006
 10
1299.91795898676
 20
1465.623400213382
 10
1299.997809706325
 20
1465.618603412666
 10
1300.077404732964
 20
1465.610617271768
 10
1300.156616731615
 20
1465.599454566812
 10
1300.235318979976
 20
1465.585133155743
 10
1300.31338557124
 20
1465.567675949764
 10
1300.390691615515
 20
1465.547110876682
 10
1300.467113439618
 20
1465.523470836225
 10
1300.542528784937
 20
1465.496793647416
 10
1300.616817003003
 20
1465.467121988066
 10
1300.689859248518
 20
1465.4345033265
 10
1300.761538669469
 20
1465.398989845619
 10
1300.831740594074
 20
1465.360638359416
 10
1300.900352714228
 20
1465.319510222087
 10
1300.967265265177
 20
1465.27567122988
 10
1301.032371201112
 20
1465.229191515829
 10
1301.095566366423
 20
1465.180145437562
 10
1301.156749662329
 20
1465.128611458342
 10
1301.215823208607
 20
1465.074672021542
 10
1301.252193880759
 20
1465.039213562433
  0
LWPOLYLINE
  5
13F
330
87
100
AcDbEntity
  8
P-SANR-FIXT
100
AcDbPolyline
 90
       21
 70
   128
 43
0.0
 10
1220.080621005506
 20
1465.039213562434
 10
1220.138305684271
 20
1465.094635801183
 10
1220.198160519873
 20
1465.147706936155
 10
1220.260089757343
 20
1465.198342064856
 10
1220.323994323111
 20
1465.246460181882
 10
1220.389771983505
 20
1465.291984308511
 10
1220.4573175083
 20
1465.33484161585
 10
1220.526522839065
 20
1465.37496354135
 10
1220.597277262034
 20
1465.412285898491
 10
1220.669467585224
 20
1465.446748979461
 10
1220.742978319516
 20
1465.478297650683
 10
1220.817691863419
 20
1465.506881441013
 10
1220.8934886912
 20
1465.532454622484
 10
1220.970247544103
 20
1465.554976283461
 10
1221.047845624339
 20
1465.574410394091
 10
1221.126158791531
 20
1465.590725863943
 10
1221.205061761319
 20
1465.603896591745
 10
1221.284428305782
 20
1465.613901507142
 10
1221.36413145538
 20
1465.620724604405
 10
1221.444043702077
 20
1465.624354968032
 10
1221.494834567878
 20
1465.625000000061
  0
LWPOLYLINE
  5
140
330
87
100
AcDbEntity
  8
P-SANR-FIXT
100
AcDbPolyline
 90
        3
 70
   128
 43
0.0
 10
1221.494834567878
 20
1465.625000000061
 10
1221.5261676481
 20
1465.625000000061
 10
1221.585302961024
 20
1465.625000000061
  0
LWPOLYLINE
  5
141
330
87
100
AcDbEntity
  8
P-SANR-FIXT
100
AcDbPolyline
 90
        4
 70
   128
 43
0.0
 10
1299.741868606335
 20
1465.62500000006
 10
1299.763702088823
 20
1465.62500000006
 10
1299.828848943445
 20
1465.62500000006
 10
1299.837980318386
 20
1465.62500000006
  0
LWPOLYLINE
  5
142
330
87
100
AcDbEntity
  8
P-SANR-FIXT
100
AcDbPolyline
 90
       80
 70
   128
 43
0.0
 10
1299.837980318386
 20
1465.62500000006
 10
1299.806647238165
 20
1465.62500000006
 10
1299.712698123743
 20
1465.62500000006
 10
1299.556283273664
 20
1465.62500000006
 10
1299.33765291832
 20
1465.62500000006
 10
1299.057156819641
 20
1465.62500000006
 10
1298.715243711551
 20
1465.62500000006
 10
1298.312460582082
 20
1465.62500000006
 10
1297.84945179832
 20
1465.62500000006
 10
1297.326958075551
 20
1465.62500000006
 10
1296.74581529227
 20
1465.62500000006
 10
1296.10695315296
 20
1465.62500000006
 10
1295.411393700762
 20
1465.62500000006
 10
1294.660249682419
 20
1465.62500000006
 10
1293.854722768126
 20
1465.62500000006
 10
1292.99610162911
 20
1465.62500000006
 10
1292.085759876029
 20
1465.62500000006
 10
1291.125153861494
 20
1465.62500000006
 10
1290.115820350209
 20
1465.62500000006
 10
1289.059374060478
 20
1465.62500000006
 10
1287.957505081003
 20
1465.62500000006
 10
1286.811976167098
 20
1465.62500000006
 10
1285.624619920659
 20
1465.62500000006
 10
1284.39733585839
 20
1465.62500000006
 10
1283.132087372984
 20
1465.62500000006
 10
1281.830898592114
 20
1465.62500000006
 10
1280.495851140256
 20
1465.62500000006
 10
1279.129080808538
 20
1465.62500000006
 10
1277.73277413793
 20
1465.62500000006
 10
1276.30916492124
 20
1465.62500000006
 10
1274.860530629529
 20
1465.62500000006
 10
1273.389188768638
 20
1465.62500000006
 10
1271.897493171674
 20
1465.62500000006
 10
1270.387830233383
 20
1465.62500000006
 10
1268.862615092419
 20
1465.62500000006
 10
1267.324287767648
 20
1465.62500000006
 10
1265.775309254629
 20
1465.62500000006
 10
1264.218157588554
 20
1465.62500000006
 10
1262.655323879912
 20
1465.62500000006
 10
1261.08930832925
 20
1465.62500000006
 10
1259.522616227385
 20
1465.62500000006
 10
1257.95775394747
 20
1465.62500000006
 10
1256.397224935331
 20
1465.62500000006
 10
1254.843525704495
 20
1465.62500000006
 10
1253.299141842293
 20
1465.62500000006
 10
1251.766544033452
 20
1465.62500000006
 10
1250.24818410753
 20
1465.62500000006
 10
1248.74649111651
 20
1465.62500000006
 10
1247.263867448832
 20
1465.62500000006
 10
1245.80268498609
 20
1465.62500000006
 10
1244.36528130852
 20
1465.62500000006
 10
1242.953955955377
 20
1465.625000000061
 10
1241.57096674616
 20
1465.625000000061
 10
1240.218526168581
 20
1465.625000000061
 10
1238.89879783906
 20
1465.625000000061
 10
1237.613893041396
 20
1465.625000000061
 10
1236.365867349168
 20
1465.625000000061
 10
1235.156717337251
 20
1465.625000000061
 10
1233.988377387726
 20
1465.625000000061
 10
1232.862716595281
 20
1465.625000000061
 10
1231.781535777054
 20
1465.625000000061
 10
1230.746564591716
 20
1465.625000000061
 10
1229.759458772381
 20
1465.625000000061
 10
1228.821797477788
 20
1465.625000000061
 10
1227.935080765985
 20
1465.625000000061
 10
1227.100727194555
 20
1465.625000000061
 10
1226.320071551227
 20
1465.625000000061
 10
1225.594362718497
 20
1465.625000000061
 10
1224.92476167569
 20
1465.625000000061
 10
1224.312339641633
 20
1465.625000000061
 10
1223.758076360938
 20
1465.625000000061
 10
1223.262858536617
 20
1465.625000000061
 10
1222.827478411548
 20
1465.625000000061
 10
1222.452632501055
 20
1465.625000000061
 10
1222.138920478632
 20
1465.625000000061
 10
1221.886844216594
 20
1465.625000000061
 10
1221.696806983185
 20
1465.625000000061
 10
1221.569112797441
 20
1465.625000000061
 10
1221.503965942819
 20
1465.625000000061
 10
1221.494834567878
 20
1465.625000000061
  0
LINE
  5
143
330
87
100
AcDbEntity
  8
P-SANR-FIXT
100
AcDbLine
 10
1220.080621005506
 20
1465.039213562434
 30
0.0
 11
1217.252193880759
 21
1462.210786437688
 31
0.0
  0
LINE
  5
144
330
87
100
AcDbEntity
  8
P-SANR-FIXT
100
AcDbLine
 10
1304.080621005506
 20
1462.210786437687
 30
0.0
 11
1301.252193880759
 21
1465.039213562433
 31
0.0
  0
LWPOLYLINE
  5
145
330
87
100
AcDbEntity
  8
P-SANR-FIXT
100
AcDbPolyline
 90
       21
 70
   128
 43
0.0
 10
1304.080621005505
 20
1462.210786437687
 10
1304.136043244254
 20
1462.153101758922
 10
1304.189114379227
 20
1462.09324692332
 10
1304.239749507927
 20
1462.03131768585
 10
1304.287867624953
 20
1461.967413120081
 10
1304.333391751582
 20
1461.901635459687
 10
1304.376249058921
 20
1461.834089934893
 10
1304.416370984422
 20
1461.764884604128
 10
1304.453693341562
 20
1461.694130181159
 10
1304.488156422532
 20
1461.621939857969
 10
1304.519705093754
 20
1461.548429123676
 10
1304.548288884084
 20
1461.473715579773
 10
1304.573862065555
 20
1461.397918751992
 10
1304.596383726532
 20
1461.321159899089
 10
1304.615817837162
 20
1461.243561818854
 10
1304.632133307014
 20
1461.165248651662
 10
1304.645304034816
 20
1461.086345681874
 10
1304.655308950214
 20
1461.00697913741
 10
1304.662132047476
 20
1460.927275987812
 10
1304.665762411104
 20
1460.847363741115
 10
1304.666407443132
 20
1460.796572875314
  0
LWPOLYLINE
  5
146
330
87
100
AcDbEntity
  8
P-SANR-FIXT
100
AcDbPolyline
 90
       21
 70
   128
 43
0.0
 10
1216.666407443132
 20
1460.796572875315
 10
1216.668007229811
 20
1460.876551543688
 10
1216.672804030527
 20
1460.956402263253
 10
1216.680790171425
 20
1461.035997289893
 10
1216.691952876381
 20
1461.115209288544
 10
1216.70627428745
 20
1461.193911536905
 10
1216.723731493428
 20
1461.271978128169
 10
1216.744296566511
 20
1461.349284172443
 10
1216.767936606968
 20
1461.425705996547
 10
1216.794613795777
 20
1461.501121341865
 10
1216.824285455127
 20
1461.575409559932
 10
1216.856904116693
 20
1461.648451805447
 10
1216.892417597574
 20
1461.720131226398
 10
1216.930769083777
 20
1461.790333151002
 10
1216.971897221106
 20
1461.858945271156
 10
1217.015736213313
 20
1461.925857822105
 10
1217.062215927364
 20
1461.990963758039
 10
1217.11126200563
 20
1462.054158923352
 10
1217.162795984851
 20
1462.115342219258
 10
1217.21673542165
 20
1462.174415765536
 10
1217.252193880759
 20
1462.210786437688
  0
LINE
  5
147
330
87
100
AcDbEntity
  8
P-SANR-FIXT
100
AcDbLine
 10
1216.666407443128
 20
1460.796572875315
 30
0.0
 11
1216.666407443128
 21
1450.625000000124
 31
0.0
  0
LINE
  5
148
330
87
100
AcDbEntity
  8
P-SANR-FIXT
100
AcDbLine
 10
1304.666407443136
 20
1450.625000000123
 30
0.0
 11
1304.666407443136
 21
1460.796572875314
 31
0.0
  0
LINE
  5
149
330
87
100
AcDbEntity
  8
P-SANR-FIXT
100
AcDbLine
 10
1320.405452603684
 20
1450.310177119408
 30
0.0
 11
1321.116343367445
 21
1450.295957408121
 31
0.0
  0
LWPOLYLINE
  5
14A
330
87
100
AcDbEntity
  8
P-SANR-FIXT
100
AcDbPolyline
 90
        3
 70
   128
 43
0.0
 10
1326.739981146368
 20
1450.183469653775
 10
1327.083952480493
 20
1450.176589309689
 10
1331.740713427219
 20
1449.89684788258
  0
LWPOLYLINE
  5
14B
330
87
100
AcDbEntity
  8
P-SANR-FIXT
100
AcDbPolyline
 90
        3
 70
   128
 43
0.0
 10
1345.852998384734
 20
1449.049093235314
 10
1349.465634227948
 20
1448.832074599836
 10
1356.161527030973
 20
1448.160244391125
  0
LWPOLYLINE
  5
14C
330
87
100
AcDbEntity
  8
P-SANR-FIXT
100
AcDbPolyline
 90
        3
 70
   128
 43
0.0
 10
1366.820535689982
 20
1447.090776252567
 10
1371.775646769206
 20
1446.593606807286
 10
1373.973400097848
 20
1446.283895243474
  0
LWPOLYLINE
  5
14D
330
87
100
AcDbEntity
  8
P-SANR-FIXT
100
AcDbPolyline
 90
        3
 70
   128
 43
0.0
 10
1391.159341555171
 20
1443.862019805973
 10
1393.978298843417
 20
1443.464767002993
 10
1396.739661245642
 20
1442.96228318715
  0
LWPOLYLINE
  5
14E
330
87
100
AcDbEntity
  8
P-SANR-FIXT
100
AcDbPolyline
 90
        3
 70
   128
 43
0.0
 10
1412.187823828633
 20
1440.151188317387
 10
1416.038070943574
 20
1439.450560663193
 10
1419.662464751758
 20
1438.64007581645
  0
LWPOLYLINE
  5
14F
330
87
100
AcDbEntity
  8
P-SANR-FIXT
100
AcDbPolyline
 90
        3
 70
   128
 43
0.0
 10
1428.209794795344
 20
1436.728726816574
 10
1437.919672140152
 20
1434.557409661711
 10
1441.392304425565
 20
1433.633614667297
  0
LWPOLYLINE
  5
150
330
87
100
AcDbEntity
  8
P-SANR-FIXT
100
AcDbPolyline
 90
        3
 70
   128
 43
0.0
 10
1455.063906271038
 20
1429.996674066496
 10
1459.588096539061
 20
1428.793141996333
 10
1480.334614232891
 20
1422.389883666466
  0
LWPOLYLINE
  5
151
330
87
100
AcDbEntity
  8
P-SANR-FIXT
100
AcDbPolyline
 90
        4
 70
   128
 43
0.0
 10
1040.998200653373
 20
1422.38988366647
 10
1062.427158016358
 20
1428.988912684801
 10
1084.102865275807
 20
1434.725733446516
 10
1088.216021196088
 20
1435.640046886443
  0
LWPOLYLINE
  5
152
330
87
100
AcDbEntity
  8
P-SANR-FIXT
100
AcDbPolyline
 90
        3
 70
   128
 43
0.0
 10
1104.023136307579
 20
1439.153810544573
 10
1105.990645924009
 20
1439.591168262187
 10
1109.693995708323
 20
1440.260220726585
  0
LWPOLYLINE
  5
153
330
87
100
AcDbEntity
  8
P-SANR-FIXT
100
AcDbPolyline
 90
        3
 70
   128
 43
0.0
 10
1124.852157160439
 20
1442.998715836671
 10
1128.055484181072
 20
1443.577433474013
 10
1130.458461841212
 20
1443.912962469463
  0
LWPOLYLINE
  5
154
330
87
100
AcDbEntity
  8
P-SANR-FIXT
100
AcDbPolyline
 90
        3
 70
   128
 43
0.0
 10
1147.21504159158
 20
1446.252692240607
 10
1150.2620810127
 20
1446.678151908013
 10
1151.269697315362
 20
1446.777961965563
  0
LINE
  5
155
330
87
100
AcDbEntity
  8
P-SANR-FIXT
100
AcDbLine
 10
1172.006978626668
 20
1448.832106222314
 30
0.0
 11
1172.574910601115
 21
1448.888363076143
 31
0.0
  0
LWPOLYLINE
  5
156
330
87
100
AcDbEntity
  8
P-SANR-FIXT
100
AcDbPolyline
 90
        3
 70
   128
 43
0.0
 10
1192.135623303181
 20
1450.038555775178
 10
1194.958277178792
 20
1450.204531112022
 10
1197.783882629353
 20
1450.259260799357
  0
LWPOLYLINE
  5
157
330
87
100
AcDbEntity
  8
P-SANR-FIXT
100
AcDbPolyline
 90
        8
 70
   128
 43
0.0
 10
1216.666407443139
 20
1450.625000000124
 10
1216.701602750056
 20
1450.625000000124
 10
1216.807132365824
 20
1450.625000000124
 10
1216.982827465568
 20
1450.625000000124
 10
1217.228406974611
 20
1450.625000000124
 10
1217.543478018124
 20
1450.625000000124
 10
1217.927536549649
 20
1450.625000000124
 10
1218.041358524706
 20
1450.625000000124
  0
LWPOLYLINE
  5
158
330
87
100
AcDbEntity
  8
P-SANR-FIXT
100
AcDbPolyline
 90
        8
 70
   128
 43
0.0
 10
1303.289382646175
 20
1450.625000000123
 10
1303.590547936694
 20
1450.625000000123
 10
1303.942929216622
 20
1450.625000000123
 10
1304.226077293546
 20
1450.625000000123
 10
1304.439539190942
 20
1450.625000000123
 10
1304.582973415312
 20
1450.625000000123
 10
1304.656150502494
 20
1450.625000000123
 10
1304.666407443125
 20
1450.625000000123
  0
LWPOLYLINE
  5
159
330
87
100
AcDbEntity
  8
P-SANR-FIXT
100
AcDbPolyline
 90
       80
 70
   128
 43
0.0
 10
1304.666407443125
 20
1450.625000000123
 10
1304.631212136209
 20
1450.625000000123
 10
1304.525682520441
 20
1450.625000000123
 10
1304.349987420696
 20
1450.625000000123
 10
1304.104407911653
 20
1450.625000000123
 10
1303.789336868141
 20
1450.625000000123
 10
1303.405278336615
 20
1450.625000000123
 10
1302.9528467288
 20
1450.625000000123
 10
1302.432765838754
 20
1450.625000000123
 10
1301.845867684955
 20
1450.625000000123
 10
1301.193091179253
 20
1450.625000000123
 10
1300.475480624805
 20
1450.625000000123
 10
1299.694184045415
 20
1450.625000000123
 10
1298.850451348943
 20
1450.625000000123
 10
1297.945632327717
 20
1450.625000000123
 10
1296.981174499153
 20
1450.625000000123
 10
1295.958620790036
 20
1450.625000000123
 10
1294.879607068168
 20
1450.625000000123
 10
1293.745859525327
 20
1450.625000000123
 10
1292.559191915727
 20
1450.625000000123
 10
1291.321502654403
 20
1450.625000000123
 10
1290.034771780146
 20
1450.625000000123
 10
1288.701057787866
 20
1450.625000000123
 10
1287.322494335441
 20
1450.625000000123
 10
1285.901286830317
 20
1450.625000000123
 10
1284.439708901327
 20
1450.625000000123
 10
1282.940098761371
 20
1450.625000000123
 10
1281.404855466774
 20
1450.625000000123
 10
1279.836435079305
 20
1450.625000000123
 10
1278.237346737006
 20
1450.625000000123
 10
1276.610148640104
 20
1450.625000000123
 10
1274.957443958436
 20
1450.625000000123
 10
1273.281876666937
 20
1450.625000000123
 10
1271.586127315835
 20
1450.625000000123
 10
1269.872908742353
 20
1450.625000000123
 10
1268.144961730742
 20
1450.625000000123
 10
1266.40505062761
 20
1450.625000000123
 10
1264.655958919561
 20
1450.625000000123
 10
1262.90048478021
 20
1450.625000000123
 10
1261.141436593696
 20
1450.625000000123
 10
1259.381628461876
 20
1450.625000000123
 10
1257.623875702354
 20
1450.625000000123
 10
1255.870990344579
 20
1450.625000000123
 10
1254.125776631193
 20
1450.625000000123
 10
1252.391026531847
 20
1450.625000000123
 10
1250.669515276638
 20
1450.625000000123
 10
1248.963996916339
 20
1450.625000000123
 10
1247.277199916502
 20
1450.625000000123
 10
1245.611822792495
 20
1450.625000000123
 10
1243.970529792456
 20
1450.625000000123
 10
1242.355946635061
 20
1450.625000000123
 10
1240.770656308935
 20
1450.625000000123
 10
1239.217194940424
 20
1450.625000000123
 10
1237.698047736329
 20
1450.625000000123
 10
1236.215645008109
 20
1450.625000000123
 10
1234.772358283901
 20
1450.625000000124
 10
1233.370496514578
 20
1450.625000000124
 10
1232.012302379925
 20
1450.625000000124
 10
1230.699948700822
 20
1450.625000000124
 10
1229.435534963204
 20
1450.625000000124
 10
1228.221083959322
 20
1450.625000000124
 10
1227.058538551715
 20
1450.625000000124
 10
1225.949758565038
 20
1450.625000000124
 10
1224.896517810742
 20
1450.625000000124
 10
1223.900501249356
 20
1450.625000000124
 10
1222.963302294904
 20
1450.625000000124
 10
1222.086420265789
 20
1450.625000000124
 10
1221.271257986201
 20
1450.625000000124
 10
1220.519119541892
 20
1450.625000000124
 10
1219.831208193928
 20
1450.625000000124
 10
1219.208624453718
 20
1450.625000000124
 10
1218.652364322435
 20
1450.625000000124
 10
1218.163317697628
 20
1450.625000000124
 10
1217.742266949571
 20
1450.625000000124
 10
1217.389885669642
 20
1450.625000000124
 10
1217.106737592719
 20
1450.625000000124
 10
1216.893275695323
 20
1450.625000000124
 10
1216.749841470952
 20
1450.625000000124
 10
1216.67666438377
 20
1450.625000000124
 10
1216.666407443139
 20
1450.625000000124
  0
LWPOLYLINE
  5
15A
330
87
100
AcDbEntity
  8
P-SANR-FIXT
100
AcDbPolyline
 90
       33
 70
   128
 43
0.0
 10
1480.334614232891
 20
1422.389883666466
 10
1482.220840996352
 20
1421.725342251721
 10
1484.078984410875
 20
1420.985903446832
 10
1485.906071843378
 20
1420.172750196147
 10
1487.699180343728
 20
1419.287183371405
 10
1489.455441320833
 20
1418.330619690613
 10
1491.172045131778
 20
1417.304589451607
 10
1492.846245576657
 20
1416.210734083891
 10
1494.4753642919
 20
1415.050803522712
 10
1496.056795035089
 20
1413.82665340953
 10
1497.588007854391
 20
1412.540242123387
 10
1499.066553135935
 20
1411.193627647921
 10
1500.490065522676
 20
1409.78896427903
 10
1501.856267698463
 20
1408.328499178459
 10
1503.162974031256
 20
1406.81456877882
 10
1504.40809406967
 20
1405.249595045798
 10
1505.589635887256
 20
1403.636081603522
 10
1506.705709269154
 20
1401.976609729302
 10
1507.754528736037
 20
1400.273834224134
 10
1508.734416400494
 20
1398.530479165589
 10
1509.643804651293
 20
1396.749333549863
 10
1510.481238661225
 20
1394.933246829985
 10
1511.245378714518
 20
1393.085124357294
 10
1511.935002350093
 20
1391.207922733502
 10
1512.549006317247
 20
1389.304645080759
 10
1513.086408340611
 20
1387.378336237299
 10
1513.546348691589
 20
1385.432077886346
 10
1513.928091563734
 20
1383.468983626084
 10
1514.231026249885
 20
1381.492193988556
 10
1514.454668119166
 20
1379.504871415491
 10
1514.598659392295
 20
1377.510195199065
 10
1514.662769713951
 20
1375.511356395717
 10
1514.666407443129
 20
1374.908231462763
  0
LWPOLYLINE
  5
15B
330
87
100
AcDbEntity
  8
P-SANR-FIXT
100
AcDbPolyline
 90
       33
 70
   128
 43
0.0
 10
1006.666407443133
 20
1374.908231462768
 10
1006.706402110084
 20
1376.9076981721
 10
1006.826322128002
 20
1378.903966161227
 10
1007.02597565044
 20
1380.893841827214
 10
1007.305043274352
 20
1382.874141793481
 10
1007.663078551071
 20
1384.841698002521
 10
1008.099508700532
 20
1386.793362784125
 10
1008.613635527595
 20
1388.726013890974
 10
1009.204636539011
 20
1390.636559493574
 10
1009.871566259237
 20
1392.521943126523
 10
1010.613357742989
 20
1394.379148578201
 10
1011.428824282136
 20
1396.205204716069
 10
1012.31666130417
 20
1397.997190239843
 10
1013.275448459251
 20
1399.752238354955
 10
1014.303651892463
 20
1401.467541358813
 10
1015.39962669765
 20
1403.140355132521
 10
1016.561619548919
 20
1404.768003530888
 10
1017.787771505587
 20
1406.347882663692
 10
1019.076120986089
 20
1407.877465061342
 10
1020.424606906089
 20
1409.354303718296
 10
1021.831071975776
 20
1410.776036007745
 10
1023.293266151068
 20
1412.140387461312
 10
1024.808850233205
 20
1413.445175407717
 10
1026.375399610961
 20
1414.688312464587
 10
1027.990408139511
 20
1415.867809877818
 10
1029.651292149727
 20
1416.981780703163
 10
1031.355394581495
 20
1418.028442824935
 10
1033.099989234447
 20
1419.006121807016
 10
1034.882285129298
 20
1419.913253571594
 10
1036.69943097282
 20
1420.748386901357
 10
1038.5485197193
 20
1421.51018576113
 10
1040.426593221195
 20
1422.197431435245
 10
1040.998200653373
 20
1422.38988366647
  0
LINE
  5
15C
330
87
100
AcDbEntity
  8
P-SANR-FIXT
100
AcDbLine
 10
1006.666407443129
 20
1374.908231462768
 30
0.0
 11
1006.666407443123
 21
834.5500000000654
 31
0.0
  0
LINE
  5
15D
330
87
100
AcDbEntity
  8
P-SANR-FIXT
100
AcDbLine
 10
1006.666407443121
 20
615.4500000000564
 30
0.0
 11
1006.666407443119
 21
456.79722854975
 31
0.0
  0
LINE
  5
15E
330
87
100
AcDbEntity
  8
P-SANR-FIXT
100
AcDbLine
 10
1514.666407443125
 20
456.7972285497446
 30
0.0
 11
1514.666407443127
 21
615.4500000000544
 31
0.0
  0
LINE
  5
15F
330
87
100
AcDbEntity
  8
P-SANR-FIXT
100
AcDbLine
 10
1514.666407443129
 20
834.5500000000642
 30
0.0
 11
1514.666407443134
 21
1374.908231462763
 31
0.0
  0
LINE
  5
160
330
87
100
AcDbEntity
  8
P-SANR-FIXT
100
AcDbLine
 10
1230.516407443107
 20
360.6250000000596
 30
0.0
 11
1230.516407443107
 21
329.1250000000616
 31
0.0
  0
LINE
  5
161
330
87
100
AcDbEntity
  8
P-SANR-FIXT
100
AcDbLine
 10
1290.816407443135
 20
329.1250000000616
 30
0.0
 11
1290.816407443135
 21
360.6250000000591
 31
0.0
  0
LINE
  5
162
330
87
100
AcDbEntity
  8
P-SANR-FIXT
100
AcDbLine
 10
929.1664074431228
 20
834.550000000066
 30
0.0
 11
929.1664074431235
 21
874.250000000066
 31
0.0
  0
LINE
  5
163
330
87
100
AcDbEntity
  8
P-SANR-FIXT
100
AcDbLine
 10
904.1664074431233
 20
874.2500000000665
 30
0.0
 11
904.1664074431226
 21
834.5500000000662
 31
0.0
  0
LINE
  5
164
330
87
100
AcDbEntity
  8
P-SANR-FIXT
100
AcDbLine
 10
1592.166407443129
 20
874.2500000000593
 30
0.0
 11
1592.166407443129
 21
834.5500000000633
 31
0.0
  0
LINE
  5
165
330
87
100
AcDbEntity
  8
P-SANR-FIXT
100
AcDbLine
 10
1617.16640744313
 20
834.5500000000631
 30
0.0
 11
1617.16640744313
 21
874.2500000000593
 31
0.0
  0
LWPOLYLINE
  5
166
330
87
100
AcDbEntity
  8
P-SANR-FIXT
100
AcDbPolyline
 90
        3
 70
   128
 43
0.0
 10
1346.047021788227
 20
362.9764425290749
 10
1345.180008780449
 20
362.8866846828596
 10
1341.21085323275
 20
362.6356673416054
  0
LWPOLYLINE
  5
167
330
87
100
AcDbEntity
  8
P-SANR-FIXT
100
AcDbPolyline
 90
        3
 70
   128
 43
0.0
 10
1322.947900014329
 20
361.4806816260673
 10
1319.054203070147
 20
361.2344364379327
 10
1316.637904496186
 20
361.1784700560701
  0
LWPOLYLINE
  5
168
330
87
100
AcDbEntity
  8
P-SANR-FIXT
100
AcDbPolyline
 90
        3
 70
   128
 43
0.0
 10
1295.1436014696
 20
360.6806183484975
 10
1292.883222910585
 20
360.6282633908152
 10
1290.816407443126
 20
360.6250000000591
  0
LINE
  5
169
330
87
100
AcDbEntity
  8
P-SANR-FIXT
100
AcDbLine
 10
1204.608900362986
 20
361.1432192394033
 30
0.0
 11
1204.343643550805
 21
361.1485250831119
 31
0.0
  0
LWPOLYLINE
  5
16A
330
87
100
AcDbEntity
  8
P-SANR-FIXT
100
AcDbPolyline
 90
        3
 70
   128
 43
0.0
 10
1180.839562584979
 20
362.5604646753503
 10
1178.212750497495
 20
362.7182628038149
 10
1177.230685860757
 20
362.8167979371086
  0
LINE
  5
16B
330
87
100
AcDbEntity
  8
P-SANR-FIXT
100
AcDbLine
 10
1158.984221875955
 20
364.6475509177431
 30
0.0
 11
1157.658972506525
 21
364.780519378656
 31
0.0
  0
LWPOLYLINE
  5
16C
330
87
100
AcDbEntity
  8
P-SANR-FIXT
100
AcDbPolyline
 90
        9
 70
   128
 43
0.0
 10
1290.816407443132
 20
360.6250000000591
 10
1290.79229065896
 20
360.6250000000591
 10
1290.719978888156
 20
360.6250000000591
 10
1290.599587814126
 20
360.6250000000591
 10
1290.431310036906
 20
360.6250000000591
 10
1290.215414765045
 20
360.6250000000591
 10
1289.95224738492
 20
360.6250000000591
 10
1289.642228908201
 20
360.6250000000591
 10
1289.31883969817
 20
360.6250000000591
  0
LWPOLYLINE
  5
16D
330
87
100
AcDbEntity
  8
P-SANR-FIXT
100
AcDbPolyline
 90
       10
 70
   128
 43
0.0
 10
1232.020040331605
 20
360.6250000000599
 10
1231.877239259265
 20
360.6250000000599
 10
1231.542131174312
 20
360.6250000000599
 10
1231.253615718541
 20
360.6250000000596
 10
1231.012154455135
 20
360.6250000000596
 10
1230.818133670607
 20
360.6250000000596
 10
1230.671863756823
 20
360.6250000000596
 10
1230.573578714442
 20
360.6250000000596
 10
1230.523435778566
 20
360.6250000000596
 10
1230.516407443111
 20
360.6250000000596
  0
LWPOLYLINE
  5
16E
330
87
100
AcDbEntity
  8
P-SANR-FIXT
100
AcDbPolyline
 90
       80
 70
   128
 43
0.0
 10
1230.516407443111
 20
360.6250000000596
 10
1230.540524227282
 20
360.6250000000596
 10
1230.612835998087
 20
360.6250000000596
 10
1230.733227072117
 20
360.6250000000596
 10
1230.901504849336
 20
360.6250000000596
 10
1231.117400121197
 20
360.6250000000596
 10
1231.380567501322
 20
360.6250000000596
 10
1231.690585978041
 20
360.6250000000596
 10
1232.046959587926
 20
360.6250000000596
 10
1232.449118209222
 20
360.6250000000596
 10
1232.896418473925
 20
360.6250000000593
 10
1233.38814479703
 20
360.6250000000593
 10
1233.923510521316
 20
360.6250000000593
 10
1234.501659175831
 20
360.6250000000593
 10
1235.121665846058
 20
360.6250000000593
 10
1235.782538653586
 20
360.6250000000593
 10
1236.483220342902
 20
360.6250000000593
 10
1237.222589972773
 20
360.6250000000593
 10
1237.999464709515
 20
360.6250000000593
 10
1238.812601719275
 20
360.6250000000593
 10
1239.660700156297
 20
360.6250000000593
 10
1240.542403243999
 20
360.6250000000593
 10
1241.456300445527
 20
360.6250000000593
 10
1242.400929720315
 20
360.6250000000591
 10
1243.374779863031
 20
360.6250000000591
 10
1244.376292921191
 20
360.6250000000591
 10
1245.403866687548
 20
360.6250000000591
 10
1246.455857263278
 20
360.6250000000591
 10
1247.530581687874
 20
360.6250000000591
 10
1248.626320631518
 20
360.6250000000591
 10
1249.741321145646
 20
360.6250000000591
 10
1250.873799467289
 20
360.6250000000591
 10
1252.021943872715
 20
360.6250000000591
 10
1253.1839175758
 20
360.6250000000591
 10
1254.357861666493
 20
360.6250000000591
 10
1255.541898084677
 20
360.6250000000591
 10
1256.734132624665
 20
360.6250000000591
 10
1257.932657965521
 20
360.6250000000591
 10
1259.135556722373
 20
360.6250000000591
 10
1260.340904513814
 20
360.6250000000585
 10
1261.546773040506
 20
360.6250000000585
 10
1262.751233170042
 20
360.6250000000585
 10
1263.952358023155
 20
360.6250000000585
 10
1265.148226056305
 20
360.6250000000585
 10
1266.336924135744
 20
360.6250000000585
 10
1267.51655059812
 20
360.6250000000585
 10
1268.685218292735
 20
360.6250000000585
 10
1269.841057600579
 20
360.6250000000585
 10
1270.982219425325
 20
360.6250000000585
 10
1272.106878151488
 20
360.6250000000585
 10
1273.213234565022
 20
360.6250000000585
 10
1274.299518731675
 20
360.6250000000585
 10
1275.363992828507
 20
360.6250000000585
 10
1276.404953924041
 20
360.6250000000585
 10
1277.420736702583
 20
360.6250000000585
 10
1278.409716128376
 20
360.6250000000585
 10
1279.37031004531
 20
360.6250000000585
 10
1280.300981708033
 20
360.6250000000585
 10
1281.200242240419
 20
360.6250000000585
 10
1282.066653017447
 20
360.6250000000585
 10
1282.898827966698
 20
360.6250000000585
 10
1283.695435785774
 20
360.6250000000585
 10
1284.4552020721
 20
360.6250000000585
 10
1285.176911361691
 20
360.6250000000585
 10
1285.859409073642
 20
360.6250000000585
 10
1286.501603357204
 20
360.6250000000585
 10
1287.102466838518
 20
360.6250000000585
 10
1287.661038264191
 20
360.6250000000585
 10
1288.176424039098
 20
360.6250000000585
 10
1288.647799655942
 20
360.6250000000585
 10
1289.074411014291
 20
360.6250000000585
 10
1289.455575626977
 20
360.6250000000585
 10
1289.79068371193
 20
360.6250000000585
 10
1290.079199167701
 20
360.6250000000591
 10
1290.320660431107
 20
360.6250000000591
 10
1290.514681215635
 20
360.6250000000591
 10
1290.660951129419
 20
360.6250000000591
 10
1290.7592361718
 20
360.6250000000591
 10
1290.809379107676
 20
360.6250000000591
 10
1290.816407443132
 20
360.6250000000591
  0
LWPOLYLINE
  5
16F
330
87
100
AcDbEntity
  8
P-SANR-FIXT
100
AcDbPolyline
 90
       13
 70
   128
 43
0.0
 10
1514.666407443112
 20
456.7972285497451
 10
1514.606415442685
 20
453.7980284857473
 10
1514.426535415809
 20
450.803626502057
 10
1514.127055132152
 20
447.8188130030761
 10
1513.708453696284
 20
444.8483630536767
 10
1513.171400781205
 20
441.8970287401153
 10
1512.516755557014
 20
438.9695315677098
 10
1511.745565316419
 20
436.0705549074365
 10
1510.859063799295
 20
433.2047365035364
 10
1509.858669218957
 20
430.3766610541135
 10
1508.745981993328
 20
427.5908528765965
 10
1507.522782184609
 20
424.8517686697952
 10
1506.954226874364
 20
423.7042124628139
  0
LWPOLYLINE
  5
170
330
87
100
AcDbEntity
  8
P-SANR-FIXT
100
AcDbPolyline
 90
       14
 70
   128
 43
0.0
 10
1014.374238445712
 20
423.6879457333372
 10
1014.286433474697
 20
423.8588146836717
 10
1013.02314502739
 20
426.5796421980317
 10
1011.869671156833
 20
429.3488114044796
 10
1010.827857175157
 20
432.16189222301
 10
1009.899369762492
 20
435.0143843244053
 10
1009.085694300631
 20
437.901724329802
 10
1008.388132496739
 20
440.8192931111247
 10
1007.807800300896
 20
443.7624231807047
 10
1007.345626120818
 20
446.726406158265
 10
1007.002349336602
 20
449.7065003033241
 10
1006.778519117872
 20
452.6979381009697
 10
1006.674493545233
 20
455.6959338888645
 10
1006.666407443132
 20
456.7972285497505
  0
LINE
  5
171
330
87
100
AcDbEntity
  8
P-SANR-FIXT
100
AcDbLine
 10
815.6664074431249
 20
871.9175109470437
 30
0.0
 11
810.6664074431249
 21
871.9175109470437
 31
0.0
  0
LINE
  5
172
330
87
100
AcDbEntity
  8
P-SANR-FIXT
100
AcDbLine
 10
810.6664074431241
 20
578.0824890530795
 30
0.0
 11
815.6664074431242
 21
578.0824890530795
 31
0.0
  0
LINE
  5
173
330
87
100
AcDbEntity
  8
P-SANR-FIXT
100
AcDbLine
 10
1710.666407443128
 20
871.9175109470542
 30
0.0
 11
1705.666407443128
 21
871.9175109470542
 31
0.0
  0
LINE
  5
174
330
87
100
AcDbEntity
  8
P-SANR-FIXT
100
AcDbLine
 10
1705.666407443127
 20
578.0824890530632
 30
0.0
 11
1710.666407443127
 21
578.0824890530632
 31
0.0
  0
LINE
  5
175
330
87
100
AcDbEntity
  8
P-SANR-FIXT
100
AcDbLine
 10
1705.666407443128
 20
900.0000000000676
 30
0.0
 11
1675.666407443128
 21
900.0000000000678
 31
0.0
  0
LINE
  5
176
330
87
100
AcDbEntity
  8
P-SANR-FIXT
100
AcDbLine
 10
1675.666407443127
 20
550.0000000000502
 30
0.0
 11
1705.666407443127
 21
550.0000000000501
 31
0.0
  0
LINE
  5
177
330
87
100
AcDbEntity
  8
P-SANR-FIXT
100
AcDbLine
 10
1675.666407443127
 20
834.550000000063
 30
0.0
 11
1617.16640744313
 21
834.5500000000631
 31
0.0
  0
LINE
  5
178
330
87
100
AcDbEntity
  8
P-SANR-FIXT
100
AcDbLine
 10
1592.166407443129
 20
834.5500000000633
 30
0.0
 11
1585.666407443126
 21
834.5500000000633
 31
0.0
  0
LINE
  5
179
330
87
100
AcDbEntity
  8
P-SANR-FIXT
100
AcDbLine
 10
1585.666407443126
 20
615.4500000000552
 30
0.0
 11
1675.666407443127
 21
615.4500000000547
 31
0.0
  0
LINE
  5
17A
330
87
100
AcDbEntity
  8
P-SANR-FIXT
100
AcDbLine
 10
1585.666407443126
 20
834.550000000064
 30
0.0
 11
1514.666407443128
 21
834.5500000000642
 31
0.0
  0
LINE
  5
17B
330
87
100
AcDbEntity
  8
P-SANR-FIXT
100
AcDbLine
 10
1514.666407443127
 20
615.4500000000544
 30
0.0
 11
1585.666407443126
 21
615.4500000000541
 31
0.0
  0
SPLINE
  5
17C
330
87
100
AcDbEntity
  8
P-SANR-FIXT
100
AcDbSpline
210
0.0
220
0.0
230
1.0
 70
     8
 71
     3
 72
    34
 73
    30
 74
     0
 42
0.000000001
 43
0.0000000001
 40
0.0
 40
0.0
 40
0.0
 40
0.0
 40
0.0526315789473684
 40
0.1052631578947368
 40
0.1578947368421053
 40
0.2105263157894737
 40
0.2368421052631579
 40
0.2631578947368421
 40
0.2894736842105263
 40
0.3157894736842105
 40
0.3421052631578947
 40
0.3684210526315789
 40
0.4210526315789474
 40
0.4736842105263158
 40
0.5263157894736842
 40
0.5789473684210527
 40
0.6315789473684211
 40
0.6578947368421053
 40
0.6842105263157894
 40
0.7105263157894737
 40
0.7368421052631579
 40
0.7631578947368421
 40
0.7894736842105264
 40
0.8157894736842104
 40
0.8421052631578946
 40
0.881578947368421
 40
0.9013157894736842
 40
0.9210526315789472
 40
1.0
 40
1.0
 40
1.0
 40
1.0
 10
1006.66640744312
 20
615.4500000000574
 30
0.0
 10
1006.6789831801
 20
615.4500000000573
 30
0.0
 10
1007.107024391876
 20
616.479227309715
 30
0.0
 10
1009.043964660495
 20
621.0319661903026
 30
0.0
 10
1012.017155667549
 20
628.3951864053112
 30
0.0
 10
1015.107360875483
 20
636.6513236504763
 30
0.0
 10
1017.76332312518
 20
644.3860271591129
 30
0.0
 10
1019.793818939082
 20
650.7187212613152
 30
0.0
 10
1021.816667420817
 20
657.5479663821432
 30
0.0
 10
1023.776676419126
 20
664.8362480512648
 30
0.0
 10
1025.620697354567
 20
672.5521524548152
 30
0.0
 10
1027.859756452535
 20
683.3440177365509
 30
0.0
 10
1030.107161292254
 20
697.6844649062635
 30
0.0
 10
1031.565568960501
 20
715.7901681142495
 30
0.0
 10
1031.565371171244
 20
734.2147016100657
 30
0.0
 10
1030.10658599686
 20
752.3204497180316
 30
0.0
 10
1027.858797187633
 20
766.661382936703
 30
0.0
 10
1025.619422561628
 20
777.4535634928224
 30
0.0
 10
1023.775175163615
 20
785.1696590819434
 30
0.0
 10
1021.814962528096
 20
792.4581088912462
 30
0.0
 10
1019.791911088105
 20
799.2873359838064
 30
0.0
 10
1017.761451749854
 20
805.6200511920472
 30
0.0
 10
1015.768920868395
 20
811.4203806716684
 30
0.0
 10
1013.871032924384
 20
816.6571181517532
 30
0.0
 10
1011.815381706195
 20
822.0626039701741
 30
0.0
 10
1010.142803822042
 20
826.2238574499495
 30
0.0
 10
1008.899440732385
 20
829.290508270086
 30
0.0
 10
1007.297651696411
 20
833.0977643508928
 30
0.0
 10
1006.685090729846
 20
834.5500000000667
 30
0.0
 10
1006.666407443121
 20
834.5500000000662
 30
0.0
  0
SPLINE
  5
17D
330
87
100
AcDbEntity
  8
P-SANR-FIXT
100
AcDbSpline
210
0.0
220
0.0
230
1.0
 70
     8
 71
     3
 72
    23
 73
    19
 74
     0
 42
0.000000001
 43
0.0000000001
 40
0.0
 40
0.0
 40
0.0
 40
0.0
 40
0.0555555555555556
 40
0.1111111111111111
 40
0.1666666666666666
 40
0.2222222222222222
 40
0.2777777777777778
 40
0.3333333333333333
 40
0.3888888888888888
 40
0.4444444444444445
 40
0.5138888888888889
 40
0.5486111111111111
 40
0.5833333333333333
 40
0.6527777777777777
 40
0.7222222222222223
 40
0.7916666666666668
 40
0.861111111111111
 40
1.0
 40
1.0
 40
1.0
 40
1.0
 10
929.166407443121
 20
834.5500000000667
 30
0.0
 10
929.1587381223489
 20
834.5500000000667
 30
0.0
 10
929.0233878855499
 20
834.5342105394118
 30
0.0
 10
928.4775517291853
 20
834.4723305759659
 30
0.0
 10
927.537232817864
 20
834.375254275571
 30
0.0
 10
926.2914810645783
 20
834.2558637057672
 30
0.0
 10
924.7370105238685
 20
834.1299642139706
 30
0.0
 10
922.953617492768
 20
834.0100157367684
 30
0.0
 10
920.9616067846232
 20
833.9137888835752
 30
0.0
 10
918.6727397801588
 20
833.8433628788205
 30
0.0
 10
916.5675199082699
 20
833.8287312287862
 30
0.0
 10
914.7498181082806
 20
833.848464147686
 30
0.0
 10
912.9977663369606
 20
833.8907254840735
 30
0.0
 10
910.8267270275508
 20
833.9816034783298
 30
0.0
 10
908.5715974765099
 20
834.129475126477
 30
0.0
 10
906.6766935784677
 20
834.2876093439285
 30
0.0
 10
904.7621842701341
 20
834.4787017759745
 30
0.0
 10
904.1860985686884
 20
834.5500000000667
 30
0.0
 10
904.166407443121
 20
834.5500000000667
 30
0.0
  0
LINE
  5
17E
330
87
100
AcDbEntity
  8
P-SANR-FIXT
100
AcDbLine
 10
845.6664074431238
 20
900.0000000000623
 30
0.0
 11
845.6664074431227
 21
550.0000000000621
 31
0.0
  0
LINE
  5
17F
330
87
100
AcDbEntity
  8
P-SANR-FIXT
100
AcDbLine
 10
1216.666407443131
 20
1450.625000000124
 30
0.0
 11
1304.66640744313
 21
1450.625000000123
 31
0.0
  0
LINE
  5
180
330
87
100
AcDbEntity
  8
P-SANR-FIXT
100
AcDbLine
 10
1290.816407443133
 20
360.6250000000601
 30
0.0
 11
1230.516407443105
 21
360.6250000000608
 31
0.0
  0
LINE
  5
181
330
87
100
AcDbEntity
  8
P-SANR-FIXT
100
AcDbLine
 10
904.1664074431219
 20
874.2500000000672
 30
0.0
 11
929.1664074431219
 21
874.2500000000667
 31
0.0
  0
LINE
  5
182
330
87
100
AcDbEntity
  8
P-SANR-FIXT
100
AcDbLine
 10
1592.166407443127
 20
874.25000000006
 30
0.0
 11
1617.166407443127
 21
874.25000000006
 31
0.0
  0
LINE
  5
183
330
87
100
AcDbEntity
  8
P-SANR-FIXT
100
AcDbLine
 10
1380.305836585893
 20
374.0851087136016
 30
0.0
 11
1141.026978300354
 21
374.0851087136042
 31
0.0
  0
LINE
  5
184
330
87
100
AcDbEntity
  8
P-SANR-FIXT
100
AcDbLine
 10
815.6664074431235
 20
900.0000000000627
 30
0.0
 11
815.6664074431226
 21
550.0000000000623
 31
0.0
  0
LINE
  5
185
330
87
100
AcDbEntity
  8
P-SANR-FIXT
100
AcDbLine
 10
810.6664074431236
 20
871.9175109470443
 30
0.0
 11
810.6664074431225
 21
578.0824890530805
 31
0.0
  0
LINE
  5
186
330
87
100
AcDbEntity
  8
P-SANR-FIXT
100
AcDbLine
 10
1710.666407443126
 20
871.9175109470549
 30
0.0
 11
1710.666407443125
 21
578.0824890530642
 31
0.0
  0
LINE
  5
187
330
87
100
AcDbEntity
  8
P-SANR-FIXT
100
AcDbLine
 10
1705.666407443126
 20
900.000000000068
 30
0.0
 11
1705.666407443125
 21
550.000000000051
 31
0.0
  0
LINE
  5
188
330
87
100
AcDbEntity
  8
P-SANR-FIXT
100
AcDbLine
 10
1675.666407443126
 20
900.0000000000683
 30
0.0
 11
1675.666407443125
 21
550.0000000000511
 31
0.0
  0
SPLINE
  5
189
330
87
100
AcDbEntity
  8
P-SANR-FIXT
100
AcDbSpline
210
0.0
220
0.0
230
1.0
 70
     8
 71
     3
 72
    23
 73
    19
 74
     0
 42
0.000000001
 43
0.0000000001
 40
-1.0
 40
-1.0
 40
-1.0
 40
-1.0
 40
-0.861111111111111
 40
-0.7916666666666668
 40
-0.7222222222222223
 40
-0.6527777777777777
 40
-0.5833333333333333
 40
-0.5486111111111111
 40
-0.5138888888888889
 40
-0.4444444444444445
 40
-0.3888888888888888
 40
-0.3333333333333333
 40
-0.2777777777777778
 40
-0.2222222222222222
 40
-0.1666666666666666
 40
-0.1111111111111111
 40
-0.0555555555555556
 40
0.0
 40
0.0
 40
0.0
 40
0.0
 10
1592.166407443127
 20
834.5500000000638
 30
0.0
 10
1592.186098568694
 20
834.5500000000638
 30
0.0
 10
1592.76218427014
 20
834.4787017759712
 30
0.0
 10
1594.676693578474
 20
834.2876093439253
 30
0.0
 10
1596.571597476516
 20
834.1294751264742
 30
0.0
 10
1598.826727027556
 20
833.9816034783261
 30
0.0
 10
1600.997766336967
 20
833.8907254840711
 30
0.0
 10
1602.749818108286
 20
833.848464147683
 30
0.0
 10
1604.567519908276
 20
833.8287312287837
 30
0.0
 10
1606.672739780164
 20
833.843362878817
 30
0.0
 10
1608.961606784629
 20
833.9137888835711
 30
0.0
 10
1610.953617492773
 20
834.0100157367661
 30
0.0
 10
1612.737010523875
 20
834.1299642139677
 30
0.0
 10
1614.291481064584
 20
834.2558637057653
 30
0.0
 10
1615.53723281787
 20
834.375254275568
 30
0.0
 10
1616.477551729191
 20
834.4723305759631
 30
0.0
 10
1617.023387885556
 20
834.5342105394086
 30
0.0
 10
1617.158738122355
 20
834.5500000000638
 30
0.0
 10
1617.166407443127
 20
834.5500000000638
 30
0.0
  0
SPLINE
  5
18A
330
87
100
AcDbEntity
  8
P-SANR-FIXT
100
AcDbSpline
210
0.0
220
0.0
230
1.0
 70
     8
 71
     3
 72
    32
 73
    28
 74
     0
 42
0.000000001
 43
0.0000000001
 40
-1.0
 40
-1.0
 40
-1.0
 40
-1.0
 40
-0.9473684210526315
 40
-0.8947368421052631
 40
-0.8421052631578946
 40
-0.7894736842105264
 40
-0.7631578947368421
 40
-0.7368421052631579
 40
-0.7105263157894737
 40
-0.6842105263157894
 40
-0.6578947368421053
 40
-0.6315789473684211
 40
-0.5789473684210527
 40
-0.5263157894736842
 40
-0.4736842105263158
 40
-0.4210526315789474
 40
-0.3684210526315789
 40
-0.3421052631578947
 40
-0.3157894736842105
 40
-0.2894736842105263
 40
-0.2631578947368421
 40
-0.2368421052631579
 40
-0.2105263157894737
 40
-0.1578947368421053
 40
-0.1052631578947368
 40
-0.0526315789473684
 40
0.0
 40
0.0
 40
0.0
 40
0.0
 10
1514.666407443125
 20
615.4500000000553
 30
0.0
 10
1514.653831706144
 20
615.4500000000552
 30
0.0
 10
1514.225790494367
 20
616.4792273097129
 30
0.0
 10
1512.288850225749
 20
621.0319661903006
 30
0.0
 10
1509.315659218695
 20
628.3951864053094
 30
0.0
 10
1506.225454010762
 20
636.651323650474
 30
0.0
 10
1503.569491761064
 20
644.3860271591116
 30
0.0
 10
1501.538995947163
 20
650.7187212613125
 30
0.0
 10
1499.516147465423
 20
657.5479663821438
 30
0.0
 10
1497.556138467133
 20
664.8362480512542
 30
0.0
 10
1495.712117531625
 20
672.5521524548484
 30
0.0
 10
1493.473058433985
 20
683.3440177363651
 30
0.0
 10
1491.225653591776
 20
697.6844649077446
 30
0.0
 10
1489.76724593383
 20
715.7901681088309
 30
0.0
 10
1489.767443684875
 20
734.2147016302472
 30
0.0
 10
1491.226229001808
 20
752.3204496427156
 30
0.0
 10
1493.474017367716
 20
766.6613831583786
 30
0.0
 10
1495.71339289775
 20
777.453563108867
 30
0.0
 10
1497.557637534998
 20
785.1696605474897
 30
0.0
 10
1499.517860535555
 20
792.4581034130093
 30
0.0
 10
1501.540873276158
 20
799.2873564312011
 30
0.0
 10
1503.571477046929
 20
805.6199748806982
 30
0.0
 10
1506.227466181287
 20
813.3542289993169
 30
0.0
 10
1509.317222057949
 20
821.6087946788192
 30
0.0
 10
1512.289754114889
 20
828.9701624833826
 30
0.0
 10
1514.226188126228
 20
833.5218236089259
 30
0.0
 10
1514.653951918643
 20
834.5500000000649
 30
0.0
 10
1514.666407443126
 20
834.5500000000649
 30
0.0
  0
ENDBLK
  5
18C
330
87
100
AcDbEntity
  8
0
100
AcDbBlockEnd
  0
BLOCK
  5
227
330
18E
100
AcDbEntity
  8
0
100
AcDbBlockBegin
  2
Automatic flow rate regulator valve_Caleffi_121 DN15 - 2___Pressure gauge H-V1-Est - Idraulica
 70
     0
 10
0.0
 20
0.0
 30
0.0
  3
Automatic flow rate regulator valve_Caleffi_121 DN15 - 2___Pressure gauge H-V1-Est - Idraulica
  1

  0
LINE
  5
18F
330
18E
100
AcDbEntity
  8
M-PIPE
100
AcDbLine
 10
2882.114353943081
 20
260.3843309572787
 30
0.0
 11
2883.133237741949
 21
259.8163445993165
 31
0.0
1001
REVIT
1002
{
1070
     3
1000
790271
1002
}
  0
LINE
  5
190
330
18E
100
AcDbEntity
  8
M-PIPE
100
AcDbLine
 10
2884.184260655829
 20
259.3102976322013
 30
0.0
 11
2885.263661576908
 21
258.8680009557493
 31
0.0
1001
REVIT
1002
{
1070
     3
1000
790271
1002
}
  0
LINE
  5
191
330
18E
100
AcDbEntity
  8
M-PIPE
100
AcDbLine
 10
2886.367577846072
 20
258.491037338008
 30
0.0
 11
2886.453308653051
 21
258.4648133390393
 31
0.0
1001
REVIT
1002
{
1070
     3
1000
790271
1002
}
  0
LINE
  5
192
330
18E
100
AcDbEntity
  8
M-PIPE
100
AcDbLine
 10
2887.492059075514
 20
258.1807557512871
 30
0.0
 11
2888.63308128528
 21
257.9382665448326
 31
0.0
1001
REVIT
1002
{
1070
     3
1000
790271
1002
}
  0
LINE
  5
193
330
18E
100
AcDbEntity
  8
M-PIPE
100
AcDbLine
 10
2889.786561303166
 20
257.7644374714182
 30
0.0
 11
2890.948371376437
 21
257.6598905820739
 31
0.0
1001
REVIT
1002
{
1070
     3
1000
790271
1002
}
  0
ARC
  5
194
330
18E
100
AcDbEntity
  8
M-PIPE
100
AcDbCircle
 10
2892.114353943079
 20
277.125000000063
 30
0.0
 40
19.50000000000011
100
AcDbArc
 50
90.00000000000033
 51
269.9999999999999
1001
REVIT
1002
{
1070
     3
1000
790271
1002
}
  0
ARC
  5
195
330
18E
100
AcDbEntity
  8
M-PIPE
100
AcDbCircle
 10
2892.114353943079
 20
277.125000000063
 30
0.0
 40
19.49999999999954
100
AcDbArc
 50
270.0000000000008
 51
89.99999999999982
1001
REVIT
1002
{
1070
     3
1000
790271
1002
}
  0
LINE
  5
196
330
18E
100
AcDbEntity
  8
M-PIPE
100
AcDbLine
 10
2893.280336509722
 20
257.659890582074
 30
0.0
 11
2894.442146582993
 21
257.7644374714184
 31
0.0
1001
REVIT
1002
{
1070
     3
1000
790271
1002
}
  0
LINE
  5
197
330
18E
100
AcDbEntity
  8
M-PIPE
100
AcDbLine
 10
2895.59562660088
 20
257.9382665448328
 30
0.0
 11
2896.736648810646
 21
258.1807557512874
 31
0.0
1001
REVIT
1002
{
1070
     3
1000
790271
1002
}
  0
LINE
  5
198
330
18E
100
AcDbEntity
  8
M-PIPE
100
AcDbLine
 10
2897.775399233109
 20
258.4648133390396
 30
0.0
 11
2897.861130040088
 21
258.4910373380085
 31
0.0
1001
REVIT
1002
{
1070
     3
1000
790271
1002
}
  0
LINE
  5
199
330
18E
100
AcDbEntity
  8
M-PIPE
100
AcDbLine
 10
2898.965046309253
 20
258.8680009557499
 30
0.0
 11
2900.044447230331
 21
259.3102976322021
 31
0.0
1001
REVIT
1002
{
1070
     3
1000
790271
1002
}
  0
LINE
  5
19A
330
18E
100
AcDbEntity
  8
M-PIPE
100
AcDbLine
 10
2901.095470144211
 20
259.8163445993174
 30
0.0
 11
2902.114353943079
 21
260.3843309572798
 31
0.0
1001
REVIT
1002
{
1070
     3
1000
790271
1002
}
  0
LINE
  5
19B
330
18E
100
AcDbEntity
  8
M-PIPE
100
AcDbLine
 10
2902.114353943079
 20
260.3843309572797
 30
0.0
 11
2902.11435394308
 21
244.6764481834278
 31
0.0
1001
REVIT
1002
{
1070
     3
1000
790271
1002
}
  0
LINE
  5
19C
330
18E
100
AcDbEntity
  8
M-PIPE
100
AcDbLine
 10
2902.11435394308
 20
244.6764481834278
 30
0.0
 11
2902.114353943082
 21
110.6205122062201
 31
0.0
1001
REVIT
1002
{
1070
     3
1000
790271
1002
}
  0
LINE
  5
19D
330
18E
100
AcDbEntity
  8
M-PIPE
100
AcDbLine
 10
2882.114353943083
 20
110.6205122062199
 30
0.0
 11
2882.114353943082
 21
244.6764481834275
 31
0.0
1001
REVIT
1002
{
1070
     3
1000
790271
1002
}
  0
LINE
  5
19E
330
18E
100
AcDbEntity
  8
M-PIPE
100
AcDbLine
 10
2882.114353943082
 20
244.6764481834275
 30
0.0
 11
2882.114353943081
 21
260.3843309572788
 31
0.0
1001
REVIT
1002
{
1070
     3
1000
790271
1002
}
  0
LINE
  5
19F
330
18E
100
AcDbEntity
  8
M-PIPE
100
AcDbLine
 10
2882.114353943082
 20
244.6764481834275
 30
0.0
 11
2902.11435394308
 21
244.6764481834278
 31
0.0
1001
REVIT
1002
{
1070
     3
1000
790271
1002
}
  0
LINE
  5
1A0
330
18E
100
AcDbEntity
  8
M-PIPE
100
AcDbLine
 10
2882.114353943083
 20
110.6205122062198
 30
0.0
 11
2902.114353943082
 21
110.6205122062201
 31
0.0
1001
REVIT
1002
{
1070
     3
1000
790271
1002
}
  0
LINE
  5
1A1
330
18E
100
AcDbEntity
  8
M-PIPE
100
AcDbLine
 10
2925.614353943119
 20
215.6250000001277
 30
0.0
 11
2902.11435394308
 21
215.6250000001276
 31
0.0
1001
REVIT
1002
{
1070
     3
1000
790271
1002
}
  0
LINE
  5
1A2
330
18E
100
AcDbEntity
  8
M-PIPE
100
AcDbLine
 10
2882.114353943082
 20
215.6250000001275
 30
0.0
 11
2858.614353943074
 21
215.6250000001274
 31
0.0
1001
REVIT
1002
{
1070
     3
1000
790271
1002
}
  0
LINE
  5
1A3
330
18E
100
AcDbEntity
  8
M-PIPE
100
AcDbLine
 10
2858.614353943073
 20
234.6250000001275
 30
0.0
 11
2882.114353943082
 21
234.6250000001275
 31
0.0
1001
REVIT
1002
{
1070
     3
1000
790271
1002
}
  0
LINE
  5
1A4
330
18E
100
AcDbEntity
  8
M-PIPE
100
AcDbLine
 10
2902.114353943079
 20
234.6250000001276
 30
0.0
 11
2925.614353943119
 21
234.6250000001277
 31
0.0
1001
REVIT
1002
{
1070
     3
1000
790271
1002
}
  0
LINE
  5
1A5
330
18E
100
AcDbEntity
  8
M-PIPE
100
AcDbLine
 10
2925.614353943119
 20
234.6250000001277
 30
0.0
 11
2925.614353943119
 21
215.6250000001277
 31
0.0
1001
REVIT
1002
{
1070
     3
1000
790271
1002
}
  0
LINE
  5
1A6
330
18E
100
AcDbEntity
  8
M-PIPE
100
AcDbLine
 10
2858.614353943073
 20
234.6250000001274
 30
0.0
 11
2858.614353943074
 21
215.6250000001274
 31
0.0
1001
REVIT
1002
{
1070
     3
1000
790271
1002
}
  0
LINE
  5
1A7
330
18E
100
AcDbEntity
  8
M-PIPE
100
AcDbLine
 10
2858.614353943096
 20
329.1250000000627
 30
0.0
 11
2892.114353943096
 21
329.1250000000628
 31
0.0
1001
REVIT
1002
{
1070
     3
1000
790271
1002
}
  0
LINE
  5
1A8
330
18E
100
AcDbEntity
  8
M-PIPE
100
AcDbLine
 10
2892.114353943096
 20
329.1250000000628
 30
0.0
 11
2925.614353943096
 21
329.125000000063
 31
0.0
1001
REVIT
1002
{
1070
     3
1000
790271
1002
}
  0
LINE
  5
1A9
330
18E
100
AcDbEntity
  8
M-PIPE
100
AcDbLine
 10
2925.614353943096
 20
329.1250000000629
 30
0.0
 11
2925.614353943096
 21
311.1250000000629
 31
0.0
1001
REVIT
1002
{
1070
     3
1000
790271
1002
}
  0
LINE
  5
1AA
330
18E
100
AcDbEntity
  8
M-PIPE
100
AcDbLine
 10
2892.114353943096
 20
329.1250000000628
 30
0.0
 11
2892.114353943096
 21
311.1250000000628
 31
0.0
1001
REVIT
1002
{
1070
     3
1000
790271
1002
}
  0
LINE
  5
1AB
330
18E
100
AcDbEntity
  8
M-PIPE
100
AcDbLine
 10
2858.614353943096
 20
329.1250000000626
 30
0.0
 11
2858.614353943096
 21
311.1250000000627
 31
0.0
1001
REVIT
1002
{
1070
     3
1000
790271
1002
}
  0
LINE
  5
1AC
330
18E
100
AcDbEntity
  8
M-PIPE
100
AcDbLine
 10
2858.614353943076
 20
242.7250000000629
 30
0.0
 11
2858.614353943077
 21
234.6250000001262
 31
0.0
1001
REVIT
1002
{
1070
     3
1000
790271
1002
}
  0
LINE
  5
1AD
330
18E
100
AcDbEntity
  8
M-PIPE
100
AcDbLine
 10
2925.614353943092
 20
234.6250000001264
 30
0.0
 11
2925.614353943091
 21
242.7250000000639
 31
0.0
1001
REVIT
1002
{
1070
     3
1000
790271
1002
}
  0
LINE
  5
1AE
330
18E
100
AcDbEntity
  8
M-PIPE
100
AcDbLine
 10
2850.114353943083
 20
251.2250000000609
 30
0.0
 11
2858.614353943083
 21
242.7250000000629
 31
0.0
1001
REVIT
1002
{
1070
     3
1000
790271
1002
}
  0
LINE
  5
1AF
330
18E
100
AcDbEntity
  8
M-PIPE
100
AcDbLine
 10
2925.614353943084
 20
242.7250000000639
 30
0.0
 11
2934.114353943083
 21
251.2250000000623
 31
0.0
1001
REVIT
1002
{
1070
     3
1000
790271
1002
}
  0
LINE
  5
1B0
330
18E
100
AcDbEntity
  8
M-PIPE
100
AcDbLine
 10
2850.114353943083
 20
311.1250000000608
 30
0.0
 11
2850.114353943083
 21
251.2250000000609
 31
0.0
1001
REVIT
1002
{
1070
     3
1000
790271
1002
}
  0
LINE
  5
1B1
330
18E
100
AcDbEntity
  8
M-PIPE
100
AcDbLine
 10
2934.114353943083
 20
251.2250000000623
 30
0.0
 11
2934.114353943082
 21
311.1250000000625
 31
0.0
1001
REVIT
1002
{
1070
     3
1000
790271
1002
}
  0
LINE
  5
1B2
330
18E
100
AcDbEntity
  8
M-PIPE
100
AcDbLine
 10
2850.114353943079
 20
311.1250000000621
 30
0.0
 11
2892.114353943079
 21
311.1250000000585
 31
0.0
1001
REVIT
1002
{
1070
     3
1000
790271
1002
}
  0
LINE
  5
1B3
330
18E
100
AcDbEntity
  8
M-PIPE
100
AcDbLine
 10
2892.114353943079
 20
311.1250000000585
 30
0.0
 11
2934.114353943079
 21
311.1250000000636
 31
0.0
1001
REVIT
1002
{
1070
     3
1000
790271
1002
}
  0
LINE
  5
1B4
330
18E
100
AcDbEntity
  8
M-PIPE
100
AcDbLine
 10
2882.104806612641
 20
242.7250000000613
 30
0.0
 11
2858.61435394308
 21
242.7250000000642
 31
0.0
1001
REVIT
1002
{
1070
     3
1000
790271
1002
}
  0
LINE
  5
1B5
330
18E
100
AcDbEntity
  8
M-PIPE
100
AcDbLine
 10
2925.61435394308
 20
242.7250000000654
 30
0.0
 11
2902.123901273519
 21
242.7250000000617
 31
0.0
1001
REVIT
1002
{
1070
     3
1000
790271
1002
}
  0
LINE
  5
1B6
330
18E
100
AcDbEntity
  8
M-PIPE
100
AcDbLine
 10
2882.107767648288
 20
251.2250000000584
 30
0.0
 11
2850.11435394308
 21
251.2250000000621
 31
0.0
1001
REVIT
1002
{
1070
     3
1000
790271
1002
}
  0
LINE
  5
1B7
330
18E
100
AcDbEntity
  8
M-PIPE
100
AcDbLine
 10
2934.11435394308
 20
251.2250000000635
 30
0.0
 11
2902.120940237873
 21
251.2250000000587
 31
0.0
1001
REVIT
1002
{
1070
     3
1000
790271
1002
}
  0
LINE
  5
1B8
330
18E
100
AcDbEntity
  8
M-PIPE
100
AcDbLine
 10
3141.679734999822
 20
-0.000000000041149
 30
0.0
 11
3141.679734999822
 21
5.99999999995884
 31
0.0
1001
REVIT
1002
{
1070
     3
1000
790271
1002
}
  0
LINE
  5
1B9
330
18E
100
AcDbEntity
  8
M-PIPE
100
AcDbLine
 10
3058.378464810593
 20
-0.0000000000018858
 30
0.0
 11
3078.378464810595
 21
-0.0000000000273267
 31
0.0
1001
REVIT
1002
{
1070
     3
1000
790271
1002
}
  0
LINE
  5
1BA
330
18E
100
AcDbEntity
  8
M-PIPE
100
AcDbLine
 10
3078.378464810595
 20
5.999999999959888
 30
0.0
 11
3058.378464810593
 21
5.999999999959759
 31
0.0
1001
REVIT
1002
{
1070
     3
1000
790271
1002
}
  0
LINE
  5
1BB
330
18E
100
AcDbEntity
  8
M-PIPE
100
AcDbLine
 10
3058.378464810593
 20
5.999999999959787
 30
0.0
 11
2991.378464810589
 21
439.9999999999961
 31
0.0
1001
REVIT
1002
{
1070
     3
1000
790271
1002
}
  0
LINE
  5
1BC
330
18E
100
AcDbEntity
  8
M-PIPE
100
AcDbLine
 10
2991.378464810589
 20
439.9999999999961
 30
0.0
 11
2991.378464810589
 21
499.9999999999959
 31
0.0
1001
REVIT
1002
{
1070
     3
1000
790271
1002
}
  0
LINE
  5
1BD
330
18E
100
AcDbEntity
  8
M-PIPE
100
AcDbLine
 10
2991.378464810589
 20
499.9999999999959
 30
0.0
 11
2988.378464810589
 21
499.9999999999959
 31
0.0
1001
REVIT
1002
{
1070
     3
1000
790271
1002
}
  0
LINE
  5
1BE
330
18E
100
AcDbEntity
  8
M-PIPE
100
AcDbLine
 10
2988.378464810589
 20
499.9999999999959
 30
0.0
 11
2988.378464810589
 21
439.9999999999965
 31
0.0
1001
REVIT
1002
{
1070
     3
1000
790271
1002
}
  0
ELLIPSE
  5
1BF
330
18E
100
AcDbEntity
  8
M-PIPE
100
AcDbEllipse
 10
2923.241801216509
 20
549.2193216575063
 30
0.0
 11
0.0
 21
170.0000000000002
 31
0.0
210
0.0
220
0.0
230
1.0
 40
0.4999999999999902
 41
3.969600536781284
 42
4.014676256965283
1001
REVIT
1002
{
1070
     3
1000
790271
1002
}
  0
LINE
  5
1C0
330
18E
100
AcDbEntity
  8
M-PIPE
100
AcDbLine
 10
2931.378464810592
 20
370.5465454145226
 30
0.0
 11
2931.378464810592
 21
351.492267835742
 31
0.0
1001
REVIT
1002
{
1070
     3
1000
790271
1002
}
  0
ELLIPSE
  5
1C1
330
18E
100
AcDbEntity
  8
M-PIPE
100
AcDbEllipse
 10
2981.378464810592
 20
351.4922678357428
 30
0.0
 11
0.0
 21
100.0
 31
0.0
210
0.0
220
0.0
230
1.0
 40
0.4999999999999954
 41
1.5707963267949
 42
2.094395102393204
1001
REVIT
1002
{
1070
     3
1000
790271
1002
}
  0
LINE
  5
1C2
330
18E
100
AcDbEntity
  8
M-PIPE
100
AcDbLine
 10
2938.077194621371
 20
301.4922678357427
 30
0.0
 11
3023.378464810594
 21
5.999999999959517
 31
0.0
1001
REVIT
1002
{
1070
     3
1000
790271
1002
}
  0
LINE
  5
1C3
330
18E
100
AcDbEntity
  8
M-PIPE
100
AcDbLine
 10
3023.378464810594
 20
5.999999999959534
 30
0.0
 11
3023.378464810594
 21
-0.0000000000021118
 31
0.0
1001
REVIT
1002
{
1070
     3
1000
790271
1002
}
  0
LINE
  5
1C4
330
18E
100
AcDbEntity
  8
M-PIPE
100
AcDbLine
 10
3023.378464810594
 20
-0.000000000002112
 30
0.0
 11
3058.378464810593
 21
-0.0000000000018858
 31
0.0
1001
REVIT
1002
{
1070
     3
1000
790271
1002
}
  0
LINE
  5
1C5
330
18E
100
AcDbEntity
  8
M-PIPE
100
AcDbLine
 10
3052.0002430755
 20
499.9999999999966
 30
0.0
 11
3052.000243075501
 21
439.9999999999968
 31
0.0
1001
REVIT
1002
{
1070
     3
1000
790271
1002
}
  0
LINE
  5
1C6
330
18E
100
AcDbEntity
  8
M-PIPE
100
AcDbLine
 10
3052.000243075501
 20
439.9999999999968
 30
0.0
 11
3119.000243075504
 21
5.999999999960464
 31
0.0
1001
REVIT
1002
{
1070
     3
1000
790271
1002
}
  0
LINE
  5
1C7
330
18E
100
AcDbEntity
  8
M-PIPE
100
AcDbLine
 10
3141.679734999819
 20
-0.0000000000395334
 30
0.0
 11
3131.679734999818
 21
-0.0000000000395334
 31
0.0
1001
REVIT
1002
{
1070
     3
1000
790271
1002
}
  0
LINE
  5
1C8
330
18E
100
AcDbEntity
  8
M-PIPE
100
AcDbLine
 10
3131.679734999815
 20
-0.0000000000395334
 30
0.0
 11
3105.698972886281
 21
-0.0000000000398417
 31
0.0
1001
REVIT
1002
{
1070
     3
1000
790271
1002
}
  0
LINE
  5
1C9
330
18E
100
AcDbEntity
  8
M-PIPE
100
AcDbLine
 10
3105.698972886283
 20
-0.0000000000273267
 30
0.0
 11
3078.378464810595
 21
-0.0000000000273267
 31
0.0
1001
REVIT
1002
{
1070
     3
1000
790271
1002
}
  0
LINE
  5
1CA
330
18E
100
AcDbEntity
  8
M-PIPE
100
AcDbLine
 10
3078.378464810595
 20
5.999999999960158
 30
0.0
 11
3105.698972886283
 21
5.999999999960158
 31
0.0
1001
REVIT
1002
{
1070
     3
1000
790271
1002
}
  0
LINE
  5
1CB
330
18E
100
AcDbEntity
  8
M-PIPE
100
AcDbLine
 10
3131.679734999818
 20
5.999999999960607
 30
0.0
 11
3141.679734999819
 21
5.999999999960607
 31
0.0
1001
REVIT
1002
{
1070
     3
1000
790271
1002
}
  0
LINE
  5
1CC
330
18E
100
AcDbEntity
  8
M-PIPE
100
AcDbLine
 10
3105.698972886284
 20
5.999999999960158
 30
0.0
 11
3131.679734999818
 21
5.999999999960467
 31
0.0
1001
REVIT
1002
{
1070
     3
1000
790271
1002
}
  0
LINE
  5
1CD
330
18E
100
AcDbEntity
  8
M-PIPE
100
AcDbLine
 10
3052.0002430755
 20
499.9999999999966
 30
0.0
 11
2991.378464810589
 21
499.9999999999959
 31
0.0
1001
REVIT
1002
{
1070
     3
1000
790271
1002
}
  0
LINE
  5
1CE
330
18E
100
AcDbEntity
  8
M-PIPE
100
AcDbLine
 10
2991.378464810589
 20
439.9999999999961
 30
0.0
 11
3052.000243075501
 21
439.9999999999968
 31
0.0
1001
REVIT
1002
{
1070
     3
1000
790271
1002
}
  0
LINE
  5
1CF
330
18E
100
AcDbEntity
  8
M-PIPE
100
AcDbLine
 10
2438.964353943014
 20
5.99999999995884
 30
0.0
 11
2438.964353943014
 21
-0.000000000041149
 31
0.0
1001
REVIT
1002
{
1070
     3
1000
790271
1002
}
  0
LINE
  5
1D0
330
18E
100
AcDbEntity
  8
M-PIPE
100
AcDbLine
 10
2568.964353943016
 20
5.999999999960262
 30
0.0
 11
2739.566894321459
 21
301.4922678357434
 31
0.0
1001
REVIT
1002
{
1070
     3
1000
790271
1002
}
  0
ARC
  5
1D1
330
18E
100
AcDbEntity
  8
M-PIPE
100
AcDbCircle
 10
2652.964353943015
 20
351.4922678357436
 30
0.0
 40
99.9999999999996
100
AcDbArc
 50
329.9999999999988
 51
359.9999999999988
1001
REVIT
1002
{
1070
     3
1000
790271
1002
}
  0
LINE
  5
1D2
330
18E
100
AcDbEntity
  8
M-PIPE
100
AcDbLine
 10
2752.964353943015
 20
351.4922678357428
 30
0.0
 11
2752.964353943015
 21
370.5361024292499
 31
0.0
1001
REVIT
1002
{
1070
     3
1000
790271
1002
}
  0
ARC
  5
1D3
330
18E
100
AcDbEntity
  8
M-PIPE
100
AcDbCircle
 10
2769.237681131178
 20
549.2193216575071
 30
0.0
 40
170.0000000000001
100
AcDbArc
 50
219.9759943645109
 51
222.5986265617666
1001
REVIT
1002
{
1070
     3
1000
790271
1002
}
  0
LINE
  5
1D4
330
18E
100
AcDbEntity
  8
M-PIPE
100
AcDbLine
 10
2638.964353943018
 20
439.9999999999972
 30
0.0
 11
2638.964353943018
 21
499.9999999999966
 31
0.0
1001
REVIT
1002
{
1070
     3
1000
790271
1002
}
  0
LINE
  5
1D5
330
18E
100
AcDbEntity
  8
M-PIPE
100
AcDbLine
 10
2638.964353943018
 20
499.9999999999966
 30
0.0
 11
2632.964353943017
 21
499.9999999999966
 31
0.0
1001
REVIT
1002
{
1070
     3
1000
790271
1002
}
  0
LINE
  5
1D6
330
18E
100
AcDbEntity
  8
M-PIPE
100
AcDbLine
 10
2632.964353943017
 20
499.9999999999966
 30
0.0
 11
2632.964353943017
 21
439.9999999999968
 31
0.0
1001
REVIT
1002
{
1070
     3
1000
790271
1002
}
  0
LINE
  5
1D7
330
18E
100
AcDbEntity
  8
M-PIPE
100
AcDbLine
 10
2632.964353943017
 20
439.9999999999968
 30
0.0
 11
2498.964353943016
 21
5.999999999960464
 31
0.0
1001
REVIT
1002
{
1070
     3
1000
790271
1002
}
  0
LINE
  5
1D8
330
18E
100
AcDbEntity
  8
M-PIPE
100
AcDbLine
 10
2498.964353943016
 20
5.999999999960478
 30
0.0
 11
2458.964353943011
 21
5.999999999960607
 31
0.0
1001
REVIT
1002
{
1070
     3
1000
790271
1002
}
  0
LINE
  5
1D9
330
18E
100
AcDbEntity
  8
M-PIPE
100
AcDbLine
 10
2458.964353943011
 20
-0.0000000000266075
 30
0.0
 11
2498.964353943016
 21
-0.0000000000011665
 31
0.0
1001
REVIT
1002
{
1070
     3
1000
790271
1002
}
  0
LINE
  5
1DA
330
18E
100
AcDbEntity
  8
M-PIPE
100
AcDbLine
 10
2498.964353943016
 20
-0.0000000000011665
 30
0.0
 11
2568.964353943016
 21
-0.0000000000013927
 31
0.0
1001
REVIT
1002
{
1070
     3
1000
790271
1002
}
  0
LINE
  5
1DB
330
18E
100
AcDbEntity
  8
M-PIPE
100
AcDbLine
 10
2568.964353943016
 20
-0.0000000000013927
 30
0.0
 11
2568.964353943016
 21
5.999999999960253
 31
0.0
1001
REVIT
1002
{
1070
     3
1000
790271
1002
}
  0
LINE
  5
1DC
330
18E
100
AcDbEntity
  8
M-PIPE
100
AcDbLine
 10
2458.964353943011
 20
-0.0000000000395334
 30
0.0
 11
2438.964353943011
 21
-0.0000000000395334
 31
0.0
1001
REVIT
1002
{
1070
     3
1000
790271
1002
}
  0
LINE
  5
1DD
330
18E
100
AcDbEntity
  8
M-PIPE
100
AcDbLine
 10
2438.964353943011
 20
5.999999999960607
 30
0.0
 11
2458.964353943011
 21
5.999999999960607
 31
0.0
1001
REVIT
1002
{
1070
     3
1000
790271
1002
}
  0
LINE
  5
1DE
330
18E
100
AcDbEntity
  8
P-SANR-FIXT
100
AcDbLine
 10
2864.614353943104
 20
1532.625000000128
 30
0.0
 11
2864.614353943104
 21
1524.125000000194
 31
0.0
  0
LINE
  5
1DF
330
18E
100
AcDbEntity
  8
P-SANR-FIXT
100
AcDbLine
 10
2919.614353943094
 20
1524.125000000194
 30
0.0
 11
2919.614353943096
 21
1532.625000000127
 31
0.0
  0
LINE
  5
1E0
330
18E
100
AcDbEntity
  8
P-SANR-FIXT
100
AcDbLine
 10
2864.614353943104
 20
1524.125000000194
 30
0.0
 11
2865.614353943091
 21
1523.125000000207
 31
0.0
  0
LINE
  5
1E1
330
18E
100
AcDbEntity
  8
P-SANR-FIXT
100
AcDbLine
 10
2918.614353943107
 20
1523.125000000206
 30
0.0
 11
2919.614353943094
 21
1524.125000000194
 31
0.0
  0
LINE
  5
1E2
330
18E
100
AcDbEntity
  8
P-SANR-FIXT
100
AcDbLine
 10
2866.39511534445
 20
1523.125000000207
 30
0.0
 11
2866.395115344448
 21
1471.95296577319
 31
0.0
  0
LINE
  5
1E3
330
18E
100
AcDbEntity
  8
P-SANR-FIXT
100
AcDbLine
 10
2917.833592541748
 20
1471.952965773189
 30
0.0
 11
2917.833592541749
 21
1523.125000000206
 31
0.0
  0
LINE
  5
1E4
330
18E
100
AcDbEntity
  8
P-SANR-FIXT
100
AcDbLine
 10
2853.114353943111
 20
1471.95296577319
 30
0.0
 11
2853.114353943111
 21
1465.625000000098
 31
0.0
  0
LINE
  5
1E5
330
18E
100
AcDbEntity
  8
P-SANR-FIXT
100
AcDbLine
 10
2931.114353943085
 20
1465.625000000096
 30
0.0
 11
2931.114353943085
 21
1471.952965773189
 31
0.0
  0
LINE
  5
1E6
330
18E
100
AcDbEntity
  8
P-SANR-FIXT
100
AcDbLine
 10
2886.6143539431
 20
1550.625000000285
 30
0.0
 11
2886.6143539431
 21
1539.125000000284
 31
0.0
  0
LINE
  5
1E7
330
18E
100
AcDbEntity
  8
P-SANR-FIXT
100
AcDbLine
 10
2897.614353943099
 20
1539.125000000284
 30
0.0
 11
2897.614353943099
 21
1550.625000000285
 31
0.0
  0
LINE
  5
1E8
330
18E
100
AcDbEntity
  8
P-SANR-FIXT
100
AcDbLine
 10
2889.114353943099
 20
1539.125000000284
 30
0.0
 11
2889.114353943099
 21
1535.62500000019
 31
0.0
  0
LINE
  5
1E9
330
18E
100
AcDbEntity
  8
P-SANR-FIXT
100
AcDbLine
 10
2895.1143539431
 20
1535.62500000019
 30
0.0
 11
2895.1143539431
 21
1539.125000000284
 31
0.0
  0
LINE
  5
1EA
330
18E
100
AcDbEntity
  8
P-SANR-FIXT
100
AcDbLine
 10
2884.864353943099
 20
1535.62500000019
 30
0.0
 11
2884.864353943099
 21
1532.625000000128
 31
0.0
  0
LINE
  5
1EB
330
18E
100
AcDbEntity
  8
P-SANR-FIXT
100
AcDbLine
 10
2899.364353943099
 20
1532.625000000128
 30
0.0
 11
2899.364353943099
 21
1535.62500000019
 31
0.0
  0
LINE
  5
1EC
330
18E
100
AcDbEntity
  8
P-SANR-FIXT
100
AcDbLine
 10
2864.614353943099
 20
1532.625000000127
 30
0.0
 11
2892.114353943095
 21
1532.625000000127
 31
0.0
  0
LINE
  5
1ED
330
18E
100
AcDbEntity
  8
P-SANR-FIXT
100
AcDbLine
 10
2892.114353943096
 20
1532.625000000127
 30
0.0
 11
2919.614353943092
 21
1532.625000000127
 31
0.0
  0
LINE
  5
1EE
330
18E
100
AcDbEntity
  8
P-SANR-FIXT
100
AcDbLine
 10
2864.6143539431
 20
1524.125000000194
 30
0.0
 11
2892.114353943095
 21
1524.125000000194
 31
0.0
  0
LINE
  5
1EF
330
18E
100
AcDbEntity
  8
P-SANR-FIXT
100
AcDbLine
 10
2892.114353943096
 20
1524.125000000194
 30
0.0
 11
2919.614353943091
 21
1524.125000000194
 31
0.0
  0
LINE
  5
1F0
330
18E
100
AcDbEntity
  8
P-SANR-FIXT
100
AcDbLine
 10
2865.614353943088
 20
1523.125000000206
 30
0.0
 11
2892.114353943095
 21
1523.125000000206
 31
0.0
  0
LINE
  5
1F1
330
18E
100
AcDbEntity
  8
P-SANR-FIXT
100
AcDbLine
 10
2892.114353943096
 20
1523.125000000206
 30
0.0
 11
2918.614353943103
 21
1523.125000000206
 31
0.0
  0
LINE
  5
1F2
330
18E
100
AcDbEntity
  8
P-SANR-FIXT
100
AcDbLine
 10
2853.114353943108
 20
1471.95296577319
 30
0.0
 11
2892.114353943095
 21
1471.95296577319
 31
0.0
  0
LINE
  5
1F3
330
18E
100
AcDbEntity
  8
P-SANR-FIXT
100
AcDbLine
 10
2892.114353943095
 20
1471.95296577319
 30
0.0
 11
2931.114353943082
 21
1471.952965773189
 31
0.0
  0
LINE
  5
1F4
330
18E
100
AcDbEntity
  8
P-SANR-FIXT
100
AcDbLine
 10
2886.614353943096
 20
1550.625000000285
 30
0.0
 11
2892.114353943096
 21
1550.625000000285
 31
0.0
  0
LINE
  5
1F5
330
18E
100
AcDbEntity
  8
P-SANR-FIXT
100
AcDbLine
 10
2892.114353943096
 20
1550.625000000285
 30
0.0
 11
2897.614353943096
 21
1550.625000000285
 31
0.0
  0
LINE
  5
1F6
330
18E
100
AcDbEntity
  8
P-SANR-FIXT
100
AcDbLine
 10
2886.614353943096
 20
1539.125000000284
 30
0.0
 11
2892.114353943096
 21
1539.125000000284
 31
0.0
  0
LINE
  5
1F7
330
18E
100
AcDbEntity
  8
P-SANR-FIXT
100
AcDbLine
 10
2892.114353943096
 20
1539.125000000284
 30
0.0
 11
2897.614353943096
 21
1539.125000000284
 31
0.0
  0
LINE
  5
1F8
330
18E
100
AcDbEntity
  8
P-SANR-FIXT
100
AcDbLine
 10
2884.864353943096
 20
1535.62500000019
 30
0.0
 11
2892.114353943096
 21
1535.62500000019
 31
0.0
  0
LINE
  5
1F9
330
18E
100
AcDbEntity
  8
P-SANR-FIXT
100
AcDbLine
 10
2892.114353943096
 20
1535.62500000019
 30
0.0
 11
2899.364353943096
 21
1535.62500000019
 31
0.0
  0
LWPOLYLINE
  5
1FA
330
18E
100
AcDbEntity
  8
P-SANR-FIXT
100
AcDbPolyline
 90
       21
 70
   128
 43
0.0
 10
2851.528567505472
 20
1465.039213562435
 10
2851.586252184237
 20
1465.094635801183
 10
2851.646107019838
 20
1465.147706936155
 10
2851.708036257308
 20
1465.198342064857
 10
2851.771940823077
 20
1465.246460181883
 10
2851.837718483471
 20
1465.291984308511
 10
2851.905264008266
 20
1465.33484161585
 10
2851.974469339031
 20
1465.37496354135
 10
2852.045223762
 20
1465.412285898491
 10
2852.117414085189
 20
1465.446748979461
 10
2852.190924819482
 20
1465.478297650683
 10
2852.265638363385
 20
1465.506881441013
 10
2852.341435191166
 20
1465.532454622484
 10
2852.418194044068
 20
1465.554976283461
 10
2852.495792124305
 20
1465.574410394092
 10
2852.574105291497
 20
1465.590725863943
 10
2852.653008261285
 20
1465.603896591745
 10
2852.732374805749
 20
1465.613901507143
 10
2852.812077955347
 20
1465.620724604405
 10
2852.891990202044
 20
1465.624354968032
 10
2852.942781067844
 20
1465.625000000061
  0
LWPOLYLINE
  5
1FB
330
18E
100
AcDbEntity
  8
P-SANR-FIXT
100
AcDbPolyline
 90
       41
 70
   128
 43
0.0
 10
2892.114353943099
 20
1465.625000000061
 10
2890.547908824774
 20
1465.625000000061
 10
2888.983969684481
 20
1465.625000000061
 10
2887.425038491223
 20
1465.625000000061
 10
2885.873609202354
 20
1465.625000000061
 10
2884.332163773782
 20
1465.625000000061
 10
2882.803168189368
 20
1465.625000000061
 10
2881.289068515881
 20
1465.625000000061
 10
2879.792286989806
 20
1465.625000000061
 10
2878.315218142289
 20
1465.625000000061
 10
2876.860224968394
 20
1465.625000000061
 10
2875.429635146819
 20
1465.625000000061
 10
2874.025737316101
 20
1465.625000000061
 10
2872.650777413286
 20
1465.625000000061
 10
2871.306955080912
 20
1465.625000000061
 10
2869.996420148041
 20
1465.625000000061
 10
2868.721269191002
 20
1465.625000000061
 10
2867.483542179308
 20
1465.625000000061
 10
2866.285219212143
 20
1465.625000000061
 10
2865.128217350625
 20
1465.625000000061
 10
2864.01438755092
 20
1465.625000000061
 10
2862.945511703104
 20
1465.625000000061
 10
2861.923299780516
 20
1465.625000000061
 10
2860.949387104174
 20
1465.625000000061
 10
2860.025331726602
 20
1465.625000000061
 10
2859.152611939285
 20
1465.625000000061
 10
2858.332623907709
 20
1465.625000000061
 10
2857.566679437806
 20
1465.625000000061
 10
2856.856003877334
 20
1465.625000000061
 10
2856.201734155586
 20
1465.625000000061
 10
2855.604916964549
 20
1465.625000000061
 10
2855.066507084412
 20
1465.625000000061
 10
2854.58736585613
 20
1465.625000000061
 10
2854.168259803457
 20
1465.625000000061
 10
2853.809859406672
 20
1465.625000000061
 10
2853.512738029957
 20
1465.625000000061
 10
2853.277371004129
 20
1465.625000000061
 10
2853.104134866223
 20
1465.625000000061
 10
2852.993306757104
 20
1465.625000000061
 10
2852.945063978104
 20
1465.625000000061
 10
2852.942781067844
 20
1465.625000000061
  0
LWPOLYLINE
  5
1FC
330
18E
100
AcDbEntity
  8
P-SANR-FIXT
100
AcDbPolyline
 90
        4
 70
   128
 43
0.0
 10
2852.942781067844
 20
1465.625000000061
 10
2852.974114148067
 20
1465.625000000061
 10
2853.068063262487
 20
1465.625000000061
 10
2853.115343721179
 20
1465.625000000061
  0
LWPOLYLINE
  5
1FD
330
18E
100
AcDbEntity
  8
P-SANR-FIXT
100
AcDbPolyline
 90
       21
 70
   128
 43
0.0
 10
2931.285926818352
 20
1465.62500000006
 10
2931.365905486726
 20
1465.623400213382
 10
2931.445756206291
 20
1465.618603412665
 10
2931.525351232931
 20
1465.610617271768
 10
2931.60456323158
 20
1465.599454566812
 10
2931.683265479943
 20
1465.585133155743
 10
2931.761332071206
 20
1465.567675949764
 10
2931.83863811548
 20
1465.547110876682
 10
2931.915059939584
 20
1465.523470836225
 10
2931.990475284902
 20
1465.496793647416
 10
2932.06476350297
 20
1465.467121988066
 10
2932.137805748484
 20
1465.4345033265
 10
2932.209485169435
 20
1465.398989845619
 10
2932.27968709404
 20
1465.360638359415
 10
2932.348299214194
 20
1465.319510222087
 10
2932.415211765142
 20
1465.275671229879
 10
2932.480317701076
 20
1465.229191515829
 10
2932.543512866388
 20
1465.180145437562
 10
2932.604696162295
 20
1465.128611458342
 10
2932.663769708574
 20
1465.074672021542
 10
2932.700140380725
 20
1465.039213562433
  0
LWPOLYLINE
  5
1FE
330
18E
100
AcDbEntity
  8
P-SANR-FIXT
100
AcDbPolyline
 90
        4
 70
   128
 43
0.0
 10
2931.124573019974
 20
1465.62500000006
 10
2931.235401129093
 20
1465.62500000006
 10
2931.283643908093
 20
1465.62500000006
 10
2931.285926818352
 20
1465.62500000006
  0
LWPOLYLINE
  5
1FF
330
18E
100
AcDbEntity
  8
P-SANR-FIXT
100
AcDbPolyline
 90
       41
 70
   128
 43
0.0
 10
2931.285926818352
 20
1465.62500000006
 10
2931.254593738131
 20
1465.62500000006
 10
2931.160644623709
 20
1465.62500000006
 10
2931.00422977363
 20
1465.62500000006
 10
2930.785599418287
 20
1465.62500000006
 10
2930.505103319608
 20
1465.62500000006
 10
2930.163190211517
 20
1465.62500000006
 10
2929.760407082048
 20
1465.62500000006
 10
2929.297398298287
 20
1465.62500000006
 10
2928.774904575518
 20
1465.62500000006
 10
2928.193761792237
 20
1465.62500000006
 10
2927.554899652927
 20
1465.62500000006
 10
2926.859340200727
 20
1465.625000000061
 10
2926.108196182385
 20
1465.625000000061
 10
2925.302669268092
 20
1465.625000000061
 10
2924.444048129075
 20
1465.625000000061
 10
2923.533706375996
 20
1465.625000000061
 10
2922.57310036146
 20
1465.625000000061
 10
2921.563766850175
 20
1465.625000000061
 10
2920.507320560444
 20
1465.625000000061
 10
2919.40545158097
 20
1465.625000000061
 10
2918.259922667065
 20
1465.625000000061
 10
2917.072566420625
 20
1465.625000000061
 10
2915.845282358356
 20
1465.625000000061
 10
2914.580033872951
 20
1465.625000000061
 10
2913.27884509208
 20
1465.625000000061
 10
2911.943797640223
 20
1465.625000000061
 10
2910.577027308505
 20
1465.625000000061
 10
2909.180720637896
 20
1465.625000000061
 10
2907.757111421206
 20
1465.625000000061
 10
2906.308477129496
 20
1465.625000000061
 10
2904.837135268605
 20
1465.625000000061
 10
2903.34543967164
 20
1465.625000000061
 10
2901.835776733348
 20
1465.625000000061
 10
2900.310561592385
 20
1465.625000000061
 10
2898.772234267614
 20
1465.625000000061
 10
2897.223255754596
 20
1465.625000000061
 10
2895.666104088521
 20
1465.625000000061
 10
2894.103270379878
 20
1465.625000000061
 10
2892.537254829216
 20
1465.625000000061
 10
2892.114353943099
 20
1465.625000000061
  0
LINE
  5
200
330
18E
100
AcDbEntity
  8
P-SANR-FIXT
100
AcDbLine
 10
2851.528567505472
 20
1465.039213562434
 30
0.0
 11
2848.700140380725
 21
1462.210786437688
 31
0.0
  0
LINE
  5
201
330
18E
100
AcDbEntity
  8
P-SANR-FIXT
100
AcDbLine
 10
2935.528567505471
 20
1462.210786437687
 30
0.0
 11
2932.700140380725
 21
1465.039213562433
 31
0.0
  0
LWPOLYLINE
  5
202
330
18E
100
AcDbEntity
  8
P-SANR-FIXT
100
AcDbPolyline
 90
       21
 70
   128
 43
0.0
 10
2848.114353943098
 20
1460.796572875315
 10
2848.115953729776
 20
1460.876551543688
 10
2848.120750530493
 20
1460.956402263253
 10
2848.128736671391
 20
1461.035997289893
 10
2848.139899376347
 20
1461.115209288544
 10
2848.154220787416
 20
1461.193911536905
 10
2848.171677993394
 20
1461.271978128169
 10
2848.192243066477
 20
1461.349284172443
 10
2848.215883106934
 20
1461.425705996547
 10
2848.242560295742
 20
1461.501121341865
 10
2848.272231955093
 20
1461.575409559932
 10
2848.304850616658
 20
1461.648451805447
 10
2848.340364097539
 20
1461.720131226398
 10
2848.378715583743
 20
1461.790333151002
 10
2848.419843721071
 20
1461.858945271157
 10
2848.463682713279
 20
1461.925857822105
 10
2848.510162427329
 20
1461.990963758039
 10
2848.559208505596
 20
1462.054158923352
 10
2848.610742484816
 20
1462.115342219258
 10
2848.664681921616
 20
1462.174415765536
 10
2848.700140380725
 20
1462.210786437688
  0
LWPOLYLINE
  5
203
330
18E
100
AcDbEntity
  8
P-SANR-FIXT
100
AcDbPolyline
 90
       21
 70
   128
 43
0.0
 10
2935.528567505471
 20
1462.210786437687
 10
2935.58398974422
 20
1462.153101758921
 10
2935.637060879191
 20
1462.093246923319
 10
2935.687696007893
 20
1462.03131768585
 10
2935.73581412492
 20
1461.967413120081
 10
2935.781338251548
 20
1461.901635459687
 10
2935.824195558886
 20
1461.834089934893
 10
2935.864317484387
 20
1461.764884604128
 10
2935.901639841528
 20
1461.694130181158
 10
2935.936102922497
 20
1461.621939857969
 10
2935.96765159372
 20
1461.548429123675
 10
2935.99623538405
 20
1461.473715579773
 10
2936.02180856552
 20
1461.397918751992
 10
2936.044330226498
 20
1461.321159899089
 10
2936.063764337129
 20
1461.243561818854
 10
2936.08007980698
 20
1461.165248651662
 10
2936.093250534782
 20
1461.086345681874
 10
2936.103255450179
 20
1461.00697913741
 10
2936.110078547442
 20
1460.927275987812
 10
2936.113708911069
 20
1460.847363741115
 10
2936.114353943098
 20
1460.796572875314
  0
LINE
  5
204
330
18E
100
AcDbEntity
  8
P-SANR-FIXT
100
AcDbLine
 10
2848.114353943094
 20
1460.796572875315
 30
0.0
 11
2848.114353943094
 21
1450.625000000124
 31
0.0
  0
LINE
  5
205
330
18E
100
AcDbEntity
  8
P-SANR-FIXT
100
AcDbLine
 10
2936.114353943102
 20
1450.625000000123
 30
0.0
 11
2936.114353943103
 21
1460.796572875314
 31
0.0
  0
LWPOLYLINE
  5
206
330
18E
100
AcDbEntity
  8
P-SANR-FIXT
100
AcDbPolyline
 90
        9
 70
   128
 43
0.0
 10
2672.446147153339
 20
1422.389883666471
 10
2693.875104516324
 20
1428.988912684801
 10
2715.550811775772
 20
1434.725733446517
 10
2737.438592423975
 20
1439.591168262188
 10
2759.503430681038
 20
1443.577433474014
 10
2781.710027512666
 20
1446.678151908013
 10
2804.022857101081
 20
1448.888363076143
 10
2826.406223678759
 20
1450.204531112022
 10
2848.114353943098
 20
1450.625000000124
  0
LWPOLYLINE
  5
207
330
18E
100
AcDbEntity
  8
P-SANR-FIXT
100
AcDbPolyline
 90
       41
 70
   128
 43
0.0
 10
2892.114353943098
 20
1450.625000000124
 10
2890.354823238886
 20
1450.625000000124
 10
2888.598107408455
 20
1450.625000000124
 10
2886.847016822386
 20
1450.625000000124
 10
2885.104352852072
 20
1450.625000000124
 10
2883.372903388116
 20
1450.625000000124
 10
2881.655438380305
 20
1450.625000000124
 10
2879.954705406279
 20
1450.625000000124
 10
2878.27342527599
 20
1450.625000000124
 10
2876.614287678996
 20
1450.625000000124
 10
2874.97994688152
 20
1450.625000000124
 10
2873.373017480197
 20
1450.625000000124
 10
2871.796070219275
 20
1450.625000000124
 10
2870.251627877977
 20
1450.625000000124
 10
2868.742161234582
 20
1450.625000000124
 10
2867.27008511372
 20
1450.625000000124
 10
2865.837754523157
 20
1450.625000000124
 10
2864.447460886291
 20
1450.625000000124
 10
2863.101428376358
 20
1450.625000000124
 10
2861.801810358239
 20
1450.625000000124
 10
2860.550685943524
 20
1450.625000000124
 10
2859.350056664386
 20
1450.625000000124
 10
2858.201843271549
 20
1450.625000000124
 10
2857.107882661503
 20
1450.625000000124
 10
2856.069924937859
 20
1450.625000000124
 10
2855.089630611557
 20
1450.625000000124
 10
2854.168567944397
 20
1450.625000000124
 10
2853.308210440166
 20
1450.625000000124
 10
2852.509934487338
 20
1450.625000000124
 10
2851.775017157147
 20
1450.625000000124
 10
2851.104634160547
 20
1450.625000000124
 10
2850.499857967325
 20
1450.625000000124
 10
2849.961656090379
 20
1450.625000000124
 10
2849.490889537901
 20
1450.625000000124
 10
2849.088311435951
 20
1450.625000000124
 10
2848.754565823612
 20
1450.625000000124
 10
2848.49018662267
 20
1450.625000000124
 10
2848.295596783448
 20
1450.625000000124
 10
2848.171107608179
 20
1450.625000000124
 10
2848.116918252987
 20
1450.625000000124
 10
2848.114353943105
 20
1450.625000000124
  0
LWPOLYLINE
  5
208
330
18E
100
AcDbEntity
  8
P-SANR-FIXT
100
AcDbPolyline
 90
        8
 70
   128
 43
0.0
 10
2848.114353943105
 20
1450.625000000124
 10
2848.149549250021
 20
1450.625000000124
 10
2848.255078865789
 20
1450.625000000124
 10
2848.430773965535
 20
1450.625000000124
 10
2848.676353474577
 20
1450.625000000124
 10
2848.99142451809
 20
1450.625000000124
 10
2849.375483049616
 20
1450.625000000124
 10
2849.489305024672
 20
1450.625000000124
  0
LWPOLYLINE
  5
209
330
18E
100
AcDbEntity
  8
P-SANR-FIXT
100
AcDbPolyline
 90
        9
 70
   128
 43
0.0
 10
2936.114353943098
 20
1450.625000000123
 10
2958.531898980459
 20
1450.176589309689
 10
2980.913580727914
 20
1448.832074599836
 10
3003.223593269172
 20
1446.593606807286
 10
3025.426245343382
 20
1443.464767002992
 10
3047.48601744354
 20
1439.450560663192
 10
3069.367618640118
 20
1434.55740966171
 10
3091.036043039027
 20
1428.793141996332
 10
3111.782560732857
 20
1422.389883666465
  0
LWPOLYLINE
  5
20A
330
18E
100
AcDbEntity
  8
P-SANR-FIXT
100
AcDbPolyline
 90
        8
 70
   128
 43
0.0
 10
2934.737818348296
 20
1450.625000000123
 10
2935.140396450246
 20
1450.625000000123
 10
2935.474142062584
 20
1450.625000000123
 10
2935.738521263527
 20
1450.625000000123
 10
2935.933111102747
 20
1450.625000000123
 10
2936.057600278018
 20
1450.625000000123
 10
2936.11178963321
 20
1450.625000000123
 10
2936.114353943092
 20
1450.625000000123
  0
LWPOLYLINE
  5
20B
330
18E
100
AcDbEntity
  8
P-SANR-FIXT
100
AcDbPolyline
 90
       41
 70
   128
 43
0.0
 10
2936.114353943092
 20
1450.625000000123
 10
2936.079158636174
 20
1450.625000000123
 10
2935.973629020407
 20
1450.625000000123
 10
2935.797933920662
 20
1450.625000000123
 10
2935.552354411619
 20
1450.625000000123
 10
2935.237283368106
 20
1450.625000000123
 10
2934.853224836581
 20
1450.625000000123
 10
2934.400793228766
 20
1450.625000000123
 10
2933.88071233872
 20
1450.625000000123
 10
2933.293814184922
 20
1450.625000000123
 10
2932.64103767922
 20
1450.625000000123
 10
2931.923427124771
 20
1450.625000000123
 10
2931.142130545382
 20
1450.625000000123
 10
2930.29839784891
 20
1450.625000000123
 10
2929.393578827683
 20
1450.625000000123
 10
2928.429120999119
 20
1450.625000000123
 10
2927.406567290003
 20
1450.625000000124
 10
2926.327553568135
 20
1450.625000000124
 10
2925.193806025293
 20
1450.625000000124
 10
2924.007138415694
 20
1450.625000000124
 10
2922.769449154369
 20
1450.625000000124
 10
2921.482718280112
 20
1450.625000000124
 10
2920.149004287832
 20
1450.625000000124
 10
2918.770440835407
 20
1450.625000000124
 10
2917.349233330282
 20
1450.625000000124
 10
2915.887655401293
 20
1450.625000000124
 10
2914.388045261337
 20
1450.625000000124
 10
2912.85280196674
 20
1450.625000000124
 10
2911.284381579271
 20
1450.625000000124
 10
2909.685293236972
 20
1450.625000000124
 10
2908.058095140069
 20
1450.625000000124
 10
2906.405390458402
 20
1450.625000000124
 10
2904.729823166903
 20
1450.625000000124
 10
2903.034073815801
 20
1450.625000000124
 10
2901.32085524232
 20
1450.625000000124
 10
2899.592908230707
 20
1450.625000000124
 10
2897.852997127576
 20
1450.625000000124
 10
2896.103905419527
 20
1450.625000000124
 10
2894.348431280176
 20
1450.625000000124
 10
2892.589383093662
 20
1450.625000000124
 10
2892.114353943098
 20
1450.625000000124
  0
LWPOLYLINE
  5
20C
330
18E
100
AcDbEntity
  8
P-SANR-FIXT
100
AcDbPolyline
 90
       33
 70
   128
 43
0.0
 10
2638.114353943099
 20
1374.90823146277
 10
2638.15434861005
 20
1376.907698172101
 10
2638.274268627968
 20
1378.903966161228
 10
2638.473922150406
 20
1380.893841827215
 10
2638.752989774317
 20
1382.874141793482
 10
2639.111025051037
 20
1384.841698002523
 10
2639.547455200497
 20
1386.793362784126
 10
2640.061582027561
 20
1388.726013890975
 10
2640.652583038976
 20
1390.636559493576
 10
2641.319512759202
 20
1392.521943126524
 10
2642.061304242955
 20
1394.379148578202
 10
2642.876770782101
 20
1396.205204716069
 10
2643.764607804135
 20
1397.997190239844
 10
2644.723394959217
 20
1399.752238354956
 10
2645.751598392429
 20
1401.467541358814
 10
2646.847573197616
 20
1403.140355132521
 10
2648.009566048885
 20
1404.768003530889
 10
2649.235718005554
 20
1406.347882663693
 10
2650.524067486055
 20
1407.877465061343
 10
2651.872553406054
 20
1409.354303718297
 10
2653.279018475742
 20
1410.776036007745
 10
2654.741212651035
 20
1412.140387461312
 10
2656.256796733171
 20
1413.445175407718
 10
2657.823346110927
 20
1414.688312464588
 10
2659.438354639477
 20
1415.867809877819
 10
2661.099238649693
 20
1416.981780703164
 10
2662.803341081461
 20
1418.028442824936
 10
2664.547935734413
 20
1419.006121807017
 10
2666.330231629264
 20
1419.913253571595
 10
2668.147377472787
 20
1420.748386901357
 10
2669.996466219267
 20
1421.51018576113
 10
2671.874539721162
 20
1422.197431435246
 10
2672.44614715334
 20
1422.389883666471
  0
LWPOLYLINE
  5
20D
330
18E
100
AcDbEntity
  8
P-SANR-FIXT
100
AcDbPolyline
 90
       33
 70
   128
 43
0.0
 10
3111.782560732857
 20
1422.389883666465
 10
3113.668787496319
 20
1421.725342251721
 10
3115.526930910841
 20
1420.985903446831
 10
3117.354018343344
 20
1420.172750196147
 10
3119.147126843694
 20
1419.287183371404
 10
3120.903387820798
 20
1418.330619690613
 10
3122.619991631744
 20
1417.304589451605
 10
3124.294192076623
 20
1416.21073408389
 10
3125.923310791867
 20
1415.050803522712
 10
3127.504741535056
 20
1413.826653409529
 10
3129.035954354357
 20
1412.540242123386
 10
3130.514499635901
 20
1411.19362764792
 10
3131.938012022642
 20
1409.788964279029
 10
3133.304214198429
 20
1408.328499178458
 10
3134.610920531222
 20
1406.81456877882
 10
3135.856040569636
 20
1405.249595045797
 10
3137.037582387222
 20
1403.636081603521
 10
3138.153655769122
 20
1401.976609729301
 10
3139.202475236004
 20
1400.273834224134
 10
3140.18236290046
 20
1398.530479165588
 10
3141.091751151258
 20
1396.749333549862
 10
3141.929185161191
 20
1394.933246829984
 10
3142.693325214483
 20
1393.085124357293
 10
3143.382948850058
 20
1391.207922733501
 10
3143.996952817212
 20
1389.304645080758
 10
3144.534354840577
 20
1387.378336237298
 10
3144.994295191554
 20
1385.432077886346
 10
3145.376038063699
 20
1383.468983626083
 10
3145.67897274985
 20
1381.492193988555
 10
3145.902614619132
 20
1379.50487141549
 10
3146.046605892261
 20
1377.510195199064
 10
3146.110716213916
 20
1375.511356395717
 10
3146.114353943094
 20
1374.908231462762
  0
LINE
  5
20E
330
18E
100
AcDbEntity
  8
P-SANR-FIXT
100
AcDbLine
 10
2638.114353943094
 20
1374.908231462769
 30
0.0
 11
2638.114353943082
 21
499.9999999999956
 31
0.0
  0
LINE
  5
20F
330
18E
100
AcDbEntity
  8
P-SANR-FIXT
100
AcDbLine
 10
3146.114353943088
 20
456.7972285497438
 30
0.0
 11
3146.1143539431
 21
1374.908231462762
 31
0.0
  0
LINE
  5
210
330
18E
100
AcDbEntity
  8
P-SANR-FIXT
100
AcDbLine
 10
2861.964353943069
 20
360.6250000000599
 30
0.0
 11
2861.964353943069
 21
329.1250000000616
 31
0.0
  0
LINE
  5
211
330
18E
100
AcDbEntity
  8
P-SANR-FIXT
100
AcDbLine
 10
2922.264353943097
 20
329.1250000000616
 30
0.0
 11
2922.264353943097
 21
360.6250000000585
 31
0.0
  0
LWPOLYLINE
  5
212
330
18E
100
AcDbEntity
  8
P-SANR-FIXT
100
AcDbPolyline
 90
        6
 70
   128
 43
0.0
 10
2861.964353943078
 20
360.6250000000599
 10
2835.791590050767
 20
361.1485250831121
 10
2809.660696997458
 20
362.7182628038151
 10
2783.613478637743
 20
365.3317019166756
 10
2757.691604964555
 20
368.9846614766159
 10
2752.964353943019
 20
369.8448771186598
  0
LWPOLYLINE
  5
213
330
18E
100
AcDbEntity
  8
P-SANR-FIXT
100
AcDbPolyline
 90
       10
 70
   128
 43
0.0
 10
2863.468155297312
 20
360.6250000000596
 10
2863.230175755353
 20
360.6250000000596
 10
2862.907593674507
 20
360.6250000000596
 10
2862.631736179648
 20
360.6250000000596
 10
2862.403044583921
 20
360.6250000000596
 10
2862.221884745094
 20
360.6250000000596
 10
2862.088546480262
 20
360.6250000000596
 10
2862.003243102209
 20
360.6250000000596
 10
2861.966111078139
 20
360.6250000000599
 10
2861.964353943072
 20
360.6250000000599
  0
LWPOLYLINE
  5
214
330
18E
100
AcDbEntity
  8
P-SANR-FIXT
100
AcDbPolyline
 90
       41
 70
   128
 43
0.0
 10
2861.964353943072
 20
360.6250000000599
 10
2861.988470727244
 20
360.6250000000599
 10
2862.060782498049
 20
360.6250000000599
 10
2862.181173572079
 20
360.6250000000599
 10
2862.349451349297
 20
360.6250000000599
 10
2862.565346621159
 20
360.6250000000599
 10
2862.828514001284
 20
360.6250000000599
 10
2863.138532478004
 20
360.6250000000599
 10
2863.494906087888
 20
360.6250000000599
 10
2863.897064709184
 20
360.6250000000599
 10
2864.344364973887
 20
360.6250000000599
 10
2864.836091296992
 20
360.6250000000599
 10
2865.371457021279
 20
360.6250000000599
 10
2865.949605675793
 20
360.6250000000599
 10
2866.569612346021
 20
360.6250000000599
 10
2867.230485153548
 20
360.6250000000599
 10
2867.931166842863
 20
360.6250000000599
 10
2868.670536472734
 20
360.6250000000599
 10
2869.447411209478
 20
360.6250000000599
 10
2870.260548219237
 20
360.6250000000599
 10
2871.108646656259
 20
360.6250000000599
 10
2871.990349743961
 20
360.6250000000599
 10
2872.90424694549
 20
360.6250000000599
 10
2873.848876220277
 20
360.6250000000599
 10
2874.822726362993
 20
360.6250000000599
 10
2875.824239421154
 20
360.6250000000599
 10
2876.85181318751
 20
360.6250000000599
 10
2877.90380376324
 20
360.6250000000599
 10
2878.978528187836
 20
360.6250000000599
 10
2880.07426713148
 20
360.6250000000599
 10
2881.189267645608
 20
360.6250000000599
 10
2882.321745967251
 20
360.6250000000599
 10
2883.469890372677
 20
360.6250000000599
 10
2884.631864075763
 20
360.6250000000596
 10
2885.805808166455
 20
360.6250000000596
 10
2886.989844584639
 20
360.6250000000596
 10
2888.182079124627
 20
360.6250000000596
 10
2889.380604465483
 20
360.6250000000596
 10
2890.583503222336
 20
360.6250000000596
 10
2891.788851013777
 20
360.6250000000596
 10
2892.114353943084
 20
360.6250000000596
  0
LWPOLYLINE
  5
215
330
18E
100
AcDbEntity
  8
P-SANR-FIXT
100
AcDbPolyline
 90
        3
 70
   128
 43
0.0
 10
2931.378464810596
 20
360.7914930635491
 10
2924.331169410546
 20
360.6282633908149
 10
2922.264353943088
 20
360.6250000000585
  0
LWPOLYLINE
  5
216
330
18E
100
AcDbEntity
  8
P-SANR-FIXT
100
AcDbPolyline
 90
       41
 70
   128
 43
0.0
 10
2892.114353943084
 20
360.6250000000596
 10
2893.320032368811
 20
360.6250000000596
 10
2894.523781966255
 20
360.6250000000596
 10
2895.723676992846
 20
360.6250000000596
 10
2896.917797872505
 20
360.6250000000596
 10
2898.104234266557
 20
360.6250000000596
 10
2899.281088129864
 20
360.6250000000596
 10
2900.446476747294
 20
360.6250000000596
 10
2901.598535745663
 20
360.6250000000596
 10
2902.735422076331
 20
360.6250000000596
 10
2903.855316963693
 20
360.6250000000593
 10
2904.956428814827
 20
360.6250000000593
 10
2906.036996085664
 20
360.6250000000593
 10
2907.095290099078
 20
360.6250000000593
 10
2908.129617810404
 20
360.6250000000593
 10
2909.138324515949
 20
360.6250000000593
 10
2910.119796500166
 20
360.6250000000593
 10
2911.072463617247
 20
360.6250000000593
 10
2911.99480180303
 20
360.6250000000593
 10
2912.885335513173
 20
360.6250000000593
 10
2913.742640083712
 20
360.6250000000593
 10
2914.565344010212
 20
360.6250000000593
 10
2915.352131141896
 20
360.6250000000593
 10
2916.101742787187
 20
360.6250000000591
 10
2916.812979727367
 20
360.6250000000591
 10
2917.484704135051
 20
360.6250000000591
 10
2918.11584139448
 20
360.6250000000591
 10
2918.705381820674
 20
360.6250000000591
 10
2919.252382274714
 20
360.6250000000591
 10
2919.755967672561
 20
360.6250000000591
 10
2920.215332385005
 20
360.6250000000591
 10
2920.629741526497
 20
360.6250000000591
 10
2920.998532130813
 20
360.6250000000591
 10
2921.321114211659
 20
360.6250000000591
 10
2921.596971706518
 20
360.6250000000591
 10
2921.825663302246
 20
360.6250000000591
 10
2922.006823141073
 20
360.6250000000591
 10
2922.140161405903
 20
360.6250000000591
 10
2922.225464783958
 20
360.6250000000591
 10
2922.262596808027
 20
360.6250000000585
 10
2922.264353943094
 20
360.6250000000585
  0
LWPOLYLINE
  5
217
330
18E
100
AcDbEntity
  8
P-SANR-FIXT
100
AcDbPolyline
 90
        9
 70
   128
 43
0.0
 10
2922.264353943094
 20
360.6250000000585
 10
2922.240237158922
 20
360.6250000000585
 10
2922.167925388117
 20
360.6250000000585
 10
2922.047534314087
 20
360.6250000000585
 10
2921.879256536869
 20
360.6250000000585
 10
2921.663361265007
 20
360.6250000000585
 10
2921.400193884882
 20
360.6250000000585
 10
2921.090175408163
 20
360.6250000000585
 10
2920.766786198132
 20
360.6250000000585
  0
LWPOLYLINE
  5
218
330
18E
100
AcDbEntity
  8
P-SANR-FIXT
100
AcDbPolyline
 90
        4
 70
   128
 43
0.0
 10
2640.409764027396
 20
438.419841870351
 10
2639.836078996701
 20
440.8192931111255
 10
2639.255746800859
 20
443.7624231807055
 10
2638.96435394302
 20
445.6311633822214
  0
LWPOLYLINE
  5
219
330
18E
100
AcDbEntity
  8
P-SANR-FIXT
100
AcDbPolyline
 90
       34
 70
   128
 43
0.0
 10
3146.114353943074
 20
456.7972285497443
 10
3146.054361942648
 20
453.7980284857465
 10
3145.874481915771
 20
450.8036265020562
 10
3145.575001632114
 20
447.8188130030753
 10
3145.156400196246
 20
444.8483630536759
 10
3144.619347281167
 20
441.8970287401145
 10
3143.964702056976
 20
438.969531567709
 10
3143.193511816381
 20
436.0705549074357
 10
3142.307010299257
 20
433.2047365035354
 10
3141.306615718919
 20
430.3766610541124
 10
3140.19392849329
 20
427.5908528765953
 10
3138.970728684571
 20
424.8517686697941
 10
3137.638973151519
 20
422.163790384133
 10
3136.200792418898
 20
419.5312182114642
 10
3134.65848726908
 20
416.9582637056782
 10
3133.0145250613
 20
414.449043045117
 10
3131.271535784396
 20
412.0075704475651
 10
3129.432307849393
 20
409.6377517483593
 10
3127.499783628641
 20
407.3433781518842
 10
3125.477054748642
 20
405.1281201664533
 10
3123.367357144111
 20
402.9955217322806
 10
3121.174065881171
 20
400.9489945519302
 10
3118.900689757967
 20
398.991812632322
 10
3116.550865691333
 20
397.1271070470174
 10
3114.128352898508
 20
395.3578609271701
 10
3111.637026883184
 20
393.6869046891527
 10
3109.080873235532
 20
392.1169115064947
 10
3106.463981256104
 20
390.6503930333741
 10
3103.790537413827
 20
389.2896953865072
 10
3101.064818648544
 20
388.0369953918625
 10
3098.291185528824
 20
386.894297102203
 10
3095.474075275982
 20
385.8634285910302
 10
3092.617994665471
 20
384.9460390280537
 10
3091.56061850503
 20
384.6380277125517
  0
LINE
  5
21A
330
18E
100
AcDbEntity
  8
P-SANR-FIXT
100
AcDbLine
 10
3061.846680124694
 20
376.218601800772
 30
0.0
 11
3091.56061850503
 21
384.6380277125517
 31
0.0
  0
LINE
  5
21B
330
18E
100
AcDbEntity
  8
P-SANR-FIXT
100
AcDbLine
 10
2848.114353943095
 20
1450.625000000124
 30
0.0
 11
2892.114353943094
 21
1450.625000000124
 31
0.0
  0
LINE
  5
21C
330
18E
100
AcDbEntity
  8
P-SANR-FIXT
100
AcDbLine
 10
2892.114353943095
 20
1450.625000000124
 30
0.0
 11
2936.114353943095
 21
1450.625000000123
 31
0.0
  0
LINE
  5
21D
330
18E
100
AcDbEntity
  8
P-SANR-FIXT
100
AcDbLine
 10
2892.11435394308
 20
360.6250000000608
 30
0.0
 11
2861.964353943065
 21
360.6250000000608
 31
0.0
  0
LINE
  5
21E
330
18E
100
AcDbEntity
  8
P-SANR-FIXT
100
AcDbLine
 10
2922.264353943094
 20
360.62500000006
 30
0.0
 11
2892.11435394308
 21
360.6250000000608
 31
0.0
  0
LINE
  5
21F
330
18E
100
AcDbEntity
  8
P-SANR-FIXT
100
AcDbLine
 10
2892.114353943079
 20
374.0851087136061
 30
0.0
 11
2733.740105287376
 21
374.085108713607
 31
0.0
  0
LINE
  5
220
330
18E
100
AcDbEntity
  8
P-SANR-FIXT
100
AcDbLine
 10
2940.961675151132
 20
374.0851087136053
 30
0.0
 11
2892.11435394308
 21
374.0851087136061
 31
0.0
  0
ARC
  5
221
330
18E
100
AcDbEntity
  8
P-SANR-FIXT
100
AcDbCircle
 10
2892.114353943082
 20
725.0000000000624
 30
0.0
 40
175.0000000000004
100
AcDbArc
 50
89.99999999999969
 51
269.999999999999
  0
ARC
  5
222
330
18E
100
AcDbEntity
  8
P-SANR-FIXT
100
AcDbCircle
 10
2892.114353943082
 20
725.0000000000624
 30
0.0
 40
175.0000000000004
100
AcDbArc
 50
269.9999999999992
 51
89.9999999999992
  0
ARC
  5
223
330
18E
100
AcDbEntity
  8
P-SANR-FIXT
100
AcDbCircle
 10
2892.114353943082
 20
725.0000000000624
 30
0.0
 40
146.9175109469823
100
AcDbArc
 50
89.99999999999975
 51
269.999999999999
  0
ARC
  5
224
330
18E
100
AcDbEntity
  8
P-SANR-FIXT
100
AcDbCircle
 10
2892.114353943082
 20
725.0000000000624
 30
0.0
 40
101.6000000000006
100
AcDbArc
 50
90.0000000000001
 51
269.999999999999
  0
ARC
  5
225
330
18E
100
AcDbEntity
  8
P-SANR-FIXT
100
AcDbCircle
 10
2892.114353943082
 20
725.0000000000624
 30
0.0
 40
146.9175109469821
100
AcDbArc
 50
269.999999999999
 51
89.99999999999934
  0
ARC
  5
226
330
18E
100
AcDbEntity
  8
P-SANR-FIXT
100
AcDbCircle
 10
2892.114353943082
 20
725.0000000000624
 30
0.0
 40
101.6000000000006
100
AcDbArc
 50
269.999999999999
 51
89.99999999999856
  0
ENDBLK
  5
228
330
18E
100
AcDbEntity
  8
0
100
AcDbBlockEnd
  0
ENDSEC
  0
SECTION
  2
ENTITIES
  0
INSERT
  5
18D
330
71
100
AcDbEntity
  8
P-SANR-FIXT
100
AcDbBlockReference
  2
Automatic flow rate regulator valve_Caleffi_121 DN15 - 2___Pressure gauge H-980146-Est - Idraulica
 10
0.0
 20
0.0
 30
0.0
1001
REVIT
1002
{
1070
     1
1000
863152
1002
}
1002
{
1070
     5
1000
980146
1002
}
1002
{
1070
     2
1000
-2001160
1002
}
  0
INSERT
  5
229
330
71
100
AcDbEntity
  8
P-SANR-FIXT
100
AcDbBlockReference
  2
Automatic flow rate regulator valve_Caleffi_121 DN15 - 2___Pressure gauge H-V1-Est - Idraulica
 10
0.0
 20
0.0
 30
0.0
1001
REVIT
1002
{
1070
     1
1000
863172
1002
}
1002
{
1070
     5
1000
980146
1002
}
1002
{
1070
     2
1000
-2001160
1002
}
  0
ENDSEC
  0
SECTION
  2
OBJECTS
  0
DICTIONARY
  5
C
330
0
100
AcDbDictionary
281
     1
  3
ACAD_CIP_PREVIOUS_PRODUCT_INFO
350
7A
  3
ACAD_COLOR
350
63
  3
ACAD_DETAILVIEWSTYLE
350
6B
  3
ACAD_GROUP
350
D
  3
ACAD_IMAGE_VARS
350
7B
  3
ACAD_LAYOUT
350
62
  3
ACAD_MATERIAL
350
10
  3
ACAD_MLEADERSTYLE
350
66
  3
ACAD_MLINESTYLE
350
5F
  3
ACAD_PLOTSETTINGS
350
61
  3
ACAD_PLOTSTYLENAME
350
E
  3
ACAD_SCALELIST
350
42
  3
ACAD_SECTIONVIEWSTYLE
350
68
  3
ACAD_TABLESTYLE
350
64
  3
ACAD_VISUALSTYLE
350
29
  3
ACDB_RECOMPOSE_DATA
350
234
  3
AcDbVariableDictionary
350
7C
  3
REVIT_DICTIONARY
350
22B
  0
DICTIONARY
  5
230
330
71
100
AcDbDictionary
280
     1
281
     1
  3
ACAD_SORTENTS
360
231
  0
XRECORD
  5
7A
102
{ACAD_REACTORS
330
C
102
}
330
C
100
AcDbXrecord
280
     1
300
RVT
300
2013
300
RVT2013
  0
DICTIONARY
  5
63
102
{ACAD_REACTORS
330
C
102
}
330
C
100
AcDbDictionary
281
     1
  0
DICTIONARY
  5
6B
102
{ACAD_REACTORS
330
C
102
}
330
C
100
AcDbDictionary
281
     1
  3
Imperial24
350
6C
  0
DICTIONARY
  5
D
102
{ACAD_REACTORS
330
C
102
}
330
C
100
AcDbDictionary
281
     1
  0
RASTERVARIABLES
  5
7B
102
{ACAD_REACTORS
330
C
102
}
330
C
100
AcDbRasterVariables
 90
        0
 70
     0
 71
     1
 72
     1
  0
DICTIONARY
  5
62
102
{ACAD_REACTORS
330
C
102
}
330
C
100
AcDbDictionary
281
     1
  3
Layout1
350
70
  3
Layout2
350
78
  3
Model
350
74
  0
DICTIONARY
  5
10
102
{ACAD_REACTORS
330
C
102
}
330
C
100
AcDbDictionary
281
     1
  3
ByBlock
350
19
  3
ByLayer
350
11
  3
Global
350
21
  0
DICTIONARY
  5
66
102
{ACAD_REACTORS
330
C
102
}
330
C
100
AcDbDictionary
281
     1
  3
Standard
350
67
  0
DICTIONARY
  5
5F
102
{ACAD_REACTORS
330
C
102
}
330
C
100
AcDbDictionary
281
     1
  3
Standard
350
60
  0
DICTIONARY
  5
61
102
{ACAD_REACTORS
330
C
102
}
330
C
100
AcDbDictionary
281
     1
  0
ACDBDICTIONARYWDFLT
  5
E
102
{ACAD_REACTORS
330
C
102
}
330
C
100
AcDbDictionary
281
     1
  3
Normal
350
F
100
AcDbDictionaryWithDefault
340
F
  0
DICTIONARY
  5
42
102
{ACAD_REACTORS
330
C
102
}
330
C
100
AcDbDictionary
281
     1
  3
A0
350
43
  3
A1
350
44
  3
A2
350
45
  3
A3
350
46
  3
A4
350
47
  3
A5
350
48
  3
A6
350
49
  3
A7
350
4A
  3
A8
350
4B
  3
A9
350
4C
  3
B0
350
4D
  3
B1
350
4E
  3
B2
350
4F
  3
B3
350
50
  3
B4
350
51
  3
B5
350
52
  3
B6
350
53
  0
DICTIONARY
  5
68
102
{ACAD_REACTORS
330
C
102
}
330
C
100
AcDbDictionary
281
     1
  3
Imperial24
350
6A
  0
DICTIONARY
  5
64
102
{ACAD_REACTORS
330
C
102
}
330
C
100
AcDbDictionary
281
     1
  3
Standard
350
65
  0
DICTIONARY
  5
29
102
{ACAD_REACTORS
330
C
102
}
330
C
100
AcDbDictionary
281
     1
  3
2dWireframe
350
2F
  3
Basic
350
2E
  3
Brighten
350
35
  3
ColorChange
350
39
  3
Conceptual
350
32
  3
Dim
350
34
  3
EdgeColorOff
350
41
  3
Facepattern
350
38
  3
Flat
350
2A
  3
FlatWithEdges
350
2B
  3
Gouraud
350
2C
  3
GouraudWithEdges
350
2D
  3
Hidden
350
31
  3
JitterOff
350
3F
  3
Linepattern
350
37
  3
OverhangOff
350
40
  3
Realistic
350
33
  3
Shaded
350
3E
  3
Shaded with edges
350
3D
  3
Shades of Gray
350
3A
  3
Sketchy
350
3B
  3
Thicken
350
36
  3
Wireframe
350
30
  3
X-Ray
350
3C
  0
XRECORD
  5
234
102
{ACAD_REACTORS
330
C
102
}
330
C
100
AcDbXrecord
280
     1
 90
        1
330
65
  0
DICTIONARY
  5
7C
102
{ACAD_REACTORS
330
C
102
}
330
C
100
AcDbDictionary
281
     1
  3
CANNOSCALE
350
81
  3
CMLEADERSTYLE
350
7E
  3
CTABLESTYLE
350
7D
  3
CVIEWDETAILSTYLE
350
7F
  3
CVIEWSECTIONSTYLE
350
80
  0
DICTIONARY
  5
22B
102
{ACAD_REACTORS
330
C
102
}
330
C
100
AcDbDictionary
281
     1
  3
DRAWING_TOOL
350
22F
  3
REVIT_CATEGORY_MAPPING
350
22D
  3
REVIT_SUB_CATEGORY_MAPPING
350
22E
  3
REVIT_TYPE_MAPPING
350
22C
  0
SORTENTSTABLE
  5
231
102
{ACAD_REACTORS
330
230
102
}
330
230
100
AcDbSortentsTable
330
71
  0
ACDBDETAILVIEWSTYLE
  5
6C
102
{ACAD_REACTORS
330
6B
102
}
330
6B
100
AcDbModelDocViewStyle
 70
     0
  3
Imperial24
290
     1
100
AcDbDetailViewStyle
 70
     0
 71
     0
 90
        3
 71
     1
340
55
 62
   256
 40
0.24
340
0
 62
   256
 40
0.24
300

 40
0.36
280
     3
 71
     2
340
5D
 90
       25
 62
   256
 71
     3
340
55
 62
   256
 40
0.24
 90
        1
 40
0.75
 90
        1
300
%<\AcVar ViewType \f "%tc1">% %<\AcVar ViewDetailId>%\PSCALA %<\AcVar ViewScale \f "%sn">%
 71
     4
340
5D
 90
       25
 62
   256
340
5D
 90
       25
 62
   256
280
     0
  0
LAYOUT
  5
70
102
{ACAD_REACTORS
330
62
102
}
330
62
100
AcDbPlotSettings
  1

  2

  4

  6

 40
0.0
 41
0.0
 42
0.0
 43
0.0
 44
0.0
 45
0.0
 46
0.0
 47
0.0
 48
0.0
 49
0.0
140
0.0
141
0.0
142
1.0
143
1.0
 70
   688
 72
     0
 73
     0
 74
     5
  7

 75
    16
147
1.0
 76
     0
 77
     2
 78
   300
148
0.0
149
0.0
100
AcDbLayout
  1
Layout1
 70
     1
 71
     1
 10
0.0
 20
0.0
 11
12.0
 21
9.0
 12
0.0
 22
0.0
 32
0.0
 14
0.0
 24
0.0
 34
0.0
 15
0.0
 25
0.0
 35
0.0
146
0.0
 13
0.0
 23
0.0
 33
0.0
 16
1.0
 26
0.0
 36
0.0
 17
0.0
 27
1.0
 37
0.0
 76
     0
330
6D
  0
LAYOUT
  5
78
102
{ACAD_REACTORS
330
62
102
}
330
62
100
AcDbPlotSettings
  1

  2

  4

  6

 40
0.0
 41
0.0
 42
0.0
 43
0.0
 44
0.0
 45
0.0
 46
0.0
 47
0.0
 48
0.0
 49
0.0
140
0.0
141
0.0
142
1.0
143
1.0
 70
   688
 72
     0
 73
     0
 74
     5
  7

 75
    16
147
1.0
 76
     0
 77
     2
 78
   300
148
0.0
149
0.0
100
AcDbLayout
  1
Layout2
 70
     1
 71
     2
 10
0.0
 20
0.0
 11
12.0
 21
9.0
 12
0.0
 22
0.0
 32
0.0
 14
0.0
 24
0.0
 34
0.0
 15
0.0
 25
0.0
 35
0.0
146
0.0
 13
0.0
 23
0.0
 33
0.0
 16
1.0
 26
0.0
 36
0.0
 17
0.0
 27
1.0
 37
0.0
 76
     0
330
75
  0
LAYOUT
  5
74
102
{ACAD_REACTORS
330
62
102
}
330
62
100
AcDbPlotSettings
  1

  2

  4

  6

 40
0.0
 41
0.0
 42
0.0
 43
0.0
 44
0.0
 45
0.0
 46
0.0
 47
0.0
 48
0.0
 49
0.0
140
0.0
141
0.0
142
1.0
143
1.0
 70
  1712
 72
     0
 73
     0
 74
     0
  7

 75
     0
147
1.0
 76
     0
 77
     2
 78
   300
148
0.0
149
0.0
100
AcDbLayout
  1
Model
 70
     1
 71
     0
 10
0.0
 20
0.0
 11
12.0
 21
9.0
 12
0.0
 22
0.0
 32
0.0
 14
0.0
 24
0.0
 34
0.0
 15
0.0
 25
0.0
 35
0.0
146
0.0
 13
0.0
 23
0.0
 33
0.0
 16
1.0
 26
0.0
 36
0.0
 17
0.0
 27
1.0
 37
0.0
 76
     0
330
71
  0
MATERIAL
  5
19
102
{ACAD_XDICTIONARY
360
1A
102
}
102
{ACAD_REACTORS
330
10
102
}
330
10
100
AcDbMaterial
  1
ByBlock
 72
     0
 43
0.0208333333333333
 43
0.0
 43
0.0
 43
0.0
 43
0.0
 43
0.0208333333333333
 43
0.0
 43
0.0
 43
0.0
 43
0.0
 43
1.0
 43
0.0
 43
0.0
 43
0.0
 43
0.0
 43
1.0
 77
     0
 47
0.0208333333333333
 47
0.0
 47
0.0
 47
0.0
 47
0.0
 47
0.0208333333333333
 47
0.0
 47
0.0
 47
0.0
 47
0.0
 47
1.0
 47
0.0
 47
0.0
 47
0.0
 47
0.0
 47
1.0
171
     0
 49
0.0208333333333333
 49
0.0
 49
0.0
 49
0.0
 49
0.0
 49
0.0208333333333333
 49
0.0
 49
0.0
 49
0.0
 49
0.0
 49
1.0
 49
0.0
 49
0.0
 49
0.0
 49
0.0
 49
1.0
175
     0
142
0.0208333333333333
142
0.0
142
0.0
142
0.0
142
0.0
142
0.0208333333333333
142
0.0
142
0.0
142
0.0
142
0.0
142
1.0
142
0.0
142
0.0
142
0.0
142
0.0
142
1.0
179
     0
144
0.0208333333333333
144
0.0
144
0.0
144
0.0
144
0.0
144
0.0208333333333333
144
0.0
144
0.0
144
0.0
144
0.0
144
1.0
144
0.0
144
0.0
144
0.0
144
0.0
144
1.0
147
0.0208333333333333
147
0.0
147
0.0
147
0.0
147
0.0
147
0.0208333333333333
147
0.0
147
0.0
147
0.0
147
0.0
147
1.0
147
0.0
147
0.0
147
0.0
147
0.0
147
1.0
  0
MATERIAL
  5
11
102
{ACAD_XDICTIONARY
360
12
102
}
102
{ACAD_REACTORS
330
10
102
}
330
10
100
AcDbMaterial
  1
ByLayer
 72
     0
 43
0.0208333333333333
 43
0.0
 43
0.0
 43
0.0
 43
0.0
 43
0.0208333333333333
 43
0.0
 43
0.0
 43
0.0
 43
0.0
 43
1.0
 43
0.0
 43
0.0
 43
0.0
 43
0.0
 43
1.0
 77
     0
 47
0.0208333333333333
 47
0.0
 47
0.0
 47
0.0
 47
0.0
 47
0.0208333333333333
 47
0.0
 47
0.0
 47
0.0
 47
0.0
 47
1.0
 47
0.0
 47
0.0
 47
0.0
 47
0.0
 47
1.0
171
     0
 49
0.0208333333333333
 49
0.0
 49
0.0
 49
0.0
 49
0.0
 49
0.0208333333333333
 49
0.0
 49
0.0
 49
0.0
 49
0.0
 49
1.0
 49
0.0
 49
0.0
 49
0.0
 49
0.0
 49
1.0
175
     0
142
0.0208333333333333
142
0.0
142
0.0
142
0.0
142
0.0
142
0.0208333333333333
142
0.0
142
0.0
142
0.0
142
0.0
142
1.0
142
0.0
142
0.0
142
0.0
142
0.0
142
1.0
179
     0
144
0.0208333333333333
144
0.0
144
0.0
144
0.0
144
0.0
144
0.0208333333333333
144
0.0
144
0.0
144
0.0
144
0.0
144
1.0
144
0.0
144
0.0
144
0.0
144
0.0
144
1.0
147
0.0208333333333333
147
0.0
147
0.0
147
0.0
147
0.0
147
0.0208333333333333
147
0.0
147
0.0
147
0.0
147
0.0
147
1.0
147
0.0
147
0.0
147
0.0
147
0.0
147
1.0
  0
MATERIAL
  5
21
102
{ACAD_XDICTIONARY
360
22
102
}
102
{ACAD_REACTORS
330
10
102
}
330
10
100
AcDbMaterial
  1
Global
 72
     0
 43
0.0208333333333333
 43
0.0
 43
0.0
 43
0.0
 43
0.0
 43
0.0208333333333333
 43
0.0
 43
0.0
 43
0.0
 43
0.0
 43
1.0
 43
0.0
 43
0.0
 43
0.0
 43
0.0
 43
1.0
 77
     0
 47
0.0208333333333333
 47
0.0
 47
0.0
 47
0.0
 47
0.0
 47
0.0208333333333333
 47
0.0
 47
0.0
 47
0.0
 47
0.0
 47
1.0
 47
0.0
 47
0.0
 47
0.0
 47
0.0
 47
1.0
171
     0
 49
0.0208333333333333
 49
0.0
 49
0.0
 49
0.0
 49
0.0
 49
0.0208333333333333
 49
0.0
 49
0.0
 49
0.0
 49
0.0
 49
1.0
 49
0.0
 49
0.0
 49
0.0
 49
0.0
 49
1.0
175
     0
142
0.0208333333333333
142
0.0
142
0.0
142
0.0
142
0.0
142
0.0208333333333333
142
0.0
142
0.0
142
0.0
142
0.0
142
1.0
142
0.0
142
0.0
142
0.0
142
0.0
142
1.0
179
     0
144
0.0208333333333333
144
0.0
144
0.0
144
0.0
144
0.0
144
0.0208333333333333
144
0.0
144
0.0
144
0.0
144
0.0
144
1.0
144
0.0
144
0.0
144
0.0
144
0.0
144
1.0
147
0.0208333333333333
147
0.0
147
0.0
147
0.0
147
0.0
147
0.0208333333333333
147
0.0
147
0.0
147
0.0
147
0.0
147
1.0
147
0.0
147
0.0
147
0.0
147
0.0
147
1.0
  0
MLEADERSTYLE
  5
67
102
{ACAD_REACTORS
330
66
102
}
330
66
100
AcDbMLeaderStyle
179
     2
170
     2
171
     1
172
     0
 90
        2
 40
0.0
 41
0.0
173
     1
 91
-1056964608
340
5B
 92
       -2
290
     1
 42
0.09
291
     1
 43
0.36
  3
Standard
 44
0.18
300

342
55
174
     1
178
     6
175
     1
176
     0
 93
-1056964608
 45
0.18
292
     0
297
     0
 46
0.18
 94
-1056964608
 47
1.0
 49
1.0
140
1.0
293
     1
141
0.0
294
     1
177
     0
142
1.0
295
     1
296
     0
143
0.125
271
     0
272
     9
273
     9
298
     1
  0
MLINESTYLE
  5
60
102
{ACAD_REACTORS
330
5F
102
}
330
5F
100
AcDbMlineStyle
  2
STANDARD
 70
     0
  3

 62
   256
 51
90.0
 52
90.0
 71
     2
 49
0.5
 62
   256
  6
BYLAYER
 49
-0.5
 62
   256
  6
BYLAYER
  0
ACDBPLACEHOLDER
  5
F
102
{ACAD_REACTORS
330
E
102
}
330
E
  0
SCALE
  5
43
102
{ACAD_REACTORS
330
42
102
}
330
42
100
AcDbScale
 70
     0
300
1:1
140
1.0
141
1.0
290
     1
  0
SCALE
  5
44
102
{ACAD_REACTORS
330
42
102
}
330
42
100
AcDbScale
 70
     0
300
1/128" = 1'-0"
140
0.0078125
141
12.0
290
     0
  0
SCALE
  5
45
102
{ACAD_REACTORS
330
42
102
}
330
42
100
AcDbScale
 70
     0
300
1/64" = 1'-0"
140
0.015625
141
12.0
290
     0
  0
SCALE
  5
46
102
{ACAD_REACTORS
330
42
102
}
330
42
100
AcDbScale
 70
     0
300
1/32" = 1'-0"
140
0.03125
141
12.0
290
     0
  0
SCALE
  5
47
102
{ACAD_REACTORS
330
42
102
}
330
42
100
AcDbScale
 70
     0
300
1/16" = 1'-0"
140
0.0625
141
12.0
290
     0
  0
SCALE
  5
48
102
{ACAD_REACTORS
330
42
102
}
330
42
100
AcDbScale
 70
     0
300
3/32" = 1'-0"
140
0.09375
141
12.0
290
     0
  0
SCALE
  5
49
102
{ACAD_REACTORS
330
42
102
}
330
42
100
AcDbScale
 70
     0
300
1/8" = 1'-0"
140
0.125
141
12.0
290
     0
  0
SCALE
  5
4A
102
{ACAD_REACTORS
330
42
102
}
330
42
100
AcDbScale
 70
     0
300
3/16" = 1'-0"
140
0.1875
141
12.0
290
     0
  0
SCALE
  5
4B
102
{ACAD_REACTORS
330
42
102
}
330
42
100
AcDbScale
 70
     0
300
1/4" = 1'-0"
140
0.25
141
12.0
290
     0
  0
SCALE
  5
4C
102
{ACAD_REACTORS
330
42
102
}
330
42
100
AcDbScale
 70
     0
300
3/8" = 1'-0"
140
0.375
141
12.0
290
     0
  0
SCALE
  5
4D
102
{ACAD_REACTORS
330
42
102
}
330
42
100
AcDbScale
 70
     0
300
1/2" = 1'-0"
140
0.5
141
12.0
290
     0
  0
SCALE
  5
4E
102
{ACAD_REACTORS
330
42
102
}
330
42
100
AcDbScale
 70
     0
300
3/4" = 1'-0"
140
0.75
141
12.0
290
     0
  0
SCALE
  5
4F
102
{ACAD_REACTORS
330
42
102
}
330
42
100
AcDbScale
 70
     0
300
1" = 1'-0"
140
1.0
141
12.0
290
     0
  0
SCALE
  5
50
102
{ACAD_REACTORS
330
42
102
}
330
42
100
AcDbScale
 70
     0
300
1-1/2" = 1'-0"
140
1.5
141
12.0
290
     0
  0
SCALE
  5
51
102
{ACAD_REACTORS
330
42
102
}
330
42
100
AcDbScale
 70
     0
300
3" = 1'-0"
140
3.0
141
12.0
290
     0
  0
SCALE
  5
52
102
{ACAD_REACTORS
330
42
102
}
330
42
100
AcDbScale
 70
     0
300
6" = 1'-0"
140
6.0
141
12.0
290
     0
  0
SCALE
  5
53
102
{ACAD_REACTORS
330
42
102
}
330
42
100
AcDbScale
 70
     0
300
1'-0" = 1'-0"
140
12.0
141
12.0
290
     0
  0
ACDBSECTIONVIEWSTYLE
  5
6A
102
{ACAD_REACTORS
330
68
102
}
330
68
100
AcDbModelDocViewStyle
 70
     0
  3
Imperial24
290
     1
100
AcDbSectionViewStyle
 70
     0
 71
     0
 90
       78
 71
     1
340
55
 62
   256
 40
0.24
340
0
340
0
 62
   256
 40
0.24
300
I, O, Q, S, X, Z
 40
0.48
 90
        3
 40
0.18
 90
        1
 71
     2
340
69
 90
       25
 62
   256
340
5D
 90
       50
 62
   256
 40
0.24
 40
0.0
 40
0.24
 71
     3
340
55
 62
   256
 40
0.24
 90
        1
 40
0.75
 90
        1
300
%<\AcVar ViewType \f "%tc1">% %<\AcVar ViewSectionStartId>%-%<\AcVar ViewSectionEndId>%\PSCALA %<\AcVar ViewScale \f "%sn">%
 71
     4
 62
   256
 62
   257
300
ANSI31
 40
1.0
 90
        0
290
     0
290
     0
 90
        6
 40
0.0
 40
1.570796326794896
 40
0.2617993877991494
 40
1.308996938995747
 40
-0.2617993877991494
 40
1.832595714594046
  0
TABLESTYLE
  5
65
102
{ACAD_XDICTIONARY
360
232
102
}
102
{ACAD_REACTORS
330
64
102
}
330
64
100
AcDbTableStyle
280
     0
  3
Standard
 70
     0
 71
     0
 40
0.06
 41
0.06
280
     0
281
     0
  7
Standard
140
0.18
170
     2
 62
     0
 63
     7
283
     0
 90
      512
 91
        0
  1

274
    -2
284
     1
 64
     0
275
    -2
285
     1
 65
     0
276
    -2
286
     1
 66
     0
277
    -2
287
     1
 67
     0
278
    -2
288
     1
 68
     0
279
    -2
289
     1
 69
     0
  7
Standard
140
0.25
170
     5
 62
     0
 63
     7
283
     0
 90
      512
 91
        0
  1

274
    -2
284
     1
 64
     0
275
    -2
285
     1
 65
     0
276
    -2
286
     1
 66
     0
277
    -2
287
     1
 67
     0
278
    -2
288
     1
 68
     0
279
    -2
289
     1
 69
     0
  7
Standard
140
0.18
170
     5
 62
     0
 63
     7
283
     0
 90
      512
 91
        0
  1

274
    -2
284
     1
 64
     0
275
    -2
285
     1
 65
     0
276
    -2
286
     1
 66
     0
277
    -2
287
     1
 67
     0
278
    -2
288
     1
 68
     0
279
    -2
289
     1
 69
     0
  0
VISUALSTYLE
  5
2F
102
{ACAD_REACTORS
330
29
102
}
330
29
100
AcDbVisualStyle
  2
2dWireframe
 70
     4
177
     3
291
     0
 70
    58
 90
        0
176
     1
 90
        2
176
     1
 90
        0
176
     1
 90
        0
176
     1
 40
0.6
176
     1
 40
30.0
176
     1
 62
     7
420
 16777215
176
     1
 90
        1
176
     1
 90
        4
176
     1
 62
     7
176
     1
 62
   257
176
     1
 90
        1
176
     1
 90
        1
176
     1
 40
1.0
176
     1
 90
        0
176
     1
 62
   257
176
     1
 40
1.0
176
     1
 90
        1
176
     1
 90
        6
176
     1
 90
        2
176
     1
 62
     7
176
     1
 90
        5
176
     1
 90
        0
176
     1
 90
        0
176
     1
290
     0
176
     1
 90
        1
176
     1
 40
0.0
176
     1
 90
        0
176
     1
290
     1
176
     1
290
     1
176
     1
290
     0
176
     1
290
     0
176
     1
290
     0
176
     1
290
     0
176
     1
290
     0
176
     1
290
     0
176
     1
290
     0
176
     1
 90
       50
176
     1
 40
0.0
176
     1
 40
1.0
176
     1
 90
        0
176
     1
 62
    18
420
        0
176
     1
 90
       50
176
     1
 90
        3
176
     1
 62
     5
420
      255
176
     1
290
     0
176
     1
 90
       50
176
     1
 90
       50
176
     1
 90
       50
176
     1
290
     0
176
     1
 90
       50
176
     1
 62
   256
176
     0
 40
1.0
176
     0
 90
        2
176
     1
  1
strokes_ogs.tif
176
     1
290
     0
176
     1
 40
1.0
176
     1
 40
1.0
176
     1
  0
VISUALSTYLE
  5
2E
102
{ACAD_REACTORS
330
29
102
}
330
29
100
AcDbVisualStyle
  2
Basic
 70
     7
177
     3
291
     1
 70
    58
 90
        1
176
     1
 90
        0
176
     1
 90
        1
176
     1
 90
        0
176
     1
 40
0.6
176
     1
 40
30.0
176
     1
 62
     7
420
 16777215
176
     1
 90
        0
176
     1
 90
        4
176
     1
 62
     7
176
     1
 62
   257
176
     1
 90
        1
176
     1
 90
        1
176
     1
 40
1.0
176
     1
 90
        8
176
     1
 62
     7
176
     1
 40
1.0
176
     1
 90
        1
176
     1
 90
        6
176
     1
 90
        2
176
     1
 62
     7
176
     1
 90
        5
176
     1
 90
        0
176
     1
 90
        0
176
     1
290
     0
176
     1
 90
        1
176
     1
 40
0.0
176
     1
 90
        0
176
     1
290
     0
176
     1
290
     1
176
     1
290
     1
176
     1
290
     0
176
     1
290
     0
176
     1
290
     0
176
     1
290
     0
176
     1
290
     0
176
     1
290
     0
176
     1
 90
       50
176
     1
 40
0.0
176
     1
 40
1.0
176
     1
 90
        0
176
     1
 62
    18
420
        0
176
     1
 90
       50
176
     1
 90
        3
176
     1
 62
     5
420
      255
176
     1
290
     0
176
     1
 90
       50
176
     1
 90
       50
176
     1
 90
       50
176
     1
290
     0
176
     1
 90
       50
176
     1
 62
   256
176
     0
 40
1.0
176
     0
 90
        2
176
     1
  1
strokes_ogs.tif
176
     1
290
     0
176
     1
 40
1.0
176
     1
 40
1.0
176
     1
  0
VISUALSTYLE
  5
35
102
{ACAD_REACTORS
330
29
102
}
330
29
100
AcDbVisualStyle
  2
Brighten
 70
    12
177
     3
291
     1
 70
    58
 90
        2
176
     1
 90
        2
176
     1
 90
        0
176
     1
 90
        0
176
     1
 40
0.6
176
     1
 40
30.0
176
     1
 62
     7
420
 16777215
176
     1
 90
        1
176
     1
 90
        4
176
     1
 62
     7
176
     1
 62
   257
176
     1
 90
        1
176
     1
 90
        1
176
     1
 40
1.0
176
     1
 90
        8
176
     1
 62
     7
176
     1
 40
1.0
176
     1
 90
        1
176
     1
 90
        6
176
     1
 90
        2
176
     1
 62
     7
176
     1
 90
        5
176
     1
 90
        0
176
     1
 90
        0
176
     1
290
     0
176
     1
 90
        1
176
     1
 40
50.0
176
     1
 90
        0
176
     1
290
     0
176
     1
290
     1
176
     1
290
     1
176
     1
290
     0
176
     1
290
     0
176
     1
290
     0
176
     1
290
     0
176
     1
290
     0
176
     1
290
     0
176
     1
 90
       50
176
     1
 40
0.0
176
     1
 40
1.0
176
     1
 90
        0
176
     1
 62
    18
420
        0
176
     1
 90
       50
176
     1
 90
        3
176
     1
 62
     5
420
      255
176
     1
290
     0
176
     1
 90
       50
176
     1
 90
       50
176
     1
 90
       50
176
     1
290
     0
176
     1
 90
       50
176
     1
 62
   256
176
     0
 40
1.0
176
     0
 90
        2
176
     1
  1
strokes_ogs.tif
176
     1
290
     0
176
     1
 40
1.0
176
     1
 40
1.0
176
     1
  0
VISUALSTYLE
  5
39
102
{ACAD_REACTORS
330
29
102
}
330
29
100
AcDbVisualStyle
  2
ColorChange
 70
    16
177
     3
291
     1
 70
    58
 90
        2
176
     1
 90
        2
176
     1
 90
        3
176
     1
 90
        0
176
     1
 40
0.6
176
     1
 40
30.0
176
     1
 62
     8
420
  8421504
176
     1
 90
        1
176
     1
 90
        4
176
     1
 62
     7
176
     1
 62
   257
176
     1
 90
        1
176
     1
 90
        1
176
     1
 40
1.0
176
     1
 90
        8
176
     1
 62
     8
420
  8421504
176
     1
 40
1.0
176
     1
 90
        1
176
     1
 90
        6
176
     1
 90
        2
176
     1
 62
     7
176
     1
 90
        5
176
     1
 90
        0
176
     1
 90
        0
176
     1
290
     0
176
     1
 90
        1
176
     1
 40
0.0
176
     1
 90
        0
176
     1
290
     0
176
     1
290
     1
176
     1
290
     1
176
     1
290
     0
176
     1
290
     0
176
     1
290
     0
176
     1
290
     0
176
     1
290
     0
176
     1
290
     0
176
     1
 90
       50
176
     1
 40
0.0
176
     1
 40
1.0
176
     1
 90
        0
176
     1
 62
    18
420
        0
176
     1
 90
       50
176
     1
 90
        3
176
     1
 62
     5
420
      255
176
     1
290
     0
176
     1
 90
       50
176
     1
 90
       50
176
     1
 90
       50
176
     1
290
     0
176
     1
 90
       50
176
     1
 62
   256
176
     0
 40
1.0
176
     0
 90
        2
176
     1
  1
strokes_ogs.tif
176
     1
290
     0
176
     1
 40
1.0
176
     1
 40
1.0
176
     1
  0
VISUALSTYLE
  5
32
102
{ACAD_REACTORS
330
29
102
}
330
29
100
AcDbVisualStyle
  2
Conceptual
 70
     9
177
     3
291
     0
 70
    58
 90
        3
176
     1
 90
        2
176
     1
 90
        0
176
     1
 90
        0
176
     1
 40
0.6
176
     1
 40
30.0
176
     1
 62
     7
420
 16777215
176
     1
 90
        2
176
     1
 90
        2
176
     1
 62
     7
176
     1
 62
   257
176
     1
 90
        1
176
     1
 90
        1
176
     1
 40
179.0
176
     1
 90
        8
176
     1
 62
     7
176
     1
 40
1.0
176
     1
 90
        1
176
     1
 90
        6
176
     1
 90
        2
176
     1
 62
     7
176
     1
 90
        3
176
     1
 90
        0
176
     1
 90
        0
176
     1
290
     0
176
     1
 90
        1
176
     1
 40
0.0
176
     1
 90
        0
176
     1
290
     0
176
     1
290
     1
176
     1
290
     1
176
     1
290
     0
176
     1
290
     0
176
     1
290
     0
176
     1
290
     0
176
     1
290
     0
176
     1
290
     0
176
     1
 90
       50
176
     1
 40
0.0
176
     1
 40
1.0
176
     1
 90
        0
176
     1
 62
    18
420
        0
176
     1
 90
       50
176
     1
 90
        3
176
     1
 62
     5
420
      255
176
     1
290
     0
176
     1
 90
       50
176
     1
 90
       50
176
     1
 90
       50
176
     1
290
     0
176
     1
 90
       50
176
     1
 62
   256
176
     0
 40
1.0
176
     0
 90
        2
176
     1
  1
strokes_ogs.tif
176
     1
290
     0
176
     1
 40
1.0
176
     1
 40
1.0
176
     1
  0
VISUALSTYLE
  5
34
102
{ACAD_REACTORS
330
29
102
}
330
29
100
AcDbVisualStyle
  2
Dim
 70
    11
177
     3
291
     1
 70
    58
 90
        2
176
     1
 90
        2
176
     1
 90
        0
176
     1
 90
        0
176
     1
 40
0.6
176
     1
 40
30.0
176
     1
 62
     7
420
 16777215
176
     1
 90
        1
176
     1
 90
        4
176
     1
 62
     7
176
     1
 62
   257
176
     1
 90
        1
176
     1
 90
        1
176
     1
 40
1.0
176
     1
 90
        8
176
     1
 62
     7
176
     1
 40
1.0
176
     1
 90
        1
176
     1
 90
        6
176
     1
 90
        2
176
     1
 62
     7
176
     1
 90
        5
176
     1
 90
        0
176
     1
 90
        0
176
     1
290
     0
176
     1
 90
        1
176
     1
 40
-50.0
176
     1
 90
        0
176
     1
290
     0
176
     1
290
     1
176
     1
290
     1
176
     1
290
     0
176
     1
290
     0
176
     1
290
     0
176
     1
290
     0
176
     1
290
     0
176
     1
290
     0
176
     1
 90
       50
176
     1
 40
0.0
176
     1
 40
1.0
176
     1
 90
        0
176
     1
 62
    18
420
        0
176
     1
 90
       50
176
     1
 90
        3
176
     1
 62
     5
420
      255
176
     1
290
     0
176
     1
 90
       50
176
     1
 90
       50
176
     1
 90
       50
176
     1
290
     0
176
     1
 90
       50
176
     1
 62
   256
176
     0
 40
1.0
176
     0
 90
        2
176
     1
  1
strokes_ogs.tif
176
     1
290
     0
176
     1
 40
1.0
176
     1
 40
1.0
176
     1
  0
VISUALSTYLE
  5
41
102
{ACAD_REACTORS
330
29
102
}
330
29
100
AcDbVisualStyle
  2
EdgeColorOff
 70
    22
177
     3
291
     1
 70
    58
 90
        2
176
     0
 90
        2
176
     0
 90
        0
176
     0
 90
        0
176
     0
 40
0.6
176
     0
 40
30.0
176
     0
 62
     7
420
 16777215
176
     0
 90
        1
176
     0
 90
        4
176
     0
 62
     7
176
     0
 62
   257
176
     0
 90
        1
176
     0
 90
        1
176
     0
 40
1.0
176
     0
 90
        8
176
     2
 62
     7
176
     0
 40
1.0
176
     0
 90
        1
176
     0
 90
        6
176
     0
 90
        2
176
     0
 62
     7
176
     0
 90
        5
176
     0
 90
        0
176
     0
 90
        0
176
     0
290
     0
176
     0
 90
        1
176
     0
 40
0.0
176
     0
 90
        0
176
     0
290
     0
176
     0
290
     1
176
     0
290
     1
176
     0
290
     0
176
     0
290
     0
176
     0
290
     0
176
     0
290
     0
176
     0
290
     0
176
     0
290
     0
176
     0
 90
       50
176
     0
 40
0.0
176
     0
 40
1.0
176
     0
 90
        0
176
     0
 62
    18
420
        0
176
     0
 90
       50
176
     0
 90
        3
176
     0
 62
     5
420
      255
176
     0
290
     0
176
     0
 90
       50
176
     0
 90
       50
176
     0
 90
       50
176
     0
290
     0
176
     0
 90
       50
176
     0
 62
   256
176
     0
 40
1.0
176
     0
 90
        2
176
     0
  1
strokes_ogs.tif
176
     0
290
     0
176
     0
 40
1.0
176
     0
 40
1.0
176
     0
  0
VISUALSTYLE
  5
38
102
{ACAD_REACTORS
330
29
102
}
330
29
100
AcDbVisualStyle
  2
Facepattern
 70
    15
177
     3
291
     1
 70
    58
 90
        2
176
     1
 90
        2
176
     1
 90
        0
176
     1
 90
        0
176
     1
 40
0.6
176
     1
 40
30.0
176
     1
 62
     7
420
 16777215
176
     1
 90
        1
176
     1
 90
        4
176
     1
 62
     7
176
     1
 62
   257
176
     1
 90
        1
176
     1
 90
        1
176
     1
 40
1.0
176
     1
 90
        8
176
     1
 62
     7
176
     1
 40
1.0
176
     1
 90
        1
176
     1
 90
        6
176
     1
 90
        2
176
     1
 62
     7
176
     1
 90
        5
176
     1
 90
        0
176
     1
 90
        0
176
     1
290
     0
176
     1
 90
        1
176
     1
 40
0.0
176
     1
 90
        0
176
     1
290
     0
176
     1
290
     1
176
     1
290
     1
176
     1
290
     0
176
     1
290
     0
176
     1
290
     0
176
     1
290
     0
176
     1
290
     0
176
     1
290
     0
176
     1
 90
       50
176
     1
 40
0.0
176
     1
 40
1.0
176
     1
 90
        0
176
     1
 62
    18
420
        0
176
     1
 90
       50
176
     1
 90
        3
176
     1
 62
     5
420
      255
176
     1
290
     0
176
     1
 90
       50
176
     1
 90
       50
176
     1
 90
       50
176
     1
290
     0
176
     1
 90
       50
176
     1
 62
   256
176
     0
 40
1.0
176
     0
 90
        2
176
     1
  1
strokes_ogs.tif
176
     1
290
     0
176
     1
 40
1.0
176
     1
 40
1.0
176
     1
  0
VISUALSTYLE
  5
2A
102
{ACAD_REACTORS
330
29
102
}
330
29
100
AcDbVisualStyle
  2
Flat
 70
     0
177
     3
291
     1
 70
    58
 90
        2
176
     1
 90
        1
176
     1
 90
        1
176
     1
 90
        2
176
     1
 40
0.6
176
     1
 40
30.0
176
     1
 62
     7
420
 16777215
176
     1
 90
        0
176
     1
 90
        0
176
     1
 62
     7
176
     1
 62
   257
176
     1
 90
        1
176
     1
 90
        1
176
     1
 40
1.0
176
     1
 90
        8
176
     1
 62
     7
176
     1
 40
1.0
176
     1
 90
        1
176
     1
 90
        6
176
     1
 90
        2
176
     1
 62
     7
176
     1
 90
        5
176
     1
 90
        0
176
     1
 90
        0
176
     1
290
     0
176
     1
 90
       13
176
     1
 40
0.0
176
     1
 90
        0
176
     1
290
     0
176
     1
290
     1
176
     1
290
     1
176
     1
290
     0
176
     1
290
     0
176
     1
290
     0
176
     1
290
     0
176
     1
290
     0
176
     1
290
     0
176
     1
 90
       50
176
     1
 40
0.0
176
     1
 40
1.0
176
     1
 90
        0
176
     1
 62
    18
420
        0
176
     1
 90
       50
176
     1
 90
        3
176
     1
 62
     5
420
      255
176
     1
290
     0
176
     1
 90
       50
176
     1
 90
       50
176
     1
 90
       50
176
     1
290
     0
176
     1
 90
       50
176
     1
 62
   256
176
     0
 40
1.0
176
     0
 90
        2
176
     1
  1
strokes_ogs.tif
176
     1
290
     0
176
     1
 40
1.0
176
     1
 40
1.0
176
     1
  0
VISUALSTYLE
  5
2B
102
{ACAD_REACTORS
330
29
102
}
330
29
100
AcDbVisualStyle
  2
FlatWithEdges
 70
     1
177
     3
291
     1
 70
    58
 90
        2
176
     1
 90
        1
176
     1
 90
        1
176
     1
 90
        2
176
     1
 40
0.6
176
     1
 40
30.0
176
     1
 62
     7
420
 16777215
176
     1
 90
        1
176
     1
 90
        0
176
     1
 62
     7
176
     1
 62
   257
176
     1
 90
        1
176
     1
 90
        1
176
     1
 40
1.0
176
     1
 90
        0
176
     1
 62
   257
176
     1
 40
1.0
176
     1
 90
        1
176
     1
 90
        6
176
     1
 90
        2
176
     1
 62
     7
176
     1
 90
        5
176
     1
 90
        0
176
     1
 90
        0
176
     1
290
     0
176
     1
 90
       13
176
     1
 40
0.0
176
     1
 90
        0
176
     1
290
     0
176
     1
290
     1
176
     1
290
     1
176
     1
290
     0
176
     1
290
     0
176
     1
290
     0
176
     1
290
     0
176
     1
290
     0
176
     1
290
     0
176
     1
 90
       50
176
     1
 40
0.0
176
     1
 40
1.0
176
     1
 90
        0
176
     1
 62
    18
420
        0
176
     1
 90
       50
176
     1
 90
        3
176
     1
 62
     5
420
      255
176
     1
290
     0
176
     1
 90
       50
176
     1
 90
       50
176
     1
 90
       50
176
     1
290
     0
176
     1
 90
       50
176
     1
 62
   256
176
     0
 40
1.0
176
     0
 90
        2
176
     1
  1
strokes_ogs.tif
176
     1
290
     0
176
     1
 40
1.0
176
     1
 40
1.0
176
     1
  0
VISUALSTYLE
  5
2C
102
{ACAD_REACTORS
330
29
102
}
330
29
100
AcDbVisualStyle
  2
Gouraud
 70
     2
177
     3
291
     1
 70
    58
 90
        2
176
     1
 90
        2
176
     1
 90
        1
176
     1
 90
        2
176
     1
 40
0.6
176
     1
 40
30.0
176
     1
 62
     7
420
 16777215
176
     1
 90
        0
176
     1
 90
        0
176
     1
 62
     7
176
     1
 62
   257
176
     1
 90
        1
176
     1
 90
        1
176
     1
 40
1.0
176
     1
 90
        0
176
     1
 62
     7
176
     1
 40
1.0
176
     1
 90
        1
176
     1
 90
        6
176
     1
 90
        2
176
     1
 62
     7
176
     1
 90
        5
176
     1
 90
        0
176
     1
 90
        0
176
     1
290
     0
176
     1
 90
       13
176
     1
 40
0.0
176
     1
 90
        0
176
     1
290
     0
176
     1
290
     1
176
     1
290
     1
176
     1
290
     0
176
     1
290
     0
176
     1
290
     0
176
     1
290
     0
176
     1
290
     0
176
     1
290
     0
176
     1
 90
       50
176
     1
 40
0.0
176
     1
 40
1.0
176
     1
 90
        0
176
     1
 62
    18
420
        0
176
     1
 90
       50
176
     1
 90
        3
176
     1
 62
     5
420
      255
176
     1
290
     0
176
     1
 90
       50
176
     1
 90
       50
176
     1
 90
       50
176
     1
290
     0
176
     1
 90
       50
176
     1
 62
   256
176
     0
 40
1.0
176
     0
 90
        2
176
     1
  1
strokes_ogs.tif
176
     1
290
     0
176
     1
 40
1.0
176
     1
 40
1.0
176
     1
  0
VISUALSTYLE
  5
2D
102
{ACAD_REACTORS
330
29
102
}
330
29
100
AcDbVisualStyle
  2
GouraudWithEdges
 70
     3
177
     3
291
     1
 70
    58
 90
        2
176
     1
 90
        2
176
     1
 90
        1
176
     1
 90
        2
176
     1
 40
0.6
176
     1
 40
30.0
176
     1
 62
     7
420
 16777215
176
     1
 90
        1
176
     1
 90
        0
176
     1
 62
     7
176
     1
 62
   257
176
     1
 90
        1
176
     1
 90
        1
176
     1
 40
1.0
176
     1
 90
        0
176
     1
 62
   257
176
     1
 40
1.0
176
     1
 90
        1
176
     1
 90
        6
176
     1
 90
        2
176
     1
 62
     7
176
     1
 90
        5
176
     1
 90
        0
176
     1
 90
        0
176
     1
290
     0
176
     1
 90
       13
176
     1
 40
0.0
176
     1
 90
        0
176
     1
290
     0
176
     1
290
     1
176
     1
290
     1
176
     1
290
     0
176
     1
290
     0
176
     1
290
     0
176
     1
290
     0
176
     1
290
     0
176
     1
290
     0
176
     1
 90
       50
176
     1
 40
0.0
176
     1
 40
1.0
176
     1
 90
        0
176
     1
 62
    18
420
        0
176
     1
 90
       50
176
     1
 90
        3
176
     1
 62
     5
420
      255
176
     1
290
     0
176
     1
 90
       50
176
     1
 90
       50
176
     1
 90
       50
176
     1
290
     0
176
     1
 90
       50
176
     1
 62
   256
176
     0
 40
1.0
176
     0
 90
        2
176
     1
  1
strokes_ogs.tif
176
     1
290
     0
176
     1
 40
1.0
176
     1
 40
1.0
176
     1
  0
VISUALSTYLE
  5
31
102
{ACAD_REACTORS
330
29
102
}
330
29
100
AcDbVisualStyle
  2
Hidden
 70
     6
177
     3
291
     0
 70
    58
 90
        1
176
     1
 90
        2
176
     1
 90
        2
176
     1
 90
        0
176
     1
 40
0.6
176
     1
 40
30.0
176
     1
 62
     7
420
 16777215
176
     1
 90
        2
176
     1
 90
        2
176
     1
 62
     7
176
     1
 62
   257
176
     1
 90
        2
176
     1
 90
        1
176
     1
 40
40.0
176
     1
 90
        0
176
     1
 62
   257
176
     1
 40
1.0
176
     1
 90
        1
176
     1
 90
        6
176
     1
 90
        2
176
     1
 62
     7
176
     1
 90
        3
176
     1
 90
        0
176
     1
 90
        0
176
     1
290
     0
176
     1
 90
        1
176
     1
 40
0.0
176
     1
 90
        0
176
     1
290
     0
176
     1
290
     1
176
     1
290
     1
176
     1
290
     0
176
     1
290
     0
176
     1
290
     0
176
     1
290
     0
176
     1
290
     0
176
     1
290
     0
176
     1
 90
       50
176
     1
 40
0.0
176
     1
 40
1.0
176
     1
 90
        0
176
     1
 62
    18
420
        0
176
     1
 90
       50
176
     1
 90
        3
176
     1
 62
     5
420
      255
176
     1
290
     0
176
     1
 90
       50
176
     1
 90
       50
176
     1
 90
       50
176
     1
290
     0
176
     1
 90
       50
176
     1
 62
   256
176
     0
 40
1.0
176
     0
 90
        2
176
     1
  1
strokes_ogs.tif
176
     1
290
     0
176
     1
 40
1.0
176
     1
 40
1.0
176
     1
  0
VISUALSTYLE
  5
3F
102
{ACAD_REACTORS
330
29
102
}
330
29
100
AcDbVisualStyle
  2
JitterOff
 70
    20
177
     3
291
     1
 70
    58
 90
        2
176
     0
 90
        2
176
     0
 90
        0
176
     0
 90
        0
176
     0
 40
0.6
176
     0
 40
30.0
176
     0
 62
     7
420
 16777215
176
     0
 90
        1
176
     0
 90
        4
176
     0
 62
     7
176
     0
 62
   257
176
     0
 90
        1
176
     0
 90
        1
176
     0
 40
1.0
176
     0
 90
       10
176
     2
 62
     7
176
     0
 40
1.0
176
     0
 90
        1
176
     0
 90
        6
176
     0
 90
        2
176
     0
 62
     7
176
     0
 90
        5
176
     0
 90
        0
176
     0
 90
        0
176
     0
290
     0
176
     0
 90
        1
176
     0
 40
0.0
176
     0
 90
        0
176
     0
290
     0
176
     0
290
     1
176
     0
290
     1
176
     0
290
     0
176
     0
290
     0
176
     0
290
     0
176
     0
290
     0
176
     0
290
     0
176
     0
290
     0
176
     0
 90
       50
176
     0
 40
0.0
176
     0
 40
1.0
176
     0
 90
        0
176
     0
 62
    18
420
        0
176
     0
 90
       50
176
     0
 90
        3
176
     0
 62
     5
420
      255
176
     0
290
     0
176
     0
 90
       50
176
     0
 90
       50
176
     0
 90
       50
176
     0
290
     0
176
     0
 90
       50
176
     0
 62
   256
176
     0
 40
1.0
176
     0
 90
        2
176
     0
  1
strokes_ogs.tif
176
     0
290
     0
176
     0
 40
1.0
176
     0
 40
1.0
176
     0
  0
VISUALSTYLE
  5
37
102
{ACAD_REACTORS
330
29
102
}
330
29
100
AcDbVisualStyle
  2
Linepattern
 70
    14
177
     3
291
     1
 70
    58
 90
        2
176
     1
 90
        2
176
     1
 90
        0
176
     1
 90
        0
176
     1
 40
0.6
176
     1
 40
30.0
176
     1
 62
     7
420
 16777215
176
     1
 90
        1
176
     1
 90
        4
176
     1
 62
     7
176
     1
 62
   257
176
     1
 90
        7
176
     1
 90
        7
176
     1
 40
1.0
176
     1
 90
        8
176
     1
 62
     7
176
     1
 40
1.0
176
     1
 90
        1
176
     1
 90
        6
176
     1
 90
        2
176
     1
 62
     7
176
     1
 90
        5
176
     1
 90
        0
176
     1
 90
        0
176
     1
290
     0
176
     1
 90
        1
176
     1
 40
0.0
176
     1
 90
        0
176
     1
290
     0
176
     1
290
     1
176
     1
290
     1
176
     1
290
     0
176
     1
290
     0
176
     1
290
     0
176
     1
290
     0
176
     1
290
     0
176
     1
290
     0
176
     1
 90
       50
176
     1
 40
0.0
176
     1
 40
1.0
176
     1
 90
        0
176
     1
 62
    18
420
        0
176
     1
 90
       50
176
     1
 90
        3
176
     1
 62
     5
420
      255
176
     1
290
     0
176
     1
 90
       50
176
     1
 90
       50
176
     1
 90
       50
176
     1
290
     0
176
     1
 90
       50
176
     1
 62
   256
176
     0
 40
1.0
176
     0
 90
        2
176
     1
  1
strokes_ogs.tif
176
     1
290
     0
176
     1
 40
1.0
176
     1
 40
1.0
176
     1
  0
VISUALSTYLE
  5
40
102
{ACAD_REACTORS
330
29
102
}
330
29
100
AcDbVisualStyle
  2
OverhangOff
 70
    21
177
     3
291
     1
 70
    58
 90
        2
176
     0
 90
        2
176
     0
 90
        0
176
     0
 90
        0
176
     0
 40
0.6
176
     0
 40
30.0
176
     0
 62
     7
420
 16777215
176
     0
 90
        1
176
     0
 90
        4
176
     0
 62
     7
176
     0
 62
   257
176
     0
 90
        1
176
     0
 90
        1
176
     0
 40
1.0
176
     0
 90
        9
176
     2
 62
     7
176
     0
 40
1.0
176
     0
 90
        1
176
     0
 90
        6
176
     0
 90
        2
176
     0
 62
     7
176
     0
 90
        5
176
     0
 90
        0
176
     0
 90
        0
176
     0
290
     0
176
     0
 90
        1
176
     0
 40
0.0
176
     0
 90
        0
176
     0
290
     0
176
     0
290
     1
176
     0
290
     1
176
     0
290
     0
176
     0
290
     0
176
     0
290
     0
176
     0
290
     0
176
     0
290
     0
176
     0
290
     0
176
     0
 90
       50
176
     0
 40
0.0
176
     0
 40
1.0
176
     0
 90
        0
176
     0
 62
    18
420
        0
176
     0
 90
       50
176
     0
 90
        3
176
     0
 62
     5
420
      255
176
     0
290
     0
176
     0
 90
       50
176
     0
 90
       50
176
     0
 90
       50
176
     0
290
     0
176
     0
 90
       50
176
     0
 62
   256
176
     0
 40
1.0
176
     0
 90
        2
176
     0
  1
strokes_ogs.tif
176
     0
290
     0
176
     0
 40
1.0
176
     0
 40
1.0
176
     0
  0
VISUALSTYLE
  5
33
102
{ACAD_REACTORS
330
29
102
}
330
29
100
AcDbVisualStyle
  2
Realistic
 70
     8
177
     3
291
     0
 70
    58
 90
        2
176
     1
 90
        3
176
     1
 90
        0
176
     1
 90
        2
176
     1
 40
0.6
176
     1
 40
30.0
176
     1
 62
     7
420
 16777215
176
     1
 90
        0
176
     1
 90
        0
176
     1
 62
     7
176
     1
 62
   257
176
     1
 90
        1
176
     1
 90
        1
176
     1
 40
1.0
176
     1
 90
        8
176
     1
 62
   257
176
     1
 40
1.0
176
     1
 90
        1
176
     1
 90
        6
176
     1
 90
        2
176
     1
 62
     7
176
     1
 90
        3
176
     1
 90
        0
176
     1
 90
        0
176
     1
290
     0
176
     1
 90
       13
176
     1
 40
0.0
176
     1
 90
        0
176
     1
290
     0
176
     1
290
     1
176
     1
290
     1
176
     1
290
     0
176
     1
290
     0
176
     1
290
     0
176
     1
290
     0
176
     1
290
     0
176
     1
290
     0
176
     1
 90
       50
176
     1
 40
0.0
176
     1
 40
1.0
176
     1
 90
        0
176
     1
 62
    18
420
        0
176
     1
 90
       50
176
     1
 90
        3
176
     1
 62
     5
420
      255
176
     1
290
     0
176
     1
 90
       50
176
     1
 90
       50
176
     1
 90
       50
176
     1
290
     0
176
     1
 90
       50
176
     1
 62
   256
176
     0
 40
1.0
176
     0
 90
        2
176
     1
  1
strokes_ogs.tif
176
     1
290
     0
176
     1
 40
1.0
176
     1
 40
1.0
176
     1
  0
VISUALSTYLE
  5
3E
102
{ACAD_REACTORS
330
29
102
}
330
29
100
AcDbVisualStyle
  2
Shaded
 70
    27
177
     3
291
     0
 70
    58
 90
        2
176
     1
 90
        2
176
     1
 90
        1
176
     1
 90
        2
176
     1
 40
0.6
176
     1
 40
30.0
176
     1
 62
     7
420
 16777215
176
     1
 90
        0
176
     1
 90
        4
176
     1
 62
     7
176
     1
 62
   257
176
     1
 90
        1
176
     1
 90
        1
176
     1
 40
1.0
176
     1
 90
        8
176
     1
 62
   257
176
     1
 40
1.0
176
     1
 90
        1
176
     1
 90
        6
176
     1
 90
        2
176
     1
 62
     8
420
  7895160
176
     1
 90
        3
176
     1
 90
        0
176
     1
 90
        0
176
     1
290
     0
176
     1
 90
        5
176
     1
 40
0.0
176
     1
 90
        0
176
     1
290
     0
176
     1
290
     1
176
     1
290
     1
176
     1
290
     0
176
     1
290
     0
176
     1
290
     0
176
     1
290
     0
176
     1
290
     0
176
     1
290
     0
176
     1
 90
       50
176
     1
 40
0.0
176
     1
 40
1.0
176
     1
 90
        0
176
     1
 62
    18
420
        0
176
     1
 90
       50
176
     1
 90
        3
176
     1
 62
     5
420
      255
176
     1
290
     0
176
     1
 90
       50
176
     1
 90
       50
176
     1
 90
       50
176
     1
290
     0
176
     1
 90
       50
176
     1
 62
   256
176
     0
 40
1.0
176
     0
 90
        2
176
     1
  1
strokes_ogs.tif
176
     1
290
     0
176
     1
 40
1.0
176
     1
 40
1.0
176
     1
  0
VISUALSTYLE
  5
3D
102
{ACAD_REACTORS
330
29
102
}
330
29
100
AcDbVisualStyle
  2
Shaded with edges
 70
    26
177
     3
291
     0
 70
    58
 90
        2
176
     1
 90
        2
176
     1
 90
        1
176
     1
 90
        2
176
     1
 40
0.6
176
     1
 40
30.0
176
     1
 62
     7
420
 16777215
176
     1
 90
        1
176
     1
 90
       10
176
     1
 62
     7
176
     1
 62
   257
176
     1
 90
        2
176
     1
 90
        1
176
     1
 40
1.0
176
     1
 90
        8
176
     1
 62
   257
176
     1
 40
1.0
176
     1
 90
        1
176
     1
 90
        6
176
     1
 90
        2
176
     1
 62
     7
176
     1
 90
        3
176
     1
 90
        0
176
     1
 90
        0
176
     1
290
     0
176
     1
 90
        5
176
     1
 40
0.0
176
     1
 90
        0
176
     1
290
     0
176
     1
290
     1
176
     1
290
     1
176
     1
290
     0
176
     1
290
     0
176
     1
290
     0
176
     1
290
     0
176
     1
290
     0
176
     1
290
     0
176
     1
 90
       50
176
     1
 40
0.0
176
     1
 40
1.0
176
     1
 90
        0
176
     1
 62
    18
420
        0
176
     1
 90
       50
176
     1
 90
        3
176
     1
 62
     5
420
      255
176
     1
290
     0
176
     1
 90
       50
176
     1
 90
       50
176
     1
 90
       50
176
     1
290
     0
176
     1
 90
       50
176
     1
 62
   256
176
     0
 40
1.0
176
     0
 90
        2
176
     1
  1
strokes_ogs.tif
176
     1
290
     0
176
     1
 40
1.0
176
     1
 40
1.0
176
     1
  0
VISUALSTYLE
  5
3A
102
{ACAD_REACTORS
330
29
102
}
330
29
100
AcDbVisualStyle
  2
Shades of Gray
 70
    23
177
     3
291
     0
 70
    58
 90
        2
176
     1
 90
        2
176
     1
 90
        3
176
     1
 90
        0
176
     1
 40
0.6
176
     1
 40
30.0
176
     1
 62
     7
420
 16777215
176
     1
 90
        2
176
     1
 90
        2
176
     1
 62
     7
176
     1
 62
     7
176
     1
 90
        1
176
     1
 90
        1
176
     1
 40
40.0
176
     1
 90
        8
176
     1
 62
     7
176
     1
 40
1.0
176
     1
 90
        1
176
     1
 90
        6
176
     1
 90
        2
176
     1
 62
     7
176
     1
 90
        3
176
     1
 90
        0
176
     1
 90
        0
176
     1
290
     0
176
     1
 90
        1
176
     1
 40
0.0
176
     1
 90
        0
176
     1
290
     0
176
     1
290
     1
176
     1
290
     1
176
     1
290
     0
176
     1
290
     0
176
     1
290
     0
176
     1
290
     0
176
     1
290
     0
176
     1
290
     0
176
     1
 90
       50
176
     1
 40
0.0
176
     1
 40
1.0
176
     1
 90
        0
176
     1
 62
    18
420
        0
176
     1
 90
       50
176
     1
 90
        3
176
     1
 62
     5
420
      255
176
     1
290
     0
176
     1
 90
       50
176
     1
 90
       50
176
     1
 90
       50
176
     1
290
     0
176
     1
 90
       50
176
     1
 62
   256
176
     0
 40
1.0
176
     0
 90
        2
176
     1
  1
strokes_ogs.tif
176
     1
290
     0
176
     1
 40
1.0
176
     1
 40
1.0
176
     1
  0
VISUALSTYLE
  5
3B
102
{ACAD_REACTORS
330
29
102
}
330
29
100
AcDbVisualStyle
  2
Sketchy
 70
    24
177
     3
291
     0
 70
    58
 90
        1
176
     1
 90
        2
176
     1
 90
        2
176
     1
 90
        0
176
     1
 40
0.6
176
     1
 40
30.0
176
     1
 62
     7
420
 16777215
176
     1
 90
        2
176
     1
 90
        2
176
     1
 62
     7
176
     1
 62
     7
176
     1
 90
        1
176
     1
 90
        1
176
     1
 40
40.0
176
     1
 90
       11
176
     1
 62
     7
176
     1
 40
1.0
176
     1
 90
        1
176
     1
 90
        6
176
     1
 90
        2
176
     1
 62
     7
176
     1
 90
        6
176
     1
 90
        0
176
     1
 90
        0
176
     1
290
     0
176
     1
 90
        1
176
     1
 40
0.0
176
     1
 90
        0
176
     1
290
     0
176
     1
290
     1
176
     1
290
     1
176
     1
290
     0
176
     1
290
     0
176
     1
290
     0
176
     1
290
     0
176
     1
290
     0
176
     1
290
     0
176
     1
 90
       50
176
     1
 40
0.0
176
     1
 40
1.0
176
     1
 90
        0
176
     1
 62
    18
420
        0
176
     1
 90
       50
176
     1
 90
        3
176
     1
 62
     5
420
      255
176
     1
290
     0
176
     1
 90
       50
176
     1
 90
       50
176
     1
 90
       50
176
     1
290
     0
176
     1
 90
       50
176
     1
 62
   256
176
     0
 40
1.0
176
     0
 90
        2
176
     1
  1
strokes_ogs.tif
176
     1
290
     0
176
     1
 40
1.0
176
     1
 40
1.0
176
     1
  0
VISUALSTYLE
  5
36
102
{ACAD_REACTORS
330
29
102
}
330
29
100
AcDbVisualStyle
  2
Thicken
 70
    13
177
     3
291
     1
 70
    58
 90
        2
176
     1
 90
        2
176
     1
 90
        0
176
     1
 90
        0
176
     1
 40
0.6
176
     1
 40
30.0
176
     1
 62
     7
420
 16777215
176
     1
 90
        1
176
     1
 90
        4
176
     1
 62
     7
176
     1
 62
   257
176
     1
 90
        1
176
     1
 90
        1
176
     1
 40
1.0
176
     1
 90
       12
176
     1
 62
     7
176
     1
 40
1.0
176
     1
 90
        1
176
     1
 90
        6
176
     1
 90
        2
176
     1
 62
     7
176
     1
 90
        5
176
     1
 90
        0
176
     1
 90
        0
176
     1
290
     0
176
     1
 90
        1
176
     1
 40
0.0
176
     1
 90
        0
176
     1
290
     0
176
     1
290
     1
176
     1
290
     1
176
     1
290
     0
176
     1
290
     0
176
     1
290
     0
176
     1
290
     0
176
     1
290
     0
176
     1
290
     0
176
     1
 90
       50
176
     1
 40
0.0
176
     1
 40
1.0
176
     1
 90
        0
176
     1
 62
    18
420
        0
176
     1
 90
       50
176
     1
 90
        3
176
     1
 62
     5
420
      255
176
     1
290
     0
176
     1
 90
       50
176
     1
 90
       50
176
     1
 90
       50
176
     1
290
     0
176
     1
 90
       50
176
     1
 62
   256
176
     0
 40
1.0
176
     0
 90
        2
176
     1
  1
strokes_ogs.tif
176
     1
290
     0
176
     1
 40
1.0
176
     1
 40
1.0
176
     1
  0
VISUALSTYLE
  5
30
102
{ACAD_REACTORS
330
29
102
}
330
29
100
AcDbVisualStyle
  2
Wireframe
 70
     5
177
     3
291
     0
 70
    58
 90
        0
176
     1
 90
        2
176
     1
 90
        0
176
     1
 90
        0
176
     1
 40
0.6
176
     1
 40
30.0
176
     1
 62
     7
420
 16777215
176
     1
 90
        1
176
     1
 90
        4
176
     1
 62
     7
176
     1
 62
   257
176
     1
 90
        1
176
     1
 90
        1
176
     1
 40
1.0
176
     1
 90
        0
176
     1
 62
   257
176
     1
 40
1.0
176
     1
 90
        1
176
     1
 90
        6
176
     1
 90
        2
176
     1
 62
     7
176
     1
 90
        3
176
     1
 90
        0
176
     1
 90
        0
176
     1
290
     0
176
     1
 90
        1
176
     1
 40
0.0
176
     1
 90
        0
176
     1
290
     0
176
     1
290
     1
176
     1
290
     1
176
     1
290
     0
176
     1
290
     0
176
     1
290
     0
176
     1
290
     0
176
     1
290
     0
176
     1
290
     0
176
     1
 90
       50
176
     1
 40
0.0
176
     1
 40
1.0
176
     1
 90
        0
176
     1
 62
    18
420
        0
176
     1
 90
       50
176
     1
 90
        3
176
     1
 62
     5
420
      255
176
     1
290
     0
176
     1
 90
       50
176
     1
 90
       50
176
     1
 90
       50
176
     1
290
     0
176
     1
 90
       50
176
     1
 62
   256
176
     0
 40
1.0
176
     0
 90
        2
176
     1
  1
strokes_ogs.tif
176
     1
290
     0
176
     1
 40
1.0
176
     1
 40
1.0
176
     1
  0
VISUALSTYLE
  5
3C
102
{ACAD_REACTORS
330
29
102
}
330
29
100
AcDbVisualStyle
  2
X-Ray
 70
    25
177
     3
291
     0
 70
    58
 90
        2
176
     1
 90
        2
176
     1
 90
        1
176
     1
 90
        1
176
     1
 40
0.5
176
     1
 40
30.0
176
     1
 62
     7
420
 16777215
176
     1
 90
        1
176
     1
 90
        0
176
     1
 62
     7
176
     1
 62
   257
176
     1
 90
        1
176
     1
 90
        1
176
     1
 40
1.0
176
     1
 90
        8
176
     1
 62
     7
176
     1
 40
1.0
176
     1
 90
        1
176
     1
 90
        6
176
     1
 90
        2
176
     1
 62
     7
176
     1
 90
        3
176
     1
 90
        0
176
     1
 90
        0
176
     1
290
     0
176
     1
 90
       13
176
     1
 40
0.0
176
     1
 90
        0
176
     1
290
     0
176
     1
290
     1
176
     1
290
     1
176
     1
290
     0
176
     1
290
     0
176
     1
290
     0
176
     1
290
     0
176
     1
290
     0
176
     1
290
     0
176
     1
 90
       50
176
     1
 40
0.0
176
     1
 40
1.0
176
     1
 90
        0
176
     1
 62
    18
420
        0
176
     1
 90
       50
176
     1
 90
        3
176
     1
 62
     5
420
      255
176
     1
290
     0
176
     1
 90
       50
176
     1
 90
       50
176
     1
 90
       50
176
     1
290
     0
176
     1
 90
       50
176
     1
 62
   256
176
     0
 40
1.0
176
     0
 90
        2
176
     1
  1
strokes_ogs.tif
176
     1
290
     0
176
     1
 40
1.0
176
     1
 40
1.0
176
     1
  0
DICTIONARYVAR
  5
81
102
{ACAD_REACTORS
330
7C
102
}
330
7C
100
DictionaryVariables
280
     0
  1
1:1
  0
DICTIONARYVAR
  5
7E
102
{ACAD_REACTORS
330
7C
102
}
330
7C
100
DictionaryVariables
280
     0
  1
STANDARD
  0
DICTIONARYVAR
  5
7D
102
{ACAD_REACTORS
330
7C
102
}
330
7C
100
DictionaryVariables
280
     0
  1
STANDARD
  0
DICTIONARYVAR
  5
7F
102
{ACAD_REACTORS
330
7C
102
}
330
7C
100
DictionaryVariables
280
     0
  1
Imperial24
  0
DICTIONARYVAR
  5
80
102
{ACAD_REACTORS
330
7C
102
}
330
7C
100
DictionaryVariables
280
     0
  1
Imperial24
  0
XRECORD
  5
22F
102
{ACAD_REACTORS
330
22B
102
}
330
22B
100
AcDbXrecord
280
     1
  1
BUILDING_ID
  1
Progetto per messa in tavola DXF, DWG
  1
FLOOR_ID
  1
694395
  0
XRECORD
  5
22D
102
{ACAD_REACTORS
330
22B
102
}
330
22B
100
AcDbXrecord
280
     1
  1
-2001160
  1
Apparecchi idraulici
  0
XRECORD
  5
22E
102
{ACAD_REACTORS
330
22B
102
}
330
22B
100
AcDbXrecord
280
     1
  1
790271
  1
Body
  0
XRECORD
  5
22C
102
{ACAD_REACTORS
330
22B
102
}
330
22B
100
AcDbXrecord
280
     1
  1
980146
  1
Automatic flow rate regulator valve_Caleffi_121 DN15 : 2''_Pressure gauge H
  0
DICTIONARY
  5
1A
330
19
100
AcDbDictionary
280
     1
281
     1
  3
BUMPTILE
360
1C
  3
DIFFUSETILE
360
1B
  3
OPACITYTILE
360
1F
  3
REFLECTIONTILE
360
1E
  3
REFRACTIONTILE
360
20
  3
SPECULARTILE
360
1D
  0
DICTIONARY
  5
12
330
11
100
AcDbDictionary
280
     1
281
     1
  3
BUMPTILE
360
14
  3
DIFFUSETILE
360
13
  3
OPACITYTILE
360
17
  3
REFLECTIONTILE
360
16
  3
REFRACTIONTILE
360
18
  3
SPECULARTILE
360
15
  0
DICTIONARY
  5
22
330
21
100
AcDbDictionary
280
     1
281
     1
  3
BUMPTILE
360
24
  3
DIFFUSETILE
360
23
  3
OPACITYTILE
360
27
  3
REFLECTIONTILE
360
26
  3
REFRACTIONTILE
360
28
  3
SPECULARTILE
360
25
  0
DICTIONARY
  5
232
330
65
100
AcDbDictionary
280
     1
281
     1
  3
ACAD_ROUNDTRIP_2008_TABLESTYLE_CELLSTYLEMAP
360
233
  0
XRECORD
  5
1C
102
{ACAD_REACTORS
330
1A
102
}
330
1A
100
AcDbXrecord
280
     1
270
     1
271
     1
  0
XRECORD
  5
1B
102
{ACAD_REACTORS
330
1A
102
}
330
1A
100
AcDbXrecord
280
     1
270
     1
271
     1
  0
XRECORD
  5
1F
102
{ACAD_REACTORS
330
1A
102
}
330
1A
100
AcDbXrecord
280
     1
270
     1
271
     1
  0
XRECORD
  5
1E
102
{ACAD_REACTORS
330
1A
102
}
330
1A
100
AcDbXrecord
280
     1
270
     1
271
     1
  0
XRECORD
  5
20
102
{ACAD_REACTORS
330
1A
102
}
330
1A
100
AcDbXrecord
280
     1
270
     1
271
     1
  0
XRECORD
  5
1D
102
{ACAD_REACTORS
330
1A
102
}
330
1A
100
AcDbXrecord
280
     1
270
     1
271
     1
  0
XRECORD
  5
14
102
{ACAD_REACTORS
330
12
102
}
330
12
100
AcDbXrecord
280
     1
270
     1
271
     1
  0
XRECORD
  5
13
102
{ACAD_REACTORS
330
12
102
}
330
12
100
AcDbXrecord
280
     1
270
     1
271
     1
  0
XRECORD
  5
17
102
{ACAD_REACTORS
330
12
102
}
330
12
100
AcDbXrecord
280
     1
270
     1
271
     1
  0
XRECORD
  5
16
102
{ACAD_REACTORS
330
12
102
}
330
12
100
AcDbXrecord
280
     1
270
     1
271
     1
  0
XRECORD
  5
18
102
{ACAD_REACTORS
330
12
102
}
330
12
100
AcDbXrecord
280
     1
270
     1
271
     1
  0
XRECORD
  5
15
102
{ACAD_REACTORS
330
12
102
}
330
12
100
AcDbXrecord
280
     1
270
     1
271
     1
  0
XRECORD
  5
24
102
{ACAD_REACTORS
330
22
102
}
330
22
100
AcDbXrecord
280
     1
270
     1
271
     1
  0
XRECORD
  5
23
102
{ACAD_REACTORS
330
22
102
}
330
22
100
AcDbXrecord
280
     1
270
     1
271
     1
  0
XRECORD
  5
27
102
{ACAD_REACTORS
330
22
102
}
330
22
100
AcDbXrecord
280
     1
270
     1
271
     1
  0
XRECORD
  5
26
102
{ACAD_REACTORS
330
22
102
}
330
22
100
AcDbXrecord
280
     1
270
     1
271
     1
  0
XRECORD
  5
28
102
{ACAD_REACTORS
330
22
102
}
330
22
100
AcDbXrecord
280
     1
270
     1
271
     1
  0
XRECORD
  5
25
102
{ACAD_REACTORS
330
22
102
}
330
22
100
AcDbXrecord
280
     1
270
     1
271
     1
  0
CELLSTYLEMAP
  5
233
102
{ACAD_REACTORS
330
232
102
}
330
232
100
AcDbCellStyleMap
 90
        3
300
CELLSTYLE
  1
TABLEFORMAT_BEGIN
 90
        5
170
     1
 91
        0
 92
    32768
 62
   257
 93
        1
300
CONTENTFORMAT
  1
CONTENTFORMAT_BEGIN
 90
        0
 91
        0
 92
      512
 93
        0
300

 40
0.0
140
1.0
 94
        5
 62
     0
340
55
144
0.25
309
CONTENTFORMAT_END
171
     0
 94
        0
309
TABLEFORMAT_END
  1
CELLSTYLE_BEGIN
 90
        1
 91
        1
300
_TITLE
309
CELLSTYLE_END
300
CELLSTYLE
  1
TABLEFORMAT_BEGIN
 90
        5
170
     1
 91
        0
 92
        0
 62
   257
 93
        1
300
CONTENTFORMAT
  1
CONTENTFORMAT_BEGIN
 90
        0
 91
        0
 92
      512
 93
        0
300

 40
0.0
140
1.0
 94
        5
 62
     0
340
55
144
0.18
309
CONTENTFORMAT_END
171
     0
 94
        0
309
TABLEFORMAT_END
  1
CELLSTYLE_BEGIN
 90
        2
 91
        1
300
_HEADER
309
CELLSTYLE_END
300
CELLSTYLE
  1
TABLEFORMAT_BEGIN
 90
        5
170
     1
 91
        0
 92
        0
 62
   257
 93
        1
300
CONTENTFORMAT
  1
CONTENTFORMAT_BEGIN
 90
        0
 91
        0
 92
      512
 93
        0
300

 40
0.0
140
1.0
 94
        2
 62
     0
340
55
144
0.18
309
CONTENTFORMAT_END
171
     0
 94
        0
309
TABLEFORMAT_END
  1
CELLSTYLE_BEGIN
 90
        3
 91
        2
300
_DATA
309
CELLSTYLE_END
  0
ENDSEC
  0
EOF
