  0
SECTION
  2
HEADER
  9
$ACADVER
  1
AC1027
  9
$ACADMAINTVER
 70
    20
  9
$DWGCODEPAGE
  3
ANSI_1252
  9
$REQUIREDVERSIONS
160
                 0
  9
$INSBASE
 10
0.0
 20
0.0
 30
0.0
  9
$EXTMIN
 10
760.6664074431878
 20
1703.290337165658
 30
-0.00000001
  9
$EXTMAX
 10
1110.064353943098
 20
2146.000000000059
 30
0.00000001
  9
$LIMMIN
 10
0.0
 20
0.0
  9
$LIMMAX
 10
12.0
 20
9.0
  9
$ORTHOMODE
 70
     0
  9
$REGENMODE
 70
     1
  9
$FILLMODE
 70
     1
  9
$QTEXTMODE
 70
     0
  9
$MIRRTEXT
 70
     0
  9
$LTSCALE
 40
1.0
  9
$ATTMODE
 70
     1
  9
$TEXTSIZE
 40
0.2
  9
$TRACEWID
 40
0.05
  9
$TEXTSTYLE
  7
Standard
  9
$CLAYER
  8
0
  9
$CELTYPE
  6
ByLayer
  9
$CECOLOR
 62
   256
  9
$CELTSCALE
 40
1.0
  9
$DISPSILH
 70
     0
  9
$DIMSCALE
 40
1.0
  9
$DIMASZ
 40
0.18
  9
$DIMEXO
 40
0.0625
  9
$DIMDLI
 40
0.38
  9
$DIMRND
 40
0.0
  9
$DIMDLE
 40
0.0
  9
$DIMEXE
 40
0.18
  9
$DIMTP
 40
0.0
  9
$DIMTM
 40
0.0
  9
$DIMTXT
 40
0.18
  9
$DIMCEN
 40
0.09
  9
$DIMTSZ
 40
0.0
  9
$DIMTOL
 70
     0
  9
$DIMLIM
 70
     0
  9
$DIMTIH
 70
     1
  9
$DIMTOH
 70
     1
  9
$DIMSE1
 70
     0
  9
$DIMSE2
 70
     0
  9
$DIMTAD
 70
     0
  9
$DIMZIN
 70
     0
  9
$DIMBLK
  1

  9
$DIMASO
 70
     1
  9
$DIMSHO
 70
     1
  9
$DIMPOST
  1

  9
$DIMAPOST
  1

  9
$DIMALT
 70
     0
  9
$DIMALTD
 70
     2
  9
$DIMALTF
 40
25.4
  9
$DIMLFAC
 40
1.0
  9
$DIMTOFL
 70
     0
  9
$DIMTVP
 40
0.0
  9
$DIMTIX
 70
     0
  9
$DIMSOXD
 70
     0
  9
$DIMSAH
 70
     0
  9
$DIMBLK1
  1

  9
$DIMBLK2
  1

  9
$DIMSTYLE
  2
Standard
  9
$DIMCLRD
 70
     0
  9
$DIMCLRE
 70
     0
  9
$DIMCLRT
 70
     0
  9
$DIMTFAC
 40
1.0
  9
$DIMGAP
 40
0.09
  9
$DIMJUST
 70
     0
  9
$DIMSD1
 70
     0
  9
$DIMSD2
 70
     0
  9
$DIMTOLJ
 70
     1
  9
$DIMTZIN
 70
     0
  9
$DIMALTZ
 70
     0
  9
$DIMALTTZ
 70
     0
  9
$DIMUPT
 70
     0
  9
$DIMDEC
 70
     4
  9
$DIMTDEC
 70
     4
  9
$DIMALTU
 70
     2
  9
$DIMALTTD
 70
     2
  9
$DIMTXSTY
  7
Standard
  9
$DIMAUNIT
 70
     0
  9
$DIMADEC
 70
     0
  9
$DIMALTRND
 40
0.0
  9
$DIMAZIN
 70
     0
  9
$DIMDSEP
 70
    46
  9
$DIMATFIT
 70
     3
  9
$DIMFRAC
 70
     0
  9
$DIMLDRBLK
  1

  9
$DIMLUNIT
 70
     2
  9
$DIMLWD
 70
    -2
  9
$DIMLWE
 70
    -2
  9
$DIMTMOVE
 70
     0
  9
$DIMFXL
 40
1.0
  9
$DIMFXLON
 70
     0
  9
$DIMJOGANG
 40
0.7853981633974483
  9
$DIMTFILL
 70
     0
  9
$DIMTFILLCLR
 70
     0
  9
$DIMARCSYM
 70
     0
  9
$DIMLTYPE
  6

  9
$DIMLTEX1
  6

  9
$DIMLTEX2
  6

  9
$DIMTXTDIRECTION
 70
     0
  9
$LUNITS
 70
     2
  9
$LUPREC
 70
     4
  9
$SKETCHINC
 40
0.1
  9
$FILLETRAD
 40
0.0
  9
$AUNITS
 70
     0
  9
$AUPREC
 70
     0
  9
$MENU
  1
.
  9
$ELEVATION
 40
0.0
  9
$PELEVATION
 40
0.0
  9
$THICKNESS
 40
0.0
  9
$LIMCHECK
 70
     0
  9
$CHAMFERA
 40
0.0
  9
$CHAMFERB
 40
0.0
  9
$CHAMFERC
 40
0.0
  9
$CHAMFERD
 40
0.0
  9
$SKPOLY
 70
     0
  9
$TDCREATE
 40
2457571.670312650
  9
$TDUCREATE
 40
2457571.586979317
  9
$TDUPDATE
 40
2457571.670312650
  9
$TDUUPDATE
 40
2457571.586979317
  9
$TDINDWG
 40
0.0000181944
  9
$TDUSRTIMER
 40
0.0000181944
  9
$USRTIMER
 70
     1
  9
$ANGBASE
 50
0.0
  9
$ANGDIR
 70
     0
  9
$PDMODE
 70
     0
  9
$PDSIZE
 40
0.0
  9
$PLINEWID
 40
0.0
  9
$SPLFRAME
 70
     0
  9
$SPLINETYPE
 70
     6
  9
$SPLINESEGS
 70
     8
  9
$HANDSEED
  5
28E
  9
$SURFTAB1
 70
     6
  9
$SURFTAB2
 70
     6
  9
$SURFTYPE
 70
     6
  9
$SURFU
 70
     6
  9
$SURFV
 70
     6
  9
$UCSBASE
  2

  9
$UCSNAME
  2

  9
$UCSORG
 10
0.0
 20
0.0
 30
0.0
  9
$UCSXDIR
 10
1.0
 20
0.0
 30
0.0
  9
$UCSYDIR
 10
0.0
 20
1.0
 30
0.0
  9
$UCSORTHOREF
  2

  9
$UCSORTHOVIEW
 70
     0
  9
$UCSORGTOP
 10
0.0
 20
0.0
 30
0.0
  9
$UCSORGBOTTOM
 10
0.0
 20
0.0
 30
0.0
  9
$UCSORGLEFT
 10
0.0
 20
0.0
 30
0.0
  9
$UCSORGRIGHT
 10
0.0
 20
0.0
 30
0.0
  9
$UCSORGFRONT
 10
0.0
 20
0.0
 30
0.0
  9
$UCSORGBACK
 10
0.0
 20
0.0
 30
0.0
  9
$PUCSBASE
  2

  9
$PUCSNAME
  2

  9
$PUCSORG
 10
0.0
 20
0.0
 30
0.0
  9
$PUCSXDIR
 10
1.0
 20
0.0
 30
0.0
  9
$PUCSYDIR
 10
0.0
 20
1.0
 30
0.0
  9
$PUCSORTHOREF
  2

  9
$PUCSORTHOVIEW
 70
     0
  9
$PUCSORGTOP
 10
0.0
 20
0.0
 30
0.0
  9
$PUCSORGBOTTOM
 10
0.0
 20
0.0
 30
0.0
  9
$PUCSORGLEFT
 10
0.0
 20
0.0
 30
0.0
  9
$PUCSORGRIGHT
 10
0.0
 20
0.0
 30
0.0
  9
$PUCSORGFRONT
 10
0.0
 20
0.0
 30
0.0
  9
$PUCSORGBACK
 10
0.0
 20
0.0
 30
0.0
  9
$USERI1
 70
     0
  9
$USERI2
 70
     0
  9
$USERI3
 70
     0
  9
$USERI4
 70
     0
  9
$USERI5
 70
     0
  9
$USERR1
 40
0.0
  9
$USERR2
 40
0.0
  9
$USERR3
 40
0.0
  9
$USERR4
 40
0.0
  9
$USERR5
 40
0.0
  9
$WORLDVIEW
 70
     1
  9
$SHADEDGE
 70
     3
  9
$SHADEDIF
 70
    70
  9
$TILEMODE
 70
     1
  9
$MAXACTVP
 70
    64
  9
$PINSBASE
 10
0.0
 20
0.0
 30
0.0
  9
$PLIMCHECK
 70
     0
  9
$PEXTMIN
 10
1.000000000000000E+20
 20
1.000000000000000E+20
 30
1.000000000000000E+20
  9
$PEXTMAX
 10
-1.000000000000000E+20
 20
-1.000000000000000E+20
 30
-1.000000000000000E+20
  9
$PLIMMIN
 10
0.0
 20
0.0
  9
$PLIMMAX
 10
12.0
 20
9.0
  9
$UNITMODE
 70
     0
  9
$VISRETAIN
 70
     1
  9
$PLINEGEN
 70
     0
  9
$PSLTSCALE
 70
     1
  9
$TREEDEPTH
 70
  3020
  9
$CMLSTYLE
  2
Standard
  9
$CMLJUST
 70
     0
  9
$CMLSCALE
 40
1.0
  9
$PROXYGRAPHICS
 70
     1
  9
$MEASUREMENT
 70
     1
  9
$CELWEIGHT
370
    -1
  9
$ENDCAPS
280
     0
  9
$JOINSTYLE
280
     0
  9
$LWDISPLAY
290
     0
  9
$INSUNITS
 70
     4
  9
$HYPERLINKBASE
  1

  9
$STYLESHEET
  1

  9
$XEDIT
290
     1
  9
$CEPSNTYPE
380
     0
  9
$PSTYLEMODE
290
     1
  9
$FINGERPRINTGUID
  2
{FE41ADE2-7FFD-49B4-BE85-131DE773BA1D}
  9
$VERSIONGUID
  2
{78F448FF-616C-4EF6-8588-AD1D413538E0}
  9
$EXTNAMES
290
     1
  9
$PSVPSCALE
 40
0.0
  9
$OLESTARTUP
290
     0
  9
$SORTENTS
280
   127
  9
$INDEXCTL
280
     0
  9
$HIDETEXT
280
     1
  9
$XCLIPFRAME
280
     2
  9
$HALOGAP
280
     0
  9
$OBSCOLOR
 70
   257
  9
$OBSLTYPE
280
     0
  9
$INTERSECTIONDISPLAY
280
     0
  9
$INTERSECTIONCOLOR
 70
   257
  9
$DIMASSOC
280
     2
  9
$PROJECTNAME
  1

  9
$CAMERADISPLAY
290
     0
  9
$LENSLENGTH
 40
50.0
  9
$CAMERAHEIGHT
 40
0.0
  9
$STEPSPERSEC
 40
2.0
  9
$STEPSIZE
 40
6.0
  9
$3DDWFPREC
 40
2.0
  9
$PSOLWIDTH
 40
0.25
  9
$PSOLHEIGHT
 40
4.0
  9
$LOFTANG1
 40
1.570796326794896
  9
$LOFTANG2
 40
1.570796326794896
  9
$LOFTMAG1
 40
0.0
  9
$LOFTMAG2
 40
0.0
  9
$LOFTPARAM
 70
     7
  9
$LOFTNORMALS
280
     1
  9
$LATITUDE
 40
37.795
  9
$LONGITUDE
 40
-122.394
  9
$NORTHDIRECTION
 40
0.0
  9
$TIMEZONE
 70
 -8000
  9
$LIGHTGLYPHDISPLAY
280
     1
  9
$TILEMODELIGHTSYNCH
280
     1
  9
$CMATERIAL
347
11
  9
$SOLIDHIST
280
     0
  9
$SHOWHIST
280
     1
  9
$DWFFRAME
280
     2
  9
$DGNFRAME
280
     0
  9
$REALWORLDSCALE
290
     1
  9
$INTERFERECOLOR
 62
     1
  9
$INTERFEREOBJVS
345
33
  9
$INTERFEREVPVS
346
30
  9
$CSHADOW
280
     0
  9
$SHADOWPLANELOCATION
 40
0.0
  0
ENDSEC
  0
SECTION
  2
CLASSES
  0
CLASS
  1
ACDBDICTIONARYWDFLT
  2
AcDbDictionaryWithDefault
  3
ObjectDBX Classes
 90
        0
 91
        1
280
     0
281
     0
  0
CLASS
  1
MATERIAL
  2
AcDbMaterial
  3
ObjectDBX Classes
 90
     1153
 91
        3
280
     0
281
     0
  0
CLASS
  1
VISUALSTYLE
  2
AcDbVisualStyle
  3
ObjectDBX Classes
 90
     4095
 91
       24
280
     0
281
     0
  0
CLASS
  1
SCALE
  2
AcDbScale
  3
ObjectDBX Classes
 90
     1153
 91
       17
280
     0
281
     0
  0
CLASS
  1
TABLESTYLE
  2
AcDbTableStyle
  3
ObjectDBX Classes
 90
     4095
 91
        1
280
     0
281
     0
  0
CLASS
  1
MLEADERSTYLE
  2
AcDbMLeaderStyle
  3
ACDB_MLEADERSTYLE_CLASS
 90
     4095
 91
        1
280
     0
281
     0
  0
CLASS
  1
ACDBSECTIONVIEWSTYLE
  2
AcDbSectionViewStyle
  3
ObjectDBX Classes
 90
     1025
 91
        1
280
     0
281
     0
  0
CLASS
  1
ACDBDETAILVIEWSTYLE
  2
AcDbDetailViewStyle
  3
ObjectDBX Classes
 90
     1025
 91
        1
280
     0
281
     0
  0
CLASS
  1
RASTERVARIABLES
  2
AcDbRasterVariables
  3
ISM
 90
        0
 91
        1
280
     0
281
     0
  0
CLASS
  1
DICTIONARYVAR
  2
AcDbDictionaryVar
  3
ObjectDBX Classes
 90
        0
 91
        5
280
     0
281
     0
  0
CLASS
  1
CELLSTYLEMAP
  2
AcDbCellStyleMap
  3
ObjectDBX Classes
 90
     1152
 91
        2
280
     0
281
     0
  0
CLASS
  1
SORTENTSTABLE
  2
AcDbSortentsTable
  3
ObjectDBX Classes
 90
        0
 91
        1
280
     0
281
     0
  0
ENDSEC
  0
SECTION
  2
TABLES
  0
TABLE
  2
VPORT
  5
8
330
0
100
AcDbSymbolTable
 70
     1
  0
VPORT
  5
57
330
8
100
AcDbSymbolTableRecord
100
AcDbViewportTableRecord
  2
*Active
 70
     0
 10
0.0
 20
0.0
 11
1.0
 21
1.0
 12
935.3653806931433
 22
1924.645168582859
 13
0.0
 23
0.0
 14
1.0
 24
1.0
 15
0.0
 25
0.0
 16
0.0
 26
0.0
 36
1.0
 17
0.0
 27
0.0
 37
0.0
 40
442.7096628344009
 41
0.7892259325512079
 42
50.0
 43
0.0
 44
0.0
 50
0.0
 51
0.0
 71
     0
 72
  1000
 73
     1
 74
     1
 75
     0
 76
     0
 77
     0
 78
     0
281
     0
 65
     1
110
0.0
120
0.0
130
0.0
111
1.0
121
0.0
131
0.0
112
0.0
122
1.0
132
0.0
 79
     0
146
0.0
 60
     3
 61
     5
292
     1
282
     1
141
0.0
142
0.0
 63
   250
421
  3355443
  0
ENDTAB
  0
TABLE
  2
LTYPE
  5
5
330
0
100
AcDbSymbolTable
 70
     3
  0
LTYPE
  5
5B
330
5
100
AcDbSymbolTableRecord
100
AcDbLinetypeTableRecord
  2
ByBlock
 70
     0
  3

 72
    65
 73
     0
 40
0.0
  0
LTYPE
  5
5C
330
5
100
AcDbSymbolTableRecord
100
AcDbLinetypeTableRecord
  2
ByLayer
 70
     0
  3

 72
    65
 73
     0
 40
0.0
  0
LTYPE
  5
5D
330
5
100
AcDbSymbolTableRecord
100
AcDbLinetypeTableRecord
  2
Continuous
 70
     0
  3
Solid line
 72
    65
 73
     0
 40
0.0
  0
LTYPE
  5
69
330
5
100
AcDbSymbolTableRecord
100
AcDbLinetypeTableRecord
  2
PHANTOM2
 70
     0
  3
___ _ _ ___ _ _ ___ _ _ ___ _ _
 72
    65
 73
     6
 40
1.25
 49
0.625
 74
     0
 49
-0.125
 74
     0
 49
0.125
 74
     0
 49
-0.125
 74
     0
 49
0.125
 74
     0
 49
-0.125
 74
     0
  0
LTYPE
  5
86
330
5
100
AcDbSymbolTableRecord
100
AcDbLinetypeTableRecord
  2
Nascosto 1_5 mm
 70
     0
  3

 72
    65
 73
     2
 40
2.2
 49
1.5
 74
     0
 49
-0.7000000000000001
 74
     0
  0
ENDTAB
  0
TABLE
  2
LAYER
  5
2
330
0
100
AcDbSymbolTable
 70
     3
  0
LAYER
  5
54
330
2
100
AcDbSymbolTableRecord
100
AcDbLayerTableRecord
  2
0
 70
     0
 62
     7
  6
Continuous
370
    -3
390
F
347
21
348
0
  0
LAYER
  5
85
330
2
100
AcDbSymbolTableRecord
100
AcDbLayerTableRecord
  2
P-SANR-FIXT
 70
     0
 62
     6
  6
Continuous
370
    18
390
F
347
21
348
0
  0
ENDTAB
  0
TABLE
  2
STYLE
  5
3
330
0
100
AcDbSymbolTable
 70
     2
  0
STYLE
  5
55
330
3
100
AcDbSymbolTableRecord
100
AcDbTextStyleTableRecord
  2
Standard
 70
     0
 40
0.0
 41
1.0
 50
0.0
 71
     0
 42
0.2
  3
txt
  4

  0
STYLE
  5
5A
330
3
100
AcDbSymbolTableRecord
100
AcDbTextStyleTableRecord
  2
Annotative
 70
     0
 40
0.0
 41
1.0
 50
0.0
 71
     0
 42
0.2
  3
txt
  4

1001
AcadAnnotative
1000
AnnotativeData
1002
{
1070
     1
1070
     1
1002
}
  0
ENDTAB
  0
TABLE
  2
VIEW
  5
6
330
0
100
AcDbSymbolTable
 70
     0
  0
ENDTAB
  0
TABLE
  2
UCS
  5
7
330
0
100
AcDbSymbolTable
 70
     0
  0
ENDTAB
  0
TABLE
  2
APPID
  5
9
330
0
100
AcDbSymbolTable
 70
     3
  0
APPID
  5
56
330
9
100
AcDbSymbolTableRecord
100
AcDbRegAppTableRecord
  2
ACAD
 70
     0
  0
APPID
  5
5E
330
9
100
AcDbSymbolTableRecord
100
AcDbRegAppTableRecord
  2
AcadAnnotative
 70
     0
  0
APPID
  5
79
330
9
100
AcDbSymbolTableRecord
100
AcDbRegAppTableRecord
  2
REVIT
 70
     0
  0
ENDTAB
  0
TABLE
  2
DIMSTYLE
  5
A
330
0
100
AcDbSymbolTable
 70
     2
100
AcDbDimStyleTable
 71
     0
  0
DIMSTYLE
105
58
330
A
100
AcDbSymbolTableRecord
100
AcDbDimStyleTableRecord
  2
Standard
 70
     0
340
55
  0
DIMSTYLE
105
59
330
A
100
AcDbSymbolTableRecord
100
AcDbDimStyleTableRecord
  2
Annotative
 70
     0
340
55
1001
AcadAnnotative
1000
AnnotativeData
1002
{
1070
     1
1070
     1
1002
}
  0
ENDTAB
  0
TABLE
  2
BLOCK_RECORD
  5
1
330
0
100
AcDbSymbolTable
 70
     4
  0
BLOCK_RECORD
  5
71
102
{ACAD_XDICTIONARY
360
289
102
}
330
1
100
AcDbSymbolTableRecord
100
AcDbBlockTableRecord
  2
*Model_Space
340
74
 70
     0
280
     1
281
     0
  0
BLOCK_RECORD
  5
6D
330
1
100
AcDbSymbolTableRecord
100
AcDbBlockTableRecord
  2
*Paper_Space
340
70
 70
     0
280
     1
281
     0
  0
BLOCK_RECORD
  5
75
330
1
100
AcDbSymbolTableRecord
100
AcDbBlockTableRecord
  2
*Paper_Space0
340
78
 70
     0
280
     1
281
     0
  0
BLOCK_RECORD
  5
87
330
1
100
AcDbSymbolTableRecord
100
AcDbBlockTableRecord
  2
Automatic flow rate regulator valve_Caleffi_121 DN15 - 1_2__-859151-Est - Idraulica
340
0
102
{BLKREFS
331
156
102
}
 70
     0
280
     1
281
     0
  0
BLOCK_RECORD
  5
157
330
1
100
AcDbSymbolTableRecord
100
AcDbBlockTableRecord
  2
Automatic flow rate regulator valve_Caleffi_121 DN15 - 1_2__-V1-Est - Idraulica
340
0
102
{BLKREFS
331
1D3
102
}
 70
     0
280
     1
281
     0
  0
BLOCK_RECORD
  5
1D4
330
1
100
AcDbSymbolTableRecord
100
AcDbBlockTableRecord
  2
Automatic flow rate regulator valve_Caleffi_121 DN15 - 1_2__-V2-Est - Idraulica
340
0
102
{BLKREFS
331
283
102
}
 70
     0
280
     1
281
     0
  0
ENDTAB
  0
ENDSEC
  0
SECTION
  2
BLOCKS
  0
BLOCK
  5
72
330
71
100
AcDbEntity
  8
0
100
AcDbBlockBegin
  2
*Model_Space
 70
     0
 10
0.0
 20
0.0
 30
0.0
  3
*Model_Space
  1

  0
ENDBLK
  5
73
330
71
100
AcDbEntity
  8
0
100
AcDbBlockEnd
  0
BLOCK
  5
6E
330
6D
100
AcDbEntity
 67
     1
  8
0
100
AcDbBlockBegin
  2
*Paper_Space
 70
     0
 10
0.0
 20
0.0
 30
0.0
  3
*Paper_Space
  1

  0
ENDBLK
  5
6F
330
6D
100
AcDbEntity
 67
     1
  8
0
100
AcDbBlockEnd
  0
BLOCK
  5
76
330
75
100
AcDbEntity
 67
     1
  8
0
100
AcDbBlockBegin
  2
*Paper_Space0
 70
     0
 10
0.0
 20
0.0
 30
0.0
  3
*Paper_Space0
  1

  0
ENDBLK
  5
77
330
75
100
AcDbEntity
 67
     1
  8
0
100
AcDbBlockEnd
  0
BLOCK
  5
154
330
87
100
AcDbEntity
  8
0
100
AcDbBlockBegin
  2
Automatic flow rate regulator valve_Caleffi_121 DN15 - 1_2__-859151-Est - Idraulica
 70
     0
 10
0.0
 20
0.0
 30
0.0
  3
Automatic flow rate regulator valve_Caleffi_121 DN15 - 1_2__-859151-Est - Idraulica
  1

  0
LINE
  5
88
330
87
100
AcDbEntity
  8
P-SANR-FIXT
100
AcDbLine
 10
825.9164074431888
 20
1941.490747728792
 30
0.0
 11
825.9164074431888
 21
1950.999999999976
 31
0.0
  0
LINE
  5
89
330
87
100
AcDbEntity
  8
P-SANR-FIXT
100
AcDbLine
 10
805.4164074431888
 20
1950.999999999976
 30
0.0
 11
805.4164074431888
 21
1941.490747728792
 31
0.0
  0
LINE
  5
8A
330
87
100
AcDbEntity
  8
P-SANR-FIXT
100
AcDbLine
 10
805.416407443189
 20
1941.490747728792
 30
0.0
 11
805.4630758409023
 21
1941.463803716809
 31
0.0
  0
LINE
  5
8B
330
87
100
AcDbEntity
  8
P-SANR-FIXT
100
AcDbLine
 10
805.5148155674359
 20
1941.433931771767
 30
0.0
 11
806.2664074431889
 21
1940.999999999981
 31
0.0
  0
LINE
  5
8C
330
87
100
AcDbEntity
  8
P-SANR-FIXT
100
AcDbLine
 10
825.0664074431892
 20
1940.999999999981
 30
0.0
 11
825.8179993189409
 21
1941.433931771767
 31
0.0
  0
LINE
  5
8D
330
87
100
AcDbEntity
  8
P-SANR-FIXT
100
AcDbLine
 10
825.8697390454747
 20
1941.463803716809
 30
0.0
 11
825.9164074431888
 21
1941.490747728792
 31
0.0
  0
LINE
  5
8E
330
87
100
AcDbEntity
  8
P-SANR-FIXT
100
AcDbLine
 10
825.0664074431879
 20
1940.99999999998
 30
0.0
 11
806.2664074431875
 21
1940.99999999998
 31
0.0
  0
LINE
  5
8F
330
87
100
AcDbEntity
  8
P-SANR-FIXT
100
AcDbLine
 10
825.8179993189395
 20
1950.999999999975
 30
0.0
 11
825.8179993189395
 21
1941.49074772879
 31
0.0
  0
LINE
  5
90
330
87
100
AcDbEntity
  8
P-SANR-FIXT
100
AcDbLine
 10
825.8179993189395
 20
1941.49074772879
 30
0.0
 11
825.9164074431872
 21
1941.49074772879
 31
0.0
  0
LINE
  5
91
330
87
100
AcDbEntity
  8
P-SANR-FIXT
100
AcDbLine
 10
805.4164074431875
 20
1941.49074772879
 30
0.0
 11
805.5148155674345
 21
1941.49074772879
 31
0.0
  0
LINE
  5
92
330
87
100
AcDbEntity
  8
P-SANR-FIXT
100
AcDbLine
 10
805.5148155674345
 20
1941.490747728791
 30
0.0
 11
805.5148155674345
 21
1950.999999999975
 31
0.0
  0
SPLINE
  5
93
330
87
100
AcDbEntity
  8
P-SANR-FIXT
100
AcDbSpline
210
0.0
220
0.0
230
1.0
 70
     8
 71
     3
 72
     9
 73
     5
 74
     0
 42
0.000000001
 43
0.0000000001
 40
0.0
 40
0.0
 40
0.0
 40
0.0
 40
0.5
 40
1.0
 40
1.0
 40
1.0
 40
1.0
 10
805.5148155674345
 20
1941.490747728791
 30
0.0
 10
806.1670376233978
 20
1941.202093749453
 30
0.0
 10
807.4607098593007
 20
1940.913439770113
 30
0.0
 10
808.7328383431568
 20
1941.202093749453
 30
0.0
 10
809.3635166470733
 20
1941.490747728791
 30
0.0
  0
LINE
  5
94
330
87
100
AcDbEntity
  8
P-SANR-FIXT
100
AcDbLine
 10
809.3635166470733
 20
1941.490747728791
 30
0.0
 11
809.3635166470733
 21
1950.999999999975
 31
0.0
  0
LINE
  5
95
330
87
100
AcDbEntity
  8
P-SANR-FIXT
100
AcDbLine
 10
809.3635166470733
 20
1941.49074772879
 30
0.0
 11
811.8177063635505
 21
1941.49074772879
 31
0.0
  0
LINE
  5
96
330
87
100
AcDbEntity
  8
P-SANR-FIXT
100
AcDbLine
 10
811.8177063635505
 20
1941.490747728791
 30
0.0
 11
811.8177063635505
 21
1950.999999999975
 31
0.0
  0
SPLINE
  5
97
330
87
100
AcDbEntity
  8
P-SANR-FIXT
100
AcDbSpline
210
0.0
220
0.0
230
1.0
 70
     8
 71
     3
 72
     9
 73
     5
 74
     0
 42
0.000000001
 43
0.0000000001
 40
0.0
 40
0.0
 40
0.0
 40
0.0
 40
0.5
 40
1.0
 40
1.0
 40
1.0
 40
1.0
 10
811.8177063635505
 20
1941.490747728791
 30
0.0
 10
813.122150475476
 20
1941.202093749453
 30
0.0
 10
815.7094949472806
 20
1940.913439770114
 30
0.0
 10
818.2537519149919
 20
1941.202093749453
 30
0.0
 10
819.5151085228243
 20
1941.49074772879
 30
0.0
  0
LINE
  5
98
330
87
100
AcDbEntity
  8
P-SANR-FIXT
100
AcDbLine
 10
819.5151085228243
 20
1941.49074772879
 30
0.0
 11
819.5151085228243
 21
1950.999999999975
 31
0.0
  0
LINE
  5
99
330
87
100
AcDbEntity
  8
P-SANR-FIXT
100
AcDbLine
 10
819.5151085228243
 20
1941.49074772879
 30
0.0
 11
821.9692982393038
 21
1941.49074772879
 31
0.0
  0
LINE
  5
9A
330
87
100
AcDbEntity
  8
P-SANR-FIXT
100
AcDbLine
 10
821.9692982393038
 20
1941.49074772879
 30
0.0
 11
821.9692982393038
 21
1950.999999999975
 31
0.0
  0
SPLINE
  5
9B
330
87
100
AcDbEntity
  8
P-SANR-FIXT
100
AcDbSpline
210
0.0
220
0.0
230
1.0
 70
     8
 71
     3
 72
     9
 73
     5
 74
     0
 42
0.000000001
 43
0.0000000001
 40
0.0
 40
0.0
 40
0.0
 40
0.0
 40
0.5
 40
1.0
 40
1.0
 40
1.0
 40
1.0
 10
821.9692982393038
 20
1941.49074772879
 30
0.0
 10
822.5999765432197
 20
1941.202093749453
 30
0.0
 10
823.8721050270751
 20
1940.913439770114
 30
0.0
 10
825.1657772629769
 20
1941.202093749453
 30
0.0
 10
825.8179993189395
 20
1941.49074772879
 30
0.0
  0
LINE
  5
9C
330
87
100
AcDbEntity
  8
P-SANR-FIXT
100
AcDbLine
 10
805.016407443189
 20
1954.999999999996
 30
0.0
 11
805.016407443189
 21
1952.999999999974
 31
0.0
  0
LINE
  5
9D
330
87
100
AcDbEntity
  8
P-SANR-FIXT
100
AcDbLine
 10
826.3164074431891
 20
1952.999999999974
 30
0.0
 11
826.3164074431891
 21
1954.999999999996
 31
0.0
  0
LINE
  5
9E
330
87
100
AcDbEntity
  8
P-SANR-FIXT
100
AcDbLine
 10
801.6664074431977
 20
1952.999999999974
 30
0.0
 11
801.6664074431977
 21
1950.999999999976
 31
0.0
  0
LINE
  5
9F
330
87
100
AcDbEntity
  8
P-SANR-FIXT
100
AcDbLine
 10
829.6664074431806
 20
1950.999999999976
 30
0.0
 11
829.6664074431806
 21
1952.999999999974
 31
0.0
  0
LINE
  5
A0
330
87
100
AcDbEntity
  8
P-SANR-FIXT
100
AcDbLine
 10
801.6664074431963
 20
1952.999999999974
 30
0.0
 11
829.6664074431792
 21
1952.999999999974
 31
0.0
  0
LINE
  5
A1
330
87
100
AcDbEntity
  8
P-SANR-FIXT
100
AcDbLine
 10
801.6664074431963
 20
1950.999999999975
 30
0.0
 11
829.6664074431792
 21
1950.999999999975
 31
0.0
  0
LINE
  5
A2
330
87
100
AcDbEntity
  8
P-SANR-FIXT
100
AcDbLine
 10
833.9409414674269
 20
2080.50000000001
 30
0.0
 11
834.7593487545173
 21
2080.50000000001
 31
0.0
  0
LINE
  5
A3
330
87
100
AcDbEntity
  8
P-SANR-FIXT
100
AcDbLine
 10
834.7593487545173
 20
2080.50000000001
 30
0.0
 11
843.2582887270594
 21
2080.50000000001
 31
0.0
  0
LINE
  5
A4
330
87
100
AcDbEntity
  8
P-SANR-FIXT
100
AcDbLine
 10
843.2582887270594
 20
2080.50000000001
 30
0.0
 11
843.3062197904504
 21
2080.50000000001
 31
0.0
  0
LINE
  5
A5
330
87
100
AcDbEntity
  8
P-SANR-FIXT
100
AcDbLine
 10
788.0265950959266
 20
2080.50000000001
 30
0.0
 11
794.920128744388
 21
2080.50000000001
 31
0.0
  0
LINE
  5
A6
330
87
100
AcDbEntity
  8
P-SANR-FIXT
100
AcDbLine
 10
794.920128744388
 20
2080.50000000001
 30
0.0
 11
795.6712744951317
 21
2080.50000000001
 31
0.0
  0
LINE
  5
A7
330
87
100
AcDbEntity
  8
P-SANR-FIXT
100
AcDbLine
 10
795.6712744951317
 20
2080.50000000001
 30
0.0
 11
813.8925698104815
 21
2080.50000000001
 31
0.0
  0
LINE
  5
A8
330
87
100
AcDbEntity
  8
P-SANR-FIXT
100
AcDbLine
 10
813.8925698104815
 20
2080.50000000001
 30
0.0
 11
815.0280916440015
 21
2080.50000000001
 31
0.0
  0
LINE
  5
A9
330
87
100
AcDbEntity
  8
P-SANR-FIXT
100
AcDbLine
 10
815.0280916440015
 20
2080.50000000001
 30
0.0
 11
833.9409414674269
 21
2080.50000000001
 31
0.0
  0
LINE
  5
AA
330
87
100
AcDbEntity
  8
P-SANR-FIXT
100
AcDbLine
 10
833.9409414674269
 20
2080.50000000001
 30
0.0
 11
833.9409414674269
 21
2068.827965773122
 31
0.0
  0
LINE
  5
AB
330
87
100
AcDbEntity
  8
P-SANR-FIXT
100
AcDbLine
 10
834.7593487545173
 20
2068.827965773122
 30
0.0
 11
834.7593487545173
 21
2080.50000000001
 31
0.0
  0
LINE
  5
AC
330
87
100
AcDbEntity
  8
P-SANR-FIXT
100
AcDbLine
 10
843.2582887270594
 20
2068.827965773122
 30
0.0
 11
843.2582887270594
 21
2080.50000000001
 31
0.0
  0
LINE
  5
AD
330
87
100
AcDbEntity
  8
P-SANR-FIXT
100
AcDbLine
 10
788.0265950959266
 20
2068.827965773122
 30
0.0
 11
788.0265950959266
 21
2080.50000000001
 31
0.0
  0
LINE
  5
AE
330
87
100
AcDbEntity
  8
P-SANR-FIXT
100
AcDbLine
 10
794.920128744388
 20
2068.827965773122
 30
0.0
 11
794.920128744388
 21
2080.50000000001
 31
0.0
  0
LINE
  5
AF
330
87
100
AcDbEntity
  8
P-SANR-FIXT
100
AcDbLine
 10
795.6712744951317
 20
2068.827965773122
 30
0.0
 11
795.6712744951317
 21
2080.50000000001
 31
0.0
  0
LINE
  5
B0
330
87
100
AcDbEntity
  8
P-SANR-FIXT
100
AcDbLine
 10
813.8925698104815
 20
2068.827965773122
 30
0.0
 11
813.8925698104815
 21
2080.50000000001
 31
0.0
  0
LINE
  5
B1
330
87
100
AcDbEntity
  8
P-SANR-FIXT
100
AcDbLine
 10
815.0280916440015
 20
2068.827965773122
 30
0.0
 11
815.0280916440015
 21
2080.50000000001
 31
0.0
  0
LWPOLYLINE
  5
B2
330
87
100
AcDbEntity
  8
P-SANR-FIXT
100
AcDbPolyline
 90
       80
 70
   128
 43
0.0
 10
841.2675851987065
 20
2127.999999999981
 10
841.2471069871488
 20
2127.999999999981
 10
841.1857051132454
 20
2127.999999999981
 10
841.0834778068968
 20
2127.999999999981
 10
840.940588609985
 20
2127.999999999981
 10
840.7572661147444
 20
2127.999999999981
 10
840.5338035980602
 20
2127.999999999981
 10
840.2705585522898
 20
2127.999999999981
 10
839.9679521133506
 20
2127.999999999981
 10
839.6264683869919
 20
2127.999999999981
 10
839.2466536743304
 20
2127.999999999981
 10
838.8291155978835
 20
2127.999999999981
 10
838.3745221295029
 20
2127.999999999981
 10
837.8836005217639
 20
2127.999999999981
 10
837.357136144514
 20
2127.999999999981
 10
836.7959712284511
 20
2127.999999999981
 10
836.2010035177313
 20
2127.999999999981
 10
835.5731848337725
 20
2127.999999999981
 10
834.9135195525416
 20
2127.999999999981
 10
834.2230629977672
 20
2127.999999999981
 10
833.5029197526475
 20
2127.999999999981
 10
832.7542418927524
 20
2127.999999999981
 10
831.9782271429481
 20
2127.999999999981
 10
831.1761169612937
 20
2127.999999999981
 10
830.3491945529719
 20
2127.999999999981
 10
829.4987828174354
 20
2127.999999999981
 10
828.6262422320492
 20
2127.999999999981
 10
827.7329686756182
 20
2127.999999999981
 10
826.8203911952779
 20
2127.999999999981
 10
825.8899697203238
 20
2127.999999999981
 10
824.9431927266366
 20
2127.999999999981
 10
823.9815748554377
 20
2127.999999999981
 10
823.0066544901873
 20
2127.999999999981
 10
822.0199912954972
 20
2127.999999999981
 10
821.0231637220026
 20
2127.999999999981
 10
820.0177664811755
 20
2127.999999999981
 10
819.0054079941283
 20
2127.999999999981
 10
817.9877078184816
 20
2127.999999999981
 10
816.9662940574184
 20
2127.999999999981
 10
815.9428007550671
 20
2127.999999999981
 10
814.9188652823777
 20
2127.999999999981
 10
813.8961257176781
 20
2127.999999999981
 10
812.8762182260997
 20
2127.999999999981
 10
811.8607744420597
 20
2127.999999999981
 10
810.8514188589966
 20
2127.999999999981
 10
809.8497662305256
 20
2127.999999999981
 10
808.8574189871772
 20
2127.999999999981
 10
807.8759646728521
 20
2127.999999999981
 10
806.9069734050867
 20
2127.999999999981
 10
805.9519953632028
 20
2127.999999999981
 10
805.0125583083495
 20
2127.999999999981
 10
804.0901651394118
 20
2127.999999999981
 10
803.1862914886939
 20
2127.999999999981
 10
802.3023833612201
 20
2127.999999999981
 10
801.4398548214378
 20
2127.999999999981
 10
800.6000857310144
 20
2127.999999999981
 10
799.7844195413533
 20
2127.999999999981
 10
798.9941611443582
 20
2127.999999999981
 10
798.2305747848849
 20
2127.999999999981
 10
797.4948820382193
 20
2127.999999999981
 10
796.7882598558163
 20
2127.999999999981
 10
796.1118386824296
 20
2127.999999999981
 10
795.4667006476412
 20
2127.999999999981
 10
794.8538778346849
 20
2127.999999999981
 10
794.2743506293326
 20
2127.999999999981
 10
793.729046151487
 20
2127.999999999981
 10
793.2188367719874
 20
2127.999999999981
 10
792.7445387170021
 20
2127.999999999981
 10
792.3069107622406
 20
2127.999999999981
 10
791.9066530190753
 20
2127.999999999981
 10
791.5444058145111
 20
2127.999999999981
 10
791.2207486668004
 20
2127.999999999981
 10
790.9361993583361
 20
2127.999999999981
 10
790.6912131073112
 20
2127.999999999981
 10
790.4861818394665
 20
2127.999999999981
 10
790.3214335610928
 20
2127.999999999981
 10
790.197231834291
 20
2127.999999999981
 10
790.1137753553289
 20
2127.999999999981
 10
790.07119763677
 20
2127.999999999981
 10
790.0652296876718
 20
2127.999999999981
  0
LWPOLYLINE
  5
B3
330
87
100
AcDbEntity
  8
P-SANR-FIXT
100
AcDbPolyline
 90
       41
 70
   128
 43
0.0
 10
841.2675851987065
 20
2127.999999999981
 10
841.3475638670798
 20
2127.998400213303
 10
841.4274145866448
 20
2127.993603412586
 10
841.5070096132842
 20
2127.985617271689
 10
841.586221611935
 20
2127.974454566732
 10
841.6649238602968
 20
2127.960133155664
 10
841.7429904515607
 20
2127.942675949685
 10
841.8202964958348
 20
2127.922110876602
 10
841.8967183199388
 20
2127.898470836146
 10
841.9721336652568
 20
2127.871793647337
 10
842.0464218833238
 20
2127.842121987987
 10
842.1194641288387
 20
2127.809503326421
 10
842.1911435497895
 20
2127.77398984554
 10
842.261345474394
 20
2127.735638359336
 10
842.3299575945481
 20
2127.694510222008
 10
842.3968701454967
 20
2127.6506712298
 10
842.4619760814312
 20
2127.604191515749
 10
842.5251712467435
 20
2127.555145437483
 10
842.5863545426492
 20
2127.503611458263
 10
842.6454280889274
 20
2127.449672021462
 10
842.7022973805055
 20
2127.393413418675
 10
842.7568714386481
 20
2127.334925651663
 10
842.8090629565044
 20
2127.274302288378
 10
842.8587884387791
 20
2127.211640313268
 10
842.9059683353084
 20
2127.147039972125
 10
842.9505271683222
 20
2127.080604611717
 10
842.9923936531933
 20
2127.012440514446
 10
843.0315008124765
 20
2126.942656728328
 10
843.0677860830597
 20
2126.871364892534
 10
843.1011914162501
 20
2126.798679058793
 10
843.131663370641
 20
2126.724715508934
 10
843.1591531976055
 20
2126.649592568858
 10
843.183616919285
 20
2126.573430419245
 10
843.2050153989431
 20
2126.496350903286
 10
843.2233144035771
 20
2126.418477331764
 10
843.2384846586833
 20
2126.339934285781
 10
843.2505018950898
 20
2126.260847417457
 10
843.2593468877817
 20
2126.18134324891
 10
843.2650054866577
 20
2126.101548969848
 10
843.2674686391665
 20
2126.021592234097
 10
843.2675851987065
 20
2125.999999999981
  0
LWPOLYLINE
  5
B4
330
87
100
AcDbEntity
  8
P-SANR-FIXT
100
AcDbPolyline
 90
       41
 70
   128
 43
0.0
 10
788.0652296876718
 20
2125.999999999981
 10
788.0668294743498
 20
2126.079978668354
 10
788.0716262750665
 20
2126.159829387919
 10
788.079612415964
 20
2126.239424414559
 10
788.0907751209205
 20
2126.318636413209
 10
788.1050965319891
 20
2126.397338661571
 10
788.1225537379677
 20
2126.475405252835
 10
788.1431188110501
 20
2126.552711297109
 10
788.1667588515069
 20
2126.629133121213
 10
788.1934360403158
 20
2126.704548466531
 10
788.223107699666
 20
2126.778836684598
 10
788.2557263612319
 20
2126.851878930112
 10
788.2912398421132
 20
2126.923558351064
 10
788.3295913283165
 20
2126.993760275668
 10
788.3707194656449
 20
2127.062372395823
 10
788.4145584578524
 20
2127.129284946771
 10
788.4610381719031
 20
2127.194390882705
 10
788.5100842501698
 20
2127.257586048017
 10
788.5616182293901
 20
2127.318769343924
 10
788.61555766619
 20
2127.377842890202
 10
788.6718162689774
 20
2127.43471218178
 10
788.7303040359892
 20
2127.489286239923
 10
788.7909273992745
 20
2127.541477757779
 10
788.8535893743847
 20
2127.591203240053
 10
788.9181897155268
 20
2127.638383136583
 10
788.9846250759355
 20
2127.682941969597
 10
789.0527891732062
 20
2127.724808454468
 10
789.1225729593244
 20
2127.763915613751
 10
789.1938647951183
 20
2127.800200884334
 10
789.2665506288592
 20
2127.833606217524
 10
789.3405141787184
 20
2127.864078171915
 10
789.4156371187944
 20
2127.891567998879
 10
789.491799268408
 20
2127.916031720559
 10
789.568878784367
 20
2127.937430200217
 10
789.6467523558889
 20
2127.955729204851
 10
789.7252954018711
 20
2127.970899459958
 10
789.8043822701955
 20
2127.982916696364
 10
789.8838864387431
 20
2127.991761689056
 10
789.9636807178047
 20
2127.997420287932
 10
790.0436374535552
 20
2127.999883440441
 10
790.0652296876718
 20
2127.999999999981
  0
LWPOLYLINE
  5
B5
330
87
100
AcDbEntity
  8
P-SANR-FIXT
100
AcDbPolyline
 90
        3
 70
   128
 43
0.0
 10
790.0652296876718
 20
2127.999999999981
 10
790.0857078992295
 20
2127.999999999981
 10
790.1471097731326
 20
2127.999999999981
  0
LWPOLYLINE
  5
B6
330
87
100
AcDbEntity
  8
P-SANR-FIXT
100
AcDbPolyline
 90
        4
 70
   128
 43
0.0
 10
841.1765473965456
 20
2127.999999999981
 10
841.2190395310494
 20
2127.999999999981
 10
841.2616172496083
 20
2127.999999999981
 10
841.2675851987065
 20
2127.999999999981
  0
LINE
  5
B7
330
87
100
AcDbEntity
  8
P-SANR-FIXT
100
AcDbLine
 10
788.0652296876718
 20
2125.999999999981
 30
0.0
 11
788.0652296876718
 21
2119.500000000048
 31
0.0
  0
LINE
  5
B8
330
87
100
AcDbEntity
  8
P-SANR-FIXT
100
AcDbLine
 10
843.2675851987065
 20
2119.500000000048
 30
0.0
 11
843.2675851987065
 21
2125.999999999981
 31
0.0
  0
LINE
  5
B9
330
87
100
AcDbEntity
  8
P-SANR-FIXT
100
AcDbLine
 10
788.0652296876718
 20
2119.500000000048
 30
0.0
 11
789.0652296876601
 21
2118.50000000006
 31
0.0
  0
LINE
  5
BA
330
87
100
AcDbEntity
  8
P-SANR-FIXT
100
AcDbLine
 10
842.2675851987181
 20
2118.50000000006
 30
0.0
 11
843.2675851987065
 21
2119.500000000048
 31
0.0
  0
LINE
  5
BB
330
87
100
AcDbEntity
  8
P-SANR-FIXT
100
AcDbLine
 10
789.9134074431896
 20
2118.50000000006
 30
0.0
 11
789.9134074431896
 21
2080.500000000012
 31
0.0
  0
LINE
  5
BC
330
87
100
AcDbEntity
  8
P-SANR-FIXT
100
AcDbLine
 10
841.4194074431888
 20
2080.500000000012
 30
0.0
 11
841.4194074431888
 21
2118.50000000006
 31
0.0
  0
LWPOLYLINE
  5
BD
330
87
100
AcDbEntity
  8
P-SANR-FIXT
100
AcDbPolyline
 90
       31
 70
   128
 43
0.0
 10
843.4211004660548
 20
2068.827965773125
 10
843.4292962451296
 20
2068.774329111879
 10
843.4396303628266
 20
2068.72106309799
 10
843.452086286762
 20
2068.668252945716
 10
843.4666440901144
 20
2068.615983140037
 10
843.4832804835039
 20
2068.56433730149
 10
843.5019688522505
 20
2068.513398052401
 10
843.5226792989503
 20
2068.4632468847
 10
843.5453786913067
 20
2068.413964029559
 10
843.5700307151341
 20
2068.365628329032
 10
843.5965959324539
 20
2068.318317109929
 10
843.6250318445843
 20
2068.272106060109
 10
843.6552929601324
 20
2068.227069107392
 10
843.6873308677689
 20
2068.183278301297
 10
843.7210943136758
 20
2068.14080369777
 10
843.7565292835417
 20
2068.099713247118
 10
843.7935790889746
 20
2068.060072685295
 10
843.8321844581889
 20
2068.021945428745
 10
843.8722836308294
 20
2067.985392472944
 10
843.9138124567737
 20
2067.950472294825
 10
843.9567044987594
 20
2067.917240759222
 10
844.0008911386692
 20
2067.885751029504
 10
844.0463016873051
 20
2067.856053482521
 10
844.0928634974769
 20
2067.828195628013
 10
844.1405020802202
 20
2067.802222032605
 10
844.1891412239652
 20
2067.778174248509
 10
844.2387031164578
 20
2067.756090747048
 10
844.2891084692428
 20
2067.736006857115
 10
844.340276644508
 20
2067.717954708649
 10
844.3921257840885
 20
2067.701963181237
 10
844.4148297423353
 20
2067.69566785949
  0
LWPOLYLINE
  5
BE
330
87
100
AcDbEntity
  8
P-SANR-FIXT
100
AcDbPolyline
 90
       31
 70
   128
 43
0.0
 10
786.917985144043
 20
2067.69566785949
 10
786.9701041900935
 20
2067.710756506315
 10
787.0215781615258
 20
2067.727917289782
 10
787.0723247109666
 20
2067.747122756298
 10
787.1222626547618
 20
2067.768342181213
 10
787.1713121028541
 20
2067.791541617975
 10
787.21939458659
 20
2067.816683952433
 10
787.2664331842526
 20
2067.843728962215
 10
787.3123526441199
 20
2067.872633381077
 10
787.3570795048518
 20
2067.903350968113
 10
787.4005422130124
 20
2067.935832581736
 10
787.4426712375402
 20
2067.970026258294
 10
787.4833991809828
 20
2068.005877295199
 10
787.5226608873191
 20
2068.043328338439
 10
787.5603935461943
 20
2068.082319474335
 10
787.5965367934033
 20
2068.122788325386
 10
787.6310328074607
 20
2068.164670150064
 10
787.6638264021029
 20
2068.207897946384
 10
787.6948651145739
 20
2068.252402559092
 10
787.7240992895553
 20
2068.298112790304
 10
787.7514821586031
 20
2068.344955513399
 10
787.7769699149682
 20
2068.392855790012
 10
787.8005217836778
 20
2068.441736989921
 10
787.8221000867657
 20
2068.491520913632
 10
787.8416703035504
 20
2068.542127917488
 10
787.8592011258598
 20
2068.593477041077
 10
787.8746645081177
 20
2068.645486136756
 10
787.8880357122112
 20
2068.698072001067
 10
787.8992933470661
 20
2068.751150507844
 10
787.9084194028685
 20
2068.804636742799
 10
787.9117144203234
 20
2068.827965773125
  0
LINE
  5
BF
330
87
100
AcDbEntity
  8
P-SANR-FIXT
100
AcDbLine
 10
786.917985144043
 20
2067.69566785949
 30
0.0
 11
777.4075883980867
 21
2065.147364731712
 31
0.0
  0
LINE
  5
C0
330
87
100
AcDbEntity
  8
P-SANR-FIXT
100
AcDbLine
 10
853.9252264882916
 20
2065.147364731712
 30
0.0
 11
844.4148297423353
 21
2067.69566785949
 31
0.0
  0
LWPOLYLINE
  5
C1
330
87
100
AcDbEntity
  8
P-SANR-FIXT
100
AcDbPolyline
 90
       34
 70
   128
 43
0.0
 10
853.9252264882916
 20
2065.147364731712
 10
853.9636461913286
 20
2065.136242092789
 10
854.0015903757758
 20
2065.123591972447
 10
854.0389983390328
 20
2065.10943460818
 10
854.0758102363383
 20
2065.09379264875
 10
854.1119671765095
 20
2065.076691117955
 10
854.1474113161548
 20
2065.058157374598
 10
854.1820859522124
 20
2065.038221068713
 10
854.2159356126608
 20
2065.016914094138
 10
854.2489061452643
 20
2064.994270537485
 10
854.2809448042048
 20
2064.970326623616
 10
854.3120003344617
 20
2064.945120657686
 10
854.3420230538117
 20
2064.918692963861
 10
854.3709649323083
 20
2064.891085820816
 10
854.3987796691199
 20
2064.862343394089
 10
854.4254227666012
 20
2064.832511665432
 10
854.4508516014795
 20
2064.801638359248
 10
854.4750254930439
 20
2064.769772866239
 10
854.4979057682244
 20
2064.736966164398
 10
854.5194558234618
 20
2064.703270737448
 10
854.5396411832646
 20
2064.668740490885
 10
854.5584295553632
 20
2064.633430665738
 10
854.5757908823704
 20
2064.597397750194
 10
854.5916973898659
 20
2064.560699389232
 10
854.6061236308318
 20
2064.5233942924
 10
854.6190465263595
 20
2064.485542139895
 10
854.6304454025728
 20
2064.447203487087
 10
854.6403020237018
 20
2064.408439667642
 10
854.6486006212548
 20
2064.369312695403
 10
854.6553279192465
 20
2064.329885165175
 10
854.6604731554349
 20
2064.2902201526
 10
854.6640280985398
 20
2064.250381113235
 10
854.6659870614105
 20
2064.210431781043
 10
854.6664074431891
 20
2064.181438905423
  0
LWPOLYLINE
  5
C2
330
87
100
AcDbEntity
  8
P-SANR-FIXT
100
AcDbPolyline
 90
       34
 70
   128
 43
0.0
 10
776.6664074431889
 20
2064.181438905423
 10
776.6672073365281
 20
2064.22142823961
 10
776.6696057368863
 20
2064.261353599393
 10
776.6735988073352
 20
2064.301151112712
 10
776.6791801598135
 20
2064.340757112038
 10
776.686340865348
 20
2064.380108236218
 10
776.6950694683369
 20
2064.419141531851
 10
776.7053520048784
 20
2064.457794553987
 10
776.7171720251066
 20
2064.496005466039
 10
776.7305106195111
 20
2064.533713138698
 10
776.7453464491861
 20
2064.570857247732
 10
776.7616557799692
 20
2064.607378370489
 10
776.7794125204098
 20
2064.643218080965
 10
776.7985882635114
 20
2064.678319043267
 10
776.8191523321755
 20
2064.712625103344
 10
776.8410718282795
 20
2064.746081378819
 10
776.8643116853048
 20
2064.778634346786
 10
776.8888347244381
 20
2064.810231929442
 10
776.9146017140482
 20
2064.840823577394
 10
776.9415714324481
 20
2064.870360350534
 10
776.969700733842
 20
2064.898794996322
 10
776.9989446173477
 20
2064.926082025394
 10
777.0292562989906
 20
2064.952177784323
 10
777.0605872865456
 20
2064.97704052546
 10
777.0928874571167
 20
2065.000630473724
 10
777.1261051373209
 20
2065.022909890231
 10
777.1601871859563
 20
2065.043843132666
 10
777.1950790790152
 20
2065.063396712308
 10
777.2307249969124
 20
2065.0815393476
 10
777.2670679137827
 20
2065.098242014195
 10
777.3040496887126
 20
2065.113477991391
 10
777.3416111587502
 20
2065.127222904873
 10
777.3796922335572
 20
2065.139454765712
 10
777.4075883980867
 20
2065.147364731712
  0
LINE
  5
C3
330
87
100
AcDbEntity
  8
P-SANR-FIXT
100
AcDbLine
 10
776.6664074431894
 20
2064.181438905423
 30
0.0
 11
776.6664074431894
 21
2062.499999999996
 31
0.0
  0
LINE
  5
C4
330
87
100
AcDbEntity
  8
P-SANR-FIXT
100
AcDbLine
 10
854.6664074431889
 20
2062.499999999996
 30
0.0
 11
854.6664074431889
 21
2064.181438905423
 31
0.0
  0
LINE
  5
C5
330
87
100
AcDbEntity
  8
P-SANR-FIXT
100
AcDbLine
 10
788.0652296876704
 20
2119.500000000047
 30
0.0
 11
843.2675851987051
 21
2119.500000000047
 31
0.0
  0
LINE
  5
C6
330
87
100
AcDbEntity
  8
P-SANR-FIXT
100
AcDbLine
 10
789.0652296876589
 20
2118.500000000059
 30
0.0
 11
842.2675851987166
 21
2118.500000000059
 31
0.0
  0
LINE
  5
C7
330
87
100
AcDbEntity
  8
P-SANR-FIXT
100
AcDbLine
 10
803.9747901033955
 20
2080.500000000011
 30
0.0
 11
805.8111610094897
 21
2080.500000000011
 31
0.0
  0
LINE
  5
C8
330
87
100
AcDbEntity
  8
P-SANR-FIXT
100
AcDbLine
 10
823.6245220993255
 20
2080.500000000011
 30
0.0
 11
825.5216538768856
 21
2080.500000000011
 31
0.0
  0
LINE
  5
C9
330
87
100
AcDbEntity
  8
P-SANR-FIXT
100
AcDbLine
 10
854.6664074431875
 20
2062.499999999995
 30
0.0
 11
776.666407443188
 21
2062.499999999995
 31
0.0
  0
LINE
  5
CA
330
87
100
AcDbEntity
  8
P-SANR-FIXT
100
AcDbLine
 10
787.9117144203221
 20
2068.827965773124
 30
0.0
 11
843.4211004660534
 21
2068.827965773124
 31
0.0
  0
LINE
  5
CB
330
87
100
AcDbEntity
  8
P-SANR-FIXT
100
AcDbLine
 10
822.2638866254825
 20
2145.366720591847
 30
0.0
 11
822.2638866254825
 21
2141.500000000105
 31
0.0
  0
LINE
  5
CC
330
87
100
AcDbEntity
  8
P-SANR-FIXT
100
AcDbLine
 10
833.2619569350967
 20
2141.500000000105
 30
0.0
 11
833.2619569350967
 21
2145.366720591847
 31
0.0
  0
LWPOLYLINE
  5
CD
330
87
100
AcDbEntity
  8
P-SANR-FIXT
100
AcDbPolyline
 90
       80
 70
   128
 43
0.0
 10
822.8619915540491
 20
2134.500000000105
 10
822.8659117754919
 20
2134.500000000105
 10
822.8776661683028
 20
2134.500000000105
 10
822.8972359279605
 20
2134.500000000105
 10
822.9245897470246
 20
2134.500000000105
 10
822.9596838652193
 20
2134.500000000105
 10
823.0024621394418
 20
2134.500000000105
 10
823.0528561335795
 20
2134.500000000105
 10
823.1107852279913
 20
2134.500000000105
 10
823.1761567484838
 20
2134.500000000105
 10
823.2488661145696
 20
2134.500000000105
 10
823.3287970067735
 20
2134.500000000105
 10
823.4158215527186
 20
2134.500000000105
 10
823.5098005316961
 20
2134.500000000105
 10
823.6105835973873
 20
2134.500000000105
 10
823.7180095183857
 20
2134.500000000105
 10
823.831906436135
 20
2134.500000000105
 10
823.952092139863
 20
2134.500000000105
 10
824.078374358082
 20
2134.500000000105
 10
824.2105510661817
 20
2134.500000000105
 10
824.3484108096254
 20
2134.500000000105
 10
824.4917330422321
 20
2134.500000000105
 10
824.6402884790031
 20
2134.500000000105
 10
824.7938394629299
 20
2134.500000000105
 10
824.9521403451939
 20
2134.500000000105
 10
825.1149378781528
 20
2134.500000000105
 10
825.2819716204822
 20
2134.500000000105
 10
825.452974353826
 20
2134.500000000105
 10
825.6276725102896
 20
2134.500000000105
 10
825.8057866100896
 20
2134.500000000105
 10
825.9870317086623
 20
2134.500000000105
 10
826.171117852513
 20
2134.500000000105
 10
826.3577505430815
 20
2134.500000000105
 10
826.5466312078755
 20
2134.500000000105
 10
826.7374576781241
 20
2134.500000000105
 10
826.9299246721821
 20
2134.500000000105
 10
827.1237242839164
 20
2134.500000000105
 10
827.3185464752902
 20
2134.500000000105
 10
827.5140795723567
 20
2134.500000000105
 10
827.7100107638727
 20
2134.500000000105
 10
827.9060266017278
 20
2134.500000000105
 10
828.1018135023959
 20
2134.500000000105
 10
828.2970582486019
 20
2134.500000000105
 10
828.4914484904014
 20
2134.500000000105
 10
828.6846732448756
 20
2134.500000000105
 10
828.8764233936362
 20
2134.500000000105
 10
829.0663921773498
 20
2134.500000000105
 10
829.254275686487
 20
2134.500000000105
 10
829.4397733475127
 20
2134.500000000105
 10
829.6225884037403
 20
2134.500000000105
 10
829.802428390078
 20
2134.500000000105
 10
829.9790056009115
 20
2134.500000000105
 10
830.1520375503713
 20
2134.500000000105
 10
830.3212474242501
 20
2134.500000000105
 10
830.4863645228454
 20
2134.500000000105
 10
830.6471246940228
 20
2134.500000000105
 10
830.803270755802
 20
2134.500000000105
 10
830.9545529077933
 20
2134.500000000105
 10
831.1007291308261
 20
2134.500000000105
 10
831.2415655741254
 20
2134.500000000105
 10
831.3768369294256
 20
2134.500000000105
 10
831.5063267914148
 20
2134.500000000105
 10
831.6298280039365
 20
2134.500000000105
 10
831.7471429913963
 20
2134.500000000105
 10
831.8580840748403
 20
2134.500000000105
 10
831.9624737722012
 20
2134.500000000105
 10
832.0601450822314
 20
2134.500000000105
 10
832.1509417516708
 20
2134.500000000105
 10
832.2347185252169
 20
2134.500000000105
 10
832.3113413779035
 20
2134.500000000105
 10
832.3806877295119
 20
2134.500000000105
 10
832.4426466406722
 20
2134.500000000105
 10
832.497118990344
 20
2134.500000000105
 10
832.5440176343878
 20
2134.500000000105
 10
832.5832675449781
 20
2134.500000000105
 10
832.6148059306301
 20
2134.500000000105
 10
832.6385823366551
 20
2134.500000000105
 10
832.6545587258754
 20
2134.500000000105
 10
832.6627095394764
 20
2134.500000000105
 10
832.6638520065303
 20
2134.500000000105
  0
LINE
  5
CE
330
87
100
AcDbEntity
  8
P-SANR-FIXT
100
AcDbLine
 10
820.514449451846
 20
2131.000000000044
 30
0.0
 11
820.514449451846
 21
2128.000000000044
 31
0.0
  0
LINE
  5
CF
330
87
100
AcDbEntity
  8
P-SANR-FIXT
100
AcDbLine
 10
835.0113941087332
 20
2128.000000000044
 30
0.0
 11
835.0113941087332
 21
2131.000000000044
 31
0.0
  0
LINE
  5
D0
330
87
100
AcDbEntity
  8
P-SANR-FIXT
100
AcDbLine
 10
822.8971660336949
 20
2146.000000000059
 30
0.0
 11
822.2638866254827
 21
2145.366720591847
 31
0.0
  0
LINE
  5
D1
330
87
100
AcDbEntity
  8
P-SANR-FIXT
100
AcDbLine
 10
833.2619569350963
 20
2145.366720591847
 30
0.0
 11
832.6286775268842
 21
2146.000000000059
 31
0.0
  0
LINE
  5
D2
330
87
100
AcDbEntity
  8
P-SANR-FIXT
100
AcDbLine
 10
823.0638866254832
 20
2141.500000000105
 30
0.0
 11
823.0638866254832
 21
2139.500000000105
 31
0.0
  0
LINE
  5
D3
330
87
100
AcDbEntity
  8
P-SANR-FIXT
100
AcDbLine
 10
832.4619569350961
 20
2139.500000000105
 30
0.0
 11
832.4619569350961
 21
2141.500000000105
 31
0.0
  0
LINE
  5
D4
330
87
100
AcDbEntity
  8
P-SANR-FIXT
100
AcDbLine
 10
822.2619915540471
 20
2139.500000000105
 30
0.0
 11
822.2619915540471
 21
2135.100000000105
 31
0.0
  0
LINE
  5
D5
330
87
100
AcDbEntity
  8
P-SANR-FIXT
100
AcDbLine
 10
833.2638520065319
 20
2135.100000000105
 30
0.0
 11
833.2638520065319
 21
2139.500000000105
 31
0.0
  0
LWPOLYLINE
  5
D6
330
87
100
AcDbEntity
  8
P-SANR-FIXT
100
AcDbPolyline
 90
       41
 70
   128
 43
0.0
 10
833.2638520065303
 20
2135.100000000106
 10
833.2633720705267
 20
2135.076006399593
 10
833.2619330303119
 20
2135.052051183724
 10
833.2595371880424
 20
2135.028172675732
 10
833.2561883765556
 20
2135.004409076137
 10
833.2518919532351
 20
2134.980798401628
 10
833.2466547914416
 20
2134.957378424249
 10
833.2404852695166
 20
2134.934186610967
 10
833.2333932573797
 20
2134.911260063736
 10
833.2253901007371
 20
2134.88863546014
 10
833.2164886029319
 20
2134.86634899472
 10
833.2067030044621
 20
2134.844436321066
 10
833.1960489601978
 20
2134.82293249478
 10
833.1845435143367
 20
2134.8018719174
 10
833.1722050731382
 20
2134.781288281353
 10
833.1590533754759
 20
2134.761214516068
 10
833.1451094612607
 20
2134.741682735288
 10
833.1303956377807
 20
2134.722724185694
 10
833.1149354440146
 20
2134.704369196922
 10
833.0987536129747
 20
2134.686647133039
 10
833.0818760321385
 20
2134.669586345566
 10
833.0643297020349
 20
2134.653214128123
 10
833.0461426930494
 20
2134.637556672766
 10
833.0273441005163
 20
2134.622639028083
 10
833.0079639981736
 20
2134.608485059125
 10
832.988033390051
 20
2134.595117409221
 10
832.9675841608699
 20
2134.58255746376
 10
832.9466490250343
 20
2134.570825315974
 10
832.925261474296
 20
2134.559939734799
 10
832.9034557241739
 20
2134.549918134842
 10
832.8812666592162
 20
2134.540776548525
 10
832.8587297771933
 20
2134.532529600436
 10
832.8358811323093
 20
2134.525190483932
 10
832.8127572775215
 20
2134.518770940034
 10
832.789395206065
 20
2134.513281238644
 10
832.7658322922703
 20
2134.508730162112
 10
832.742106231773
 20
2134.505124991191
 10
832.7182549812086
 20
2134.502471493382
 10
832.6943166974903
 20
2134.50077391372
 10
832.6703296767652
 20
2134.500034967967
 10
832.6638520065301
 20
2134.500000000105
  0
LWPOLYLINE
  5
D7
330
87
100
AcDbEntity
  8
P-SANR-FIXT
100
AcDbPolyline
 90
       41
 70
   128
 43
0.0
 10
822.8619915540491
 20
2134.500000000105
 10
822.837997953537
 20
2134.500479936109
 10
822.8140427376676
 20
2134.501918976324
 10
822.7901642296757
 20
2134.504314818594
 10
822.7664006300805
 20
2134.507663630079
 10
822.7427899555719
 20
2134.511960053401
 10
822.7193699781928
 20
2134.517197215194
 10
822.6961781649105
 20
2134.523366737119
 10
822.6732516176793
 20
2134.530458749256
 10
822.650627014084
 20
2134.538461905898
 10
822.6283405486638
 20
2134.547363403703
 10
822.6064278750094
 20
2134.557149002174
 10
822.5849240487242
 20
2134.567803046438
 10
822.5638634713428
 20
2134.579308492298
 10
822.5432798352963
 20
2134.591646933497
 10
822.5232060700122
 20
2134.604798631159
 10
822.5036742892315
 20
2134.618742545375
 10
822.4847157396379
 20
2134.633456368855
 10
822.4663607508661
 20
2134.64891656262
 10
822.4486386869825
 20
2134.665098393661
 10
822.4315778995094
 20
2134.681975974497
 10
822.4152056820665
 20
2134.6995223046
 10
822.3995482267097
 20
2134.717709313586
 10
822.3846305820272
 20
2134.736507906119
 10
822.3704766130685
 20
2134.755888008462
 10
822.3571089631644
 20
2134.775818616585
 10
822.3445490177029
 20
2134.796267845766
 10
822.3328168699181
 20
2134.817202981601
 10
822.3219312887431
 20
2134.838590532339
 10
822.311909688786
 20
2134.860396282462
 10
822.3027681024685
 20
2134.882585347419
 10
822.2945211543793
 20
2134.905122229442
 10
822.2871820378754
 20
2134.927970874326
 10
822.2807624939781
 20
2134.951094729114
 10
822.2752727925879
 20
2134.97445680057
 10
822.2707217160559
 20
2134.998019714365
 10
822.2671165451339
 20
2135.021745774862
 10
822.2644630473265
 20
2135.045597025427
 10
822.2627654676635
 20
2135.069535309145
 10
822.2620265219109
 20
2135.09352232987
 10
822.2619915540489
 20
2135.100000000105
  0
LWPOLYLINE
  5
D8
330
87
100
AcDbEntity
  8
P-SANR-FIXT
100
AcDbPolyline
 90
        4
 70
   128
 43
0.0
 10
832.6638520065303
 20
2134.500000000105
 10
832.6599317850874
 20
2134.500000000105
 10
832.6481773922765
 20
2134.500000000105
 10
832.6286076326185
 20
2134.500000000105
  0
LWPOLYLINE
  5
D9
330
87
100
AcDbEntity
  8
P-SANR-FIXT
100
AcDbPolyline
 90
        5
 70
   128
 43
0.0
 10
822.9110376299491
 20
2134.500000000105
 10
822.8872612239241
 20
2134.500000000105
 10
822.8712848347036
 20
2134.500000000105
 10
822.8631340211027
 20
2134.500000000105
 10
822.8619915540491
 20
2134.500000000105
  0
LINE
  5
DA
330
87
100
AcDbEntity
  8
P-SANR-FIXT
100
AcDbLine
 10
824.7629217802897
 20
2134.500000000105
 30
0.0
 11
824.7629217802897
 21
2131.000000000044
 31
0.0
  0
LINE
  5
DB
330
87
100
AcDbEntity
  8
P-SANR-FIXT
100
AcDbLine
 10
830.7629217802897
 20
2131.000000000044
 30
0.0
 11
830.7629217802897
 21
2134.500000000105
 31
0.0
  0
LINE
  5
DC
330
87
100
AcDbEntity
  8
P-SANR-FIXT
100
AcDbLine
 10
833.2619569350953
 20
2145.366720591846
 30
0.0
 11
822.2638866254811
 21
2145.366720591846
 31
0.0
  0
LINE
  5
DD
330
87
100
AcDbEntity
  8
P-SANR-FIXT
100
AcDbLine
 10
835.0113941087318
 20
2131.000000000043
 30
0.0
 11
820.5144494518446
 21
2131.000000000043
 31
0.0
  0
LINE
  5
DE
330
87
100
AcDbEntity
  8
P-SANR-FIXT
100
AcDbLine
 10
832.628677526883
 20
2146.000000000058
 30
0.0
 11
822.8971660336934
 21
2146.000000000058
 31
0.0
  0
LINE
  5
DF
330
87
100
AcDbEntity
  8
P-SANR-FIXT
100
AcDbLine
 10
822.2638866254811
 20
2141.500000000104
 30
0.0
 11
833.2619569350955
 21
2141.500000000104
 31
0.0
  0
LINE
  5
E0
330
87
100
AcDbEntity
  8
P-SANR-FIXT
100
AcDbLine
 10
822.2619915540457
 20
2139.500000000104
 30
0.0
 11
833.2638520065307
 21
2139.500000000104
 31
0.0
  0
LINE
  5
E1
330
87
100
AcDbEntity
  8
P-SANR-FIXT
100
AcDbLine
 10
869.5117069048098
 20
1977.999999999996
 30
0.0
 11
869.5450761802376
 21
1978.057797280449
 31
0.0
  0
LINE
  5
E2
330
87
100
AcDbEntity
  8
P-SANR-FIXT
100
AcDbLine
 10
869.567661515917
 20
1978.096916229351
 30
0.0
 11
870.6664074431891
 21
1979.999999999996
 31
0.0
  0
LINE
  5
E3
330
87
100
AcDbEntity
  8
P-SANR-FIXT
100
AcDbLine
 10
870.6664074431891
 20
2019.999999999996
 30
0.0
 11
869.567661515917
 21
2021.903083770641
 31
0.0
  0
LINE
  5
E4
330
87
100
AcDbEntity
  8
P-SANR-FIXT
100
AcDbLine
 10
869.5450760625936
 20
2021.942202923309
 30
0.0
 11
869.5117069048098
 21
2021.999999999996
 31
0.0
  0
LINE
  5
E5
330
87
100
AcDbEntity
  8
P-SANR-FIXT
100
AcDbLine
 10
776.1664074431891
 20
2061.999999999996
 30
0.0
 11
776.1664074431891
 21
2048.499999999996
 31
0.0
  0
LINE
  5
E6
330
87
100
AcDbEntity
  8
P-SANR-FIXT
100
AcDbLine
 10
855.1664074431894
 20
2048.499999999996
 30
0.0
 11
855.1664074431894
 21
2061.999999999996
 31
0.0
  0
LWPOLYLINE
  5
E7
330
87
100
AcDbEntity
  8
P-SANR-FIXT
100
AcDbPolyline
 90
        6
 70
   128
 43
0.0
 10
855.1664074431894
 20
2048.499999999996
 10
855.4694407382751
 20
2046.929067313042
 10
855.8350521912501
 20
2045.371509304388
 10
856.2626569017824
 20
2043.829817734585
 10
856.7515707935527
 20
2042.306458981268
 10
856.8871234681568
 20
2041.917955251986
  0
LWPOLYLINE
  5
E8
330
87
100
AcDbEntity
  8
P-SANR-FIXT
100
AcDbPolyline
 90
        6
 70
   128
 43
0.0
 10
774.4456914182218
 20
2041.917955251986
 10
774.9502497431364
 20
2043.436204105642
 10
775.3936907144204
 20
2044.973415473626
 10
775.7753049211157
 20
2046.527130145668
 10
776.0944818618977
 20
2048.094862509735
 10
776.1664074431892
 20
2048.499999999996
  0
LWPOLYLINE
  5
E9
330
87
100
AcDbEntity
  8
P-SANR-FIXT
100
AcDbPolyline
 90
        7
 70
   128
 43
0.0
 10
856.8871234681568
 20
2041.917955251986
 10
856.9478809538662
 20
2041.735132021302
 10
857.0012788607986
 20
2041.550025378302
 10
857.0472317636939
 20
2041.362931454127
 10
857.0856661477101
 20
2041.174149559146
 10
857.1165205260317
 20
2040.983981704118
 10
857.1224973264646
 20
2040.940396703538
  0
LWPOLYLINE
  5
EA
330
87
100
AcDbEntity
  8
P-SANR-FIXT
100
AcDbPolyline
 90
        7
 70
   128
 43
0.0
 10
774.2103175599138
 20
2040.940396703538
 10
774.2394337838846
 20
2041.130838430188
 10
774.2761423558318
 20
2041.319963485358
 10
774.3203845498713
 20
2041.507469309305
 10
774.3720895879301
 20
2041.69305593271
 10
774.4311747529772
 20
2041.876426456565
 10
774.4456914182214
 20
2041.917955251986
  0
LWPOLYLINE
  5
EB
330
87
100
AcDbEntity
  8
P-SANR-FIXT
100
AcDbPolyline
 90
        4
 70
   128
 43
0.0
 10
857.1224973264644
 20
2040.940396703538
 10
857.8956767579565
 20
2034.048091175197
 10
858.3926190192821
 20
2027.130379825466
 10
858.5820618839949
 20
2021.999999999996
  0
LWPOLYLINE
  5
EC
330
87
100
AcDbEntity
  8
P-SANR-FIXT
100
AcDbPolyline
 90
        4
 70
   128
 43
0.0
 10
772.7507530023833
 20
2021.999999999996
 10
773.0426863244494
 20
2028.929390800403
 10
773.6114878554229
 20
2035.841564608088
 10
774.2103175599138
 20
2040.940396703538
  0
LINE
  5
ED
330
87
100
AcDbEntity
  8
P-SANR-FIXT
100
AcDbLine
 10
799.6664074431895
 20
1961.499999999995
 30
0.0
 11
799.6664074431895
 21
1956.384843317736
 31
0.0
  0
LINE
  5
EE
330
87
100
AcDbEntity
  8
P-SANR-FIXT
100
AcDbLine
 10
831.6664074431891
 20
1956.384843317736
 30
0.0
 11
831.6664074431891
 21
1961.499999999995
 31
0.0
  0
LWPOLYLINE
  5
EF
330
87
100
AcDbEntity
  8
P-SANR-FIXT
100
AcDbPolyline
 90
       80
 70
   128
 43
0.0
 10
784.7164074431893
 20
1966.499999999996
 10
784.741164142032
 20
1966.499999999996
 10
784.8153946331233
 20
1966.499999999996
 10
784.9389801635121
 20
1966.499999999996
 10
785.1117230227137
 20
1966.499999999996
 10
785.333346859003
 20
1966.499999999996
 10
785.6034971215191
 20
1966.499999999996
 10
785.9217416274709
 20
1966.499999999996
 10
786.2875712535378
 20
1966.499999999996
 10
786.7004007503571
 20
1966.499999999996
 10
787.1595696788
 20
1966.499999999996
 10
787.6643434665314
 20
1966.499999999996
 10
788.2139145831704
 20
1966.499999999996
 10
788.807403832166
 20
1966.499999999996
 10
789.4438617573243
 20
1966.499999999996
 10
790.1222701617348
 20
1966.499999999996
 10
790.8415437366706
 20
1966.499999999996
 10
791.6005317978482
 20
1966.499999999996
 10
792.3980201262788
 20
1966.499999999996
 10
793.2327329107583
 20
1966.499999999996
 10
794.1033347888946
 20
1966.499999999996
 10
795.0084329834009
 20
1966.499999999996
 10
795.9465795302433
 20
1966.499999999996
 10
796.9162735950743
 20
1966.499999999996
 10
797.9159638742467
 20
1966.499999999996
 10
798.9440510765705
 20
1966.499999999996
 10
799.9988904818351
 20
1966.499999999996
 10
801.0787945720121
 20
1966.499999999996
 10
802.1820357309252
 20
1966.499999999996
 10
803.3068490080653
 20
1966.499999999996
 10
804.4514349421364
 20
1966.499999999996
 10
805.6139624398092
 20
1966.499999999996
 10
806.7925717050803
 20
1966.499999999996
 10
807.9853772145487
 20
1966.499999999996
 10
809.1904707338501
 20
1966.499999999996
 10
810.405924370427
 20
1966.499999999996
 10
811.6297936577439
 20
1966.499999999996
 10
812.860120666019
 20
1966.499999999996
 10
814.0949371344952
 20
1966.499999999996
 10
815.332267620236
 20
1966.499999999996
 10
816.5701326584144
 20
1966.499999999996
 10
817.8065519290326
 20
1966.499999999996
 10
819.0395474250133
 20
1966.499999999996
 10
820.2671466165881
 20
1966.499999999996
 10
821.4873856069241
 20
1966.499999999996
 10
822.6983122739406
 20
1966.499999999996
 10
823.8979893932874
 20
1966.499999999996
 10
825.0844977374912
 20
1966.499999999996
 10
826.2559391463096
 20
1966.499999999996
 10
827.4104395633829
 20
1966.499999999996
 10
828.5461520343236
 20
1966.499999999996
 10
829.6612596614505
 20
1966.499999999996
 10
830.7539785104379
 20
1966.499999999996
 10
831.8225604642275
 20
1966.499999999996
 10
832.8652960196459
 20
1966.499999999996
 10
833.8805170222425
 20
1966.499999999996
 10
834.8665993349818
 20
1966.499999999996
 10
835.821965436517
 20
1966.499999999996
 10
836.7450869448857
 20
1966.499999999996
 10
837.634487062597
 20
1966.499999999996
 10
838.4887429391911
 20
1966.499999999996
 10
839.3064879474964
 20
1966.499999999996
 10
840.0864138699434
 20
1966.499999999996
 10
840.827272991431
 20
1966.499999999996
 10
841.5278800954064
 20
1966.499999999996
 10
842.1871143599584
 20
1966.499999999996
 10
842.8039211508925
 20
1966.499999999996
 10
843.3773137089215
 20
1966.499999999996
 10
843.9063747282705
 20
1966.499999999996
 10
844.3902578241681
 20
1966.499999999996
 10
844.8281888868843
 20
1966.499999999996
 10
845.2194673201388
 20
1966.499999999996
 10
845.5634671619066
 20
1966.499999999996
 10
845.8596380858239
 20
1966.499999999996
 10
846.1075062815918
 20
1966.499999999996
 10
846.306675212973
 20
1966.499999999996
 10
846.4568262521646
 20
1966.499999999996
 10
846.557719189534
 20
1966.499999999996
 10
846.6091926179043
 20
1966.499999999996
 10
846.6164074431894
 20
1966.499999999996
  0
LWPOLYLINE
  5
F0
330
87
100
AcDbEntity
  8
P-SANR-FIXT
100
AcDbPolyline
 90
       40
 70
   128
 43
0.0
 10
858.605986251471
 20
1977.999999999996
 10
858.5764012001513
 20
1977.520944672944
 10
858.5276827101496
 20
1977.043455625561
 10
858.4599087206576
 20
1976.568296738465
 10
858.3731876556001
 20
1976.096228164512
 10
858.2676582501823
 20
1975.628005112719
 10
858.143489328941
 20
1975.164376640086
 10
858.0008795356622
 20
1974.706084453267
 10
857.8400570155931
 20
1974.253861721997
 10
857.661279050459
 20
1973.808431906178
 10
857.4648316468669
 20
1973.370507598494
 10
857.251029078756
 20
1972.94078938442
 10
857.0202133846267
 20
1972.519964721428
 10
856.7727538203511
 20
1972.108706839209
 10
856.5090462684437
 20
1971.707673662645
 10
856.2295126047331
 20
1971.317506759268
 10
855.9346000234505
 20
1970.938830312892
 10
855.6247803218141
 20
1970.572250125053
 10
855.3005491452561
 20
1970.21835264585
 10
854.9624251944926
 20
1969.877704035757
 10
854.610949395716
 20
1969.550849259882
 10
854.2466840352266
 20
1969.238311216139
 10
853.8702118598955
 20
1968.94058989873
 10
853.4821351448934
 20
1968.658161598251
 10
853.0830747301793
 20
1968.391478139735
 10
852.6736690272876
 20
1968.140966159825
 10
852.2545729980087
 20
1967.90702642425
 10
851.8264571065865
 20
1967.690033186682
 10
851.3900062471206
 20
1967.490333590013
 10
850.9459186478821
 20
1967.308247110996
 10
850.4949047542957
 20
1967.144065049154
 10
850.0376860923804
 20
1966.998050060764
 10
849.5749941144602
 20
1966.870435738658
 10
849.1075690289971
 20
1966.761426238529
 10
848.6361586164164
 20
1966.671195952322
 10
848.161517032816
 20
1966.599889229249
 10
847.6844036034778
 20
1966.547620144853
 10
847.2055816081104
 20
1966.514472318521
 10
846.7258170597627
 20
1966.500498779703
 10
846.6164074431894
 20
1966.499999999996
  0
LWPOLYLINE
  5
F1
330
87
100
AcDbEntity
  8
P-SANR-FIXT
100
AcDbPolyline
 90
       40
 70
   128
 43
0.0
 10
784.7164074431892
 20
1966.499999999996
 10
784.2365354329496
 20
1966.509598720064
 10
783.7574311155591
 20
1966.538379524364
 10
783.2798609557222
 20
1966.586296369749
 10
782.8045889638184
 20
1966.653272599488
 10
782.3323754736484
 20
1966.739201065901
 10
781.8639759260636
 20
1966.843944301771
 10
781.40013966042
 20
1966.967334740266
 10
780.9416087157958
 20
1967.109174983006
 10
780.4891166438882
 20
1967.269238115861
 10
780.0433873354855
 20
1967.447268071961
 10
779.6051338623972
 20
1967.642980041356
 10
779.1750573366913
 20
1967.856060926644
 10
778.7538457890645
 20
1968.086169843864
 10
778.3421730681387
 20
1968.332938667835
 10
777.9406977624488
 20
1968.59597262108
 10
777.5500621468405
 20
1968.874850905384
 10
777.1708911549675
 20
1969.169127374984
 10
776.8037913795316
 20
1969.478331250305
 10
776.4493501018627
 20
1969.801967871105
 10
776.108134352395
 20
1970.13951948783
 10
775.780690003539
 20
1970.4904460899
 10
775.4675408964018
 20
1970.854186269613
 10
775.1691880027529
 20
1971.230158120274
 10
774.8861086235773
 20
1971.617760167126
 10
774.6187556254945
 20
1972.016372329578
 10
774.3675567162693
 20
1972.425356913202
 10
774.1329137605698
 20
1972.844059629911
 10
773.9152021370712
 20
1973.271810644675
 10
773.7147701379281
 20
1973.707925647121
 10
773.5319384115825
 20
1974.151706946275
 10
773.3669994497948
 20
1974.60244458673
 10
773.2202171197185
 20
1975.059417484412
 10
773.0918262417702
 20
1975.521894580167
 10
772.9820322139655
 20
1975.989136009299
 10
772.8910106833279
 20
1976.460394285193
 10
772.818907264889
 20
1976.934915495138
 10
772.7658373087376
 20
1977.411940506424
 10
772.7318857154823
 20
1977.890706180793
 10
772.7268286349076
 20
1977.999999999996
  0
LWPOLYLINE
  5
F2
330
87
100
AcDbEntity
  8
P-SANR-FIXT
100
AcDbPolyline
 90
        4
 70
   128
 43
0.0
 10
846.6164074431894
 20
1966.499999999996
 10
846.5916507443466
 20
1966.499999999996
 10
846.5174202532553
 20
1966.499999999996
 10
846.4076104152001
 20
1966.499999999996
  0
LWPOLYLINE
  5
F3
330
87
100
AcDbEntity
  8
P-SANR-FIXT
100
AcDbPolyline
 90
        5
 70
   128
 43
0.0
 10
784.9294258786415
 20
1966.499999999996
 10
784.8759886342141
 20
1966.499999999996
 10
784.7750956968446
 20
1966.499999999996
 10
784.7236222684742
 20
1966.499999999996
 10
784.7164074431893
 20
1966.499999999996
  0
LWPOLYLINE
  5
F4
330
87
100
AcDbEntity
  8
P-SANR-FIXT
100
AcDbPolyline
 90
       39
 70
   128
 43
0.0
 10
836.2668339733431
 20
1966.484008531509
 10
836.0678464067445
 20
1966.464043179265
 10
835.8698164101179
 20
1966.436136416874
 10
835.6730607892139
 20
1966.400332889202
 10
835.4778943110535
 20
1966.356689874256
 10
835.2846292003684
 20
1966.30527719155
 10
835.0935746401084
 20
1966.246177090408
 10
834.9050362768137
 20
1966.179484118385
 10
834.7193157316459
 20
1966.10530497001
 10
834.536710117859
 20
1966.023758316095
 10
834.3575115654818
 20
1965.934974613892
 10
834.1820067539705
 20
1965.839095898384
 10
834.0104764535848
 20
1965.736275555063
 10
833.8431950762139
 20
1965.626678074544
 10
833.6804302363772
 20
1965.510478789417
 10
833.5224423230968
 20
1965.38786359375
 10
833.3694840833318
 20
1965.2590286457
 10
833.2218002176363
 20
1965.1241800537
 10
833.0796269886915
 20
1964.983533546731
 10
832.9431918433348
 20
1964.837314129202
 10
832.8127130486944
 20
1964.685755720988
 10
832.6883993430074
 20
1964.529100783213
 10
832.5704496016841
 20
1964.367599930358
 10
832.4590525191496
 20
1964.201511529336
 10
832.3543863069724
 20
1964.031101286159
 10
832.2566184087643
 20
1963.856641820864
 10
832.1659052323067
 20
1963.678412231379
 10
832.0823918993305
 20
1963.496697647027
 10
832.0062120133529
 20
1963.311788772379
 10
831.9374874459414
 20
1963.123981422189
 10
831.876328141743
 20
1962.933576048155
 10
831.8228319425978
 20
1962.740877258258
 10
831.7770844310125
 20
1962.546193329453
 10
831.7391587932467
 20
1962.349835714497
 10
831.7091157022307
 20
1962.152118543686
 10
831.6870032205011
 20
1961.953358122318
 10
831.6728567233111
 20
1961.753872424664
 10
831.6666988420392
 20
1961.553980585287
 10
831.6664074431891
 20
1961.499999999996
  0
LWPOLYLINE
  5
F5
330
87
100
AcDbEntity
  8
P-SANR-FIXT
100
AcDbPolyline
 90
       39
 70
   128
 43
0.0
 10
799.6664074431895
 20
1961.499999999995
 10
799.6624079764944
 20
1961.699946670929
 10
799.6504159747026
 20
1961.899573469841
 10
799.6304506224588
 20
1962.098561036441
 10
799.6025438600676
 20
1962.296591033067
 10
799.5667403323957
 20
1962.493346653971
 10
799.5230973174495
 20
1962.688513132131
 10
799.4716846347434
 20
1962.881778242816
 10
799.4125845336017
 20
1963.072832803076
 10
799.3458915615792
 20
1963.261371166371
 10
799.271712413204
 20
1963.447091711539
 10
799.1901657592892
 20
1963.629697325325
 10
799.1013820570859
 20
1963.808895877703
 10
799.0055033415777
 20
1963.984400689214
 10
798.9026829982565
 20
1964.1559309896
 10
798.7930855177378
 20
1964.323212366971
 10
798.6768862326109
 20
1964.485977206807
 10
798.5542710369441
 20
1964.643965120088
 10
798.425436088894
 20
1964.796923359853
 10
798.2905874968941
 20
1964.944607225548
 10
798.1499409899251
 20
1965.086780454493
 10
798.0037215723961
 20
1965.22321559985
 10
797.8521631641824
 20
1965.35369439449
 10
797.6955082264069
 20
1965.478008100177
 10
797.5340073735516
 20
1965.5959578415
 10
797.3679189725302
 20
1965.707354924035
 10
797.1975087293533
 20
1965.812021136212
 10
797.0230492640581
 20
1965.90978903442
 10
796.844819674573
 20
1966.000502210878
 10
796.6631050902208
 20
1966.084015543854
 10
796.4781962155728
 20
1966.160195429832
 10
796.2903888653833
 20
1966.228919997243
 10
796.0999834913492
 20
1966.290079301442
 10
795.9072847014513
 20
1966.343575500587
 10
795.7126007726465
 20
1966.389323012172
 10
795.5162431576907
 20
1966.427248649938
 10
795.3185259868801
 20
1966.457291740954
 10
795.1197655655108
 20
1966.479404222684
 10
794.9202798678574
 20
1966.493550719874
  0
LINE
  5
F6
330
87
100
AcDbEntity
  8
P-SANR-FIXT
100
AcDbLine
 10
776.6664074431889
 20
2062.499999999996
 30
0.0
 11
776.1664074431891
 21
2061.999999999996
 31
0.0
  0
LINE
  5
F7
330
87
100
AcDbEntity
  8
P-SANR-FIXT
100
AcDbLine
 10
855.1664074431894
 20
2061.999999999996
 30
0.0
 11
854.6664074431891
 21
2062.499999999996
 31
0.0
  0
LINE
  5
F8
330
87
100
AcDbEntity
  8
P-SANR-FIXT
100
AcDbLine
 10
799.6664074431894
 20
1956.384843317735
 30
0.0
 11
799.7118466981186
 21
1956.339404062806
 31
0.0
  0
LINE
  5
F9
330
87
100
AcDbEntity
  8
P-SANR-FIXT
100
AcDbLine
 10
799.7272922737214
 20
1956.323958487203
 30
0.0
 11
801.0512507609293
 21
1954.999999999996
 31
0.0
  0
LINE
  5
FA
330
87
100
AcDbEntity
  8
P-SANR-FIXT
100
AcDbLine
 10
830.2815641254488
 20
1954.999999999996
 30
0.0
 11
831.605522612657
 21
1956.323958487204
 31
0.0
  0
LINE
  5
FB
330
87
100
AcDbEntity
  8
P-SANR-FIXT
100
AcDbLine
 10
831.6209681882597
 20
1956.339404062806
 30
0.0
 11
831.6664074431889
 21
1956.384843317735
 31
0.0
  0
LINE
  5
FC
330
87
100
AcDbEntity
  8
P-SANR-FIXT
100
AcDbLine
 10
858.605986251471
 20
1977.999999999996
 30
0.0
 11
869.5117069048098
 21
1977.999999999996
 31
0.0
  0
LINE
  5
FD
330
87
100
AcDbEntity
  8
P-SANR-FIXT
100
AcDbLine
 10
869.5117069048098
 20
2021.999999999996
 30
0.0
 11
858.5820618839949
 21
2021.999999999996
 31
0.0
  0
LINE
  5
FE
330
87
100
AcDbEntity
  8
P-SANR-FIXT
100
AcDbLine
 10
772.7507530023833
 20
2021.999999999996
 30
0.0
 11
761.8211079815684
 21
2021.999999999996
 31
0.0
  0
LINE
  5
FF
330
87
100
AcDbEntity
  8
P-SANR-FIXT
100
AcDbLine
 10
761.8211079815685
 20
1977.999999999995
 30
0.0
 11
772.7268286349076
 21
1977.999999999995
 31
0.0
  0
LINE
  5
100
330
87
100
AcDbEntity
  8
P-SANR-FIXT
100
AcDbLine
 10
760.6664074431891
 20
1979.999999999996
 30
0.0
 11
761.7651533704615
 21
1978.096916229351
 31
0.0
  0
LINE
  5
101
330
87
100
AcDbEntity
  8
P-SANR-FIXT
100
AcDbLine
 10
761.7877387061406
 20
1978.057797280449
 30
0.0
 11
761.8211079815685
 21
1977.999999999995
 31
0.0
  0
LINE
  5
102
330
87
100
AcDbEntity
  8
P-SANR-FIXT
100
AcDbLine
 10
761.8211079815684
 20
2021.999999999996
 30
0.0
 11
761.7877388237848
 21
2021.942202923309
 31
0.0
  0
LINE
  5
103
330
87
100
AcDbEntity
  8
P-SANR-FIXT
100
AcDbLine
 10
761.7651533704615
 20
2021.903083770641
 30
0.0
 11
760.6664074431891
 21
2019.999999999996
 31
0.0
  0
LINE
  5
104
330
87
100
AcDbEntity
  8
P-SANR-FIXT
100
AcDbLine
 10
870.6664074431877
 20
1979.999999999995
 30
0.0
 11
870.6664074431877
 21
1982.679491924306
 31
0.0
  0
SPLINE
  5
105
330
87
100
AcDbEntity
  8
P-SANR-FIXT
100
AcDbSpline
210
0.0
220
0.0
230
1.0
 70
     8
 71
     3
 72
     9
 73
     5
 74
     0
 42
0.000000001
 43
0.0000000001
 40
-1.0
 40
-1.0
 40
-1.0
 40
-1.0
 40
-0.5
 40
0.0
 40
0.0
 40
0.0
 40
0.0
 10
870.6664074431877
 20
1982.679491924306
 30
0.0
 10
870.6564881867462
 20
1981.904594426931
 30
0.0
 10
870.4541188405752
 20
1980.365934313729
 30
0.0
 10
869.8866878278268
 20
1978.849543963627
 30
0.0
 10
869.5117069048086
 20
1978.09691622935
 30
0.0
  0
SPLINE
  5
106
330
87
100
AcDbEntity
  8
P-SANR-FIXT
100
AcDbSpline
210
0.0
220
0.0
230
1.0
 70
     8
 71
     3
 72
     9
 73
     5
 74
     0
 42
0.000000001
 43
0.0000000001
 40
-1.0
 40
-1.0
 40
-1.0
 40
-1.0
 40
-0.5
 40
0.0
 40
0.0
 40
0.0
 40
0.0
 10
869.5117069048086
 20
2021.90308377064
 30
0.0
 10
869.8866878278268
 20
2021.150456036363
 30
0.0
 10
870.4541188405752
 20
2019.634065686261
 30
0.0
 10
870.6564881867462
 20
2018.095405573059
 30
0.0
 10
870.6664074431877
 20
2017.320508075684
 30
0.0
  0
LINE
  5
107
330
87
100
AcDbEntity
  8
P-SANR-FIXT
100
AcDbLine
 10
870.6664074431877
 20
2017.320508075684
 30
0.0
 11
870.6664074431877
 21
2019.999999999995
 31
0.0
  0
SPLINE
  5
108
330
87
100
AcDbEntity
  8
P-SANR-FIXT
100
AcDbSpline
210
0.0
220
0.0
230
1.0
 70
     8
 71
     3
 72
     9
 73
     5
 74
     0
 42
0.000000001
 43
0.0000000001
 40
-1.0
 40
-1.0
 40
-1.0
 40
-1.0
 40
-0.5
 40
0.0
 40
0.0
 40
0.0
 40
0.0
 10
869.5117069048086
 20
2009.165151389907
 30
0.0
 10
869.8866878278268
 20
2007.659895921353
 30
0.0
 10
870.4541188405752
 20
2004.627115221148
 30
0.0
 10
870.6564881867462
 20
2001.549794994746
 30
0.0
 10
870.6664074431877
 20
1999.999999999995
 30
0.0
  0
LINE
  5
109
330
87
100
AcDbEntity
  8
P-SANR-FIXT
100
AcDbLine
 10
870.6664074431877
 20
1999.999999999995
 30
0.0
 11
870.6664074431877
 21
2017.320508075684
 31
0.0
  0
SPLINE
  5
10A
330
87
100
AcDbEntity
  8
P-SANR-FIXT
100
AcDbSpline
210
0.0
220
0.0
230
1.0
 70
     8
 71
     3
 72
     9
 73
     5
 74
     0
 42
0.000000001
 43
0.0000000001
 40
-1.0
 40
-1.0
 40
-1.0
 40
-1.0
 40
-0.5
 40
0.0
 40
0.0
 40
0.0
 40
0.0
 10
870.6664074431877
 20
2017.320508075684
 30
0.0
 10
870.6564881867462
 20
2016.545610578309
 30
0.0
 10
870.4541188405752
 20
2015.006950465107
 30
0.0
 10
869.8866878278268
 20
2013.490560115005
 30
0.0
 10
869.5117069048086
 20
2012.737932380728
 30
0.0
  0
SPLINE
  5
10B
330
87
100
AcDbEntity
  8
P-SANR-FIXT
100
AcDbSpline
210
0.0
220
0.0
230
1.0
 70
     8
 71
     3
 72
     9
 73
     5
 74
     0
 42
0.000000001
 43
0.0000000001
 40
-1.0
 40
-1.0
 40
-1.0
 40
-1.0
 40
-0.5
 40
0.0
 40
0.0
 40
0.0
 40
0.0
 10
869.5117069048086
 20
1987.262067619262
 30
0.0
 10
869.8866878278268
 20
1986.509439884985
 30
0.0
 10
870.4541188405752
 20
1984.993049534882
 30
0.0
 10
870.6564881867462
 20
1983.454389421681
 30
0.0
 10
870.6664074431877
 20
1982.679491924306
 30
0.0
  0
LINE
  5
10C
330
87
100
AcDbEntity
  8
P-SANR-FIXT
100
AcDbLine
 10
870.6664074431877
 20
1982.679491924306
 30
0.0
 11
870.6664074431877
 21
1999.999999999995
 31
0.0
  0
SPLINE
  5
10D
330
87
100
AcDbEntity
  8
P-SANR-FIXT
100
AcDbSpline
210
0.0
220
0.0
230
1.0
 70
     8
 71
     3
 72
     9
 73
     5
 74
     0
 42
0.000000001
 43
0.0000000001
 40
-1.0
 40
-1.0
 40
-1.0
 40
-1.0
 40
-0.5
 40
0.0
 40
0.0
 40
0.0
 40
0.0
 10
870.6664074431877
 20
1999.999999999995
 30
0.0
 10
870.6564881867464
 20
1998.450205005244
 30
0.0
 10
870.4541188405752
 20
1995.372884778841
 30
0.0
 10
869.8866878278268
 20
1992.340104078636
 30
0.0
 10
869.5117069048086
 20
1990.834848610083
 30
0.0
  0
LINE
  5
10E
330
87
100
AcDbEntity
  8
P-SANR-FIXT
100
AcDbLine
 10
870.6664074431877
 20
1982.679491924306
 30
0.0
 11
870.6664074431877
 21
1982.023830579858
 31
0.0
  0
LINE
  5
10F
330
87
100
AcDbEntity
  8
P-SANR-FIXT
100
AcDbLine
 10
870.6664074431877
 20
2017.975091101416
 30
0.0
 11
870.6664074431877
 21
2017.320508075684
 31
0.0
  0
LINE
  5
110
330
87
100
AcDbEntity
  8
P-SANR-FIXT
100
AcDbLine
 10
870.6664074431877
 20
1983.285784093119
 30
0.0
 11
870.6664074431877
 21
1982.679491924306
 31
0.0
  0
LINE
  5
111
330
87
100
AcDbEntity
  8
P-SANR-FIXT
100
AcDbLine
 10
870.6664074431877
 20
2017.320508075684
 30
0.0
 11
870.6664074431877
 21
2016.752943347097
 31
0.0
  0
LINE
  5
112
330
87
100
AcDbEntity
  8
P-SANR-FIXT
100
AcDbLine
 10
776.6664074431877
 20
2062.499999999995
 30
0.0
 11
854.6664074431879
 21
2062.499999999995
 31
0.0
  0
LINE
  5
113
330
87
100
AcDbEntity
  8
P-SANR-FIXT
100
AcDbLine
 10
855.1664074431878
 20
2061.999999999995
 30
0.0
 11
776.1664074431878
 21
2061.999999999995
 31
0.0
  0
LINE
  5
114
330
87
100
AcDbEntity
  8
P-SANR-FIXT
100
AcDbLine
 10
776.1664074431878
 20
2048.499999999995
 30
0.0
 11
855.1664074431878
 21
2048.499999999995
 31
0.0
  0
SPLINE
  5
115
330
87
100
AcDbEntity
  8
P-SANR-FIXT
100
AcDbSpline
210
0.0
220
0.0
230
1.0
 70
     8
 71
     3
 72
     8
 73
     4
 74
     0
 42
0.000000001
 43
0.0000000001
 40
-1.0
 40
-1.0
 40
-1.0
 40
-1.0
 40
-0.5000030643402078
 40
-0.5000030643402078
 40
-0.5000030643402078
 40
-0.5000030643402078
 10
772.750753002382
 20
2021.999999999996
 30
0.0
 10
772.7507686111118
 20
2021.999999999996
 30
0.0
 10
772.7547333439781
 20
2021.991907795025
 30
0.0
 10
772.7626472009811
 20
2021.975745095989
 30
0.0
  0
SPLINE
  5
116
330
87
100
AcDbEntity
  8
P-SANR-FIXT
100
AcDbSpline
210
0.0
220
0.0
230
1.0
 70
     8
 71
     3
 72
     8
 73
     4
 74
     0
 42
0.000000001
 43
0.0000000001
 40
-0.5
 40
-0.5
 40
-0.5
 40
-0.5
 40
0.0
 40
0.0
 40
0.0
 40
0.0
 10
772.7626473464868
 20
2021.975744798818
 30
0.0
 10
772.7705613003982
 20
2021.959581901802
 30
0.0
 10
772.7824244268523
 20
2021.93534841193
 30
0.0
 10
772.7982367258491
 20
2021.90308377064
 30
0.0
  0
SPLINE
  5
117
330
87
100
AcDbEntity
  8
P-SANR-FIXT
100
AcDbSpline
210
0.0
220
0.0
230
1.0
 70
     8
 71
     3
 72
     9
 73
     5
 74
     0
 42
0.000000001
 43
0.0000000001
 40
-1.0
 40
-1.0
 40
-1.0
 40
-1.0
 40
-0.5
 40
0.0
 40
0.0
 40
0.0
 40
0.0
 10
772.7982367258491
 20
2021.90308377064
 30
0.0
 10
772.8546621262002
 20
2020.989852870973
 30
0.0
 10
773.1551796813285
 20
2019.176108009531
 30
0.0
 10
773.8310307453098
 20
2017.387797023872
 30
0.0
 10
774.2627896545136
 20
2016.499999999988
 30
0.0
  0
SPLINE
  5
118
330
87
100
AcDbEntity
  8
P-SANR-FIXT
100
AcDbSpline
210
0.0
220
0.0
230
1.0
 70
     8
 71
     3
 72
     9
 73
     5
 74
     0
 42
0.000000001
 43
0.0000000001
 40
-1.0
 40
-1.0
 40
-1.0
 40
-1.0
 40
-0.5
 40
0.0
 40
0.0
 40
0.0
 40
0.0
 10
857.0700252318616
 20
2016.499999999987
 30
0.0
 10
857.5017841410655
 20
2017.387797023871
 30
0.0
 10
858.177635205047
 20
2019.17610800953
 30
0.0
 10
858.4781527601755
 20
2020.989852870972
 30
0.0
 10
858.5345781605266
 20
2021.90308377064
 30
0.0
  0
SPLINE
  5
119
330
87
100
AcDbEntity
  8
P-SANR-FIXT
100
AcDbSpline
210
0.0
220
0.0
230
1.0
 70
     8
 71
     3
 72
     8
 73
     4
 74
     0
 42
0.000000001
 43
0.0000000001
 40
-1.0
 40
-1.0
 40
-1.0
 40
-1.0
 40
-0.5
 40
-0.5
 40
-0.5
 40
-0.5
 10
858.5345781605266
 20
2021.90308377064
 30
0.0
 10
858.5503904595235
 20
2021.93534841193
 30
0.0
 10
858.5622535859776
 20
2021.959581901802
 30
0.0
 10
858.5701675398887
 20
2021.975744798818
 30
0.0
  0
SPLINE
  5
11A
330
87
100
AcDbEntity
  8
P-SANR-FIXT
100
AcDbSpline
210
0.0
220
0.0
230
1.0
 70
     8
 71
     3
 72
     8
 73
     4
 74
     0
 42
0.000000001
 43
0.0000000001
 40
-0.499996935658046
 40
-0.499996935658046
 40
-0.499996935658046
 40
-0.499996935658046
 40
0.0
 40
0.0
 40
0.0
 40
0.0
 10
858.5701676853947
 20
2021.975745095989
 30
0.0
 10
858.5780815423976
 20
2021.991907795024
 30
0.0
 10
858.5820462752639
 20
2021.999999999995
 30
0.0
 10
858.5820618839937
 20
2021.999999999995
 30
0.0
  0
LINE
  5
11B
330
87
100
AcDbEntity
  8
P-SANR-FIXT
100
AcDbLine
 10
774.2627896545135
 20
2016.499999999986
 30
0.0
 11
857.0700252318616
 21
2016.499999999987
 31
0.0
  0
LWPOLYLINE
  5
11C
330
87
100
AcDbEntity
  8
P-SANR-FIXT
100
AcDbPolyline
 90
        3
 70
   128
 43
0.0
 10
774.2627896545135
 20
2016.499999999988
 10
775.3202923122956
 20
2014.591197628295
 10
776.6413203665893
 20
2012.737932380728
  0
SPLINE
  5
11D
330
87
100
AcDbEntity
  8
P-SANR-FIXT
100
AcDbSpline
210
0.0
220
0.0
230
1.0
 70
     8
 71
     3
 72
     9
 73
     5
 74
     0
 42
0.000000001
 43
0.0000000001
 40
0.0
 40
0.0
 40
0.0
 40
0.0
 40
0.5
 40
1.0
 40
1.0
 40
1.0
 40
1.0
 10
776.6413203665895
 20
2012.737932380728
 30
0.0
 10
776.824458731474
 20
2012.17802694413
 30
0.0
 10
777.179807024867
 20
2011.022658009064
 30
0.0
 10
777.5044230359693
 20
2009.79617295025
 30
0.0
 10
777.6571651460836
 20
2009.165151389908
 30
0.0
  0
LINE
  5
11E
330
87
100
AcDbEntity
  8
P-SANR-FIXT
100
AcDbLine
 10
777.6571651460837
 20
2009.165151389908
 30
0.0
 11
777.6571651460837
 21
1990.834848610082
 31
0.0
  0
SPLINE
  5
11F
330
87
100
AcDbEntity
  8
P-SANR-FIXT
100
AcDbSpline
210
0.0
220
0.0
230
1.0
 70
     8
 71
     3
 72
     9
 73
     5
 74
     0
 42
0.000000001
 43
0.0000000001
 40
0.0
 40
0.0
 40
0.0
 40
0.0
 40
0.5
 40
1.0
 40
1.0
 40
1.0
 40
1.0
 10
777.6571651460836
 20
1990.834848610082
 30
0.0
 10
777.5044230359693
 20
1990.203827049739
 30
0.0
 10
777.179807024867
 20
1988.977341990926
 30
0.0
 10
776.824458731474
 20
1987.821973055859
 30
0.0
 10
776.6413203665895
 20
1987.262067619262
 30
0.0
  0
LWPOLYLINE
  5
120
330
87
100
AcDbEntity
  8
P-SANR-FIXT
100
AcDbPolyline
 90
        3
 70
   128
 43
0.0
 10
776.6413203665895
 20
1987.262067619262
 10
774.0260406825765
 20
1982.98278542892
 10
772.8052374986045
 20
1978.499999999995
  0
LWPOLYLINE
  5
121
330
87
100
AcDbEntity
  8
P-SANR-FIXT
100
AcDbPolyline
 90
        3
 70
   128
 43
0.0
 10
858.5275773877713
 20
1978.499999999995
 10
857.3067742037993
 20
1982.98278542892
 10
854.6914945197867
 20
1987.262067619262
  0
SPLINE
  5
122
330
87
100
AcDbEntity
  8
P-SANR-FIXT
100
AcDbSpline
210
0.0
220
0.0
230
1.0
 70
     8
 71
     3
 72
     9
 73
     5
 74
     0
 42
0.000000001
 43
0.0000000001
 40
0.0
 40
0.0
 40
0.0
 40
0.0
 40
0.5
 40
1.0
 40
1.0
 40
1.0
 40
1.0
 10
854.6914945197867
 20
1987.262067619262
 30
0.0
 10
854.5083561549022
 20
1987.821973055859
 30
0.0
 10
854.1530078615091
 20
1988.977341990926
 30
0.0
 10
853.8283918504065
 20
1990.20382704974
 30
0.0
 10
853.6756497402922
 20
1990.834848610083
 30
0.0
  0
LINE
  5
123
330
87
100
AcDbEntity
  8
P-SANR-FIXT
100
AcDbLine
 10
853.6756497402921
 20
1990.834848610083
 30
0.0
 11
853.6756497402921
 21
2009.165151389907
 31
0.0
  0
SPLINE
  5
124
330
87
100
AcDbEntity
  8
P-SANR-FIXT
100
AcDbSpline
210
0.0
220
0.0
230
1.0
 70
     8
 71
     3
 72
     9
 73
     5
 74
     0
 42
0.000000001
 43
0.0000000001
 40
0.0
 40
0.0
 40
0.0
 40
0.0
 40
0.5
 40
1.0
 40
1.0
 40
1.0
 40
1.0
 10
853.6756497402922
 20
2009.165151389907
 30
0.0
 10
853.8283918504065
 20
2009.79617295025
 30
0.0
 10
854.1530078615089
 20
2011.022658009063
 30
0.0
 10
854.508356154902
 20
2012.17802694413
 30
0.0
 10
854.6914945197867
 20
2012.737932380728
 30
0.0
  0
LWPOLYLINE
  5
125
330
87
100
AcDbEntity
  8
P-SANR-FIXT
100
AcDbPolyline
 90
        3
 70
   128
 43
0.0
 10
854.6914945197867
 20
2012.737932380728
 10
856.0125225740797
 20
2014.591197628295
 10
857.0700252318616
 20
2016.499999999987
  0
LINE
  5
126
330
87
100
AcDbEntity
  8
P-SANR-FIXT
100
AcDbLine
 10
799.6664074431881
 20
1956.384843317735
 30
0.0
 11
831.6664074431878
 21
1956.384843317735
 31
0.0
  0
LINE
  5
127
330
87
100
AcDbEntity
  8
P-SANR-FIXT
100
AcDbLine
 10
830.2815641254476
 20
1954.999999999995
 30
0.0
 11
801.0512507609281
 21
1954.999999999995
 31
0.0
  0
SPLINE
  5
128
330
87
100
AcDbEntity
  8
P-SANR-FIXT
100
AcDbSpline
210
0.0
220
0.0
230
1.0
 70
     8
 71
     3
 72
     8
 73
     4
 74
     0
 42
0.000000001
 43
0.0000000001
 40
-1.0
 40
-1.0
 40
-1.0
 40
-1.0
 40
-0.5000052815826485
 40
-0.5000052815826485
 40
-0.5000052815826485
 40
-0.5000052815826485
 10
858.6059862514696
 20
1977.999999999995
 30
0.0
 10
858.6060165953988
 20
1977.999999999995
 30
0.0
 10
858.6022051465981
 20
1978.008091628104
 30
0.0
 10
858.5945519050675
 20
1978.024253931848
 30
0.0
  0
SPLINE
  5
129
330
87
100
AcDbEntity
  8
P-SANR-FIXT
100
AcDbSpline
210
0.0
220
0.0
230
1.0
 70
     8
 71
     3
 72
     8
 73
     4
 74
     0
 42
0.000000001
 43
0.0000000001
 40
-0.5
 40
-0.5
 40
-0.5
 40
-0.5
 40
0.0
 40
0.0
 40
0.0
 40
0.0
 10
858.5945516625361
 20
1978.024254444031
 30
0.0
 10
858.5868982589976
 20
1978.04041708901
 30
0.0
 10
858.575402981565
 20
1978.064650579909
 30
0.0
 10
858.5600658302382
 20
1978.09691622935
 30
0.0
  0
ELLIPSE
  5
12A
330
87
100
AcDbEntity
  8
P-SANR-FIXT
100
AcDbEllipse
 10
832.463909648443
 20
1977.772949659001
 30
0.0
 11
26.10419860519496
 21
0.0
 31
0.0
210
0.0
220
0.0
230
1.0
 40
0.4999999999999934
 41
0.0248235810305565
 42
0.0557325564703903
  0
ELLIPSE
  5
12B
330
87
100
AcDbEntity
  8
P-SANR-FIXT
100
AcDbEllipse
 10
798.8689052381573
 20
1977.772949658996
 30
0.0
 11
26.10419860541963
 21
0.0
 31
0.0
210
0.0
220
0.0
230
1.0
 40
0.4999999999999913
 41
3.085860097119429
 42
3.116769072559032
  0
SPLINE
  5
12C
330
87
100
AcDbEntity
  8
P-SANR-FIXT
100
AcDbSpline
210
0.0
220
0.0
230
1.0
 70
     8
 71
     3
 72
     8
 73
     4
 74
     0
 42
0.000000001
 43
0.0000000001
 40
-1.0
 40
-1.0
 40
-1.0
 40
-1.0
 40
-0.5
 40
-0.5
 40
-0.5
 40
-0.5
 10
772.7727490561376
 20
1978.09691622935
 30
0.0
 10
772.7574119048108
 20
1978.064650579909
 30
0.0
 10
772.7459166273781
 20
1978.040417089009
 30
0.0
 10
772.7382632238397
 20
1978.024254444031
 30
0.0
  0
SPLINE
  5
12D
330
87
100
AcDbEntity
  8
P-SANR-FIXT
100
AcDbSpline
210
0.0
220
0.0
230
1.0
 70
     8
 71
     3
 72
     8
 73
     4
 74
     0
 42
0.000000001
 43
0.0000000001
 40
-0.4999947184173516
 40
-0.4999947184173516
 40
-0.4999947184173516
 40
-0.4999947184173516
 40
0.0
 40
0.0
 40
0.0
 40
0.0
 10
772.7382629813084
 20
1978.024253931847
 30
0.0
 10
772.7306097397778
 20
1978.008091628103
 30
0.0
 10
772.7267982909771
 20
1977.999999999994
 30
0.0
 10
772.7268286349063
 20
1977.999999999994
 30
0.0
  0
LINE
  5
12E
330
87
100
AcDbEntity
  8
P-SANR-FIXT
100
AcDbLine
 10
870.6664074431877
 20
1998.810912714928
 30
0.0
 11
870.6664074431877
 21
2001.189085331665
 31
0.0
  0
LINE
  5
12F
330
87
100
AcDbEntity
  8
P-SANR-FIXT
100
AcDbLine
 10
870.6664074431877
 20
2001.189085331665
 30
0.0
 11
870.6664074431877
 21
1998.810912714928
 31
0.0
  0
LINE
  5
130
330
87
100
AcDbEntity
  8
P-SANR-FIXT
100
AcDbLine
 10
869.5117069048086
 20
1978.09691622935
 30
0.0
 11
869.5117069048086
 21
1977.999999999995
 31
0.0
  0
LINE
  5
131
330
87
100
AcDbEntity
  8
P-SANR-FIXT
100
AcDbLine
 10
869.5117069048086
 20
1978.09691622935
 30
0.0
 11
858.5600658302382
 21
1978.09691622935
 31
0.0
  0
LINE
  5
132
330
87
100
AcDbEntity
  8
P-SANR-FIXT
100
AcDbLine
 10
869.5117069048086
 20
2021.999999999995
 30
0.0
 11
869.5117069048086
 21
2021.90308377064
 31
0.0
  0
LINE
  5
133
330
87
100
AcDbEntity
  8
P-SANR-FIXT
100
AcDbLine
 10
858.5345781605266
 20
2021.90308377064
 30
0.0
 11
869.5117069048086
 21
2021.90308377064
 31
0.0
  0
LINE
  5
134
330
87
100
AcDbEntity
  8
P-SANR-FIXT
100
AcDbLine
 10
869.5117069048086
 20
2012.737932380728
 30
0.0
 11
869.5117069048086
 21
2009.165151389907
 31
0.0
  0
LINE
  5
135
330
87
100
AcDbEntity
  8
P-SANR-FIXT
100
AcDbLine
 10
869.5117069048086
 20
2012.737932380728
 30
0.0
 11
854.6914945197867
 21
2012.737932380728
 31
0.0
  0
LINE
  5
136
330
87
100
AcDbEntity
  8
P-SANR-FIXT
100
AcDbLine
 10
853.6756497402922
 20
2009.165151389907
 30
0.0
 11
869.5117069048086
 21
2009.165151389907
 31
0.0
  0
LINE
  5
137
330
87
100
AcDbEntity
  8
P-SANR-FIXT
100
AcDbLine
 10
869.5117069048086
 20
1990.834848610083
 30
0.0
 11
869.5117069048086
 21
1987.262067619262
 31
0.0
  0
LINE
  5
138
330
87
100
AcDbEntity
  8
P-SANR-FIXT
100
AcDbLine
 10
869.5117069048086
 20
1990.834848610083
 30
0.0
 11
853.6756497402922
 21
1990.834848610083
 31
0.0
  0
LINE
  5
139
330
87
100
AcDbEntity
  8
P-SANR-FIXT
100
AcDbLine
 10
854.6914945197867
 20
1987.262067619262
 30
0.0
 11
869.5117069048086
 21
1987.262067619262
 31
0.0
  0
LINE
  5
13A
330
87
100
AcDbEntity
  8
P-SANR-FIXT
100
AcDbLine
 10
761.8211079815672
 20
2021.90308377064
 30
0.0
 11
772.7982367258491
 21
2021.90308377064
 31
0.0
  0
LINE
  5
13B
330
87
100
AcDbEntity
  8
P-SANR-FIXT
100
AcDbLine
 10
761.8211079815672
 20
2009.165151389908
 30
0.0
 11
777.6571651460836
 21
2009.165151389908
 31
0.0
  0
LINE
  5
13C
330
87
100
AcDbEntity
  8
P-SANR-FIXT
100
AcDbLine
 10
776.6413203665895
 20
2012.737932380728
 30
0.0
 11
761.8211079815672
 21
2012.737932380728
 31
0.0
  0
LINE
  5
13D
330
87
100
AcDbEntity
  8
P-SANR-FIXT
100
AcDbLine
 10
761.8211079815672
 20
1987.262067619262
 30
0.0
 11
776.6413203665895
 21
1987.262067619262
 31
0.0
  0
LINE
  5
13E
330
87
100
AcDbEntity
  8
P-SANR-FIXT
100
AcDbLine
 10
777.6571651460836
 20
1990.834848610082
 30
0.0
 11
761.8211079815672
 21
1990.834848610082
 31
0.0
  0
LINE
  5
13F
330
87
100
AcDbEntity
  8
P-SANR-FIXT
100
AcDbLine
 10
772.7727490561376
 20
1978.09691622935
 30
0.0
 11
761.8211079815672
 21
1978.09691622935
 31
0.0
  0
LINE
  5
140
330
87
100
AcDbEntity
  8
P-SANR-FIXT
100
AcDbLine
 10
761.8211079815672
 20
2012.737932380728
 30
0.0
 11
761.8211079815672
 21
2009.165151389908
 31
0.0
  0
SPLINE
  5
141
330
87
100
AcDbEntity
  8
P-SANR-FIXT
100
AcDbSpline
210
0.0
220
0.0
230
1.0
 70
     8
 71
     3
 72
     9
 73
     5
 74
     0
 42
0.000000001
 43
0.0000000001
 40
-1.0
 40
-1.0
 40
-1.0
 40
-1.0
 40
-0.5
 40
0.0
 40
0.0
 40
0.0
 40
0.0
 10
761.8211079815672
 20
2012.737932380728
 30
0.0
 10
761.4461270585488
 20
2013.490560115004
 30
0.0
 10
760.8786960458005
 20
2015.006950465107
 30
0.0
 10
760.6763266996292
 20
2016.545610578308
 30
0.0
 10
760.6664074431878
 20
2017.320508075684
 30
0.0
  0
SPLINE
  5
142
330
87
100
AcDbEntity
  8
P-SANR-FIXT
100
AcDbSpline
210
0.0
220
0.0
230
1.0
 70
     8
 71
     3
 72
     9
 73
     5
 74
     0
 42
0.000000001
 43
0.0000000001
 40
-1.0
 40
-1.0
 40
-1.0
 40
-1.0
 40
-0.5
 40
0.0
 40
0.0
 40
0.0
 40
0.0
 10
760.6664074431878
 20
1999.999999999995
 30
0.0
 10
760.6763266996292
 20
2001.549794994746
 30
0.0
 10
760.8786960458005
 20
2004.627115221149
 30
0.0
 10
761.4461270585488
 20
2007.659895921354
 30
0.0
 10
761.8211079815672
 20
2009.165151389908
 30
0.0
  0
LINE
  5
143
330
87
100
AcDbEntity
  8
P-SANR-FIXT
100
AcDbLine
 10
761.8211079815672
 20
1990.834848610082
 30
0.0
 11
761.8211079815672
 21
1987.262067619262
 31
0.0
  0
SPLINE
  5
144
330
87
100
AcDbEntity
  8
P-SANR-FIXT
100
AcDbSpline
210
0.0
220
0.0
230
1.0
 70
     8
 71
     3
 72
     9
 73
     5
 74
     0
 42
0.000000001
 43
0.0000000001
 40
-1.0
 40
-1.0
 40
-1.0
 40
-1.0
 40
-0.5
 40
0.0
 40
0.0
 40
0.0
 40
0.0
 10
761.8211079815672
 20
1990.834848610082
 30
0.0
 10
761.4461270585488
 20
1992.340104078635
 30
0.0
 10
760.8786960458005
 20
1995.372884778841
 30
0.0
 10
760.6763266996291
 20
1998.450205005244
 30
0.0
 10
760.6664074431878
 20
1999.999999999995
 30
0.0
  0
SPLINE
  5
145
330
87
100
AcDbEntity
  8
P-SANR-FIXT
100
AcDbSpline
210
0.0
220
0.0
230
1.0
 70
     8
 71
     3
 72
     9
 73
     5
 74
     0
 42
0.000000001
 43
0.0000000001
 40
-1.0
 40
-1.0
 40
-1.0
 40
-1.0
 40
-0.5
 40
0.0
 40
0.0
 40
0.0
 40
0.0
 10
760.6664074431878
 20
1982.679491924306
 30
0.0
 10
760.6763266996292
 20
1983.454389421681
 30
0.0
 10
760.8786960458005
 20
1984.993049534883
 30
0.0
 10
761.4461270585488
 20
1986.509439884986
 30
0.0
 10
761.8211079815672
 20
1987.262067619262
 30
0.0
  0
LINE
  5
146
330
87
100
AcDbEntity
  8
P-SANR-FIXT
100
AcDbLine
 10
761.821107981567
 20
1978.09691622935
 30
0.0
 11
761.821107981567
 21
1977.999999999995
 31
0.0
  0
SPLINE
  5
147
330
87
100
AcDbEntity
  8
P-SANR-FIXT
100
AcDbSpline
210
0.0
220
0.0
230
1.0
 70
     8
 71
     3
 72
     9
 73
     5
 74
     0
 42
0.000000001
 43
0.0000000001
 40
-1.0
 40
-1.0
 40
-1.0
 40
-1.0
 40
-0.5
 40
0.0
 40
0.0
 40
0.0
 40
0.0
 10
761.8211079815671
 20
1978.09691622935
 30
0.0
 10
761.4461270585488
 20
1978.849543963627
 30
0.0
 10
760.8786960458005
 20
1980.365934313729
 30
0.0
 10
760.6763266996292
 20
1981.904594426931
 30
0.0
 10
760.6664074431878
 20
1982.679491924306
 30
0.0
  0
SPLINE
  5
148
330
87
100
AcDbEntity
  8
P-SANR-FIXT
100
AcDbSpline
210
0.0
220
0.0
230
1.0
 70
     8
 71
     3
 72
     9
 73
     5
 74
     0
 42
0.000000001
 43
0.0000000001
 40
-1.0
 40
-1.0
 40
-1.0
 40
-1.0
 40
-0.5
 40
0.0
 40
0.0
 40
0.0
 40
0.0
 10
760.6664074431878
 20
2017.320508075684
 30
0.0
 10
760.6763266996292
 20
2018.095405573059
 30
0.0
 10
760.8786960458005
 20
2019.634065686261
 30
0.0
 10
761.4461270585488
 20
2021.150456036363
 30
0.0
 10
761.8211079815672
 20
2021.90308377064
 30
0.0
  0
LINE
  5
149
330
87
100
AcDbEntity
  8
P-SANR-FIXT
100
AcDbLine
 10
761.8211079815672
 20
2021.999999999996
 30
0.0
 11
761.8211079815672
 21
2021.90308377064
 31
0.0
  0
LINE
  5
14A
330
87
100
AcDbEntity
  8
P-SANR-FIXT
100
AcDbLine
 10
760.6664074431878
 20
1982.679491924306
 30
0.0
 11
760.6664074431878
 21
1979.999999999995
 31
0.0
  0
LINE
  5
14B
330
87
100
AcDbEntity
  8
P-SANR-FIXT
100
AcDbLine
 10
760.6664074431878
 20
1999.999999999995
 30
0.0
 11
760.6664074431878
 21
1982.679491924306
 31
0.0
  0
LINE
  5
14C
330
87
100
AcDbEntity
  8
P-SANR-FIXT
100
AcDbLine
 10
760.6664074431878
 20
2017.320508075684
 30
0.0
 11
760.6664074431878
 21
1999.999999999995
 31
0.0
  0
LINE
  5
14D
330
87
100
AcDbEntity
  8
P-SANR-FIXT
100
AcDbLine
 10
760.6664074431878
 20
2019.999999999995
 30
0.0
 11
760.6664074431878
 21
2017.320508075684
 31
0.0
  0
LINE
  5
14E
330
87
100
AcDbEntity
  8
P-SANR-FIXT
100
AcDbLine
 10
760.6664074431878
 20
2017.320508075684
 30
0.0
 11
760.6664074431878
 21
2017.974990179722
 31
0.0
  0
LINE
  5
14F
330
87
100
AcDbEntity
  8
P-SANR-FIXT
100
AcDbLine
 10
760.6664074431878
 20
2016.753034122906
 30
0.0
 11
760.6664074431878
 21
2017.320508075684
 31
0.0
  0
LINE
  5
150
330
87
100
AcDbEntity
  8
P-SANR-FIXT
100
AcDbLine
 10
760.6664074431878
 20
1982.679491924306
 30
0.0
 11
760.6664074431878
 21
1983.285742944841
 31
0.0
  0
LINE
  5
151
330
87
100
AcDbEntity
  8
P-SANR-FIXT
100
AcDbLine
 10
760.6664074431878
 20
1982.023425568971
 30
0.0
 11
760.6664074431878
 21
1982.679491924306
 31
0.0
  0
LINE
  5
152
330
87
100
AcDbEntity
  8
P-SANR-FIXT
100
AcDbLine
 10
760.6664074431878
 20
2001.189085514665
 30
0.0
 11
760.6664074431878
 21
1998.810911824498
 31
0.0
  0
LINE
  5
153
330
87
100
AcDbEntity
  8
P-SANR-FIXT
100
AcDbLine
 10
760.6664074431878
 20
1998.810911824498
 30
0.0
 11
760.6664074431878
 21
2001.189085514665
 31
0.0
  0
ENDBLK
  5
155
330
87
100
AcDbEntity
  8
0
100
AcDbBlockEnd
  0
BLOCK
  5
1D1
330
157
100
AcDbEntity
  8
0
100
AcDbBlockBegin
  2
Automatic flow rate regulator valve_Caleffi_121 DN15 - 1_2__-V1-Est - Idraulica
 70
     0
 10
0.0
 20
0.0
 30
0.0
  3
Automatic flow rate regulator valve_Caleffi_121 DN15 - 1_2__-V1-Est - Idraulica
  1

  0
ARC
  5
158
330
157
100
AcDbEntity
  8
P-SANR-FIXT
100
AcDbCircle
 10
815.6664074431885
 20
1746.245878730053
 30
0.0
 40
27.64718202007832
100
AcDbArc
 50
311.3754836082798
 51
313.6770423386067
  0
LINE
  5
159
330
157
100
AcDbEntity
  8
P-SANR-FIXT
100
AcDbLine
 10
834.7593487545173
 20
1726.250222558437
 30
0.0
 11
834.830257363075
 21
1726.402468719304
 31
0.0
  0
LINE
  5
15A
330
157
100
AcDbEntity
  8
P-SANR-FIXT
100
AcDbLine
 10
843.1934442380558
 20
1744.358865273076
 30
0.0
 11
843.2582887270594
 21
1744.498091309309
 31
0.0
  0
ARC
  5
15B
330
157
100
AcDbEntity
  8
P-SANR-FIXT
100
AcDbCircle
 10
815.6664074431885
 20
1746.245878730053
 30
0.0
 40
27.64718202007832
100
AcDbArc
 50
356.3754836082797
 51
358.6770423386063
  0
LINE
  5
15C
330
157
100
AcDbEntity
  8
P-SANR-FIXT
100
AcDbLine
 10
843.3062197904504
 20
1745.607562930866
 30
0.0
 11
843.2487054556462
 21
1745.765357181582
 31
0.0
  0
LINE
  5
15D
330
157
100
AcDbEntity
  8
P-SANR-FIXT
100
AcDbLine
 10
836.4652818384296
 20
1764.376113102057
 30
0.0
 11
836.4126861419888
 21
1764.520412754291
 31
0.0
  0
ARC
  5
15E
330
157
100
AcDbEntity
  8
P-SANR-FIXT
100
AcDbCircle
 10
815.6664074431885
 20
1746.245878730053
 30
0.0
 40
27.64718202007835
100
AcDbArc
 50
41.37548360827944
 51
43.67704233860611
  0
LINE
  5
15F
330
157
100
AcDbEntity
  8
P-SANR-FIXT
100
AcDbLine
 10
835.6620636148047
 20
1765.338820041382
 30
0.0
 11
835.5098174539358
 21
1765.40972864994
 31
0.0
  0
LINE
  5
160
330
157
100
AcDbEntity
  8
P-SANR-FIXT
100
AcDbLine
 10
817.553420900165
 20
1773.772915524921
 30
0.0
 11
817.4141948639331
 21
1773.837760013924
 31
0.0
  0
ARC
  5
161
330
157
100
AcDbEntity
  8
P-SANR-FIXT
100
AcDbCircle
 10
815.6664074431885
 20
1746.245878730053
 30
0.0
 40
27.64718202007835
100
AcDbArc
 50
86.37548360827913
 51
88.67704233860623
  0
LINE
  5
162
330
157
100
AcDbEntity
  8
P-SANR-FIXT
100
AcDbLine
 10
816.3047232423757
 20
1773.885691077315
 30
0.0
 11
816.146928991661
 21
1773.828176742511
 31
0.0
  0
LINE
  5
163
330
157
100
AcDbEntity
  8
P-SANR-FIXT
100
AcDbLine
 10
797.5361730711828
 20
1767.044753125293
 30
0.0
 11
797.3918734189501
 21
1766.992157428854
 31
0.0
  0
ARC
  5
164
330
157
100
AcDbEntity
  8
P-SANR-FIXT
100
AcDbCircle
 10
815.6664074431885
 20
1746.245878730053
 30
0.0
 40
27.64718202007852
100
AcDbArc
 50
131.3754836082789
 51
133.6770423386059
  0
LINE
  5
165
330
157
100
AcDbEntity
  8
P-SANR-FIXT
100
AcDbLine
 10
796.5734661318597
 20
1766.24153490167
 30
0.0
 11
796.5025575233024
 21
1766.089288740803
 31
0.0
  0
LINE
  5
166
330
157
100
AcDbEntity
  8
P-SANR-FIXT
100
AcDbLine
 10
788.13937064832
 20
1748.132892187028
 30
0.0
 11
788.0745261593174
 21
1747.993666150797
 31
0.0
  0
ARC
  5
167
330
157
100
AcDbEntity
  8
P-SANR-FIXT
100
AcDbCircle
 10
815.6664074431885
 20
1746.245878730053
 30
0.0
 40
27.64718202007846
100
AcDbArc
 50
176.3754836082792
 51
178.6770423386067
  0
LINE
  5
168
330
157
100
AcDbEntity
  8
P-SANR-FIXT
100
AcDbLine
 10
788.0265950959266
 20
1746.88419452924
 30
0.0
 11
788.0841094307295
 21
1746.726400278527
 31
0.0
  0
LINE
  5
169
330
157
100
AcDbEntity
  8
P-SANR-FIXT
100
AcDbLine
 10
794.8675330479483
 20
1728.115644358046
 30
0.0
 11
794.920128744388
 21
1727.971344705815
 31
0.0
  0
ARC
  5
16A
330
157
100
AcDbEntity
  8
P-SANR-FIXT
100
AcDbCircle
 10
815.6664074431885
 20
1746.245878730053
 30
0.0
 40
27.64718202007835
100
AcDbArc
 50
221.3754836082792
 51
223.6786124514053
  0
LINE
  5
16B
330
157
100
AcDbEntity
  8
P-SANR-FIXT
100
AcDbLine
 10
795.6712744951317
 20
1727.152389472171
 30
0.0
 11
795.8236292996534
 21
1727.081345260065
 31
0.0
  0
LINE
  5
16C
330
157
100
AcDbEntity
  8
P-SANR-FIXT
100
AcDbLine
 10
813.7550220219603
 20
1718.719799512269
 30
0.0
 11
813.8925698104815
 21
1718.655659925119
 31
0.0
  0
ARC
  5
16D
330
157
100
AcDbEntity
  8
P-SANR-FIXT
100
AcDbCircle
 10
815.6664074431885
 20
1746.245878730053
 30
0.0
 40
27.64718202007832
100
AcDbArc
 50
266.3213875485935
 51
268.6770423386065
  0
LINE
  5
16E
330
157
100
AcDbEntity
  8
P-SANR-FIXT
100
AcDbLine
 10
815.0280916440015
 20
1718.606066382791
 30
0.0
 11
815.1858858947159
 21
1718.663580717594
 31
0.0
  0
LINE
  5
16F
330
157
100
AcDbEntity
  8
P-SANR-FIXT
100
AcDbLine
 10
833.7966418151923
 20
1725.447004334812
 30
0.0
 11
833.9409414674269
 21
1725.499600031253
 31
0.0
  0
LWPOLYLINE
  5
170
330
157
100
AcDbEntity
  8
P-SANR-FIXT
100
AcDbPolyline
 90
       80
 70
   128
 43
0.0
 10
788.0652296876718
 20
1746.245878730054
 10
788.0873076859075
 20
1745.142126008843
 10
788.1535063605276
 20
1744.040139056533
 10
788.2637198077738
 20
1742.941680817167
 10
788.417771709642
 20
1741.848508589604
 10
788.6154156159514
 20
1740.762371216209
 10
788.856335338614
 20
1739.685006285085
 10
789.1401454574669
 20
1738.618137350294
 10
789.4663919368629
 20
1737.563471174546
 10
789.8345528520303
 20
1736.522694998739
 10
790.2440392240419
 20
1735.497473842734
 10
790.6941959620551
 20
1734.489447841677
 10
791.1843029113166
 20
1733.500229622137
 10
791.7135760052591
 20
1732.531401722243
 10
792.2811685198372
 20
1731.584514059962
 10
792.8861724281079
 20
1730.661081453562
 10
793.5276198528785
 20
1729.762581198226
 10
794.2044846151039
 20
1728.89045070269
 10
794.9156838755551
 20
1728.046085189706
 10
795.6600798671294
 20
1727.23083546397
 10
796.4364817150366
 20
1726.446005751133
 10
797.2436473419434
 20
1725.692851611315
 10
798.0802854550329
 20
1724.972577930475
 10
798.9450576117977
 20
1724.286336992852
 10
799.8365803612615
 20
1723.635226637557
 10
800.7534274572067
 20
1723.020288502261
 10
801.6941321398636
 20
1722.442506356801
 10
802.6571894824126
 20
1721.902804529356
 10
803.641058798547
 20
1721.40204642772
 10
804.6441661072421
 20
1720.941033158033
 10
805.6649066507883
 20
1720.520502243182
 10
806.7016474620631
 20
1720.141126442923
 10
807.7527299769272
 20
1719.803512677606
 10
808.8164726875763
 20
1719.508201057236
 10
809.8911738325927
 20
1719.255664017408
 10
810.9751141194024
 20
1719.046305563516
 10
812.0665594747737
 20
1718.880460624423
 10
813.1637638189683
 20
1718.758394516656
 10
814.2649718590925
 20
1718.680302519945
 10
815.3684218971946
 20
1718.646309564829
 10
816.4723486486032
 20
1718.656470032782
 10
817.5749860660083
 20
1718.710767669225
 10
818.6745701647586
 20
1718.809115609521
 10
819.7693418448613
 20
1718.951356517946
 10
820.8575497051674
 20
1719.137262839389
 10
821.9374528452389
 20
1719.366537163395
 10
823.0073236504191
 20
1719.638812699954
 10
824.0654505556459
 20
1719.953653866289
 10
825.1101407835934
 20
1720.310556983698
 10
826.1397230527517
 20
1720.708951083327
 10
827.1525502511233
 20
1721.148198819603
 10
828.1470020712482
 20
1721.627597489851
 10
829.1214876023532
 20
1722.146380158462
 10
830.0744478754676
 20
1722.703716883836
 10
831.0043583574415
 20
1723.298716046104
 10
831.9097313898748
 20
1723.930425773533
 10
832.7891185690505
 20
1724.597835465315
 10
833.6411130630752
 20
1725.299877408319
 10
834.4643518625074
 20
1726.035428485196
 10
835.2575179608832
 20
1726.803311971131
 10
836.0193424616447
 20
1727.602299416355
 10
836.7486066081044
 20
1728.431112611395
 10
837.4441437331961
 20
1729.288425631945
 10
838.1048411258932
 20
1730.172866960054
 10
838.7296418113088
 20
1731.083021678269
 10
839.3175462416291
 20
1732.017433733197
 10
839.8676138951795
 20
1732.97460826488
 10
840.3789647810553
 20
1733.953013998253
 10
840.8507808469215
 20
1734.95108569286
 10
841.2823072877218
 20
1735.967226646899
 10
841.6728537532046
 20
1736.999811251609
 10
842.0217954523371
 20
1738.047187591895
 10
842.3285741528381
 20
1739.107680089041
 10
842.5926990742294
 20
1740.179592181279
 10
842.8137476729798
 20
1741.261209037922
 10
842.9913663184864
 20
1742.350800302733
 10
843.1252708588063
 20
1743.446622862123
 10
843.2152470752397
 20
1744.546923633758
 10
843.2611510250339
 20
1745.649942371123
 10
843.2675851987065
 20
1746.245878730054
  0
LWPOLYLINE
  5
171
330
157
100
AcDbEntity
  8
P-SANR-FIXT
100
AcDbPolyline
 90
       80
 70
   128
 43
0.0
 10
843.2675851987065
 20
1746.245878730054
 10
843.2455072004707
 20
1747.349631451264
 10
843.1793085258508
 20
1748.451618403575
 10
843.0690950786043
 20
1749.550076642941
 10
842.9150431767364
 20
1750.643248870504
 10
842.7173992704268
 20
1751.729386243898
 10
842.4764795477644
 20
1752.806751175023
 10
842.1926694289114
 20
1753.873620109813
 10
841.8664229495153
 20
1754.928286285561
 10
841.4982620343479
 20
1755.969062461368
 10
841.0887756623361
 20
1756.994283617374
 10
840.6386189243232
 20
1758.00230961843
 10
840.1485119750615
 20
1758.991527837971
 10
839.619238881119
 20
1759.960355737865
 10
839.0516463665411
 20
1760.907243400145
 10
838.4466424582704
 20
1761.830676006545
 10
837.8051950334997
 20
1762.729176261882
 10
837.1283302712743
 20
1763.601306757417
 10
836.4171310108233
 20
1764.445672270402
 10
835.6727350192487
 20
1765.260921996138
 10
834.8963331713417
 20
1766.045751708975
 10
834.0891675444348
 20
1766.798905848793
 10
833.2525294313454
 20
1767.519179529633
 10
832.3877572745805
 20
1768.205420467255
 10
831.4962345251167
 20
1768.856530822551
 10
830.5793874291714
 20
1769.471468957847
 10
829.6386827465145
 20
1770.049251103307
 10
828.6756254039655
 20
1770.588952930752
 10
827.6917560878311
 20
1771.089711032387
 10
826.6886487791364
 20
1771.550724302075
 10
825.6679082355898
 20
1771.971255216925
 10
824.631167424315
 20
1772.350631017185
 10
823.5800849094509
 20
1772.688244782501
 10
822.5163421988019
 20
1772.983556402872
 10
821.4416410537852
 20
1773.236093442699
 10
820.357700766976
 20
1773.445451896592
 10
819.2662554116044
 20
1773.611296835684
 10
818.1690510674098
 20
1773.733362943452
 10
817.0678430272854
 20
1773.811454940162
 10
815.9643929891835
 20
1773.845447895279
 10
814.8604662377747
 20
1773.835287427325
 10
813.7578288203698
 20
1773.780989790883
 10
812.6582447216197
 20
1773.682641850587
 10
811.5634730415168
 20
1773.540400942161
 10
810.4752651812107
 20
1773.354494620718
 10
809.395362041139
 20
1773.125220296712
 10
808.3254912359592
 20
1772.852944760154
 10
807.2673643307322
 20
1772.538103593818
 10
806.2226741027847
 20
1772.18120047641
 10
805.1930918336264
 20
1771.782806376781
 10
804.1802646352548
 20
1771.343558640504
 10
803.18581281513
 20
1770.864159970257
 10
802.2113272840249
 20
1770.345377301645
 10
801.2583670109107
 20
1769.788040576271
 10
800.3284565289366
 20
1769.193041414003
 10
799.4230834965036
 20
1768.561331686575
 10
798.5436963173277
 20
1767.893921994792
 10
797.691701823303
 20
1767.191880051788
 10
796.8684630238707
 20
1766.456328974912
 10
796.0752969254948
 20
1765.688445488977
 10
795.3134724247337
 20
1764.889458043753
 10
794.5842082782738
 20
1764.060644848713
 10
793.8886711531822
 20
1763.203331828163
 10
793.2279737604849
 20
1762.318890500054
 10
792.6031730750696
 20
1761.408735781839
 10
792.015268644749
 20
1760.474323726911
 10
791.4652009911987
 20
1759.517149195228
 10
790.9538501053228
 20
1758.538743461854
 10
790.4820340394564
 20
1757.540671767247
 10
790.0505075986565
 20
1756.524530813209
 10
789.6599611331737
 20
1755.491946208499
 10
789.3110194340412
 20
1754.444569868213
 10
789.0042407335402
 20
1753.384077371066
 10
788.740115812149
 20
1752.312165278828
 10
788.5190672133984
 20
1751.230548422185
 10
788.3414485678918
 20
1750.140957157374
 10
788.2075440275719
 20
1749.045134597985
 10
788.1175678111385
 20
1747.944833826349
 10
788.0716638613441
 20
1746.841815088984
 10
788.0652296876718
 20
1746.245878730054
  0
LWPOLYLINE
  5
172
330
157
100
AcDbEntity
  8
P-SANR-FIXT
100
AcDbPolyline
 90
       80
 70
   128
 43
0.0
 10
776.6664074431889
 20
1746.245878730054
 10
776.6976032834111
 20
1744.686294696775
 10
776.7911408973871
 20
1743.129205665256
 10
776.9468706448884
 20
1741.577102645786
 10
777.1645433915398
 20
1740.032468672098
 10
777.4438109073809
 20
1738.497774829046
 10
777.78422642396
 20
1736.975476299395
 10
778.185245349069
 20
1735.468008436053
 10
778.6462261379739
 20
1733.977782866025
 10
779.1664313197497
 20
1732.507183632325
 10
779.7450286770765
 20
1731.058563380016
 10
780.3810925776105
 20
1729.634239592479
 10
781.0736054547971
 20
1728.236490883936
 10
781.8214594357607
 20
1726.867553354148
 10
782.623458113666
 20
1725.529617011139
 10
783.4783184617117
 20
1724.224822267647
 10
784.3846728857016
 20
1722.95525651692
 10
785.341071411903
 20
1721.722950793333
 10
786.3459840066941
 20
1720.529876523166
 10
787.3978030242938
 20
1719.377942370742
 10
788.4948457786497
 20
1718.268991184972
 10
789.6353572353782
 20
1717.20479705119
 10
790.8175128194447
 20
1716.187062452994
 10
792.0394213340942
 20
1715.217415548635
 10
793.2991279863636
 20
1714.297407566315
 10
794.5946175143317
 20
1713.428510322546
 10
795.9238174111107
 20
1712.612113867563
 10
797.2846012404134
 20
1711.84952426154
 10
798.6747920383976
 20
1711.14196148517
 10
800.0921657963447
 20
1710.490557487955
 10
801.5344550185989
 20
1709.896354377332
 10
802.9993523500769
 20
1709.360302751522
 10
804.4845142675431
 20
1708.883260178774
 10
805.9875648287468
 20
1708.465989825441
 10
807.506099473424
 20
1708.109159235076
 10
809.03768887008
 20
1707.813339260503
 10
810.5798828024015
 20
1707.579003150577
 10
812.1302140890811
 20
1707.406525793086
 10
813.6862025307797
 20
1707.296183115006
 10
815.245358877917
 20
1707.248151641085
 10
816.8051888129397
 20
1707.262508211435
 10
818.3631969406976
 20
1707.339229858606
 10
819.9168907805443
 20
1707.478193844329
 10
821.4637847537725
 20
1707.67917785587
 10
823.0014041600117
 20
1707.941860361686
 10
824.5272891362198
 20
1708.265821125804
 10
826.0389985919395
 20
1708.650541880108
 10
827.5341141145229
 20
1709.095407153461
 10
829.0102438380742
 20
1709.599705256326
 10
830.4650262699276
 20
1710.162629419315
 10
831.8961340685277
 20
1710.783279083852
 10
833.301277766685
 20
1711.460661342872
 10
834.6782094342295
 20
1712.193692529261
 10
836.0247262742229
 20
1712.981199949491
 10
837.3386741469632
 20
1713.821923759685
 10
838.6179510161479
 20
1714.714518981089
 10
839.8605103116837
 20
1715.657557651761
 10
841.0643642037637
 20
1716.649531110997
 10
842.2275867829684
 20
1717.688852412874
 10
843.348317141312
 20
1718.773858865017
 10
844.424762349298
 20
1719.902814688559
 10
845.4552003242225
 20
1721.073913795013
 10
846.4379825851409
 20
1722.285282675631
 10
847.3715368900851
 20
1723.534983398615
 10
848.2543697513142
 20
1724.821016709396
 10
849.0850688245782
 20
1726.141325229017
 10
849.8623051685664
 20
1727.493796745497
 10
850.5848353709295
 20
1728.876267592921
 10
851.2515035374756
 20
1730.286526112845
 10
851.8612431413533
 20
1731.722316192477
 10
852.4130787292669
 20
1733.181340873974
 10
852.9061274819948
 20
1734.661266029087
 10
853.3396006267103
 20
1736.15972409327
 10
853.7128046988515
 20
1737.674317853274
 10
854.0251426515155
 20
1739.202624282179
 10
854.2761148106066
 20
1740.742198415719
 10
854.465319674208
 20
1742.290577263706
 10
854.5924545548999
 20
1743.845283750287
 10
854.6573160639935
 20
1745.403830676736
 10
854.6664074431891
 20
1746.245878730054
  0
LWPOLYLINE
  5
173
330
157
100
AcDbEntity
  8
P-SANR-FIXT
100
AcDbPolyline
 90
       80
 70
   128
 43
0.0
 10
854.6664074431891
 20
1746.245878730054
 10
854.6352116029673
 20
1747.805462763333
 10
854.5416739889914
 20
1749.362551794852
 10
854.3859442414898
 20
1750.914654814322
 10
854.1682714948386
 20
1752.459288788009
 10
853.8890039789974
 20
1753.993982631061
 10
853.5485884624183
 20
1755.516281160712
 10
853.1475695373092
 20
1757.023749024054
 10
852.6865887484044
 20
1758.513974594082
 10
852.1663835666284
 20
1759.984573827782
 10
851.5877862093015
 20
1761.433194080091
 10
850.9517223087676
 20
1762.857517867628
 10
850.2592094315811
 20
1764.255266576172
 10
849.5113554506174
 20
1765.62420410596
 10
848.7093567727123
 20
1766.962140448968
 10
847.8544964246665
 20
1768.26693519246
 10
846.9481420006763
 20
1769.536500943187
 10
845.9917434744751
 20
1770.768806666774
 10
844.9868308796839
 20
1771.961880936941
 10
843.9350118620842
 20
1773.113815089365
 10
842.8379691077283
 20
1774.222766275135
 10
841.697457651
 20
1775.286960408918
 10
840.5153020669336
 20
1776.304695007114
 10
839.293393552284
 20
1777.274341911472
 10
838.0336869000148
 20
1778.194349893793
 10
836.7381973720464
 20
1779.063247137562
 10
835.4089974752673
 20
1779.879643592544
 10
834.0482136459648
 20
1780.642233198567
 10
832.6580228479807
 20
1781.349795974938
 10
831.2406490900336
 20
1782.001199972153
 10
829.7983598677792
 20
1782.595403082775
 10
828.3334625363011
 20
1783.131454708586
 10
826.848300618835
 20
1783.608497281334
 10
825.3452500576313
 20
1784.025767634666
 10
823.8267154129543
 20
1784.382598225031
 10
822.2951260162982
 20
1784.678418199604
 10
820.7529320839766
 20
1784.912754309529
 10
819.2026007972968
 20
1785.085231667022
 10
817.6466123555982
 20
1785.195574345102
 10
816.0874560084613
 20
1785.243605819022
 10
814.5276260734386
 20
1785.229249248672
 10
812.9696179456804
 20
1785.152527601502
 10
811.415924105834
 20
1785.013563615779
 10
809.8690301326056
 20
1784.812579604237
 10
808.3314107263666
 20
1784.549897098421
 10
806.8055257501585
 20
1784.225936334303
 10
805.2938162944386
 20
1783.841215579999
 10
803.7987007718554
 20
1783.396350306646
 10
802.3225710483039
 20
1782.892052203781
 10
800.8677886164509
 20
1782.329128040792
 10
799.4366808178503
 20
1781.708478376256
 10
798.0315371196933
 20
1781.031096117235
 10
796.6546054521488
 20
1780.298064930846
 10
795.3080886121552
 20
1779.510557510615
 10
793.9941407394148
 20
1778.669833700422
 10
792.7148638702305
 20
1777.777238479017
 10
791.4723045746943
 20
1776.834199808346
 10
790.2684506826147
 20
1775.842226349109
 10
789.10522810341
 20
1774.802905047233
 10
787.9844977450662
 20
1773.71789859509
 10
786.9080525370804
 20
1772.588942771548
 10
785.8776145621558
 20
1771.417843665094
 10
784.8948323012371
 20
1770.206474784476
 10
783.9612779962932
 20
1768.956774061492
 10
783.0784451350641
 20
1767.670740750711
 10
782.2477460617999
 20
1766.350432231091
 10
781.470509717812
 20
1764.997960714611
 10
780.7479795154486
 20
1763.615489867186
 10
780.0813113489026
 20
1762.205231347262
 10
779.471571745025
 20
1760.76944126763
 10
778.9197361571114
 20
1759.310416586133
 10
778.4266874043836
 20
1757.83049143102
 10
777.993214259668
 20
1756.332033366837
 10
777.6200101875269
 20
1754.817439606833
 10
777.3076722348627
 20
1753.289133177928
 10
777.0567000757717
 20
1751.749559044388
 10
776.8674952121702
 20
1750.201180196401
 10
776.7403603314784
 20
1748.64647370982
 10
776.6754988223848
 20
1747.087926783371
 10
776.6664074431889
 20
1746.245878730054
  0
ARC
  5
174
330
157
100
AcDbEntity
  8
P-SANR-FIXT
100
AcDbCircle
 10
815.6664074431878
 20
1746.245878730053
 30
0.0
 40
27.75469302286575
100
AcDbArc
 50
179.9999999999999
 51
359.9999999999991
  0
ARC
  5
175
330
157
100
AcDbEntity
  8
P-SANR-FIXT
100
AcDbCircle
 10
815.6664074431878
 20
1746.245878730053
 30
0.0
 40
27.75469302286558
100
AcDbArc
 50
0.0
 51
180.0
  0
ARC
  5
176
330
157
100
AcDbEntity
  8
P-SANR-FIXT
100
AcDbCircle
 10
827.7629217802882
 20
1746.245878730053
 30
0.0
 40
4.8657557465948
100
AcDbArc
 50
0.0
 51
180.0
  0
ARC
  5
177
330
157
100
AcDbEntity
  8
P-SANR-FIXT
100
AcDbCircle
 10
827.7629217802882
 20
1746.245878730053
 30
0.0
 40
5.499035154807074
100
AcDbArc
 50
180.0
 51
0.0
  0
ARC
  5
178
330
157
100
AcDbEntity
  8
P-SANR-FIXT
100
AcDbCircle
 10
827.7629217802884
 20
1746.245878730053
 30
0.0
 40
7.248472328443426
100
AcDbArc
 50
180.0
 51
0.0
  0
ARC
  5
179
330
157
100
AcDbEntity
  8
P-SANR-FIXT
100
AcDbCircle
 10
827.7629217802882
 20
1746.245878730053
 30
0.0
 40
4.865755746594686
100
AcDbArc
 50
180.0
 51
0.0
  0
ARC
  5
17A
330
157
100
AcDbEntity
  8
P-SANR-FIXT
100
AcDbCircle
 10
827.7629217802882
 20
1746.245878730053
 30
0.0
 40
5.499035154807074
100
AcDbArc
 50
0.0
 51
180.0
  0
ARC
  5
17B
330
157
100
AcDbEntity
  8
P-SANR-FIXT
100
AcDbCircle
 10
827.7629217802884
 20
1746.245878730053
 30
0.0
 40
7.248472328443426
100
AcDbArc
 50
0.0
 51
180.0
  0
LWPOLYLINE
  5
17C
330
157
100
AcDbEntity
  8
P-SANR-FIXT
100
AcDbPolyline
 90
       70
 70
   128
 43
0.0
 10
773.5652228200444
 20
1737.708817029635
 10
773.9402906904993
 20
1736.032047426877
 10
774.3821114466617
 20
1734.371617775368
 10
774.8899782695718
 20
1732.730184408346
 10
775.463078680652
 20
1731.110373269045
 10
776.1004958414996
 20
1729.514775709746
 10
776.8012100206322
 20
1727.945944346167
 10
777.564100224841
 20
1726.406388973825
 10
778.3879459925405
 20
1724.898572552895
 10
779.2714293462466
 20
1723.424907267998
 10
780.21313690106
 20
1721.987750669227
 10
781.2115621257797
 20
1720.589401900562
 10
782.2651077530323
 20
1719.232098021734
 10
783.3720883345587
 20
1717.918010429406
 10
784.5307329375714
 20
1716.649241383404
 10
785.7391879778703
 20
1715.427820643544
 10
786.9955201851804
 20
1714.255702222453
 10
788.297719695974
 20
1713.134761259568
 10
789.6437032688208
 20
1712.066791021307
 10
791.0313176171325
 20
1711.053500032231
 10
792.4583428539605
 20
1710.096509341763
 10
793.9224960433415
 20
1709.197349930863
 10
795.4214348525083
 20
1708.357460262777
 10
796.9527612991233
 20
1707.578183981807
 10
798.5140255875372
 20
1706.860767763766
 10
800.1027300279405
 20
1706.206359321562
 10
801.7163330321341
 20
1705.616005569104
 10
803.3522531795281
 20
1705.090650946458
 10
805.0078733468644
 20
1704.631135908953
 10
806.6805448950557
 20
1704.238195582623
 10
808.3675919064422
 20
1703.912458588168
 10
810.0663154656897
 20
1703.654446035292
 10
811.7739979774789
 20
1703.46457068904
 10
813.4879075140766
 20
1703.343136309461
 10
815.2053021858391
 20
1703.290337165658
 10
816.9234345276494
 20
1703.306257724998
 10
818.6395558942765
 20
1703.390872517982
 10
820.3509208576191
 20
1703.544046178992
 10
822.0547915988085
 20
1703.765533662845
 10
823.7484422881315
 20
1704.054980636815
 10
825.4291634457779
 20
1704.41192404749
 10
827.0942662764307
 20
1704.835792861556
 10
828.7410869707631
 20
1705.32590897933
 10
830.3669909669679
 20
1705.881488319578
 10
831.9693771654916
 20
1706.501642073872
 10
833.5456820902413
 20
1707.185378128497
 10
835.0933839895972
 20
1707.931602651623
 10
836.6100068706799
 20
1708.739121843198
 10
838.0931244604081
 20
1709.606643844777
 10
839.5403640870195
 20
1710.532780806219
 10
840.9494104758403
 20
1711.516051105952
 10
842.3180094532286
 20
1712.554881721248
 10
843.6439715527722
 20
1713.647610744729
 10
844.9251755179698
 20
1714.79249004306
 10
846.159571695785
 20
1715.987688053592
 10
847.3451853156573
 20
1717.23129271447
 10
848.4801196487129
 20
1718.521314523525
 10
849.5625590421246
 20
1719.855689721052
 10
850.5907718237718
 20
1721.232283591386
 10
851.5631130725434
 20
1722.648893877993
 10
852.4780272498638
 20
1724.103254306609
 10
853.3340506882201
 20
1725.593038210794
 10
854.1298139327196
 20
1727.115862254106
 10
854.864043931925
 20
1728.669290242927
 10
855.535566074465
 20
1730.250837023855
 10
856.1433060681618
 20
1731.857972459418
 10
856.6862916586696
 20
1733.48812547576
 10
857.1636541848748
 20
1735.138688175799
 10
857.5746299685672
 20
1736.807020011317
 10
857.7675920663338
 20
1737.708817029635
  0
LWPOLYLINE
  5
17D
330
157
100
AcDbEntity
  8
P-SANR-FIXT
100
AcDbPolyline
 90
       70
 70
   128
 43
0.0
 10
857.7675920663342
 20
1754.782940430471
 10
857.3925241958791
 20
1756.459710033231
 10
856.9507034397165
 20
1758.120139684739
 10
856.4428366168066
 20
1759.761573051761
 10
855.8697362057264
 20
1761.381384191062
 10
855.2323190448788
 20
1762.976981750361
 10
854.5316048657463
 20
1764.54581311394
 10
853.7687146615375
 20
1766.085368486282
 10
852.9448688938378
 20
1767.593184907212
 10
852.0613855401318
 20
1769.066850192109
 10
851.1196779853184
 20
1770.50400679088
 10
850.1212527605988
 20
1771.902355559545
 10
849.0677071333461
 20
1773.259659438374
 10
847.9607265518197
 20
1774.573747030701
 10
846.8020819488069
 20
1775.842516076703
 10
845.5936269085082
 20
1777.063936816563
 10
844.337294701198
 20
1778.236055237654
 10
843.0350951904046
 20
1779.356996200539
 10
841.6891116175575
 20
1780.4249664388
 10
840.3014972692458
 20
1781.438257427877
 10
838.8744720324179
 20
1782.395248118344
 10
837.4103188430369
 20
1783.294407529244
 10
835.91138003387
 20
1784.13429719733
 10
834.3800535872553
 20
1784.9135734783
 10
832.8187892988411
 20
1785.630989696341
 10
831.230084858438
 20
1786.285398138545
 10
829.6164818542445
 20
1786.875751891004
 10
827.9805617068504
 20
1787.401106513649
 10
826.3249415395138
 20
1787.860621551154
 10
824.6522699913226
 20
1788.253561877484
 10
822.9652229799363
 20
1788.579298871939
 10
821.2664994206885
 20
1788.837311424815
 10
819.5588169088996
 20
1789.027186771068
 10
817.8449073723019
 20
1789.148621150646
 10
816.1275127005392
 20
1789.201420294449
 10
814.409380358729
 20
1789.185499735109
 10
812.6932589921022
 20
1789.100884942125
 10
810.9818940287594
 20
1788.947711281115
 10
809.2780232875698
 20
1788.726223797262
 10
807.5843725982469
 20
1788.436776823292
 10
805.9036514406004
 20
1788.079833412617
 10
804.2385486099478
 20
1787.655964598551
 10
802.5917279156153
 20
1787.165848480777
 10
800.9658239194106
 20
1786.610269140529
 10
799.3634377208868
 20
1785.990115386235
 10
797.7871327961371
 20
1785.306379331609
 10
796.2394308967811
 20
1784.560154808484
 10
794.7228080156985
 20
1783.752635616909
 10
793.2396904259704
 20
1782.88511361533
 10
791.7924507993587
 20
1781.958976653888
 10
790.3834044105381
 20
1780.975706354155
 10
789.0148054331499
 20
1779.936875738859
 10
787.6888433336058
 20
1778.844146715378
 10
786.4076393684086
 20
1777.699267417047
 10
785.1732431905934
 20
1776.504069406515
 10
783.987629570721
 20
1775.260464745637
 10
782.8526952376654
 20
1773.970442936582
 10
781.7702558442534
 20
1772.636067739055
 10
780.7420430626066
 20
1771.259473868721
 10
779.769701813835
 20
1769.842863582114
 10
778.8547876365146
 20
1768.388503153498
 10
777.9987641981583
 20
1766.898719249313
 10
777.2030009536588
 20
1765.375895206001
 10
776.4687709544533
 20
1763.82246721718
 10
775.7972488119134
 20
1762.240920436252
 10
775.1895088182167
 20
1760.633785000688
 10
774.6465232277088
 20
1759.003631984347
 10
774.1691607015035
 20
1757.353069284309
 10
773.7581849178114
 20
1755.684737448791
 10
773.5652228200444
 20
1754.782940430471
  0
SPLINE
  5
17E
330
157
100
AcDbEntity
  8
P-SANR-FIXT
100
AcDbSpline
210
0.0
220
0.0
230
1.0
 70
     8
 71
     3
 72
     9
 73
     5
 74
     0
 42
0.000000001
 43
0.0000000001
 40
-1.0
 40
-1.0
 40
-1.0
 40
-1.0
 40
-0.5
 40
0.0
 40
0.0
 40
0.0
 40
0.0
 10
869.5117069048086
 20
1744.183132663246
 30
0.0
 10
869.8866878278268
 20
1742.879543188294
 30
0.0
 10
870.4541188405752
 20
1740.25307805781
 30
0.0
 10
870.6564881867462
 20
1737.588040566165
 30
0.0
 10
870.6664074431877
 20
1736.245878730053
 30
0.0
  0
LINE
  5
17F
330
157
100
AcDbEntity
  8
P-SANR-FIXT
100
AcDbLine
 10
870.6664074431877
 20
1736.245878730053
 30
0.0
 11
870.6664074431877
 21
1746.245878730053
 31
0.0
  0
SPLINE
  5
180
330
157
100
AcDbEntity
  8
P-SANR-FIXT
100
AcDbSpline
210
0.0
220
0.0
230
1.0
 70
    24
 71
     3
 72
     9
 73
     5
 74
     0
 42
0.000000001
 43
0.0000000001
 40
-1.0
 40
-1.0
 40
-1.0
 40
-1.0
 40
-0.5
 40
0.0
 40
0.0
 40
0.0
 40
0.0
 10
869.5117069048086
 20
1726.245878730053
 30
0.0
 10
869.8866878278268
 20
1726.245878730053
 30
0.0
 10
870.4541188405752
 20
1726.245878730053
 30
0.0
 10
870.6564881867462
 20
1726.245878730053
 30
0.0
 10
870.6664074431877
 20
1726.245878730053
 30
0.0
  0
LINE
  5
181
330
157
100
AcDbEntity
  8
P-SANR-FIXT
100
AcDbLine
 10
870.6664074431877
 20
1726.245878730053
 30
0.0
 11
870.6664074431877
 21
1736.245878730053
 31
0.0
  0
SPLINE
  5
182
330
157
100
AcDbEntity
  8
P-SANR-FIXT
100
AcDbSpline
210
0.0
220
0.0
230
1.0
 70
     8
 71
     3
 72
     9
 73
     5
 74
     0
 42
0.000000001
 43
0.0000000001
 40
-1.0
 40
-1.0
 40
-1.0
 40
-1.0
 40
-0.5
 40
0.0
 40
0.0
 40
0.0
 40
0.0
 10
870.6664074431877
 20
1736.245878730053
 30
0.0
 10
870.6564881867462
 20
1734.90371689394
 30
0.0
 10
870.4541188405752
 20
1732.238679402296
 30
0.0
 10
869.8866878278268
 20
1729.612214271812
 30
0.0
 10
869.5117069048086
 20
1728.308624796859
 30
0.0
  0
LINE
  5
183
330
157
100
AcDbEntity
  8
P-SANR-FIXT
100
AcDbLine
 10
870.6664074431877
 20
1746.245878730053
 30
0.0
 11
870.6664074431877
 21
1756.245878730053
 31
0.0
  0
SPLINE
  5
184
330
157
100
AcDbEntity
  8
P-SANR-FIXT
100
AcDbSpline
210
0.0
220
0.0
230
1.0
 70
     8
 71
     3
 72
     9
 73
     5
 74
     0
 42
0.000000001
 43
0.0000000001
 40
-1.0
 40
-1.0
 40
-1.0
 40
-1.0
 40
-0.5
 40
0.0
 40
0.0
 40
0.0
 40
0.0
 10
870.6664074431877
 20
1756.245878730053
 30
0.0
 10
870.6564881867462
 20
1754.903716893941
 30
0.0
 10
870.4541188405752
 20
1752.238679402296
 30
0.0
 10
869.8866878278268
 20
1749.612214271811
 30
0.0
 10
869.5117069048086
 20
1748.308624796859
 30
0.0
  0
SPLINE
  5
185
330
157
100
AcDbEntity
  8
P-SANR-FIXT
100
AcDbSpline
210
0.0
220
0.0
230
1.0
 70
     8
 71
     3
 72
     9
 73
     5
 74
     0
 42
0.000000001
 43
0.0000000001
 40
-1.0
 40
-1.0
 40
-1.0
 40
-1.0
 40
-0.5
 40
0.0
 40
0.0
 40
0.0
 40
0.0
 10
869.5117069048086
 20
1764.183132663246
 30
0.0
 10
869.8866878278268
 20
1762.879543188294
 30
0.0
 10
870.4541188405752
 20
1760.253078057809
 30
0.0
 10
870.6564881867464
 20
1757.588040566165
 30
0.0
 10
870.6664074431877
 20
1756.245878730053
 30
0.0
  0
LINE
  5
186
330
157
100
AcDbEntity
  8
P-SANR-FIXT
100
AcDbLine
 10
870.6664074431877
 20
1756.245878730053
 30
0.0
 11
870.6664074431877
 21
1766.245878730053
 31
0.0
  0
SPLINE
  5
187
330
157
100
AcDbEntity
  8
P-SANR-FIXT
100
AcDbSpline
210
0.0
220
0.0
230
1.0
 70
    24
 71
     3
 72
     9
 73
     5
 74
     0
 42
0.000000001
 43
0.0000000001
 40
-1.0
 40
-1.0
 40
-1.0
 40
-1.0
 40
-0.5
 40
0.0
 40
0.0
 40
0.0
 40
0.0
 10
870.6664074431877
 20
1766.245878730053
 30
0.0
 10
870.6564881867464
 20
1766.245878730053
 30
0.0
 10
870.4541188405752
 20
1766.245878730053
 30
0.0
 10
869.8866878278268
 20
1766.245878730052
 30
0.0
 10
869.5117069048086
 20
1766.245878730052
 30
0.0
  0
ARC
  5
188
330
157
100
AcDbEntity
  8
P-SANR-FIXT
100
AcDbCircle
 10
815.6664074431878
 20
1746.245878730053
 30
0.0
 40
39.00000000000005
100
AcDbArc
 50
87.0529871353537
 51
87.49707344867642
  0
ARC
  5
189
330
157
100
AcDbEntity
  8
P-SANR-FIXT
100
AcDbCircle
 10
815.6664074431878
 20
1746.245878730053
 30
0.0
 40
39.49999999999987
100
AcDbArc
 50
180.0000000000004
 51
0.0000000000000509
  0
ARC
  5
18A
330
157
100
AcDbEntity
  8
P-SANR-FIXT
100
AcDbCircle
 10
815.6664074431878
 20
1746.245878730053
 30
0.0
 40
39.49999999999994
100
AcDbArc
 50
0.0000000000010814
 51
180.0000000000004
  0
SPLINE
  5
18B
330
157
100
AcDbEntity
  8
P-SANR-FIXT
100
AcDbSpline
210
0.0
220
0.0
230
1.0
 70
     8
 71
     3
 72
     9
 73
     5
 74
     0
 42
0.000000001
 43
0.0000000001
 40
-1.0
 40
-1.0
 40
-1.0
 40
-1.0
 40
-0.5
 40
0.0
 40
0.0
 40
0.0
 40
0.0
 10
772.750753002382
 20
1746.245878730053
 30
0.0
 10
772.7507686112073
 20
1745.901400379841
 30
0.0
 10
772.758698173944
 20
1745.212625523405
 30
0.0
 10
772.7824244268523
 20
1744.525731857775
 30
0.0
 10
772.7982367258491
 20
1744.183132663247
 30
0.0
  0
SPLINE
  5
18C
330
157
100
AcDbEntity
  8
P-SANR-FIXT
100
AcDbSpline
210
0.0
220
0.0
230
1.0
 70
     8
 71
     3
 72
     9
 73
     5
 74
     0
 42
0.000000001
 43
0.0000000001
 40
-1.0
 40
-1.0
 40
-1.0
 40
-1.0
 40
-0.5
 40
0.0
 40
0.0
 40
0.0
 40
0.0
 10
772.7982367258491
 20
1744.183132663247
 30
0.0
 10
772.8546621262002
 20
1742.601370345982
 30
0.0
 10
773.1551796813285
 20
1739.459872093997
 30
0.0
 10
773.8310307453098
 20
1736.362426607102
 30
0.0
 10
774.2627896545136
 20
1734.824717054927
 30
0.0
  0
SPLINE
  5
18D
330
157
100
AcDbEntity
  8
P-SANR-FIXT
100
AcDbSpline
210
0.0
220
0.0
230
1.0
 70
     8
 71
     3
 72
     9
 73
     5
 74
     0
 42
0.000000001
 43
0.0000000001
 40
-1.0
 40
-1.0
 40
-1.0
 40
-1.0
 40
-0.5
 40
0.0
 40
0.0
 40
0.0
 40
0.0
 10
857.0700252318616
 20
1734.824717054925
 30
0.0
 10
857.5017841410655
 20
1736.3624266071
 30
0.0
 10
858.177635205047
 20
1739.459872093996
 30
0.0
 10
858.4781527601755
 20
1742.601370345981
 30
0.0
 10
858.5345781605266
 20
1744.183132663246
 30
0.0
  0
SPLINE
  5
18E
330
157
100
AcDbEntity
  8
P-SANR-FIXT
100
AcDbSpline
210
0.0
220
0.0
230
1.0
 70
     8
 71
     3
 72
     9
 73
     5
 74
     0
 42
0.000000001
 43
0.0000000001
 40
-1.0
 40
-1.0
 40
-1.0
 40
-1.0
 40
-0.5
 40
0.0
 40
0.0
 40
0.0
 40
0.0
 10
858.5345781605266
 20
1744.183132663246
 30
0.0
 10
858.5503904595235
 20
1744.525731857775
 30
0.0
 10
858.5741167124318
 20
1745.212625523405
 30
0.0
 10
858.5820462751682
 20
1745.901400379841
 30
0.0
 10
858.5820618839937
 20
1746.245878730053
 30
0.0
  0
SPLINE
  5
18F
330
157
100
AcDbEntity
  8
P-SANR-FIXT
100
AcDbSpline
210
0.0
220
0.0
230
1.0
 70
     8
 71
     3
 72
     9
 73
     5
 74
     0
 42
0.000000001
 43
0.0000000001
 40
-1.0
 40
-1.0
 40
-1.0
 40
-1.0
 40
-0.5
 40
0.0
 40
0.0
 40
0.0
 40
0.0
 10
858.5820618839937
 20
1746.245878730053
 30
0.0
 10
858.5820462751682
 20
1746.590357080265
 30
0.0
 10
858.5741167124318
 20
1747.279131936701
 30
0.0
 10
858.5503904595235
 20
1747.966025602331
 30
0.0
 10
858.5345781605266
 20
1748.308624796859
 30
0.0
  0
SPLINE
  5
190
330
157
100
AcDbEntity
  8
P-SANR-FIXT
100
AcDbSpline
210
0.0
220
0.0
230
1.0
 70
     8
 71
     3
 72
     9
 73
     5
 74
     0
 42
0.000000001
 43
0.0000000001
 40
-1.0
 40
-1.0
 40
-1.0
 40
-1.0
 40
-0.5
 40
0.0
 40
0.0
 40
0.0
 40
0.0
 10
858.5345781605266
 20
1748.308624796859
 30
0.0
 10
858.4781527601755
 20
1749.890387114124
 30
0.0
 10
858.1776352050471
 20
1753.03188536611
 30
0.0
 10
857.5017841410655
 20
1756.129330853005
 30
0.0
 10
857.0700252318616
 20
1757.667040405181
 30
0.0
  0
SPLINE
  5
191
330
157
100
AcDbEntity
  8
P-SANR-FIXT
100
AcDbSpline
210
0.0
220
0.0
230
1.0
 70
     8
 71
     3
 72
     9
 73
     5
 74
     0
 42
0.000000001
 43
0.0000000001
 40
-1.0
 40
-1.0
 40
-1.0
 40
-1.0
 40
-0.5
 40
0.0
 40
0.0
 40
0.0
 40
0.0
 10
774.2627896545135
 20
1757.667040405178
 30
0.0
 10
773.8310307453098
 20
1756.129330853003
 30
0.0
 10
773.1551796813285
 20
1753.031885366108
 30
0.0
 10
772.8546621262
 20
1749.890387114123
 30
0.0
 10
772.7982367258491
 20
1748.308624796858
 30
0.0
  0
SPLINE
  5
192
330
157
100
AcDbEntity
  8
P-SANR-FIXT
100
AcDbSpline
210
0.0
220
0.0
230
1.0
 70
     8
 71
     3
 72
     9
 73
     5
 74
     0
 42
0.000000001
 43
0.0000000001
 40
-1.0
 40
-1.0
 40
-1.0
 40
-1.0
 40
-0.5
 40
0.0
 40
0.0
 40
0.0
 40
0.0
 10
772.7982367258491
 20
1748.308624796858
 30
0.0
 10
772.782424426852
 20
1747.96602560233
 30
0.0
 10
772.7586981739441
 20
1747.2791319367
 30
0.0
 10
772.7507686112073
 20
1746.590357080264
 30
0.0
 10
772.750753002382
 20
1746.245878730053
 30
0.0
  0
ARC
  5
193
330
157
100
AcDbEntity
  8
P-SANR-FIXT
100
AcDbCircle
 10
815.666407443188
 20
1746.245878730053
 30
0.0
 40
42.94999999999997
100
AcDbArc
 50
199.5647357453303
 51
203.7079865838399
  0
ARC
  5
194
330
157
100
AcDbEntity
  8
P-SANR-FIXT
100
AcDbCircle
 10
815.666407443188
 20
1746.245878730053
 30
0.0
 40
42.94999999999983
100
AcDbArc
 50
232.710742453409
 51
236.8539932919191
  0
ARC
  5
195
330
157
100
AcDbEntity
  8
P-SANR-FIXT
100
AcDbCircle
 10
815.666407443188
 20
1746.245878730053
 30
0.0
 40
42.94999999999983
100
AcDbArc
 50
240.9972441304287
 51
245.1404949689387
  0
ARC
  5
196
330
157
100
AcDbEntity
  8
P-SANR-FIXT
100
AcDbCircle
 10
815.666407443188
 20
1746.245878730053
 30
0.0
 40
42.94999999999976
100
AcDbArc
 50
265.8567491614879
 51
269.9999999999977
  0
ARC
  5
197
330
157
100
AcDbEntity
  8
P-SANR-FIXT
100
AcDbCircle
 10
815.666407443188
 20
1746.245878730053
 30
0.0
 40
42.94999999999991
100
AcDbArc
 50
278.2865016770174
 51
282.4297525155273
  0
ARC
  5
198
330
157
100
AcDbEntity
  8
P-SANR-FIXT
100
AcDbCircle
 10
815.666407443188
 20
1746.245878730053
 30
0.0
 40
42.9499999999999
100
AcDbArc
 50
315.5757592236061
 51
319.7190100621159
  0
ARC
  5
199
330
157
100
AcDbEntity
  8
P-SANR-FIXT
100
AcDbCircle
 10
815.666407443188
 20
1746.245878730053
 30
0.0
 40
42.94999999999985
100
AcDbArc
 50
332.1487625776456
 51
336.2920134161555
  0
LINE
  5
19A
330
157
100
AcDbEntity
  8
P-SANR-FIXT
100
AcDbLine
 10
775.1976457329068
 20
1731.859015776772
 30
0.0
 11
775.3202923122956
 21
1731.518574365547
 31
0.0
  0
LINE
  5
19B
330
157
100
AcDbEntity
  8
P-SANR-FIXT
100
AcDbLine
 10
776.345045956062
 20
1728.967770303528
 30
0.0
 11
776.6413203665893
 21
1728.308624796859
 31
0.0
  0
SPLINE
  5
19C
330
157
100
AcDbEntity
  8
P-SANR-FIXT
100
AcDbSpline
210
0.0
220
0.0
230
1.0
 70
     8
 71
     3
 72
     8
 73
     4
 74
     0
 42
0.000000001
 43
0.0000000001
 40
0.0
 40
0.0
 40
0.0
 40
0.0
 40
0.5
 40
0.5
 40
0.5
 40
0.5
 10
853.6756497402922
 20
1726.245878730053
 30
0.0
 10
853.8283918504065
 20
1726.536159323668
 30
0.0
 10
853.9906998559576
 20
1726.85263218296
 30
0.0
 10
854.1606909320817
 20
1727.196137559195
 30
0.0
  0
LINE
  5
19D
330
157
100
AcDbEntity
  8
P-SANR-FIXT
100
AcDbLine
 10
854.6914945197867
 20
1728.308624796859
 30
0.0
 11
854.987768930313
 21
1728.967770303526
 31
0.0
  0
LINE
  5
19E
330
157
100
AcDbEntity
  8
P-SANR-FIXT
100
AcDbLine
 10
856.0125225740797
 20
1731.518574365547
 30
0.0
 11
856.1351691534682
 21
1731.85901577677
 31
0.0
  0
ARC
  5
19F
330
157
100
AcDbEntity
  8
P-SANR-FIXT
100
AcDbCircle
 10
815.666407443188
 20
1746.245878730053
 30
0.0
 40
42.94999999999992
100
AcDbArc
 50
40.28098993788264
 51
44.42424077639258
  0
ARC
  5
1A0
330
157
100
AcDbEntity
  8
P-SANR-FIXT
100
AcDbCircle
 10
815.666407443188
 20
1746.245878730053
 30
0.0
 40
42.94999999999981
100
AcDbArc
 50
52.71074245341236
 51
56.853993291922
  0
ARC
  5
1A1
330
157
100
AcDbEntity
  8
P-SANR-FIXT
100
AcDbCircle
 10
815.666407443188
 20
1746.245878730053
 30
0.0
 40
42.94999999999992
100
AcDbArc
 50
60.99724413043217
 51
65.14049496894191
  0
ARC
  5
1A2
330
157
100
AcDbEntity
  8
P-SANR-FIXT
100
AcDbCircle
 10
815.666407443188
 20
1746.245878730053
 30
0.0
 40
42.94999999999994
100
AcDbArc
 50
85.85674916149136
 51
90.00557198961947
  0
ARC
  5
1A3
330
157
100
AcDbEntity
  8
P-SANR-FIXT
100
AcDbCircle
 10
815.666407443188
 20
1746.245878730053
 30
0.0
 40
42.9499999999999
100
AcDbArc
 50
98.28650167702086
 51
102.4297525155308
  0
ARC
  5
1A4
330
157
100
AcDbEntity
  8
P-SANR-FIXT
100
AcDbCircle
 10
815.666407443188
 20
1746.245878730053
 30
0.0
 40
42.94999999999999
100
AcDbArc
 50
135.5757592236094
 51
139.7190100621195
  0
ARC
  5
1A5
330
157
100
AcDbEntity
  8
P-SANR-FIXT
100
AcDbCircle
 10
815.666407443188
 20
1746.245878730053
 30
0.0
 40
42.95
100
AcDbArc
 50
152.148762577649
 51
156.2920134161591
  0
LINE
  5
1A6
330
157
100
AcDbEntity
  8
P-SANR-FIXT
100
AcDbLine
 10
856.1351691534683
 20
1760.632741683335
 30
0.0
 11
856.0125225740797
 21
1760.973183094559
 31
0.0
  0
LINE
  5
1A7
330
157
100
AcDbEntity
  8
P-SANR-FIXT
100
AcDbLine
 10
854.987768930313
 20
1763.52398715658
 30
0.0
 11
854.6914945197867
 21
1764.183132663247
 31
0.0
  0
SPLINE
  5
1A8
330
157
100
AcDbEntity
  8
P-SANR-FIXT
100
AcDbSpline
210
0.0
220
0.0
230
1.0
 70
     8
 71
     3
 72
     8
 73
     4
 74
     0
 42
0.000000001
 43
0.0000000001
 40
0.0
 40
0.0
 40
0.0
 40
0.0
 40
0.5
 40
0.5
 40
0.5
 40
0.5
 10
777.6571651460832
 20
1766.245878730052
 30
0.0
 10
777.5044230359691
 20
1765.955598136438
 30
0.0
 10
777.3421150304181
 20
1765.639125277145
 30
0.0
 10
777.1721239542943
 20
1765.295619900911
 30
0.0
  0
LINE
  5
1A9
330
157
100
AcDbEntity
  8
P-SANR-FIXT
100
AcDbLine
 10
776.6413203665891
 20
1764.183132663246
 30
0.0
 11
776.3450459560618
 21
1763.523987156578
 31
0.0
  0
LINE
  5
1AA
330
157
100
AcDbEntity
  8
P-SANR-FIXT
100
AcDbLine
 10
775.3202923122955
 20
1760.973183094558
 30
0.0
 11
775.1976457329067
 21
1760.632741683333
 31
0.0
  0
LINE
  5
1AB
330
157
100
AcDbEntity
  8
P-SANR-FIXT
100
AcDbLine
 10
870.6664074431877
 20
1737.265622608984
 30
0.0
 11
870.6664074431877
 21
1735.206177789194
 31
0.0
  0
LINE
  5
1AC
330
157
100
AcDbEntity
  8
P-SANR-FIXT
100
AcDbLine
 10
870.6664074431877
 20
1735.206177789194
 30
0.0
 11
870.6664074431877
 21
1737.265622608984
 31
0.0
  0
LINE
  5
1AD
330
157
100
AcDbEntity
  8
P-SANR-FIXT
100
AcDbLine
 10
870.6664074431877
 20
1755.226134851122
 30
0.0
 11
870.6664074431877
 21
1757.260347052749
 31
0.0
  0
LINE
  5
1AE
330
157
100
AcDbEntity
  8
P-SANR-FIXT
100
AcDbLine
 10
870.6664074431877
 20
1757.260347052749
 30
0.0
 11
870.6664074431877
 21
1755.226134851122
 31
0.0
  0
LINE
  5
1AF
330
157
100
AcDbEntity
  8
P-SANR-FIXT
100
AcDbLine
 10
869.5117069048086
 20
1746.245878730053
 30
0.0
 11
869.5117069048086
 21
1744.183132663247
 31
0.0
  0
LINE
  5
1B0
330
157
100
AcDbEntity
  8
P-SANR-FIXT
100
AcDbLine
 10
858.5345781605266
 20
1744.183132663246
 30
0.0
 11
869.5117069048086
 21
1744.183132663246
 31
0.0
  0
LINE
  5
1B1
330
157
100
AcDbEntity
  8
P-SANR-FIXT
100
AcDbLine
 10
869.5117069048086
 20
1728.308624796859
 30
0.0
 11
869.5117069048086
 21
1726.245878730053
 31
0.0
  0
LINE
  5
1B2
330
157
100
AcDbEntity
  8
P-SANR-FIXT
100
AcDbLine
 10
869.5117069048086
 20
1728.308624796859
 30
0.0
 11
854.6914945197867
 21
1728.308624796859
 31
0.0
  0
LINE
  5
1B3
330
157
100
AcDbEntity
  8
P-SANR-FIXT
100
AcDbLine
 10
853.6756497402922
 20
1726.245878730053
 30
0.0
 11
869.5117069048086
 21
1726.245878730053
 31
0.0
  0
LINE
  5
1B4
330
157
100
AcDbEntity
  8
P-SANR-FIXT
100
AcDbLine
 10
869.5117069048086
 20
1748.308624796859
 30
0.0
 11
869.5117069048086
 21
1746.245878730053
 31
0.0
  0
LINE
  5
1B5
330
157
100
AcDbEntity
  8
P-SANR-FIXT
100
AcDbLine
 10
869.5117069048086
 20
1748.308624796859
 30
0.0
 11
858.5345781605266
 21
1748.308624796859
 31
0.0
  0
LINE
  5
1B6
330
157
100
AcDbEntity
  8
P-SANR-FIXT
100
AcDbLine
 10
869.5117069048086
 20
1766.245878730053
 30
0.0
 11
869.5117069048086
 21
1764.183132663247
 31
0.0
  0
LINE
  5
1B7
330
157
100
AcDbEntity
  8
P-SANR-FIXT
100
AcDbLine
 10
869.5117069048086
 20
1766.245878730052
 30
0.0
 11
853.6756497402922
 21
1766.245878730052
 31
0.0
  0
LINE
  5
1B8
330
157
100
AcDbEntity
  8
P-SANR-FIXT
100
AcDbLine
 10
854.6914945197867
 20
1764.183132663246
 30
0.0
 11
869.5117069048086
 21
1764.183132663246
 31
0.0
  0
LINE
  5
1B9
330
157
100
AcDbEntity
  8
P-SANR-FIXT
100
AcDbLine
 10
761.8211079815672
 20
1744.183132663247
 30
0.0
 11
772.7982367258491
 21
1744.183132663247
 31
0.0
  0
LINE
  5
1BA
330
157
100
AcDbEntity
  8
P-SANR-FIXT
100
AcDbLine
 10
761.8211079815672
 20
1726.245878730053
 30
0.0
 11
777.6571651460836
 21
1726.245878730053
 31
0.0
  0
LINE
  5
1BB
330
157
100
AcDbEntity
  8
P-SANR-FIXT
100
AcDbLine
 10
776.6413203665895
 20
1728.308624796858
 30
0.0
 11
761.8211079815672
 21
1728.308624796858
 31
0.0
  0
LINE
  5
1BC
330
157
100
AcDbEntity
  8
P-SANR-FIXT
100
AcDbLine
 10
761.8211079815672
 20
1764.183132663247
 30
0.0
 11
776.6413203665893
 21
1764.183132663247
 31
0.0
  0
LINE
  5
1BD
330
157
100
AcDbEntity
  8
P-SANR-FIXT
100
AcDbLine
 10
777.6571651460833
 20
1766.245878730052
 30
0.0
 11
761.8211079815672
 21
1766.245878730052
 31
0.0
  0
LINE
  5
1BE
330
157
100
AcDbEntity
  8
P-SANR-FIXT
100
AcDbLine
 10
772.7982367258491
 20
1748.308624796858
 30
0.0
 11
761.8211079815672
 21
1748.308624796858
 31
0.0
  0
LINE
  5
1BF
330
157
100
AcDbEntity
  8
P-SANR-FIXT
100
AcDbLine
 10
761.8211079815672
 20
1728.308624796858
 30
0.0
 11
761.8211079815672
 21
1726.245878730053
 31
0.0
  0
SPLINE
  5
1C0
330
157
100
AcDbEntity
  8
P-SANR-FIXT
100
AcDbSpline
210
0.0
220
0.0
230
1.0
 70
     8
 71
     3
 72
     9
 73
     5
 74
     0
 42
0.000000001
 43
0.0000000001
 40
-1.0
 40
-1.0
 40
-1.0
 40
-1.0
 40
-0.5
 40
0.0
 40
0.0
 40
0.0
 40
0.0
 10
761.8211079815672
 20
1728.308624796858
 30
0.0
 10
761.4461270585488
 20
1729.612214271811
 30
0.0
 10
760.8786960458005
 20
1732.238679402296
 30
0.0
 10
760.6763266996292
 20
1734.90371689394
 30
0.0
 10
760.6664074431878
 20
1736.245878730053
 30
0.0
  0
SPLINE
  5
1C1
330
157
100
AcDbEntity
  8
P-SANR-FIXT
100
AcDbSpline
210
0.0
220
0.0
230
1.0
 70
    24
 71
     3
 72
     9
 73
     5
 74
     0
 42
0.000000001
 43
0.0000000001
 40
-1.0
 40
-1.0
 40
-1.0
 40
-1.0
 40
-0.5
 40
0.0
 40
0.0
 40
0.0
 40
0.0
 10
760.6664074431878
 20
1726.245878730053
 30
0.0
 10
760.6763266996292
 20
1726.245878730053
 30
0.0
 10
760.8786960458005
 20
1726.245878730053
 30
0.0
 10
761.4461270585488
 20
1726.245878730053
 30
0.0
 10
761.8211079815672
 20
1726.245878730053
 30
0.0
  0
SPLINE
  5
1C2
330
157
100
AcDbEntity
  8
P-SANR-FIXT
100
AcDbSpline
210
0.0
220
0.0
230
1.0
 70
     8
 71
     3
 72
     9
 73
     5
 74
     0
 42
0.000000001
 43
0.0000000001
 40
-1.0
 40
-1.0
 40
-1.0
 40
-1.0
 40
-0.5
 40
0.0
 40
0.0
 40
0.0
 40
0.0
 10
760.6664074431878
 20
1736.245878730053
 30
0.0
 10
760.6763266996292
 20
1737.588040566165
 30
0.0
 10
760.8786960458005
 20
1740.25307805781
 30
0.0
 10
761.4461270585488
 20
1742.879543188294
 30
0.0
 10
761.8211079815672
 20
1744.183132663247
 30
0.0
  0
LINE
  5
1C3
330
157
100
AcDbEntity
  8
P-SANR-FIXT
100
AcDbLine
 10
761.8211079815672
 20
1746.245878730053
 30
0.0
 11
761.8211079815672
 21
1744.183132663247
 31
0.0
  0
LINE
  5
1C4
330
157
100
AcDbEntity
  8
P-SANR-FIXT
100
AcDbLine
 10
761.8211079815672
 20
1766.245878730053
 30
0.0
 11
761.8211079815672
 21
1764.183132663247
 31
0.0
  0
SPLINE
  5
1C5
330
157
100
AcDbEntity
  8
P-SANR-FIXT
100
AcDbSpline
210
0.0
220
0.0
230
1.0
 70
    24
 71
     3
 72
     9
 73
     5
 74
     0
 42
0.000000001
 43
0.0000000001
 40
-1.0
 40
-1.0
 40
-1.0
 40
-1.0
 40
-0.5
 40
0.0
 40
0.0
 40
0.0
 40
0.0
 10
761.8211079815672
 20
1766.245878730052
 30
0.0
 10
761.4461270585488
 20
1766.245878730053
 30
0.0
 10
760.8786960458005
 20
1766.245878730053
 30
0.0
 10
760.6763266996292
 20
1766.245878730053
 30
0.0
 10
760.6664074431878
 20
1766.245878730053
 30
0.0
  0
SPLINE
  5
1C6
330
157
100
AcDbEntity
  8
P-SANR-FIXT
100
AcDbSpline
210
0.0
220
0.0
230
1.0
 70
     8
 71
     3
 72
     9
 73
     5
 74
     0
 42
0.000000001
 43
0.0000000001
 40
-1.0
 40
-1.0
 40
-1.0
 40
-1.0
 40
-0.5
 40
0.0
 40
0.0
 40
0.0
 40
0.0
 10
760.6664074431878
 20
1756.245878730053
 30
0.0
 10
760.6763266996291
 20
1757.588040566165
 30
0.0
 10
760.8786960458005
 20
1760.253078057809
 30
0.0
 10
761.4461270585488
 20
1762.879543188295
 30
0.0
 10
761.8211079815672
 20
1764.183132663247
 30
0.0
  0
LINE
  5
1C7
330
157
100
AcDbEntity
  8
P-SANR-FIXT
100
AcDbLine
 10
761.821107981567
 20
1748.308624796858
 30
0.0
 11
761.821107981567
 21
1746.245878730053
 31
0.0
  0
SPLINE
  5
1C8
330
157
100
AcDbEntity
  8
P-SANR-FIXT
100
AcDbSpline
210
0.0
220
0.0
230
1.0
 70
     8
 71
     3
 72
     9
 73
     5
 74
     0
 42
0.000000001
 43
0.0000000001
 40
-1.0
 40
-1.0
 40
-1.0
 40
-1.0
 40
-0.5
 40
0.0
 40
0.0
 40
0.0
 40
0.0
 10
761.8211079815671
 20
1748.308624796858
 30
0.0
 10
761.4461270585488
 20
1749.612214271811
 30
0.0
 10
760.8786960458005
 20
1752.238679402296
 30
0.0
 10
760.6763266996292
 20
1754.903716893941
 30
0.0
 10
760.6664074431878
 20
1756.245878730053
 30
0.0
  0
LINE
  5
1C9
330
157
100
AcDbEntity
  8
P-SANR-FIXT
100
AcDbLine
 10
760.6664074431878
 20
1736.245878730053
 30
0.0
 11
760.6664074431878
 21
1726.245878730053
 31
0.0
  0
LINE
  5
1CA
330
157
100
AcDbEntity
  8
P-SANR-FIXT
100
AcDbLine
 10
760.6664074431878
 20
1746.245878730053
 30
0.0
 11
760.6664074431878
 21
1736.245878730053
 31
0.0
  0
LINE
  5
1CB
330
157
100
AcDbEntity
  8
P-SANR-FIXT
100
AcDbLine
 10
760.6664074431878
 20
1756.245878730053
 30
0.0
 11
760.6664074431878
 21
1746.245878730053
 31
0.0
  0
LINE
  5
1CC
330
157
100
AcDbEntity
  8
P-SANR-FIXT
100
AcDbLine
 10
760.6664074431878
 20
1766.245878730053
 30
0.0
 11
760.6664074431878
 21
1756.245878730053
 31
0.0
  0
LINE
  5
1CD
330
157
100
AcDbEntity
  8
P-SANR-FIXT
100
AcDbLine
 10
760.6664074431878
 20
1737.265622608983
 30
0.0
 11
760.6664074431878
 21
1735.206177789194
 31
0.0
  0
LINE
  5
1CE
330
157
100
AcDbEntity
  8
P-SANR-FIXT
100
AcDbLine
 10
760.6664074431878
 20
1735.206177789194
 30
0.0
 11
760.6664074431878
 21
1737.265622608983
 31
0.0
  0
LINE
  5
1CF
330
157
100
AcDbEntity
  8
P-SANR-FIXT
100
AcDbLine
 10
760.6664074431878
 20
1755.226134851122
 30
0.0
 11
760.6664074431878
 21
1757.260343008739
 31
0.0
  0
LINE
  5
1D0
330
157
100
AcDbEntity
  8
P-SANR-FIXT
100
AcDbLine
 10
760.6664074431878
 20
1757.260343008739
 30
0.0
 11
760.6664074431878
 21
1755.226134851122
 31
0.0
  0
ENDBLK
  5
1D2
330
157
100
AcDbEntity
  8
0
100
AcDbBlockEnd
  0
BLOCK
  5
281
330
1D4
100
AcDbEntity
  8
0
100
AcDbBlockBegin
  2
Automatic flow rate regulator valve_Caleffi_121 DN15 - 1_2__-V2-Est - Idraulica
 70
     0
 10
0.0
 20
0.0
 30
0.0
  3
Automatic flow rate regulator valve_Caleffi_121 DN15 - 1_2__-V2-Est - Idraulica
  1

  0
LINE
  5
1D5
330
1D4
100
AcDbEntity
  8
P-SANR-FIXT
100
AcDbLine
 10
1076.514353943099
 20
1940.982558849996
 30
0.0
 11
1076.614467465932
 21
1941.040359419354
 31
0.0
  0
LINE
  5
1D6
330
1D4
100
AcDbEntity
  8
P-SANR-FIXT
100
AcDbLine
 10
1057.614240420266
 20
1941.040359419353
 30
0.0
 11
1057.714353943099
 21
1940.982558849996
 31
0.0
  0
LINE
  5
1D7
330
1D4
100
AcDbEntity
  8
P-SANR-FIXT
100
AcDbLine
 10
1076.514353943097
 20
1940.982558849995
 30
0.0
 11
1067.114353943097
 21
1940.982558849995
 31
0.0
  0
LINE
  5
1D8
330
1D4
100
AcDbEntity
  8
P-SANR-FIXT
100
AcDbLine
 10
1067.114353943097
 20
1940.982558849995
 30
0.0
 11
1057.714353943096
 21
1940.982558849995
 31
0.0
  0
SPLINE
  5
1D9
330
1D4
100
AcDbEntity
  8
P-SANR-FIXT
100
AcDbSpline
210
0.0
220
0.0
230
1.0
 70
    24
 71
     3
 72
     9
 73
     5
 74
     0
 42
0.000000001
 43
0.0000000001
 40
0.4955816987894333
 40
0.4955816987894333
 40
0.4955816987894333
 40
0.4955816987894333
 40
0.5
 40
1.0
 40
1.0
 40
1.0
 40
1.0
 10
1057.614353943118
 20
1941.040359419352
 30
0.0
 10
1057.614353943118
 20
1941.04033687965
 30
0.0
 10
1057.614353943118
 20
1941.039050249571
 30
0.0
 10
1057.614353943118
 20
1941.184652599407
 30
0.0
 10
1057.614353943118
 20
1941.473306578807
 30
0.0
  0
LINE
  5
1DA
330
1D4
100
AcDbEntity
  8
P-SANR-FIXT
100
AcDbLine
 10
1057.614353943118
 20
1941.473306578807
 30
0.0
 11
1057.614353943118
 21
1950.982558849991
 31
0.0
  0
LINE
  5
1DB
330
1D4
100
AcDbEntity
  8
P-SANR-FIXT
100
AcDbLine
 10
1057.614353943118
 20
1941.473306578807
 30
0.0
 11
1059.031281036567
 21
1941.473306578807
 31
0.0
  0
LINE
  5
1DC
330
1D4
100
AcDbEntity
  8
P-SANR-FIXT
100
AcDbLine
 10
1059.031281036567
 20
1941.473306578807
 30
0.0
 11
1059.031281036567
 21
1950.982558849991
 31
0.0
  0
SPLINE
  5
1DD
330
1D4
100
AcDbEntity
  8
P-SANR-FIXT
100
AcDbSpline
210
0.0
220
0.0
230
1.0
 70
     8
 71
     3
 72
     9
 73
     5
 74
     0
 42
0.000000001
 43
0.0000000001
 40
0.0
 40
0.0
 40
0.0
 40
0.0
 40
0.5
 40
1.0
 40
1.0
 40
1.0
 40
1.0
 10
1059.031281036567
 20
1941.473306578807
 30
0.0
 10
1060.160962775313
 20
1941.184652599468
 30
0.0
 10
1062.401668816238
 20
1940.895998620129
 30
0.0
 10
1064.605059984033
 20
1941.184652599468
 30
0.0
 10
1065.697426849648
 20
1941.473306578807
 30
0.0
  0
LINE
  5
1DE
330
1D4
100
AcDbEntity
  8
P-SANR-FIXT
100
AcDbLine
 10
1065.697426849648
 20
1941.473306578807
 30
0.0
 11
1065.697426849648
 21
1950.982558849991
 31
0.0
  0
LINE
  5
1DF
330
1D4
100
AcDbEntity
  8
P-SANR-FIXT
100
AcDbLine
 10
1065.697426849648
 20
1941.473306578807
 30
0.0
 11
1067.114353943096
 21
1941.473306578807
 31
0.0
  0
LINE
  5
1E0
330
1D4
100
AcDbEntity
  8
P-SANR-FIXT
100
AcDbLine
 10
1067.114353943097
 20
1941.473306578807
 30
0.0
 11
1068.531281036546
 21
1941.473306578807
 31
0.0
  0
LINE
  5
1E1
330
1D4
100
AcDbEntity
  8
P-SANR-FIXT
100
AcDbLine
 10
1068.531281036546
 20
1941.473306578807
 30
0.0
 11
1068.531281036546
 21
1950.982558849991
 31
0.0
  0
SPLINE
  5
1E2
330
1D4
100
AcDbEntity
  8
P-SANR-FIXT
100
AcDbSpline
210
0.0
220
0.0
230
1.0
 70
     8
 71
     3
 72
     9
 73
     5
 74
     0
 42
0.000000001
 43
0.0000000001
 40
0.0
 40
0.0
 40
0.0
 40
0.0
 40
0.5
 40
1.0
 40
1.0
 40
1.0
 40
1.0
 10
1068.531281036546
 20
1941.473306578807
 30
0.0
 10
1069.660962775291
 20
1941.184652599468
 30
0.0
 10
1071.901668816217
 20
1940.895998620129
 30
0.0
 10
1074.105059984011
 20
1941.184652599468
 30
0.0
 10
1075.197426849626
 20
1941.473306578807
 30
0.0
  0
LINE
  5
1E3
330
1D4
100
AcDbEntity
  8
P-SANR-FIXT
100
AcDbLine
 10
1075.197426849626
 20
1941.473306578807
 30
0.0
 11
1075.197426849626
 21
1950.982558849991
 31
0.0
  0
LINE
  5
1E4
330
1D4
100
AcDbEntity
  8
P-SANR-FIXT
100
AcDbLine
 10
1075.197426849626
 20
1941.473306578807
 30
0.0
 11
1076.614353943076
 21
1941.473306578807
 31
0.0
  0
LINE
  5
1E5
330
1D4
100
AcDbEntity
  8
P-SANR-FIXT
100
AcDbLine
 10
1076.614353943076
 20
1941.473306578807
 30
0.0
 11
1076.614353943076
 21
1950.982558849991
 31
0.0
  0
SPLINE
  5
1E6
330
1D4
100
AcDbEntity
  8
P-SANR-FIXT
100
AcDbSpline
210
0.0
220
0.0
230
1.0
 70
    24
 71
     3
 72
     8
 73
     4
 74
     0
 42
0.000000001
 43
0.0000000001
 40
0.0
 40
0.0
 40
0.0
 40
0.0
 40
0.5
 40
0.5
 40
0.5
 40
0.5
 10
1076.614353943076
 20
1941.473306578807
 30
0.0
 10
1076.614353943076
 20
1941.184652599468
 30
0.0
 10
1076.614353943076
 20
1941.040325609799
 30
0.0
 10
1076.614353943076
 20
1941.040325609799
 30
0.0
  0
LINE
  5
1E7
330
1D4
100
AcDbEntity
  8
P-SANR-FIXT
100
AcDbLine
 10
1077.764353943098
 20
1952.98255884999
 30
0.0
 11
1077.764353943098
 21
1954.982558850011
 31
0.0
  0
LINE
  5
1E8
330
1D4
100
AcDbEntity
  8
P-SANR-FIXT
100
AcDbLine
 10
1056.464353943098
 20
1954.982558850011
 30
0.0
 11
1056.464353943098
 21
1952.98255884999
 31
0.0
  0
LINE
  5
1E9
330
1D4
100
AcDbEntity
  8
P-SANR-FIXT
100
AcDbLine
 10
1081.11435394309
 20
1950.982558849992
 30
0.0
 11
1081.11435394309
 21
1952.98255884999
 31
0.0
  0
LINE
  5
1EA
330
1D4
100
AcDbEntity
  8
P-SANR-FIXT
100
AcDbLine
 10
1053.114353943107
 20
1952.98255884999
 30
0.0
 11
1053.114353943107
 21
1950.982558849992
 31
0.0
  0
LINE
  5
1EB
330
1D4
100
AcDbEntity
  8
P-SANR-FIXT
100
AcDbLine
 10
1067.114353943097
 20
1952.982558849989
 30
0.0
 11
1081.114353943088
 21
1952.982558849989
 31
0.0
  0
LINE
  5
1EC
330
1D4
100
AcDbEntity
  8
P-SANR-FIXT
100
AcDbLine
 10
1053.114353943105
 20
1952.982558849989
 30
0.0
 11
1067.114353943097
 21
1952.982558849989
 31
0.0
  0
LINE
  5
1ED
330
1D4
100
AcDbEntity
  8
P-SANR-FIXT
100
AcDbLine
 10
1067.114353943097
 20
1950.982558849991
 30
0.0
 11
1081.114353943088
 21
1950.982558849991
 31
0.0
  0
LINE
  5
1EE
330
1D4
100
AcDbEntity
  8
P-SANR-FIXT
100
AcDbLine
 10
1053.114353943105
 20
1950.982558849991
 30
0.0
 11
1067.114353943097
 21
1950.982558849991
 31
0.0
  0
LINE
  5
1EF
330
1D4
100
AcDbEntity
  8
P-SANR-FIXT
100
AcDbLine
 10
1039.474541595834
 20
2080.482558850026
 30
0.0
 11
1046.368075244296
 21
2080.482558850026
 31
0.0
  0
LINE
  5
1F0
330
1D4
100
AcDbEntity
  8
P-SANR-FIXT
100
AcDbLine
 10
1046.368075244296
 20
2080.482558850026
 30
0.0
 11
1047.11869777148
 21
2080.482558850026
 31
0.0
  0
LINE
  5
1F1
330
1D4
100
AcDbEntity
  8
P-SANR-FIXT
100
AcDbLine
 10
1047.11869777148
 20
2080.482558850026
 30
0.0
 11
1065.366566522352
 21
2080.482558850026
 31
0.0
  0
LINE
  5
1F2
330
1D4
100
AcDbEntity
  8
P-SANR-FIXT
100
AcDbLine
 10
1065.366566522352
 20
2080.482558850026
 30
0.0
 11
1066.476038143909
 21
2080.482558850026
 31
0.0
  0
LINE
  5
1F3
330
1D4
100
AcDbEntity
  8
P-SANR-FIXT
100
AcDbLine
 10
1066.47603814391
 20
2080.482558850026
 30
0.0
 11
1085.388887967335
 21
2080.482558850026
 31
0.0
  0
LINE
  5
1F4
330
1D4
100
AcDbEntity
  8
P-SANR-FIXT
100
AcDbLine
 10
1085.388887967335
 20
2080.482558850026
 30
0.0
 11
1086.207843200979
 21
2080.482558850026
 31
0.0
  0
LINE
  5
1F5
330
1D4
100
AcDbEntity
  8
P-SANR-FIXT
100
AcDbLine
 10
1086.207843200979
 20
2080.482558850026
 30
0.0
 11
1094.70457274803
 21
2080.482558850026
 31
0.0
  0
LINE
  5
1F6
330
1D4
100
AcDbEntity
  8
P-SANR-FIXT
100
AcDbLine
 10
1094.70457274803
 20
2080.482558850026
 30
0.0
 11
1094.754166290358
 21
2080.482558850026
 31
0.0
  0
LINE
  5
1F7
330
1D4
100
AcDbEntity
  8
P-SANR-FIXT
100
AcDbLine
 10
1039.474541595834
 20
2068.810524623137
 30
0.0
 11
1039.474541595834
 21
2080.482558850026
 31
0.0
  0
LINE
  5
1F8
330
1D4
100
AcDbEntity
  8
P-SANR-FIXT
100
AcDbLine
 10
1046.368075244296
 20
2068.810524623137
 30
0.0
 11
1046.368075244296
 21
2080.482558850026
 31
0.0
  0
LINE
  5
1F9
330
1D4
100
AcDbEntity
  8
P-SANR-FIXT
100
AcDbLine
 10
1047.11869777148
 20
2068.810524623137
 30
0.0
 11
1047.11869777148
 21
2080.482558850026
 31
0.0
  0
LINE
  5
1FA
330
1D4
100
AcDbEntity
  8
P-SANR-FIXT
100
AcDbLine
 10
1065.366566522352
 20
2068.810524623137
 30
0.0
 11
1065.366566522352
 21
2080.482558850026
 31
0.0
  0
LINE
  5
1FB
330
1D4
100
AcDbEntity
  8
P-SANR-FIXT
100
AcDbLine
 10
1066.47603814391
 20
2068.810524623137
 30
0.0
 11
1066.47603814391
 21
2080.482558850026
 31
0.0
  0
LINE
  5
1FC
330
1D4
100
AcDbEntity
  8
P-SANR-FIXT
100
AcDbLine
 10
1085.388887967335
 20
2068.810524623137
 30
0.0
 11
1085.388887967335
 21
2080.482558850026
 31
0.0
  0
LINE
  5
1FD
330
1D4
100
AcDbEntity
  8
P-SANR-FIXT
100
AcDbLine
 10
1086.207843200979
 20
2068.810524623137
 30
0.0
 11
1086.207843200979
 21
2080.482558850026
 31
0.0
  0
LINE
  5
1FE
330
1D4
100
AcDbEntity
  8
P-SANR-FIXT
100
AcDbLine
 10
1094.70457274803
 20
2068.810524623137
 30
0.0
 11
1094.70457274803
 21
2080.482558850026
 31
0.0
  0
LWPOLYLINE
  5
1FF
330
1D4
100
AcDbEntity
  8
P-SANR-FIXT
100
AcDbPolyline
 90
       41
 70
   128
 43
0.0
 10
1092.715531698616
 20
2127.982558849996
 10
1092.795510366989
 20
2127.980959063318
 10
1092.875361086554
 20
2127.976162262601
 10
1092.954956113194
 20
2127.968176121704
 10
1093.034168111844
 20
2127.957013416748
 10
1093.112870360206
 20
2127.942692005678
 10
1093.19093695147
 20
2127.9252347997
 10
1093.268242995744
 20
2127.904669726618
 10
1093.344664819848
 20
2127.881029686161
 10
1093.420080165166
 20
2127.854352497352
 10
1093.494368383233
 20
2127.824680838002
 10
1093.567410628748
 20
2127.792062176436
 10
1093.639090049699
 20
2127.756548695555
 10
1093.709291974304
 20
2127.718197209351
 10
1093.777904094458
 20
2127.677069072023
 10
1093.844816645406
 20
2127.633230079816
 10
1093.909922581341
 20
2127.586750365765
 10
1093.973117746653
 20
2127.537704287498
 10
1094.034301042559
 20
2127.486170308278
 10
1094.093374588837
 20
2127.432230871478
 10
1094.150243880415
 20
2127.375972268691
 10
1094.204817938558
 20
2127.317484501679
 10
1094.257009456414
 20
2127.256861138393
 10
1094.306734938689
 20
2127.194199163284
 10
1094.353914835218
 20
2127.129598822141
 10
1094.398473668232
 20
2127.063163461733
 10
1094.440340153103
 20
2126.994999364462
 10
1094.479447312386
 20
2126.925215578344
 10
1094.515732582969
 20
2126.85392374255
 10
1094.54913791616
 20
2126.781237908809
 10
1094.579609870551
 20
2126.70727435895
 10
1094.607099697515
 20
2126.632151418874
 10
1094.631563419194
 20
2126.55598926926
 10
1094.652961898852
 20
2126.478909753301
 10
1094.671260903487
 20
2126.401036181779
 10
1094.686431158593
 20
2126.322493135797
 10
1094.698448394999
 20
2126.243406267473
 10
1094.707293387691
 20
2126.163902098925
 10
1094.712951986567
 20
2126.084107819863
 10
1094.715415139076
 20
2126.004151084113
 10
1094.715531698616
 20
2125.982558849996
  0
LWPOLYLINE
  5
200
330
1D4
100
AcDbEntity
  8
P-SANR-FIXT
100
AcDbPolyline
 90
       34
 70
   128
 43
0.0
 10
1074.362826271542
 20
2127.982558849996
 10
1075.167628377374
 20
2127.982558849996
 10
1076.132989207863
 20
2127.982558849996
 10
1077.083922145801
 20
2127.982558849996
 10
1078.018905901343
 20
2127.982558849996
 10
1078.936444699932
 20
2127.982558849996
 10
1079.835070675222
 20
2127.982558849996
 10
1080.713346217349
 20
2127.982558849996
 10
1081.5698662728
 20
2127.982558849996
 10
1082.403260592202
 20
2127.982558849996
 10
1083.212195922425
 20
2127.982558849996
 10
1083.995378139504
 20
2127.982558849996
 10
1084.751554318962
 20
2127.982558849996
 10
1085.47951474022
 20
2127.982558849996
 10
1086.178094821896
 20
2127.982558849996
 10
1086.846176984879
 20
2127.982558849996
 10
1087.482692440227
 20
2127.982558849996
 10
1088.086622898994
 20
2127.982558849996
 10
1088.657002201276
 20
2127.982558849996
 10
1089.192917861865
 20
2127.982558849996
 10
1089.693512530026
 20
2127.982558849996
 10
1090.157985361079
 20
2127.982558849996
 10
1090.585593297576
 20
2127.982558849996
 10
1090.975652258036
 20
2127.982558849996
 10
1091.327538231331
 20
2127.982558849996
 10
1091.640688274968
 20
2127.982558849996
 10
1091.91460141568
 20
2127.982558849996
 10
1092.148839450874
 20
2127.982558849996
 10
1092.34302764966
 20
2127.982558849996
 10
1092.496855352345
 20
2127.982558849996
 10
1092.610076467422
 20
2127.982558849996
 10
1092.682509865256
 20
2127.982558849996
 10
1092.714039667864
 20
2127.982558849996
 10
1092.715531698616
 20
2127.982558849996
  0
LWPOLYLINE
  5
201
330
1D4
100
AcDbEntity
  8
P-SANR-FIXT
100
AcDbPolyline
 90
       41
 70
   128
 43
0.0
 10
1092.715531698616
 20
2127.982558849996
 10
1092.695053487058
 20
2127.982558849996
 10
1092.633651613155
 20
2127.982558849996
 10
1092.531424306806
 20
2127.982558849996
 10
1092.388535109895
 20
2127.982558849996
 10
1092.205212614654
 20
2127.982558849996
 10
1091.98175009797
 20
2127.982558849996
 10
1091.718505052199
 20
2127.982558849996
 10
1091.41589861326
 20
2127.982558849996
 10
1091.074414886901
 20
2127.982558849996
 10
1090.69460017424
 20
2127.982558849996
 10
1090.277062097793
 20
2127.982558849996
 10
1089.822468629412
 20
2127.982558849996
 10
1089.331547021673
 20
2127.982558849996
 10
1088.805082644423
 20
2127.982558849996
 10
1088.24391772836
 20
2127.982558849996
 10
1087.648950017641
 20
2127.982558849996
 10
1087.021131333682
 20
2127.982558849996
 10
1086.361466052451
 20
2127.982558849996
 10
1085.671009497677
 20
2127.982558849996
 10
1084.950866252557
 20
2127.982558849996
 10
1084.202188392662
 20
2127.982558849996
 10
1083.426173642858
 20
2127.982558849996
 10
1082.624063461203
 20
2127.982558849996
 10
1081.797141052881
 20
2127.982558849996
 10
1080.946729317345
 20
2127.982558849996
 10
1080.074188731959
 20
2127.982558849996
 10
1079.180915175528
 20
2127.982558849996
 10
1078.268337695187
 20
2127.982558849996
 10
1077.337916220233
 20
2127.982558849996
 10
1076.391139226546
 20
2127.982558849996
 10
1075.429521355347
 20
2127.982558849996
 10
1074.454600990097
 20
2127.982558849996
 10
1073.467937795407
 20
2127.982558849996
 10
1072.471110221912
 20
2127.982558849996
 10
1071.465712981085
 20
2127.982558849996
 10
1070.453354494038
 20
2127.982558849996
 10
1069.435654318391
 20
2127.982558849996
 10
1068.414240557328
 20
2127.982558849996
 10
1067.390747254977
 20
2127.982558849996
 10
1067.114353943098
 20
2127.982558849996
  0
LWPOLYLINE
  5
202
330
1D4
100
AcDbEntity
  8
P-SANR-FIXT
100
AcDbPolyline
 90
       41
 70
   128
 43
0.0
 10
1039.513176187581
 20
2125.982558849996
 10
1039.514775974259
 20
2126.06253751837
 10
1039.519572774976
 20
2126.142388237934
 10
1039.527558915874
 20
2126.221983264574
 10
1039.53872162083
 20
2126.301195263225
 10
1039.553043031899
 20
2126.379897511586
 10
1039.570500237877
 20
2126.457964102851
 10
1039.59106531096
 20
2126.535270147125
 10
1039.614705351416
 20
2126.611691971229
 10
1039.641382540225
 20
2126.687107316546
 10
1039.671054199575
 20
2126.761395534613
 10
1039.703672861141
 20
2126.834437780128
 10
1039.739186342023
 20
2126.906117201079
 10
1039.777537828226
 20
2126.976319125684
 10
1039.818665965555
 20
2127.044931245838
 10
1039.862504957762
 20
2127.111843796786
 10
1039.908984671813
 20
2127.176949732721
 10
1039.958030750079
 20
2127.240144898033
 10
1040.009564729299
 20
2127.30132819394
 10
1040.063504166099
 20
2127.360401740217
 10
1040.119762768887
 20
2127.417271031795
 10
1040.178250535899
 20
2127.471845089938
 10
1040.238873899184
 20
2127.524036607794
 10
1040.301535874294
 20
2127.573762090069
 10
1040.366136215436
 20
2127.620941986598
 10
1040.432571575845
 20
2127.665500819612
 10
1040.500735673116
 20
2127.707367304483
 10
1040.570519459234
 20
2127.746474463766
 10
1040.641811295028
 20
2127.782759734349
 10
1040.714497128768
 20
2127.81616506754
 10
1040.788460678628
 20
2127.846637021931
 10
1040.863583618704
 20
2127.874126848896
 10
1040.939745768318
 20
2127.898590570575
 10
1041.016825284277
 20
2127.919989050233
 10
1041.094698855798
 20
2127.938288054867
 10
1041.17324190178
 20
2127.953458309974
 10
1041.252328770105
 20
2127.96547554638
 10
1041.331832938653
 20
2127.974320539072
 10
1041.411627217714
 20
2127.979979137947
 10
1041.491583953465
 20
2127.982442290456
 10
1041.513176187581
 20
2127.982558849996
  0
LWPOLYLINE
  5
203
330
1D4
100
AcDbEntity
  8
P-SANR-FIXT
100
AcDbPolyline
 90
       41
 70
   128
 43
0.0
 10
1067.114353943098
 20
2127.982558849996
 10
1066.090579890262
 20
2127.982558849996
 10
1065.068443657516
 20
2127.982558849996
 10
1064.04958044479
 20
2127.982558849996
 10
1063.035620215877
 20
2127.982558849996
 10
1062.028185090845
 20
2127.982558849996
 10
1061.028886750984
 20
2127.982558849996
 10
1060.039323860467
 20
2127.982558849996
 10
1059.061079508823
 20
2127.982558849996
 10
1058.095718678334
 20
2127.982558849996
 10
1057.144785740396
 20
2127.982558849996
 10
1056.209801984854
 20
2127.982558849996
 10
1055.292263186265
 20
2127.982558849996
 10
1054.393637210975
 20
2127.982558849996
 10
1053.515361668849
 20
2127.982558849996
 10
1052.658841613397
 20
2127.982558849996
 10
1051.825447293995
 20
2127.982558849996
 10
1051.016511963773
 20
2127.982558849996
 10
1050.233329746693
 20
2127.982558849996
 10
1049.477153567236
 20
2127.982558849996
 10
1048.749193145977
 20
2127.982558849996
 10
1048.050613064301
 20
2127.982558849996
 10
1047.382530901318
 20
2127.982558849996
 10
1046.74601544597
 20
2127.982558849996
 10
1046.142084987204
 20
2127.982558849996
 10
1045.571705684921
 20
2127.982558849996
 10
1045.035790024332
 20
2127.982558849996
 10
1044.535195356171
 20
2127.982558849996
 10
1044.070722525118
 20
2127.982558849996
 10
1043.643114588622
 20
2127.982558849996
 10
1043.253055628162
 20
2127.982558849996
 10
1042.901169654867
 20
2127.982558849996
 10
1042.588019611229
 20
2127.982558849996
 10
1042.314106470517
 20
2127.982558849996
 10
1042.079868435324
 20
2127.982558849996
 10
1041.885680236537
 20
2127.982558849996
 10
1041.731852533852
 20
2127.982558849996
 10
1041.618631418776
 20
2127.982558849996
 10
1041.546198020941
 20
2127.982558849996
 10
1041.514668218333
 20
2127.982558849996
 10
1041.513176187581
 20
2127.982558849996
  0
LWPOLYLINE
  5
204
330
1D4
100
AcDbEntity
  8
P-SANR-FIXT
100
AcDbPolyline
 90
       34
 70
   128
 43
0.0
 10
1041.513176187581
 20
2127.982558849996
 10
1041.533654399139
 20
2127.982558849996
 10
1041.595056273042
 20
2127.982558849996
 10
1041.697283579391
 20
2127.982558849996
 10
1041.840172776303
 20
2127.982558849996
 10
1042.023495271543
 20
2127.982558849996
 10
1042.246957788227
 20
2127.982558849996
 10
1042.510202833998
 20
2127.982558849996
 10
1042.812809272937
 20
2127.982558849996
 10
1043.154292999295
 20
2127.982558849996
 10
1043.534107711957
 20
2127.982558849996
 10
1043.951645788404
 20
2127.982558849996
 10
1044.406239256785
 20
2127.982558849996
 10
1044.897160864524
 20
2127.982558849996
 10
1045.423625241773
 20
2127.982558849996
 10
1045.984790157837
 20
2127.982558849996
 10
1046.579757868556
 20
2127.982558849996
 10
1047.207576552515
 20
2127.982558849996
 10
1047.867241833746
 20
2127.982558849996
 10
1048.55769838852
 20
2127.982558849996
 10
1049.27784163364
 20
2127.982558849996
 10
1050.026519493535
 20
2127.982558849996
 10
1050.802534243339
 20
2127.982558849996
 10
1051.604644424994
 20
2127.982558849996
 10
1052.431566833316
 20
2127.982558849996
 10
1053.281978568852
 20
2127.982558849996
 10
1054.154519154238
 20
2127.982558849996
 10
1055.04779271067
 20
2127.982558849996
 10
1055.96037019101
 20
2127.982558849996
 10
1056.890791665964
 20
2127.982558849996
 10
1057.837568659651
 20
2127.982558849996
 10
1058.79918653085
 20
2127.982558849996
 10
1059.7741068961
 20
2127.982558849996
 10
1059.865881614655
 20
2127.982558849996
  0
LINE
  5
205
330
1D4
100
AcDbEntity
  8
P-SANR-FIXT
100
AcDbLine
 10
1094.715531698616
 20
2119.482558850064
 30
0.0
 11
1094.715531698616
 21
2125.982558849996
 31
0.0
  0
LINE
  5
206
330
1D4
100
AcDbEntity
  8
P-SANR-FIXT
100
AcDbLine
 10
1039.513176187581
 20
2125.982558849996
 30
0.0
 11
1039.513176187581
 21
2119.482558850064
 31
0.0
  0
LINE
  5
207
330
1D4
100
AcDbEntity
  8
P-SANR-FIXT
100
AcDbLine
 10
1093.715531698627
 20
2118.482558850075
 30
0.0
 11
1094.715531698616
 21
2119.482558850064
 31
0.0
  0
LINE
  5
208
330
1D4
100
AcDbEntity
  8
P-SANR-FIXT
100
AcDbLine
 10
1039.513176187581
 20
2119.482558850064
 30
0.0
 11
1040.51317618757
 21
2118.482558850075
 31
0.0
  0
LINE
  5
209
330
1D4
100
AcDbEntity
  8
P-SANR-FIXT
100
AcDbLine
 10
1092.867353943098
 20
2080.482558850027
 30
0.0
 11
1092.867353943098
 21
2118.482558850075
 31
0.0
  0
LINE
  5
20A
330
1D4
100
AcDbEntity
  8
P-SANR-FIXT
100
AcDbLine
 10
1041.361353943099
 20
2118.482558850075
 30
0.0
 11
1041.361353943099
 21
2080.482558850027
 31
0.0
  0
LWPOLYLINE
  5
20B
330
1D4
100
AcDbEntity
  8
P-SANR-FIXT
100
AcDbPolyline
 90
       31
 70
   128
 43
0.0
 10
1094.869046965964
 20
2068.81052462314
 10
1094.877242745039
 20
2068.756887961895
 10
1094.887576862736
 20
2068.703621948006
 10
1094.900032786672
 20
2068.650811795732
 10
1094.914590590024
 20
2068.598541990052
 10
1094.931226983413
 20
2068.546896151506
 10
1094.94991535216
 20
2068.495956902416
 10
1094.97062579886
 20
2068.445805734716
 10
1094.993325191216
 20
2068.396522879574
 10
1095.017977215044
 20
2068.348187179048
 10
1095.044542432363
 20
2068.300875959945
 10
1095.072978344494
 20
2068.254664910124
 10
1095.103239460042
 20
2068.209627957408
 10
1095.135277367679
 20
2068.165837151312
 10
1095.169040813585
 20
2068.123362547785
 10
1095.204475783451
 20
2068.082272097133
 10
1095.241525588884
 20
2068.042631535311
 10
1095.280130958099
 20
2068.004504278761
 10
1095.320230130739
 20
2067.96795132296
 10
1095.361758956683
 20
2067.93303114484
 10
1095.404650998669
 20
2067.899799609238
 10
1095.448837638579
 20
2067.86830987952
 10
1095.494248187215
 20
2067.838612332537
 10
1095.540809997386
 20
2067.810754478029
 10
1095.58844858013
 20
2067.784780882621
 10
1095.637087723875
 20
2067.760733098524
 10
1095.686649616367
 20
2067.738649597064
 10
1095.737054969152
 20
2067.71856570713
 10
1095.788223144418
 20
2067.700513558664
 10
1095.840072283998
 20
2067.684522031251
 10
1095.862776242245
 20
2067.678226709507
  0
LWPOLYLINE
  5
20C
330
1D4
100
AcDbEntity
  8
P-SANR-FIXT
100
AcDbPolyline
 90
       31
 70
   128
 43
0.0
 10
1038.365931643952
 20
2067.678226709507
 10
1038.418050690003
 20
2067.693315356331
 10
1038.469524661435
 20
2067.710476139797
 10
1038.520271210876
 20
2067.729681606313
 10
1038.570209154672
 20
2067.750901031228
 10
1038.619258602763
 20
2067.77410046799
 10
1038.667341086499
 20
2067.799242802448
 10
1038.714379684162
 20
2067.826287812231
 10
1038.760299144029
 20
2067.855192231093
 10
1038.805026004761
 20
2067.885909818128
 10
1038.848488712922
 20
2067.918391431752
 10
1038.89061773745
 20
2067.95258510831
 10
1038.931345680892
 20
2067.988436145214
 10
1038.970607387229
 20
2068.025887188454
 10
1039.008340046104
 20
2068.06487832435
 10
1039.044483293313
 20
2068.105347175401
 10
1039.07897930737
 20
2068.147229000079
 10
1039.111772902012
 20
2068.190456796399
 10
1039.142811614484
 20
2068.234961409108
 10
1039.172045789465
 20
2068.280671640319
 10
1039.199428658513
 20
2068.327514363414
 10
1039.224916414878
 20
2068.375414640028
 10
1039.248468283587
 20
2068.424295839936
 10
1039.270046586675
 20
2068.474079763648
 10
1039.28961680346
 20
2068.524686767503
 10
1039.307147625769
 20
2068.576035891092
 10
1039.322611008027
 20
2068.628044986771
 10
1039.335982212121
 20
2068.680630851082
 10
1039.347239846976
 20
2068.733709357859
 10
1039.356365902778
 20
2068.787195592815
 10
1039.359660920233
 20
2068.81052462314
  0
LINE
  5
20D
330
1D4
100
AcDbEntity
  8
P-SANR-FIXT
100
AcDbLine
 10
1105.373172988201
 20
2065.129923581728
 30
0.0
 11
1095.862776242245
 21
2067.678226709507
 31
0.0
  0
LINE
  5
20E
330
1D4
100
AcDbEntity
  8
P-SANR-FIXT
100
AcDbLine
 10
1038.365931643952
 20
2067.678226709507
 30
0.0
 11
1028.855534897996
 21
2065.129923581728
 31
0.0
  0
LWPOLYLINE
  5
20F
330
1D4
100
AcDbEntity
  8
P-SANR-FIXT
100
AcDbPolyline
 90
       34
 70
   128
 43
0.0
 10
1105.373172988201
 20
2065.129923581728
 10
1105.411592691238
 20
2065.118800942805
 10
1105.449536875685
 20
2065.106150822463
 10
1105.486944838943
 20
2065.091993458195
 10
1105.523756736248
 20
2065.076351498765
 10
1105.559913676419
 20
2065.059249967971
 10
1105.595357816064
 20
2065.040716224613
 10
1105.630032452122
 20
2065.020779918729
 10
1105.66388211257
 20
2064.999472944153
 10
1105.696852645174
 20
2064.976829387501
 10
1105.728891304115
 20
2064.952885473632
 10
1105.759946834371
 20
2064.927679507701
 10
1105.789969553721
 20
2064.901251813877
 10
1105.818911432218
 20
2064.873644670831
 10
1105.84672616903
 20
2064.844902244105
 10
1105.873369266511
 20
2064.815070515447
 10
1105.898798101389
 20
2064.784197209263
 10
1105.922971992953
 20
2064.752331716254
 10
1105.945852268134
 20
2064.719525014413
 10
1105.967402323371
 20
2064.685829587464
 10
1105.987587683174
 20
2064.651299340901
 10
1106.006376055272
 20
2064.615989515754
 10
1106.02373738228
 20
2064.57995660021
 10
1106.039643889775
 20
2064.543258239247
 10
1106.054070130741
 20
2064.505953142415
 10
1106.066993026269
 20
2064.468100989911
 10
1106.078391902483
 20
2064.429762337103
 10
1106.088248523611
 20
2064.390998517658
 10
1106.096547121164
 20
2064.351871545418
 10
1106.103274419156
 20
2064.312444015191
 10
1106.108419655345
 20
2064.272779002616
 10
1106.111974598449
 20
2064.23293996325
 10
1106.11393356132
 20
2064.192990631059
 10
1106.114353943099
 20
2064.163997755439
  0
LWPOLYLINE
  5
210
330
1D4
100
AcDbEntity
  8
P-SANR-FIXT
100
AcDbPolyline
 90
       34
 70
   128
 43
0.0
 10
1028.114353943099
 20
2064.163997755439
 10
1028.115153836438
 20
2064.203987089625
 10
1028.117552236796
 20
2064.243912449408
 10
1028.121545307245
 20
2064.283709962728
 10
1028.127126659723
 20
2064.323315962053
 10
1028.134287365257
 20
2064.362667086234
 10
1028.143015968246
 20
2064.401700381866
 10
1028.153298504788
 20
2064.440353404003
 10
1028.165118525016
 20
2064.478564316055
 10
1028.178457119421
 20
2064.516271988714
 10
1028.193292949096
 20
2064.553416097747
 10
1028.209602279879
 20
2064.589937220505
 10
1028.227359020319
 20
2064.625776930981
 10
1028.246534763421
 20
2064.660877893282
 10
1028.267098832085
 20
2064.69518395336
 10
1028.289018328189
 20
2064.728640228834
 10
1028.312258185214
 20
2064.761193196801
 10
1028.336781224348
 20
2064.792790779458
 10
1028.362548213958
 20
2064.823382427411
 10
1028.389517932358
 20
2064.85291920055
 10
1028.417647233752
 20
2064.881353846338
 10
1028.446891117257
 20
2064.90864087541
 10
1028.4772027989
 20
2064.934736634338
 10
1028.508533786455
 20
2064.959599375475
 10
1028.540833957026
 20
2064.98318932374
 10
1028.574051637231
 20
2065.005468740247
 10
1028.608133685866
 20
2065.026401982682
 10
1028.643025578925
 20
2065.045955562323
 10
1028.678671496822
 20
2065.064098197615
 10
1028.715014413692
 20
2065.08080086421
 10
1028.751996188622
 20
2065.096036841406
 10
1028.78955765866
 20
2065.109781754888
 10
1028.827638733466
 20
2065.122013615728
 10
1028.855534897996
 20
2065.129923581728
  0
LINE
  5
211
330
1D4
100
AcDbEntity
  8
P-SANR-FIXT
100
AcDbLine
 10
1106.114353943098
 20
2062.482558850012
 30
0.0
 11
1106.114353943098
 21
2064.163997755439
 31
0.0
  0
LINE
  5
212
330
1D4
100
AcDbEntity
  8
P-SANR-FIXT
100
AcDbLine
 10
1028.114353943099
 20
2064.163997755439
 30
0.0
 11
1028.114353943099
 21
2062.482558850012
 31
0.0
  0
LINE
  5
213
330
1D4
100
AcDbEntity
  8
P-SANR-FIXT
100
AcDbLine
 10
1067.114353943096
 20
2119.482558850063
 30
0.0
 11
1094.715531698614
 21
2119.482558850063
 31
0.0
  0
LINE
  5
214
330
1D4
100
AcDbEntity
  8
P-SANR-FIXT
100
AcDbLine
 10
1039.513176187579
 20
2119.482558850063
 30
0.0
 11
1067.114353943096
 21
2119.482558850063
 31
0.0
  0
LINE
  5
215
330
1D4
100
AcDbEntity
  8
P-SANR-FIXT
100
AcDbLine
 10
1067.114353943096
 20
2118.482558850074
 30
0.0
 11
1093.715531698626
 21
2118.482558850074
 31
0.0
  0
LINE
  5
216
330
1D4
100
AcDbEntity
  8
P-SANR-FIXT
100
AcDbLine
 10
1040.513176187568
 20
2118.482558850074
 30
0.0
 11
1067.114353943096
 21
2118.482558850074
 31
0.0
  0
LINE
  5
217
330
1D4
100
AcDbEntity
  8
P-SANR-FIXT
100
AcDbLine
 10
1075.072468599234
 20
2080.482558850026
 30
0.0
 11
1076.969600376795
 21
2080.482558850026
 31
0.0
  0
LINE
  5
218
330
1D4
100
AcDbEntity
  8
P-SANR-FIXT
100
AcDbLine
 10
1055.422736603304
 20
2080.482558850026
 30
0.0
 11
1057.259107509398
 21
2080.482558850026
 31
0.0
  0
LINE
  5
219
330
1D4
100
AcDbEntity
  8
P-SANR-FIXT
100
AcDbLine
 10
1106.114353943096
 20
2062.482558850011
 30
0.0
 11
1067.114353943097
 21
2062.482558850011
 31
0.0
  0
LINE
  5
21A
330
1D4
100
AcDbEntity
  8
P-SANR-FIXT
100
AcDbLine
 10
1067.114353943097
 20
2062.482558850011
 30
0.0
 11
1028.114353943097
 21
2062.482558850011
 31
0.0
  0
LINE
  5
21B
330
1D4
100
AcDbEntity
  8
P-SANR-FIXT
100
AcDbLine
 10
1067.114353943096
 20
2068.81052462314
 30
0.0
 11
1094.869046965962
 21
2068.81052462314
 31
0.0
  0
LINE
  5
21C
330
1D4
100
AcDbEntity
  8
P-SANR-FIXT
100
AcDbLine
 10
1039.359660920231
 20
2068.81052462314
 30
0.0
 11
1067.114353943096
 21
2068.81052462314
 31
0.0
  0
LINE
  5
21D
330
1D4
100
AcDbEntity
  8
P-SANR-FIXT
100
AcDbLine
 10
1062.248598196504
 20
2145.982558850075
 30
0.0
 11
1061.615318788292
 21
2145.349279441862
 31
0.0
  0
LINE
  5
21E
330
1D4
100
AcDbEntity
  8
P-SANR-FIXT
100
AcDbLine
 10
1072.613389097906
 20
2141.482558850121
 30
0.0
 11
1072.613389097906
 21
2145.349279441862
 31
0.0
  0
LWPOLYLINE
  5
21F
330
1D4
100
AcDbEntity
  8
P-SANR-FIXT
100
AcDbPolyline
 90
       41
 70
   128
 43
0.0
 10
1072.615284169339
 20
2135.08255885012
 10
1072.614804233336
 20
2135.058565249609
 10
1072.613365193121
 20
2135.03461003374
 10
1072.610969350852
 20
2135.010731525747
 10
1072.607620539365
 20
2134.986967926153
 10
1072.603324116044
 20
2134.963357251644
 10
1072.59808695425
 20
2134.939937274265
 10
1072.591917432326
 20
2134.916745460982
 10
1072.584825420189
 20
2134.893818913751
 10
1072.576822263546
 20
2134.871194310156
 10
1072.567920765741
 20
2134.848907844736
 10
1072.558135167271
 20
2134.826995171081
 10
1072.547481123007
 20
2134.805491344796
 10
1072.535975677146
 20
2134.784430767414
 10
1072.523637235947
 20
2134.763847131369
 10
1072.510485538285
 20
2134.743773366084
 10
1072.49654162407
 20
2134.724241585304
 10
1072.48182780059
 20
2134.70528303571
 10
1072.466367606824
 20
2134.686928046938
 10
1072.450185775784
 20
2134.669205983055
 10
1072.433308194947
 20
2134.652145195581
 10
1072.415761864844
 20
2134.635772978139
 10
1072.397574855858
 20
2134.620115522781
 10
1072.378776263325
 20
2134.605197878099
 10
1072.359396160983
 20
2134.591043909141
 10
1072.33946555286
 20
2134.577676259237
 10
1072.319016323679
 20
2134.565116313774
 10
1072.298081187843
 20
2134.55338416599
 10
1072.276693637105
 20
2134.542498584815
 10
1072.254887886983
 20
2134.532476984858
 10
1072.232698822025
 20
2134.52333539854
 10
1072.210161940002
 20
2134.515088450451
 10
1072.187313295118
 20
2134.507749333947
 10
1072.164189440331
 20
2134.50132979005
 10
1072.140827368874
 20
2134.495840088659
 10
1072.11726445508
 20
2134.491289012128
 10
1072.093538394582
 20
2134.487683841205
 10
1072.069687144018
 20
2134.485030343398
 10
1072.0457488603
 20
2134.483332763736
 10
1072.021761839574
 20
2134.482593817983
 10
1072.015284169339
 20
2134.482558850121
  0
LWPOLYLINE
  5
220
330
1D4
100
AcDbEntity
  8
P-SANR-FIXT
100
AcDbPolyline
 90
       41
 70
   128
 43
0.0
 10
1067.114353943098
 20
2134.482558850121
 10
1067.310338879741
 20
2134.482558850121
 10
1067.506010282293
 20
2134.482558850121
 10
1067.701055118251
 20
2134.482558850121
 10
1067.895161357485
 20
2134.482558850121
 10
1068.088018471419
 20
2134.482558850121
 10
1068.279317929812
 20
2134.482558850121
 10
1068.468753694339
 20
2134.482558850121
 10
1068.656022708187
 20
2134.482558850121
 10
1068.840825380882
 20
2134.482558850121
 10
1069.022866067572
 20
2134.482558850121
 10
1069.20185354199
 20
2134.482558850121
 10
1069.377501462358
 20
2134.482558850121
 10
1069.549528829476
 20
2134.482558850121
 10
1069.717660436251
 20
2134.482558850121
 10
1069.88162730798
 20
2134.482558850121
 10
1070.041167132645
 20
2134.482558850121
 10
1070.19602468056
 20
2134.482558850121
 10
1070.345952212683
 20
2134.482558850121
 10
1070.490709876946
 20
2134.482558850121
 10
1070.630066091966
 20
2134.482558850121
 10
1070.763797917526
 20
2134.482558850121
 10
1070.891691411234
 20
2134.482558850121
 10
1071.013541970781
 20
2134.482558850121
 10
1071.129154661266
 20
2134.482558850121
 10
1071.238344527048
 20
2134.482558850121
 10
1071.340936887633
 20
2134.482558850121
 10
1071.43676761713
 20
2134.482558850121
 10
1071.525683406814
 20
2134.482558850121
 10
1071.607542010389
 20
2134.482558850121
 10
1071.682212471553
 20
2134.482558850121
 10
1071.749575333496
 20
2134.482558850121
 10
1071.809522830008
 20
2134.482558850121
 10
1071.861959057884
 20
2134.482558850121
 10
1071.906800130345
 20
2134.482558850121
 10
1071.94397431124
 20
2134.482558850121
 10
1071.97342212981
 20
2134.482558850121
 10
1071.995096475827
 20
2134.482558850121
 10
1072.008962674962
 20
2134.482558850121
 10
1072.014998544253
 20
2134.482558850121
 10
1072.015284169339
 20
2134.482558850121
  0
LWPOLYLINE
  5
221
330
1D4
100
AcDbEntity
  8
P-SANR-FIXT
100
AcDbPolyline
 90
       24
 70
   128
 43
0.0
 10
1072.015284169339
 20
2134.482558850121
 10
1072.011363947896
 20
2134.482558850121
 10
1071.999609555085
 20
2134.482558850121
 10
1071.980039795427
 20
2134.482558850121
 10
1071.952685976363
 20
2134.482558850121
 10
1071.917591858169
 20
2134.482558850121
 10
1071.874813583946
 20
2134.482558850121
 10
1071.824419589809
 20
2134.482558850121
 10
1071.766490495397
 20
2134.482558850121
 10
1071.701118974904
 20
2134.482558850121
 10
1071.628409608819
 20
2134.482558850121
 10
1071.548478716615
 20
2134.482558850121
 10
1071.46145417067
 20
2134.482558850121
 10
1071.367475191692
 20
2134.482558850121
 10
1071.266692126001
 20
2134.482558850121
 10
1071.159266205002
 20
2134.482558850121
 10
1071.045369287253
 20
2134.482558850121
 10
1070.925183583525
 20
2134.482558850121
 10
1070.798901365306
 20
2134.482558850121
 10
1070.666724657207
 20
2134.482558850121
 10
1070.528864913763
 20
2134.482558850121
 10
1070.385542681156
 20
2134.482558850121
 10
1070.236987244385
 20
2134.482558850121
 10
1070.114353943099
 20
2134.482558850121
  0
LINE
  5
222
330
1D4
100
AcDbEntity
  8
P-SANR-FIXT
100
AcDbLine
 10
1074.362826271542
 20
2127.982558850059
 30
0.0
 11
1074.362826271542
 21
2130.982558850059
 31
0.0
  0
LINE
  5
223
330
1D4
100
AcDbEntity
  8
P-SANR-FIXT
100
AcDbLine
 10
1072.613389097905
 20
2145.349279441862
 30
0.0
 11
1071.980109689693
 21
2145.982558850075
 31
0.0
  0
LINE
  5
224
330
1D4
100
AcDbEntity
  8
P-SANR-FIXT
100
AcDbLine
 10
1061.615318788291
 20
2145.349279441862
 30
0.0
 11
1061.615318788291
 21
2141.482558850121
 31
0.0
  0
LINE
  5
225
330
1D4
100
AcDbEntity
  8
P-SANR-FIXT
100
AcDbLine
 10
1071.813389097905
 20
2139.482558850121
 30
0.0
 11
1071.813389097905
 21
2141.482558850121
 31
0.0
  0
LINE
  5
226
330
1D4
100
AcDbEntity
  8
P-SANR-FIXT
100
AcDbLine
 10
1062.415318788292
 20
2141.482558850121
 30
0.0
 11
1062.415318788292
 21
2139.482558850121
 31
0.0
  0
LINE
  5
227
330
1D4
100
AcDbEntity
  8
P-SANR-FIXT
100
AcDbLine
 10
1072.615284169341
 20
2135.08255885012
 30
0.0
 11
1072.615284169341
 21
2139.482558850121
 31
0.0
  0
LINE
  5
228
330
1D4
100
AcDbEntity
  8
P-SANR-FIXT
100
AcDbLine
 10
1061.613423716856
 20
2139.482558850121
 30
0.0
 11
1061.613423716856
 21
2135.08255885012
 31
0.0
  0
LWPOLYLINE
  5
229
330
1D4
100
AcDbEntity
  8
P-SANR-FIXT
100
AcDbPolyline
 90
       41
 70
   128
 43
0.0
 10
1062.213423716858
 20
2134.482558850121
 10
1062.189430116346
 20
2134.483038786124
 10
1062.165474900476
 20
2134.484477826339
 10
1062.141596392485
 20
2134.486873668608
 10
1062.11783279289
 20
2134.490222480096
 10
1062.094222118381
 20
2134.494518903416
 10
1062.070802141002
 20
2134.49975606521
 10
1062.04761032772
 20
2134.505925587134
 10
1062.024683780488
 20
2134.513017599271
 10
1062.002059176893
 20
2134.521020755914
 10
1061.979772711473
 20
2134.529922253719
 10
1061.957860037819
 20
2134.539707852189
 10
1061.936356211533
 20
2134.550361896453
 10
1061.915295634152
 20
2134.561867342315
 10
1061.894711998106
 20
2134.574205783513
 10
1061.874638232821
 20
2134.587357481175
 10
1061.855106452041
 20
2134.60130139539
 10
1061.836147902447
 20
2134.61601521887
 10
1061.817792913675
 20
2134.631475412636
 10
1061.800070849792
 20
2134.647657243676
 10
1061.783010062319
 20
2134.664534824513
 10
1061.766637844876
 20
2134.682081154616
 10
1061.750980389519
 20
2134.700268163602
 10
1061.736062744836
 20
2134.719066756135
 10
1061.721908775878
 20
2134.738446858477
 10
1061.708541125973
 20
2134.7583774666
 10
1061.695981180512
 20
2134.778826695781
 10
1061.684249032727
 20
2134.799761831617
 10
1061.673363451552
 20
2134.821149382355
 10
1061.663341851595
 20
2134.842955132477
 10
1061.654200265278
 20
2134.865144197435
 10
1061.645953317189
 20
2134.887681079458
 10
1061.638614200685
 20
2134.910529724342
 10
1061.632194656787
 20
2134.93365357913
 10
1061.626704955397
 20
2134.957015650586
 10
1061.622153878865
 20
2134.98057856438
 10
1061.618548707943
 20
2135.004304624878
 10
1061.615895210135
 20
2135.028155875442
 10
1061.614197630473
 20
2135.05209415916
 10
1061.61345868472
 20
2135.076081179886
 10
1061.613423716858
 20
2135.08255885012
  0
LWPOLYLINE
  5
22A
330
1D4
100
AcDbEntity
  8
P-SANR-FIXT
100
AcDbPolyline
 90
       25
 70
   128
 43
0.0
 10
1064.114353943099
 20
2134.482558850121
 10
1064.032683205637
 20
2134.482558850121
 10
1063.882755673514
 20
2134.482558850121
 10
1063.737998009251
 20
2134.482558850121
 10
1063.598641794231
 20
2134.482558850121
 10
1063.464909968671
 20
2134.482558850121
 10
1063.337016474964
 20
2134.482558850121
 10
1063.215165915416
 20
2134.482558850121
 10
1063.099553224931
 20
2134.482558850121
 10
1062.990363359149
 20
2134.482558850121
 10
1062.887770998564
 20
2134.482558850121
 10
1062.791940269067
 20
2134.482558850121
 10
1062.703024479383
 20
2134.482558850121
 10
1062.621165875808
 20
2134.482558850121
 10
1062.546495414644
 20
2134.482558850121
 10
1062.479132552702
 20
2134.482558850121
 10
1062.419185056189
 20
2134.482558850121
 10
1062.366748828313
 20
2134.482558850121
 10
1062.321907755853
 20
2134.482558850121
 10
1062.284733574958
 20
2134.482558850121
 10
1062.255285756388
 20
2134.482558850121
 10
1062.23361141037
 20
2134.482558850121
 10
1062.219745211236
 20
2134.482558850121
 10
1062.213709341945
 20
2134.482558850121
 10
1062.213423716858
 20
2134.482558850121
  0
LWPOLYLINE
  5
22B
330
1D4
100
AcDbEntity
  8
P-SANR-FIXT
100
AcDbPolyline
 90
       41
 70
   128
 43
0.0
 10
1062.213423716858
 20
2134.482558850121
 10
1062.217343938301
 20
2134.482558850121
 10
1062.229098331112
 20
2134.482558850121
 10
1062.24866809077
 20
2134.482558850121
 10
1062.276021909833
 20
2134.482558850121
 10
1062.311116028028
 20
2134.482558850121
 10
1062.353894302251
 20
2134.482558850121
 10
1062.404288296388
 20
2134.482558850121
 10
1062.4622173908
 20
2134.482558850121
 10
1062.527588911293
 20
2134.482558850121
 10
1062.600298277379
 20
2134.482558850121
 10
1062.680229169583
 20
2134.482558850121
 10
1062.767253715528
 20
2134.482558850121
 10
1062.861232694505
 20
2134.482558850121
 10
1062.962015760196
 20
2134.482558850121
 10
1063.069441681195
 20
2134.482558850121
 10
1063.183338598944
 20
2134.482558850121
 10
1063.303524302672
 20
2134.482558850121
 10
1063.429806520891
 20
2134.482558850121
 10
1063.561983228991
 20
2134.482558850121
 10
1063.699842972434
 20
2134.482558850121
 10
1063.843165205041
 20
2134.482558850121
 10
1063.991720641812
 20
2134.482558850121
 10
1064.145271625739
 20
2134.482558850121
 10
1064.303572508003
 20
2134.482558850121
 10
1064.466370040962
 20
2134.482558850121
 10
1064.633403783291
 20
2134.482558850121
 10
1064.804406516635
 20
2134.482558850121
 10
1064.979104673099
 20
2134.482558850121
 10
1065.157218772899
 20
2134.482558850121
 10
1065.338463871471
 20
2134.482558850121
 10
1065.522550015322
 20
2134.482558850121
 10
1065.709182705891
 20
2134.482558850121
 10
1065.898063370685
 20
2134.482558850121
 10
1066.088889840933
 20
2134.482558850121
 10
1066.281356834991
 20
2134.482558850121
 10
1066.475156446726
 20
2134.482558850121
 10
1066.669978638099
 20
2134.482558850121
 10
1066.865511735166
 20
2134.482558850121
 10
1067.061442926682
 20
2134.482558850121
 10
1067.114353943098
 20
2134.482558850121
  0
LINE
  5
22C
330
1D4
100
AcDbEntity
  8
P-SANR-FIXT
100
AcDbLine
 10
1070.114353943099
 20
2130.982558850059
 30
0.0
 11
1070.114353943099
 21
2134.482558850121
 31
0.0
  0
LINE
  5
22D
330
1D4
100
AcDbEntity
  8
P-SANR-FIXT
100
AcDbLine
 10
1064.114353943099
 20
2134.482558850121
 30
0.0
 11
1064.114353943099
 21
2130.982558850059
 31
0.0
  0
LINE
  5
22E
330
1D4
100
AcDbEntity
  8
P-SANR-FIXT
100
AcDbLine
 10
1059.865881614655
 20
2130.982558850059
 30
0.0
 11
1059.865881614655
 21
2127.982558850059
 31
0.0
  0
LINE
  5
22F
330
1D4
100
AcDbEntity
  8
P-SANR-FIXT
100
AcDbLine
 10
1067.114353943097
 20
2145.982558850073
 30
0.0
 11
1062.248598196502
 21
2145.982558850073
 31
0.0
  0
LINE
  5
230
330
1D4
100
AcDbEntity
  8
P-SANR-FIXT
100
AcDbLine
 10
1072.613389097904
 20
2145.349279441862
 30
0.0
 11
1067.114353943097
 21
2145.349279441862
 31
0.0
  0
LINE
  5
231
330
1D4
100
AcDbEntity
  8
P-SANR-FIXT
100
AcDbLine
 10
1074.36282627154
 20
2130.982558850059
 30
0.0
 11
1067.114353943097
 21
2130.982558850059
 31
0.0
  0
LINE
  5
232
330
1D4
100
AcDbEntity
  8
P-SANR-FIXT
100
AcDbLine
 10
1071.980109689691
 20
2145.982558850073
 30
0.0
 11
1067.114353943097
 21
2145.982558850073
 31
0.0
  0
LINE
  5
233
330
1D4
100
AcDbEntity
  8
P-SANR-FIXT
100
AcDbLine
 10
1061.61531878829
 20
2145.349279441862
 30
0.0
 11
1067.114353943097
 21
2145.349279441862
 31
0.0
  0
LINE
  5
234
330
1D4
100
AcDbEntity
  8
P-SANR-FIXT
100
AcDbLine
 10
1067.114353943097
 20
2141.48255885012
 30
0.0
 11
1072.613389097904
 21
2141.48255885012
 31
0.0
  0
LINE
  5
235
330
1D4
100
AcDbEntity
  8
P-SANR-FIXT
100
AcDbLine
 10
1061.61531878829
 20
2141.48255885012
 30
0.0
 11
1067.114353943097
 21
2141.48255885012
 31
0.0
  0
LINE
  5
236
330
1D4
100
AcDbEntity
  8
P-SANR-FIXT
100
AcDbLine
 10
1067.114353943097
 20
2139.48255885012
 30
0.0
 11
1072.615284169339
 21
2139.48255885012
 31
0.0
  0
LINE
  5
237
330
1D4
100
AcDbEntity
  8
P-SANR-FIXT
100
AcDbLine
 10
1061.613423716854
 20
2139.48255885012
 30
0.0
 11
1067.114353943097
 21
2139.48255885012
 31
0.0
  0
LINE
  5
238
330
1D4
100
AcDbEntity
  8
P-SANR-FIXT
100
AcDbLine
 10
1059.865881614653
 20
2130.982558850059
 30
0.0
 11
1067.114353943097
 21
2130.982558850059
 31
0.0
  0
LINE
  5
239
330
1D4
100
AcDbEntity
  8
P-SANR-FIXT
100
AcDbLine
 10
1106.614353943099
 20
2048.482558850011
 30
0.0
 11
1106.614353943099
 21
2061.982558850012
 31
0.0
  0
LINE
  5
23A
330
1D4
100
AcDbEntity
  8
P-SANR-FIXT
100
AcDbLine
 10
1027.614353943099
 20
2061.982558850012
 30
0.0
 11
1027.614353943099
 21
2048.482558850011
 31
0.0
  0
LWPOLYLINE
  5
23B
330
1D4
100
AcDbEntity
  8
P-SANR-FIXT
100
AcDbPolyline
 90
        6
 70
   128
 43
0.0
 10
1106.614353943099
 20
2048.482558850011
 10
1106.917387238184
 20
2046.911626163058
 10
1107.28299869116
 20
2045.354068154404
 10
1107.710603401692
 20
2043.8123765846
 10
1108.199517293462
 20
2042.289017831284
 10
1108.335069968066
 20
2041.900514102001
  0
LWPOLYLINE
  5
23C
330
1D4
100
AcDbEntity
  8
P-SANR-FIXT
100
AcDbPolyline
 90
        6
 70
   128
 43
0.0
 10
1025.893637918131
 20
2041.900514102001
 10
1026.398196243046
 20
2043.418762955658
 10
1026.84163721433
 20
2044.955974323642
 10
1027.223251421025
 20
2046.509688995683
 10
1027.542428361807
 20
2048.077421359751
 10
1027.614353943099
 20
2048.482558850011
  0
LWPOLYLINE
  5
23D
330
1D4
100
AcDbEntity
  8
P-SANR-FIXT
100
AcDbPolyline
 90
        7
 70
   128
 43
0.0
 10
1108.335069968066
 20
2041.900514102001
 10
1108.395827453775
 20
2041.717690871317
 10
1108.449225360708
 20
2041.532584228317
 10
1108.495178263603
 20
2041.345490304143
 10
1108.53361264762
 20
2041.156708409161
 10
1108.564467025941
 20
2040.966540554133
 10
1108.570443826374
 20
2040.922955553554
  0
LWPOLYLINE
  5
23E
330
1D4
100
AcDbEntity
  8
P-SANR-FIXT
100
AcDbPolyline
 90
        7
 70
   128
 43
0.0
 10
1025.658264059823
 20
2040.922955553554
 10
1025.687380283794
 20
2041.113397280204
 10
1025.724088855741
 20
2041.302522335374
 10
1025.768331049781
 20
2041.490028159321
 10
1025.82003608784
 20
2041.675614782725
 10
1025.879121252887
 20
2041.85898530658
 10
1025.893637918131
 20
2041.900514102001
  0
LWPOLYLINE
  5
23F
330
1D4
100
AcDbEntity
  8
P-SANR-FIXT
100
AcDbPolyline
 90
        5
 70
   128
 43
0.0
 10
1108.570443826374
 20
2040.922955553554
 10
1109.343623257866
 20
2034.030650025212
 10
1109.840565519191
 20
2027.112938675481
 10
1110.060475608741
 20
2020.18088836682
 10
1110.064353943098
 20
2016.482558850006
  0
LWPOLYLINE
  5
240
330
1D4
100
AcDbEntity
  8
P-SANR-FIXT
100
AcDbPolyline
 90
        5
 70
   128
 43
0.0
 10
1024.164353943099
 20
2016.482558850006
 10
1024.236373399922
 20
2023.417722519821
 10
1024.585667826493
 20
2030.344458788285
 10
1025.211678426241
 20
2037.251686354994
 10
1025.658264059823
 20
2040.922955553554
  0
LINE
  5
241
330
1D4
100
AcDbEntity
  8
P-SANR-FIXT
100
AcDbLine
 10
1110.064353943098
 20
1978.482558850011
 30
0.0
 11
1110.064353943098
 21
2016.482558850003
 31
0.0
  0
LINE
  5
242
330
1D4
100
AcDbEntity
  8
P-SANR-FIXT
100
AcDbLine
 10
1024.164353943099
 20
2016.482558850004
 30
0.0
 11
1024.164353943099
 21
1978.482558850011
 31
0.0
  0
LINE
  5
243
330
1D4
100
AcDbEntity
  8
P-SANR-FIXT
100
AcDbLine
 10
1083.114353943098
 20
1956.367402167751
 30
0.0
 11
1083.114353943098
 21
1961.482558850011
 31
0.0
  0
LINE
  5
244
330
1D4
100
AcDbEntity
  8
P-SANR-FIXT
100
AcDbLine
 10
1051.114353943099
 20
1961.482558850011
 30
0.0
 11
1051.114353943099
 21
1956.367402167751
 31
0.0
  0
LWPOLYLINE
  5
245
330
1D4
100
AcDbEntity
  8
P-SANR-FIXT
100
AcDbPolyline
 90
       41
 70
   128
 43
0.0
 10
1110.064353943098
 20
1978.482558850011
 10
1110.05475522303
 20
1978.002686839772
 10
1110.02597441873
 20
1977.523582522381
 10
1109.978057573345
 20
1977.046012362544
 10
1109.911081343606
 20
1976.57074037064
 10
1109.825152877194
 20
1976.09852688047
 10
1109.720409641323
 20
1975.630127332886
 10
1109.597019202828
 20
1975.166291067242
 10
1109.455178960088
 20
1974.707760122617
 10
1109.295115827234
 20
1974.25526805071
 10
1109.117085871133
 20
1973.809538742307
 10
1108.921373901738
 20
1973.37128526922
 10
1108.70829301645
 20
1972.941208743513
 10
1108.47818409923
 20
1972.519997195886
 10
1108.231415275259
 20
1972.108324474961
 10
1107.968381322015
 20
1971.706849169271
 10
1107.68950303771
 20
1971.316213553663
 10
1107.39522656811
 20
1970.937042561789
 10
1107.086022692789
 20
1970.569942786353
 10
1106.76238607199
 20
1970.215501508685
 10
1106.424834455265
 20
1969.874285759217
 10
1106.073907853194
 20
1969.546841410361
 10
1105.710167673481
 20
1969.233692303223
 10
1105.33419582282
 20
1968.935339409575
 10
1104.946593775968
 20
1968.652260030399
 10
1104.547981613516
 20
1968.384907032316
 10
1104.138997029892
 20
1968.133708123091
 10
1103.720294313184
 20
1967.899065167392
 10
1103.292543298419
 20
1967.681353543893
 10
1102.856428295974
 20
1967.48092154475
 10
1102.412646996818
 20
1967.298089818404
 10
1101.961909356364
 20
1967.133150856617
 10
1101.504936458682
 20
1966.986368526541
 10
1101.042459362927
 20
1966.857977648592
 10
1100.575217933795
 20
1966.748183620787
 10
1100.103959657901
 20
1966.65716209015
 10
1099.629438447957
 20
1966.585058671711
 10
1099.15241343667
 20
1966.531988715559
 10
1098.673647762302
 20
1966.498037122304
 10
1098.193907347798
 20
1966.483258207252
 10
1098.064353943099
 20
1966.482558850011
  0
LWPOLYLINE
  5
246
330
1D4
100
AcDbEntity
  8
P-SANR-FIXT
100
AcDbPolyline
 90
       41
 70
   128
 43
0.0
 10
1067.114353943098
 20
1966.482558850011
 10
1068.352023836175
 20
1966.482558850011
 10
1069.587713721444
 20
1966.482558850011
 10
1070.81944675869
 20
1966.482558850011
 10
1072.04525243781
 20
1966.482558850011
 10
1073.263169731206
 20
1966.482558850011
 10
1074.471250231018
 20
1966.482558850011
 10
1075.667561266158
 20
1966.482558850011
 10
1076.850188994167
 20
1966.482558850011
 10
1078.017241462963
 20
1966.482558850011
 10
1079.166851637551
 20
1966.482558850011
 10
1080.297180386891
 20
1966.482558850011
 10
1081.406419426107
 20
1966.482558850011
 10
1082.492794209362
 20
1966.482558850011
 10
1083.55456676875
 20
1966.482558850011
 10
1084.590038494675
 20
1966.482558850011
 10
1085.597552853265
 20
1966.482558850011
 10
1086.57549803647
 20
1966.482558850011
 10
1087.522309540615
 20
1966.482558850011
 10
1088.43647266927
 20
1966.482558850011
 10
1089.316524956439
 20
1966.482558850011
 10
1090.161058506196
 20
1966.482558850011
 10
1090.968722245022
 20
1966.482558850011
 10
1091.738224083224
 20
1966.482558850011
 10
1092.468332982015
 20
1966.482558850011
 10
1093.157880922903
 20
1966.482558850011
 10
1093.80576477628
 20
1966.482558850011
 10
1094.410948066188
 20
1966.482558850011
 10
1094.972462628462
 20
1966.482558850011
 10
1095.489410159585
 20
1966.482558850011
 10
1095.960963653785
 20
1966.482558850011
 10
1096.386368726062
 20
1966.482558850011
 10
1096.76494481905
 20
1966.482558850011
 10
1097.096086291759
 20
1966.482558850011
 10
1097.379263388472
 20
1966.482558850011
 10
1097.614023086242
 20
1966.482558850011
 10
1097.799989819631
 20
1966.482558850011
 10
1097.936866081539
 20
1966.482558850011
 10
1098.024432899143
 20
1966.482558850011
 10
1098.062550184216
 20
1966.482558850011
 10
1098.064353943098
 20
1966.482558850011
  0
LWPOLYLINE
  5
247
330
1D4
100
AcDbEntity
  8
P-SANR-FIXT
100
AcDbPolyline
 90
       22
 70
   128
 43
0.0
 10
1098.064353943098
 20
1966.482558850011
 10
1098.039597244256
 20
1966.482558850011
 10
1097.965366753165
 20
1966.482558850011
 10
1097.841781222776
 20
1966.482558850011
 10
1097.669038363574
 20
1966.482558850011
 10
1097.447414527285
 20
1966.482558850011
 10
1097.177264264769
 20
1966.482558850011
 10
1096.859019758817
 20
1966.482558850011
 10
1096.49319013275
 20
1966.482558850011
 10
1096.080360635931
 20
1966.482558850011
 10
1095.621191707488
 20
1966.482558850011
 10
1095.116417919757
 20
1966.482558850011
 10
1094.566846803117
 20
1966.482558850011
 10
1093.973357554122
 20
1966.482558850011
 10
1093.336899628964
 20
1966.482558850011
 10
1092.658491224553
 20
1966.482558850011
 10
1091.939217649618
 20
1966.482558850011
 10
1091.18022958844
 20
1966.482558850011
 10
1090.382741260009
 20
1966.482558850011
 10
1089.54802847553
 20
1966.482558850011
 10
1088.677426597393
 20
1966.482558850011
 10
1088.114353943099
 20
1966.482558850011
  0
LWPOLYLINE
  5
248
330
1D4
100
AcDbEntity
  8
P-SANR-FIXT
100
AcDbPolyline
 90
       41
 70
   128
 43
0.0
 10
1036.164353943099
 20
1966.482558850011
 10
1035.684481932859
 20
1966.492157570079
 10
1035.205377615469
 20
1966.52093837438
 10
1034.727807455632
 20
1966.568855219765
 10
1034.252535463727
 20
1966.635831449504
 10
1033.780321973558
 20
1966.721759915916
 10
1033.311922425973
 20
1966.826503151787
 10
1032.848086160329
 20
1966.949893590282
 10
1032.389555215705
 20
1967.091733833022
 10
1031.937063143798
 20
1967.251796965876
 10
1031.491333835395
 20
1967.429826921977
 10
1031.053080362307
 20
1967.625538891372
 10
1030.623003836601
 20
1967.83861977666
 10
1030.201792288974
 20
1968.068728693879
 10
1029.790119568048
 20
1968.31549751785
 10
1029.388644262358
 20
1968.578531471095
 10
1028.99800864675
 20
1968.8574097554
 10
1028.618837654877
 20
1969.151686225
 10
1028.251737879441
 20
1969.460890100321
 10
1027.897296601772
 20
1969.78452672112
 10
1027.556080852304
 20
1970.122078337845
 10
1027.228636503448
 20
1970.473004939915
 10
1026.915487396311
 20
1970.836745119628
 10
1026.617134502662
 20
1971.21271697029
 10
1026.334055123487
 20
1971.600319017142
 10
1026.066702125404
 20
1971.998931179594
 10
1025.815503216179
 20
1972.407915763218
 10
1025.580860260479
 20
1972.826618479927
 10
1025.363148636981
 20
1973.254369494691
 10
1025.162716637838
 20
1973.690484497136
 10
1024.979884911492
 20
1974.134265796291
 10
1024.814945949704
 20
1974.585003436746
 10
1024.668163619628
 20
1975.041976334428
 10
1024.53977274168
 20
1975.504453430183
 10
1024.429978713875
 20
1975.971694859314
 10
1024.338957183237
 20
1976.442953135208
 10
1024.266853764798
 20
1976.917474345153
 10
1024.213783808647
 20
1977.394499356439
 10
1024.179832215392
 20
1977.873265030808
 10
1024.165053300339
 20
1978.353005445312
 10
1024.164353943099
 20
1978.482558850011
  0
LWPOLYLINE
  5
249
330
1D4
100
AcDbEntity
  8
P-SANR-FIXT
100
AcDbPolyline
 90
       23
 70
   128
 43
0.0
 10
1046.114353943099
 20
1966.482558850011
 10
1045.792235216927
 20
1966.482558850011
 10
1044.912182929758
 20
1966.482558850011
 10
1044.06764938
 20
1966.482558850011
 10
1043.259985641175
 20
1966.482558850011
 10
1042.490483802973
 20
1966.482558850011
 10
1041.760374904183
 20
1966.482558850011
 10
1041.070826963294
 20
1966.482558850011
 10
1040.422943109917
 20
1966.482558850011
 10
1039.817759820009
 20
1966.482558850011
 10
1039.256245257736
 20
1966.482558850011
 10
1038.739297726612
 20
1966.482558850011
 10
1038.267744232413
 20
1966.482558850011
 10
1037.842339160135
 20
1966.482558850011
 10
1037.463763067147
 20
1966.482558850011
 10
1037.132621594438
 20
1966.482558850011
 10
1036.849444497725
 20
1966.482558850011
 10
1036.614684799956
 20
1966.482558850011
 10
1036.428718066566
 20
1966.482558850011
 10
1036.291841804659
 20
1966.482558850011
 10
1036.204274987054
 20
1966.482558850011
 10
1036.166157701981
 20
1966.482558850011
 10
1036.164353943099
 20
1966.482558850011
  0
LWPOLYLINE
  5
24A
330
1D4
100
AcDbEntity
  8
P-SANR-FIXT
100
AcDbPolyline
 90
       41
 70
   128
 43
0.0
 10
1036.164353943099
 20
1966.482558850011
 10
1036.189110641941
 20
1966.482558850011
 10
1036.263341133033
 20
1966.482558850011
 10
1036.386926663422
 20
1966.482558850011
 10
1036.559669522623
 20
1966.482558850011
 10
1036.781293358912
 20
1966.482558850011
 10
1037.051443621428
 20
1966.482558850011
 10
1037.36968812738
 20
1966.482558850011
 10
1037.735517753447
 20
1966.482558850011
 10
1038.148347250267
 20
1966.482558850011
 10
1038.607516178709
 20
1966.482558850011
 10
1039.112289966441
 20
1966.482558850011
 10
1039.66186108308
 20
1966.482558850011
 10
1040.255350332076
 20
1966.482558850011
 10
1040.891808257234
 20
1966.482558850011
 10
1041.570216661644
 20
1966.482558850011
 10
1042.28949023658
 20
1966.482558850011
 10
1043.048478297757
 20
1966.482558850011
 10
1043.845966626188
 20
1966.482558850011
 10
1044.680679410668
 20
1966.482558850011
 10
1045.551281288804
 20
1966.482558850011
 10
1046.45637948331
 20
1966.482558850011
 10
1047.394526030153
 20
1966.482558850011
 10
1048.364220094984
 20
1966.482558850011
 10
1049.363910374156
 20
1966.482558850011
 10
1050.39199757648
 20
1966.482558850011
 10
1051.446836981744
 20
1966.482558850011
 10
1052.526741071922
 20
1966.482558850011
 10
1053.629982230835
 20
1966.482558850011
 10
1054.754795507975
 20
1966.482558850011
 10
1055.899381442046
 20
1966.482558850011
 10
1057.061908939719
 20
1966.482558850011
 10
1058.24051820499
 20
1966.482558850011
 10
1059.433323714458
 20
1966.482558850011
 10
1060.638417233759
 20
1966.482558850011
 10
1061.853870870336
 20
1966.482558850011
 10
1063.077740157653
 20
1966.482558850011
 10
1064.308067165928
 20
1966.482558850011
 10
1065.542883634404
 20
1966.482558850011
 10
1066.780214120145
 20
1966.482558850011
 10
1067.114353943098
 20
1966.482558850011
  0
LWPOLYLINE
  5
24B
330
1D4
100
AcDbEntity
  8
P-SANR-FIXT
100
AcDbPolyline
 90
       39
 70
   128
 43
0.0
 10
1087.714780473252
 20
1966.466567381524
 10
1087.515792906654
 20
1966.446602029281
 10
1087.317762910027
 20
1966.418695266889
 10
1087.121007289123
 20
1966.382891739218
 10
1086.925840810962
 20
1966.339248724271
 10
1086.732575700278
 20
1966.287836041565
 10
1086.541521140018
 20
1966.228735940423
 10
1086.352982776723
 20
1966.162042968401
 10
1086.167262231555
 20
1966.087863820025
 10
1085.984656617768
 20
1966.006317166111
 10
1085.805458065391
 20
1965.917533463908
 10
1085.62995325388
 20
1965.821654748399
 10
1085.458422953494
 20
1965.718834405078
 10
1085.291141576123
 20
1965.609236924559
 10
1085.128376736287
 20
1965.493037639433
 10
1084.970388823006
 20
1965.370422443766
 10
1084.817430583241
 20
1965.241587495716
 10
1084.669746717546
 20
1965.106738903716
 10
1084.527573488601
 20
1964.966092396747
 10
1084.391138343244
 20
1964.819872979218
 10
1084.260659548604
 20
1964.668314571004
 10
1084.136345842917
 20
1964.511659633229
 10
1084.018396101593
 20
1964.350158780374
 10
1083.906999019059
 20
1964.184070379352
 10
1083.802332806881
 20
1964.013660136175
 10
1083.704564908674
 20
1963.83920067088
 10
1083.613851732216
 20
1963.660971081395
 10
1083.53033839924
 20
1963.479256497042
 10
1083.454158513262
 20
1963.294347622395
 10
1083.385433945851
 20
1963.106540272205
 10
1083.324274641652
 20
1962.916134898171
 10
1083.270778442507
 20
1962.723436108273
 10
1083.225030930922
 20
1962.528752179468
 10
1083.187105293156
 20
1962.332394564512
 10
1083.15706220214
 20
1962.134677393702
 10
1083.13494972041
 20
1961.935916972333
 10
1083.120803223221
 20
1961.736431274679
 10
1083.114645341948
 20
1961.536539435303
 10
1083.114353943098
 20
1961.482558850011
  0
LWPOLYLINE
  5
24C
330
1D4
100
AcDbEntity
  8
P-SANR-FIXT
100
AcDbPolyline
 90
       39
 70
   128
 43
0.0
 10
1051.114353943099
 20
1961.482558850011
 10
1051.110354476404
 20
1961.682505520944
 10
1051.098362474612
 20
1961.882132319857
 10
1051.078397122368
 20
1962.081119886456
 10
1051.050490359977
 20
1962.279149883082
 10
1051.014686832305
 20
1962.475905503987
 10
1050.971043817359
 20
1962.671071982147
 10
1050.919631134653
 20
1962.864337092832
 10
1050.860531033511
 20
1963.055391653092
 10
1050.793838061488
 20
1963.243930016387
 10
1050.719658913113
 20
1963.429650561554
 10
1050.638112259199
 20
1963.612256175341
 10
1050.549328556995
 20
1963.791454727719
 10
1050.453449841487
 20
1963.96695953923
 10
1050.350629498166
 20
1964.138489839616
 10
1050.241032017647
 20
1964.305771216986
 10
1050.12483273252
 20
1964.468536056823
 10
1050.002217536854
 20
1964.626523970103
 10
1049.873382588803
 20
1964.779482209869
 10
1049.738533996803
 20
1964.927166075564
 10
1049.597887489835
 20
1965.069339304509
 10
1049.451668072305
 20
1965.205774449865
 10
1049.300109664092
 20
1965.336253244506
 10
1049.143454726316
 20
1965.460566950193
 10
1048.981953873461
 20
1965.578516691516
 10
1048.815865472439
 20
1965.68991377405
 10
1048.645455229263
 20
1965.794579986228
 10
1048.470995763967
 20
1965.892347884436
 10
1048.292766174482
 20
1965.983061060894
 10
1048.11105159013
 20
1966.06657439387
 10
1047.926142715482
 20
1966.142754279847
 10
1047.738335365293
 20
1966.211478847259
 10
1047.547929991259
 20
1966.272638151457
 10
1047.355231201361
 20
1966.326134350602
 10
1047.160547272556
 20
1966.371881862188
 10
1046.9641896576
 20
1966.409807499953
 10
1046.76647248679
 20
1966.43985059097
 10
1046.56771206542
 20
1966.461963072699
 10
1046.368226367766
 20
1966.476109569889
  0
LINE
  5
24D
330
1D4
100
AcDbEntity
  8
P-SANR-FIXT
100
AcDbLine
 10
1106.614353943099
 20
2061.982558850012
 30
0.0
 11
1106.114353943099
 21
2062.482558850012
 31
0.0
  0
LINE
  5
24E
330
1D4
100
AcDbEntity
  8
P-SANR-FIXT
100
AcDbLine
 10
1028.114353943099
 20
2062.482558850012
 30
0.0
 11
1027.614353943099
 21
2061.982558850012
 31
0.0
  0
LINE
  5
24F
330
1D4
100
AcDbEntity
  8
P-SANR-FIXT
100
AcDbLine
 10
1081.729510625358
 20
1954.982558850011
 30
0.0
 11
1083.053469112567
 21
1956.306517337219
 31
0.0
  0
LINE
  5
250
330
1D4
100
AcDbEntity
  8
P-SANR-FIXT
100
AcDbLine
 10
1083.068914688169
 20
1956.321962912822
 30
0.0
 11
1083.114353943098
 21
1956.367402167751
 31
0.0
  0
LINE
  5
251
330
1D4
100
AcDbEntity
  8
P-SANR-FIXT
100
AcDbLine
 10
1051.114353943099
 20
1956.367402167751
 30
0.0
 11
1051.159793198029
 21
1956.321962912822
 31
0.0
  0
LINE
  5
252
330
1D4
100
AcDbEntity
  8
P-SANR-FIXT
100
AcDbLine
 10
1051.175238773631
 20
1956.306517337219
 30
0.0
 11
1052.499197260839
 21
1954.982558850011
 31
0.0
  0
LINE
  5
253
330
1D4
100
AcDbEntity
  8
P-SANR-FIXT
100
AcDbLine
 10
1067.114353943096
 20
2062.482558850011
 30
0.0
 11
1106.114353943097
 21
2062.482558850011
 31
0.0
  0
LINE
  5
254
330
1D4
100
AcDbEntity
  8
P-SANR-FIXT
100
AcDbLine
 10
1028.114353943097
 20
2062.482558850011
 30
0.0
 11
1067.114353943096
 21
2062.482558850011
 31
0.0
  0
LINE
  5
255
330
1D4
100
AcDbEntity
  8
P-SANR-FIXT
100
AcDbLine
 10
1106.614353943097
 20
2061.982558850011
 30
0.0
 11
1067.114353943097
 21
2061.982558850011
 31
0.0
  0
LINE
  5
256
330
1D4
100
AcDbEntity
  8
P-SANR-FIXT
100
AcDbLine
 10
1067.114353943097
 20
2061.982558850011
 30
0.0
 11
1027.614353943097
 21
2061.982558850011
 31
0.0
  0
LINE
  5
257
330
1D4
100
AcDbEntity
  8
P-SANR-FIXT
100
AcDbLine
 10
1067.114353943096
 20
2048.482558850011
 30
0.0
 11
1106.614353943097
 21
2048.482558850011
 31
0.0
  0
LINE
  5
258
330
1D4
100
AcDbEntity
  8
P-SANR-FIXT
100
AcDbLine
 10
1027.614353943097
 20
2048.482558850011
 30
0.0
 11
1067.114353943096
 21
2048.482558850011
 31
0.0
  0
SPLINE
  5
259
330
1D4
100
AcDbEntity
  8
P-SANR-FIXT
100
AcDbSpline
210
0.0
220
0.0
230
1.0
 70
    24
 71
     3
 72
     8
 73
     4
 74
     0
 42
0.000000001
 43
0.0000000001
 40
-0.2572950853273911
 40
-0.2572950853273911
 40
-0.2572950853273911
 40
-0.2572950853273911
 40
-0.049783217223071
 40
-0.049783217223071
 40
-0.049783217223071
 40
-0.049783217223071
 10
1076.152895975898
 20
2017.858164941876
 30
0.0
 10
1076.795786050865
 20
2017.486992184034
 30
0.0
 10
1077.436045086846
 20
2017.11733845726
 30
0.0
 10
1078.075449207591
 20
2016.748178316026
 30
0.0
  0
SPLINE
  5
25A
330
1D4
100
AcDbEntity
  8
P-SANR-FIXT
100
AcDbSpline
210
0.0
220
0.0
230
1.0
 70
    24
 71
     3
 72
     8
 73
     4
 74
     0
 42
0.000000001
 43
0.0000000001
 40
-0.8470608892458267
 40
-0.8470608892458267
 40
-0.8470608892458267
 40
-0.8470608892458267
 40
-0.7424855383229203
 40
-0.7424855383229203
 40
-0.7424855383229203
 40
-0.7424855383229203
 10
1057.107339088654
 20
2017.299016897599
 30
0.0
 10
1057.430361250724
 20
2017.485513829824
 30
0.0
 10
1057.753442889449
 20
2017.672045100912
 30
0.0
 10
1058.076965729398
 20
2017.858831099646
 30
0.0
  0
LINE
  5
25B
330
1D4
100
AcDbEntity
  8
P-SANR-FIXT
100
AcDbLine
 10
1078.535515618222
 20
2016.482558850002
 30
0.0
 11
1110.064353943096
 21
2016.482558850002
 31
0.0
  0
LINE
  5
25C
330
1D4
100
AcDbEntity
  8
P-SANR-FIXT
100
AcDbLine
 10
1077.118303181299
 20
1982.666003719294
 30
0.0
 11
1076.149799275491
 21
1982.109779949974
 31
0.0
  0
LINE
  5
25D
330
1D4
100
AcDbEntity
  8
P-SANR-FIXT
100
AcDbLine
 10
1024.164353943097
 20
2016.482558850004
 30
0.0
 11
1055.693192267971
 21
2016.482558850004
 31
0.0
  0
LWPOLYLINE
  5
25E
330
1D4
100
AcDbEntity
  8
P-SANR-FIXT
100
AcDbPolyline
 90
        3
 70
   128
 43
0.0
 10
1058.076871661155
 20
1982.110950178493
 10
1056.5890341835
 20
1982.965344278936
 10
1056.15027195928
 20
1983.217252030506
  0
LINE
  5
25F
330
1D4
100
AcDbEntity
  8
P-SANR-FIXT
100
AcDbLine
 10
1067.114353943097
 20
1956.367402167751
 30
0.0
 11
1083.114353943096
 21
1956.367402167751
 31
0.0
  0
LINE
  5
260
330
1D4
100
AcDbEntity
  8
P-SANR-FIXT
100
AcDbLine
 10
1051.114353943097
 20
1956.367402167751
 30
0.0
 11
1067.114353943097
 21
1956.367402167751
 31
0.0
  0
LINE
  5
261
330
1D4
100
AcDbEntity
  8
P-SANR-FIXT
100
AcDbLine
 10
1081.729510625356
 20
1954.98255885001
 30
0.0
 11
1067.114353943097
 21
1954.98255885001
 31
0.0
  0
LINE
  5
262
330
1D4
100
AcDbEntity
  8
P-SANR-FIXT
100
AcDbLine
 10
1067.114353943097
 20
1954.98255885001
 30
0.0
 11
1052.499197260837
 21
1954.98255885001
 31
0.0
  0
ARC
  5
263
330
1D4
100
AcDbEntity
  8
P-SANR-FIXT
100
AcDbCircle
 10
1067.114353943096
 20
1999.982558850011
 30
0.0
 40
22.00000000000052
100
AcDbArc
 50
24.61997732865857
 51
35.38002267134078
  0
SPLINE
  5
264
330
1D4
100
AcDbEntity
  8
P-SANR-FIXT
100
AcDbSpline
210
0.0
220
0.0
230
1.0
 70
    24
 71
     3
 72
     9
 73
     5
 74
     0
 42
0.000000001
 43
0.0000000001
 40
-1.0
 40
-1.0
 40
-1.0
 40
-1.0
 40
-0.5
 40
0.0
 40
0.0
 40
0.0
 40
0.0
 10
1085.051607876291
 20
2012.720491230743
 30
0.0
 10
1083.748018401339
 20
2013.47311896502
 30
0.0
 10
1081.121553270853
 20
2014.989509315123
 30
0.0
 10
1078.456515779209
 20
2016.528169428324
 30
0.0
 10
1077.114353943096
 20
2017.3030669257
 30
0.0
  0
SPLINE
  5
265
330
1D4
100
AcDbEntity
  8
P-SANR-FIXT
100
AcDbSpline
210
0.0
220
0.0
230
1.0
 70
    24
 71
     3
 72
     9
 73
     5
 74
     0
 42
0.000000001
 43
0.0000000001
 40
-1.0
 40
-1.0
 40
-1.0
 40
-1.0
 40
-0.5
 40
0.0
 40
0.0
 40
0.0
 40
0.0
 10
1087.114353943097
 20
1999.982558850011
 30
0.0
 10
1087.114353943097
 20
2001.532353844762
 30
0.0
 10
1087.114353943097
 20
2004.609674071165
 30
0.0
 10
1087.114353943097
 20
2007.64245477137
 30
0.0
 10
1087.114353943097
 20
2009.147710239923
 30
0.0
  0
ARC
  5
266
330
1D4
100
AcDbEntity
  8
P-SANR-FIXT
100
AcDbCircle
 10
1067.114353943096
 20
1999.982558850011
 30
0.0
 40
22.00000000000049
100
AcDbArc
 50
324.6199773286587
 51
335.3800226713407
  0
SPLINE
  5
267
330
1D4
100
AcDbEntity
  8
P-SANR-FIXT
100
AcDbSpline
210
0.0
220
0.0
230
1.0
 70
    24
 71
     3
 72
     9
 73
     5
 74
     0
 42
0.000000001
 43
0.0000000001
 40
-1.0
 40
-1.0
 40
-1.0
 40
-1.0
 40
-0.5
 40
0.0
 40
0.0
 40
0.0
 40
0.0
 10
1087.114353943096
 20
1990.817407460098
 30
0.0
 10
1087.114353943096
 20
1992.322662928651
 30
0.0
 10
1087.114353943096
 20
1995.355443628857
 30
0.0
 10
1087.114353943096
 20
1998.432763855259
 30
0.0
 10
1087.114353943097
 20
1999.982558850011
 30
0.0
  0
SPLINE
  5
268
330
1D4
100
AcDbEntity
  8
P-SANR-FIXT
100
AcDbSpline
210
0.0
220
0.0
230
1.0
 70
    24
 71
     3
 72
     9
 73
     5
 74
     0
 42
0.000000001
 43
0.0000000001
 40
-1.0
 40
-1.0
 40
-1.0
 40
-1.0
 40
-0.5
 40
0.0
 40
0.0
 40
0.0
 40
0.0
 10
1077.114353943096
 20
1982.662050774322
 30
0.0
 10
1078.456515779208
 20
1983.436948271697
 30
0.0
 10
1081.121553270853
 20
1984.975608384899
 30
0.0
 10
1083.748018401338
 20
1986.491998735002
 30
0.0
 10
1085.051607876291
 20
1987.244626469278
 30
0.0
  0
ARC
  5
269
330
1D4
100
AcDbEntity
  8
P-SANR-FIXT
100
AcDbCircle
 10
1067.114353943096
 20
1999.982558850011
 30
0.0
 40
21.9999999999999
100
AcDbArc
 50
270.0000000000002
 51
275.380022671341
  0
SPLINE
  5
26A
330
1D4
100
AcDbEntity
  8
P-SANR-FIXT
100
AcDbSpline
210
0.0
220
0.0
230
1.0
 70
    24
 71
     3
 72
     9
 73
     5
 74
     0
 42
0.000000001
 43
0.0000000001
 40
-1.0
 40
-1.0
 40
-1.0
 40
-1.0
 40
-0.5
 40
0.0
 40
0.0
 40
0.0
 40
0.0
 10
1069.177100009902
 20
1978.079475079366
 30
0.0
 10
1070.480689484854
 20
1978.832102813642
 30
0.0
 10
1073.107154615339
 20
1980.348493163745
 30
0.0
 10
1075.772192106984
 20
1981.887153276946
 30
0.0
 10
1077.114353943096
 20
1982.662050774322
 30
0.0
  0
SPLINE
  5
26B
330
1D4
100
AcDbEntity
  8
P-SANR-FIXT
100
AcDbSpline
210
0.0
220
0.0
230
1.0
 70
    24
 71
     3
 72
     9
 73
     5
 74
     0
 42
0.000000001
 43
0.0000000001
 40
-1.0
 40
-1.0
 40
-1.0
 40
-1.0
 40
-0.5
 40
0.0
 40
0.0
 40
0.0
 40
0.0
 10
1077.114353943096
 20
2017.3030669257
 30
0.0
 10
1075.772192106984
 20
2018.077964423075
 30
0.0
 10
1073.10715461534
 20
2019.616624536276
 30
0.0
 10
1070.480689484855
 20
2021.133014886379
 30
0.0
 10
1069.177100009902
 20
2021.885642620656
 30
0.0
  0
ARC
  5
26C
330
1D4
100
AcDbEntity
  8
P-SANR-FIXT
100
AcDbCircle
 10
1067.114353943096
 20
1999.982558850011
 30
0.0
 40
22.00000000000045
100
AcDbArc
 50
84.61997732865881
 51
90.0
  0
ARC
  5
26D
330
1D4
100
AcDbEntity
  8
P-SANR-FIXT
100
AcDbCircle
 10
1067.114353943096
 20
1999.982558850011
 30
0.0
 40
22.00000000000021
100
AcDbArc
 50
204.6199773286589
 51
215.3800226713411
  0
SPLINE
  5
26E
330
1D4
100
AcDbEntity
  8
P-SANR-FIXT
100
AcDbSpline
210
0.0
220
0.0
230
1.0
 70
    24
 71
     3
 72
     9
 73
     5
 74
     0
 42
0.000000001
 43
0.0000000001
 40
-1.0
 40
-1.0
 40
-1.0
 40
-1.0
 40
-0.5
 40
0.0
 40
0.0
 40
0.0
 40
0.0
 10
1049.177100009902
 20
1987.244626469278
 30
0.0
 10
1050.480689484855
 20
1986.491998735002
 30
0.0
 10
1053.107154615339
 20
1984.975608384899
 30
0.0
 10
1055.772192106984
 20
1983.436948271697
 30
0.0
 10
1057.114353943096
 20
1982.662050774322
 30
0.0
  0
SPLINE
  5
26F
330
1D4
100
AcDbEntity
  8
P-SANR-FIXT
100
AcDbSpline
210
0.0
220
0.0
230
1.0
 70
    24
 71
     3
 72
     9
 73
     5
 74
     0
 42
0.000000001
 43
0.0000000001
 40
-1.0
 40
-1.0
 40
-1.0
 40
-1.0
 40
-0.5
 40
0.0
 40
0.0
 40
0.0
 40
0.0
 10
1047.114353943096
 20
1999.982558850011
 30
0.0
 10
1047.114353943096
 20
1998.43276385526
 30
0.0
 10
1047.114353943096
 20
1995.355443628857
 30
0.0
 10
1047.114353943096
 20
1992.322662928652
 30
0.0
 10
1047.114353943096
 20
1990.817407460098
 30
0.0
  0
ARC
  5
270
330
1D4
100
AcDbEntity
  8
P-SANR-FIXT
100
AcDbCircle
 10
1067.114353943096
 20
1999.982558850011
 30
0.0
 40
22.00000000000017
100
AcDbArc
 50
144.6199773286592
 51
155.3800226713412
  0
SPLINE
  5
271
330
1D4
100
AcDbEntity
  8
P-SANR-FIXT
100
AcDbSpline
210
0.0
220
0.0
230
1.0
 70
    24
 71
     3
 72
     9
 73
     5
 74
     0
 42
0.000000001
 43
0.0000000001
 40
-1.0
 40
-1.0
 40
-1.0
 40
-1.0
 40
-0.5
 40
0.0
 40
0.0
 40
0.0
 40
0.0
 10
1047.114353943097
 20
2009.147710239924
 30
0.0
 10
1047.114353943097
 20
2007.64245477137
 30
0.0
 10
1047.114353943097
 20
2004.609674071165
 30
0.0
 10
1047.114353943097
 20
2001.532353844762
 30
0.0
 10
1047.114353943096
 20
1999.982558850011
 30
0.0
  0
SPLINE
  5
272
330
1D4
100
AcDbEntity
  8
P-SANR-FIXT
100
AcDbSpline
210
0.0
220
0.0
230
1.0
 70
    24
 71
     3
 72
     9
 73
     5
 74
     0
 42
0.000000001
 43
0.0000000001
 40
-1.0
 40
-1.0
 40
-1.0
 40
-1.0
 40
-0.5
 40
0.0
 40
0.0
 40
0.0
 40
0.0
 10
1057.114353943097
 20
2017.3030669257
 30
0.0
 10
1055.772192106984
 20
2016.528169428324
 30
0.0
 10
1053.10715461534
 20
2014.989509315123
 30
0.0
 10
1050.480689484855
 20
2013.47311896502
 30
0.0
 10
1049.177100009902
 20
2012.720491230743
 30
0.0
  0
SPLINE
  5
273
330
1D4
100
AcDbEntity
  8
P-SANR-FIXT
100
AcDbSpline
210
0.0
220
0.0
230
1.0
 70
    24
 71
     3
 72
     9
 73
     5
 74
     0
 42
0.000000001
 43
0.0000000001
 40
-1.0
 40
-1.0
 40
-1.0
 40
-1.0
 40
-0.5
 40
0.0
 40
0.0
 40
0.0
 40
0.0
 10
1057.114353943096
 20
1982.662050774322
 30
0.0
 10
1058.456515779209
 20
1981.887153276946
 30
0.0
 10
1061.121553270853
 20
1980.348493163745
 30
0.0
 10
1063.748018401338
 20
1978.832102813642
 30
0.0
 10
1065.051607876291
 20
1978.079475079366
 30
0.0
  0
ARC
  5
274
330
1D4
100
AcDbEntity
  8
P-SANR-FIXT
100
AcDbCircle
 10
1067.114353943096
 20
1999.982558850011
 30
0.0
 40
22.00000000000023
100
AcDbArc
 50
264.6199773286589
 51
269.9999999999997
  0
ARC
  5
275
330
1D4
100
AcDbEntity
  8
P-SANR-FIXT
100
AcDbCircle
 10
1067.114353943096
 20
1999.982558850011
 30
0.0
 40
22.00000000000011
100
AcDbArc
 50
90.0
 51
95.38002267134071
  0
SPLINE
  5
276
330
1D4
100
AcDbEntity
  8
P-SANR-FIXT
100
AcDbSpline
210
0.0
220
0.0
230
1.0
 70
    24
 71
     3
 72
     9
 73
     5
 74
     0
 42
0.000000001
 43
0.0000000001
 40
-1.0
 40
-1.0
 40
-1.0
 40
-1.0
 40
-0.5
 40
0.0
 40
0.0
 40
0.0
 40
0.0
 10
1065.051607876291
 20
2021.885642620656
 30
0.0
 10
1063.748018401339
 20
2021.133014886379
 30
0.0
 10
1061.121553270854
 20
2019.616624536276
 30
0.0
 10
1058.456515779209
 20
2018.077964423075
 30
0.0
 10
1057.114353943097
 20
2017.3030669257
 30
0.0
  0
ARC
  5
277
330
1D4
100
AcDbEntity
  8
P-SANR-FIXT
100
AcDbCircle
 10
1067.114353943096
 20
1999.982558850011
 30
0.0
 40
19.99999999999998
100
AcDbArc
 50
270.0000000000003
 51
300.0000000000003
  0
ARC
  5
278
330
1D4
100
AcDbEntity
  8
P-SANR-FIXT
100
AcDbCircle
 10
1067.114353943096
 20
1999.982558850011
 30
0.0
 40
20.00000000000011
100
AcDbArc
 50
300.0
 51
0.0000000000003244
  0
ARC
  5
279
330
1D4
100
AcDbEntity
  8
P-SANR-FIXT
100
AcDbCircle
 10
1067.114353943096
 20
1999.982558850011
 30
0.0
 40
20.00000000000018
100
AcDbArc
 50
0.0
 51
59.9999999999996
  0
ARC
  5
27A
330
1D4
100
AcDbEntity
  8
P-SANR-FIXT
100
AcDbCircle
 10
1067.114353943096
 20
1999.982558850011
 30
0.0
 40
20.00000000000023
100
AcDbArc
 50
59.9999999999995
 51
90.0
  0
ARC
  5
27B
330
1D4
100
AcDbEntity
  8
P-SANR-FIXT
100
AcDbCircle
 10
1067.114353943096
 20
1999.982558850011
 30
0.0
 40
20.00000000000015
100
AcDbArc
 50
90.0
 51
119.9999999999991
  0
ARC
  5
27C
330
1D4
100
AcDbEntity
  8
P-SANR-FIXT
100
AcDbCircle
 10
1067.114353943096
 20
1999.982558850011
 30
0.0
 40
20.0
100
AcDbArc
 50
119.9999999999996
 51
180.0
  0
ARC
  5
27D
330
1D4
100
AcDbEntity
  8
P-SANR-FIXT
100
AcDbCircle
 10
1067.114353943096
 20
1999.982558850011
 30
0.0
 40
19.99999999999987
100
AcDbArc
 50
180.0
 51
239.9999999999995
  0
ARC
  5
27E
330
1D4
100
AcDbEntity
  8
P-SANR-FIXT
100
AcDbCircle
 10
1067.114353943096
 20
1999.982558850011
 30
0.0
 40
20.0
100
AcDbArc
 50
239.9999999999995
 51
269.9999999999997
  0
ARC
  5
27F
330
1D4
100
AcDbEntity
  8
P-SANR-FIXT
100
AcDbCircle
 10
1067.114353943096
 20
1999.982558850011
 30
0.0
 40
12.7000000000005
100
AcDbArc
 50
270.0000000000007
 51
90.0
  0
ARC
  5
280
330
1D4
100
AcDbEntity
  8
P-SANR-FIXT
100
AcDbCircle
 10
1067.114353943096
 20
1999.982558850011
 30
0.0
 40
12.70000000000027
100
AcDbArc
 50
90.0
 51
269.9999999999997
  0
ENDBLK
  5
282
330
1D4
100
AcDbEntity
  8
0
100
AcDbBlockEnd
  0
ENDSEC
  0
SECTION
  2
ENTITIES
  0
INSERT
  5
156
330
71
100
AcDbEntity
  8
P-SANR-FIXT
100
AcDbBlockReference
  2
Automatic flow rate regulator valve_Caleffi_121 DN15 - 1_2__-859151-Est - Idraulica
 10
0.0
 20
0.0
 30
0.0
1001
REVIT
1002
{
1070
     1
1000
863131
1002
}
1002
{
1070
     5
1000
859151
1002
}
1002
{
1070
     2
1000
-2001160
1002
}
  0
INSERT
  5
1D3
330
71
100
AcDbEntity
  8
P-SANR-FIXT
100
AcDbBlockReference
  2
Automatic flow rate regulator valve_Caleffi_121 DN15 - 1_2__-V1-Est - Idraulica
 10
0.0
 20
0.0
 30
0.0
1001
REVIT
1002
{
1070
     1
1000
863152
1002
}
1002
{
1070
     5
1000
859151
1002
}
1002
{
1070
     2
1000
-2001160
1002
}
  0
INSERT
  5
283
330
71
100
AcDbEntity
  8
P-SANR-FIXT
100
AcDbBlockReference
  2
Automatic flow rate regulator valve_Caleffi_121 DN15 - 1_2__-V2-Est - Idraulica
 10
0.0
 20
0.0
 30
0.0
1001
REVIT
1002
{
1070
     1
1000
863172
1002
}
1002
{
1070
     5
1000
859151
1002
}
1002
{
1070
     2
1000
-2001160
1002
}
  0
ENDSEC
  0
SECTION
  2
OBJECTS
  0
DICTIONARY
  5
C
330
0
100
AcDbDictionary
281
     1
  3
ACAD_CIP_PREVIOUS_PRODUCT_INFO
350
7A
  3
ACAD_COLOR
350
63
  3
ACAD_DETAILVIEWSTYLE
350
6B
  3
ACAD_GROUP
350
D
  3
ACAD_IMAGE_VARS
350
7B
  3
ACAD_LAYOUT
350
62
  3
ACAD_MATERIAL
350
10
  3
ACAD_MLEADERSTYLE
350
66
  3
ACAD_MLINESTYLE
350
5F
  3
ACAD_PLOTSETTINGS
350
61
  3
ACAD_PLOTSTYLENAME
350
E
  3
ACAD_SCALELIST
350
42
  3
ACAD_SECTIONVIEWSTYLE
350
68
  3
ACAD_TABLESTYLE
350
64
  3
ACAD_VISUALSTYLE
350
29
  3
ACDB_RECOMPOSE_DATA
350
28D
  3
AcDbVariableDictionary
350
7C
  3
REVIT_DICTIONARY
350
285
  0
DICTIONARY
  5
289
330
71
100
AcDbDictionary
280
     1
281
     1
  3
ACAD_SORTENTS
360
28A
  0
XRECORD
  5
7A
102
{ACAD_REACTORS
330
C
102
}
330
C
100
AcDbXrecord
280
     1
300
RVT
300
2013
300
RVT2013
  0
DICTIONARY
  5
63
102
{ACAD_REACTORS
330
C
102
}
330
C
100
AcDbDictionary
281
     1
  0
DICTIONARY
  5
6B
102
{ACAD_REACTORS
330
C
102
}
330
C
100
AcDbDictionary
281
     1
  3
Imperial24
350
6C
  0
DICTIONARY
  5
D
102
{ACAD_REACTORS
330
C
102
}
330
C
100
AcDbDictionary
281
     1
  0
RASTERVARIABLES
  5
7B
102
{ACAD_REACTORS
330
C
102
}
330
C
100
AcDbRasterVariables
 90
        0
 70
     0
 71
     1
 72
     1
  0
DICTIONARY
  5
62
102
{ACAD_REACTORS
330
C
102
}
330
C
100
AcDbDictionary
281
     1
  3
Layout1
350
70
  3
Layout2
350
78
  3
Model
350
74
  0
DICTIONARY
  5
10
102
{ACAD_REACTORS
330
C
102
}
330
C
100
AcDbDictionary
281
     1
  3
ByBlock
350
19
  3
ByLayer
350
11
  3
Global
350
21
  0
DICTIONARY
  5
66
102
{ACAD_REACTORS
330
C
102
}
330
C
100
AcDbDictionary
281
     1
  3
Standard
350
67
  0
DICTIONARY
  5
5F
102
{ACAD_REACTORS
330
C
102
}
330
C
100
AcDbDictionary
281
     1
  3
Standard
350
60
  0
DICTIONARY
  5
61
102
{ACAD_REACTORS
330
C
102
}
330
C
100
AcDbDictionary
281
     1
  0
ACDBDICTIONARYWDFLT
  5
E
102
{ACAD_REACTORS
330
C
102
}
330
C
100
AcDbDictionary
281
     1
  3
Normal
350
F
100
AcDbDictionaryWithDefault
340
F
  0
DICTIONARY
  5
42
102
{ACAD_REACTORS
330
C
102
}
330
C
100
AcDbDictionary
281
     1
  3
A0
350
43
  3
A1
350
44
  3
A2
350
45
  3
A3
350
46
  3
A4
350
47
  3
A5
350
48
  3
A6
350
49
  3
A7
350
4A
  3
A8
350
4B
  3
A9
350
4C
  3
B0
350
4D
  3
B1
350
4E
  3
B2
350
4F
  3
B3
350
50
  3
B4
350
51
  3
B5
350
52
  3
B6
350
53
  0
DICTIONARY
  5
68
102
{ACAD_REACTORS
330
C
102
}
330
C
100
AcDbDictionary
281
     1
  3
Imperial24
350
6A
  0
DICTIONARY
  5
64
102
{ACAD_REACTORS
330
C
102
}
330
C
100
AcDbDictionary
281
     1
  3
Standard
350
65
  0
DICTIONARY
  5
29
102
{ACAD_REACTORS
330
C
102
}
330
C
100
AcDbDictionary
281
     1
  3
2dWireframe
350
2F
  3
Basic
350
2E
  3
Brighten
350
35
  3
ColorChange
350
39
  3
Conceptual
350
32
  3
Dim
350
34
  3
EdgeColorOff
350
41
  3
Facepattern
350
38
  3
Flat
350
2A
  3
FlatWithEdges
350
2B
  3
Gouraud
350
2C
  3
GouraudWithEdges
350
2D
  3
Hidden
350
31
  3
JitterOff
350
3F
  3
Linepattern
350
37
  3
OverhangOff
350
40
  3
Realistic
350
33
  3
Shaded
350
3E
  3
Shaded with edges
350
3D
  3
Shades of Gray
350
3A
  3
Sketchy
350
3B
  3
Thicken
350
36
  3
Wireframe
350
30
  3
X-Ray
350
3C
  0
XRECORD
  5
28D
102
{ACAD_REACTORS
330
C
102
}
330
C
100
AcDbXrecord
280
     1
 90
        1
330
65
  0
DICTIONARY
  5
7C
102
{ACAD_REACTORS
330
C
102
}
330
C
100
AcDbDictionary
281
     1
  3
CANNOSCALE
350
81
  3
CMLEADERSTYLE
350
7E
  3
CTABLESTYLE
350
7D
  3
CVIEWDETAILSTYLE
350
7F
  3
CVIEWSECTIONSTYLE
350
80
  0
DICTIONARY
  5
285
102
{ACAD_REACTORS
330
C
102
}
330
C
100
AcDbDictionary
281
     1
  3
DRAWING_TOOL
350
288
  3
REVIT_CATEGORY_MAPPING
350
287
  3
REVIT_TYPE_MAPPING
350
286
  0
SORTENTSTABLE
  5
28A
102
{ACAD_REACTORS
330
289
102
}
330
289
100
AcDbSortentsTable
330
71
  0
ACDBDETAILVIEWSTYLE
  5
6C
102
{ACAD_REACTORS
330
6B
102
}
330
6B
100
AcDbModelDocViewStyle
 70
     0
  3
Imperial24
290
     1
100
AcDbDetailViewStyle
 70
     0
 71
     0
 90
        3
 71
     1
340
55
 62
   256
 40
0.24
340
0
 62
   256
 40
0.24
300

 40
0.36
280
     3
 71
     2
340
5D
 90
       25
 62
   256
 71
     3
340
55
 62
   256
 40
0.24
 90
        1
 40
0.75
 90
        1
300
%<\AcVar ViewType \f "%tc1">% %<\AcVar ViewDetailId>%\PSCALA %<\AcVar ViewScale \f "%sn">%
 71
     4
340
5D
 90
       25
 62
   256
340
5D
 90
       25
 62
   256
280
     0
  0
LAYOUT
  5
70
102
{ACAD_REACTORS
330
62
102
}
330
62
100
AcDbPlotSettings
  1

  2

  4

  6

 40
0.0
 41
0.0
 42
0.0
 43
0.0
 44
0.0
 45
0.0
 46
0.0
 47
0.0
 48
0.0
 49
0.0
140
0.0
141
0.0
142
1.0
143
1.0
 70
   688
 72
     0
 73
     0
 74
     5
  7

 75
    16
147
1.0
 76
     0
 77
     2
 78
   300
148
0.0
149
0.0
100
AcDbLayout
  1
Layout1
 70
     1
 71
     1
 10
0.0
 20
0.0
 11
12.0
 21
9.0
 12
0.0
 22
0.0
 32
0.0
 14
0.0
 24
0.0
 34
0.0
 15
0.0
 25
0.0
 35
0.0
146
0.0
 13
0.0
 23
0.0
 33
0.0
 16
1.0
 26
0.0
 36
0.0
 17
0.0
 27
1.0
 37
0.0
 76
     0
330
6D
  0
LAYOUT
  5
78
102
{ACAD_REACTORS
330
62
102
}
330
62
100
AcDbPlotSettings
  1

  2

  4

  6

 40
0.0
 41
0.0
 42
0.0
 43
0.0
 44
0.0
 45
0.0
 46
0.0
 47
0.0
 48
0.0
 49
0.0
140
0.0
141
0.0
142
1.0
143
1.0
 70
   688
 72
     0
 73
     0
 74
     5
  7

 75
    16
147
1.0
 76
     0
 77
     2
 78
   300
148
0.0
149
0.0
100
AcDbLayout
  1
Layout2
 70
     1
 71
     2
 10
0.0
 20
0.0
 11
12.0
 21
9.0
 12
0.0
 22
0.0
 32
0.0
 14
0.0
 24
0.0
 34
0.0
 15
0.0
 25
0.0
 35
0.0
146
0.0
 13
0.0
 23
0.0
 33
0.0
 16
1.0
 26
0.0
 36
0.0
 17
0.0
 27
1.0
 37
0.0
 76
     0
330
75
  0
LAYOUT
  5
74
102
{ACAD_REACTORS
330
62
102
}
330
62
100
AcDbPlotSettings
  1

  2

  4

  6

 40
0.0
 41
0.0
 42
0.0
 43
0.0
 44
0.0
 45
0.0
 46
0.0
 47
0.0
 48
0.0
 49
0.0
140
0.0
141
0.0
142
1.0
143
1.0
 70
  1712
 72
     0
 73
     0
 74
     0
  7

 75
     0
147
1.0
 76
     0
 77
     2
 78
   300
148
0.0
149
0.0
100
AcDbLayout
  1
Model
 70
     1
 71
     0
 10
0.0
 20
0.0
 11
12.0
 21
9.0
 12
0.0
 22
0.0
 32
0.0
 14
0.0
 24
0.0
 34
0.0
 15
0.0
 25
0.0
 35
0.0
146
0.0
 13
0.0
 23
0.0
 33
0.0
 16
1.0
 26
0.0
 36
0.0
 17
0.0
 27
1.0
 37
0.0
 76
     0
330
71
  0
MATERIAL
  5
19
102
{ACAD_XDICTIONARY
360
1A
102
}
102
{ACAD_REACTORS
330
10
102
}
330
10
100
AcDbMaterial
  1
ByBlock
 72
     0
 43
0.0208333333333333
 43
0.0
 43
0.0
 43
0.0
 43
0.0
 43
0.0208333333333333
 43
0.0
 43
0.0
 43
0.0
 43
0.0
 43
1.0
 43
0.0
 43
0.0
 43
0.0
 43
0.0
 43
1.0
 77
     0
 47
0.0208333333333333
 47
0.0
 47
0.0
 47
0.0
 47
0.0
 47
0.0208333333333333
 47
0.0
 47
0.0
 47
0.0
 47
0.0
 47
1.0
 47
0.0
 47
0.0
 47
0.0
 47
0.0
 47
1.0
171
     0
 49
0.0208333333333333
 49
0.0
 49
0.0
 49
0.0
 49
0.0
 49
0.0208333333333333
 49
0.0
 49
0.0
 49
0.0
 49
0.0
 49
1.0
 49
0.0
 49
0.0
 49
0.0
 49
0.0
 49
1.0
175
     0
142
0.0208333333333333
142
0.0
142
0.0
142
0.0
142
0.0
142
0.0208333333333333
142
0.0
142
0.0
142
0.0
142
0.0
142
1.0
142
0.0
142
0.0
142
0.0
142
0.0
142
1.0
179
     0
144
0.0208333333333333
144
0.0
144
0.0
144
0.0
144
0.0
144
0.0208333333333333
144
0.0
144
0.0
144
0.0
144
0.0
144
1.0
144
0.0
144
0.0
144
0.0
144
0.0
144
1.0
147
0.0208333333333333
147
0.0
147
0.0
147
0.0
147
0.0
147
0.0208333333333333
147
0.0
147
0.0
147
0.0
147
0.0
147
1.0
147
0.0
147
0.0
147
0.0
147
0.0
147
1.0
  0
MATERIAL
  5
11
102
{ACAD_XDICTIONARY
360
12
102
}
102
{ACAD_REACTORS
330
10
102
}
330
10
100
AcDbMaterial
  1
ByLayer
 72
     0
 43
0.0208333333333333
 43
0.0
 43
0.0
 43
0.0
 43
0.0
 43
0.0208333333333333
 43
0.0
 43
0.0
 43
0.0
 43
0.0
 43
1.0
 43
0.0
 43
0.0
 43
0.0
 43
0.0
 43
1.0
 77
     0
 47
0.0208333333333333
 47
0.0
 47
0.0
 47
0.0
 47
0.0
 47
0.0208333333333333
 47
0.0
 47
0.0
 47
0.0
 47
0.0
 47
1.0
 47
0.0
 47
0.0
 47
0.0
 47
0.0
 47
1.0
171
     0
 49
0.0208333333333333
 49
0.0
 49
0.0
 49
0.0
 49
0.0
 49
0.0208333333333333
 49
0.0
 49
0.0
 49
0.0
 49
0.0
 49
1.0
 49
0.0
 49
0.0
 49
0.0
 49
0.0
 49
1.0
175
     0
142
0.0208333333333333
142
0.0
142
0.0
142
0.0
142
0.0
142
0.0208333333333333
142
0.0
142
0.0
142
0.0
142
0.0
142
1.0
142
0.0
142
0.0
142
0.0
142
0.0
142
1.0
179
     0
144
0.0208333333333333
144
0.0
144
0.0
144
0.0
144
0.0
144
0.0208333333333333
144
0.0
144
0.0
144
0.0
144
0.0
144
1.0
144
0.0
144
0.0
144
0.0
144
0.0
144
1.0
147
0.0208333333333333
147
0.0
147
0.0
147
0.0
147
0.0
147
0.0208333333333333
147
0.0
147
0.0
147
0.0
147
0.0
147
1.0
147
0.0
147
0.0
147
0.0
147
0.0
147
1.0
  0
MATERIAL
  5
21
102
{ACAD_XDICTIONARY
360
22
102
}
102
{ACAD_REACTORS
330
10
102
}
330
10
100
AcDbMaterial
  1
Global
 72
     0
 43
0.0208333333333333
 43
0.0
 43
0.0
 43
0.0
 43
0.0
 43
0.0208333333333333
 43
0.0
 43
0.0
 43
0.0
 43
0.0
 43
1.0
 43
0.0
 43
0.0
 43
0.0
 43
0.0
 43
1.0
 77
     0
 47
0.0208333333333333
 47
0.0
 47
0.0
 47
0.0
 47
0.0
 47
0.0208333333333333
 47
0.0
 47
0.0
 47
0.0
 47
0.0
 47
1.0
 47
0.0
 47
0.0
 47
0.0
 47
0.0
 47
1.0
171
     0
 49
0.0208333333333333
 49
0.0
 49
0.0
 49
0.0
 49
0.0
 49
0.0208333333333333
 49
0.0
 49
0.0
 49
0.0
 49
0.0
 49
1.0
 49
0.0
 49
0.0
 49
0.0
 49
0.0
 49
1.0
175
     0
142
0.0208333333333333
142
0.0
142
0.0
142
0.0
142
0.0
142
0.0208333333333333
142
0.0
142
0.0
142
0.0
142
0.0
142
1.0
142
0.0
142
0.0
142
0.0
142
0.0
142
1.0
179
     0
144
0.0208333333333333
144
0.0
144
0.0
144
0.0
144
0.0
144
0.0208333333333333
144
0.0
144
0.0
144
0.0
144
0.0
144
1.0
144
0.0
144
0.0
144
0.0
144
0.0
144
1.0
147
0.0208333333333333
147
0.0
147
0.0
147
0.0
147
0.0
147
0.0208333333333333
147
0.0
147
0.0
147
0.0
147
0.0
147
1.0
147
0.0
147
0.0
147
0.0
147
0.0
147
1.0
  0
MLEADERSTYLE
  5
67
102
{ACAD_REACTORS
330
66
102
}
330
66
100
AcDbMLeaderStyle
179
     2
170
     2
171
     1
172
     0
 90
        2
 40
0.0
 41
0.0
173
     1
 91
-1056964608
340
5B
 92
       -2
290
     1
 42
0.09
291
     1
 43
0.36
  3
Standard
 44
0.18
300

342
55
174
     1
178
     6
175
     1
176
     0
 93
-1056964608
 45
0.18
292
     0
297
     0
 46
0.18
 94
-1056964608
 47
1.0
 49
1.0
140
1.0
293
     1
141
0.0
294
     1
177
     0
142
1.0
295
     1
296
     0
143
0.125
271
     0
272
     9
273
     9
298
     1
  0
MLINESTYLE
  5
60
102
{ACAD_REACTORS
330
5F
102
}
330
5F
100
AcDbMlineStyle
  2
STANDARD
 70
     0
  3

 62
   256
 51
90.0
 52
90.0
 71
     2
 49
0.5
 62
   256
  6
BYLAYER
 49
-0.5
 62
   256
  6
BYLAYER
  0
ACDBPLACEHOLDER
  5
F
102
{ACAD_REACTORS
330
E
102
}
330
E
  0
SCALE
  5
43
102
{ACAD_REACTORS
330
42
102
}
330
42
100
AcDbScale
 70
     0
300
1:1
140
1.0
141
1.0
290
     1
  0
SCALE
  5
44
102
{ACAD_REACTORS
330
42
102
}
330
42
100
AcDbScale
 70
     0
300
1/128" = 1'-0"
140
0.0078125
141
12.0
290
     0
  0
SCALE
  5
45
102
{ACAD_REACTORS
330
42
102
}
330
42
100
AcDbScale
 70
     0
300
1/64" = 1'-0"
140
0.015625
141
12.0
290
     0
  0
SCALE
  5
46
102
{ACAD_REACTORS
330
42
102
}
330
42
100
AcDbScale
 70
     0
300
1/32" = 1'-0"
140
0.03125
141
12.0
290
     0
  0
SCALE
  5
47
102
{ACAD_REACTORS
330
42
102
}
330
42
100
AcDbScale
 70
     0
300
1/16" = 1'-0"
140
0.0625
141
12.0
290
     0
  0
SCALE
  5
48
102
{ACAD_REACTORS
330
42
102
}
330
42
100
AcDbScale
 70
     0
300
3/32" = 1'-0"
140
0.09375
141
12.0
290
     0
  0
SCALE
  5
49
102
{ACAD_REACTORS
330
42
102
}
330
42
100
AcDbScale
 70
     0
300
1/8" = 1'-0"
140
0.125
141
12.0
290
     0
  0
SCALE
  5
4A
102
{ACAD_REACTORS
330
42
102
}
330
42
100
AcDbScale
 70
     0
300
3/16" = 1'-0"
140
0.1875
141
12.0
290
     0
  0
SCALE
  5
4B
102
{ACAD_REACTORS
330
42
102
}
330
42
100
AcDbScale
 70
     0
300
1/4" = 1'-0"
140
0.25
141
12.0
290
     0
  0
SCALE
  5
4C
102
{ACAD_REACTORS
330
42
102
}
330
42
100
AcDbScale
 70
     0
300
3/8" = 1'-0"
140
0.375
141
12.0
290
     0
  0
SCALE
  5
4D
102
{ACAD_REACTORS
330
42
102
}
330
42
100
AcDbScale
 70
     0
300
1/2" = 1'-0"
140
0.5
141
12.0
290
     0
  0
SCALE
  5
4E
102
{ACAD_REACTORS
330
42
102
}
330
42
100
AcDbScale
 70
     0
300
3/4" = 1'-0"
140
0.75
141
12.0
290
     0
  0
SCALE
  5
4F
102
{ACAD_REACTORS
330
42
102
}
330
42
100
AcDbScale
 70
     0
300
1" = 1'-0"
140
1.0
141
12.0
290
     0
  0
SCALE
  5
50
102
{ACAD_REACTORS
330
42
102
}
330
42
100
AcDbScale
 70
     0
300
1-1/2" = 1'-0"
140
1.5
141
12.0
290
     0
  0
SCALE
  5
51
102
{ACAD_REACTORS
330
42
102
}
330
42
100
AcDbScale
 70
     0
300
3" = 1'-0"
140
3.0
141
12.0
290
     0
  0
SCALE
  5
52
102
{ACAD_REACTORS
330
42
102
}
330
42
100
AcDbScale
 70
     0
300
6" = 1'-0"
140
6.0
141
12.0
290
     0
  0
SCALE
  5
53
102
{ACAD_REACTORS
330
42
102
}
330
42
100
AcDbScale
 70
     0
300
1'-0" = 1'-0"
140
12.0
141
12.0
290
     0
  0
ACDBSECTIONVIEWSTYLE
  5
6A
102
{ACAD_REACTORS
330
68
102
}
330
68
100
AcDbModelDocViewStyle
 70
     0
  3
Imperial24
290
     1
100
AcDbSectionViewStyle
 70
     0
 71
     0
 90
       78
 71
     1
340
55
 62
   256
 40
0.24
340
0
340
0
 62
   256
 40
0.24
300
I, O, Q, S, X, Z
 40
0.48
 90
        3
 40
0.18
 90
        1
 71
     2
340
69
 90
       25
 62
   256
340
5D
 90
       50
 62
   256
 40
0.24
 40
0.0
 40
0.24
 71
     3
340
55
 62
   256
 40
0.24
 90
        1
 40
0.75
 90
        1
300
%<\AcVar ViewType \f "%tc1">% %<\AcVar ViewSectionStartId>%-%<\AcVar ViewSectionEndId>%\PSCALA %<\AcVar ViewScale \f "%sn">%
 71
     4
 62
   256
 62
   257
300
ANSI31
 40
1.0
 90
        0
290
     0
290
     0
 90
        6
 40
0.0
 40
1.570796326794896
 40
0.2617993877991494
 40
1.308996938995747
 40
-0.2617993877991494
 40
1.832595714594046
  0
TABLESTYLE
  5
65
102
{ACAD_XDICTIONARY
360
28B
102
}
102
{ACAD_REACTORS
330
64
102
}
330
64
100
AcDbTableStyle
280
     0
  3
Standard
 70
     0
 71
     0
 40
0.06
 41
0.06
280
     0
281
     0
  7
Standard
140
0.18
170
     2
 62
     0
 63
     7
283
     0
 90
      512
 91
        0
  1

274
    -2
284
     1
 64
     0
275
    -2
285
     1
 65
     0
276
    -2
286
     1
 66
     0
277
    -2
287
     1
 67
     0
278
    -2
288
     1
 68
     0
279
    -2
289
     1
 69
     0
  7
Standard
140
0.25
170
     5
 62
     0
 63
     7
283
     0
 90
      512
 91
        0
  1

274
    -2
284
     1
 64
     0
275
    -2
285
     1
 65
     0
276
    -2
286
     1
 66
     0
277
    -2
287
     1
 67
     0
278
    -2
288
     1
 68
     0
279
    -2
289
     1
 69
     0
  7
Standard
140
0.18
170
     5
 62
     0
 63
     7
283
     0
 90
      512
 91
        0
  1

274
    -2
284
     1
 64
     0
275
    -2
285
     1
 65
     0
276
    -2
286
     1
 66
     0
277
    -2
287
     1
 67
     0
278
    -2
288
     1
 68
     0
279
    -2
289
     1
 69
     0
  0
VISUALSTYLE
  5
2F
102
{ACAD_REACTORS
330
29
102
}
330
29
100
AcDbVisualStyle
  2
2dWireframe
 70
     4
177
     3
291
     0
 70
    58
 90
        0
176
     1
 90
        2
176
     1
 90
        0
176
     1
 90
        0
176
     1
 40
0.6
176
     1
 40
30.0
176
     1
 62
     7
420
 16777215
176
     1
 90
        1
176
     1
 90
        4
176
     1
 62
     7
176
     1
 62
   257
176
     1
 90
        1
176
     1
 90
        1
176
     1
 40
1.0
176
     1
 90
        0
176
     1
 62
   257
176
     1
 40
1.0
176
     1
 90
        1
176
     1
 90
        6
176
     1
 90
        2
176
     1
 62
     7
176
     1
 90
        5
176
     1
 90
        0
176
     1
 90
        0
176
     1
290
     0
176
     1
 90
        1
176
     1
 40
0.0
176
     1
 90
        0
176
     1
290
     1
176
     1
290
     1
176
     1
290
     0
176
     1
290
     0
176
     1
290
     0
176
     1
290
     0
176
     1
290
     0
176
     1
290
     0
176
     1
290
     0
176
     1
 90
       50
176
     1
 40
0.0
176
     1
 40
1.0
176
     1
 90
        0
176
     1
 62
    18
420
        0
176
     1
 90
       50
176
     1
 90
        3
176
     1
 62
     5
420
      255
176
     1
290
     0
176
     1
 90
       50
176
     1
 90
       50
176
     1
 90
       50
176
     1
290
     0
176
     1
 90
       50
176
     1
 62
   256
176
     0
 40
1.0
176
     0
 90
        2
176
     1
  1
strokes_ogs.tif
176
     1
290
     0
176
     1
 40
1.0
176
     1
 40
1.0
176
     1
  0
VISUALSTYLE
  5
2E
102
{ACAD_REACTORS
330
29
102
}
330
29
100
AcDbVisualStyle
  2
Basic
 70
     7
177
     3
291
     1
 70
    58
 90
        1
176
     1
 90
        0
176
     1
 90
        1
176
     1
 90
        0
176
     1
 40
0.6
176
     1
 40
30.0
176
     1
 62
     7
420
 16777215
176
     1
 90
        0
176
     1
 90
        4
176
     1
 62
     7
176
     1
 62
   257
176
     1
 90
        1
176
     1
 90
        1
176
     1
 40
1.0
176
     1
 90
        8
176
     1
 62
     7
176
     1
 40
1.0
176
     1
 90
        1
176
     1
 90
        6
176
     1
 90
        2
176
     1
 62
     7
176
     1
 90
        5
176
     1
 90
        0
176
     1
 90
        0
176
     1
290
     0
176
     1
 90
        1
176
     1
 40
0.0
176
     1
 90
        0
176
     1
290
     0
176
     1
290
     1
176
     1
290
     1
176
     1
290
     0
176
     1
290
     0
176
     1
290
     0
176
     1
290
     0
176
     1
290
     0
176
     1
290
     0
176
     1
 90
       50
176
     1
 40
0.0
176
     1
 40
1.0
176
     1
 90
        0
176
     1
 62
    18
420
        0
176
     1
 90
       50
176
     1
 90
        3
176
     1
 62
     5
420
      255
176
     1
290
     0
176
     1
 90
       50
176
     1
 90
       50
176
     1
 90
       50
176
     1
290
     0
176
     1
 90
       50
176
     1
 62
   256
176
     0
 40
1.0
176
     0
 90
        2
176
     1
  1
strokes_ogs.tif
176
     1
290
     0
176
     1
 40
1.0
176
     1
 40
1.0
176
     1
  0
VISUALSTYLE
  5
35
102
{ACAD_REACTORS
330
29
102
}
330
29
100
AcDbVisualStyle
  2
Brighten
 70
    12
177
     3
291
     1
 70
    58
 90
        2
176
     1
 90
        2
176
     1
 90
        0
176
     1
 90
        0
176
     1
 40
0.6
176
     1
 40
30.0
176
     1
 62
     7
420
 16777215
176
     1
 90
        1
176
     1
 90
        4
176
     1
 62
     7
176
     1
 62
   257
176
     1
 90
        1
176
     1
 90
        1
176
     1
 40
1.0
176
     1
 90
        8
176
     1
 62
     7
176
     1
 40
1.0
176
     1
 90
        1
176
     1
 90
        6
176
     1
 90
        2
176
     1
 62
     7
176
     1
 90
        5
176
     1
 90
        0
176
     1
 90
        0
176
     1
290
     0
176
     1
 90
        1
176
     1
 40
50.0
176
     1
 90
        0
176
     1
290
     0
176
     1
290
     1
176
     1
290
     1
176
     1
290
     0
176
     1
290
     0
176
     1
290
     0
176
     1
290
     0
176
     1
290
     0
176
     1
290
     0
176
     1
 90
       50
176
     1
 40
0.0
176
     1
 40
1.0
176
     1
 90
        0
176
     1
 62
    18
420
        0
176
     1
 90
       50
176
     1
 90
        3
176
     1
 62
     5
420
      255
176
     1
290
     0
176
     1
 90
       50
176
     1
 90
       50
176
     1
 90
       50
176
     1
290
     0
176
     1
 90
       50
176
     1
 62
   256
176
     0
 40
1.0
176
     0
 90
        2
176
     1
  1
strokes_ogs.tif
176
     1
290
     0
176
     1
 40
1.0
176
     1
 40
1.0
176
     1
  0
VISUALSTYLE
  5
39
102
{ACAD_REACTORS
330
29
102
}
330
29
100
AcDbVisualStyle
  2
ColorChange
 70
    16
177
     3
291
     1
 70
    58
 90
        2
176
     1
 90
        2
176
     1
 90
        3
176
     1
 90
        0
176
     1
 40
0.6
176
     1
 40
30.0
176
     1
 62
     8
420
  8421504
176
     1
 90
        1
176
     1
 90
        4
176
     1
 62
     7
176
     1
 62
   257
176
     1
 90
        1
176
     1
 90
        1
176
     1
 40
1.0
176
     1
 90
        8
176
     1
 62
     8
420
  8421504
176
     1
 40
1.0
176
     1
 90
        1
176
     1
 90
        6
176
     1
 90
        2
176
     1
 62
     7
176
     1
 90
        5
176
     1
 90
        0
176
     1
 90
        0
176
     1
290
     0
176
     1
 90
        1
176
     1
 40
0.0
176
     1
 90
        0
176
     1
290
     0
176
     1
290
     1
176
     1
290
     1
176
     1
290
     0
176
     1
290
     0
176
     1
290
     0
176
     1
290
     0
176
     1
290
     0
176
     1
290
     0
176
     1
 90
       50
176
     1
 40
0.0
176
     1
 40
1.0
176
     1
 90
        0
176
     1
 62
    18
420
        0
176
     1
 90
       50
176
     1
 90
        3
176
     1
 62
     5
420
      255
176
     1
290
     0
176
     1
 90
       50
176
     1
 90
       50
176
     1
 90
       50
176
     1
290
     0
176
     1
 90
       50
176
     1
 62
   256
176
     0
 40
1.0
176
     0
 90
        2
176
     1
  1
strokes_ogs.tif
176
     1
290
     0
176
     1
 40
1.0
176
     1
 40
1.0
176
     1
  0
VISUALSTYLE
  5
32
102
{ACAD_REACTORS
330
29
102
}
330
29
100
AcDbVisualStyle
  2
Conceptual
 70
     9
177
     3
291
     0
 70
    58
 90
        3
176
     1
 90
        2
176
     1
 90
        0
176
     1
 90
        0
176
     1
 40
0.6
176
     1
 40
30.0
176
     1
 62
     7
420
 16777215
176
     1
 90
        2
176
     1
 90
        2
176
     1
 62
     7
176
     1
 62
   257
176
     1
 90
        1
176
     1
 90
        1
176
     1
 40
179.0
176
     1
 90
        8
176
     1
 62
     7
176
     1
 40
1.0
176
     1
 90
        1
176
     1
 90
        6
176
     1
 90
        2
176
     1
 62
     7
176
     1
 90
        3
176
     1
 90
        0
176
     1
 90
        0
176
     1
290
     0
176
     1
 90
        1
176
     1
 40
0.0
176
     1
 90
        0
176
     1
290
     0
176
     1
290
     1
176
     1
290
     1
176
     1
290
     0
176
     1
290
     0
176
     1
290
     0
176
     1
290
     0
176
     1
290
     0
176
     1
290
     0
176
     1
 90
       50
176
     1
 40
0.0
176
     1
 40
1.0
176
     1
 90
        0
176
     1
 62
    18
420
        0
176
     1
 90
       50
176
     1
 90
        3
176
     1
 62
     5
420
      255
176
     1
290
     0
176
     1
 90
       50
176
     1
 90
       50
176
     1
 90
       50
176
     1
290
     0
176
     1
 90
       50
176
     1
 62
   256
176
     0
 40
1.0
176
     0
 90
        2
176
     1
  1
strokes_ogs.tif
176
     1
290
     0
176
     1
 40
1.0
176
     1
 40
1.0
176
     1
  0
VISUALSTYLE
  5
34
102
{ACAD_REACTORS
330
29
102
}
330
29
100
AcDbVisualStyle
  2
Dim
 70
    11
177
     3
291
     1
 70
    58
 90
        2
176
     1
 90
        2
176
     1
 90
        0
176
     1
 90
        0
176
     1
 40
0.6
176
     1
 40
30.0
176
     1
 62
     7
420
 16777215
176
     1
 90
        1
176
     1
 90
        4
176
     1
 62
     7
176
     1
 62
   257
176
     1
 90
        1
176
     1
 90
        1
176
     1
 40
1.0
176
     1
 90
        8
176
     1
 62
     7
176
     1
 40
1.0
176
     1
 90
        1
176
     1
 90
        6
176
     1
 90
        2
176
     1
 62
     7
176
     1
 90
        5
176
     1
 90
        0
176
     1
 90
        0
176
     1
290
     0
176
     1
 90
        1
176
     1
 40
-50.0
176
     1
 90
        0
176
     1
290
     0
176
     1
290
     1
176
     1
290
     1
176
     1
290
     0
176
     1
290
     0
176
     1
290
     0
176
     1
290
     0
176
     1
290
     0
176
     1
290
     0
176
     1
 90
       50
176
     1
 40
0.0
176
     1
 40
1.0
176
     1
 90
        0
176
     1
 62
    18
420
        0
176
     1
 90
       50
176
     1
 90
        3
176
     1
 62
     5
420
      255
176
     1
290
     0
176
     1
 90
       50
176
     1
 90
       50
176
     1
 90
       50
176
     1
290
     0
176
     1
 90
       50
176
     1
 62
   256
176
     0
 40
1.0
176
     0
 90
        2
176
     1
  1
strokes_ogs.tif
176
     1
290
     0
176
     1
 40
1.0
176
     1
 40
1.0
176
     1
  0
VISUALSTYLE
  5
41
102
{ACAD_REACTORS
330
29
102
}
330
29
100
AcDbVisualStyle
  2
EdgeColorOff
 70
    22
177
     3
291
     1
 70
    58
 90
        2
176
     0
 90
        2
176
     0
 90
        0
176
     0
 90
        0
176
     0
 40
0.6
176
     0
 40
30.0
176
     0
 62
     7
420
 16777215
176
     0
 90
        1
176
     0
 90
        4
176
     0
 62
     7
176
     0
 62
   257
176
     0
 90
        1
176
     0
 90
        1
176
     0
 40
1.0
176
     0
 90
        8
176
     2
 62
     7
176
     0
 40
1.0
176
     0
 90
        1
176
     0
 90
        6
176
     0
 90
        2
176
     0
 62
     7
176
     0
 90
        5
176
     0
 90
        0
176
     0
 90
        0
176
     0
290
     0
176
     0
 90
        1
176
     0
 40
0.0
176
     0
 90
        0
176
     0
290
     0
176
     0
290
     1
176
     0
290
     1
176
     0
290
     0
176
     0
290
     0
176
     0
290
     0
176
     0
290
     0
176
     0
290
     0
176
     0
290
     0
176
     0
 90
       50
176
     0
 40
0.0
176
     0
 40
1.0
176
     0
 90
        0
176
     0
 62
    18
420
        0
176
     0
 90
       50
176
     0
 90
        3
176
     0
 62
     5
420
      255
176
     0
290
     0
176
     0
 90
       50
176
     0
 90
       50
176
     0
 90
       50
176
     0
290
     0
176
     0
 90
       50
176
     0
 62
   256
176
     0
 40
1.0
176
     0
 90
        2
176
     0
  1
strokes_ogs.tif
176
     0
290
     0
176
     0
 40
1.0
176
     0
 40
1.0
176
     0
  0
VISUALSTYLE
  5
38
102
{ACAD_REACTORS
330
29
102
}
330
29
100
AcDbVisualStyle
  2
Facepattern
 70
    15
177
     3
291
     1
 70
    58
 90
        2
176
     1
 90
        2
176
     1
 90
        0
176
     1
 90
        0
176
     1
 40
0.6
176
     1
 40
30.0
176
     1
 62
     7
420
 16777215
176
     1
 90
        1
176
     1
 90
        4
176
     1
 62
     7
176
     1
 62
   257
176
     1
 90
        1
176
     1
 90
        1
176
     1
 40
1.0
176
     1
 90
        8
176
     1
 62
     7
176
     1
 40
1.0
176
     1
 90
        1
176
     1
 90
        6
176
     1
 90
        2
176
     1
 62
     7
176
     1
 90
        5
176
     1
 90
        0
176
     1
 90
        0
176
     1
290
     0
176
     1
 90
        1
176
     1
 40
0.0
176
     1
 90
        0
176
     1
290
     0
176
     1
290
     1
176
     1
290
     1
176
     1
290
     0
176
     1
290
     0
176
     1
290
     0
176
     1
290
     0
176
     1
290
     0
176
     1
290
     0
176
     1
 90
       50
176
     1
 40
0.0
176
     1
 40
1.0
176
     1
 90
        0
176
     1
 62
    18
420
        0
176
     1
 90
       50
176
     1
 90
        3
176
     1
 62
     5
420
      255
176
     1
290
     0
176
     1
 90
       50
176
     1
 90
       50
176
     1
 90
       50
176
     1
290
     0
176
     1
 90
       50
176
     1
 62
   256
176
     0
 40
1.0
176
     0
 90
        2
176
     1
  1
strokes_ogs.tif
176
     1
290
     0
176
     1
 40
1.0
176
     1
 40
1.0
176
     1
  0
VISUALSTYLE
  5
2A
102
{ACAD_REACTORS
330
29
102
}
330
29
100
AcDbVisualStyle
  2
Flat
 70
     0
177
     3
291
     1
 70
    58
 90
        2
176
     1
 90
        1
176
     1
 90
        1
176
     1
 90
        2
176
     1
 40
0.6
176
     1
 40
30.0
176
     1
 62
     7
420
 16777215
176
     1
 90
        0
176
     1
 90
        0
176
     1
 62
     7
176
     1
 62
   257
176
     1
 90
        1
176
     1
 90
        1
176
     1
 40
1.0
176
     1
 90
        8
176
     1
 62
     7
176
     1
 40
1.0
176
     1
 90
        1
176
     1
 90
        6
176
     1
 90
        2
176
     1
 62
     7
176
     1
 90
        5
176
     1
 90
        0
176
     1
 90
        0
176
     1
290
     0
176
     1
 90
       13
176
     1
 40
0.0
176
     1
 90
        0
176
     1
290
     0
176
     1
290
     1
176
     1
290
     1
176
     1
290
     0
176
     1
290
     0
176
     1
290
     0
176
     1
290
     0
176
     1
290
     0
176
     1
290
     0
176
     1
 90
       50
176
     1
 40
0.0
176
     1
 40
1.0
176
     1
 90
        0
176
     1
 62
    18
420
        0
176
     1
 90
       50
176
     1
 90
        3
176
     1
 62
     5
420
      255
176
     1
290
     0
176
     1
 90
       50
176
     1
 90
       50
176
     1
 90
       50
176
     1
290
     0
176
     1
 90
       50
176
     1
 62
   256
176
     0
 40
1.0
176
     0
 90
        2
176
     1
  1
strokes_ogs.tif
176
     1
290
     0
176
     1
 40
1.0
176
     1
 40
1.0
176
     1
  0
VISUALSTYLE
  5
2B
102
{ACAD_REACTORS
330
29
102
}
330
29
100
AcDbVisualStyle
  2
FlatWithEdges
 70
     1
177
     3
291
     1
 70
    58
 90
        2
176
     1
 90
        1
176
     1
 90
        1
176
     1
 90
        2
176
     1
 40
0.6
176
     1
 40
30.0
176
     1
 62
     7
420
 16777215
176
     1
 90
        1
176
     1
 90
        0
176
     1
 62
     7
176
     1
 62
   257
176
     1
 90
        1
176
     1
 90
        1
176
     1
 40
1.0
176
     1
 90
        0
176
     1
 62
   257
176
     1
 40
1.0
176
     1
 90
        1
176
     1
 90
        6
176
     1
 90
        2
176
     1
 62
     7
176
     1
 90
        5
176
     1
 90
        0
176
     1
 90
        0
176
     1
290
     0
176
     1
 90
       13
176
     1
 40
0.0
176
     1
 90
        0
176
     1
290
     0
176
     1
290
     1
176
     1
290
     1
176
     1
290
     0
176
     1
290
     0
176
     1
290
     0
176
     1
290
     0
176
     1
290
     0
176
     1
290
     0
176
     1
 90
       50
176
     1
 40
0.0
176
     1
 40
1.0
176
     1
 90
        0
176
     1
 62
    18
420
        0
176
     1
 90
       50
176
     1
 90
        3
176
     1
 62
     5
420
      255
176
     1
290
     0
176
     1
 90
       50
176
     1
 90
       50
176
     1
 90
       50
176
     1
290
     0
176
     1
 90
       50
176
     1
 62
   256
176
     0
 40
1.0
176
     0
 90
        2
176
     1
  1
strokes_ogs.tif
176
     1
290
     0
176
     1
 40
1.0
176
     1
 40
1.0
176
     1
  0
VISUALSTYLE
  5
2C
102
{ACAD_REACTORS
330
29
102
}
330
29
100
AcDbVisualStyle
  2
Gouraud
 70
     2
177
     3
291
     1
 70
    58
 90
        2
176
     1
 90
        2
176
     1
 90
        1
176
     1
 90
        2
176
     1
 40
0.6
176
     1
 40
30.0
176
     1
 62
     7
420
 16777215
176
     1
 90
        0
176
     1
 90
        0
176
     1
 62
     7
176
     1
 62
   257
176
     1
 90
        1
176
     1
 90
        1
176
     1
 40
1.0
176
     1
 90
        0
176
     1
 62
     7
176
     1
 40
1.0
176
     1
 90
        1
176
     1
 90
        6
176
     1
 90
        2
176
     1
 62
     7
176
     1
 90
        5
176
     1
 90
        0
176
     1
 90
        0
176
     1
290
     0
176
     1
 90
       13
176
     1
 40
0.0
176
     1
 90
        0
176
     1
290
     0
176
     1
290
     1
176
     1
290
     1
176
     1
290
     0
176
     1
290
     0
176
     1
290
     0
176
     1
290
     0
176
     1
290
     0
176
     1
290
     0
176
     1
 90
       50
176
     1
 40
0.0
176
     1
 40
1.0
176
     1
 90
        0
176
     1
 62
    18
420
        0
176
     1
 90
       50
176
     1
 90
        3
176
     1
 62
     5
420
      255
176
     1
290
     0
176
     1
 90
       50
176
     1
 90
       50
176
     1
 90
       50
176
     1
290
     0
176
     1
 90
       50
176
     1
 62
   256
176
     0
 40
1.0
176
     0
 90
        2
176
     1
  1
strokes_ogs.tif
176
     1
290
     0
176
     1
 40
1.0
176
     1
 40
1.0
176
     1
  0
VISUALSTYLE
  5
2D
102
{ACAD_REACTORS
330
29
102
}
330
29
100
AcDbVisualStyle
  2
GouraudWithEdges
 70
     3
177
     3
291
     1
 70
    58
 90
        2
176
     1
 90
        2
176
     1
 90
        1
176
     1
 90
        2
176
     1
 40
0.6
176
     1
 40
30.0
176
     1
 62
     7
420
 16777215
176
     1
 90
        1
176
     1
 90
        0
176
     1
 62
     7
176
     1
 62
   257
176
     1
 90
        1
176
     1
 90
        1
176
     1
 40
1.0
176
     1
 90
        0
176
     1
 62
   257
176
     1
 40
1.0
176
     1
 90
        1
176
     1
 90
        6
176
     1
 90
        2
176
     1
 62
     7
176
     1
 90
        5
176
     1
 90
        0
176
     1
 90
        0
176
     1
290
     0
176
     1
 90
       13
176
     1
 40
0.0
176
     1
 90
        0
176
     1
290
     0
176
     1
290
     1
176
     1
290
     1
176
     1
290
     0
176
     1
290
     0
176
     1
290
     0
176
     1
290
     0
176
     1
290
     0
176
     1
290
     0
176
     1
 90
       50
176
     1
 40
0.0
176
     1
 40
1.0
176
     1
 90
        0
176
     1
 62
    18
420
        0
176
     1
 90
       50
176
     1
 90
        3
176
     1
 62
     5
420
      255
176
     1
290
     0
176
     1
 90
       50
176
     1
 90
       50
176
     1
 90
       50
176
     1
290
     0
176
     1
 90
       50
176
     1
 62
   256
176
     0
 40
1.0
176
     0
 90
        2
176
     1
  1
strokes_ogs.tif
176
     1
290
     0
176
     1
 40
1.0
176
     1
 40
1.0
176
     1
  0
VISUALSTYLE
  5
31
102
{ACAD_REACTORS
330
29
102
}
330
29
100
AcDbVisualStyle
  2
Hidden
 70
     6
177
     3
291
     0
 70
    58
 90
        1
176
     1
 90
        2
176
     1
 90
        2
176
     1
 90
        0
176
     1
 40
0.6
176
     1
 40
30.0
176
     1
 62
     7
420
 16777215
176
     1
 90
        2
176
     1
 90
        2
176
     1
 62
     7
176
     1
 62
   257
176
     1
 90
        2
176
     1
 90
        1
176
     1
 40
40.0
176
     1
 90
        0
176
     1
 62
   257
176
     1
 40
1.0
176
     1
 90
        1
176
     1
 90
        6
176
     1
 90
        2
176
     1
 62
     7
176
     1
 90
        3
176
     1
 90
        0
176
     1
 90
        0
176
     1
290
     0
176
     1
 90
        1
176
     1
 40
0.0
176
     1
 90
        0
176
     1
290
     0
176
     1
290
     1
176
     1
290
     1
176
     1
290
     0
176
     1
290
     0
176
     1
290
     0
176
     1
290
     0
176
     1
290
     0
176
     1
290
     0
176
     1
 90
       50
176
     1
 40
0.0
176
     1
 40
1.0
176
     1
 90
        0
176
     1
 62
    18
420
        0
176
     1
 90
       50
176
     1
 90
        3
176
     1
 62
     5
420
      255
176
     1
290
     0
176
     1
 90
       50
176
     1
 90
       50
176
     1
 90
       50
176
     1
290
     0
176
     1
 90
       50
176
     1
 62
   256
176
     0
 40
1.0
176
     0
 90
        2
176
     1
  1
strokes_ogs.tif
176
     1
290
     0
176
     1
 40
1.0
176
     1
 40
1.0
176
     1
  0
VISUALSTYLE
  5
3F
102
{ACAD_REACTORS
330
29
102
}
330
29
100
AcDbVisualStyle
  2
JitterOff
 70
    20
177
     3
291
     1
 70
    58
 90
        2
176
     0
 90
        2
176
     0
 90
        0
176
     0
 90
        0
176
     0
 40
0.6
176
     0
 40
30.0
176
     0
 62
     7
420
 16777215
176
     0
 90
        1
176
     0
 90
        4
176
     0
 62
     7
176
     0
 62
   257
176
     0
 90
        1
176
     0
 90
        1
176
     0
 40
1.0
176
     0
 90
       10
176
     2
 62
     7
176
     0
 40
1.0
176
     0
 90
        1
176
     0
 90
        6
176
     0
 90
        2
176
     0
 62
     7
176
     0
 90
        5
176
     0
 90
        0
176
     0
 90
        0
176
     0
290
     0
176
     0
 90
        1
176
     0
 40
0.0
176
     0
 90
        0
176
     0
290
     0
176
     0
290
     1
176
     0
290
     1
176
     0
290
     0
176
     0
290
     0
176
     0
290
     0
176
     0
290
     0
176
     0
290
     0
176
     0
290
     0
176
     0
 90
       50
176
     0
 40
0.0
176
     0
 40
1.0
176
     0
 90
        0
176
     0
 62
    18
420
        0
176
     0
 90
       50
176
     0
 90
        3
176
     0
 62
     5
420
      255
176
     0
290
     0
176
     0
 90
       50
176
     0
 90
       50
176
     0
 90
       50
176
     0
290
     0
176
     0
 90
       50
176
     0
 62
   256
176
     0
 40
1.0
176
     0
 90
        2
176
     0
  1
strokes_ogs.tif
176
     0
290
     0
176
     0
 40
1.0
176
     0
 40
1.0
176
     0
  0
VISUALSTYLE
  5
37
102
{ACAD_REACTORS
330
29
102
}
330
29
100
AcDbVisualStyle
  2
Linepattern
 70
    14
177
     3
291
     1
 70
    58
 90
        2
176
     1
 90
        2
176
     1
 90
        0
176
     1
 90
        0
176
     1
 40
0.6
176
     1
 40
30.0
176
     1
 62
     7
420
 16777215
176
     1
 90
        1
176
     1
 90
        4
176
     1
 62
     7
176
     1
 62
   257
176
     1
 90
        7
176
     1
 90
        7
176
     1
 40
1.0
176
     1
 90
        8
176
     1
 62
     7
176
     1
 40
1.0
176
     1
 90
        1
176
     1
 90
        6
176
     1
 90
        2
176
     1
 62
     7
176
     1
 90
        5
176
     1
 90
        0
176
     1
 90
        0
176
     1
290
     0
176
     1
 90
        1
176
     1
 40
0.0
176
     1
 90
        0
176
     1
290
     0
176
     1
290
     1
176
     1
290
     1
176
     1
290
     0
176
     1
290
     0
176
     1
290
     0
176
     1
290
     0
176
     1
290
     0
176
     1
290
     0
176
     1
 90
       50
176
     1
 40
0.0
176
     1
 40
1.0
176
     1
 90
        0
176
     1
 62
    18
420
        0
176
     1
 90
       50
176
     1
 90
        3
176
     1
 62
     5
420
      255
176
     1
290
     0
176
     1
 90
       50
176
     1
 90
       50
176
     1
 90
       50
176
     1
290
     0
176
     1
 90
       50
176
     1
 62
   256
176
     0
 40
1.0
176
     0
 90
        2
176
     1
  1
strokes_ogs.tif
176
     1
290
     0
176
     1
 40
1.0
176
     1
 40
1.0
176
     1
  0
VISUALSTYLE
  5
40
102
{ACAD_REACTORS
330
29
102
}
330
29
100
AcDbVisualStyle
  2
OverhangOff
 70
    21
177
     3
291
     1
 70
    58
 90
        2
176
     0
 90
        2
176
     0
 90
        0
176
     0
 90
        0
176
     0
 40
0.6
176
     0
 40
30.0
176
     0
 62
     7
420
 16777215
176
     0
 90
        1
176
     0
 90
        4
176
     0
 62
     7
176
     0
 62
   257
176
     0
 90
        1
176
     0
 90
        1
176
     0
 40
1.0
176
     0
 90
        9
176
     2
 62
     7
176
     0
 40
1.0
176
     0
 90
        1
176
     0
 90
        6
176
     0
 90
        2
176
     0
 62
     7
176
     0
 90
        5
176
     0
 90
        0
176
     0
 90
        0
176
     0
290
     0
176
     0
 90
        1
176
     0
 40
0.0
176
     0
 90
        0
176
     0
290
     0
176
     0
290
     1
176
     0
290
     1
176
     0
290
     0
176
     0
290
     0
176
     0
290
     0
176
     0
290
     0
176
     0
290
     0
176
     0
290
     0
176
     0
 90
       50
176
     0
 40
0.0
176
     0
 40
1.0
176
     0
 90
        0
176
     0
 62
    18
420
        0
176
     0
 90
       50
176
     0
 90
        3
176
     0
 62
     5
420
      255
176
     0
290
     0
176
     0
 90
       50
176
     0
 90
       50
176
     0
 90
       50
176
     0
290
     0
176
     0
 90
       50
176
     0
 62
   256
176
     0
 40
1.0
176
     0
 90
        2
176
     0
  1
strokes_ogs.tif
176
     0
290
     0
176
     0
 40
1.0
176
     0
 40
1.0
176
     0
  0
VISUALSTYLE
  5
33
102
{ACAD_REACTORS
330
29
102
}
330
29
100
AcDbVisualStyle
  2
Realistic
 70
     8
177
     3
291
     0
 70
    58
 90
        2
176
     1
 90
        3
176
     1
 90
        0
176
     1
 90
        2
176
     1
 40
0.6
176
     1
 40
30.0
176
     1
 62
     7
420
 16777215
176
     1
 90
        0
176
     1
 90
        0
176
     1
 62
     7
176
     1
 62
   257
176
     1
 90
        1
176
     1
 90
        1
176
     1
 40
1.0
176
     1
 90
        8
176
     1
 62
   257
176
     1
 40
1.0
176
     1
 90
        1
176
     1
 90
        6
176
     1
 90
        2
176
     1
 62
     7
176
     1
 90
        3
176
     1
 90
        0
176
     1
 90
        0
176
     1
290
     0
176
     1
 90
       13
176
     1
 40
0.0
176
     1
 90
        0
176
     1
290
     0
176
     1
290
     1
176
     1
290
     1
176
     1
290
     0
176
     1
290
     0
176
     1
290
     0
176
     1
290
     0
176
     1
290
     0
176
     1
290
     0
176
     1
 90
       50
176
     1
 40
0.0
176
     1
 40
1.0
176
     1
 90
        0
176
     1
 62
    18
420
        0
176
     1
 90
       50
176
     1
 90
        3
176
     1
 62
     5
420
      255
176
     1
290
     0
176
     1
 90
       50
176
     1
 90
       50
176
     1
 90
       50
176
     1
290
     0
176
     1
 90
       50
176
     1
 62
   256
176
     0
 40
1.0
176
     0
 90
        2
176
     1
  1
strokes_ogs.tif
176
     1
290
     0
176
     1
 40
1.0
176
     1
 40
1.0
176
     1
  0
VISUALSTYLE
  5
3E
102
{ACAD_REACTORS
330
29
102
}
330
29
100
AcDbVisualStyle
  2
Shaded
 70
    27
177
     3
291
     0
 70
    58
 90
        2
176
     1
 90
        2
176
     1
 90
        1
176
     1
 90
        2
176
     1
 40
0.6
176
     1
 40
30.0
176
     1
 62
     7
420
 16777215
176
     1
 90
        0
176
     1
 90
        4
176
     1
 62
     7
176
     1
 62
   257
176
     1
 90
        1
176
     1
 90
        1
176
     1
 40
1.0
176
     1
 90
        8
176
     1
 62
   257
176
     1
 40
1.0
176
     1
 90
        1
176
     1
 90
        6
176
     1
 90
        2
176
     1
 62
     8
420
  7895160
176
     1
 90
        3
176
     1
 90
        0
176
     1
 90
        0
176
     1
290
     0
176
     1
 90
        5
176
     1
 40
0.0
176
     1
 90
        0
176
     1
290
     0
176
     1
290
     1
176
     1
290
     1
176
     1
290
     0
176
     1
290
     0
176
     1
290
     0
176
     1
290
     0
176
     1
290
     0
176
     1
290
     0
176
     1
 90
       50
176
     1
 40
0.0
176
     1
 40
1.0
176
     1
 90
        0
176
     1
 62
    18
420
        0
176
     1
 90
       50
176
     1
 90
        3
176
     1
 62
     5
420
      255
176
     1
290
     0
176
     1
 90
       50
176
     1
 90
       50
176
     1
 90
       50
176
     1
290
     0
176
     1
 90
       50
176
     1
 62
   256
176
     0
 40
1.0
176
     0
 90
        2
176
     1
  1
strokes_ogs.tif
176
     1
290
     0
176
     1
 40
1.0
176
     1
 40
1.0
176
     1
  0
VISUALSTYLE
  5
3D
102
{ACAD_REACTORS
330
29
102
}
330
29
100
AcDbVisualStyle
  2
Shaded with edges
 70
    26
177
     3
291
     0
 70
    58
 90
        2
176
     1
 90
        2
176
     1
 90
        1
176
     1
 90
        2
176
     1
 40
0.6
176
     1
 40
30.0
176
     1
 62
     7
420
 16777215
176
     1
 90
        1
176
     1
 90
       10
176
     1
 62
     7
176
     1
 62
   257
176
     1
 90
        2
176
     1
 90
        1
176
     1
 40
1.0
176
     1
 90
        8
176
     1
 62
   257
176
     1
 40
1.0
176
     1
 90
        1
176
     1
 90
        6
176
     1
 90
        2
176
     1
 62
     7
176
     1
 90
        3
176
     1
 90
        0
176
     1
 90
        0
176
     1
290
     0
176
     1
 90
        5
176
     1
 40
0.0
176
     1
 90
        0
176
     1
290
     0
176
     1
290
     1
176
     1
290
     1
176
     1
290
     0
176
     1
290
     0
176
     1
290
     0
176
     1
290
     0
176
     1
290
     0
176
     1
290
     0
176
     1
 90
       50
176
     1
 40
0.0
176
     1
 40
1.0
176
     1
 90
        0
176
     1
 62
    18
420
        0
176
     1
 90
       50
176
     1
 90
        3
176
     1
 62
     5
420
      255
176
     1
290
     0
176
     1
 90
       50
176
     1
 90
       50
176
     1
 90
       50
176
     1
290
     0
176
     1
 90
       50
176
     1
 62
   256
176
     0
 40
1.0
176
     0
 90
        2
176
     1
  1
strokes_ogs.tif
176
     1
290
     0
176
     1
 40
1.0
176
     1
 40
1.0
176
     1
  0
VISUALSTYLE
  5
3A
102
{ACAD_REACTORS
330
29
102
}
330
29
100
AcDbVisualStyle
  2
Shades of Gray
 70
    23
177
     3
291
     0
 70
    58
 90
        2
176
     1
 90
        2
176
     1
 90
        3
176
     1
 90
        0
176
     1
 40
0.6
176
     1
 40
30.0
176
     1
 62
     7
420
 16777215
176
     1
 90
        2
176
     1
 90
        2
176
     1
 62
     7
176
     1
 62
     7
176
     1
 90
        1
176
     1
 90
        1
176
     1
 40
40.0
176
     1
 90
        8
176
     1
 62
     7
176
     1
 40
1.0
176
     1
 90
        1
176
     1
 90
        6
176
     1
 90
        2
176
     1
 62
     7
176
     1
 90
        3
176
     1
 90
        0
176
     1
 90
        0
176
     1
290
     0
176
     1
 90
        1
176
     1
 40
0.0
176
     1
 90
        0
176
     1
290
     0
176
     1
290
     1
176
     1
290
     1
176
     1
290
     0
176
     1
290
     0
176
     1
290
     0
176
     1
290
     0
176
     1
290
     0
176
     1
290
     0
176
     1
 90
       50
176
     1
 40
0.0
176
     1
 40
1.0
176
     1
 90
        0
176
     1
 62
    18
420
        0
176
     1
 90
       50
176
     1
 90
        3
176
     1
 62
     5
420
      255
176
     1
290
     0
176
     1
 90
       50
176
     1
 90
       50
176
     1
 90
       50
176
     1
290
     0
176
     1
 90
       50
176
     1
 62
   256
176
     0
 40
1.0
176
     0
 90
        2
176
     1
  1
strokes_ogs.tif
176
     1
290
     0
176
     1
 40
1.0
176
     1
 40
1.0
176
     1
  0
VISUALSTYLE
  5
3B
102
{ACAD_REACTORS
330
29
102
}
330
29
100
AcDbVisualStyle
  2
Sketchy
 70
    24
177
     3
291
     0
 70
    58
 90
        1
176
     1
 90
        2
176
     1
 90
        2
176
     1
 90
        0
176
     1
 40
0.6
176
     1
 40
30.0
176
     1
 62
     7
420
 16777215
176
     1
 90
        2
176
     1
 90
        2
176
     1
 62
     7
176
     1
 62
     7
176
     1
 90
        1
176
     1
 90
        1
176
     1
 40
40.0
176
     1
 90
       11
176
     1
 62
     7
176
     1
 40
1.0
176
     1
 90
        1
176
     1
 90
        6
176
     1
 90
        2
176
     1
 62
     7
176
     1
 90
        6
176
     1
 90
        0
176
     1
 90
        0
176
     1
290
     0
176
     1
 90
        1
176
     1
 40
0.0
176
     1
 90
        0
176
     1
290
     0
176
     1
290
     1
176
     1
290
     1
176
     1
290
     0
176
     1
290
     0
176
     1
290
     0
176
     1
290
     0
176
     1
290
     0
176
     1
290
     0
176
     1
 90
       50
176
     1
 40
0.0
176
     1
 40
1.0
176
     1
 90
        0
176
     1
 62
    18
420
        0
176
     1
 90
       50
176
     1
 90
        3
176
     1
 62
     5
420
      255
176
     1
290
     0
176
     1
 90
       50
176
     1
 90
       50
176
     1
 90
       50
176
     1
290
     0
176
     1
 90
       50
176
     1
 62
   256
176
     0
 40
1.0
176
     0
 90
        2
176
     1
  1
strokes_ogs.tif
176
     1
290
     0
176
     1
 40
1.0
176
     1
 40
1.0
176
     1
  0
VISUALSTYLE
  5
36
102
{ACAD_REACTORS
330
29
102
}
330
29
100
AcDbVisualStyle
  2
Thicken
 70
    13
177
     3
291
     1
 70
    58
 90
        2
176
     1
 90
        2
176
     1
 90
        0
176
     1
 90
        0
176
     1
 40
0.6
176
     1
 40
30.0
176
     1
 62
     7
420
 16777215
176
     1
 90
        1
176
     1
 90
        4
176
     1
 62
     7
176
     1
 62
   257
176
     1
 90
        1
176
     1
 90
        1
176
     1
 40
1.0
176
     1
 90
       12
176
     1
 62
     7
176
     1
 40
1.0
176
     1
 90
        1
176
     1
 90
        6
176
     1
 90
        2
176
     1
 62
     7
176
     1
 90
        5
176
     1
 90
        0
176
     1
 90
        0
176
     1
290
     0
176
     1
 90
        1
176
     1
 40
0.0
176
     1
 90
        0
176
     1
290
     0
176
     1
290
     1
176
     1
290
     1
176
     1
290
     0
176
     1
290
     0
176
     1
290
     0
176
     1
290
     0
176
     1
290
     0
176
     1
290
     0
176
     1
 90
       50
176
     1
 40
0.0
176
     1
 40
1.0
176
     1
 90
        0
176
     1
 62
    18
420
        0
176
     1
 90
       50
176
     1
 90
        3
176
     1
 62
     5
420
      255
176
     1
290
     0
176
     1
 90
       50
176
     1
 90
       50
176
     1
 90
       50
176
     1
290
     0
176
     1
 90
       50
176
     1
 62
   256
176
     0
 40
1.0
176
     0
 90
        2
176
     1
  1
strokes_ogs.tif
176
     1
290
     0
176
     1
 40
1.0
176
     1
 40
1.0
176
     1
  0
VISUALSTYLE
  5
30
102
{ACAD_REACTORS
330
29
102
}
330
29
100
AcDbVisualStyle
  2
Wireframe
 70
     5
177
     3
291
     0
 70
    58
 90
        0
176
     1
 90
        2
176
     1
 90
        0
176
     1
 90
        0
176
     1
 40
0.6
176
     1
 40
30.0
176
     1
 62
     7
420
 16777215
176
     1
 90
        1
176
     1
 90
        4
176
     1
 62
     7
176
     1
 62
   257
176
     1
 90
        1
176
     1
 90
        1
176
     1
 40
1.0
176
     1
 90
        0
176
     1
 62
   257
176
     1
 40
1.0
176
     1
 90
        1
176
     1
 90
        6
176
     1
 90
        2
176
     1
 62
     7
176
     1
 90
        3
176
     1
 90
        0
176
     1
 90
        0
176
     1
290
     0
176
     1
 90
        1
176
     1
 40
0.0
176
     1
 90
        0
176
     1
290
     0
176
     1
290
     1
176
     1
290
     1
176
     1
290
     0
176
     1
290
     0
176
     1
290
     0
176
     1
290
     0
176
     1
290
     0
176
     1
290
     0
176
     1
 90
       50
176
     1
 40
0.0
176
     1
 40
1.0
176
     1
 90
        0
176
     1
 62
    18
420
        0
176
     1
 90
       50
176
     1
 90
        3
176
     1
 62
     5
420
      255
176
     1
290
     0
176
     1
 90
       50
176
     1
 90
       50
176
     1
 90
       50
176
     1
290
     0
176
     1
 90
       50
176
     1
 62
   256
176
     0
 40
1.0
176
     0
 90
        2
176
     1
  1
strokes_ogs.tif
176
     1
290
     0
176
     1
 40
1.0
176
     1
 40
1.0
176
     1
  0
VISUALSTYLE
  5
3C
102
{ACAD_REACTORS
330
29
102
}
330
29
100
AcDbVisualStyle
  2
X-Ray
 70
    25
177
     3
291
     0
 70
    58
 90
        2
176
     1
 90
        2
176
     1
 90
        1
176
     1
 90
        1
176
     1
 40
0.5
176
     1
 40
30.0
176
     1
 62
     7
420
 16777215
176
     1
 90
        1
176
     1
 90
        0
176
     1
 62
     7
176
     1
 62
   257
176
     1
 90
        1
176
     1
 90
        1
176
     1
 40
1.0
176
     1
 90
        8
176
     1
 62
     7
176
     1
 40
1.0
176
     1
 90
        1
176
     1
 90
        6
176
     1
 90
        2
176
     1
 62
     7
176
     1
 90
        3
176
     1
 90
        0
176
     1
 90
        0
176
     1
290
     0
176
     1
 90
       13
176
     1
 40
0.0
176
     1
 90
        0
176
     1
290
     0
176
     1
290
     1
176
     1
290
     1
176
     1
290
     0
176
     1
290
     0
176
     1
290
     0
176
     1
290
     0
176
     1
290
     0
176
     1
290
     0
176
     1
 90
       50
176
     1
 40
0.0
176
     1
 40
1.0
176
     1
 90
        0
176
     1
 62
    18
420
        0
176
     1
 90
       50
176
     1
 90
        3
176
     1
 62
     5
420
      255
176
     1
290
     0
176
     1
 90
       50
176
     1
 90
       50
176
     1
 90
       50
176
     1
290
     0
176
     1
 90
       50
176
     1
 62
   256
176
     0
 40
1.0
176
     0
 90
        2
176
     1
  1
strokes_ogs.tif
176
     1
290
     0
176
     1
 40
1.0
176
     1
 40
1.0
176
     1
  0
DICTIONARYVAR
  5
81
102
{ACAD_REACTORS
330
7C
102
}
330
7C
100
DictionaryVariables
280
     0
  1
1:1
  0
DICTIONARYVAR
  5
7E
102
{ACAD_REACTORS
330
7C
102
}
330
7C
100
DictionaryVariables
280
     0
  1
STANDARD
  0
DICTIONARYVAR
  5
7D
102
{ACAD_REACTORS
330
7C
102
}
330
7C
100
DictionaryVariables
280
     0
  1
STANDARD
  0
DICTIONARYVAR
  5
7F
102
{ACAD_REACTORS
330
7C
102
}
330
7C
100
DictionaryVariables
280
     0
  1
Imperial24
  0
DICTIONARYVAR
  5
80
102
{ACAD_REACTORS
330
7C
102
}
330
7C
100
DictionaryVariables
280
     0
  1
Imperial24
  0
XRECORD
  5
288
102
{ACAD_REACTORS
330
285
102
}
330
285
100
AcDbXrecord
280
     1
  1
BUILDING_ID
  1
Progetto per messa in tavola DXF, DWG
  1
FLOOR_ID
  1
694395
  0
XRECORD
  5
287
102
{ACAD_REACTORS
330
285
102
}
330
285
100
AcDbXrecord
280
     1
  1
-2001160
  1
Apparecchi idraulici
  0
XRECORD
  5
286
102
{ACAD_REACTORS
330
285
102
}
330
285
100
AcDbXrecord
280
     1
  1
859151
  1
Automatic flow rate regulator valve_Caleffi_121 DN15 : 1/2''
  0
DICTIONARY
  5
1A
330
19
100
AcDbDictionary
280
     1
281
     1
  3
BUMPTILE
360
1C
  3
DIFFUSETILE
360
1B
  3
OPACITYTILE
360
1F
  3
REFLECTIONTILE
360
1E
  3
REFRACTIONTILE
360
20
  3
SPECULARTILE
360
1D
  0
DICTIONARY
  5
12
330
11
100
AcDbDictionary
280
     1
281
     1
  3
BUMPTILE
360
14
  3
DIFFUSETILE
360
13
  3
OPACITYTILE
360
17
  3
REFLECTIONTILE
360
16
  3
REFRACTIONTILE
360
18
  3
SPECULARTILE
360
15
  0
DICTIONARY
  5
22
330
21
100
AcDbDictionary
280
     1
281
     1
  3
BUMPTILE
360
24
  3
DIFFUSETILE
360
23
  3
OPACITYTILE
360
27
  3
REFLECTIONTILE
360
26
  3
REFRACTIONTILE
360
28
  3
SPECULARTILE
360
25
  0
DICTIONARY
  5
28B
330
65
100
AcDbDictionary
280
     1
281
     1
  3
ACAD_ROUNDTRIP_2008_TABLESTYLE_CELLSTYLEMAP
360
28C
  0
XRECORD
  5
1C
102
{ACAD_REACTORS
330
1A
102
}
330
1A
100
AcDbXrecord
280
     1
270
     1
271
     1
  0
XRECORD
  5
1B
102
{ACAD_REACTORS
330
1A
102
}
330
1A
100
AcDbXrecord
280
     1
270
     1
271
     1
  0
XRECORD
  5
1F
102
{ACAD_REACTORS
330
1A
102
}
330
1A
100
AcDbXrecord
280
     1
270
     1
271
     1
  0
XRECORD
  5
1E
102
{ACAD_REACTORS
330
1A
102
}
330
1A
100
AcDbXrecord
280
     1
270
     1
271
     1
  0
XRECORD
  5
20
102
{ACAD_REACTORS
330
1A
102
}
330
1A
100
AcDbXrecord
280
     1
270
     1
271
     1
  0
XRECORD
  5
1D
102
{ACAD_REACTORS
330
1A
102
}
330
1A
100
AcDbXrecord
280
     1
270
     1
271
     1
  0
XRECORD
  5
14
102
{ACAD_REACTORS
330
12
102
}
330
12
100
AcDbXrecord
280
     1
270
     1
271
     1
  0
XRECORD
  5
13
102
{ACAD_REACTORS
330
12
102
}
330
12
100
AcDbXrecord
280
     1
270
     1
271
     1
  0
XRECORD
  5
17
102
{ACAD_REACTORS
330
12
102
}
330
12
100
AcDbXrecord
280
     1
270
     1
271
     1
  0
XRECORD
  5
16
102
{ACAD_REACTORS
330
12
102
}
330
12
100
AcDbXrecord
280
     1
270
     1
271
     1
  0
XRECORD
  5
18
102
{ACAD_REACTORS
330
12
102
}
330
12
100
AcDbXrecord
280
     1
270
     1
271
     1
  0
XRECORD
  5
15
102
{ACAD_REACTORS
330
12
102
}
330
12
100
AcDbXrecord
280
     1
270
     1
271
     1
  0
XRECORD
  5
24
102
{ACAD_REACTORS
330
22
102
}
330
22
100
AcDbXrecord
280
     1
270
     1
271
     1
  0
XRECORD
  5
23
102
{ACAD_REACTORS
330
22
102
}
330
22
100
AcDbXrecord
280
     1
270
     1
271
     1
  0
XRECORD
  5
27
102
{ACAD_REACTORS
330
22
102
}
330
22
100
AcDbXrecord
280
     1
270
     1
271
     1
  0
XRECORD
  5
26
102
{ACAD_REACTORS
330
22
102
}
330
22
100
AcDbXrecord
280
     1
270
     1
271
     1
  0
XRECORD
  5
28
102
{ACAD_REACTORS
330
22
102
}
330
22
100
AcDbXrecord
280
     1
270
     1
271
     1
  0
XRECORD
  5
25
102
{ACAD_REACTORS
330
22
102
}
330
22
100
AcDbXrecord
280
     1
270
     1
271
     1
  0
CELLSTYLEMAP
  5
28C
102
{ACAD_REACTORS
330
28B
102
}
330
28B
100
AcDbCellStyleMap
 90
        3
300
CELLSTYLE
  1
TABLEFORMAT_BEGIN
 90
        5
170
     1
 91
        0
 92
    32768
 62
   257
 93
        1
300
CONTENTFORMAT
  1
CONTENTFORMAT_BEGIN
 90
        0
 91
        0
 92
      512
 93
        0
300

 40
0.0
140
1.0
 94
        5
 62
     0
340
55
144
0.25
309
CONTENTFORMAT_END
171
     0
 94
        0
309
TABLEFORMAT_END
  1
CELLSTYLE_BEGIN
 90
        1
 91
        1
300
_TITLE
309
CELLSTYLE_END
300
CELLSTYLE
  1
TABLEFORMAT_BEGIN
 90
        5
170
     1
 91
        0
 92
        0
 62
   257
 93
        1
300
CONTENTFORMAT
  1
CONTENTFORMAT_BEGIN
 90
        0
 91
        0
 92
      512
 93
        0
300

 40
0.0
140
1.0
 94
        5
 62
     0
340
55
144
0.18
309
CONTENTFORMAT_END
171
     0
 94
        0
309
TABLEFORMAT_END
  1
CELLSTYLE_BEGIN
 90
        2
 91
        1
300
_HEADER
309
CELLSTYLE_END
300
CELLSTYLE
  1
TABLEFORMAT_BEGIN
 90
        5
170
     1
 91
        0
 92
        0
 62
   257
 93
        1
300
CONTENTFORMAT
  1
CONTENTFORMAT_BEGIN
 90
        0
 91
        0
 92
      512
 93
        0
300

 40
0.0
140
1.0
 94
        2
 62
     0
340
55
144
0.18
309
CONTENTFORMAT_END
171
     0
 94
        0
309
TABLEFORMAT_END
  1
CELLSTYLE_BEGIN
 90
        3
 91
        2
300
_DATA
309
CELLSTYLE_END
  0
ENDSEC
  0
EOF
