  0
SECTION
  2
HEADER
  9
$ACADVER
  1
AC1027
  9
$ACADMAINTVER
 70
    20
  9
$DWGCODEPAGE
  3
ANSI_1252
  9
$REQUIREDVERSIONS
160
                 0
  9
$INSBASE
 10
0.0
 20
0.0
 30
0.0
  9
$EXTMIN
 10
658.1664074431586
 20
1255.945878729989
 30
-0.00000001
  9
$EXTMAX
 10
1397.414353943163
 20
2334.000000000175
 30
0.00000001
  9
$LIMMIN
 10
0.0
 20
0.0
  9
$LIMMAX
 10
12.0
 20
9.0
  9
$ORTHOMODE
 70
     0
  9
$REGENMODE
 70
     1
  9
$FILLMODE
 70
     1
  9
$QTEXTMODE
 70
     0
  9
$MIRRTEXT
 70
     0
  9
$LTSCALE
 40
1.0
  9
$ATTMODE
 70
     1
  9
$TEXTSIZE
 40
0.2
  9
$TRACEWID
 40
0.05
  9
$TEXTSTYLE
  7
Standard
  9
$CLAYER
  8
0
  9
$CELTYPE
  6
ByLayer
  9
$CECOLOR
 62
   256
  9
$CELTSCALE
 40
1.0
  9
$DISPSILH
 70
     0
  9
$DIMSCALE
 40
1.0
  9
$DIMASZ
 40
0.18
  9
$DIMEXO
 40
0.0625
  9
$DIMDLI
 40
0.38
  9
$DIMRND
 40
0.0
  9
$DIMDLE
 40
0.0
  9
$DIMEXE
 40
0.18
  9
$DIMTP
 40
0.0
  9
$DIMTM
 40
0.0
  9
$DIMTXT
 40
0.18
  9
$DIMCEN
 40
0.09
  9
$DIMTSZ
 40
0.0
  9
$DIMTOL
 70
     0
  9
$DIMLIM
 70
     0
  9
$DIMTIH
 70
     1
  9
$DIMTOH
 70
     1
  9
$DIMSE1
 70
     0
  9
$DIMSE2
 70
     0
  9
$DIMTAD
 70
     0
  9
$DIMZIN
 70
     0
  9
$DIMBLK
  1

  9
$DIMASO
 70
     1
  9
$DIMSHO
 70
     1
  9
$DIMPOST
  1

  9
$DIMAPOST
  1

  9
$DIMALT
 70
     0
  9
$DIMALTD
 70
     2
  9
$DIMALTF
 40
25.4
  9
$DIMLFAC
 40
1.0
  9
$DIMTOFL
 70
     0
  9
$DIMTVP
 40
0.0
  9
$DIMTIX
 70
     0
  9
$DIMSOXD
 70
     0
  9
$DIMSAH
 70
     0
  9
$DIMBLK1
  1

  9
$DIMBLK2
  1

  9
$DIMSTYLE
  2
Standard
  9
$DIMCLRD
 70
     0
  9
$DIMCLRE
 70
     0
  9
$DIMCLRT
 70
     0
  9
$DIMTFAC
 40
1.0
  9
$DIMGAP
 40
0.09
  9
$DIMJUST
 70
     0
  9
$DIMSD1
 70
     0
  9
$DIMSD2
 70
     0
  9
$DIMTOLJ
 70
     1
  9
$DIMTZIN
 70
     0
  9
$DIMALTZ
 70
     0
  9
$DIMALTTZ
 70
     0
  9
$DIMUPT
 70
     0
  9
$DIMDEC
 70
     4
  9
$DIMTDEC
 70
     4
  9
$DIMALTU
 70
     2
  9
$DIMALTTD
 70
     2
  9
$DIMTXSTY
  7
Standard
  9
$DIMAUNIT
 70
     0
  9
$DIMADEC
 70
     0
  9
$DIMALTRND
 40
0.0
  9
$DIMAZIN
 70
     0
  9
$DIMDSEP
 70
    46
  9
$DIMATFIT
 70
     3
  9
$DIMFRAC
 70
     0
  9
$DIMLDRBLK
  1

  9
$DIMLUNIT
 70
     2
  9
$DIMLWD
 70
    -2
  9
$DIMLWE
 70
    -2
  9
$DIMTMOVE
 70
     0
  9
$DIMFXL
 40
1.0
  9
$DIMFXLON
 70
     0
  9
$DIMJOGANG
 40
0.7853981633974483
  9
$DIMTFILL
 70
     0
  9
$DIMTFILLCLR
 70
     0
  9
$DIMARCSYM
 70
     0
  9
$DIMLTYPE
  6

  9
$DIMLTEX1
  6

  9
$DIMLTEX2
  6

  9
$DIMTXTDIRECTION
 70
     0
  9
$LUNITS
 70
     2
  9
$LUPREC
 70
     4
  9
$SKETCHINC
 40
0.1
  9
$FILLETRAD
 40
0.0
  9
$AUNITS
 70
     0
  9
$AUPREC
 70
     0
  9
$MENU
  1
.
  9
$ELEVATION
 40
0.0
  9
$PELEVATION
 40
0.0
  9
$THICKNESS
 40
0.0
  9
$LIMCHECK
 70
     0
  9
$CHAMFERA
 40
0.0
  9
$CHAMFERB
 40
0.0
  9
$CHAMFERC
 40
0.0
  9
$CHAMFERD
 40
0.0
  9
$SKPOLY
 70
     0
  9
$TDCREATE
 40
2457549.698065244
  9
$TDUCREATE
 40
2457549.614731910
  9
$TDUPDATE
 40
2457549.698065244
  9
$TDUUPDATE
 40
2457549.614731910
  9
$TDINDWG
 40
0.0000360069
  9
$TDUSRTIMER
 40
0.0000360069
  9
$USRTIMER
 70
     1
  9
$ANGBASE
 50
0.0
  9
$ANGDIR
 70
     0
  9
$PDMODE
 70
     0
  9
$PDSIZE
 40
0.0
  9
$PLINEWID
 40
0.0
  9
$SPLFRAME
 70
     0
  9
$SPLINETYPE
 70
     6
  9
$SPLINESEGS
 70
     8
  9
$HANDSEED
  5
3F4
  9
$SURFTAB1
 70
     6
  9
$SURFTAB2
 70
     6
  9
$SURFTYPE
 70
     6
  9
$SURFU
 70
     6
  9
$SURFV
 70
     6
  9
$UCSBASE
  2

  9
$UCSNAME
  2

  9
$UCSORG
 10
0.0
 20
0.0
 30
0.0
  9
$UCSXDIR
 10
1.0
 20
0.0
 30
0.0
  9
$UCSYDIR
 10
0.0
 20
1.0
 30
0.0
  9
$UCSORTHOREF
  2

  9
$UCSORTHOVIEW
 70
     0
  9
$UCSORGTOP
 10
0.0
 20
0.0
 30
0.0
  9
$UCSORGBOTTOM
 10
0.0
 20
0.0
 30
0.0
  9
$UCSORGLEFT
 10
0.0
 20
0.0
 30
0.0
  9
$UCSORGRIGHT
 10
0.0
 20
0.0
 30
0.0
  9
$UCSORGFRONT
 10
0.0
 20
0.0
 30
0.0
  9
$UCSORGBACK
 10
0.0
 20
0.0
 30
0.0
  9
$PUCSBASE
  2

  9
$PUCSNAME
  2

  9
$PUCSORG
 10
0.0
 20
0.0
 30
0.0
  9
$PUCSXDIR
 10
1.0
 20
0.0
 30
0.0
  9
$PUCSYDIR
 10
0.0
 20
1.0
 30
0.0
  9
$PUCSORTHOREF
  2

  9
$PUCSORTHOVIEW
 70
     0
  9
$PUCSORGTOP
 10
0.0
 20
0.0
 30
0.0
  9
$PUCSORGBOTTOM
 10
0.0
 20
0.0
 30
0.0
  9
$PUCSORGLEFT
 10
0.0
 20
0.0
 30
0.0
  9
$PUCSORGRIGHT
 10
0.0
 20
0.0
 30
0.0
  9
$PUCSORGFRONT
 10
0.0
 20
0.0
 30
0.0
  9
$PUCSORGBACK
 10
0.0
 20
0.0
 30
0.0
  9
$USERI1
 70
     0
  9
$USERI2
 70
     0
  9
$USERI3
 70
     0
  9
$USERI4
 70
     0
  9
$USERI5
 70
     0
  9
$USERR1
 40
0.0
  9
$USERR2
 40
0.0
  9
$USERR3
 40
0.0
  9
$USERR4
 40
0.0
  9
$USERR5
 40
0.0
  9
$WORLDVIEW
 70
     1
  9
$SHADEDGE
 70
     3
  9
$SHADEDIF
 70
    70
  9
$TILEMODE
 70
     1
  9
$MAXACTVP
 70
    64
  9
$PINSBASE
 10
0.0
 20
0.0
 30
0.0
  9
$PLIMCHECK
 70
     0
  9
$PEXTMIN
 10
1.000000000000000E+20
 20
1.000000000000000E+20
 30
1.000000000000000E+20
  9
$PEXTMAX
 10
-1.000000000000000E+20
 20
-1.000000000000000E+20
 30
-1.000000000000000E+20
  9
$PLIMMIN
 10
0.0
 20
0.0
  9
$PLIMMAX
 10
12.0
 20
9.0
  9
$UNITMODE
 70
     0
  9
$VISRETAIN
 70
     1
  9
$PLINEGEN
 70
     0
  9
$PSLTSCALE
 70
     1
  9
$TREEDEPTH
 70
  3020
  9
$CMLSTYLE
  2
Standard
  9
$CMLJUST
 70
     0
  9
$CMLSCALE
 40
1.0
  9
$PROXYGRAPHICS
 70
     1
  9
$MEASUREMENT
 70
     1
  9
$CELWEIGHT
370
    -1
  9
$ENDCAPS
280
     0
  9
$JOINSTYLE
280
     0
  9
$LWDISPLAY
290
     0
  9
$INSUNITS
 70
     4
  9
$HYPERLINKBASE
  1

  9
$STYLESHEET
  1

  9
$XEDIT
290
     1
  9
$CEPSNTYPE
380
     0
  9
$PSTYLEMODE
290
     1
  9
$FINGERPRINTGUID
  2
{537EA135-FDED-4366-AE84-002B5AFF6BFA}
  9
$VERSIONGUID
  2
{DFE1055D-6D3E-41A7-98F3-812D5CC1C37D}
  9
$EXTNAMES
290
     1
  9
$PSVPSCALE
 40
0.0
  9
$OLESTARTUP
290
     0
  9
$SORTENTS
280
   127
  9
$INDEXCTL
280
     0
  9
$HIDETEXT
280
     1
  9
$XCLIPFRAME
280
     2
  9
$HALOGAP
280
     0
  9
$OBSCOLOR
 70
   257
  9
$OBSLTYPE
280
     0
  9
$INTERSECTIONDISPLAY
280
     0
  9
$INTERSECTIONCOLOR
 70
   257
  9
$DIMASSOC
280
     2
  9
$PROJECTNAME
  1

  9
$CAMERADISPLAY
290
     0
  9
$LENSLENGTH
 40
50.0
  9
$CAMERAHEIGHT
 40
0.0
  9
$STEPSPERSEC
 40
2.0
  9
$STEPSIZE
 40
6.0
  9
$3DDWFPREC
 40
2.0
  9
$PSOLWIDTH
 40
0.25
  9
$PSOLHEIGHT
 40
4.0
  9
$LOFTANG1
 40
1.570796326794896
  9
$LOFTANG2
 40
1.570796326794896
  9
$LOFTMAG1
 40
0.0
  9
$LOFTMAG2
 40
0.0
  9
$LOFTPARAM
 70
     7
  9
$LOFTNORMALS
280
     1
  9
$LATITUDE
 40
37.795
  9
$LONGITUDE
 40
-122.394
  9
$NORTHDIRECTION
 40
0.0
  9
$TIMEZONE
 70
 -8000
  9
$LIGHTGLYPHDISPLAY
280
     1
  9
$TILEMODELIGHTSYNCH
280
     1
  9
$CMATERIAL
347
11
  9
$SOLIDHIST
280
     0
  9
$SHOWHIST
280
     1
  9
$DWFFRAME
280
     2
  9
$DGNFRAME
280
     0
  9
$REALWORLDSCALE
290
     1
  9
$INTERFERECOLOR
 62
     1
  9
$INTERFEREOBJVS
345
33
  9
$INTERFEREVPVS
346
30
  9
$CSHADOW
280
     0
  9
$SHADOWPLANELOCATION
 40
0.0
  0
ENDSEC
  0
SECTION
  2
CLASSES
  0
CLASS
  1
ACDBDICTIONARYWDFLT
  2
AcDbDictionaryWithDefault
  3
ObjectDBX Classes
 90
        0
 91
        1
280
     0
281
     0
  0
CLASS
  1
MATERIAL
  2
AcDbMaterial
  3
ObjectDBX Classes
 90
     1153
 91
        3
280
     0
281
     0
  0
CLASS
  1
VISUALSTYLE
  2
AcDbVisualStyle
  3
ObjectDBX Classes
 90
     4095
 91
       24
280
     0
281
     0
  0
CLASS
  1
SCALE
  2
AcDbScale
  3
ObjectDBX Classes
 90
     1153
 91
       17
280
     0
281
     0
  0
CLASS
  1
TABLESTYLE
  2
AcDbTableStyle
  3
ObjectDBX Classes
 90
     4095
 91
        1
280
     0
281
     0
  0
CLASS
  1
MLEADERSTYLE
  2
AcDbMLeaderStyle
  3
ACDB_MLEADERSTYLE_CLASS
 90
     4095
 91
        1
280
     0
281
     0
  0
CLASS
  1
ACDBSECTIONVIEWSTYLE
  2
AcDbSectionViewStyle
  3
ObjectDBX Classes
 90
     1025
 91
        1
280
     0
281
     0
  0
CLASS
  1
ACDBDETAILVIEWSTYLE
  2
AcDbDetailViewStyle
  3
ObjectDBX Classes
 90
     1025
 91
        1
280
     0
281
     0
  0
CLASS
  1
RASTERVARIABLES
  2
AcDbRasterVariables
  3
ISM
 90
        0
 91
        1
280
     0
281
     0
  0
CLASS
  1
DICTIONARYVAR
  2
AcDbDictionaryVar
  3
ObjectDBX Classes
 90
        0
 91
        5
280
     0
281
     0
  0
CLASS
  1
CELLSTYLEMAP
  2
AcDbCellStyleMap
  3
ObjectDBX Classes
 90
     1152
 91
        2
280
     0
281
     0
  0
CLASS
  1
SORTENTSTABLE
  2
AcDbSortentsTable
  3
ObjectDBX Classes
 90
        0
 91
        1
280
     0
281
     0
  0
ENDSEC
  0
SECTION
  2
TABLES
  0
TABLE
  2
VPORT
  5
8
330
0
100
AcDbSymbolTable
 70
     1
  0
VPORT
  5
57
330
8
100
AcDbSymbolTableRecord
100
AcDbViewportTableRecord
  2
*Active
 70
     0
 10
0.0
 20
0.0
 11
1.0
 21
1.0
 12
1027.790380693161
 22
1794.972939365082
 13
0.0
 23
0.0
 14
1.0
 24
1.0
 15
0.0
 25
0.0
 16
0.0
 26
0.0
 36
1.0
 17
0.0
 27
0.0
 37
0.0
 40
1078.054121270186
 41
0.6857243360184988
 42
50.0
 43
0.0
 44
0.0
 50
0.0
 51
0.0
 71
     0
 72
  1000
 73
     1
 74
     1
 75
     0
 76
     0
 77
     0
 78
     0
281
     0
 65
     1
110
0.0
120
0.0
130
0.0
111
1.0
121
0.0
131
0.0
112
0.0
122
1.0
132
0.0
 79
     0
146
0.0
 60
     3
 61
     5
292
     1
282
     1
141
0.0
142
0.0
 63
   250
421
  3355443
  0
ENDTAB
  0
TABLE
  2
LTYPE
  5
5
330
0
100
AcDbSymbolTable
 70
     3
  0
LTYPE
  5
5B
330
5
100
AcDbSymbolTableRecord
100
AcDbLinetypeTableRecord
  2
ByBlock
 70
     0
  3

 72
    65
 73
     0
 40
0.0
  0
LTYPE
  5
5C
330
5
100
AcDbSymbolTableRecord
100
AcDbLinetypeTableRecord
  2
ByLayer
 70
     0
  3

 72
    65
 73
     0
 40
0.0
  0
LTYPE
  5
5D
330
5
100
AcDbSymbolTableRecord
100
AcDbLinetypeTableRecord
  2
Continuous
 70
     0
  3
Solid line
 72
    65
 73
     0
 40
0.0
  0
LTYPE
  5
69
330
5
100
AcDbSymbolTableRecord
100
AcDbLinetypeTableRecord
  2
PHANTOM2
 70
     0
  3
___ _ _ ___ _ _ ___ _ _ ___ _ _
 72
    65
 73
     6
 40
1.25
 49
0.625
 74
     0
 49
-0.125
 74
     0
 49
0.125
 74
     0
 49
-0.125
 74
     0
 49
0.125
 74
     0
 49
-0.125
 74
     0
  0
LTYPE
  5
86
330
5
100
AcDbSymbolTableRecord
100
AcDbLinetypeTableRecord
  2
Nascosto 1_5 mm
 70
     0
  3

 72
    65
 73
     2
 40
2.2
 49
1.5
 74
     0
 49
-0.7000000000000001
 74
     0
  0
ENDTAB
  0
TABLE
  2
LAYER
  5
2
330
0
100
AcDbSymbolTable
 70
     3
  0
LAYER
  5
54
330
2
100
AcDbSymbolTableRecord
100
AcDbLayerTableRecord
  2
0
 70
     0
 62
     7
  6
Continuous
370
    -3
390
F
347
21
348
0
  0
LAYER
  5
85
330
2
100
AcDbSymbolTableRecord
100
AcDbLayerTableRecord
  2
P-SANR-FIXT
 70
     0
 62
     6
  6
Continuous
370
    18
390
F
347
21
348
0
  0
ENDTAB
  0
TABLE
  2
STYLE
  5
3
330
0
100
AcDbSymbolTable
 70
     2
  0
STYLE
  5
55
330
3
100
AcDbSymbolTableRecord
100
AcDbTextStyleTableRecord
  2
Standard
 70
     0
 40
0.0
 41
1.0
 50
0.0
 71
     0
 42
0.2
  3
txt
  4

  0
STYLE
  5
5A
330
3
100
AcDbSymbolTableRecord
100
AcDbTextStyleTableRecord
  2
Annotative
 70
     0
 40
0.0
 41
1.0
 50
0.0
 71
     0
 42
0.2
  3
txt
  4

1001
AcadAnnotative
1000
AnnotativeData
1002
{
1070
     1
1070
     1
1002
}
  0
ENDTAB
  0
TABLE
  2
VIEW
  5
6
330
0
100
AcDbSymbolTable
 70
     0
  0
ENDTAB
  0
TABLE
  2
UCS
  5
7
330
0
100
AcDbSymbolTable
 70
     0
  0
ENDTAB
  0
TABLE
  2
APPID
  5
9
330
0
100
AcDbSymbolTable
 70
     3
  0
APPID
  5
56
330
9
100
AcDbSymbolTableRecord
100
AcDbRegAppTableRecord
  2
ACAD
 70
     0
  0
APPID
  5
5E
330
9
100
AcDbSymbolTableRecord
100
AcDbRegAppTableRecord
  2
AcadAnnotative
 70
     0
  0
APPID
  5
79
330
9
100
AcDbSymbolTableRecord
100
AcDbRegAppTableRecord
  2
REVIT
 70
     0
  0
ENDTAB
  0
TABLE
  2
DIMSTYLE
  5
A
330
0
100
AcDbSymbolTable
 70
     2
100
AcDbDimStyleTable
 71
     0
  0
DIMSTYLE
105
58
330
A
100
AcDbSymbolTableRecord
100
AcDbDimStyleTableRecord
  2
Standard
 70
     0
340
55
  0
DIMSTYLE
105
59
330
A
100
AcDbSymbolTableRecord
100
AcDbDimStyleTableRecord
  2
Annotative
 70
     0
340
55
1001
AcadAnnotative
1000
AnnotativeData
1002
{
1070
     1
1070
     1
1002
}
  0
ENDTAB
  0
TABLE
  2
BLOCK_RECORD
  5
1
330
0
100
AcDbSymbolTable
 70
     4
  0
BLOCK_RECORD
  5
71
102
{ACAD_XDICTIONARY
360
3EF
102
}
330
1
100
AcDbSymbolTableRecord
100
AcDbBlockTableRecord
  2
*Model_Space
340
74
 70
     0
280
     1
281
     0
  0
BLOCK_RECORD
  5
6D
330
1
100
AcDbSymbolTableRecord
100
AcDbBlockTableRecord
  2
*Paper_Space
340
70
 70
     0
280
     1
281
     0
  0
BLOCK_RECORD
  5
75
330
1
100
AcDbSymbolTableRecord
100
AcDbBlockTableRecord
  2
*Paper_Space0
340
78
 70
     0
280
     1
281
     0
  0
BLOCK_RECORD
  5
87
330
1
100
AcDbSymbolTableRecord
100
AcDbBlockTableRecord
  2
Automatic flow rate regulator valve_Caleffi_121 DN15 - 1_2__-859151-Est - Idraulica
340
0
102
{BLKREFS
331
23D
102
}
 70
     0
280
     1
281
     0
  0
BLOCK_RECORD
  5
23E
330
1
100
AcDbSymbolTableRecord
100
AcDbBlockTableRecord
  2
Automatic flow rate regulator valve_Caleffi_121 DN15 - 1_2__-V1-Est - Idraulica
340
0
102
{BLKREFS
331
301
102
}
 70
     0
280
     1
281
     0
  0
BLOCK_RECORD
  5
302
330
1
100
AcDbSymbolTableRecord
100
AcDbBlockTableRecord
  2
Automatic flow rate regulator valve_Caleffi_121 DN15 - 1_2__-V2-Est - Idraulica
340
0
102
{BLKREFS
331
3E9
102
}
 70
     0
280
     1
281
     0
  0
ENDTAB
  0
ENDSEC
  0
SECTION
  2
BLOCKS
  0
BLOCK
  5
72
330
71
100
AcDbEntity
  8
0
100
AcDbBlockBegin
  2
*Model_Space
 70
     0
 10
0.0
 20
0.0
 30
0.0
  3
*Model_Space
  1

  0
ENDBLK
  5
73
330
71
100
AcDbEntity
  8
0
100
AcDbBlockEnd
  0
BLOCK
  5
6E
330
6D
100
AcDbEntity
 67
     1
  8
0
100
AcDbBlockBegin
  2
*Paper_Space
 70
     0
 10
0.0
 20
0.0
 30
0.0
  3
*Paper_Space
  1

  0
ENDBLK
  5
6F
330
6D
100
AcDbEntity
 67
     1
  8
0
100
AcDbBlockEnd
  0
BLOCK
  5
76
330
75
100
AcDbEntity
 67
     1
  8
0
100
AcDbBlockBegin
  2
*Paper_Space0
 70
     0
 10
0.0
 20
0.0
 30
0.0
  3
*Paper_Space0
  1

  0
ENDBLK
  5
77
330
75
100
AcDbEntity
 67
     1
  8
0
100
AcDbBlockEnd
  0
BLOCK
  5
23B
330
87
100
AcDbEntity
  8
0
100
AcDbBlockBegin
  2
Automatic flow rate regulator valve_Caleffi_121 DN15 - 1_2__-859151-Est - Idraulica
 70
     0
 10
0.0
 20
0.0
 30
0.0
  3
Automatic flow rate regulator valve_Caleffi_121 DN15 - 1_2__-859151-Est - Idraulica
  1

  0
LINE
  5
88
330
87
100
AcDbEntity
  8
P-SANR-FIXT
100
AcDbLine
 10
842.166407443203
 20
1666.749999999865
 30
0.0
 11
837.6664074432028
 21
1666.749999999865
 31
0.0
  0
LINE
  5
89
330
87
100
AcDbEntity
  8
P-SANR-FIXT
100
AcDbLine
 10
837.6664074432028
 20
1659.249999999992
 30
0.0
 11
842.1664074432026
 21
1659.249999999992
 31
0.0
  0
LINE
  5
8A
330
87
100
AcDbEntity
  8
P-SANR-FIXT
100
AcDbLine
 10
837.6664074432028
 20
1669.449999999929
 30
0.0
 11
830.3058288610015
 21
1669.449999999929
 31
0.0
  0
LINE
  5
8B
330
87
100
AcDbEntity
  8
P-SANR-FIXT
100
AcDbLine
 10
831.0864074431986
 20
1656.549999999929
 30
0.0
 11
837.6664074432026
 21
1656.549999999929
 31
0.0
  0
LINE
  5
8C
330
87
100
AcDbEntity
  8
P-SANR-FIXT
100
AcDbLine
 10
804.1714435506094
 20
1678.99999999998
 30
0.0
 11
804.1714435506094
 21
1676.299999999929
 31
0.0
  0
LINE
  5
8D
330
87
100
AcDbEntity
  8
P-SANR-FIXT
100
AcDbLine
 10
827.1613713357922
 20
1676.299999999929
 30
0.0
 11
827.1613713357922
 21
1678.99999999998
 31
0.0
  0
LINE
  5
8E
330
87
100
AcDbEntity
  8
P-SANR-FIXT
100
AcDbLine
 10
801.0269860254
 20
1676.299999999929
 30
0.0
 11
801.0269860254
 21
1662.780578582126
 31
0.0
  0
LINE
  5
8F
330
87
100
AcDbEntity
  8
P-SANR-FIXT
100
AcDbLine
 10
830.3058288610015
 20
1669.449999999929
 30
0.0
 11
830.3058288610015
 21
1676.299999999929
 31
0.0
  0
LINE
  5
90
330
87
100
AcDbEntity
  8
P-SANR-FIXT
100
AcDbLine
 10
800.2464074432028
 20
1662.780578582126
 30
0.0
 11
800.2464074432028
 21
1652.499999999912
 31
0.0
  0
LINE
  5
91
330
87
100
AcDbEntity
  8
P-SANR-FIXT
100
AcDbLine
 10
831.0864074431986
 20
1652.499999999912
 30
0.0
 11
831.0864074431986
 21
1656.549999999929
 31
0.0
  0
LINE
  5
92
330
87
100
AcDbEntity
  8
P-SANR-FIXT
100
AcDbLine
 10
801.166407443204
 20
1652.499999999912
 30
0.0
 11
801.166407443204
 21
1650.999999999912
 31
0.0
  0
LINE
  5
93
330
87
100
AcDbEntity
  8
P-SANR-FIXT
100
AcDbLine
 10
830.1664074431975
 20
1650.999999999912
 30
0.0
 11
830.1664074431975
 21
1652.499999999912
 31
0.0
  0
LINE
  5
94
330
87
100
AcDbEntity
  8
P-SANR-FIXT
100
AcDbLine
 10
803.9164074432024
 20
1650.999999999912
 30
0.0
 11
803.9164074432024
 21
1647.999999999913
 31
0.0
  0
LINE
  5
95
330
87
100
AcDbEntity
  8
P-SANR-FIXT
100
AcDbLine
 10
827.416407443199
 20
1647.999999999913
 30
0.0
 11
827.416407443199
 21
1650.999999999912
 31
0.0
  0
LINE
  5
96
330
87
100
AcDbEntity
  8
P-SANR-FIXT
100
AcDbLine
 10
802.2164074432026
 20
1647.999999999913
 30
0.0
 11
802.2164074432026
 21
1645.999999999941
 31
0.0
  0
LINE
  5
97
330
87
100
AcDbEntity
  8
P-SANR-FIXT
100
AcDbLine
 10
829.1164074431989
 20
1645.999999999941
 30
0.0
 11
829.1164074431989
 21
1647.999999999913
 31
0.0
  0
LINE
  5
98
330
87
100
AcDbEntity
  8
P-SANR-FIXT
100
AcDbLine
 10
800.8664074432157
 20
1645.999999999941
 30
0.0
 11
800.8664074432157
 21
1636.999999999941
 31
0.0
  0
LINE
  5
99
330
87
100
AcDbEntity
  8
P-SANR-FIXT
100
AcDbLine
 10
830.4664074431858
 20
1636.999999999941
 30
0.0
 11
830.4664074431858
 21
1645.999999999941
 31
0.0
  0
LINE
  5
9A
330
87
100
AcDbEntity
  8
P-SANR-FIXT
100
AcDbLine
 10
808.1664074432026
 20
1636.999999999941
 30
0.0
 11
808.1664074432026
 21
1614.999999999941
 31
0.0
  0
LINE
  5
9B
330
87
100
AcDbEntity
  8
P-SANR-FIXT
100
AcDbLine
 10
823.1664074431987
 20
1614.999999999941
 30
0.0
 11
823.1664074431987
 21
1636.999999999941
 31
0.0
  0
LINE
  5
9C
330
87
100
AcDbEntity
  8
P-SANR-FIXT
100
AcDbLine
 10
808.1664074432026
 20
1614.999999999941
 30
0.0
 11
809.1664074432024
 21
1613.999999999941
 31
0.0
  0
LINE
  5
9D
330
87
100
AcDbEntity
  8
P-SANR-FIXT
100
AcDbLine
 10
822.1664074431991
 20
1613.999999999941
 30
0.0
 11
823.1664074431989
 21
1614.999999999941
 31
0.0
  0
LINE
  5
9E
330
87
100
AcDbEntity
  8
P-SANR-FIXT
100
AcDbLine
 10
842.1664074432012
 20
1659.254722606397
 30
0.0
 11
842.1664074432012
 21
1666.745277393459
 31
0.0
  0
LINE
  5
9F
330
87
100
AcDbEntity
  8
P-SANR-FIXT
100
AcDbLine
 10
837.6664074432012
 20
1669.447261330007
 30
0.0
 11
837.666407443201
 21
1656.552738669849
 31
0.0
  0
SPLINE
  5
A0
330
87
100
AcDbEntity
  8
P-SANR-FIXT
100
AcDbSpline
210
0.0
220
0.0
230
1.0
 70
     8
 71
     3
 72
    26
 73
    22
 74
     0
 42
0.000000001
 43
0.0000000001
 40
0.0180124004676821
 40
0.0180124004676821
 40
0.0180124004676821
 40
0.0180124004676821
 40
0.1428571428571428
 40
0.2142857142857143
 40
0.25
 40
0.2857142857142857
 40
0.3214285714285714
 40
0.3571428571428571
 40
0.3928571428571428
 40
0.4285714285714286
 40
0.4642857142857144
 40
0.5
 40
0.5714285714285714
 40
0.6071428571428572
 40
0.6428571428571428
 40
0.6785714285714287
 40
0.7142857142857144
 40
0.75
 40
0.7857142857142857
 40
0.8571428571428571
 40
1.0
 40
1.0
 40
1.0
 40
1.0
 10
830.3037885306936
 20
1669.447209109106
 30
0.0
 10
830.2967061528431
 20
1669.434327551865
 30
0.0
 10
830.2595784517482
 20
1669.344127328598
 30
0.0
 10
830.1602596405192
 20
1669.11355599011
 30
0.0
 10
830.0834628906759
 20
1668.932047653758
 30
0.0
 10
830.0217702737397
 20
1668.77680230332
 30
0.0
 10
829.953807652858
 20
1668.603290857546
 30
0.0
 10
829.8784457150434
 20
1668.412187492856
 30
0.0
 10
829.7990926540741
 20
1668.204049185671
 30
0.0
 10
829.7194462354733
 20
1667.979246774066
 30
0.0
 10
829.6375084310199
 20
1667.738840284864
 30
0.0
 10
829.5223522280997
 20
1667.398940949422
 30
0.0
 10
829.4093241961414
 20
1667.030152242753
 30
0.0
 10
829.302454017467
 20
1666.634879189234
 30
0.0
 10
829.2218332235801
 20
1666.32672851796
 30
0.0
 10
829.1453107331056
 20
1666.007179961369
 30
0.0
 10
829.0767450723743
 20
1665.676797294405
 30
0.0
 10
829.01471296575
 20
1665.336278834526
 30
0.0
 10
828.9373955722783
 20
1664.870619601616
 30
0.0
 10
828.8322254455914
 20
1664.029982209462
 30
0.0
 10
828.8049487475674
 20
1663.280439450856
 30
0.0
 10
828.810162812444
 20
1662.780578582125
 30
0.0
  0
SPLINE
  5
A1
330
87
100
AcDbEntity
  8
P-SANR-FIXT
100
AcDbSpline
210
0.0
220
0.0
230
1.0
 70
     8
 71
     3
 72
    24
 73
    20
 74
     0
 42
0.000000001
 43
0.0000000001
 40
0.0
 40
0.0
 40
0.0
 40
0.0
 40
0.1428571428571428
 40
0.2142857142857143
 40
0.2857142857142857
 40
0.3214285714285714
 40
0.3571428571428571
 40
0.3928571428571428
 40
0.4285714285714286
 40
0.4642857142857144
 40
0.5
 40
0.5357142857142857
 40
0.5714285714285714
 40
0.6071428571428572
 40
0.6428571428571428
 40
0.7142857142857144
 40
0.7857142857142857
 40
0.8571428571428571
 40
0.9811944420567769
 40
0.9811944420567769
 40
0.9811944420567769
 40
0.9811944420567769
 10
829.6743354041264
 20
1662.780578582125
 30
0.0
 10
829.6853323834362
 20
1662.301946410188
 30
0.0
 10
829.7294521802257
 20
1661.59015650814
 30
0.0
 10
829.8577906961108
 20
1660.687638490005
 30
0.0
 10
829.9579237591409
 20
1660.149191080272
 30
0.0
 10
830.0451686601398
 20
1659.737841559496
 30
0.0
 10
830.1171462112735
 20
1659.439913317229
 30
0.0
 10
830.1918793357859
 20
1659.152942451747
 30
0.0
 10
830.2660227915747
 20
1658.877255425052
 30
0.0
 10
830.3412220490272
 20
1658.613953817454
 30
0.0
 10
830.4192270079051
 20
1658.363965670984
 30
0.0
 10
830.496629885717
 20
1658.127497461096
 30
0.0
 10
830.5701642342407
 20
1657.904867396906
 30
0.0
 10
830.6411559504313
 20
1657.696926152123
 30
0.0
 10
830.7352344373475
 20
1657.440465971579
 30
0.0
 10
830.8407128491699
 20
1657.159748459525
 30
0.0
 10
830.9455891728827
 20
1656.891082695551
 30
0.0
 10
831.0461955806355
 20
1656.647622619941
 30
0.0
 10
831.0784210218784
 20
1656.565009457807
 30
0.0
 10
831.0845821889449
 20
1656.552783076962
 30
0.0
  0
LINE
  5
A2
330
87
100
AcDbEntity
  8
P-SANR-FIXT
100
AcDbLine
 10
822.1664074431974
 20
1613.99999999994
 30
0.0
 11
809.1664074432008
 21
1613.99999999994
 31
0.0
  0
LINE
  5
A3
330
87
100
AcDbEntity
  8
P-SANR-FIXT
100
AcDbLine
 10
801.0269860253984
 20
1676.299999999928
 30
0.0
 11
830.3058288609998
 21
1676.299999999928
 31
0.0
  0
LINE
  5
A4
330
87
100
AcDbEntity
  8
P-SANR-FIXT
100
AcDbLine
 10
800.2464074432012
 20
1662.780578582125
 30
0.0
 11
829.6743354041264
 21
1662.780578582125
 31
0.0
  0
LINE
  5
A5
330
87
100
AcDbEntity
  8
P-SANR-FIXT
100
AcDbLine
 10
800.2464074432012
 20
1652.499999999912
 30
0.0
 11
831.0864074431972
 21
1652.499999999912
 31
0.0
  0
LINE
  5
A6
330
87
100
AcDbEntity
  8
P-SANR-FIXT
100
AcDbLine
 10
801.1664074432024
 20
1650.999999999912
 30
0.0
 11
830.1664074431959
 21
1650.999999999912
 31
0.0
  0
LINE
  5
A7
330
87
100
AcDbEntity
  8
P-SANR-FIXT
100
AcDbLine
 10
802.2164074432009
 20
1647.999999999912
 30
0.0
 11
829.1164074431973
 21
1647.999999999912
 31
0.0
  0
LINE
  5
A8
330
87
100
AcDbEntity
  8
P-SANR-FIXT
100
AcDbLine
 10
800.8664074432141
 20
1645.99999999994
 30
0.0
 11
830.466407443184
 21
1645.99999999994
 31
0.0
  0
LINE
  5
A9
330
87
100
AcDbEntity
  8
P-SANR-FIXT
100
AcDbLine
 10
800.8664074432141
 20
1636.99999999994
 30
0.0
 11
830.466407443184
 21
1636.99999999994
 31
0.0
  0
LINE
  5
AA
330
87
100
AcDbEntity
  8
P-SANR-FIXT
100
AcDbLine
 10
808.166407443201
 20
1614.99999999994
 30
0.0
 11
823.1664074431973
 21
1614.99999999994
 31
0.0
  0
LINE
  5
AB
330
87
100
AcDbEntity
  8
P-SANR-FIXT
100
AcDbLine
 10
822.1664074432004
 20
2334.000000000175
 30
0.0
 11
822.1664074432004
 21
2322.500000000175
 31
0.0
  0
LINE
  5
AC
330
87
100
AcDbEntity
  8
P-SANR-FIXT
100
AcDbLine
 10
833.1664074432005
 20
2322.500000000175
 30
0.0
 11
833.1664074432005
 21
2334.000000000175
 31
0.0
  0
LINE
  5
AD
330
87
100
AcDbEntity
  8
P-SANR-FIXT
100
AcDbLine
 10
824.6664074432006
 20
2322.500000000175
 30
0.0
 11
824.6664074432006
 21
2319.000000000082
 31
0.0
  0
LINE
  5
AE
330
87
100
AcDbEntity
  8
P-SANR-FIXT
100
AcDbLine
 10
830.6664074432003
 20
2319.000000000082
 30
0.0
 11
830.6664074432003
 21
2322.500000000175
 31
0.0
  0
LINE
  5
AF
330
87
100
AcDbEntity
  8
P-SANR-FIXT
100
AcDbLine
 10
820.4164074432004
 20
2319.000000000082
 30
0.0
 11
820.4164074432004
 21
2316.000000000018
 31
0.0
  0
LINE
  5
B0
330
87
100
AcDbEntity
  8
P-SANR-FIXT
100
AcDbLine
 10
834.9164074432003
 20
2316.000000000018
 30
0.0
 11
834.9164074432003
 21
2319.000000000082
 31
0.0
  0
LWPOLYLINE
  5
B1
330
87
100
AcDbEntity
  8
P-SANR-FIXT
100
AcDbPolyline
 90
       31
 70
   128
 43
0.0
 10
843.3150475941124
 20
2256.327965773125
 10
843.3227756341988
 20
2256.276042255185
 10
843.3325738795883
 20
2256.224469309699
 10
843.3444266551788
 20
2256.173329442379
 10
843.3583149990575
 20
2256.122704466101
 10
843.3742166928368
 20
2256.07267537003
 10
843.3921062971991
 20
2256.023322190046
 10
843.4119551925938
 20
2255.974723880709
 10
843.4337316250221
 20
2255.926958188947
 10
843.4574007568379
 20
2255.880101529678
 10
843.482924722479
 20
2255.83422886356
 10
843.5102626890456
 20
2255.789413577074
 10
843.5393709216224
 20
2255.745727365118
 10
843.5702028532475
 20
2255.703240116313
 10
843.6027091594068
 20
2255.662019801192
 10
843.6368378369447
 20
2255.622132363467
 10
843.6725342872582
 20
2255.583641614529
 10
843.7097414036413
 20
2255.546609131365
 10
843.7483996626447
 20
2255.51109415805
 10
843.7884472193008
 20
2255.477153510963
 10
843.829820006062
 20
2255.4448414879
 10
843.872451835295
 20
2255.414209781205
 10
843.9162745051676
 20
2255.385307395075
 10
843.9612179087561
 20
2255.358180567161
 10
844.0072101462025
 20
2255.332872694602
 10
844.0541776397376
 20
2255.309424264595
 10
844.1020452513914
 20
2255.287872789625
 10
844.1507364031961
 20
2255.268252747456
 10
844.200173199696
 20
2255.25059552597
 10
844.2502765525626
 20
2255.234929372953
 10
844.2771331516135
 20
2255.227426496326
  0
LWPOLYLINE
  5
B2
330
87
100
AcDbEntity
  8
P-SANR-FIXT
100
AcDbPolyline
 90
       31
 70
   128
 43
0.0
 10
787.0556817347879
 20
2255.227426496326
 10
787.1061066051098
 20
2255.242024673329
 10
787.1559073695351
 20
2255.258627630338
 10
787.2050043574645
 20
2255.277208806163
 10
787.2533190241905
 20
2255.297738474888
 10
787.3007740765532
 20
2255.320183793421
 10
787.3472935965917
 20
2255.344508854041
 10
787.3928031629977
 20
2255.370674741841
 10
787.4372299701733
 20
2255.39863959698
 10
787.4805029447042
 20
2255.428358681657
 10
787.5225528590618
 20
2255.459784451676
 10
787.5633124423538
 20
2255.492866632509
 10
787.6027164879418
 20
2255.527552299723
 10
787.6407019577585
 20
2255.563785963651
 10
787.6772080831552
 20
2255.601509658158
 10
787.712176462119
 20
2255.640663033382
 10
787.7455511527029
 20
2255.681183452275
 10
787.7772787625218
 20
2255.723006090809
 10
787.807308534168
 20
2255.766064041685
 10
787.8355924264128
 20
2255.810288421367
 10
787.8620851910623
 20
2255.855608480282
 10
787.8867444453446
 20
2255.901951716003
 10
787.9095307397131
 20
2255.949243989237
 10
787.9304076209578
 20
2255.997409642438
 10
787.9493416905219
 20
2256.046371620835
 10
787.9663026579334
 20
2256.096051595707
 10
787.9812633892626
 20
2256.146370089691
 10
787.9941999505305
 20
2256.197246603933
 10
788.0050916459992
 20
2256.248599746861
 10
788.013921051279
 20
2256.300347364403
 10
788.0177672922887
 20
2256.327965773125
  0
LINE
  5
B3
330
87
100
AcDbEntity
  8
P-SANR-FIXT
100
AcDbLine
 10
787.0556817347879
 20
2255.227426496326
 30
0.0
 11
777.4075883981168
 21
2252.642227678265
 31
0.0
  0
LINE
  5
B4
330
87
100
AcDbEntity
  8
P-SANR-FIXT
100
AcDbLine
 10
853.9252264882845
 20
2252.642227678265
 30
0.0
 11
844.2771331516135
 21
2255.227426496326
 31
0.0
  0
LWPOLYLINE
  5
B5
330
87
100
AcDbEntity
  8
P-SANR-FIXT
100
AcDbPolyline
 90
       34
 70
   128
 43
0.0
 10
853.9252264882845
 20
2252.642227678265
 10
853.9636461913213
 20
2252.631105039342
 10
854.0015903757685
 20
2252.618454919
 10
854.0389983390255
 20
2252.604297554732
 10
854.0758102363311
 20
2252.588655595302
 10
854.1119671765022
 20
2252.571554064508
 10
854.1474113161477
 20
2252.553020321151
 10
854.1820859522051
 20
2252.533084015265
 10
854.2159356126536
 20
2252.51177704069
 10
854.2489061452574
 20
2252.489133484038
 10
854.2809448041976
 20
2252.465189570169
 10
854.3120003344544
 20
2252.439983604238
 10
854.3420230538044
 20
2252.413555910414
 10
854.3709649323011
 20
2252.385948767368
 10
854.3987796691126
 20
2252.357206340642
 10
854.4254227665939
 20
2252.327374611985
 10
854.4508516014722
 20
2252.2965013058
 10
854.4750254930365
 20
2252.264635812792
 10
854.4979057682173
 20
2252.23182911095
 10
854.5194558234545
 20
2252.198133684
 10
854.5396411832573
 20
2252.163603437438
 10
854.558429555356
 20
2252.128293612291
 10
854.5757908823629
 20
2252.092260696747
 10
854.5916973898586
 20
2252.055562335785
 10
854.6061236308245
 20
2252.018257238952
 10
854.6190465263522
 20
2251.980405086448
 10
854.6304454025657
 20
2251.94206643364
 10
854.6403020236946
 20
2251.903302614195
 10
854.6486006212477
 20
2251.864175641955
 10
854.6553279192393
 20
2251.824748111728
 10
854.6604731554275
 20
2251.785083099153
 10
854.6640280985323
 20
2251.745244059787
 10
854.6659870614032
 20
2251.705294727596
 10
854.6664074431818
 20
2251.676301851976
  0
LWPOLYLINE
  5
B6
330
87
100
AcDbEntity
  8
P-SANR-FIXT
100
AcDbPolyline
 90
       34
 70
   128
 43
0.0
 10
776.6664074432194
 20
2251.676301851976
 10
776.6672073365586
 20
2251.716291186163
 10
776.6696057369167
 20
2251.756216545945
 10
776.6735988073656
 20
2251.796014059265
 10
776.6791801598437
 20
2251.83562005859
 10
776.6863408653782
 20
2251.874971182771
 10
776.6950694683672
 20
2251.914004478403
 10
776.7053520049086
 20
2251.95265750054
 10
776.7171720251369
 20
2251.990868412592
 10
776.7305106195416
 20
2252.028576085251
 10
776.7453464492165
 20
2252.065720194285
 10
776.7616557799994
 20
2252.102241317042
 10
776.77941252044
 20
2252.138081027517
 10
776.7985882635419
 20
2252.17318198982
 10
776.819152332206
 20
2252.207488049897
 10
776.8410718283099
 20
2252.240944325371
 10
776.864311685335
 20
2252.273497293339
 10
776.8888347244685
 20
2252.305094875995
 10
776.9146017140784
 20
2252.335686523947
 10
776.9415714324785
 20
2252.365223297087
 10
776.9697007338723
 20
2252.393657942876
 10
776.9989446173781
 20
2252.420944971947
 10
777.0292562990208
 20
2252.447040730875
 10
777.060587286576
 20
2252.471903472013
 10
777.0928874571469
 20
2252.495493420277
 10
777.1261051373512
 20
2252.517772836784
 10
777.1601871859866
 20
2252.538706079219
 10
777.1950790790457
 20
2252.558259658861
 10
777.2307249969427
 20
2252.576402294153
 10
777.2670679138131
 20
2252.593104960748
 10
777.3040496887427
 20
2252.608340937944
 10
777.3416111587807
 20
2252.622085851426
 10
777.3796922335874
 20
2252.634317712265
 10
777.4075883981169
 20
2252.642227678265
  0
LINE
  5
B7
330
87
100
AcDbEntity
  8
P-SANR-FIXT
100
AcDbLine
 10
776.6664074432195
 20
2251.676301851976
 30
0.0
 11
776.6664074432195
 21
2250.000000000032
 31
0.0
  0
LINE
  5
B8
330
87
100
AcDbEntity
  8
P-SANR-FIXT
100
AcDbLine
 10
854.6664074431816
 20
2250.000000000032
 30
0.0
 11
854.6664074431816
 21
2251.676301851976
 31
0.0
  0
LINE
  5
B9
330
87
100
AcDbEntity
  8
P-SANR-FIXT
100
AcDbLine
 10
788.1664074432006
 20
2316.000000000018
 30
0.0
 11
788.1664074432006
 21
2306.500000000097
 31
0.0
  0
LINE
  5
BA
330
87
100
AcDbEntity
  8
P-SANR-FIXT
100
AcDbLine
 10
843.166407443201
 20
2306.500000000097
 30
0.0
 11
843.166407443201
 21
2316.000000000018
 31
0.0
  0
LINE
  5
BB
330
87
100
AcDbEntity
  8
P-SANR-FIXT
100
AcDbLine
 10
789.913407443201
 20
2306.500000000097
 30
0.0
 11
789.913407443201
 21
2268.000000000012
 31
0.0
  0
LINE
  5
BC
330
87
100
AcDbEntity
  8
P-SANR-FIXT
100
AcDbLine
 10
841.4194074432002
 20
2268.000000000012
 30
0.0
 11
841.4194074432002
 21
2306.500000000097
 31
0.0
  0
LINE
  5
BD
330
87
100
AcDbEntity
  8
P-SANR-FIXT
100
AcDbLine
 10
822.1664074431989
 20
2334.000000000173
 30
0.0
 11
833.1664074431989
 21
2334.000000000173
 31
0.0
  0
LINE
  5
BE
330
87
100
AcDbEntity
  8
P-SANR-FIXT
100
AcDbLine
 10
822.1696190708032
 20
2322.500000000173
 30
0.0
 11
833.1631958155945
 21
2322.500000000173
 31
0.0
  0
LINE
  5
BF
330
87
100
AcDbEntity
  8
P-SANR-FIXT
100
AcDbLine
 10
820.4188439510149
 20
2319.00000000008
 30
0.0
 11
834.9139709353828
 21
2319.00000000008
 31
0.0
  0
LINE
  5
C0
330
87
100
AcDbEntity
  8
P-SANR-FIXT
100
AcDbLine
 10
788.0177672922873
 20
2256.327965773123
 30
0.0
 11
843.315047594111
 21
2256.327965773123
 31
0.0
  0
LINE
  5
C1
330
87
100
AcDbEntity
  8
P-SANR-FIXT
100
AcDbLine
 10
788.166407443199
 20
2316.000000000016
 30
0.0
 11
843.1664074431992
 21
2316.000000000016
 31
0.0
  0
LINE
  5
C2
330
87
100
AcDbEntity
  8
P-SANR-FIXT
100
AcDbLine
 10
788.166407443199
 20
2306.500000000095
 30
0.0
 11
843.1664074431992
 21
2306.500000000095
 31
0.0
  0
LINE
  5
C3
330
87
100
AcDbEntity
  8
P-SANR-FIXT
100
AcDbLine
 10
789.9164074432039
 20
2268.00000000001
 30
0.0
 11
790.4088738677073
 21
2268.00000000001
 31
0.0
  0
LINE
  5
C4
330
87
100
AcDbEntity
  8
P-SANR-FIXT
100
AcDbLine
 10
790.4088738677073
 20
2268.00000000001
 30
0.0
 11
797.4562865073022
 21
2268.00000000001
 31
0.0
  0
LINE
  5
C5
330
87
100
AcDbEntity
  8
P-SANR-FIXT
100
AcDbLine
 10
797.5123990358814
 20
2268.00000000001
 30
0.0
 11
804.5079417875898
 21
2268.00000000001
 31
0.0
  0
LINE
  5
C6
330
87
100
AcDbEntity
  8
P-SANR-FIXT
100
AcDbLine
 10
804.5079417875896
 20
2268.00000000001
 30
0.0
 11
805.6968609086396
 21
2268.00000000001
 31
0.0
  0
LINE
  5
C7
330
87
100
AcDbEntity
  8
P-SANR-FIXT
100
AcDbLine
 10
805.6968609086398
 20
2268.00000000001
 30
0.0
 11
815.666407443199
 21
2268.00000000001
 31
0.0
  0
LINE
  5
C8
330
87
100
AcDbEntity
  8
P-SANR-FIXT
100
AcDbLine
 10
815.7427625421643
 20
2268.00000000001
 30
0.0
 11
825.6359539777573
 21
2268.00000000001
 31
0.0
  0
LINE
  5
C9
330
87
100
AcDbEntity
  8
P-SANR-FIXT
100
AcDbLine
 10
825.6359539777573
 20
2268.00000000001
 30
0.0
 11
826.8248730988073
 21
2268.00000000001
 31
0.0
  0
LINE
  5
CA
330
87
100
AcDbEntity
  8
P-SANR-FIXT
100
AcDbLine
 10
826.8248730988073
 20
2268.00000000001
 30
0.0
 11
833.8204158505122
 21
2268.00000000001
 31
0.0
  0
LINE
  5
CB
330
87
100
AcDbEntity
  8
P-SANR-FIXT
100
AcDbLine
 10
833.8765283790959
 20
2268.00000000001
 30
0.0
 11
840.9239410186904
 21
2268.00000000001
 31
0.0
  0
LINE
  5
CC
330
87
100
AcDbEntity
  8
P-SANR-FIXT
100
AcDbLine
 10
840.92394101869
 20
2268.00000000001
 30
0.0
 11
841.4164074431939
 21
2268.00000000001
 31
0.0
  0
LINE
  5
CD
330
87
100
AcDbEntity
  8
P-SANR-FIXT
100
AcDbLine
 10
826.8248730988073
 20
2256.327965773124
 30
0.0
 11
826.2471505868369
 21
2256.327965773124
 31
0.0
  0
LINE
  5
CE
330
87
100
AcDbEntity
  8
P-SANR-FIXT
100
AcDbLine
 10
826.2332828362268
 20
2256.327965773124
 30
0.0
 11
825.6359539777573
 21
2256.327965773124
 31
0.0
  0
LINE
  5
CF
330
87
100
AcDbEntity
  8
P-SANR-FIXT
100
AcDbLine
 10
805.6968609086398
 20
2256.327965773124
 30
0.0
 11
805.0995320501705
 21
2256.327965773124
 31
0.0
  0
LINE
  5
D0
330
87
100
AcDbEntity
  8
P-SANR-FIXT
100
AcDbLine
 10
805.0856642995613
 20
2256.327965773124
 30
0.0
 11
804.5079417875898
 21
2256.327965773124
 31
0.0
  0
LINE
  5
D1
330
87
100
AcDbEntity
  8
P-SANR-FIXT
100
AcDbLine
 10
789.9164074432039
 20
2256.327965773124
 30
0.0
 11
789.9164074432039
 21
2268.00000000001
 31
0.0
  0
LINE
  5
D2
330
87
100
AcDbEntity
  8
P-SANR-FIXT
100
AcDbLine
 10
790.4088738677073
 20
2256.327965773124
 30
0.0
 11
790.4088738677073
 21
2268.00000000001
 31
0.0
  0
LINE
  5
D3
330
87
100
AcDbEntity
  8
P-SANR-FIXT
100
AcDbLine
 10
804.5079417875896
 20
2256.327965773124
 30
0.0
 11
804.5079417875896
 21
2268.00000000001
 31
0.0
  0
LINE
  5
D4
330
87
100
AcDbEntity
  8
P-SANR-FIXT
100
AcDbLine
 10
805.6968609086398
 20
2256.327965773124
 30
0.0
 11
805.6968609086398
 21
2268.00000000001
 31
0.0
  0
LINE
  5
D5
330
87
100
AcDbEntity
  8
P-SANR-FIXT
100
AcDbLine
 10
825.6359539777573
 20
2256.327965773124
 30
0.0
 11
825.6359539777573
 21
2268.00000000001
 31
0.0
  0
LINE
  5
D6
330
87
100
AcDbEntity
  8
P-SANR-FIXT
100
AcDbLine
 10
826.8248730988073
 20
2256.327965773124
 30
0.0
 11
826.8248730988073
 21
2268.00000000001
 31
0.0
  0
LINE
  5
D7
330
87
100
AcDbEntity
  8
P-SANR-FIXT
100
AcDbLine
 10
840.92394101869
 20
2256.327965773124
 30
0.0
 11
840.92394101869
 21
2268.00000000001
 31
0.0
  0
LINE
  5
D8
330
87
100
AcDbEntity
  8
P-SANR-FIXT
100
AcDbLine
 10
841.4164074431939
 20
2256.327965773124
 30
0.0
 11
841.4164074431939
 21
2268.00000000001
 31
0.0
  0
LINE
  5
D9
330
87
100
AcDbEntity
  8
P-SANR-FIXT
100
AcDbLine
 10
681.16640744316
 20
1813.399999999996
 30
0.0
 11
683.1664074432016
 21
1813.399999999996
 31
0.0
  0
LINE
  5
DA
330
87
100
AcDbEntity
  8
P-SANR-FIXT
100
AcDbLine
 10
683.1664074432015
 20
1886.599999999996
 30
0.0
 11
681.16640744316
 21
1886.599999999996
 31
0.0
  0
LINE
  5
DB
330
87
100
AcDbEntity
  8
P-SANR-FIXT
100
AcDbLine
 10
658.1664074431587
 20
1880.208391590562
 30
0.0
 11
658.1664074431587
 21
1882.999999999987
 31
0.0
  0
LINE
  5
DC
330
87
100
AcDbEntity
  8
P-SANR-FIXT
100
AcDbLine
 10
658.1664074431587
 20
1817.000000000006
 30
0.0
 11
658.1664074431587
 21
1819.791608409431
 31
0.0
  0
LINE
  5
DD
330
87
100
AcDbEntity
  8
P-SANR-FIXT
100
AcDbLine
 10
658.1664074431587
 20
1819.791608409431
 30
0.0
 11
658.1664074431586
 21
1847.208391590572
 31
0.0
  0
LINE
  5
DE
330
87
100
AcDbEntity
  8
P-SANR-FIXT
100
AcDbLine
 10
658.1664074431586
 20
1847.208391590572
 30
0.0
 11
658.1664074431586
 21
1852.791608409421
 31
0.0
  0
LINE
  5
DF
330
87
100
AcDbEntity
  8
P-SANR-FIXT
100
AcDbLine
 10
658.1664074431586
 20
1852.791608409422
 30
0.0
 11
658.1664074431587
 21
1880.208391590563
 31
0.0
  0
LINE
  5
E0
330
87
100
AcDbEntity
  8
P-SANR-FIXT
100
AcDbLine
 10
658.1664074431586
 20
1852.791608409422
 30
0.0
 11
681.1664074431583
 21
1852.791608409422
 31
0.0
  0
LINE
  5
E1
330
87
100
AcDbEntity
  8
P-SANR-FIXT
100
AcDbLine
 10
658.1664074431586
 20
1847.208391590572
 30
0.0
 11
681.1664074431583
 21
1847.208391590572
 31
0.0
  0
LINE
  5
E2
330
87
100
AcDbEntity
  8
P-SANR-FIXT
100
AcDbLine
 10
658.1664074431587
 20
1819.791608409431
 30
0.0
 11
681.1664074431583
 21
1819.791608409431
 31
0.0
  0
LINE
  5
E3
330
87
100
AcDbEntity
  8
P-SANR-FIXT
100
AcDbLine
 10
658.1664074431587
 20
1817.000000000006
 30
0.0
 11
681.1664074431583
 21
1817.000000000006
 31
0.0
  0
LINE
  5
E4
330
87
100
AcDbEntity
  8
P-SANR-FIXT
100
AcDbLine
 10
658.1664074431587
 20
1882.999999999987
 30
0.0
 11
681.1664074431583
 21
1882.999999999987
 31
0.0
  0
LINE
  5
E5
330
87
100
AcDbEntity
  8
P-SANR-FIXT
100
AcDbLine
 10
681.1664074431583
 20
1880.208391590562
 30
0.0
 11
658.1664074431587
 21
1880.208391590562
 31
0.0
  0
LINE
  5
E6
330
87
100
AcDbEntity
  8
P-SANR-FIXT
100
AcDbLine
 10
681.1664074431583
 20
1852.791608409422
 30
0.0
 11
681.1664074431583
 21
1880.208391590563
 31
0.0
  0
LINE
  5
E7
330
87
100
AcDbEntity
  8
P-SANR-FIXT
100
AcDbLine
 10
681.1664074431583
 20
1819.791608409428
 30
0.0
 11
681.1664074431583
 21
1847.208391590572
 31
0.0
  0
LINE
  5
E8
330
87
100
AcDbEntity
  8
P-SANR-FIXT
100
AcDbLine
 10
681.1664074431586
 20
1813.399999999995
 30
0.0
 11
681.1664074431583
 21
1817.000000000004
 31
0.0
  0
LINE
  5
E9
330
87
100
AcDbEntity
  8
P-SANR-FIXT
100
AcDbLine
 10
681.1664074431583
 20
1882.999999999987
 30
0.0
 11
681.1664074431586
 21
1886.599999999994
 31
0.0
  0
LINE
  5
EA
330
87
100
AcDbEntity
  8
P-SANR-FIXT
100
AcDbLine
 10
948.1664074431995
 20
1813.399999999996
 30
0.0
 11
950.166407443241
 21
1813.399999999996
 31
0.0
  0
LINE
  5
EB
330
87
100
AcDbEntity
  8
P-SANR-FIXT
100
AcDbLine
 10
950.166407443241
 20
1886.599999999996
 30
0.0
 11
948.1664074431995
 21
1886.599999999996
 31
0.0
  0
LINE
  5
EC
330
87
100
AcDbEntity
  8
P-SANR-FIXT
100
AcDbLine
 10
973.1664074432387
 20
1880.208391590563
 30
0.0
 11
973.1664074432385
 21
1852.791608409422
 31
0.0
  0
LINE
  5
ED
330
87
100
AcDbEntity
  8
P-SANR-FIXT
100
AcDbLine
 10
973.1664074432385
 20
1852.791608409422
 30
0.0
 11
973.1664074432385
 21
1847.208391590573
 31
0.0
  0
LINE
  5
EE
330
87
100
AcDbEntity
  8
P-SANR-FIXT
100
AcDbLine
 10
973.1664074432385
 20
1847.208391590572
 30
0.0
 11
973.1664074432387
 21
1819.791608409431
 31
0.0
  0
LINE
  5
EF
330
87
100
AcDbEntity
  8
P-SANR-FIXT
100
AcDbLine
 10
973.1664074432387
 20
1819.791608409431
 30
0.0
 11
973.1664074432387
 21
1817.000000000007
 31
0.0
  0
LINE
  5
F0
330
87
100
AcDbEntity
  8
P-SANR-FIXT
100
AcDbLine
 10
973.1664074432387
 20
1882.999999999987
 30
0.0
 11
973.1664074432387
 21
1880.208391590563
 31
0.0
  0
LINE
  5
F1
330
87
100
AcDbEntity
  8
P-SANR-FIXT
100
AcDbLine
 10
973.1664074432387
 20
1880.208391590563
 30
0.0
 11
950.166407443239
 21
1880.208391590563
 31
0.0
  0
LINE
  5
F2
330
87
100
AcDbEntity
  8
P-SANR-FIXT
100
AcDbLine
 10
950.166407443239
 20
1852.791608409422
 30
0.0
 11
973.1664074432385
 21
1852.791608409422
 31
0.0
  0
LINE
  5
F3
330
87
100
AcDbEntity
  8
P-SANR-FIXT
100
AcDbLine
 10
950.166407443239
 20
1847.208391590572
 30
0.0
 11
973.1664074432385
 21
1847.208391590572
 31
0.0
  0
LINE
  5
F4
330
87
100
AcDbEntity
  8
P-SANR-FIXT
100
AcDbLine
 10
950.166407443239
 20
1819.791608409431
 30
0.0
 11
973.1664074432387
 21
1819.791608409431
 31
0.0
  0
LINE
  5
F5
330
87
100
AcDbEntity
  8
P-SANR-FIXT
100
AcDbLine
 10
950.166407443239
 20
1817.000000000007
 30
0.0
 11
973.1664074432387
 21
1817.000000000007
 31
0.0
  0
LINE
  5
F6
330
87
100
AcDbEntity
  8
P-SANR-FIXT
100
AcDbLine
 10
950.166407443239
 20
1882.999999999987
 30
0.0
 11
973.1664074432387
 21
1882.999999999987
 31
0.0
  0
LINE
  5
F7
330
87
100
AcDbEntity
  8
P-SANR-FIXT
100
AcDbLine
 10
950.1664074432392
 20
1886.599999999994
 30
0.0
 11
950.166407443239
 21
1882.999999999987
 31
0.0
  0
LINE
  5
F8
330
87
100
AcDbEntity
  8
P-SANR-FIXT
100
AcDbLine
 10
950.166407443239
 20
1817.000000000004
 30
0.0
 11
950.1664074432392
 21
1813.399999999995
 31
0.0
  0
LINE
  5
F9
330
87
100
AcDbEntity
  8
P-SANR-FIXT
100
AcDbLine
 10
950.166407443239
 20
1847.208391590572
 30
0.0
 11
950.166407443239
 21
1819.791608409429
 31
0.0
  0
LINE
  5
FA
330
87
100
AcDbEntity
  8
P-SANR-FIXT
100
AcDbLine
 10
950.166407443239
 20
1880.208391590563
 30
0.0
 11
950.166407443239
 21
1852.791608409422
 31
0.0
  0
LINE
  5
FB
330
87
100
AcDbEntity
  8
P-SANR-FIXT
100
AcDbLine
 10
707.2364859542195
 20
1901.806823688661
 30
0.0
 11
687.0963289321824
 21
1901.806823688661
 31
0.0
  0
LINE
  5
FC
330
87
100
AcDbEntity
  8
P-SANR-FIXT
100
AcDbLine
 10
687.0963289321793
 20
1798.193176311338
 30
0.0
 11
707.2364859542236
 21
1798.193176311338
 31
0.0
  0
LINE
  5
FD
330
87
100
AcDbEntity
  8
P-SANR-FIXT
100
AcDbLine
 10
683.166407443202
 20
1805.000000000003
 30
0.0
 11
687.0963289321792
 21
1798.193176311338
 31
0.0
  0
LINE
  5
FE
330
87
100
AcDbEntity
  8
P-SANR-FIXT
100
AcDbLine
 10
687.0963289321824
 20
1901.806823688661
 30
0.0
 11
683.1664074432016
 21
1894.99999999999
 31
0.0
  0
LINE
  5
FF
330
87
100
AcDbEntity
  8
P-SANR-FIXT
100
AcDbLine
 10
707.2364859542236
 20
1798.193176311338
 30
0.0
 11
711.1664074432024
 21
1805.000000000007
 31
0.0
  0
LINE
  5
100
330
87
100
AcDbEntity
  8
P-SANR-FIXT
100
AcDbLine
 10
711.1664074432019
 20
1894.999999999986
 30
0.0
 11
707.2364859542195
 21
1901.806823688661
 31
0.0
  0
LINE
  5
101
330
87
100
AcDbEntity
  8
P-SANR-FIXT
100
AcDbLine
 10
683.1664074432004
 20
1805.000000000002
 30
0.0
 11
683.1664074432003
 21
1811.028856829693
 31
0.0
  0
LINE
  5
102
330
87
100
AcDbEntity
  8
P-SANR-FIXT
100
AcDbLine
 10
683.1664074432003
 20
1811.028856829693
 30
0.0
 11
683.1664074432
 21
1849.99999999998
 31
0.0
  0
LINE
  5
103
330
87
100
AcDbEntity
  8
P-SANR-FIXT
100
AcDbLine
 10
683.1664074432
 20
1849.99999999998
 30
0.0
 11
683.1664074431999
 21
1888.971143170282
 31
0.0
  0
LINE
  5
104
330
87
100
AcDbEntity
  8
P-SANR-FIXT
100
AcDbLine
 10
683.1664074431999
 20
1888.971143170282
 30
0.0
 11
683.1664074432
 21
1894.999999999989
 31
0.0
  0
LINE
  5
105
330
87
100
AcDbEntity
  8
P-SANR-FIXT
100
AcDbLine
 10
711.1664074432004
 20
1894.999999999985
 30
0.0
 11
711.1664074432003
 21
1888.971143170278
 31
0.0
  0
LINE
  5
106
330
87
100
AcDbEntity
  8
P-SANR-FIXT
100
AcDbLine
 10
711.1664074432003
 20
1888.971143170278
 30
0.0
 11
711.1664074432003
 21
1849.99999999998
 31
0.0
  0
LINE
  5
107
330
87
100
AcDbEntity
  8
P-SANR-FIXT
100
AcDbLine
 10
711.1664074432003
 20
1849.99999999998
 30
0.0
 11
711.1664074432005
 21
1811.028856829697
 31
0.0
  0
LINE
  5
108
330
87
100
AcDbEntity
  8
P-SANR-FIXT
100
AcDbLine
 10
711.1664074432005
 20
1811.028856829697
 30
0.0
 11
711.1664074432009
 21
1805.000000000006
 31
0.0
  0
SPLINE
  5
109
330
87
100
AcDbEntity
  8
P-SANR-FIXT
100
AcDbSpline
210
0.0
220
0.0
230
1.0
 70
     8
 71
     3
 72
     9
 73
     5
 74
     0
 42
0.000000001
 43
0.0000000001
 40
0.0
 40
0.0
 40
0.0
 40
0.0
 40
0.5
 40
1.0
 40
1.0
 40
1.0
 40
1.0
 10
707.3124396080536
 20
1901.672849092444
 30
0.0
 10
707.2875350640885
 20
1901.715782219373
 30
0.0
 10
707.2499715778176
 20
1901.78310461361
 30
0.0
 10
707.2368992948648
 20
1901.80682368866
 30
0.0
 10
707.236485954218
 20
1901.80682368866
 30
0.0
  0
SPLINE
  5
10A
330
87
100
AcDbEntity
  8
P-SANR-FIXT
100
AcDbSpline
210
0.0
220
0.0
230
1.0
 70
     8
 71
     3
 72
     9
 73
     5
 74
     0
 42
0.000000001
 43
0.0000000001
 40
0.0
 40
0.0
 40
0.0
 40
0.0
 40
0.5
 40
1.0
 40
1.0
 40
1.0
 40
1.0
 10
687.0963289321809
 20
1901.80682368866
 30
0.0
 10
687.0959155915341
 20
1901.80682368866
 30
0.0
 10
687.0828433085813
 20
1901.78310461361
 30
0.0
 10
687.0452798223103
 20
1901.715782219373
 30
0.0
 10
687.0203752783453
 20
1901.672849092444
 30
0.0
  0
SPLINE
  5
10B
330
87
100
AcDbEntity
  8
P-SANR-FIXT
100
AcDbSpline
210
0.0
220
0.0
230
1.0
 70
     8
 71
     3
 72
     9
 73
     5
 74
     0
 42
0.000000001
 43
0.0000000001
 40
0.0
 40
0.0
 40
0.0
 40
0.0
 40
0.5
 40
1.0
 40
1.0
 40
1.0
 40
1.0
 10
687.0203752783453
 20
1901.672849092444
 30
0.0
 10
685.7832268651621
 20
1899.597432589141
 30
0.0
 10
683.9037504794543
 20
1895.405065098809
 30
0.0
 10
683.2139149750649
 20
1891.12962864102
 30
0.0
 10
683.1664074432
 20
1888.971143170263
 30
0.0
  0
SPLINE
  5
10C
330
87
100
AcDbEntity
  8
P-SANR-FIXT
100
AcDbSpline
210
0.0
220
0.0
230
1.0
 70
     8
 71
     3
 72
     9
 73
     5
 74
     0
 42
0.000000001
 43
0.0000000001
 40
0.0
 40
0.0
 40
0.0
 40
0.0
 40
0.5
 40
1.0
 40
1.0
 40
1.0
 40
1.0
 10
683.1664074432
 20
1888.971143170263
 30
0.0
 10
683.2139149750648
 20
1886.812657699508
 30
0.0
 10
683.9037504794521
 20
1882.537221241726
 30
0.0
 10
685.7832268651551
 20
1878.344853751398
 30
0.0
 10
687.0203752783356
 20
1876.269437248098
 30
0.0
  0
SPLINE
  5
10D
330
87
100
AcDbEntity
  8
P-SANR-FIXT
100
AcDbSpline
210
0.0
220
0.0
230
1.0
 70
     8
 71
     3
 72
     9
 73
     5
 74
     0
 42
0.000000001
 43
0.0000000001
 40
0.0
 40
0.0
 40
0.0
 40
0.0
 40
0.5
 40
1.0
 40
1.0
 40
1.0
 40
1.0
 10
707.3124396080632
 20
1876.269437248098
 30
0.0
 10
708.5495880212428
 20
1878.344853751398
 30
0.0
 10
710.4290644069453
 20
1882.537221241726
 30
0.0
 10
711.1188999113344
 20
1886.812657699508
 30
0.0
 10
711.1664074432004
 20
1888.971143170262
 30
0.0
  0
SPLINE
  5
10E
330
87
100
AcDbEntity
  8
P-SANR-FIXT
100
AcDbSpline
210
0.0
220
0.0
230
1.0
 70
     8
 71
     3
 72
     9
 73
     5
 74
     0
 42
0.000000001
 43
0.0000000001
 40
0.0
 40
0.0
 40
0.0
 40
0.0
 40
0.5
 40
1.0
 40
1.0
 40
1.0
 40
1.0
 10
711.1664074432004
 20
1888.971143170262
 30
0.0
 10
711.1188999113342
 20
1891.12962864102
 30
0.0
 10
710.4290644069433
 20
1895.405065098808
 30
0.0
 10
708.5495880212363
 20
1899.597432589141
 30
0.0
 10
707.3124396080536
 20
1901.672849092444
 30
0.0
  0
SPLINE
  5
10F
330
87
100
AcDbEntity
  8
P-SANR-FIXT
100
AcDbSpline
210
0.0
220
0.0
230
1.0
 70
     8
 71
     3
 72
    11
 73
     7
 74
     0
 42
0.000000001
 43
0.0000000001
 40
0.0
 40
0.0
 40
0.0
 40
0.0
 40
0.25
 40
0.5
 40
0.75
 40
1.0
 40
1.0
 40
1.0
 40
1.0
 10
687.0203752783356
 20
1876.269437248098
 30
0.0
 10
687.045263304679
 20
1876.226608304724
 30
0.0
 10
687.0825794637327
 20
1876.121129740354
 30
0.0
 10
687.1032511653218
 20
1875.908856880216
 30
0.0
 10
687.0823888981964
 20
1875.660903770824
 30
0.0
 10
687.0451743740952
 20
1875.488662431889
 30
0.0
 10
687.0203752783355
 20
1875.403411844313
 30
0.0
  0
SPLINE
  5
110
330
87
100
AcDbEntity
  8
P-SANR-FIXT
100
AcDbSpline
210
0.0
220
0.0
230
1.0
 70
     8
 71
     3
 72
    11
 73
     7
 74
     0
 42
0.000000001
 43
0.0000000001
 40
0.0
 40
0.0
 40
0.0
 40
0.0
 40
0.25
 40
0.5
 40
0.75
 40
1.0
 40
1.0
 40
1.0
 40
1.0
 10
707.3124396080633
 20
1875.403411844313
 30
0.0
 10
707.2876405123034
 20
1875.488662431889
 30
0.0
 10
707.2504259882023
 20
1875.660903770824
 30
0.0
 10
707.2295637210768
 20
1875.908856880216
 30
0.0
 10
707.2502354226659
 20
1876.121129740354
 30
0.0
 10
707.2875515817197
 20
1876.226608304724
 30
0.0
 10
707.3124396080632
 20
1876.269437248098
 30
0.0
  0
SPLINE
  5
111
330
87
100
AcDbEntity
  8
P-SANR-FIXT
100
AcDbSpline
210
0.0
220
0.0
230
1.0
 70
     8
 71
     3
 72
     9
 73
     5
 74
     0
 42
0.000000001
 43
0.0000000001
 40
0.0
 40
0.0
 40
0.0
 40
0.0
 40
0.5
 40
1.0
 40
1.0
 40
1.0
 40
1.0
 10
687.0203752783355
 20
1875.403411844313
 30
0.0
 10
685.783226865152
 20
1871.252578837713
 30
0.0
 10
683.9037504794459
 20
1862.867843857057
 30
0.0
 10
683.2139149750617
 20
1854.316970941491
 30
0.0
 10
683.1664074431999
 20
1849.999999999981
 30
0.0
  0
SPLINE
  5
112
330
87
100
AcDbEntity
  8
P-SANR-FIXT
100
AcDbSpline
210
0.0
220
0.0
230
1.0
 70
     8
 71
     3
 72
     9
 73
     5
 74
     0
 42
0.000000001
 43
0.0000000001
 40
0.0
 40
0.0
 40
0.0
 40
0.0
 40
0.5
 40
1.0
 40
1.0
 40
1.0
 40
1.0
 10
683.1664074431999
 20
1849.999999999981
 30
0.0
 10
683.2139149750616
 20
1845.683029058471
 30
0.0
 10
683.9037504794456
 20
1837.132156142907
 30
0.0
 10
685.7832268651509
 20
1828.747421162253
 30
0.0
 10
687.0203752783338
 20
1824.596588155653
 30
0.0
  0
SPLINE
  5
113
330
87
100
AcDbEntity
  8
P-SANR-FIXT
100
AcDbSpline
210
0.0
220
0.0
230
1.0
 70
     8
 71
     3
 72
     9
 73
     5
 74
     0
 42
0.000000001
 43
0.0000000001
 40
0.0
 40
0.0
 40
0.0
 40
0.0
 40
0.5
 40
1.0
 40
1.0
 40
1.0
 40
1.0
 10
707.3124396080653
 20
1824.596588155652
 30
0.0
 10
708.5495880212476
 20
1828.747421162253
 30
0.0
 10
710.4290644069521
 20
1837.132156142907
 30
0.0
 10
711.1188999113375
 20
1845.68302905847
 30
0.0
 10
711.1664074432003
 20
1849.99999999998
 30
0.0
  0
SPLINE
  5
114
330
87
100
AcDbEntity
  8
P-SANR-FIXT
100
AcDbSpline
210
0.0
220
0.0
230
1.0
 70
     8
 71
     3
 72
     9
 73
     5
 74
     0
 42
0.000000001
 43
0.0000000001
 40
0.0
 40
0.0
 40
0.0
 40
0.0
 40
0.5
 40
1.0
 40
1.0
 40
1.0
 40
1.0
 10
711.1664074432003
 20
1849.99999999998
 30
0.0
 10
711.1188999113373
 20
1854.31697094149
 30
0.0
 10
710.4290644069517
 20
1862.867843857057
 30
0.0
 10
708.5495880212461
 20
1871.252578837713
 30
0.0
 10
707.3124396080633
 20
1875.403411844313
 30
0.0
  0
SPLINE
  5
115
330
87
100
AcDbEntity
  8
P-SANR-FIXT
100
AcDbSpline
210
0.0
220
0.0
230
1.0
 70
     8
 71
     3
 72
    11
 73
     7
 74
     0
 42
0.000000001
 43
0.0000000001
 40
0.0
 40
0.0
 40
0.0
 40
0.0
 40
0.25
 40
0.5
 40
0.75
 40
1.0
 40
1.0
 40
1.0
 40
1.0
 10
687.0203752783338
 20
1824.596588155652
 30
0.0
 10
687.0452633046774
 20
1824.510930268905
 30
0.0
 10
687.0825794637311
 20
1824.33808685609
 30
0.0
 10
687.1032511653201
 20
1824.090063957324
 30
0.0
 10
687.0823888981949
 20
1823.878177221054
 30
0.0
 10
687.0451743740938
 20
1823.773188045656
 30
0.0
 10
687.0203752783339
 20
1823.730562751869
 30
0.0
  0
SPLINE
  5
116
330
87
100
AcDbEntity
  8
P-SANR-FIXT
100
AcDbSpline
210
0.0
220
0.0
230
1.0
 70
     8
 71
     3
 72
    11
 73
     7
 74
     0
 42
0.000000001
 43
0.0000000001
 40
0.0
 40
0.0
 40
0.0
 40
0.0
 40
0.25
 40
0.5
 40
0.75
 40
1.0
 40
1.0
 40
1.0
 40
1.0
 10
707.312439608065
 20
1823.730562751869
 30
0.0
 10
707.2876405123054
 20
1823.773188045656
 30
0.0
 10
707.2504259882044
 20
1823.878177221054
 30
0.0
 10
707.229563721079
 20
1824.090063957324
 30
0.0
 10
707.250235422668
 20
1824.33808685609
 30
0.0
 10
707.2875515817218
 20
1824.510930268905
 30
0.0
 10
707.3124396080653
 20
1824.596588155652
 30
0.0
  0
SPLINE
  5
117
330
87
100
AcDbEntity
  8
P-SANR-FIXT
100
AcDbSpline
210
0.0
220
0.0
230
1.0
 70
     8
 71
     3
 72
     9
 73
     5
 74
     0
 42
0.000000001
 43
0.0000000001
 40
0.0
 40
0.0
 40
0.0
 40
0.0
 40
0.5
 40
1.0
 40
1.0
 40
1.0
 40
1.0
 10
687.0203752783339
 20
1823.730562751869
 30
0.0
 10
685.7832268651527
 20
1821.655146248571
 30
0.0
 10
683.9037504794491
 20
1817.462778758248
 30
0.0
 10
683.2139149750635
 20
1813.18734230047
 30
0.0
 10
683.1664074432
 20
1811.028856829718
 30
0.0
  0
SPLINE
  5
118
330
87
100
AcDbEntity
  8
P-SANR-FIXT
100
AcDbSpline
210
0.0
220
0.0
230
1.0
 70
     8
 71
     3
 72
     9
 73
     5
 74
     0
 42
0.000000001
 43
0.0000000001
 40
0.0
 40
0.0
 40
0.0
 40
0.0
 40
0.5
 40
1.0
 40
1.0
 40
1.0
 40
1.0
 10
683.1664074432
 20
1811.028856829718
 30
0.0
 10
683.2139149750636
 20
1808.870371358963
 30
0.0
 10
683.903750479451
 20
1804.59493490118
 30
0.0
 10
685.7832268651585
 20
1800.402567410853
 30
0.0
 10
687.0203752783421
 20
1798.327150907553
 30
0.0
  0
SPLINE
  5
119
330
87
100
AcDbEntity
  8
P-SANR-FIXT
100
AcDbSpline
210
0.0
220
0.0
230
1.0
 70
     8
 71
     3
 72
     9
 73
     5
 74
     0
 42
0.000000001
 43
0.0000000001
 40
0.0
 40
0.0
 40
0.0
 40
0.0
 40
0.5
 40
1.0
 40
1.0
 40
1.0
 40
1.0
 10
707.3124396080577
 20
1798.327150907553
 30
0.0
 10
708.5495880212407
 20
1800.402567410853
 30
0.0
 10
710.4290644069475
 20
1804.59493490118
 30
0.0
 10
711.1188999113358
 20
1808.870371358963
 30
0.0
 10
711.1664074432004
 20
1811.028856829718
 30
0.0
  0
SPLINE
  5
11A
330
87
100
AcDbEntity
  8
P-SANR-FIXT
100
AcDbSpline
210
0.0
220
0.0
230
1.0
 70
     8
 71
     3
 72
     9
 73
     5
 74
     0
 42
0.000000001
 43
0.0000000001
 40
0.0
 40
0.0
 40
0.0
 40
0.0
 40
0.5
 40
1.0
 40
1.0
 40
1.0
 40
1.0
 10
711.1664074432004
 20
1811.028856829718
 30
0.0
 10
711.118899911336
 20
1813.18734230047
 30
0.0
 10
710.4290644069489
 20
1817.462778758248
 30
0.0
 10
708.5495880212457
 20
1821.655146248571
 30
0.0
 10
707.3124396080653
 20
1823.730562751869
 30
0.0
  0
SPLINE
  5
11B
330
87
100
AcDbEntity
  8
P-SANR-FIXT
100
AcDbSpline
210
0.0
220
0.0
230
1.0
 70
     8
 71
     3
 72
     9
 73
     5
 74
     0
 42
0.000000001
 43
0.0000000001
 40
0.0
 40
0.0
 40
0.0
 40
0.0
 40
0.5
 40
1.0
 40
1.0
 40
1.0
 40
1.0
 10
687.0203752783421
 20
1798.327150907553
 30
0.0
 10
687.0452798223054
 20
1798.284217780627
 30
0.0
 10
687.0828433085748
 20
1798.216895386393
 30
0.0
 10
687.0959155915293
 20
1798.193176311341
 30
0.0
 10
687.0963289321776
 20
1798.193176311338
 30
0.0
  0
SPLINE
  5
11C
330
87
100
AcDbEntity
  8
P-SANR-FIXT
100
AcDbSpline
210
0.0
220
0.0
230
1.0
 70
     8
 71
     3
 72
     9
 73
     5
 74
     0
 42
0.000000001
 43
0.0000000001
 40
0.0
 40
0.0
 40
0.0
 40
0.0
 40
0.5
 40
1.0
 40
1.0
 40
1.0
 40
1.0
 10
707.2364859542223
 20
1798.193176311337
 30
0.0
 10
707.2368992948707
 20
1798.193176311341
 30
0.0
 10
707.2499715778252
 20
1798.216895386394
 30
0.0
 10
707.2875350640945
 20
1798.284217780627
 30
0.0
 10
707.3124396080577
 20
1798.327150907553
 30
0.0
  0
LINE
  5
11D
330
87
100
AcDbEntity
  8
P-SANR-FIXT
100
AcDbLine
 10
944.2364859542186
 20
1901.806823688661
 30
0.0
 11
924.0963289321815
 21
1901.806823688661
 31
0.0
  0
LINE
  5
11E
330
87
100
AcDbEntity
  8
P-SANR-FIXT
100
AcDbLine
 10
924.0963289321776
 20
1798.193176311338
 30
0.0
 11
944.2364859542218
 21
1798.193176311338
 31
0.0
  0
LINE
  5
11F
330
87
100
AcDbEntity
  8
P-SANR-FIXT
100
AcDbLine
 10
944.2364859542218
 20
1798.193176311338
 30
0.0
 11
948.1664074431991
 21
1805.000000000003
 31
0.0
  0
LINE
  5
120
330
87
100
AcDbEntity
  8
P-SANR-FIXT
100
AcDbLine
 10
948.1664074431995
 20
1894.99999999999
 30
0.0
 11
944.2364859542186
 21
1901.806823688661
 31
0.0
  0
LINE
  5
121
330
87
100
AcDbEntity
  8
P-SANR-FIXT
100
AcDbLine
 10
920.1664074431985
 20
1805.000000000008
 30
0.0
 11
924.0963289321776
 21
1798.193176311338
 31
0.0
  0
LINE
  5
122
330
87
100
AcDbEntity
  8
P-SANR-FIXT
100
AcDbLine
 10
924.0963289321815
 20
1901.806823688661
 30
0.0
 11
920.166407443199
 21
1894.999999999986
 31
0.0
  0
LINE
  5
123
330
87
100
AcDbEntity
  8
P-SANR-FIXT
100
AcDbLine
 10
948.1664074431975
 20
1894.999999999989
 30
0.0
 11
948.1664074431975
 21
1888.971143170282
 31
0.0
  0
LINE
  5
124
330
87
100
AcDbEntity
  8
P-SANR-FIXT
100
AcDbLine
 10
948.1664074431975
 20
1888.971143170282
 30
0.0
 11
948.166407443197
 21
1849.999999999981
 31
0.0
  0
LINE
  5
125
330
87
100
AcDbEntity
  8
P-SANR-FIXT
100
AcDbLine
 10
948.166407443197
 20
1849.99999999998
 30
0.0
 11
948.166407443197
 21
1811.028856829693
 31
0.0
  0
LINE
  5
126
330
87
100
AcDbEntity
  8
P-SANR-FIXT
100
AcDbLine
 10
948.166407443197
 20
1811.028856829693
 30
0.0
 11
948.1664074431973
 21
1805.000000000002
 31
0.0
  0
LINE
  5
127
330
87
100
AcDbEntity
  8
P-SANR-FIXT
100
AcDbLine
 10
920.1664074431969
 20
1805.000000000006
 30
0.0
 11
920.1664074431969
 21
1811.028856829697
 31
0.0
  0
LINE
  5
128
330
87
100
AcDbEntity
  8
P-SANR-FIXT
100
AcDbLine
 10
920.1664074431969
 20
1811.028856829697
 30
0.0
 11
920.1664074431969
 21
1849.999999999979
 31
0.0
  0
LINE
  5
129
330
87
100
AcDbEntity
  8
P-SANR-FIXT
100
AcDbLine
 10
920.1664074431969
 20
1849.999999999979
 30
0.0
 11
920.1664074431972
 21
1888.971143170278
 31
0.0
  0
LINE
  5
12A
330
87
100
AcDbEntity
  8
P-SANR-FIXT
100
AcDbLine
 10
920.1664074431972
 20
1888.971143170278
 30
0.0
 11
920.1664074431974
 21
1894.999999999985
 31
0.0
  0
SPLINE
  5
12B
330
87
100
AcDbEntity
  8
P-SANR-FIXT
100
AcDbSpline
210
0.0
220
0.0
230
1.0
 70
     8
 71
     3
 72
     9
 73
     5
 74
     0
 42
0.000000001
 43
0.0000000001
 40
0.0
 40
0.0
 40
0.0
 40
0.0
 40
0.5
 40
1.0
 40
1.0
 40
1.0
 40
1.0
 10
924.0963289321797
 20
1901.80682368866
 30
0.0
 10
924.095915591533
 20
1901.80682368866
 30
0.0
 10
924.08284330858
 20
1901.78310461361
 30
0.0
 10
924.0452798223092
 20
1901.715782219373
 30
0.0
 10
924.0203752783441
 20
1901.672849092444
 30
0.0
  0
SPLINE
  5
12C
330
87
100
AcDbEntity
  8
P-SANR-FIXT
100
AcDbSpline
210
0.0
220
0.0
230
1.0
 70
     8
 71
     3
 72
     9
 73
     5
 74
     0
 42
0.000000001
 43
0.0000000001
 40
0.0
 40
0.0
 40
0.0
 40
0.0
 40
0.5
 40
1.0
 40
1.0
 40
1.0
 40
1.0
 10
944.3124396080524
 20
1901.672849092444
 30
0.0
 10
944.2875350640875
 20
1901.715782219373
 30
0.0
 10
944.2499715778165
 20
1901.78310461361
 30
0.0
 10
944.2368992948637
 20
1901.80682368866
 30
0.0
 10
944.2364859542168
 20
1901.80682368866
 30
0.0
  0
SPLINE
  5
12D
330
87
100
AcDbEntity
  8
P-SANR-FIXT
100
AcDbSpline
210
0.0
220
0.0
230
1.0
 70
     8
 71
     3
 72
     9
 73
     5
 74
     0
 42
0.000000001
 43
0.0000000001
 40
0.0
 40
0.0
 40
0.0
 40
0.0
 40
0.5
 40
1.0
 40
1.0
 40
1.0
 40
1.0
 10
924.0203752783441
 20
1901.672849092444
 30
0.0
 10
922.7832268651615
 20
1899.597432589141
 30
0.0
 10
920.9037504794542
 20
1895.405065098808
 30
0.0
 10
920.2139149750633
 20
1891.12962864102
 30
0.0
 10
920.1664074431972
 20
1888.971143170262
 30
0.0
  0
SPLINE
  5
12E
330
87
100
AcDbEntity
  8
P-SANR-FIXT
100
AcDbSpline
210
0.0
220
0.0
230
1.0
 70
     8
 71
     3
 72
     9
 73
     5
 74
     0
 42
0.000000001
 43
0.0000000001
 40
0.0
 40
0.0
 40
0.0
 40
0.0
 40
0.5
 40
1.0
 40
1.0
 40
1.0
 40
1.0
 10
920.1664074431972
 20
1888.971143170262
 30
0.0
 10
920.2139149750632
 20
1886.812657699508
 30
0.0
 10
920.9037504794519
 20
1882.537221241726
 30
0.0
 10
922.7832268651544
 20
1878.344853751398
 30
0.0
 10
924.0203752783342
 20
1876.269437248098
 30
0.0
  0
SPLINE
  5
12F
330
87
100
AcDbEntity
  8
P-SANR-FIXT
100
AcDbSpline
210
0.0
220
0.0
230
1.0
 70
     8
 71
     3
 72
     9
 73
     5
 74
     0
 42
0.000000001
 43
0.0000000001
 40
0.0
 40
0.0
 40
0.0
 40
0.0
 40
0.5
 40
1.0
 40
1.0
 40
1.0
 40
1.0
 10
944.3124396080618
 20
1876.269437248098
 30
0.0
 10
945.5495880212421
 20
1878.344853751398
 30
0.0
 10
947.4290644069453
 20
1882.537221241726
 30
0.0
 10
948.1188999113328
 20
1886.812657699508
 30
0.0
 10
948.1664074431975
 20
1888.971143170263
 30
0.0
  0
SPLINE
  5
130
330
87
100
AcDbEntity
  8
P-SANR-FIXT
100
AcDbSpline
210
0.0
220
0.0
230
1.0
 70
     8
 71
     3
 72
     9
 73
     5
 74
     0
 42
0.000000001
 43
0.0000000001
 40
0.0
 40
0.0
 40
0.0
 40
0.0
 40
0.5
 40
1.0
 40
1.0
 40
1.0
 40
1.0
 10
948.1664074431975
 20
1888.971143170263
 30
0.0
 10
948.1188999113324
 20
1891.12962864102
 30
0.0
 10
947.4290644069432
 20
1895.405065098809
 30
0.0
 10
945.5495880212357
 20
1899.597432589141
 30
0.0
 10
944.3124396080524
 20
1901.672849092444
 30
0.0
  0
SPLINE
  5
131
330
87
100
AcDbEntity
  8
P-SANR-FIXT
100
AcDbSpline
210
0.0
220
0.0
230
1.0
 70
     8
 71
     3
 72
    11
 73
     7
 74
     0
 42
0.000000001
 43
0.0000000001
 40
0.0
 40
0.0
 40
0.0
 40
0.0
 40
0.25
 40
0.5
 40
0.75
 40
1.0
 40
1.0
 40
1.0
 40
1.0
 10
924.0203752783342
 20
1876.269437248098
 30
0.0
 10
924.0452633046775
 20
1876.226608304724
 30
0.0
 10
924.0825794637313
 20
1876.121129740354
 30
0.0
 10
924.1032511653203
 20
1875.908856880216
 30
0.0
 10
924.082388898195
 20
1875.660903770824
 30
0.0
 10
924.0451743740937
 20
1875.488662431889
 30
0.0
 10
924.020375278334
 20
1875.403411844313
 30
0.0
  0
SPLINE
  5
132
330
87
100
AcDbEntity
  8
P-SANR-FIXT
100
AcDbSpline
210
0.0
220
0.0
230
1.0
 70
     8
 71
     3
 72
    11
 73
     7
 74
     0
 42
0.000000001
 43
0.0000000001
 40
0.0
 40
0.0
 40
0.0
 40
0.0
 40
0.25
 40
0.5
 40
0.75
 40
1.0
 40
1.0
 40
1.0
 40
1.0
 10
944.3124396080619
 20
1875.403411844313
 30
0.0
 10
944.2876405123019
 20
1875.488662431889
 30
0.0
 10
944.2504259882008
 20
1875.660903770824
 30
0.0
 10
944.2295637210753
 20
1875.908856880216
 30
0.0
 10
944.2502354226645
 20
1876.121129740354
 30
0.0
 10
944.2875515817183
 20
1876.226608304724
 30
0.0
 10
944.3124396080618
 20
1876.269437248098
 30
0.0
  0
SPLINE
  5
133
330
87
100
AcDbEntity
  8
P-SANR-FIXT
100
AcDbSpline
210
0.0
220
0.0
230
1.0
 70
     8
 71
     3
 72
     9
 73
     5
 74
     0
 42
0.000000001
 43
0.0000000001
 40
0.0
 40
0.0
 40
0.0
 40
0.0
 40
0.5
 40
1.0
 40
1.0
 40
1.0
 40
1.0
 10
924.020375278334
 20
1875.403411844313
 30
0.0
 10
922.7832268651511
 20
1871.252578837713
 30
0.0
 10
920.9037504794455
 20
1862.867843857057
 30
0.0
 10
920.2139149750598
 20
1854.31697094149
 30
0.0
 10
920.1664074431969
 20
1849.99999999998
 30
0.0
  0
SPLINE
  5
134
330
87
100
AcDbEntity
  8
P-SANR-FIXT
100
AcDbSpline
210
0.0
220
0.0
230
1.0
 70
     8
 71
     3
 72
     9
 73
     5
 74
     0
 42
0.000000001
 43
0.0000000001
 40
0.0
 40
0.0
 40
0.0
 40
0.0
 40
0.5
 40
1.0
 40
1.0
 40
1.0
 40
1.0
 10
920.166407443197
 20
1849.99999999998
 30
0.0
 10
920.2139149750598
 20
1845.68302905847
 30
0.0
 10
920.903750479445
 20
1837.132156142907
 30
0.0
 10
922.7832268651496
 20
1828.747421162253
 30
0.0
 10
924.0203752783321
 20
1824.596588155652
 30
0.0
  0
SPLINE
  5
135
330
87
100
AcDbEntity
  8
P-SANR-FIXT
100
AcDbSpline
210
0.0
220
0.0
230
1.0
 70
     8
 71
     3
 72
     9
 73
     5
 74
     0
 42
0.000000001
 43
0.0000000001
 40
0.0
 40
0.0
 40
0.0
 40
0.0
 40
0.5
 40
1.0
 40
1.0
 40
1.0
 40
1.0
 10
944.3124396080634
 20
1824.596588155652
 30
0.0
 10
945.5495880212463
 20
1828.747421162253
 30
0.0
 10
947.4290644069515
 20
1837.132156142907
 30
0.0
 10
948.1188999113356
 20
1845.683029058471
 30
0.0
 10
948.1664074431973
 20
1849.999999999981
 30
0.0
  0
SPLINE
  5
136
330
87
100
AcDbEntity
  8
P-SANR-FIXT
100
AcDbSpline
210
0.0
220
0.0
230
1.0
 70
     8
 71
     3
 72
     9
 73
     5
 74
     0
 42
0.000000001
 43
0.0000000001
 40
0.0
 40
0.0
 40
0.0
 40
0.0
 40
0.5
 40
1.0
 40
1.0
 40
1.0
 40
1.0
 10
948.1664074431973
 20
1849.999999999981
 30
0.0
 10
948.1188999113356
 20
1854.316970941491
 30
0.0
 10
947.4290644069514
 20
1862.867843857057
 30
0.0
 10
945.5495880212453
 20
1871.252578837713
 30
0.0
 10
944.3124396080619
 20
1875.403411844313
 30
0.0
  0
SPLINE
  5
137
330
87
100
AcDbEntity
  8
P-SANR-FIXT
100
AcDbSpline
210
0.0
220
0.0
230
1.0
 70
     8
 71
     3
 72
    11
 73
     7
 74
     0
 42
0.000000001
 43
0.0000000001
 40
0.0
 40
0.0
 40
0.0
 40
0.0
 40
0.25
 40
0.5
 40
0.75
 40
1.0
 40
1.0
 40
1.0
 40
1.0
 10
924.0203752783321
 20
1824.596588155652
 30
0.0
 10
924.0452633046755
 20
1824.510930268905
 30
0.0
 10
924.0825794637292
 20
1824.33808685609
 30
0.0
 10
924.1032511653184
 20
1824.090063957324
 30
0.0
 10
924.0823888981928
 20
1823.878177221054
 30
0.0
 10
924.0451743740917
 20
1823.773188045656
 30
0.0
 10
924.0203752783321
 20
1823.730562751869
 30
0.0
  0
SPLINE
  5
138
330
87
100
AcDbEntity
  8
P-SANR-FIXT
100
AcDbSpline
210
0.0
220
0.0
230
1.0
 70
     8
 71
     3
 72
    11
 73
     7
 74
     0
 42
0.000000001
 43
0.0000000001
 40
0.0
 40
0.0
 40
0.0
 40
0.0
 40
0.25
 40
0.5
 40
0.75
 40
1.0
 40
1.0
 40
1.0
 40
1.0
 10
944.3124396080632
 20
1823.730562751869
 30
0.0
 10
944.2876405123035
 20
1823.773188045656
 30
0.0
 10
944.2504259882024
 20
1823.878177221054
 30
0.0
 10
944.2295637210772
 20
1824.090063957324
 30
0.0
 10
944.2502354226661
 20
1824.33808685609
 30
0.0
 10
944.2875515817199
 20
1824.510930268905
 30
0.0
 10
944.3124396080634
 20
1824.596588155652
 30
0.0
  0
SPLINE
  5
139
330
87
100
AcDbEntity
  8
P-SANR-FIXT
100
AcDbSpline
210
0.0
220
0.0
230
1.0
 70
     8
 71
     3
 72
     9
 73
     5
 74
     0
 42
0.000000001
 43
0.0000000001
 40
0.0
 40
0.0
 40
0.0
 40
0.0
 40
0.5
 40
1.0
 40
1.0
 40
1.0
 40
1.0
 10
924.0203752783321
 20
1823.730562751869
 30
0.0
 10
922.7832268651514
 20
1821.655146248571
 30
0.0
 10
920.9037504794482
 20
1817.462778758248
 30
0.0
 10
920.2139149750614
 20
1813.18734230047
 30
0.0
 10
920.1664074431972
 20
1811.028856829718
 30
0.0
  0
SPLINE
  5
13A
330
87
100
AcDbEntity
  8
P-SANR-FIXT
100
AcDbSpline
210
0.0
220
0.0
230
1.0
 70
     8
 71
     3
 72
     9
 73
     5
 74
     0
 42
0.000000001
 43
0.0000000001
 40
0.0
 40
0.0
 40
0.0
 40
0.0
 40
0.5
 40
1.0
 40
1.0
 40
1.0
 40
1.0
 10
920.1664074431972
 20
1811.028856829718
 30
0.0
 10
920.2139149750617
 20
1808.870371358963
 30
0.0
 10
920.9037504794501
 20
1804.59493490118
 30
0.0
 10
922.7832268651571
 20
1800.402567410853
 30
0.0
 10
924.0203752783401
 20
1798.327150907553
 30
0.0
  0
SPLINE
  5
13B
330
87
100
AcDbEntity
  8
P-SANR-FIXT
100
AcDbSpline
210
0.0
220
0.0
230
1.0
 70
     8
 71
     3
 72
     9
 73
     5
 74
     0
 42
0.000000001
 43
0.0000000001
 40
0.0
 40
0.0
 40
0.0
 40
0.0
 40
0.5
 40
1.0
 40
1.0
 40
1.0
 40
1.0
 10
944.3124396080557
 20
1798.327150907553
 30
0.0
 10
945.5495880212392
 20
1800.402567410853
 30
0.0
 10
947.4290644069466
 20
1804.59493490118
 30
0.0
 10
948.1188999113339
 20
1808.870371358963
 30
0.0
 10
948.1664074431975
 20
1811.028856829718
 30
0.0
  0
SPLINE
  5
13C
330
87
100
AcDbEntity
  8
P-SANR-FIXT
100
AcDbSpline
210
0.0
220
0.0
230
1.0
 70
     8
 71
     3
 72
     9
 73
     5
 74
     0
 42
0.000000001
 43
0.0000000001
 40
0.0
 40
0.0
 40
0.0
 40
0.0
 40
0.5
 40
1.0
 40
1.0
 40
1.0
 40
1.0
 10
948.1664074431975
 20
1811.028856829718
 30
0.0
 10
948.118899911334
 20
1813.18734230047
 30
0.0
 10
947.4290644069482
 20
1817.462778758248
 30
0.0
 10
945.5495880212446
 20
1821.655146248571
 30
0.0
 10
944.3124396080634
 20
1823.730562751869
 30
0.0
  0
SPLINE
  5
13D
330
87
100
AcDbEntity
  8
P-SANR-FIXT
100
AcDbSpline
210
0.0
220
0.0
230
1.0
 70
     8
 71
     3
 72
     9
 73
     5
 74
     0
 42
0.000000001
 43
0.0000000001
 40
0.0
 40
0.0
 40
0.0
 40
0.0
 40
0.5
 40
1.0
 40
1.0
 40
1.0
 40
1.0
 10
924.0203752783401
 20
1798.327150907553
 30
0.0
 10
924.0452798223033
 20
1798.284217780627
 30
0.0
 10
924.0828433085725
 20
1798.216895386393
 30
0.0
 10
924.095915591527
 20
1798.193176311341
 30
0.0
 10
924.0963289321754
 20
1798.193176311338
 30
0.0
  0
SPLINE
  5
13E
330
87
100
AcDbEntity
  8
P-SANR-FIXT
100
AcDbSpline
210
0.0
220
0.0
230
1.0
 70
     8
 71
     3
 72
     9
 73
     5
 74
     0
 42
0.000000001
 43
0.0000000001
 40
0.0
 40
0.0
 40
0.0
 40
0.0
 40
0.5
 40
1.0
 40
1.0
 40
1.0
 40
1.0
 10
944.23648595422
 20
1798.193176311337
 30
0.0
 10
944.2368992948685
 20
1798.193176311341
 30
0.0
 10
944.2499715778231
 20
1798.216895386393
 30
0.0
 10
944.2875350640923
 20
1798.284217780627
 30
0.0
 10
944.3124396080557
 20
1798.327150907553
 30
0.0
  0
LINE
  5
13F
330
87
100
AcDbEntity
  8
P-SANR-FIXT
100
AcDbLine
 10
948.1664074431995
 20
2113.399999999995
 30
0.0
 11
950.166407443241
 21
2113.399999999995
 31
0.0
  0
LINE
  5
140
330
87
100
AcDbEntity
  8
P-SANR-FIXT
100
AcDbLine
 10
950.166407443241
 20
2186.599999999994
 30
0.0
 11
948.1664074431995
 21
2186.599999999994
 31
0.0
  0
LINE
  5
141
330
87
100
AcDbEntity
  8
P-SANR-FIXT
100
AcDbLine
 10
950.166407443239
 20
2147.208391590577
 30
0.0
 11
950.166407443239
 21
2119.791608409423
 31
0.0
  0
LINE
  5
142
330
87
100
AcDbEntity
  8
P-SANR-FIXT
100
AcDbLine
 10
950.166407443239
 20
2117.000000000006
 30
0.0
 11
950.1664074432392
 21
2113.399999999994
 31
0.0
  0
LINE
  5
143
330
87
100
AcDbEntity
  8
P-SANR-FIXT
100
AcDbLine
 10
950.166407443239
 20
2180.208391590562
 30
0.0
 11
950.166407443239
 21
2152.791608409415
 31
0.0
  0
LINE
  5
144
330
87
100
AcDbEntity
  8
P-SANR-FIXT
100
AcDbLine
 10
950.1664074432392
 20
2186.599999999993
 30
0.0
 11
950.166407443239
 21
2182.999999999986
 31
0.0
  0
LINE
  5
145
330
87
100
AcDbEntity
  8
P-SANR-FIXT
100
AcDbLine
 10
973.1664074432387
 20
2180.208391590562
 30
0.0
 11
973.1664074432385
 21
2152.791608409421
 31
0.0
  0
LINE
  5
146
330
87
100
AcDbEntity
  8
P-SANR-FIXT
100
AcDbLine
 10
973.1664074432385
 20
2152.791608409421
 30
0.0
 11
973.1664074432385
 21
2147.208391590571
 31
0.0
  0
LINE
  5
147
330
87
100
AcDbEntity
  8
P-SANR-FIXT
100
AcDbLine
 10
973.1664074432385
 20
2147.208391590571
 30
0.0
 11
973.1664074432387
 21
2119.791608409431
 31
0.0
  0
LINE
  5
148
330
87
100
AcDbEntity
  8
P-SANR-FIXT
100
AcDbLine
 10
973.1664074432387
 20
2119.791608409431
 30
0.0
 11
973.1664074432387
 21
2117.000000000006
 31
0.0
  0
LINE
  5
149
330
87
100
AcDbEntity
  8
P-SANR-FIXT
100
AcDbLine
 10
973.1664074432387
 20
2182.999999999986
 30
0.0
 11
973.1664074432387
 21
2180.208391590562
 31
0.0
  0
LINE
  5
14A
330
87
100
AcDbEntity
  8
P-SANR-FIXT
100
AcDbLine
 10
973.1664074432387
 20
2180.208391590562
 30
0.0
 11
950.166407443239
 21
2180.208391590562
 31
0.0
  0
LINE
  5
14B
330
87
100
AcDbEntity
  8
P-SANR-FIXT
100
AcDbLine
 10
950.166407443239
 20
2152.791608409421
 30
0.0
 11
973.1664074432385
 21
2152.791608409421
 31
0.0
  0
LINE
  5
14C
330
87
100
AcDbEntity
  8
P-SANR-FIXT
100
AcDbLine
 10
950.166407443239
 20
2147.208391590571
 30
0.0
 11
973.1664074432385
 21
2147.208391590571
 31
0.0
  0
LINE
  5
14D
330
87
100
AcDbEntity
  8
P-SANR-FIXT
100
AcDbLine
 10
950.166407443239
 20
2119.791608409431
 30
0.0
 11
973.1664074432387
 21
2119.791608409431
 31
0.0
  0
LINE
  5
14E
330
87
100
AcDbEntity
  8
P-SANR-FIXT
100
AcDbLine
 10
950.166407443239
 20
2117.000000000006
 30
0.0
 11
973.1664074432387
 21
2117.000000000006
 31
0.0
  0
LINE
  5
14F
330
87
100
AcDbEntity
  8
P-SANR-FIXT
100
AcDbLine
 10
950.166407443239
 20
2182.999999999986
 30
0.0
 11
973.1664074432387
 21
2182.999999999986
 31
0.0
  0
LINE
  5
150
330
87
100
AcDbEntity
  8
P-SANR-FIXT
100
AcDbLine
 10
681.1664074431605
 20
2113.399999999995
 30
0.0
 11
683.1664074432023
 21
2113.399999999995
 31
0.0
  0
LINE
  5
151
330
87
100
AcDbEntity
  8
P-SANR-FIXT
100
AcDbLine
 10
683.1664074432018
 20
2186.599999999994
 30
0.0
 11
681.1664074431605
 21
2186.599999999994
 31
0.0
  0
LINE
  5
152
330
87
100
AcDbEntity
  8
P-SANR-FIXT
100
AcDbLine
 10
658.1664074431593
 20
2180.208391590561
 30
0.0
 11
658.1664074431593
 21
2182.999999999986
 31
0.0
  0
LINE
  5
153
330
87
100
AcDbEntity
  8
P-SANR-FIXT
100
AcDbLine
 10
658.1664074431593
 20
2117.000000000005
 30
0.0
 11
658.1664074431593
 21
2119.79160840943
 31
0.0
  0
LINE
  5
154
330
87
100
AcDbEntity
  8
P-SANR-FIXT
100
AcDbLine
 10
658.1664074431593
 20
2119.791608409431
 30
0.0
 11
658.1664074431592
 21
2147.208391590571
 31
0.0
  0
LINE
  5
155
330
87
100
AcDbEntity
  8
P-SANR-FIXT
100
AcDbLine
 10
658.1664074431592
 20
2147.208391590571
 30
0.0
 11
658.1664074431592
 21
2152.79160840942
 31
0.0
  0
LINE
  5
156
330
87
100
AcDbEntity
  8
P-SANR-FIXT
100
AcDbLine
 10
658.1664074431592
 20
2152.791608409421
 30
0.0
 11
658.1664074431593
 21
2180.208391590562
 31
0.0
  0
LINE
  5
157
330
87
100
AcDbEntity
  8
P-SANR-FIXT
100
AcDbLine
 10
658.1664074431592
 20
2152.791608409421
 30
0.0
 11
681.1664074431588
 21
2152.791608409421
 31
0.0
  0
LINE
  5
158
330
87
100
AcDbEntity
  8
P-SANR-FIXT
100
AcDbLine
 10
658.1664074431592
 20
2147.208391590571
 30
0.0
 11
681.1664074431588
 21
2147.208391590571
 31
0.0
  0
LINE
  5
159
330
87
100
AcDbEntity
  8
P-SANR-FIXT
100
AcDbLine
 10
658.1664074431593
 20
2119.791608409431
 30
0.0
 11
681.166407443159
 21
2119.791608409431
 31
0.0
  0
LINE
  5
15A
330
87
100
AcDbEntity
  8
P-SANR-FIXT
100
AcDbLine
 10
658.1664074431593
 20
2117.000000000005
 30
0.0
 11
681.166407443159
 21
2117.000000000005
 31
0.0
  0
LINE
  5
15B
330
87
100
AcDbEntity
  8
P-SANR-FIXT
100
AcDbLine
 10
658.1664074431593
 20
2182.999999999986
 30
0.0
 11
681.166407443159
 21
2182.999999999986
 31
0.0
  0
LINE
  5
15C
330
87
100
AcDbEntity
  8
P-SANR-FIXT
100
AcDbLine
 10
681.166407443159
 20
2180.208391590561
 30
0.0
 11
658.1664074431593
 21
2180.208391590561
 31
0.0
  0
LINE
  5
15D
330
87
100
AcDbEntity
  8
P-SANR-FIXT
100
AcDbLine
 10
681.1664074431588
 20
2152.791608409421
 30
0.0
 11
681.166407443159
 21
2180.208391590562
 31
0.0
  0
LINE
  5
15E
330
87
100
AcDbEntity
  8
P-SANR-FIXT
100
AcDbLine
 10
681.166407443159
 20
2119.791608409427
 30
0.0
 11
681.1664074431588
 21
2147.208391590571
 31
0.0
  0
LINE
  5
15F
330
87
100
AcDbEntity
  8
P-SANR-FIXT
100
AcDbLine
 10
681.1664074431591
 20
2113.399999999994
 30
0.0
 11
681.166407443159
 21
2117.000000000002
 31
0.0
  0
LINE
  5
160
330
87
100
AcDbEntity
  8
P-SANR-FIXT
100
AcDbLine
 10
681.166407443159
 20
2182.999999999986
 30
0.0
 11
681.1664074431591
 21
2186.599999999993
 31
0.0
  0
ARC
  5
161
330
87
100
AcDbEntity
  8
P-SANR-FIXT
100
AcDbCircle
 10
815.6664074432125
 20
2149.999999999974
 30
0.0
 40
12.49999999999545
100
AcDbArc
 50
180.0
 51
0.0
  0
ARC
  5
162
330
87
100
AcDbEntity
  8
P-SANR-FIXT
100
AcDbCircle
 10
815.6664074432125
 20
2149.999999999974
 30
0.0
 40
12.49999999999534
100
AcDbArc
 50
0.0
 51
180.0
  0
LINE
  5
163
330
87
100
AcDbEntity
  8
P-SANR-FIXT
100
AcDbLine
 10
806.6664074432109
 20
2155.196152422681
 30
0.0
 11
806.6664074432109
 21
2144.803847577267
 31
0.0
  0
LINE
  5
164
330
87
100
AcDbEntity
  8
P-SANR-FIXT
100
AcDbLine
 10
806.6664074432109
 20
2144.803847577267
 30
0.0
 11
815.6664074432125
 21
2139.607695154559
 31
0.0
  0
LINE
  5
165
330
87
100
AcDbEntity
  8
P-SANR-FIXT
100
AcDbLine
 10
815.6664074432125
 20
2139.607695154559
 30
0.0
 11
824.6664074432139
 21
2144.803847577267
 31
0.0
  0
LINE
  5
166
330
87
100
AcDbEntity
  8
P-SANR-FIXT
100
AcDbLine
 10
824.6664074432139
 20
2144.803847577267
 30
0.0
 11
824.6664074432139
 21
2155.196152422681
 31
0.0
  0
LINE
  5
167
330
87
100
AcDbEntity
  8
P-SANR-FIXT
100
AcDbLine
 10
824.6664074432139
 20
2155.196152422681
 30
0.0
 11
815.6664074432125
 21
2160.392304845389
 31
0.0
  0
LINE
  5
168
330
87
100
AcDbEntity
  8
P-SANR-FIXT
100
AcDbLine
 10
815.6664074432125
 20
2160.392304845389
 30
0.0
 11
806.6664074432109
 21
2155.196152422681
 31
0.0
  0
LINE
  5
169
330
87
100
AcDbEntity
  8
P-SANR-FIXT
100
AcDbLine
 10
707.2364859542203
 20
2201.80682368866
 30
0.0
 11
687.0963289321829
 21
2201.80682368866
 31
0.0
  0
LINE
  5
16A
330
87
100
AcDbEntity
  8
P-SANR-FIXT
100
AcDbLine
 10
687.0963289321799
 20
2098.193176311338
 30
0.0
 11
707.2364859542241
 21
2098.193176311338
 31
0.0
  0
LINE
  5
16B
330
87
100
AcDbEntity
  8
P-SANR-FIXT
100
AcDbLine
 10
683.1664074432024
 20
2105.000000000002
 30
0.0
 11
687.0963289321797
 21
2098.193176311338
 31
0.0
  0
LINE
  5
16C
330
87
100
AcDbEntity
  8
P-SANR-FIXT
100
AcDbLine
 10
687.0963289321829
 20
2201.80682368866
 30
0.0
 11
683.166407443202
 21
2194.999999999989
 31
0.0
  0
LINE
  5
16D
330
87
100
AcDbEntity
  8
P-SANR-FIXT
100
AcDbLine
 10
707.2364859542243
 20
2098.193176311338
 30
0.0
 11
711.166407443203
 21
2105.000000000007
 31
0.0
  0
LINE
  5
16E
330
87
100
AcDbEntity
  8
P-SANR-FIXT
100
AcDbLine
 10
711.1664074432025
 20
2194.999999999985
 30
0.0
 11
707.2364859542203
 21
2201.80682368866
 31
0.0
  0
LINE
  5
16F
330
87
100
AcDbEntity
  8
P-SANR-FIXT
100
AcDbLine
 10
683.166407443201
 20
2105.000000000001
 30
0.0
 11
683.1664074432008
 21
2111.028856829692
 31
0.0
  0
LINE
  5
170
330
87
100
AcDbEntity
  8
P-SANR-FIXT
100
AcDbLine
 10
683.1664074432008
 20
2111.028856829692
 30
0.0
 11
683.1664074432005
 21
2149.999999999979
 31
0.0
  0
LINE
  5
171
330
87
100
AcDbEntity
  8
P-SANR-FIXT
100
AcDbLine
 10
683.1664074432005
 20
2149.999999999979
 30
0.0
 11
683.1664074432004
 21
2188.97114317028
 31
0.0
  0
LINE
  5
172
330
87
100
AcDbEntity
  8
P-SANR-FIXT
100
AcDbLine
 10
683.1664074432004
 20
2188.97114317028
 30
0.0
 11
683.1664074432005
 21
2194.999999999988
 31
0.0
  0
LINE
  5
173
330
87
100
AcDbEntity
  8
P-SANR-FIXT
100
AcDbLine
 10
711.166407443201
 20
2194.999999999984
 30
0.0
 11
711.1664074432009
 21
2188.971143170277
 31
0.0
  0
LINE
  5
174
330
87
100
AcDbEntity
  8
P-SANR-FIXT
100
AcDbLine
 10
711.1664074432009
 20
2188.971143170277
 30
0.0
 11
711.1664074432009
 21
2149.999999999979
 31
0.0
  0
LINE
  5
175
330
87
100
AcDbEntity
  8
P-SANR-FIXT
100
AcDbLine
 10
711.1664074432009
 20
2149.999999999979
 30
0.0
 11
711.1664074432012
 21
2111.028856829696
 31
0.0
  0
LINE
  5
176
330
87
100
AcDbEntity
  8
P-SANR-FIXT
100
AcDbLine
 10
711.1664074432012
 20
2111.028856829696
 30
0.0
 11
711.1664074432013
 21
2105.000000000005
 31
0.0
  0
SPLINE
  5
177
330
87
100
AcDbEntity
  8
P-SANR-FIXT
100
AcDbSpline
210
0.0
220
0.0
230
1.0
 70
     8
 71
     3
 72
     9
 73
     5
 74
     0
 42
0.000000001
 43
0.0000000001
 40
0.0
 40
0.0
 40
0.0
 40
0.0
 40
0.5
 40
1.0
 40
1.0
 40
1.0
 40
1.0
 10
707.3124396080542
 20
2201.672849092443
 30
0.0
 10
707.2875350640892
 20
2201.715782219372
 30
0.0
 10
707.2499715778182
 20
2201.783104613609
 30
0.0
 10
707.2368992948654
 20
2201.806823688658
 30
0.0
 10
707.2364859542187
 20
2201.806823688658
 30
0.0
  0
SPLINE
  5
178
330
87
100
AcDbEntity
  8
P-SANR-FIXT
100
AcDbSpline
210
0.0
220
0.0
230
1.0
 70
     8
 71
     3
 72
     9
 73
     5
 74
     0
 42
0.000000001
 43
0.0000000001
 40
0.0
 40
0.0
 40
0.0
 40
0.0
 40
0.5
 40
1.0
 40
1.0
 40
1.0
 40
1.0
 10
687.0963289321814
 20
2201.806823688658
 30
0.0
 10
687.0959155915346
 20
2201.806823688658
 30
0.0
 10
687.0828433085819
 20
2201.783104613609
 30
0.0
 10
687.0452798223109
 20
2201.715782219372
 30
0.0
 10
687.0203752783459
 20
2201.672849092443
 30
0.0
  0
SPLINE
  5
179
330
87
100
AcDbEntity
  8
P-SANR-FIXT
100
AcDbSpline
210
0.0
220
0.0
230
1.0
 70
     8
 71
     3
 72
     9
 73
     5
 74
     0
 42
0.000000001
 43
0.0000000001
 40
0.0
 40
0.0
 40
0.0
 40
0.0
 40
0.5
 40
1.0
 40
1.0
 40
1.0
 40
1.0
 10
687.0203752783459
 20
2201.672849092443
 30
0.0
 10
685.7832268651625
 20
2199.59743258914
 30
0.0
 10
683.9037504794548
 20
2195.405065098808
 30
0.0
 10
683.2139149750656
 20
2191.129628641019
 30
0.0
 10
683.1664074432005
 20
2188.971143170262
 30
0.0
  0
SPLINE
  5
17A
330
87
100
AcDbEntity
  8
P-SANR-FIXT
100
AcDbSpline
210
0.0
220
0.0
230
1.0
 70
     8
 71
     3
 72
     9
 73
     5
 74
     0
 42
0.000000001
 43
0.0000000001
 40
0.0
 40
0.0
 40
0.0
 40
0.0
 40
0.5
 40
1.0
 40
1.0
 40
1.0
 40
1.0
 10
683.1664074432005
 20
2188.971143170262
 30
0.0
 10
683.2139149750654
 20
2186.812657699507
 30
0.0
 10
683.9037504794527
 20
2182.537221241725
 30
0.0
 10
685.7832268651557
 20
2178.344853751397
 30
0.0
 10
687.0203752783362
 20
2176.269437248097
 30
0.0
  0
SPLINE
  5
17B
330
87
100
AcDbEntity
  8
P-SANR-FIXT
100
AcDbSpline
210
0.0
220
0.0
230
1.0
 70
     8
 71
     3
 72
     9
 73
     5
 74
     0
 42
0.000000001
 43
0.0000000001
 40
0.0
 40
0.0
 40
0.0
 40
0.0
 40
0.5
 40
1.0
 40
1.0
 40
1.0
 40
1.0
 10
707.3124396080637
 20
2176.269437248097
 30
0.0
 10
708.5495880212434
 20
2178.344853751397
 30
0.0
 10
710.4290644069459
 20
2182.537221241725
 30
0.0
 10
711.118899911335
 20
2186.812657699507
 30
0.0
 10
711.1664074432009
 20
2188.971143170261
 30
0.0
  0
SPLINE
  5
17C
330
87
100
AcDbEntity
  8
P-SANR-FIXT
100
AcDbSpline
210
0.0
220
0.0
230
1.0
 70
     8
 71
     3
 72
     9
 73
     5
 74
     0
 42
0.000000001
 43
0.0000000001
 40
0.0
 40
0.0
 40
0.0
 40
0.0
 40
0.5
 40
1.0
 40
1.0
 40
1.0
 40
1.0
 10
711.1664074432009
 20
2188.971143170261
 30
0.0
 10
711.1188999113347
 20
2191.129628641019
 30
0.0
 10
710.429064406944
 20
2195.405065098807
 30
0.0
 10
708.5495880212369
 20
2199.59743258914
 30
0.0
 10
707.3124396080542
 20
2201.672849092443
 30
0.0
  0
SPLINE
  5
17D
330
87
100
AcDbEntity
  8
P-SANR-FIXT
100
AcDbSpline
210
0.0
220
0.0
230
1.0
 70
     8
 71
     3
 72
    11
 73
     7
 74
     0
 42
0.000000001
 43
0.0000000001
 40
0.0
 40
0.0
 40
0.0
 40
0.0
 40
0.25
 40
0.5
 40
0.75
 40
1.0
 40
1.0
 40
1.0
 40
1.0
 10
687.0203752783362
 20
2176.269437248097
 30
0.0
 10
687.0452633046795
 20
2176.226608304723
 30
0.0
 10
687.0825794637333
 20
2176.121129740352
 30
0.0
 10
687.1032511653222
 20
2175.908856880215
 30
0.0
 10
687.082388898197
 20
2175.660903770823
 30
0.0
 10
687.0451743740959
 20
2175.488662431888
 30
0.0
 10
687.020375278336
 20
2175.403411844312
 30
0.0
  0
SPLINE
  5
17E
330
87
100
AcDbEntity
  8
P-SANR-FIXT
100
AcDbSpline
210
0.0
220
0.0
230
1.0
 70
     8
 71
     3
 72
    11
 73
     7
 74
     0
 42
0.000000001
 43
0.0000000001
 40
0.0
 40
0.0
 40
0.0
 40
0.0
 40
0.25
 40
0.5
 40
0.75
 40
1.0
 40
1.0
 40
1.0
 40
1.0
 10
707.3124396080637
 20
2175.403411844312
 30
0.0
 10
707.287640512304
 20
2175.488662431888
 30
0.0
 10
707.2504259882029
 20
2175.660903770823
 30
0.0
 10
707.2295637210775
 20
2175.908856880215
 30
0.0
 10
707.2502354226665
 20
2176.121129740352
 30
0.0
 10
707.2875515817202
 20
2176.226608304723
 30
0.0
 10
707.3124396080637
 20
2176.269437248097
 30
0.0
  0
SPLINE
  5
17F
330
87
100
AcDbEntity
  8
P-SANR-FIXT
100
AcDbSpline
210
0.0
220
0.0
230
1.0
 70
     8
 71
     3
 72
     9
 73
     5
 74
     0
 42
0.000000001
 43
0.0000000001
 40
0.0
 40
0.0
 40
0.0
 40
0.0
 40
0.5
 40
1.0
 40
1.0
 40
1.0
 40
1.0
 10
687.020375278336
 20
2175.403411844312
 30
0.0
 10
685.7832268651525
 20
2171.252578837712
 30
0.0
 10
683.9037504794466
 20
2162.867843857056
 30
0.0
 10
683.2139149750621
 20
2154.31697094149
 30
0.0
 10
683.1664074432004
 20
2149.999999999979
 30
0.0
  0
SPLINE
  5
180
330
87
100
AcDbEntity
  8
P-SANR-FIXT
100
AcDbSpline
210
0.0
220
0.0
230
1.0
 70
     8
 71
     3
 72
     9
 73
     5
 74
     0
 42
0.000000001
 43
0.0000000001
 40
0.0
 40
0.0
 40
0.0
 40
0.0
 40
0.5
 40
1.0
 40
1.0
 40
1.0
 40
1.0
 10
683.1664074432004
 20
2149.999999999979
 30
0.0
 10
683.2139149750621
 20
2145.683029058469
 30
0.0
 10
683.9037504794462
 20
2137.132156142905
 30
0.0
 10
685.7832268651515
 20
2128.747421162251
 30
0.0
 10
687.0203752783344
 20
2124.596588155652
 30
0.0
  0
SPLINE
  5
181
330
87
100
AcDbEntity
  8
P-SANR-FIXT
100
AcDbSpline
210
0.0
220
0.0
230
1.0
 70
     8
 71
     3
 72
     9
 73
     5
 74
     0
 42
0.000000001
 43
0.0000000001
 40
0.0
 40
0.0
 40
0.0
 40
0.0
 40
0.5
 40
1.0
 40
1.0
 40
1.0
 40
1.0
 10
707.312439608066
 20
2124.596588155652
 30
0.0
 10
708.5495880212481
 20
2128.747421162251
 30
0.0
 10
710.4290644069529
 20
2137.132156142905
 30
0.0
 10
711.118899911338
 20
2145.683029058469
 30
0.0
 10
711.1664074432008
 20
2149.999999999979
 30
0.0
  0
SPLINE
  5
182
330
87
100
AcDbEntity
  8
P-SANR-FIXT
100
AcDbSpline
210
0.0
220
0.0
230
1.0
 70
     8
 71
     3
 72
     9
 73
     5
 74
     0
 42
0.000000001
 43
0.0000000001
 40
0.0
 40
0.0
 40
0.0
 40
0.0
 40
0.5
 40
1.0
 40
1.0
 40
1.0
 40
1.0
 10
711.1664074432008
 20
2149.999999999979
 30
0.0
 10
711.1188999113379
 20
2154.316970941489
 30
0.0
 10
710.4290644069524
 20
2162.867843857056
 30
0.0
 10
708.5495880212468
 20
2171.252578837712
 30
0.0
 10
707.3124396080637
 20
2175.403411844312
 30
0.0
  0
SPLINE
  5
183
330
87
100
AcDbEntity
  8
P-SANR-FIXT
100
AcDbSpline
210
0.0
220
0.0
230
1.0
 70
     8
 71
     3
 72
    11
 73
     7
 74
     0
 42
0.000000001
 43
0.0000000001
 40
0.0
 40
0.0
 40
0.0
 40
0.0
 40
0.25
 40
0.5
 40
0.75
 40
1.0
 40
1.0
 40
1.0
 40
1.0
 10
687.0203752783344
 20
2124.596588155652
 30
0.0
 10
687.0452633046779
 20
2124.510930268904
 30
0.0
 10
687.0825794637316
 20
2124.338086856088
 30
0.0
 10
687.1032511653208
 20
2124.090063957323
 30
0.0
 10
687.0823888981955
 20
2123.878177221053
 30
0.0
 10
687.0451743740943
 20
2123.773188045655
 30
0.0
 10
687.0203752783345
 20
2123.730562751867
 30
0.0
  0
SPLINE
  5
184
330
87
100
AcDbEntity
  8
P-SANR-FIXT
100
AcDbSpline
210
0.0
220
0.0
230
1.0
 70
     8
 71
     3
 72
    11
 73
     7
 74
     0
 42
0.000000001
 43
0.0000000001
 40
0.0
 40
0.0
 40
0.0
 40
0.0
 40
0.25
 40
0.5
 40
0.75
 40
1.0
 40
1.0
 40
1.0
 40
1.0
 10
707.3124396080658
 20
2123.730562751867
 30
0.0
 10
707.287640512306
 20
2123.773188045655
 30
0.0
 10
707.2504259882049
 20
2123.878177221053
 30
0.0
 10
707.2295637210795
 20
2124.090063957323
 30
0.0
 10
707.2502354226686
 20
2124.338086856088
 30
0.0
 10
707.2875515817225
 20
2124.510930268904
 30
0.0
 10
707.3124396080658
 20
2124.596588155652
 30
0.0
  0
SPLINE
  5
185
330
87
100
AcDbEntity
  8
P-SANR-FIXT
100
AcDbSpline
210
0.0
220
0.0
230
1.0
 70
     8
 71
     3
 72
     9
 73
     5
 74
     0
 42
0.000000001
 43
0.0000000001
 40
0.0
 40
0.0
 40
0.0
 40
0.0
 40
0.5
 40
1.0
 40
1.0
 40
1.0
 40
1.0
 10
687.0203752783345
 20
2123.730562751867
 30
0.0
 10
685.7832268651532
 20
2121.65514624857
 30
0.0
 10
683.9037504794497
 20
2117.462778758246
 30
0.0
 10
683.213914975064
 20
2113.187342300469
 30
0.0
 10
683.1664074432005
 20
2111.028856829717
 30
0.0
  0
SPLINE
  5
186
330
87
100
AcDbEntity
  8
P-SANR-FIXT
100
AcDbSpline
210
0.0
220
0.0
230
1.0
 70
     8
 71
     3
 72
     9
 73
     5
 74
     0
 42
0.000000001
 43
0.0000000001
 40
0.0
 40
0.0
 40
0.0
 40
0.0
 40
0.5
 40
1.0
 40
1.0
 40
1.0
 40
1.0
 10
683.1664074432005
 20
2111.028856829717
 30
0.0
 10
683.2139149750641
 20
2108.870371358962
 30
0.0
 10
683.9037504794516
 20
2104.59493490118
 30
0.0
 10
685.783226865159
 20
2100.402567410852
 30
0.0
 10
687.0203752783428
 20
2098.327150907552
 30
0.0
  0
SPLINE
  5
187
330
87
100
AcDbEntity
  8
P-SANR-FIXT
100
AcDbSpline
210
0.0
220
0.0
230
1.0
 70
     8
 71
     3
 72
     9
 73
     5
 74
     0
 42
0.000000001
 43
0.0000000001
 40
0.0
 40
0.0
 40
0.0
 40
0.0
 40
0.5
 40
1.0
 40
1.0
 40
1.0
 40
1.0
 10
707.3124396080584
 20
2098.327150907552
 30
0.0
 10
708.5495880212414
 20
2100.402567410852
 30
0.0
 10
710.4290644069481
 20
2104.59493490118
 30
0.0
 10
711.1188999113364
 20
2108.870371358962
 30
0.0
 10
711.1664074432009
 20
2111.028856829717
 30
0.0
  0
SPLINE
  5
188
330
87
100
AcDbEntity
  8
P-SANR-FIXT
100
AcDbSpline
210
0.0
220
0.0
230
1.0
 70
     8
 71
     3
 72
     9
 73
     5
 74
     0
 42
0.000000001
 43
0.0000000001
 40
0.0
 40
0.0
 40
0.0
 40
0.0
 40
0.5
 40
1.0
 40
1.0
 40
1.0
 40
1.0
 10
711.1664074432009
 20
2111.028856829717
 30
0.0
 10
711.1188999113366
 20
2113.187342300469
 30
0.0
 10
710.4290644069497
 20
2117.462778758246
 30
0.0
 10
708.5495880212464
 20
2121.65514624857
 30
0.0
 10
707.3124396080658
 20
2123.730562751867
 30
0.0
  0
SPLINE
  5
189
330
87
100
AcDbEntity
  8
P-SANR-FIXT
100
AcDbSpline
210
0.0
220
0.0
230
1.0
 70
     8
 71
     3
 72
     9
 73
     5
 74
     0
 42
0.000000001
 43
0.0000000001
 40
0.0
 40
0.0
 40
0.0
 40
0.0
 40
0.5
 40
1.0
 40
1.0
 40
1.0
 40
1.0
 10
687.0203752783427
 20
2098.327150907552
 30
0.0
 10
687.045279822306
 20
2098.284217780626
 30
0.0
 10
687.0828433085754
 20
2098.216895386392
 30
0.0
 10
687.0959155915297
 20
2098.19317631134
 30
0.0
 10
687.0963289321784
 20
2098.193176311336
 30
0.0
  0
SPLINE
  5
18A
330
87
100
AcDbEntity
  8
P-SANR-FIXT
100
AcDbSpline
210
0.0
220
0.0
230
1.0
 70
     8
 71
     3
 72
     9
 73
     5
 74
     0
 42
0.000000001
 43
0.0000000001
 40
0.0
 40
0.0
 40
0.0
 40
0.0
 40
0.5
 40
1.0
 40
1.0
 40
1.0
 40
1.0
 10
707.2364859542228
 20
2098.193176311336
 30
0.0
 10
707.2368992948713
 20
2098.19317631134
 30
0.0
 10
707.2499715778258
 20
2098.216895386392
 30
0.0
 10
707.2875350640949
 20
2098.284217780626
 30
0.0
 10
707.3124396080584
 20
2098.327150907552
 30
0.0
  0
LINE
  5
18B
330
87
100
AcDbEntity
  8
P-SANR-FIXT
100
AcDbLine
 10
944.2364859542186
 20
2201.80682368866
 30
0.0
 11
924.0963289321813
 21
2201.80682368866
 31
0.0
  0
LINE
  5
18C
330
87
100
AcDbEntity
  8
P-SANR-FIXT
100
AcDbLine
 10
924.0963289321776
 20
2098.193176311338
 30
0.0
 11
944.2364859542218
 21
2098.193176311338
 31
0.0
  0
LINE
  5
18D
330
87
100
AcDbEntity
  8
P-SANR-FIXT
100
AcDbLine
 10
944.2364859542218
 20
2098.193176311338
 30
0.0
 11
948.1664074431991
 21
2105.000000000002
 31
0.0
  0
LINE
  5
18E
330
87
100
AcDbEntity
  8
P-SANR-FIXT
100
AcDbLine
 10
948.1664074431995
 20
2194.99999999999
 30
0.0
 11
944.2364859542186
 21
2201.80682368866
 31
0.0
  0
LINE
  5
18F
330
87
100
AcDbEntity
  8
P-SANR-FIXT
100
AcDbLine
 10
920.1664074431985
 20
2105.000000000007
 30
0.0
 11
924.0963289321772
 21
2098.193176311338
 31
0.0
  0
LINE
  5
190
330
87
100
AcDbEntity
  8
P-SANR-FIXT
100
AcDbLine
 10
924.0963289321813
 20
2201.80682368866
 30
0.0
 11
920.166407443199
 21
2194.999999999985
 31
0.0
  0
LINE
  5
191
330
87
100
AcDbEntity
  8
P-SANR-FIXT
100
AcDbLine
 10
948.1664074431975
 20
2194.999999999988
 30
0.0
 11
948.1664074431975
 21
2188.97114317028
 31
0.0
  0
LINE
  5
192
330
87
100
AcDbEntity
  8
P-SANR-FIXT
100
AcDbLine
 10
948.1664074431975
 20
2188.971143170281
 30
0.0
 11
948.166407443197
 21
2149.999999999979
 31
0.0
  0
LINE
  5
193
330
87
100
AcDbEntity
  8
P-SANR-FIXT
100
AcDbLine
 10
948.1664074431973
 20
2149.999999999979
 30
0.0
 11
948.166407443197
 21
2111.028856829692
 31
0.0
  0
LINE
  5
194
330
87
100
AcDbEntity
  8
P-SANR-FIXT
100
AcDbLine
 10
948.166407443197
 20
2111.028856829692
 30
0.0
 11
948.1664074431973
 21
2105.0
 31
0.0
  0
LINE
  5
195
330
87
100
AcDbEntity
  8
P-SANR-FIXT
100
AcDbLine
 10
920.1664074431969
 20
2105.000000000005
 30
0.0
 11
920.1664074431967
 21
2111.028856829696
 31
0.0
  0
LINE
  5
196
330
87
100
AcDbEntity
  8
P-SANR-FIXT
100
AcDbLine
 10
920.1664074431967
 20
2111.028856829696
 30
0.0
 11
920.1664074431969
 21
2149.999999999978
 31
0.0
  0
LINE
  5
197
330
87
100
AcDbEntity
  8
P-SANR-FIXT
100
AcDbLine
 10
920.1664074431969
 20
2149.999999999978
 30
0.0
 11
920.166407443197
 21
2188.971143170277
 31
0.0
  0
LINE
  5
198
330
87
100
AcDbEntity
  8
P-SANR-FIXT
100
AcDbLine
 10
920.166407443197
 20
2188.971143170277
 30
0.0
 11
920.1664074431972
 21
2194.999999999984
 31
0.0
  0
SPLINE
  5
199
330
87
100
AcDbEntity
  8
P-SANR-FIXT
100
AcDbSpline
210
0.0
220
0.0
230
1.0
 70
     8
 71
     3
 72
     9
 73
     5
 74
     0
 42
0.000000001
 43
0.0000000001
 40
0.0
 40
0.0
 40
0.0
 40
0.0
 40
0.5
 40
1.0
 40
1.0
 40
1.0
 40
1.0
 10
924.0963289321797
 20
2201.806823688658
 30
0.0
 10
924.095915591533
 20
2201.806823688658
 30
0.0
 10
924.08284330858
 20
2201.783104613609
 30
0.0
 10
924.0452798223092
 20
2201.715782219372
 30
0.0
 10
924.0203752783441
 20
2201.672849092443
 30
0.0
  0
SPLINE
  5
19A
330
87
100
AcDbEntity
  8
P-SANR-FIXT
100
AcDbSpline
210
0.0
220
0.0
230
1.0
 70
     8
 71
     3
 72
     9
 73
     5
 74
     0
 42
0.000000001
 43
0.0000000001
 40
0.0
 40
0.0
 40
0.0
 40
0.0
 40
0.5
 40
1.0
 40
1.0
 40
1.0
 40
1.0
 10
944.3124396080524
 20
2201.672849092443
 30
0.0
 10
944.2875350640875
 20
2201.715782219372
 30
0.0
 10
944.2499715778165
 20
2201.783104613609
 30
0.0
 10
944.2368992948637
 20
2201.806823688658
 30
0.0
 10
944.2364859542168
 20
2201.806823688658
 30
0.0
  0
SPLINE
  5
19B
330
87
100
AcDbEntity
  8
P-SANR-FIXT
100
AcDbSpline
210
0.0
220
0.0
230
1.0
 70
     8
 71
     3
 72
     9
 73
     5
 74
     0
 42
0.000000001
 43
0.0000000001
 40
0.0
 40
0.0
 40
0.0
 40
0.0
 40
0.5
 40
1.0
 40
1.0
 40
1.0
 40
1.0
 10
924.0203752783441
 20
2201.672849092443
 30
0.0
 10
922.7832268651614
 20
2199.59743258914
 30
0.0
 10
920.9037504794542
 20
2195.405065098807
 30
0.0
 10
920.2139149750633
 20
2191.129628641019
 30
0.0
 10
920.1664074431972
 20
2188.971143170261
 30
0.0
  0
SPLINE
  5
19C
330
87
100
AcDbEntity
  8
P-SANR-FIXT
100
AcDbSpline
210
0.0
220
0.0
230
1.0
 70
     8
 71
     3
 72
     9
 73
     5
 74
     0
 42
0.000000001
 43
0.0000000001
 40
0.0
 40
0.0
 40
0.0
 40
0.0
 40
0.5
 40
1.0
 40
1.0
 40
1.0
 40
1.0
 10
920.1664074431972
 20
2188.971143170261
 30
0.0
 10
920.2139149750632
 20
2186.812657699507
 30
0.0
 10
920.9037504794519
 20
2182.537221241725
 30
0.0
 10
922.7832268651544
 20
2178.344853751397
 30
0.0
 10
924.020375278334
 20
2176.269437248097
 30
0.0
  0
SPLINE
  5
19D
330
87
100
AcDbEntity
  8
P-SANR-FIXT
100
AcDbSpline
210
0.0
220
0.0
230
1.0
 70
     8
 71
     3
 72
     9
 73
     5
 74
     0
 42
0.000000001
 43
0.0000000001
 40
0.0
 40
0.0
 40
0.0
 40
0.0
 40
0.5
 40
1.0
 40
1.0
 40
1.0
 40
1.0
 10
944.3124396080616
 20
2176.269437248097
 30
0.0
 10
945.5495880212421
 20
2178.344853751397
 30
0.0
 10
947.4290644069451
 20
2182.537221241725
 30
0.0
 10
948.1188999113326
 20
2186.812657699507
 30
0.0
 10
948.1664074431975
 20
2188.971143170261
 30
0.0
  0
SPLINE
  5
19E
330
87
100
AcDbEntity
  8
P-SANR-FIXT
100
AcDbSpline
210
0.0
220
0.0
230
1.0
 70
     8
 71
     3
 72
     9
 73
     5
 74
     0
 42
0.000000001
 43
0.0000000001
 40
0.0
 40
0.0
 40
0.0
 40
0.0
 40
0.5
 40
1.0
 40
1.0
 40
1.0
 40
1.0
 10
948.1664074431975
 20
2188.971143170262
 30
0.0
 10
948.1188999113324
 20
2191.129628641019
 30
0.0
 10
947.4290644069432
 20
2195.405065098807
 30
0.0
 10
945.5495880212357
 20
2199.59743258914
 30
0.0
 10
944.3124396080524
 20
2201.672849092443
 30
0.0
  0
SPLINE
  5
19F
330
87
100
AcDbEntity
  8
P-SANR-FIXT
100
AcDbSpline
210
0.0
220
0.0
230
1.0
 70
     8
 71
     3
 72
    11
 73
     7
 74
     0
 42
0.000000001
 43
0.0000000001
 40
0.0
 40
0.0
 40
0.0
 40
0.0
 40
0.25
 40
0.5
 40
0.75
 40
1.0
 40
1.0
 40
1.0
 40
1.0
 10
924.020375278334
 20
2176.269437248097
 30
0.0
 10
924.0452633046775
 20
2176.226608304723
 30
0.0
 10
924.0825794637313
 20
2176.121129740352
 30
0.0
 10
924.1032511653203
 20
2175.908856880215
 30
0.0
 10
924.082388898195
 20
2175.660903770823
 30
0.0
 10
924.0451743740937
 20
2175.488662431888
 30
0.0
 10
924.020375278334
 20
2175.403411844312
 30
0.0
  0
SPLINE
  5
1A0
330
87
100
AcDbEntity
  8
P-SANR-FIXT
100
AcDbSpline
210
0.0
220
0.0
230
1.0
 70
     8
 71
     3
 72
    11
 73
     7
 74
     0
 42
0.000000001
 43
0.0000000001
 40
0.0
 40
0.0
 40
0.0
 40
0.0
 40
0.25
 40
0.5
 40
0.75
 40
1.0
 40
1.0
 40
1.0
 40
1.0
 10
944.3124396080618
 20
2175.403411844312
 30
0.0
 10
944.2876405123019
 20
2175.488662431888
 30
0.0
 10
944.2504259882008
 20
2175.660903770823
 30
0.0
 10
944.2295637210753
 20
2175.908856880215
 30
0.0
 10
944.2502354226645
 20
2176.121129740352
 30
0.0
 10
944.2875515817183
 20
2176.226608304723
 30
0.0
 10
944.3124396080616
 20
2176.269437248097
 30
0.0
  0
SPLINE
  5
1A1
330
87
100
AcDbEntity
  8
P-SANR-FIXT
100
AcDbSpline
210
0.0
220
0.0
230
1.0
 70
     8
 71
     3
 72
     9
 73
     5
 74
     0
 42
0.000000001
 43
0.0000000001
 40
0.0
 40
0.0
 40
0.0
 40
0.0
 40
0.5
 40
1.0
 40
1.0
 40
1.0
 40
1.0
 10
924.020375278334
 20
2175.403411844312
 30
0.0
 10
922.7832268651511
 20
2171.252578837712
 30
0.0
 10
920.9037504794453
 20
2162.867843857056
 30
0.0
 10
920.2139149750598
 20
2154.316970941489
 30
0.0
 10
920.166407443197
 20
2149.999999999979
 30
0.0
  0
SPLINE
  5
1A2
330
87
100
AcDbEntity
  8
P-SANR-FIXT
100
AcDbSpline
210
0.0
220
0.0
230
1.0
 70
     8
 71
     3
 72
     9
 73
     5
 74
     0
 42
0.000000001
 43
0.0000000001
 40
0.0
 40
0.0
 40
0.0
 40
0.0
 40
0.5
 40
1.0
 40
1.0
 40
1.0
 40
1.0
 10
920.166407443197
 20
2149.999999999979
 30
0.0
 10
920.2139149750598
 20
2145.683029058469
 30
0.0
 10
920.903750479445
 20
2137.132156142905
 30
0.0
 10
922.7832268651496
 20
2128.747421162251
 30
0.0
 10
924.0203752783321
 20
2124.596588155652
 30
0.0
  0
SPLINE
  5
1A3
330
87
100
AcDbEntity
  8
P-SANR-FIXT
100
AcDbSpline
210
0.0
220
0.0
230
1.0
 70
     8
 71
     3
 72
     9
 73
     5
 74
     0
 42
0.000000001
 43
0.0000000001
 40
0.0
 40
0.0
 40
0.0
 40
0.0
 40
0.5
 40
1.0
 40
1.0
 40
1.0
 40
1.0
 10
944.3124396080634
 20
2124.596588155652
 30
0.0
 10
945.5495880212463
 20
2128.747421162251
 30
0.0
 10
947.4290644069515
 20
2137.132156142905
 30
0.0
 10
948.1188999113356
 20
2145.683029058469
 30
0.0
 10
948.1664074431973
 20
2149.999999999979
 30
0.0
  0
SPLINE
  5
1A4
330
87
100
AcDbEntity
  8
P-SANR-FIXT
100
AcDbSpline
210
0.0
220
0.0
230
1.0
 70
     8
 71
     3
 72
     9
 73
     5
 74
     0
 42
0.000000001
 43
0.0000000001
 40
0.0
 40
0.0
 40
0.0
 40
0.0
 40
0.5
 40
1.0
 40
1.0
 40
1.0
 40
1.0
 10
948.1664074431973
 20
2149.999999999979
 30
0.0
 10
948.1188999113356
 20
2154.31697094149
 30
0.0
 10
947.4290644069512
 20
2162.867843857056
 30
0.0
 10
945.5495880212453
 20
2171.252578837712
 30
0.0
 10
944.3124396080618
 20
2175.403411844312
 30
0.0
  0
SPLINE
  5
1A5
330
87
100
AcDbEntity
  8
P-SANR-FIXT
100
AcDbSpline
210
0.0
220
0.0
230
1.0
 70
     8
 71
     3
 72
    11
 73
     7
 74
     0
 42
0.000000001
 43
0.0000000001
 40
0.0
 40
0.0
 40
0.0
 40
0.0
 40
0.25
 40
0.5
 40
0.75
 40
1.0
 40
1.0
 40
1.0
 40
1.0
 10
924.0203752783321
 20
2124.596588155652
 30
0.0
 10
924.0452633046754
 20
2124.510930268904
 30
0.0
 10
924.0825794637292
 20
2124.338086856088
 30
0.0
 10
924.1032511653184
 20
2124.090063957323
 30
0.0
 10
924.0823888981928
 20
2123.878177221053
 30
0.0
 10
924.0451743740917
 20
2123.773188045655
 30
0.0
 10
924.0203752783321
 20
2123.730562751867
 30
0.0
  0
SPLINE
  5
1A6
330
87
100
AcDbEntity
  8
P-SANR-FIXT
100
AcDbSpline
210
0.0
220
0.0
230
1.0
 70
     8
 71
     3
 72
    11
 73
     7
 74
     0
 42
0.000000001
 43
0.0000000001
 40
0.0
 40
0.0
 40
0.0
 40
0.0
 40
0.25
 40
0.5
 40
0.75
 40
1.0
 40
1.0
 40
1.0
 40
1.0
 10
944.3124396080632
 20
2123.730562751867
 30
0.0
 10
944.2876405123035
 20
2123.773188045655
 30
0.0
 10
944.2504259882023
 20
2123.878177221053
 30
0.0
 10
944.229563721077
 20
2124.090063957323
 30
0.0
 10
944.2502354226661
 20
2124.338086856088
 30
0.0
 10
944.2875515817199
 20
2124.510930268904
 30
0.0
 10
944.3124396080634
 20
2124.596588155652
 30
0.0
  0
SPLINE
  5
1A7
330
87
100
AcDbEntity
  8
P-SANR-FIXT
100
AcDbSpline
210
0.0
220
0.0
230
1.0
 70
     8
 71
     3
 72
     9
 73
     5
 74
     0
 42
0.000000001
 43
0.0000000001
 40
0.0
 40
0.0
 40
0.0
 40
0.0
 40
0.5
 40
1.0
 40
1.0
 40
1.0
 40
1.0
 10
924.0203752783321
 20
2123.730562751867
 30
0.0
 10
922.7832268651514
 20
2121.65514624857
 30
0.0
 10
920.9037504794482
 20
2117.462778758246
 30
0.0
 10
920.2139149750614
 20
2113.187342300469
 30
0.0
 10
920.1664074431972
 20
2111.028856829717
 30
0.0
  0
SPLINE
  5
1A8
330
87
100
AcDbEntity
  8
P-SANR-FIXT
100
AcDbSpline
210
0.0
220
0.0
230
1.0
 70
     8
 71
     3
 72
     9
 73
     5
 74
     0
 42
0.000000001
 43
0.0000000001
 40
0.0
 40
0.0
 40
0.0
 40
0.0
 40
0.5
 40
1.0
 40
1.0
 40
1.0
 40
1.0
 10
920.1664074431972
 20
2111.028856829717
 30
0.0
 10
920.2139149750616
 20
2108.870371358962
 30
0.0
 10
920.9037504794499
 20
2104.59493490118
 30
0.0
 10
922.7832268651567
 20
2100.402567410852
 30
0.0
 10
924.0203752783399
 20
2098.327150907552
 30
0.0
  0
SPLINE
  5
1A9
330
87
100
AcDbEntity
  8
P-SANR-FIXT
100
AcDbSpline
210
0.0
220
0.0
230
1.0
 70
     8
 71
     3
 72
     9
 73
     5
 74
     0
 42
0.000000001
 43
0.0000000001
 40
0.0
 40
0.0
 40
0.0
 40
0.0
 40
0.5
 40
1.0
 40
1.0
 40
1.0
 40
1.0
 10
944.3124396080557
 20
2098.327150907552
 30
0.0
 10
945.5495880212392
 20
2100.402567410852
 30
0.0
 10
947.4290644069466
 20
2104.59493490118
 30
0.0
 10
948.1188999113339
 20
2108.870371358962
 30
0.0
 10
948.1664074431975
 20
2111.028856829717
 30
0.0
  0
SPLINE
  5
1AA
330
87
100
AcDbEntity
  8
P-SANR-FIXT
100
AcDbSpline
210
0.0
220
0.0
230
1.0
 70
     8
 71
     3
 72
     9
 73
     5
 74
     0
 42
0.000000001
 43
0.0000000001
 40
0.0
 40
0.0
 40
0.0
 40
0.0
 40
0.5
 40
1.0
 40
1.0
 40
1.0
 40
1.0
 10
948.1664074431975
 20
2111.028856829717
 30
0.0
 10
948.118899911334
 20
2113.187342300469
 30
0.0
 10
947.4290644069482
 20
2117.462778758246
 30
0.0
 10
945.5495880212444
 20
2121.65514624857
 30
0.0
 10
944.3124396080632
 20
2123.730562751867
 30
0.0
  0
SPLINE
  5
1AB
330
87
100
AcDbEntity
  8
P-SANR-FIXT
100
AcDbSpline
210
0.0
220
0.0
230
1.0
 70
     8
 71
     3
 72
     9
 73
     5
 74
     0
 42
0.000000001
 43
0.0000000001
 40
0.0
 40
0.0
 40
0.0
 40
0.0
 40
0.5
 40
1.0
 40
1.0
 40
1.0
 40
1.0
 10
924.0203752783399
 20
2098.327150907552
 30
0.0
 10
924.0452798223033
 20
2098.284217780626
 30
0.0
 10
924.0828433085725
 20
2098.216895386392
 30
0.0
 10
924.095915591527
 20
2098.19317631134
 30
0.0
 10
924.0963289321754
 20
2098.193176311336
 30
0.0
  0
SPLINE
  5
1AC
330
87
100
AcDbEntity
  8
P-SANR-FIXT
100
AcDbSpline
210
0.0
220
0.0
230
1.0
 70
     8
 71
     3
 72
     9
 73
     5
 74
     0
 42
0.000000001
 43
0.0000000001
 40
0.0
 40
0.0
 40
0.0
 40
0.0
 40
0.5
 40
1.0
 40
1.0
 40
1.0
 40
1.0
 10
944.23648595422
 20
2098.193176311336
 30
0.0
 10
944.2368992948685
 20
2098.19317631134
 30
0.0
 10
944.2499715778229
 20
2098.216895386392
 30
0.0
 10
944.2875350640923
 20
2098.284217780626
 30
0.0
 10
944.3124396080557
 20
2098.327150907552
 30
0.0
  0
LINE
  5
1AD
330
87
100
AcDbEntity
  8
P-SANR-FIXT
100
AcDbLine
 10
745.8164074432004
 20
1999.999999999996
 30
0.0
 11
745.8164074432001
 21
1880.149999999994
 31
0.0
  0
LINE
  5
1AE
330
87
100
AcDbEntity
  8
P-SANR-FIXT
100
AcDbLine
 10
745.8164074432001
 20
1819.849999999993
 30
0.0
 11
745.8164074432001
 21
1769.999999999996
 31
0.0
  0
LINE
  5
1AF
330
87
100
AcDbEntity
  8
P-SANR-FIXT
100
AcDbLine
 10
885.5164074431996
 20
1769.999999999996
 30
0.0
 11
885.5164074431996
 21
1819.849999999989
 31
0.0
  0
LINE
  5
1B0
330
87
100
AcDbEntity
  8
P-SANR-FIXT
100
AcDbLine
 10
885.5164074431998
 20
1880.149999999989
 30
0.0
 11
885.5164074431998
 21
1999.999999999996
 31
0.0
  0
LINE
  5
1B1
330
87
100
AcDbEntity
  8
P-SANR-FIXT
100
AcDbLine
 10
771.6664074432006
 20
2249.999999999996
 30
0.0
 11
771.6664074432006
 21
2245.17157287525
 31
0.0
  0
LINE
  5
1B2
330
87
100
AcDbEntity
  8
P-SANR-FIXT
100
AcDbLine
 10
859.6664074432005
 20
2245.17157287525
 30
0.0
 11
859.6664074432005
 21
2249.999999999996
 31
0.0
  0
LINE
  5
1B3
330
87
100
AcDbEntity
  8
P-SANR-FIXT
100
AcDbLine
 10
745.8164074432008
 20
2226.999999999996
 30
0.0
 11
745.8164074432008
 21
2214.94594703669
 31
0.0
  0
LINE
  5
1B4
330
87
100
AcDbEntity
  8
P-SANR-FIXT
100
AcDbLine
 10
885.5164074432003
 20
2214.94594703669
 30
0.0
 11
885.5164074432005
 21
2226.999999999996
 31
0.0
  0
LINE
  5
1B5
330
87
100
AcDbEntity
  8
P-SANR-FIXT
100
AcDbLine
 10
771.6664074432006
 20
2245.17157287525
 30
0.0
 11
771.6664074432006
 21
2226.999999999996
 31
0.0
  0
LINE
  5
1B6
330
87
100
AcDbEntity
  8
P-SANR-FIXT
100
AcDbLine
 10
859.6664074432005
 20
2226.999999999996
 30
0.0
 11
859.6664074432005
 21
2245.17157287525
 31
0.0
  0
LINE
  5
1B7
330
87
100
AcDbEntity
  8
P-SANR-FIXT
100
AcDbLine
 10
745.8164074432008
 20
2214.94594703669
 30
0.0
 11
745.8164074432008
 21
2180.149999999997
 31
0.0
  0
LINE
  5
1B8
330
87
100
AcDbEntity
  8
P-SANR-FIXT
100
AcDbLine
 10
745.8164074432005
 20
2119.849999999996
 30
0.0
 11
745.8164074432004
 21
1999.999999999996
 31
0.0
  0
LINE
  5
1B9
330
87
100
AcDbEntity
  8
P-SANR-FIXT
100
AcDbLine
 10
885.5164074431998
 20
1999.999999999996
 30
0.0
 11
885.5164074432002
 21
2119.849999999996
 31
0.0
  0
LINE
  5
1BA
330
87
100
AcDbEntity
  8
P-SANR-FIXT
100
AcDbLine
 10
885.5164074432003
 20
2180.149999999995
 30
0.0
 11
885.5164074432003
 21
2214.94594703669
 31
0.0
  0
LINE
  5
1BB
330
87
100
AcDbEntity
  8
P-SANR-FIXT
100
AcDbLine
 10
920.166407443199
 20
2190.759999999996
 30
0.0
 11
917.6664074432009
 21
2190.759999999996
 31
0.0
  0
LINE
  5
1BC
330
87
100
AcDbEntity
  8
P-SANR-FIXT
100
AcDbLine
 10
917.6664074432007
 20
2109.239999999996
 30
0.0
 11
920.1664074431985
 21
2109.239999999996
 31
0.0
  0
LINE
  5
1BD
330
87
100
AcDbEntity
  8
P-SANR-FIXT
100
AcDbLine
 10
917.6664074432009
 20
2180.149999999995
 30
0.0
 11
885.5164074432003
 21
2180.149999999995
 31
0.0
  0
LINE
  5
1BE
330
87
100
AcDbEntity
  8
P-SANR-FIXT
100
AcDbLine
 10
885.5164074432002
 20
2119.849999999996
 30
0.0
 11
917.6664074432004
 21
2119.849999999996
 31
0.0
  0
LINE
  5
1BF
330
87
100
AcDbEntity
  8
P-SANR-FIXT
100
AcDbLine
 10
745.8164074432008
 20
2180.149999999997
 30
0.0
 11
713.6664074432006
 21
2180.149999999997
 31
0.0
  0
LINE
  5
1C0
330
87
100
AcDbEntity
  8
P-SANR-FIXT
100
AcDbLine
 10
713.6664074432006
 20
2119.849999999996
 30
0.0
 11
745.8164074432005
 21
2119.849999999996
 31
0.0
  0
LINE
  5
1C1
330
87
100
AcDbEntity
  8
P-SANR-FIXT
100
AcDbLine
 10
713.6664074432006
 20
2190.759999999996
 30
0.0
 11
711.1664074432032
 21
2190.759999999997
 31
0.0
  0
LINE
  5
1C2
330
87
100
AcDbEntity
  8
P-SANR-FIXT
100
AcDbLine
 10
711.1664074432027
 20
2109.239999999996
 30
0.0
 11
713.6664074432006
 21
2109.239999999996
 31
0.0
  0
LINE
  5
1C3
330
87
100
AcDbEntity
  8
P-SANR-FIXT
100
AcDbLine
 10
917.6664074432009
 20
1809.239999999988
 30
0.0
 11
920.1664074431985
 21
1809.239999999988
 31
0.0
  0
LINE
  5
1C4
330
87
100
AcDbEntity
  8
P-SANR-FIXT
100
AcDbLine
 10
920.166407443199
 20
1890.759999999988
 30
0.0
 11
917.6664074432036
 21
1890.759999999988
 31
0.0
  0
LINE
  5
1C5
330
87
100
AcDbEntity
  8
P-SANR-FIXT
100
AcDbLine
 10
885.5164074431996
 20
1819.849999999989
 30
0.0
 11
917.6664074432009
 21
1819.849999999988
 31
0.0
  0
LINE
  5
1C6
330
87
100
AcDbEntity
  8
P-SANR-FIXT
100
AcDbLine
 10
917.6664074432029
 20
1880.149999999988
 30
0.0
 11
885.5164074431998
 21
1880.149999999989
 31
0.0
  0
LINE
  5
1C7
330
87
100
AcDbEntity
  8
P-SANR-FIXT
100
AcDbLine
 10
713.6664074432007
 20
1819.849999999994
 30
0.0
 11
745.8164074432001
 21
1819.849999999993
 31
0.0
  0
LINE
  5
1C8
330
87
100
AcDbEntity
  8
P-SANR-FIXT
100
AcDbLine
 10
745.8164074432001
 20
1880.149999999994
 30
0.0
 11
713.666407443203
 21
1880.149999999995
 31
0.0
  0
LINE
  5
1C9
330
87
100
AcDbEntity
  8
P-SANR-FIXT
100
AcDbLine
 10
711.166407443202
 20
1809.239999999994
 30
0.0
 11
713.6664074432006
 21
1809.239999999994
 31
0.0
  0
LINE
  5
1CA
330
87
100
AcDbEntity
  8
P-SANR-FIXT
100
AcDbLine
 10
713.6664074432033
 20
1890.759999999994
 30
0.0
 11
711.1664074432045
 21
1890.759999999995
 31
0.0
  0
SPLINE
  5
1CB
330
87
100
AcDbEntity
  8
P-SANR-FIXT
100
AcDbSpline
210
0.0
220
0.0
230
1.0
 70
     8
 71
     3
 72
    32
 73
    28
 74
     0
 42
0.000000001
 43
0.0000000001
 40
0.0
 40
0.0
 40
0.0
 40
0.0
 40
0.0555555555555556
 40
0.1111111111111111
 40
0.1666666666666666
 40
0.1944444444444444
 40
0.2222222222222222
 40
0.25
 40
0.2777777777777778
 40
0.3055555555555556
 40
0.3333333333333333
 40
0.3611111111111111
 40
0.3888888888888888
 40
0.4166666666666666
 40
0.4444444444444445
 40
0.4791666666666666
 40
0.5138888888888889
 40
0.5486111111111111
 40
0.5833333333333333
 40
0.6180555555555555
 40
0.6527777777777777
 40
0.6875
 40
0.7222222222222223
 40
0.7569444444444445
 40
0.7916666666666668
 40
0.861111111111111
 40
1.0
 40
1.0
 40
1.0
 40
1.0
 10
745.8164074431988
 20
1880.149999999993
 30
0.0
 10
745.8164074431988
 20
1880.123120826557
 30
0.0
 10
745.9630079946541
 20
1879.783658830521
 30
0.0
 10
746.5423915324321
 20
1878.452667267446
 30
0.0
 10
747.2911488764853
 20
1876.57039454452
 30
0.0
 10
748.0055698947467
 20
1874.665359673804
 30
0.0
 10
748.56645253153
 20
1873.09326129342
 30
0.0
 10
749.1462137160426
 20
1871.349967240984
 30
0.0
 10
749.743777265929
 20
1869.415730853751
 30
0.0
 10
750.3304314072693
 20
1867.336019053815
 30
0.0
 10
750.8728111199699
 20
1865.163402921872
 30
0.0
 10
751.366946088245
 20
1862.856823319367
 30
0.0
 10
751.8151030028722
 20
1860.396604651264
 30
0.0
 10
752.1868851284848
 20
1857.850870078527
 30
0.0
 10
752.4777317257214
 20
1855.088563612111
 30
0.0
 10
752.6444604077129
 20
1852.030191686017
 30
0.0
 10
752.6611789572578
 20
1848.637432850372
 30
0.0
 10
752.5134083792993
 20
1845.320849492168
 30
0.0
 10
752.196339629642
 20
1842.143005184144
 30
0.0
 10
751.7150542763167
 20
1838.963806322034
 30
0.0
 10
751.126955053495
 20
1835.94667056444
 30
0.0
 10
750.4760441615125
 20
1833.190686256576
 30
0.0
 10
749.7424975313499
 20
1830.565456889242
 30
0.0
 10
748.9934190230724
 20
1828.166426696571
 30
0.0
 10
748.0426129470286
 20
1825.391159950501
 30
0.0
 10
746.4792857216295
 20
1821.303924742631
 30
0.0
 10
745.8164074431987
 20
1819.918146426329
 30
0.0
 10
745.8164074431987
 20
1819.849999999993
 30
0.0
  0
SPLINE
  5
1CC
330
87
100
AcDbEntity
  8
P-SANR-FIXT
100
AcDbSpline
210
0.0
220
0.0
230
1.0
 70
     8
 71
     3
 72
    32
 73
    28
 74
     0
 42
0.000000001
 43
0.0000000001
 40
0.0
 40
0.0
 40
0.0
 40
0.0
 40
0.0555555555555556
 40
0.1111111111111111
 40
0.1666666666666666
 40
0.1944444444444444
 40
0.2222222222222222
 40
0.25
 40
0.2777777777777778
 40
0.3055555555555556
 40
0.3333333333333333
 40
0.3611111111111111
 40
0.3888888888888888
 40
0.4166666666666666
 40
0.4444444444444445
 40
0.4791666666666666
 40
0.5138888888888889
 40
0.5486111111111111
 40
0.5833333333333333
 40
0.6180555555555555
 40
0.6527777777777777
 40
0.6875
 40
0.7222222222222223
 40
0.7569444444444445
 40
0.7916666666666668
 40
0.861111111111111
 40
1.0
 40
1.0
 40
1.0
 40
1.0
 10
885.516407443198
 20
1819.849999999988
 30
0.0
 10
885.516407443198
 20
1819.876879173424
 30
0.0
 10
885.3698068917427
 20
1820.216341169459
 30
0.0
 10
884.7904233539646
 20
1821.547332732535
 30
0.0
 10
884.0416660099112
 20
1823.42960545546
 30
0.0
 10
883.3272449916499
 20
1825.334640326177
 30
0.0
 10
882.7663623548668
 20
1826.90673870656
 30
0.0
 10
882.1866011703539
 20
1828.650032758997
 30
0.0
 10
881.5890376204675
 20
1830.584269146229
 30
0.0
 10
881.0023834791273
 20
1832.663980946166
 30
0.0
 10
880.4600037664268
 20
1834.836597078108
 30
0.0
 10
879.9658687981516
 20
1837.143176680613
 30
0.0
 10
879.5177118835244
 20
1839.603395348717
 30
0.0
 10
879.145929757912
 20
1842.149129921453
 30
0.0
 10
878.8550831606753
 20
1844.911436387869
 30
0.0
 10
878.6883544786835
 20
1847.969808313963
 30
0.0
 10
878.6716359291387
 20
1851.362567149609
 30
0.0
 10
878.8194065070973
 20
1854.679150507812
 30
0.0
 10
879.1364752567545
 20
1857.856994815836
 30
0.0
 10
879.6177606100798
 20
1861.036193677947
 30
0.0
 10
880.2058598329017
 20
1864.053329435541
 30
0.0
 10
880.8567707248839
 20
1866.809313743404
 30
0.0
 10
881.5903173550466
 20
1869.434543110739
 30
0.0
 10
882.3393958633245
 20
1871.83357330341
 30
0.0
 10
883.290201939368
 20
1874.608840049479
 30
0.0
 10
884.8535291647673
 20
1878.696075257349
 30
0.0
 10
885.5164074431982
 20
1880.081853573652
 30
0.0
 10
885.5164074431982
 20
1880.149999999987
 30
0.0
  0
LINE
  5
1CD
330
87
100
AcDbEntity
  8
P-SANR-FIXT
100
AcDbLine
 10
771.6664074431991
 20
2249.999999999995
 30
0.0
 11
859.6664074431989
 21
2249.999999999995
 31
0.0
  0
LINE
  5
1CE
330
87
100
AcDbEntity
  8
P-SANR-FIXT
100
AcDbLine
 10
885.5164074431987
 20
2226.999999999995
 30
0.0
 11
745.8164074431992
 21
2226.999999999995
 31
0.0
  0
SPLINE
  5
1CF
330
87
100
AcDbEntity
  8
P-SANR-FIXT
100
AcDbSpline
210
0.0
220
0.0
230
1.0
 70
     8
 71
     3
 72
    32
 73
    28
 74
     0
 42
0.000000001
 43
0.0000000001
 40
0.0
 40
0.0
 40
0.0
 40
0.0
 40
0.0555555555555556
 40
0.1111111111111111
 40
0.1666666666666666
 40
0.1944444444444444
 40
0.2222222222222222
 40
0.25
 40
0.2777777777777778
 40
0.3055555555555556
 40
0.3333333333333333
 40
0.3611111111111111
 40
0.3888888888888888
 40
0.4166666666666666
 40
0.4444444444444445
 40
0.4791666666666666
 40
0.5138888888888889
 40
0.5486111111111111
 40
0.5833333333333333
 40
0.6180555555555555
 40
0.6527777777777777
 40
0.6875
 40
0.7222222222222223
 40
0.7569444444444445
 40
0.7916666666666668
 40
0.861111111111111
 40
1.0
 40
1.0
 40
1.0
 40
1.0
 10
885.5164074431986
 20
2119.849999999995
 30
0.0
 10
885.5164074431986
 20
2119.876879173431
 30
0.0
 10
885.3698068917433
 20
2120.216341169466
 30
0.0
 10
884.7904233539649
 20
2121.547332732541
 30
0.0
 10
884.0416660099119
 20
2123.429605455466
 30
0.0
 10
883.3272449916504
 20
2125.334640326183
 30
0.0
 10
882.7663623548673
 20
2126.906738706567
 30
0.0
 10
882.1866011703544
 20
2128.650032759002
 30
0.0
 10
881.5890376204681
 20
2130.584269146236
 30
0.0
 10
881.0023834791278
 20
2132.663980946172
 30
0.0
 10
880.4600037664274
 20
2134.836597078114
 30
0.0
 10
879.9658687981521
 20
2137.143176680619
 30
0.0
 10
879.5177118835249
 20
2139.603395348723
 30
0.0
 10
879.1459297579125
 20
2142.14912992146
 30
0.0
 10
878.8550831606757
 20
2144.911436387876
 30
0.0
 10
878.688354478684
 20
2147.96980831397
 30
0.0
 10
878.6716359291389
 20
2151.362567149615
 30
0.0
 10
878.819406507098
 20
2154.679150507819
 30
0.0
 10
879.1364752567551
 20
2157.856994815842
 30
0.0
 10
879.6177606100805
 20
2161.036193677954
 30
0.0
 10
880.2058598329022
 20
2164.053329435547
 30
0.0
 10
880.8567707248846
 20
2166.80931374341
 30
0.0
 10
881.5903173550472
 20
2169.434543110745
 30
0.0
 10
882.339395863325
 20
2171.833573303416
 30
0.0
 10
883.2902019393685
 20
2174.608840049486
 30
0.0
 10
884.8535291647678
 20
2178.696075257356
 30
0.0
 10
885.5164074431986
 20
2180.081853573658
 30
0.0
 10
885.5164074431986
 20
2180.149999999994
 30
0.0
  0
SPLINE
  5
1D0
330
87
100
AcDbEntity
  8
P-SANR-FIXT
100
AcDbSpline
210
0.0
220
0.0
230
1.0
 70
     8
 71
     3
 72
    32
 73
    28
 74
     0
 42
0.000000001
 43
0.0000000001
 40
0.0
 40
0.0
 40
0.0
 40
0.0
 40
0.0555555555555556
 40
0.1111111111111111
 40
0.1666666666666666
 40
0.1944444444444444
 40
0.2222222222222222
 40
0.25
 40
0.2777777777777778
 40
0.3055555555555556
 40
0.3333333333333333
 40
0.3611111111111111
 40
0.3888888888888888
 40
0.4166666666666666
 40
0.4444444444444445
 40
0.4791666666666666
 40
0.5138888888888889
 40
0.5486111111111111
 40
0.5833333333333333
 40
0.6180555555555555
 40
0.6527777777777777
 40
0.6875
 40
0.7222222222222223
 40
0.7569444444444445
 40
0.7916666666666668
 40
0.861111111111111
 40
1.0
 40
1.0
 40
1.0
 40
1.0
 10
745.8164074431992
 20
2180.149999999995
 30
0.0
 10
745.8164074431992
 20
2180.123120826559
 30
0.0
 10
745.9630079946545
 20
2179.783658830524
 30
0.0
 10
746.5423915324325
 20
2178.452667267449
 30
0.0
 10
747.2911488764858
 20
2176.570394544523
 30
0.0
 10
748.0055698947473
 20
2174.665359673806
 30
0.0
 10
748.5664525315304
 20
2173.093261293423
 30
0.0
 10
749.1462137160432
 20
2171.349967240987
 30
0.0
 10
749.7437772659297
 20
2169.415730853753
 30
0.0
 10
750.3304314072696
 20
2167.336019053817
 30
0.0
 10
750.8728111199705
 20
2165.163402921875
 30
0.0
 10
751.3669460882456
 20
2162.85682331937
 30
0.0
 10
751.8151030028725
 20
2160.396604651266
 30
0.0
 10
752.1868851284851
 20
2157.850870078529
 30
0.0
 10
752.4777317257218
 20
2155.088563612114
 30
0.0
 10
752.6444604077132
 20
2152.030191686019
 30
0.0
 10
752.6611789572584
 20
2148.637432850374
 30
0.0
 10
752.5134083792998
 20
2145.32084949217
 30
0.0
 10
752.1963396296427
 20
2142.143005184147
 30
0.0
 10
751.7150542763173
 20
2138.963806322036
 30
0.0
 10
751.1269550534954
 20
2135.946670564442
 30
0.0
 10
750.4760441615131
 20
2133.190686256579
 30
0.0
 10
749.7424975313505
 20
2130.565456889244
 30
0.0
 10
748.9934190230727
 20
2128.166426696573
 30
0.0
 10
748.0426129470291
 20
2125.391159950503
 30
0.0
 10
746.47928572163
 20
2121.303924742633
 30
0.0
 10
745.8164074431991
 20
2119.918146426331
 30
0.0
 10
745.8164074431991
 20
2119.849999999995
 30
0.0
  0
LINE
  5
1D1
330
87
100
AcDbEntity
  8
P-SANR-FIXT
100
AcDbLine
 10
745.8164074431985
 20
1769.999999999995
 30
0.0
 11
885.516407443198
 21
1769.999999999995
 31
0.0
  0
LINE
  5
1D2
330
87
100
AcDbEntity
  8
P-SANR-FIXT
100
AcDbLine
 10
713.666407443199
 20
2109.239999999995
 30
0.0
 11
713.6664074431993
 21
2190.759999999995
 31
0.0
  0
LINE
  5
1D3
330
87
100
AcDbEntity
  8
P-SANR-FIXT
100
AcDbLine
 10
917.6664074431993
 20
2190.759999999994
 30
0.0
 11
917.666407443199
 21
2109.239999999994
 31
0.0
  0
LINE
  5
1D4
330
87
100
AcDbEntity
  8
P-SANR-FIXT
100
AcDbLine
 10
917.6664074432018
 20
1890.759999999987
 30
0.0
 11
917.6664074431993
 21
1809.239999999987
 31
0.0
  0
LINE
  5
1D5
330
87
100
AcDbEntity
  8
P-SANR-FIXT
100
AcDbLine
 10
713.6664074431993
 20
1809.239999999993
 30
0.0
 11
713.6664074432018
 21
1890.759999999994
 31
0.0
  0
LINE
  5
1D6
330
87
100
AcDbEntity
  8
P-SANR-FIXT
100
AcDbLine
 10
752.6664074431994
 20
1769.999999999982
 30
0.0
 11
752.6664074431994
 21
1765.972349394463
 31
0.0
  0
LINE
  5
1D7
330
87
100
AcDbEntity
  8
P-SANR-FIXT
100
AcDbLine
 10
878.6664074432021
 20
1765.972349394463
 30
0.0
 11
878.6664074432021
 21
1769.999999999982
 31
0.0
  0
LINE
  5
1D8
330
87
100
AcDbEntity
  8
P-SANR-FIXT
100
AcDbLine
 10
760.1664074431997
 20
1765.972349394463
 30
0.0
 11
760.1664074431997
 21
1761.542242232786
 31
0.0
  0
LINE
  5
1D9
330
87
100
AcDbEntity
  8
P-SANR-FIXT
100
AcDbLine
 10
871.1664074432018
 20
1761.542242232786
 30
0.0
 11
871.1664074432018
 21
1765.972349394463
 31
0.0
  0
LINE
  5
1DA
330
87
100
AcDbEntity
  8
P-SANR-FIXT
100
AcDbLine
 10
767.6664074432003
 20
1747.999999999917
 30
0.0
 11
767.6664074432003
 21
1709.499999999918
 31
0.0
  0
LINE
  5
1DB
330
87
100
AcDbEntity
  8
P-SANR-FIXT
100
AcDbLine
 10
863.6664074432012
 20
1709.499999999918
 30
0.0
 11
863.6664074432012
 21
1747.999999999917
 31
0.0
  0
LWPOLYLINE
  5
1DC
330
87
100
AcDbEntity
  8
P-SANR-FIXT
100
AcDbPolyline
 90
       26
 70
   128
 43
0.0
 10
863.6664074432014
 20
1709.499999999918
 10
862.7328544021969
 20
1708.200716580297
 10
861.7480906251811
 20
1706.939804613367
 10
860.7136915241255
 20
1705.719281289294
 10
859.6313119169318
 20
1704.541099185032
 10
858.5026833800762
 20
1703.407143140617
 10
857.3296114784564
 20
1702.319227243821
 10
856.1139728768729
 20
1701.279091928004
 10
854.8577123377663
 20
1700.288401187786
 10
853.5628396100102
 20
1699.348739917016
 10
852.2314262137452
 20
1698.461611373277
 10
850.8656021263854
 20
1697.628434772995
 10
849.46755237511
 20
1696.850543020995
 10
848.0395135412866
 20
1696.129180578139
 10
846.583770182417
 20
1695.465501470454
 10
845.1026511773338
 20
1694.860567442933
 10
843.5985260004898
 20
1694.315346260977
 10
842.0738009313048
 20
1693.830710162168
 10
840.5309152046321
 20
1693.40743446088
 10
838.9723371085032
 20
1693.046196307942
 10
837.400560035393
 20
1692.747573607338
 10
835.8180984933239
 20
1692.512044091688
 10
834.2274840831892
 20
1692.33998455797
 10
832.6312614487328
 20
1692.231670264737
 10
831.0319842056596
 20
1692.187274491751
 10
830.787775654457
 20
1692.186327840585
  0
LWPOLYLINE
  5
1DD
330
87
100
AcDbEntity
  8
P-SANR-FIXT
100
AcDbPolyline
 90
       26
 70
   128
 43
0.0
 10
800.2997769393806
 20
1692.192296447754
 10
799.011365026531
 20
1692.218068122326
 10
797.4143506352297
 20
1692.31400413666
 10
795.8224501024397
 20
1692.473726954611
 10
794.2382101294266
 20
1692.69698105374
 10
792.6641651621941
 20
1692.983409275116
 10
791.102833336911
 20
1693.332553394684
 10
789.5567124514319
 20
1693.743854856334
 10
788.0282759693517
 20
1694.216655665468
 10
786.519969062993
 20
1694.750199441648
 10
785.0342047016505
 20
1695.34363262865
 10
783.5733597913564
 20
1695.996005859967
 10
782.1397713723372
 20
1696.706275477594
 10
780.735732880247
 20
1697.473305201659
 10
779.3634904771612
 20
1698.295867948228
 10
778.0252394581951
 20
1699.172647792378
 10
776.7231207395008
 20
1700.102242073393
 10
775.4592174332578
 20
1701.083163638728
 10
774.2355515151376
 20
1702.11384322313
 10
773.0540805895743
 20
1703.192631959129
 10
771.9166947580155
 20
1704.317804014879
 10
770.8252135951621
 20
1705.487559355113
 10
769.7813832380377
 20
1706.700026620822
 10
768.7868735925418
 20
1707.953266123027
 10
767.8432756619566
 20
1709.245272945867
 10
767.6664074432002
 20
1709.499999999918
  0
LWPOLYLINE
  5
1DE
330
87
100
AcDbEntity
  8
P-SANR-FIXT
100
AcDbPolyline
 90
        9
 70
   128
 43
0.0
 10
830.7098337229968
 20
1692.186072388765
 10
830.6737246806338
 20
1692.186072388765
 10
830.6136071320814
 20
1692.186072388765
 10
830.5295772525925
 20
1692.186072388765
 10
830.4217694720492
 20
1692.186072388765
 10
830.2903562599023
 20
1692.186072388765
 10
830.1355478492579
 20
1692.186072388765
 10
829.9575919005494
 20
1692.186072388765
 10
829.8945454944028
 20
1692.186072388765
  0
LWPOLYLINE
  5
1DF
330
87
100
AcDbEntity
  8
P-SANR-FIXT
100
AcDbPolyline
 90
       10
 70
   128
 43
0.0
 10
801.4669020562338
 20
1692.186072388765
 10
801.290472765117
 20
1692.186072388765
 10
801.1231358032215
 20
1692.186072388765
 10
800.9790649735506
 20
1692.186072388765
 10
800.8584907586987
 20
1692.186072388765
 10
800.7616060516882
 20
1692.186072388765
 10
800.6885658473832
 20
1692.186072388765
 10
800.6394869945284
 20
1692.186072388765
 10
800.6144480088195
 20
1692.186072388765
 10
800.6109383939964
 20
1692.186072388765
  0
LWPOLYLINE
  5
1E0
330
87
100
AcDbEntity
  8
P-SANR-FIXT
100
AcDbPolyline
 90
       80
 70
   128
 43
0.0
 10
800.6109383939964
 20
1692.186072388765
 10
800.622981163405
 20
1692.186072388765
 10
800.6590902057677
 20
1692.186072388765
 10
800.7192077543203
 20
1692.186072388765
 10
800.8032376338091
 20
1692.186072388765
 10
800.9110454143526
 20
1692.186072388765
 10
801.0424586264994
 20
1692.186072388765
 10
801.1972670371434
 20
1692.186072388765
 10
801.3752229858519
 20
1692.186072388765
 10
801.5760417810691
 20
1692.186072388765
 10
801.799402155561
 20
1692.186072388765
 10
802.0449467803766
 20
1692.186072388765
 10
802.3122828364959
 20
1692.186072388765
 10
802.6009826432582
 20
1692.186072388765
 10
802.9105843425581
 20
1692.186072388765
 10
803.2405926377222
 20
1692.186072388765
 10
803.5904795858758
 20
1692.186072388765
 10
803.9596854425406
 20
1692.186072388765
 10
804.3476195571056
 20
1692.186072388765
 10
804.7536613177424
 20
1692.186072388765
 10
805.1771611442516
 20
1692.186072388765
 10
805.6174415272527
 20
1692.186072388765
 10
806.0737981120539
 20
1692.186072388765
 10
806.545500825471
 20
1692.186072388765
 10
807.0317950437869
 20
1692.186072388765
 10
807.5319027999892
 20
1692.186072388765
 10
808.0450240283525
 20
1692.186072388765
 10
808.570337844371
 20
1692.186072388765
 10
809.1070038580001
 20
1692.186072388765
 10
809.6541635181008
 20
1692.186072388765
 10
810.2109414859381
 20
1692.186072388765
 10
810.7764470355363
 20
1692.186072388765
 10
811.3497754786507
 20
1692.186072388765
 10
811.9300096120761
 20
1692.186072388765
 10
812.5162211849758
 20
1692.186072388765
 10
813.1074723838846
 20
1692.186072388765
 10
813.7028173330111
 20
1692.186072388765
 10
814.3013036074373
 20
1692.186072388765
 10
814.901973756794
 20
1692.186072388765
 10
815.5038668369787
 20
1692.186072388765
 10
816.1060199474594
 20
1692.186072388765
 10
816.7074697717124
 20
1692.186072388765
 10
817.3072541183215
 20
1692.186072388765
 10
817.9044134602788
 20
1692.186072388765
 10
818.4979924700247
 20
1692.186072388765
 10
819.087041547767
 20
1692.186072388765
 10
819.6706183406382
 20
1692.186072388765
 10
820.2477892502598
 20
1692.186072388765
 10
820.8176309262992
 20
1692.186072388765
 10
821.3792317436348
 20
1692.186072388765
 10
821.9316932607606
 20
1692.186072388765
 10
822.4741316571012
 20
1692.186072388765
 10
823.0056791469367
 20
1692.186072388765
 10
823.5254853676741
 20
1692.186072388765
 10
824.0327187402462
 20
1692.186072388765
 10
824.5265677994607
 20
1692.186072388765
 10
825.0062424921722
 20
1692.186072388765
 10
825.4709754411969
 20
1692.186072388765
 10
825.9200231729547
 20
1692.186072388765
 10
826.3526673068664
 20
1692.186072388765
 10
826.7682157046097
 20
1692.186072388765
 10
827.1660035773944
 20
1692.186072388765
 10
827.5453945494808
 20
1692.186072388765
 10
827.9057816762458
 20
1692.186072388765
 10
828.2465884151651
 20
1692.186072388765
 10
828.5672695481581
 20
1692.186072388765
 10
828.8673120538204
 20
1692.186072388765
 10
829.1462359281485
 20
1692.186072388765
 10
829.403594952444
 20
1692.186072388765
 10
829.6389774071686
 20
1692.186072388765
 10
829.8520067306066
 20
1692.186072388765
 10
830.0423421212844
 20
1692.186072388765
 10
830.2096790831802
 20
1692.186072388765
 10
830.3537499128507
 20
1692.186072388765
 10
830.4743241277028
 20
1692.186072388765
 10
830.5712088347132
 20
1692.186072388765
 10
830.6442490390185
 20
1692.186072388765
 10
830.6933278918732
 20
1692.186072388765
 10
830.718366877582
 20
1692.186072388765
 10
830.721876492405
 20
1692.186072388765
  0
LINE
  5
1E1
330
87
100
AcDbEntity
  8
P-SANR-FIXT
100
AcDbLine
 10
801.6664074431997
 20
1692.199999999917
 30
0.0
 11
801.6664074431997
 21
1691.092081841388
 31
0.0
  0
LINE
  5
1E2
330
87
100
AcDbEntity
  8
P-SANR-FIXT
100
AcDbLine
 10
829.6664074432017
 20
1691.092081841388
 30
0.0
 11
829.6664074432017
 21
1692.199999999917
 31
0.0
  0
LINE
  5
1E3
330
87
100
AcDbEntity
  8
P-SANR-FIXT
100
AcDbLine
 10
761.1664074432042
 20
1761.542242232786
 30
0.0
 11
761.1664074432042
 21
1747.999999999917
 31
0.0
  0
LINE
  5
1E4
330
87
100
AcDbEntity
  8
P-SANR-FIXT
100
AcDbLine
 10
870.1664074432027
 20
1747.999999999917
 30
0.0
 11
870.1664074432027
 21
1761.542242232786
 31
0.0
  0
LINE
  5
1E5
330
87
100
AcDbEntity
  8
P-SANR-FIXT
100
AcDbLine
 10
752.6664074431978
 20
1765.972349394462
 30
0.0
 11
878.6664074432005
 21
1765.972349394462
 31
0.0
  0
LINE
  5
1E6
330
87
100
AcDbEntity
  8
P-SANR-FIXT
100
AcDbLine
 10
760.1664074431982
 20
1761.542242232785
 30
0.0
 11
871.1664074432
 21
1761.542242232785
 31
0.0
  0
LINE
  5
1E7
330
87
100
AcDbEntity
  8
P-SANR-FIXT
100
AcDbLine
 10
767.6664074431986
 20
1709.499999999917
 30
0.0
 11
863.6664074431998
 21
1709.499999999917
 31
0.0
  0
LINE
  5
1E8
330
87
100
AcDbEntity
  8
P-SANR-FIXT
100
AcDbLine
 10
802.73209398804
 20
1692.199999999917
 30
0.0
 11
803.0567476913144
 21
1692.199999999917
 31
0.0
  0
LINE
  5
1E9
330
87
100
AcDbEntity
  8
P-SANR-FIXT
100
AcDbLine
 10
807.8884241809239
 20
1692.199999999917
 30
0.0
 11
811.4630016051483
 21
1692.199999999917
 31
0.0
  0
LINE
  5
1EA
330
87
100
AcDbEntity
  8
P-SANR-FIXT
100
AcDbLine
 10
812.935142934973
 20
1692.199999999917
 30
0.0
 11
819.7303929247617
 21
1692.199999999917
 31
0.0
  0
LINE
  5
1EB
330
87
100
AcDbEntity
  8
P-SANR-FIXT
100
AcDbLine
 10
821.2863572221268
 20
1692.199999999917
 30
0.0
 11
822.2659617587634
 21
1692.199999999917
 31
0.0
  0
LINE
  5
1EC
330
87
100
AcDbEntity
  8
P-SANR-FIXT
100
AcDbLine
 10
823.9941288771184
 20
1692.199999999917
 30
0.0
 11
824.5479134214907
 21
1692.199999999917
 31
0.0
  0
LINE
  5
1ED
330
87
100
AcDbEntity
  8
P-SANR-FIXT
100
AcDbLine
 10
827.1618795665466
 20
1692.199999999917
 30
0.0
 11
828.6007208983582
 21
1692.199999999917
 31
0.0
  0
LINE
  5
1EE
330
87
100
AcDbEntity
  8
P-SANR-FIXT
100
AcDbLine
 10
804.6664074431809
 20
1691.092081841387
 30
0.0
 11
813.6664074432266
 21
1691.092081841387
 31
0.0
  0
LINE
  5
1EF
330
87
100
AcDbEntity
  8
P-SANR-FIXT
100
AcDbLine
 10
817.6664074431787
 20
1691.092081841387
 30
0.0
 11
826.6664074432128
 21
1691.092081841387
 31
0.0
  0
LINE
  5
1F0
330
87
100
AcDbEntity
  8
P-SANR-FIXT
100
AcDbLine
 10
828.666407443195
 20
1691.092081841387
 30
0.0
 11
829.6664074432003
 21
1691.092081841387
 31
0.0
  0
LINE
  5
1F1
330
87
100
AcDbEntity
  8
P-SANR-FIXT
100
AcDbLine
 10
801.6664074431981
 20
1691.092081841387
 30
0.0
 11
802.6664074432089
 21
1691.092081841387
 31
0.0
  0
LINE
  5
1F2
330
87
100
AcDbEntity
  8
P-SANR-FIXT
100
AcDbLine
 10
870.1664074432011
 20
1747.999999999917
 30
0.0
 11
869.7682588898766
 21
1747.999999999917
 31
0.0
  0
LINE
  5
1F3
330
87
100
AcDbEntity
  8
P-SANR-FIXT
100
AcDbLine
 10
869.7682588898766
 20
1747.999999999917
 30
0.0
 11
858.5719069101729
 21
1747.999999999917
 31
0.0
  0
LINE
  5
1F4
330
87
100
AcDbEntity
  8
P-SANR-FIXT
100
AcDbLine
 10
858.5719069101729
 20
1747.999999999917
 30
0.0
 11
849.2724800416125
 21
1747.999999999917
 31
0.0
  0
LINE
  5
1F5
330
87
100
AcDbEntity
  8
P-SANR-FIXT
100
AcDbLine
 10
849.2724800416123
 20
1747.999999999917
 30
0.0
 11
822.2420952431091
 21
1747.999999999917
 31
0.0
  0
LINE
  5
1F6
330
87
100
AcDbEntity
  8
P-SANR-FIXT
100
AcDbLine
 10
822.2420952431091
 20
1747.999999999917
 30
0.0
 11
809.090719643294
 21
1747.999999999917
 31
0.0
  0
LINE
  5
1F7
330
87
100
AcDbEntity
  8
P-SANR-FIXT
100
AcDbLine
 10
809.0907196432942
 20
1747.999999999917
 30
0.0
 11
782.0603348447911
 21
1747.999999999917
 31
0.0
  0
LINE
  5
1F8
330
87
100
AcDbEntity
  8
P-SANR-FIXT
100
AcDbLine
 10
782.0603348447911
 20
1747.999999999917
 30
0.0
 11
772.7609079762307
 21
1747.999999999917
 31
0.0
  0
LINE
  5
1F9
330
87
100
AcDbEntity
  8
P-SANR-FIXT
100
AcDbLine
 10
772.7609079762307
 20
1747.999999999917
 30
0.0
 11
761.5645559965271
 21
1747.999999999917
 31
0.0
  0
LINE
  5
1FA
330
87
100
AcDbEntity
  8
P-SANR-FIXT
100
AcDbLine
 10
761.5645559965271
 20
1747.999999999917
 30
0.0
 11
761.1664074432026
 21
1747.999999999917
 31
0.0
  0
LINE
  5
1FB
330
87
100
AcDbEntity
  8
P-SANR-FIXT
100
AcDbLine
 10
761.5645559965271
 20
1761.542242232785
 30
0.0
 11
761.5645559965271
 21
1747.999999999917
 31
0.0
  0
LINE
  5
1FC
330
87
100
AcDbEntity
  8
P-SANR-FIXT
100
AcDbLine
 10
782.0603348447911
 20
1761.542242232785
 30
0.0
 11
782.0603348447911
 21
1747.999999999917
 31
0.0
  0
LINE
  5
1FD
330
87
100
AcDbEntity
  8
P-SANR-FIXT
100
AcDbLine
 10
822.2420952431091
 20
1761.542242232785
 30
0.0
 11
822.2420952431091
 21
1747.999999999917
 31
0.0
  0
LINE
  5
1FE
330
87
100
AcDbEntity
  8
P-SANR-FIXT
100
AcDbLine
 10
858.5719069101729
 20
1761.542242232785
 30
0.0
 11
858.5719069101729
 21
1747.999999999917
 31
0.0
  0
LINE
  5
1FF
330
87
100
AcDbEntity
  8
P-SANR-FIXT
100
AcDbLine
 10
772.7609079762303
 20
1747.999999999917
 30
0.0
 11
772.7609079762303
 21
1761.542242232785
 31
0.0
  0
LINE
  5
200
330
87
100
AcDbEntity
  8
P-SANR-FIXT
100
AcDbLine
 10
809.0907196432938
 20
1747.999999999917
 30
0.0
 11
809.0907196432938
 21
1761.542242232785
 31
0.0
  0
LINE
  5
201
330
87
100
AcDbEntity
  8
P-SANR-FIXT
100
AcDbLine
 10
849.2724800416121
 20
1747.999999999917
 30
0.0
 11
849.2724800416121
 21
1761.542242232785
 31
0.0
  0
LINE
  5
202
330
87
100
AcDbEntity
  8
P-SANR-FIXT
100
AcDbLine
 10
869.7682588898766
 20
1747.999999999917
 30
0.0
 11
869.7682588898766
 21
1761.542242232785
 31
0.0
  0
LINE
  5
203
330
87
100
AcDbEntity
  8
P-SANR-FIXT
100
AcDbLine
 10
828.666407443195
 20
1678.99999999998
 30
0.0
 11
826.6664074432105
 21
1678.99999999998
 31
0.0
  0
LINE
  5
204
330
87
100
AcDbEntity
  8
P-SANR-FIXT
100
AcDbLine
 10
826.6664074432105
 20
1678.99999999998
 30
0.0
 11
817.6664074431862
 21
1678.99999999998
 31
0.0
  0
LINE
  5
205
330
87
100
AcDbEntity
  8
P-SANR-FIXT
100
AcDbLine
 10
817.6664074431862
 20
1678.99999999998
 30
0.0
 11
813.6664074432175
 21
1678.99999999998
 31
0.0
  0
LINE
  5
206
330
87
100
AcDbEntity
  8
P-SANR-FIXT
100
AcDbLine
 10
813.6664074432175
 20
1678.99999999998
 30
0.0
 11
804.6664074431932
 21
1678.99999999998
 31
0.0
  0
LINE
  5
207
330
87
100
AcDbEntity
  8
P-SANR-FIXT
100
AcDbLine
 10
804.6664074431932
 20
1678.99999999998
 30
0.0
 11
802.6664074432089
 21
1678.99999999998
 31
0.0
  0
LINE
  5
208
330
87
100
AcDbEntity
  8
P-SANR-FIXT
100
AcDbLine
 10
802.6664074432087
 20
1691.092081841387
 30
0.0
 11
802.6664074432087
 21
1678.99999999998
 31
0.0
  0
LINE
  5
209
330
87
100
AcDbEntity
  8
P-SANR-FIXT
100
AcDbLine
 10
804.6664074431932
 20
1678.99999999998
 30
0.0
 11
804.6664074431932
 21
1691.092081841387
 31
0.0
  0
LINE
  5
20A
330
87
100
AcDbEntity
  8
P-SANR-FIXT
100
AcDbLine
 10
813.6664074432173
 20
1678.99999999998
 30
0.0
 11
813.6664074432173
 21
1691.092081841387
 31
0.0
  0
LINE
  5
20B
330
87
100
AcDbEntity
  8
P-SANR-FIXT
100
AcDbLine
 10
817.6664074431862
 20
1678.99999999998
 30
0.0
 11
817.6664074431862
 21
1691.092081841387
 31
0.0
  0
LINE
  5
20C
330
87
100
AcDbEntity
  8
P-SANR-FIXT
100
AcDbLine
 10
826.6664074432105
 20
1678.99999999998
 30
0.0
 11
826.6664074432105
 21
1691.092081841387
 31
0.0
  0
LINE
  5
20D
330
87
100
AcDbEntity
  8
P-SANR-FIXT
100
AcDbLine
 10
828.666407443195
 20
1678.99999999998
 30
0.0
 11
828.666407443195
 21
1691.092081841387
 31
0.0
  0
LWPOLYLINE
  5
20E
330
87
100
AcDbEntity
  8
P-SANR-FIXT
100
AcDbPolyline
 90
       23
 70
   128
 43
0.0
 10
859.108808982229
 20
2326.000000000018
 10
861.2946019226169
 20
2323.610955379141
 10
863.3831101580605
 20
2321.136413334786
 10
865.3709925209074
 20
2318.580332606351
 10
867.2550688234363
 20
2315.946802377732
 10
869.0323249454776
 20
2313.240035735508
 10
870.6999176563639
 20
2310.464362928891
 10
872.255179163492
 20
2307.62422444226
 10
873.6956213802221
 20
2304.72416389133
 10
875.018939906285
 20
2301.768820754338
 10
876.2230177143324
 20
2298.76292294986
 10
877.3059285367271
 20
2295.711279273161
 10
878.265939947162
 20
2292.618771703141
 10
879.1015161321725
 20
2289.490347592213
 10
879.8113203481088
 20
2286.331011751591
 10
880.3942170596423
 20
2283.145818444666
 10
880.8492737563792
 20
2279.939863301258
 10
881.1757624446784
 20
2276.718275165694
 10
881.3731608122859
 20
2273.486207891756
 10
881.4411530639228
 20
2270.248832097611
 10
881.3796304264908
 20
2267.011326893928
 10
881.1886913230853
 20
2263.7788715984
 10
881.0535393796911
 20
2262.254859668843
  0
LWPOLYLINE
  5
20F
330
87
100
AcDbEntity
  8
P-SANR-FIXT
100
AcDbPolyline
 90
       23
 70
   128
 43
0.0
 10
750.2792755067099
 20
2262.254859668843
 10
750.0272840738098
 20
2265.483129375132
 10
749.9045905633078
 20
2268.718893779608
 10
749.9113912586474
 20
2271.956976349484
 10
750.0476752801668
 20
2275.192196843404
 10
750.3132246025042
 20
2278.419379598718
 10
750.7076144033906
 20
2281.633361811449
 10
751.2302137432773
 20
2284.829001795669
 10
751.8801865747024
 20
2288.001187209103
 10
752.6564930797887
 20
2291.144843231787
 10
753.5578913337315
 20
2294.254940684695
 10
754.5829392916124
 20
2297.326504075354
 10
755.7299970953642
 20
2300.354619557572
 10
756.9972296971934
 20
2303.33444279254
 10
758.3826097952656
 20
2306.261206698744
 10
759.8839210769561
 20
2309.130229078278
 10
761.4987617644766
 20
2311.936920107359
 10
763.2245484572082
 20
2314.676789679069
 10
765.0585202645904
 20
2317.345454586569
 10
766.9977432229583
 20
2319.938645535291
 10
769.0391149892571
 20
2322.452213972903
 10
771.17936980413
 20
2324.882138726101
 10
772.2240059041724
 20
2326.000000000018
  0
LWPOLYLINE
  5
210
330
87
100
AcDbEntity
  8
P-SANR-FIXT
100
AcDbPolyline
 90
       29
 70
   128
 43
0.0
 10
881.0535393796909
 20
2262.254859668843
 10
883.5486464701567
 20
2260.743531706965
 10
885.9813207421474
 20
2259.133634974985
 10
888.3476704357708
 20
2257.427744964248
 10
890.6439098963115
 20
2255.628590734866
 10
892.8663656304708
 20
2253.739050549809
 10
895.0114821831729
 20
2251.762147270291
 10
897.0758278255338
 20
2249.701043519843
 10
899.0561000448957
 20
2247.559036624787
 10
900.9491308281436
 20
2245.339553339217
 10
902.7518917298491
 20
2243.046144362927
 10
904.461498717138
 20
2240.682478661044
 10
906.0752167835273
 20
2238.252337594469
 10
907.5904643243523
 20
2235.759608870507
 10
909.0048172667833
 20
2233.208280323361
 10
910.3160129478249
 20
2230.602433534452
 10
911.5219537340941
 20
2227.94623730276
 10
912.620710377587
 20
2225.243940975629
 10
913.6105251020623
 20
2222.499867650724
 10
914.4898144151106
 20
2219.718407259993
 10
915.2571716414023
 20
2216.904009546715
 10
915.9113691730699
 20
2214.061176946859
 10
916.4513604336169
 20
2211.194457386145
 10
916.8762815522189
 20
2208.308437004338
 10
917.1854527457311
 20
2205.407732818394
 10
917.3783794061964
 20
2202.49698533623
 10
917.4547528921142
 20
2199.580851132889
 10
917.4144510221987
 20
2196.663995401022
 10
917.4142608981664
 20
2196.65838163339
  0
LWPOLYLINE
  5
211
330
87
100
AcDbEntity
  8
P-SANR-FIXT
100
AcDbPolyline
 90
       29
 70
   128
 43
0.0
 10
713.9185539882344
 20
2196.65838163339
 10
713.8780274754102
 20
2199.575234252739
 10
713.9541763736418
 20
2202.491374329372
 10
714.1468788609367
 20
2205.402136661243
 10
714.4558266544225
 20
2208.302864649549
 10
714.880525503535
 20
2211.188917748299
 10
715.4202959807134
 20
2214.055678888195
 10
716.0742745683389
 20
2216.898561862953
 10
716.8414150401796
 20
2219.713018666265
 10
717.7204901351282
 20
2222.494546767631
 10
718.7100935205588
 20
2225.238696315448
 10
719.8086420421591
 20
2227.941077255829
 10
721.0143782566388
 20
2230.597366355747
 10
722.3253732432647
 20
2233.203314119284
 10
723.7395296897224
 20
2235.754751585927
 10
725.2545852473681
 20
2238.247597000006
 10
726.8681161505042
 20
2240.677862340636
 10
728.5775410938872
 20
2243.041659701702
 10
730.3801253622657
 20
2245.335207511677
 10
732.2729852053409
 20
2247.554836583328
 10
734.2530924511525
 20
2249.696995983637
 10
736.3172793505076
 20
2251.758258714531
 10
738.4622436447037
 20
2253.735327195355
 10
740.6845538484381
 20
2255.625038538292
 10
742.980654739452
 20
2257.42436960831
 10
745.3468730461289
 20
2259.130441859532
 10
747.7794233239444
 20
2260.740525940301
 10
750.2744140113701
 20
2262.252046059553
 10
750.27927550671
 20
2262.254859668843
  0
LINE
  5
212
330
87
100
AcDbEntity
  8
P-SANR-FIXT
100
AcDbLine
 10
917.4142608981657
 20
1796.658381633388
 30
0.0
 11
917.4142608981657
 21
1819.94391794122
 31
0.0
  0
LINE
  5
213
330
87
100
AcDbEntity
  8
P-SANR-FIXT
100
AcDbLine
 10
917.4142608981661
 20
1880.056082206965
 30
0.0
 11
917.4142608981664
 21
2119.943917941227
 31
0.0
  0
LINE
  5
214
330
87
100
AcDbEntity
  8
P-SANR-FIXT
100
AcDbLine
 10
917.4142608981664
 20
2180.056082206972
 30
0.0
 11
917.4142608981664
 21
2196.65838163339
 31
0.0
  0
LINE
  5
215
330
87
100
AcDbEntity
  8
P-SANR-FIXT
100
AcDbLine
 10
713.9185539882344
 20
2196.65838163339
 30
0.0
 11
713.9185539882344
 21
2180.056082058765
 31
0.0
  0
LINE
  5
216
330
87
100
AcDbEntity
  8
P-SANR-FIXT
100
AcDbLine
 10
713.9185539882342
 20
2119.943917793019
 30
0.0
 11
713.9185539882341
 21
1880.056082058763
 31
0.0
  0
LINE
  5
217
330
87
100
AcDbEntity
  8
P-SANR-FIXT
100
AcDbLine
 10
713.9185539882338
 20
1819.943917793017
 30
0.0
 11
713.9185539882338
 21
1796.658381633388
 31
0.0
  0
LWPOLYLINE
  5
218
330
87
100
AcDbEntity
  8
P-SANR-FIXT
100
AcDbPolyline
 90
       26
 70
   128
 43
0.0
 10
917.4142608981657
 20
1796.658381633388
 10
918.1310685172768
 20
1791.691122514347
 10
918.6486653818448
 20
1786.699172013362
 10
918.9662234473018
 20
1781.690516186339
 10
919.0832346884846
 20
1776.673167814147
 10
918.9995119123688
 20
1771.65515358387
 10
918.7151890575361
 20
1766.644501247824
 10
918.2307209799018
 20
1761.649226780865
 10
917.5468827250428
 20
1756.677321556538
 10
916.6647682882885
 20
1751.736739562585
 10
915.5857888645641
 20
1746.835384676262
 10
914.3116705907772
 20
1741.98109801982
 10
912.8444517843686
 20
1737.181645416385
 10
911.1864796824381
 20
1732.444704966293
 10
909.3404066866677
 20
1727.77785476377
 10
907.309186120042
 20
1723.188560773599
 10
905.096067502164
 20
1718.684164887167
 10
902.7045913507155
 20
1714.271873177006
 10
900.1385835173845
 20
1709.958744368613
 10
897.4021490673182
 20
1705.751678547997
 10
894.4996657118959
 20
1701.657406123012
 10
891.4357768053219
 20
1697.682477056138
 10
888.2153839162524
 20
1693.833250385944
 10
884.8436389863298
 20
1690.115884053977
 10
881.325936088174
 20
1686.536325053372
 10
877.8196104821969
 20
1683.237418201774
  0
LWPOLYLINE
  5
219
330
87
100
AcDbEntity
  8
P-SANR-FIXT
100
AcDbPolyline
 90
       26
 70
   128
 43
0.0
 10
753.5132044042025
 20
1683.237418201774
 10
749.8607757310111
 20
1686.679400349571
 10
746.3489111855592
 20
1690.26468746958
 10
742.9832290019618
 20
1693.987543867229
 10
739.7691135537388
 20
1697.84201376645
 10
736.7117067399661
 20
1701.821930837645
 10
733.8158997593335
 20
1705.920928062507
 10
731.0863252852707
 20
1710.13244791988
 10
728.5273500546582
 20
1714.449752876403
 10
726.1430678819796
 20
1718.86593616512
 10
723.9372931100911
 20
1723.37393283484
 10
721.9135545080876
 20
1727.966531052544
 10
720.0750896260246
 20
1732.636383640788
 10
718.4248396155283
 20
1737.37601983161
 10
716.9654445245811
 20
1742.177857218176
 10
715.6992390740074
 20
1747.034213885004
 10
714.6282489224187
 20
1751.937320697394
 10
713.7541874255917
 20
1756.879333730386
 10
713.078452895465
 20
1761.852346817368
 10
712.6021263631379
 20
1766.848404198254
 10
712.3259698494508
 20
1771.859513247003
 10
712.2504251459157
 20
1776.877657258116
 10
712.375613107943
 20
1781.894808271656
 10
712.7013334614982
 20
1786.90293991627
 10
713.2270651234998
 20
1791.89404024967
 10
713.9185539882338
 20
1796.658381633388
  0
LWPOLYLINE
  5
21A
330
87
100
AcDbEntity
  8
P-SANR-FIXT
100
AcDbPolyline
 90
       32
 70
   128
 43
0.0
 10
877.8196104821958
 20
1683.237418201774
 10
877.9669494946999
 20
1680.967950126172
 10
878.0234161344083
 20
1678.694405393957
 10
877.9889200667424
 20
1676.420421191704
 10
877.8635164780526
 20
1674.149635409045
 10
877.6474059873288
 20
1671.885680818824
 10
877.3409343252557
 20
1669.632179265434
 10
876.9445917811149
 20
1667.392735870641
 10
876.4590124184286
 20
1665.170933266152
 10
875.8849730605923
 20
1662.970325862175
 10
875.2233920481238
 20
1660.794434161119
 10
874.4753277695128
 20
1658.646739125541
 10
873.6419769680265
 20
1656.530676609345
 10
872.7246728271756
 20
1654.449631861158
 10
871.7248828379043
 20
1652.406934108642
 10
870.6442064509179
 20
1650.405851232449
 10
869.4843725179042
 20
1648.449584538306
 10
868.2472365257375
 20
1646.541263635609
 10
866.9347776280972
 20
1644.683941430717
 10
865.549095479243
 20
1642.880589242948
 10
864.092406875017
 20
1641.13409205111
 10
862.567042206442
 20
1639.447243878142
 10
860.9754417315938
 20
1637.822743321279
 10
859.3201516717098
 20
1636.263189234872
 10
857.6038201377745
 20
1634.771076572771
 10
855.8291928941125
 20
1633.348792396935
 10
853.9991089657458
 20
1631.998612058641
 10
852.1164960965629
 20
1630.722695558407
 10
850.184366065552
 20
1629.523084090452
 10
848.2058098685969
 20
1628.401696777222
 10
846.1839927735434
 20
1627.360327599202
 10
845.3196104821968
 20
1626.945766955786
  0
LWPOLYLINE
  5
21B
330
87
100
AcDbEntity
  8
P-SANR-FIXT
100
AcDbPolyline
 90
       32
 70
   128
 43
0.0
 10
786.0132044042022
 20
1626.945766955786
 10
783.9741178914011
 20
1627.952901665789
 10
781.9769370768085
 20
1629.040772487444
 10
780.0248570236856
 20
1630.207639059499
 10
778.1210006436954
 20
1631.45163464436
 10
776.2684137009117
 20
1632.770769114461
 10
774.4700599392456
 20
1634.162932136052
 10
772.7288163410872
 20
1635.625896545275
 10
771.0474685247482
 20
1637.15732191116
 10
769.4287062880662
 20
1638.754758279806
 10
767.8751193053026
 20
1640.415650093794
 10
766.3891929842155
 20
1642.137340280524
 10
764.9733044899379
 20
1643.917074502972
 10
763.6297189420206
 20
1645.75200556604
 10
762.3605857907238
 20
1647.639197971457
 10
761.1679353783557
 20
1649.575632613953
 10
760.0536756911578
 20
1651.558211611185
 10
759.0195893069331
 20
1653.583763259686
 10
758.0673305433037
 20
1655.649047108912
 10
757.198422811153
 20
1657.750759145275
 10
756.4142561774957
 20
1659.885537077857
 10
755.7160851416657
 20
1662.049965717362
 10
755.105026628385
 20
1664.240582439687
 10
754.5820582009227
 20
1666.453882725383
 10
754.148016497202
 20
1668.686325766137
 10
753.8035958913585
 20
1670.934340129315
 10
753.5493473828888
 20
1673.194329471485
 10
753.3856777151697
 20
1675.462678291806
 10
753.3128487247553
 20
1677.735757716053
 10
753.3309769224943
 20
1680.009931302047
 10
753.4400333071374
 20
1682.281560857179
 10
753.5132044042033
 20
1683.237418201774
  0
LWPOLYLINE
  5
21C
330
87
100
AcDbEntity
  8
P-SANR-FIXT
100
AcDbPolyline
 90
        5
 70
   128
 43
0.0
 10
750.2795429455406
 20
2262.254859668841
 10
750.1122877755796
 20
2276.137654618795
 10
752.3206408027841
 20
2289.849196981553
 10
756.8405210933867
 20
2302.982599092939
 10
761.6705443885795
 20
2312.220287186395
  0
LWPOLYLINE
  5
21D
330
87
100
AcDbEntity
  8
P-SANR-FIXT
100
AcDbPolyline
 90
        3
 70
   128
 43
0.0
 10
761.9429388345783
 20
2312.665156940993
 10
763.5401908413809
 20
2315.152196803838
 10
772.2244084395473
 20
2326.000000000017
  0
LINE
  5
21E
330
87
100
AcDbEntity
  8
P-SANR-FIXT
100
AcDbLine
 10
772.2244084395473
 20
2326.000000000017
 30
0.0
 11
772.2240059041707
 21
2326.000000000017
 31
0.0
  0
LINE
  5
21F
330
87
100
AcDbEntity
  8
P-SANR-FIXT
100
AcDbLine
 10
859.1088089822273
 20
2326.000000000016
 30
0.0
 11
859.1084064468509
 21
2326.000000000016
 31
0.0
  0
LWPOLYLINE
  5
220
330
87
100
AcDbEntity
  8
P-SANR-FIXT
100
AcDbPolyline
 90
        6
 70
   128
 43
0.0
 10
859.1084064468509
 20
2326.000000000016
 10
867.7926240450172
 20
2315.152196803838
 10
874.4922937930111
 20
2302.982599092939
 10
879.0121740836138
 20
2289.849196981552
 10
881.2205271108183
 20
2276.137654618795
 10
881.0532719408573
 20
2262.254859668841
  0
LINE
  5
221
330
87
100
AcDbEntity
  8
P-SANR-FIXT
100
AcDbLine
 10
881.0532719408572
 20
2262.254859668841
 30
0.0
 11
881.0535393796893
 21
2262.254859668841
 31
0.0
  0
LWPOLYLINE
  5
222
330
87
100
AcDbEntity
  8
P-SANR-FIXT
100
AcDbPolyline
 90
        7
 70
   128
 43
0.0
 10
881.0532719408573
 20
2262.254859668841
 10
891.7692250593185
 20
2254.690793229754
 10
900.9543535730855
 20
2245.332924740337
 10
908.3141126526067
 20
2234.483974154107
 10
913.6123890832431
 20
2222.49382859163
 10
916.6788167711894
 20
2209.748556117904
 10
917.4140890317653
 20
2196.658381633389
  0
LWPOLYLINE
  5
223
330
87
100
AcDbEntity
  8
P-SANR-FIXT
100
AcDbPolyline
 90
        7
 70
   128
 43
0.0
 10
713.9187258546322
 20
2196.658381633389
 10
714.6539981152081
 20
2209.748556117904
 10
717.7204258031546
 20
2222.493828591631
 10
723.0187022337912
 20
2234.483974154108
 10
730.3784613133124
 20
2245.332924740337
 10
739.5635898270795
 20
2254.690793229755
 10
750.2795429455406
 20
2262.254859668841
  0
LINE
  5
224
330
87
100
AcDbEntity
  8
P-SANR-FIXT
100
AcDbLine
 10
750.2792755067084
 20
2262.254859668841
 30
0.0
 11
750.2795429455406
 21
2262.254859668841
 31
0.0
  0
LINE
  5
225
330
87
100
AcDbEntity
  8
P-SANR-FIXT
100
AcDbLine
 10
917.4140890317653
 20
2196.658381633389
 30
0.0
 11
917.4142608981647
 21
2196.658381633389
 31
0.0
  0
LINE
  5
226
330
87
100
AcDbEntity
  8
P-SANR-FIXT
100
AcDbLine
 10
917.4140890317653
 20
2196.658381633389
 30
0.0
 11
917.4140890317653
 21
2180.14278091196
 31
0.0
  0
LINE
  5
227
330
87
100
AcDbEntity
  8
P-SANR-FIXT
100
AcDbLine
 10
917.4140890317653
 20
2119.857219089982
 30
0.0
 11
917.4140890317648
 21
1880.142780911953
 31
0.0
  0
LINE
  5
228
330
87
100
AcDbEntity
  8
P-SANR-FIXT
100
AcDbLine
 10
917.4140890317648
 20
1819.857219089974
 30
0.0
 11
917.4140890317648
 21
1796.658381633387
 31
0.0
  0
LINE
  5
229
330
87
100
AcDbEntity
  8
P-SANR-FIXT
100
AcDbLine
 10
713.9187258546317
 20
1796.658381633387
 30
0.0
 11
713.9187258546317
 21
1819.857219088028
 31
0.0
  0
LINE
  5
22A
330
87
100
AcDbEntity
  8
P-SANR-FIXT
100
AcDbLine
 10
713.9187258546318
 20
1880.142780910006
 30
0.0
 11
713.9187258546322
 21
2119.857219088029
 31
0.0
  0
LINE
  5
22B
330
87
100
AcDbEntity
  8
P-SANR-FIXT
100
AcDbLine
 10
713.9187258546322
 20
2180.142780910008
 30
0.0
 11
713.9187258546322
 21
2196.658381633389
 31
0.0
  0
LINE
  5
22C
330
87
100
AcDbEntity
  8
P-SANR-FIXT
100
AcDbLine
 10
713.918553988233
 20
2196.658381633389
 30
0.0
 11
713.9187258546322
 21
2196.658381633389
 31
0.0
  0
LINE
  5
22D
330
87
100
AcDbEntity
  8
P-SANR-FIXT
100
AcDbLine
 10
917.4140890317648
 20
1796.658381633387
 30
0.0
 11
917.4142608981641
 21
1796.658381633387
 31
0.0
  0
LWPOLYLINE
  5
22E
330
87
100
AcDbEntity
  8
P-SANR-FIXT
100
AcDbPolyline
 90
        8
 70
   128
 43
0.0
 10
917.4140890317648
 20
1796.658381633387
 10
919.0569723774617
 20
1778.849375279945
 10
918.1514800480146
 20
1760.989753893588
 10
914.7167429152412
 20
1743.441716557583
 10
908.8229456985724
 20
1726.56101529472
 10
900.5898943751923
 20
1710.689829558502
 10
890.1846004876039
 20
1696.149913729089
 10
877.8193291280377
 20
1683.237418201773
  0
LWPOLYLINE
  5
22F
330
87
100
AcDbEntity
  8
P-SANR-FIXT
100
AcDbPolyline
 90
        8
 70
   128
 43
0.0
 10
753.5134857583582
 20
1683.237418201773
 10
741.1482143987919
 20
1696.149913729089
 10
730.7429205112036
 20
1710.689829558502
 10
722.5098691878237
 20
1726.561015294721
 10
716.6160719711549
 20
1743.441716557583
 10
713.1813348383817
 20
1760.989753893588
 10
712.2758425089346
 20
1778.849375279945
 10
713.9187258546317
 20
1796.658381633387
  0
LINE
  5
230
330
87
100
AcDbEntity
  8
P-SANR-FIXT
100
AcDbLine
 10
713.9185539882324
 20
1796.658381633387
 30
0.0
 11
713.9187258546317
 21
1796.658381633387
 31
0.0
  0
LINE
  5
231
330
87
100
AcDbEntity
  8
P-SANR-FIXT
100
AcDbLine
 10
877.8193291280377
 20
1683.237418201773
 30
0.0
 11
877.8196104821942
 21
1683.237418201773
 31
0.0
  0
LWPOLYLINE
  5
232
330
87
100
AcDbEntity
  8
P-SANR-FIXT
100
AcDbPolyline
 90
        7
 70
   128
 43
0.0
 10
877.8193291280377
 20
1683.237418201773
 10
877.6278129555331
 20
1671.720856171313
 10
875.1208473400831
 20
1660.483849859956
 10
870.403181059609
 20
1649.984896123851
 10
863.6686074153077
 20
1640.652095686257
 10
855.1921776872752
 20
1632.866268274625
 10
845.3190207585043
 20
1626.945766955785
  0
LWPOLYLINE
  5
233
330
87
100
AcDbEntity
  8
P-SANR-FIXT
100
AcDbPolyline
 90
        7
 70
   128
 43
0.0
 10
786.013794127891
 20
1626.945766955785
 10
776.1406371991204
 20
1632.866268274625
 10
767.6642074710882
 20
1640.652095686257
 10
760.9296338267869
 20
1649.984896123851
 10
756.2119675463129
 20
1660.483849859956
 10
753.7050019308629
 20
1671.720856171313
 10
753.5134857583582
 20
1683.237418201773
  0
LINE
  5
234
330
87
100
AcDbEntity
  8
P-SANR-FIXT
100
AcDbLine
 10
753.5132044042017
 20
1683.237418201773
 30
0.0
 11
753.5134857583582
 21
1683.237418201773
 31
0.0
  0
LINE
  5
235
330
87
100
AcDbEntity
  8
P-SANR-FIXT
100
AcDbLine
 10
845.3190207585043
 20
1626.945766955785
 30
0.0
 11
845.3196104821948
 21
1626.945766955785
 31
0.0
  0
LINE
  5
236
330
87
100
AcDbEntity
  8
P-SANR-FIXT
100
AcDbLine
 10
845.3190207585043
 20
1626.945766955785
 30
0.0
 11
823.1541499315678
 21
1626.945766955785
 31
0.0
  0
LINE
  5
237
330
87
100
AcDbEntity
  8
P-SANR-FIXT
100
AcDbLine
 10
808.1786649548307
 20
1626.945766955785
 30
0.0
 11
786.0137941278913
 21
1626.945766955785
 31
0.0
  0
LINE
  5
238
330
87
100
AcDbEntity
  8
P-SANR-FIXT
100
AcDbLine
 10
786.0132044042006
 20
1626.945766955785
 30
0.0
 11
786.0137941278909
 21
1626.945766955785
 31
0.0
  0
LINE
  5
239
330
87
100
AcDbEntity
  8
P-SANR-FIXT
100
AcDbLine
 10
772.2244084395473
 20
2326.000000000017
 30
0.0
 11
822.1827690033693
 21
2326.000000000017
 31
0.0
  0
LINE
  5
23A
330
87
100
AcDbEntity
  8
P-SANR-FIXT
100
AcDbLine
 10
833.1500458830285
 20
2326.000000000017
 30
0.0
 11
859.1084064468509
 21
2326.000000000016
 31
0.0
  0
ENDBLK
  5
23C
330
87
100
AcDbEntity
  8
0
100
AcDbBlockEnd
  0
BLOCK
  5
2FF
330
23E
100
AcDbEntity
  8
0
100
AcDbBlockBegin
  2
Automatic flow rate regulator valve_Caleffi_121 DN15 - 1_2__-V1-Est - Idraulica
 70
     0
 10
0.0
 20
0.0
 30
0.0
  3
Automatic flow rate regulator valve_Caleffi_121 DN15 - 1_2__-V1-Est - Idraulica
  1

  0
LWPOLYLINE
  5
23F
330
23E
100
AcDbEntity
  8
P-SANR-FIXT
100
AcDbPolyline
 90
       80
 70
   128
 43
0.0
 10
776.6701482117715
 20
1361.058865241548
 10
776.697603283441
 20
1359.686294696772
 10
776.7911408974169
 20
1358.129205665254
 10
776.9468706449182
 20
1356.577102645784
 10
777.1645433915694
 20
1355.032468672097
 10
777.4438109074103
 20
1353.497774829046
 10
777.7842264239896
 20
1351.975476299396
 10
778.1852453490984
 20
1350.468008436054
 10
778.646226138003
 20
1348.977782866027
 10
779.1664313197785
 20
1347.507183632328
 10
779.745028677105
 20
1346.05856338002
 10
780.3810925776385
 20
1344.634239592484
 10
781.0736054548247
 20
1343.236490883941
 10
781.8214594357883
 20
1341.867553354153
 10
782.623458113693
 20
1340.529617011145
 10
783.4783184617383
 20
1339.224822267654
 10
784.3846728857279
 20
1337.955256516927
 10
785.3410714119288
 20
1336.722950793342
 10
786.3459840067197
 20
1335.529876523175
 10
787.3978030243188
 20
1334.377942370751
 10
788.494845778674
 20
1333.268991184982
 10
789.635357235402
 20
1332.2047970512
 10
790.8175128194678
 20
1331.187062453005
 10
792.0394213341166
 20
1330.217415548646
 10
793.2991279863854
 20
1329.297407566326
 10
794.594617514353
 20
1328.428510322557
 10
795.9238174111316
 20
1327.612113867576
 10
797.2846012404334
 20
1326.849524261553
 10
798.674792038417
 20
1326.141961485183
 10
800.0921657963631
 20
1325.490557487968
 10
801.5344550186169
 20
1324.896354377345
 10
802.9993523500943
 20
1324.360302751536
 10
804.4845142675596
 20
1323.883260178788
 10
805.9875648287626
 20
1323.465989825456
 10
807.5060994734391
 20
1323.109159235091
 10
809.0376888700943
 20
1322.813339260518
 10
810.5798828024154
 20
1322.579003150593
 10
812.1302140890943
 20
1322.4065257931
 10
813.6862025307918
 20
1322.296183115021
 10
815.2453588779282
 20
1322.2481516411
 10
816.8051888129502
 20
1322.26250821145
 10
818.3631969407077
 20
1322.339229858621
 10
819.9168907805535
 20
1322.478193844344
 10
821.4637847537808
 20
1322.679177855885
 10
823.0014041600194
 20
1322.941860361701
 10
824.5272891362265
 20
1323.265821125819
 10
826.0389985919458
 20
1323.650541880122
 10
827.5341141145283
 20
1324.095407153476
 10
829.0102438380792
 20
1324.59970525634
 10
830.4650262699313
 20
1325.162629419329
 10
831.8961340685312
 20
1325.783279083866
 10
833.3012777666876
 20
1326.460661342885
 10
834.6782094342312
 20
1327.193692529273
 10
836.0247262742243
 20
1327.981199949504
 10
837.3386741469639
 20
1328.821923759697
 10
838.6179510161479
 20
1329.714518981101
 10
839.8605103116834
 20
1330.657557651773
 10
841.0643642037625
 20
1331.649531111009
 10
842.2275867829668
 20
1332.688852412884
 10
843.3483171413099
 20
1333.773858865026
 10
844.4247623492952
 20
1334.902814688568
 10
845.4552003242193
 20
1336.073913795022
 10
846.4379825851374
 20
1337.285282675639
 10
847.3715368900807
 20
1338.534983398622
 10
848.2543697513097
 20
1339.821016709402
 10
849.0850688245734
 20
1341.141325229022
 10
849.8623051685608
 20
1342.493796745502
 10
850.5848353709236
 20
1343.876267592925
 10
851.2515035374697
 20
1345.286526112849
 10
851.8612431413471
 20
1346.72231619248
 10
852.4130787292603
 20
1348.181340873976
 10
852.9061274819881
 20
1349.661266029089
 10
853.3396006267034
 20
1351.159724093272
 10
853.7128046988442
 20
1352.674317853274
 10
854.0251426515082
 20
1354.202624282178
 10
854.2761148105991
 20
1355.742198415718
 10
854.4653196742007
 20
1357.290577263704
 10
854.5924545548924
 20
1358.845283750285
 10
854.6573160639859
 20
1360.403830676732
 10
854.6643883059935
 20
1361.058865241547
  0
ARC
  5
240
330
23E
100
AcDbEntity
  8
P-SANR-FIXT
100
AcDbCircle
 10
827.6664074431987
 20
1361.24587873005
 30
0.0
 40
5.5
100
AcDbArc
 50
0.0
 51
180.0
  0
ARC
  5
241
330
23E
100
AcDbEntity
  8
P-SANR-FIXT
100
AcDbCircle
 10
827.6664074431987
 20
1361.24587873005
 30
0.0
 40
5.499999999999886
100
AcDbArc
 50
180.0
 51
0.0
  0
ARC
  5
242
330
23E
100
AcDbEntity
  8
P-SANR-FIXT
100
AcDbCircle
 10
827.6664074431987
 20
1361.24587873005
 30
0.0
 40
7.249999999999935
100
AcDbArc
 50
181.4854727690135
 51
358.514527230984
  0
ARC
  5
243
330
23E
100
AcDbEntity
  8
P-SANR-FIXT
100
AcDbCircle
 10
827.6664074431987
 20
1361.24587873005
 30
0.0
 40
7.250000000000048
100
AcDbArc
 50
187.4999999999982
 51
202.5000000000008
  0
ARC
  5
244
330
23E
100
AcDbEntity
  8
P-SANR-FIXT
100
AcDbCircle
 10
827.6664074431987
 20
1361.24587873005
 30
0.0
 40
7.249999999999968
100
AcDbArc
 50
217.5000000000004
 51
232.4999999999992
  0
ARC
  5
245
330
23E
100
AcDbEntity
  8
P-SANR-FIXT
100
AcDbCircle
 10
827.6664074431987
 20
1361.24587873005
 30
0.0
 40
7.249999999999909
100
AcDbArc
 50
247.4999999999988
 51
262.5000000000003
  0
ARC
  5
246
330
23E
100
AcDbEntity
  8
P-SANR-FIXT
100
AcDbCircle
 10
827.6664074431987
 20
1361.24587873005
 30
0.0
 40
7.249999999999936
100
AcDbArc
 50
277.4999999999999
 51
292.4999999999996
  0
ARC
  5
247
330
23E
100
AcDbEntity
  8
P-SANR-FIXT
100
AcDbCircle
 10
827.6664074431987
 20
1361.24587873005
 30
0.0
 40
7.249999999999809
100
AcDbArc
 50
307.5
 51
322.4999999999989
  0
ARC
  5
248
330
23E
100
AcDbEntity
  8
P-SANR-FIXT
100
AcDbCircle
 10
827.6664074431987
 20
1361.24587873005
 30
0.0
 40
7.249999999999866
100
AcDbArc
 50
337.4999999999993
 51
352.5000000000013
  0
ARC
  5
249
330
23E
100
AcDbEntity
  8
P-SANR-FIXT
100
AcDbCircle
 10
815.666407443199
 20
1361.24587873005
 30
0.0
 40
27.64864015091173
100
AcDbArc
 50
180.387943402689
 51
201.1497858497322
  0
LINE
  5
24A
330
23E
100
AcDbEntity
  8
P-SANR-FIXT
100
AcDbLine
 10
790.1167674702977
 20
1350.678797796806
 30
0.0
 11
790.1223947060019
 21
1350.665202216872
 31
0.0
  0
ARC
  5
24B
330
23E
100
AcDbEntity
  8
P-SANR-FIXT
100
AcDbCircle
 10
815.666407443199
 20
1361.24587873005
 30
0.0
 40
27.64864015091174
100
AcDbArc
 50
203.8187896752259
 51
246.1812103247603
  0
LINE
  5
24C
330
23E
100
AcDbEntity
  8
P-SANR-FIXT
100
AcDbLine
 10
805.0857309300207
 20
1335.701865992853
 30
0.0
 11
805.0993265099496
 21
1335.696238757151
 31
0.0
  0
ARC
  5
24D
330
23E
100
AcDbEntity
  8
P-SANR-FIXT
100
AcDbCircle
 10
815.666407443199
 20
1361.24587873005
 30
0.0
 40
27.64864015091192
100
AcDbArc
 50
248.8502141502554
 51
291.1497858497418
  0
LINE
  5
24E
330
23E
100
AcDbEntity
  8
P-SANR-FIXT
100
AcDbLine
 10
826.2334883764475
 20
1335.69623875715
 30
0.0
 11
826.2470839563771
 21
1335.701865992853
 31
0.0
  0
ARC
  5
24F
330
23E
100
AcDbEntity
  8
P-SANR-FIXT
100
AcDbCircle
 10
815.666407443199
 20
1361.24587873005
 30
0.0
 40
27.64864015091169
100
AcDbArc
 50
293.8187896752365
 51
336.1812103247709
  0
LINE
  5
250
330
23E
100
AcDbEntity
  8
P-SANR-FIXT
100
AcDbLine
 10
841.2104201803963
 20
1350.665202216872
 30
0.0
 11
841.2160474161
 21
1350.678797796805
 31
0.0
  0
ARC
  5
251
330
23E
100
AcDbEntity
  8
P-SANR-FIXT
100
AcDbCircle
 10
815.666407443199
 20
1361.24587873005
 30
0.0
 40
27.64864015091181
100
AcDbArc
 50
338.8502141502655
 51
359.6120565973098
  0
ARC
  5
252
330
23E
100
AcDbEntity
  8
P-SANR-FIXT
100
AcDbCircle
 10
815.6664074431992
 20
1361.24587873005
 30
0.0
 40
27.50000000000011
100
AcDbArc
 50
180.3900402741767
 51
359.6099597258216
  0
LINE
  5
253
330
23E
100
AcDbEntity
  8
P-SANR-FIXT
100
AcDbLine
 10
789.9164074432039
 20
1351.652674556131
 30
0.0
 11
789.9164074432039
 21
1351.276332195496
 31
0.0
  0
ARC
  5
254
330
23E
100
AcDbEntity
  8
P-SANR-FIXT
100
AcDbCircle
 10
815.666407443199
 20
1361.245878730054
 30
0.0
 40
27.61257608598797
100
AcDbArc
 50
201.1647518390005
 51
203.8352481609962
  0
LINE
  5
255
330
23E
100
AcDbEntity
  8
P-SANR-FIXT
100
AcDbLine
 10
790.4088738677074
 20
1350.087413074446
 30
0.0
 11
790.6749881029597
 21
1349.821298839194
 31
0.0
  0
LINE
  5
256
330
23E
100
AcDbEntity
  8
P-SANR-FIXT
100
AcDbLine
 10
804.2418275523429
 20
1336.25445938981
 30
0.0
 11
804.5079417875898
 21
1335.988345154563
 31
0.0
  0
ARC
  5
257
330
23E
100
AcDbEntity
  8
P-SANR-FIXT
100
AcDbCircle
 10
815.666407443199
 20
1361.245878730054
 30
0.0
 40
27.6125760859881
100
AcDbArc
 50
246.1647518390008
 51
248.8352481609959
  0
LINE
  5
258
330
23E
100
AcDbEntity
  8
P-SANR-FIXT
100
AcDbLine
 10
805.6968609086398
 20
1335.495878730059
 30
0.0
 11
806.0732032692669
 21
1335.495878730059
 31
0.0
  0
LINE
  5
259
330
23E
100
AcDbEntity
  8
P-SANR-FIXT
100
AcDbLine
 10
825.2596116171302
 20
1335.495878730059
 30
0.0
 11
825.6359539777573
 21
1335.495878730059
 31
0.0
  0
ARC
  5
25A
330
23E
100
AcDbEntity
  8
P-SANR-FIXT
100
AcDbCircle
 10
815.666407443199
 20
1361.245878730054
 30
0.0
 40
27.61257608598808
100
AcDbArc
 50
291.1647518390008
 51
293.8352481609963
  0
LINE
  5
25B
330
23E
100
AcDbEntity
  8
P-SANR-FIXT
100
AcDbLine
 10
826.8248730988073
 20
1335.988345154563
 30
0.0
 11
827.0909873340551
 21
1336.25445938981
 31
0.0
  0
LINE
  5
25C
330
23E
100
AcDbEntity
  8
P-SANR-FIXT
100
AcDbLine
 10
840.6578267834385
 20
1349.821298839193
 30
0.0
 11
840.9239410186904
 21
1350.087413074445
 31
0.0
  0
ARC
  5
25D
330
23E
100
AcDbEntity
  8
P-SANR-FIXT
100
AcDbCircle
 10
815.666407443199
 20
1361.245878730054
 30
0.0
 40
27.6125760859881
100
AcDbArc
 50
336.1647518390014
 51
338.8352481609967
  0
LINE
  5
25E
330
23E
100
AcDbEntity
  8
P-SANR-FIXT
100
AcDbLine
 10
841.4164074431939
 20
1351.276332195495
 30
0.0
 11
841.4164074431939
 21
1351.652674556129
 31
0.0
  0
LINE
  5
25F
330
23E
100
AcDbEntity
  8
P-SANR-FIXT
100
AcDbLine
 10
948.1664074431989
 20
1324.645878730048
 30
0.0
 11
950.1664074432406
 21
1324.645878730048
 31
0.0
  0
LINE
  5
260
330
23E
100
AcDbEntity
  8
P-SANR-FIXT
100
AcDbLine
 10
950.166407443241
 20
1397.845878730048
 30
0.0
 11
948.1664074431991
 21
1397.845878730048
 31
0.0
  0
LINE
  5
261
330
23E
100
AcDbEntity
  8
P-SANR-FIXT
100
AcDbLine
 10
950.1664074432406
 20
1324.645878730051
 30
0.0
 11
973.1664074432403
 21
1324.645878730051
 31
0.0
  0
LINE
  5
262
330
23E
100
AcDbEntity
  8
P-SANR-FIXT
100
AcDbLine
 10
973.1664074432408
 20
1397.845878730049
 30
0.0
 11
950.166407443241
 21
1397.845878730049
 31
0.0
  0
LINE
  5
263
330
23E
100
AcDbEntity
  8
P-SANR-FIXT
100
AcDbLine
 10
950.166407443239
 20
1340.581583980144
 30
0.0
 11
950.166407443239
 21
1324.752496830196
 31
0.0
  0
LINE
  5
264
330
23E
100
AcDbEntity
  8
P-SANR-FIXT
100
AcDbLine
 10
950.1664074432394
 20
1397.739260629898
 30
0.0
 11
950.1664074432394
 21
1381.910173479957
 31
0.0
  0
LINE
  5
265
330
23E
100
AcDbEntity
  8
P-SANR-FIXT
100
AcDbLine
 10
950.1664074432392
 20
1377.07496587999
 30
0.0
 11
950.1664074432392
 21
1345.416791580105
 31
0.0
  0
LINE
  5
266
330
23E
100
AcDbEntity
  8
P-SANR-FIXT
100
AcDbLine
 10
973.1664074432387
 20
1340.581583980144
 30
0.0
 11
973.1664074432387
 21
1324.752496830199
 31
0.0
  0
LINE
  5
267
330
23E
100
AcDbEntity
  8
P-SANR-FIXT
100
AcDbLine
 10
973.1664074432387
 20
1324.752496830199
 30
0.0
 11
973.1664074432387
 21
1324.645878730051
 31
0.0
  0
LINE
  5
268
330
23E
100
AcDbEntity
  8
P-SANR-FIXT
100
AcDbLine
 10
973.1664074432389
 20
1397.845878730048
 30
0.0
 11
973.1664074432389
 21
1397.7392606299
 31
0.0
  0
LINE
  5
269
330
23E
100
AcDbEntity
  8
P-SANR-FIXT
100
AcDbLine
 10
973.1664074432389
 20
1397.7392606299
 30
0.0
 11
973.1664074432389
 21
1381.910173479955
 31
0.0
  0
LINE
  5
26A
330
23E
100
AcDbEntity
  8
P-SANR-FIXT
100
AcDbLine
 10
973.1664074432389
 20
1381.910173479955
 30
0.0
 11
973.1664074432389
 21
1377.074965879995
 31
0.0
  0
LINE
  5
26B
330
23E
100
AcDbEntity
  8
P-SANR-FIXT
100
AcDbLine
 10
973.1664074432389
 20
1377.074965879995
 30
0.0
 11
973.1664074432389
 21
1345.416791580104
 31
0.0
  0
LINE
  5
26C
330
23E
100
AcDbEntity
  8
P-SANR-FIXT
100
AcDbLine
 10
973.1664074432389
 20
1345.416791580104
 30
0.0
 11
973.1664074432387
 21
1340.581583980144
 31
0.0
  0
LINE
  5
26D
330
23E
100
AcDbEntity
  8
P-SANR-FIXT
100
AcDbLine
 10
973.1664074432387
 20
1340.581583980144
 30
0.0
 11
950.166407443239
 21
1340.581583980144
 31
0.0
  0
LINE
  5
26E
330
23E
100
AcDbEntity
  8
P-SANR-FIXT
100
AcDbLine
 10
950.166407443239
 20
1324.752496830199
 30
0.0
 11
973.1664074432387
 21
1324.752496830199
 31
0.0
  0
LINE
  5
26F
330
23E
100
AcDbEntity
  8
P-SANR-FIXT
100
AcDbLine
 10
950.1664074432394
 20
1397.7392606299
 30
0.0
 11
973.1664074432389
 21
1397.7392606299
 31
0.0
  0
LINE
  5
270
330
23E
100
AcDbEntity
  8
P-SANR-FIXT
100
AcDbLine
 10
950.1664074432394
 20
1381.910173479955
 30
0.0
 11
973.1664074432389
 21
1381.910173479955
 31
0.0
  0
LINE
  5
271
330
23E
100
AcDbEntity
  8
P-SANR-FIXT
100
AcDbLine
 10
950.1664074432392
 20
1377.074965879995
 30
0.0
 11
973.1664074432389
 21
1377.074965879995
 31
0.0
  0
LINE
  5
272
330
23E
100
AcDbEntity
  8
P-SANR-FIXT
100
AcDbLine
 10
950.1664074432392
 20
1345.416791580104
 30
0.0
 11
973.1664074432389
 21
1345.416791580104
 31
0.0
  0
LINE
  5
273
330
23E
100
AcDbEntity
  8
P-SANR-FIXT
100
AcDbLine
 10
658.1664074431603
 20
1324.645878730052
 30
0.0
 11
681.1664074431602
 21
1324.645878730052
 31
0.0
  0
LINE
  5
274
330
23E
100
AcDbEntity
  8
P-SANR-FIXT
100
AcDbLine
 10
681.1664074431603
 20
1397.84587873005
 30
0.0
 11
658.1664074431606
 21
1397.84587873005
 31
0.0
  0
LINE
  5
275
330
23E
100
AcDbEntity
  8
P-SANR-FIXT
100
AcDbLine
 10
683.166407443202
 20
1397.845878730049
 30
0.0
 11
681.1664074431604
 21
1397.845878730049
 31
0.0
  0
LINE
  5
276
330
23E
100
AcDbEntity
  8
P-SANR-FIXT
100
AcDbLine
 10
681.1664074431602
 20
1324.645878730049
 30
0.0
 11
683.1664074432018
 21
1324.645878730049
 31
0.0
  0
LINE
  5
277
330
23E
100
AcDbEntity
  8
P-SANR-FIXT
100
AcDbLine
 10
658.1664074431593
 20
1340.581583980145
 30
0.0
 11
658.1664074431594
 21
1345.416791580105
 31
0.0
  0
LINE
  5
278
330
23E
100
AcDbEntity
  8
P-SANR-FIXT
100
AcDbLine
 10
658.1664074431594
 20
1345.416791580105
 30
0.0
 11
658.1664074431594
 21
1377.074965879996
 31
0.0
  0
LINE
  5
279
330
23E
100
AcDbEntity
  8
P-SANR-FIXT
100
AcDbLine
 10
658.1664074431594
 20
1377.074965879996
 30
0.0
 11
658.1664074431596
 21
1381.910173479956
 31
0.0
  0
LINE
  5
27A
330
23E
100
AcDbEntity
  8
P-SANR-FIXT
100
AcDbLine
 10
658.1664074431596
 20
1381.910173479956
 30
0.0
 11
658.1664074431596
 21
1397.739260629901
 31
0.0
  0
LINE
  5
27B
330
23E
100
AcDbEntity
  8
P-SANR-FIXT
100
AcDbLine
 10
658.1664074431596
 20
1397.739260629901
 30
0.0
 11
658.1664074431596
 21
1397.84587873005
 31
0.0
  0
LINE
  5
27C
330
23E
100
AcDbEntity
  8
P-SANR-FIXT
100
AcDbLine
 10
658.1664074431593
 20
1324.645878730051
 30
0.0
 11
658.1664074431593
 21
1324.7524968302
 31
0.0
  0
LINE
  5
27D
330
23E
100
AcDbEntity
  8
P-SANR-FIXT
100
AcDbLine
 10
658.1664074431593
 20
1324.7524968302
 30
0.0
 11
658.1664074431593
 21
1340.581583980145
 31
0.0
  0
LINE
  5
27E
330
23E
100
AcDbEntity
  8
P-SANR-FIXT
100
AcDbLine
 10
658.1664074431593
 20
1324.7524968302
 30
0.0
 11
681.166407443159
 21
1324.7524968302
 31
0.0
  0
LINE
  5
27F
330
23E
100
AcDbEntity
  8
P-SANR-FIXT
100
AcDbLine
 10
658.1664074431596
 20
1397.739260629901
 30
0.0
 11
681.1664074431591
 21
1397.739260629901
 31
0.0
  0
LINE
  5
280
330
23E
100
AcDbEntity
  8
P-SANR-FIXT
100
AcDbLine
 10
658.1664074431596
 20
1381.910173479956
 30
0.0
 11
681.1664074431591
 21
1381.910173479956
 31
0.0
  0
LINE
  5
281
330
23E
100
AcDbEntity
  8
P-SANR-FIXT
100
AcDbLine
 10
658.1664074431594
 20
1377.074965879996
 30
0.0
 11
681.1664074431591
 21
1377.074965879996
 31
0.0
  0
LINE
  5
282
330
23E
100
AcDbEntity
  8
P-SANR-FIXT
100
AcDbLine
 10
658.1664074431594
 20
1345.416791580105
 30
0.0
 11
681.1664074431591
 21
1345.416791580105
 31
0.0
  0
LINE
  5
283
330
23E
100
AcDbEntity
  8
P-SANR-FIXT
100
AcDbLine
 10
681.166407443159
 20
1340.581583980145
 30
0.0
 11
658.1664074431593
 21
1340.581583980145
 31
0.0
  0
LINE
  5
284
330
23E
100
AcDbEntity
  8
P-SANR-FIXT
100
AcDbLine
 10
681.166407443159
 20
1324.752496830197
 30
0.0
 11
681.166407443159
 21
1340.581583980145
 31
0.0
  0
LINE
  5
285
330
23E
100
AcDbEntity
  8
P-SANR-FIXT
100
AcDbLine
 10
681.1664074431591
 20
1381.910173479955
 30
0.0
 11
681.1664074431591
 21
1397.7392606299
 31
0.0
  0
LINE
  5
286
330
23E
100
AcDbEntity
  8
P-SANR-FIXT
100
AcDbLine
 10
681.1664074431591
 20
1345.416791580105
 30
0.0
 11
681.1664074431591
 21
1377.074965879995
 31
0.0
  0
LINE
  5
287
330
23E
100
AcDbEntity
  8
P-SANR-FIXT
100
AcDbLine
 10
803.1664074432185
 20
1263.24587873005
 30
0.0
 11
803.1664074432185
 21
1260.245878730021
 31
0.0
  0
LINE
  5
288
330
23E
100
AcDbEntity
  8
P-SANR-FIXT
100
AcDbLine
 10
828.1664074432095
 20
1260.245878730021
 30
0.0
 11
828.1664074432095
 21
1263.24587873005
 31
0.0
  0
LINE
  5
289
330
23E
100
AcDbEntity
  8
P-SANR-FIXT
100
AcDbLine
 10
828.1664074432081
 20
1260.245878730021
 30
0.0
 11
803.1664074432173
 21
1260.245878730021
 31
0.0
  0
LINE
  5
28A
330
23E
100
AcDbEntity
  8
P-SANR-FIXT
100
AcDbLine
 10
803.1664074432173
 20
1263.24587873005
 30
0.0
 11
828.1664074432081
 21
1263.24587873005
 31
0.0
  0
LINE
  5
28B
330
23E
100
AcDbEntity
  8
P-SANR-FIXT
100
AcDbLine
 10
824.6664074432143
 20
1255.945878729989
 30
0.0
 11
815.6664074432129
 21
1255.945878729989
 31
0.0
  0
LINE
  5
28C
330
23E
100
AcDbEntity
  8
P-SANR-FIXT
100
AcDbLine
 10
815.6664074432129
 20
1255.945878729989
 30
0.0
 11
806.6664074432113
 21
1255.945878729989
 31
0.0
  0
LINE
  5
28D
330
23E
100
AcDbEntity
  8
P-SANR-FIXT
100
AcDbLine
 10
806.6664074432113
 20
1255.945878729989
 30
0.0
 11
806.6664074432113
 21
1260.245878730021
 31
0.0
  0
LINE
  5
28E
330
23E
100
AcDbEntity
  8
P-SANR-FIXT
100
AcDbLine
 10
824.6664074432143
 20
1260.245878730021
 30
0.0
 11
824.6664074432143
 21
1255.945878729989
 31
0.0
  0
LINE
  5
28F
330
23E
100
AcDbEntity
  8
P-SANR-FIXT
100
AcDbLine
 10
815.6664074432129
 20
1260.245878730021
 30
0.0
 11
815.6664074432129
 21
1255.945878729989
 31
0.0
  0
LINE
  5
290
330
23E
100
AcDbEntity
  8
P-SANR-FIXT
100
AcDbLine
 10
687.0203752783374
 20
1316.245878730082
 30
0.0
 11
707.312439608065
 21
1316.245878730082
 31
0.0
  0
LINE
  5
291
330
23E
100
AcDbEntity
  8
P-SANR-FIXT
100
AcDbLine
 10
707.3124396080475
 20
1406.245878730037
 30
0.0
 11
687.0203752783552
 21
1406.245878730037
 31
0.0
  0
LINE
  5
292
330
23E
100
AcDbEntity
  8
P-SANR-FIXT
100
AcDbLine
 10
683.1664074432005
 20
1361.24587873005
 30
0.0
 11
683.1664074432008
 21
1383.745878730034
 31
0.0
  0
LINE
  5
293
330
23E
100
AcDbEntity
  8
P-SANR-FIXT
100
AcDbLine
 10
683.1664074432008
 20
1383.745878730033
 30
0.0
 11
683.166407443201
 21
1406.245878730043
 31
0.0
  0
LINE
  5
294
330
23E
100
AcDbEntity
  8
P-SANR-FIXT
100
AcDbLine
 10
683.1664074432008
 20
1316.245878730057
 30
0.0
 11
683.1664074432004
 21
1338.74587873004
 31
0.0
  0
LINE
  5
295
330
23E
100
AcDbEntity
  8
P-SANR-FIXT
100
AcDbLine
 10
683.1664074432004
 20
1338.74587873004
 30
0.0
 11
683.1664074432005
 21
1361.24587873005
 31
0.0
  0
LINE
  5
296
330
23E
100
AcDbEntity
  8
P-SANR-FIXT
100
AcDbLine
 10
711.1664074432012
 20
1406.245878730039
 30
0.0
 11
711.1664074432011
 21
1383.745878730032
 31
0.0
  0
LINE
  5
297
330
23E
100
AcDbEntity
  8
P-SANR-FIXT
100
AcDbLine
 10
711.1664074432011
 20
1383.745878730032
 30
0.0
 11
711.166407443201
 21
1361.245878730051
 31
0.0
  0
LINE
  5
298
330
23E
100
AcDbEntity
  8
P-SANR-FIXT
100
AcDbLine
 10
711.166407443201
 20
1361.24587873005
 30
0.0
 11
711.1664074432009
 21
1338.745878730041
 31
0.0
  0
LINE
  5
299
330
23E
100
AcDbEntity
  8
P-SANR-FIXT
100
AcDbLine
 10
711.1664074432009
 20
1338.745878730042
 30
0.0
 11
711.166407443201
 21
1316.245878730061
 31
0.0
  0
SPLINE
  5
29A
330
23E
100
AcDbEntity
  8
P-SANR-FIXT
100
AcDbSpline
210
0.0
220
0.0
230
1.0
 70
     8
 71
     3
 72
     9
 73
     5
 74
     0
 42
0.000000001
 43
0.0000000001
 40
0.0
 40
0.0
 40
0.0
 40
0.0
 40
0.5
 40
1.0
 40
1.0
 40
1.0
 40
1.0
 10
707.3124396080542
 20
1360.74587873005
 30
0.0
 10
707.2875350640892
 20
1360.820241087218
 30
0.0
 10
707.2499715778182
 20
1360.981336448287
 30
0.0
 10
707.2368992948654
 20
1361.157212058708
 30
0.0
 10
707.2364859542187
 20
1361.24587873005
 30
0.0
  0
SPLINE
  5
29B
330
23E
100
AcDbEntity
  8
P-SANR-FIXT
100
AcDbSpline
210
0.0
220
0.0
230
1.0
 70
     8
 71
     3
 72
     9
 73
     5
 74
     0
 42
0.000000001
 43
0.0000000001
 40
0.0
 40
0.0
 40
0.0
 40
0.0
 40
0.5
 40
1.0
 40
1.0
 40
1.0
 40
1.0
 10
707.2364859542187
 20
1361.24587873005
 30
0.0
 10
707.2368992948654
 20
1361.334545401392
 30
0.0
 10
707.2499715778181
 20
1361.510421011813
 30
0.0
 10
707.2875350640891
 20
1361.671516372882
 30
0.0
 10
707.312439608054
 20
1361.74587873005
 30
0.0
  0
SPLINE
  5
29C
330
23E
100
AcDbEntity
  8
P-SANR-FIXT
100
AcDbSpline
210
0.0
220
0.0
230
1.0
 70
     8
 71
     3
 72
     9
 73
     5
 74
     0
 42
0.000000001
 43
0.0000000001
 40
0.0
 40
0.0
 40
0.0
 40
0.0
 40
0.5
 40
1.0
 40
1.0
 40
1.0
 40
1.0
 10
687.0203752783462
 20
1361.74587873005
 30
0.0
 10
687.0452798223111
 20
1361.671516372882
 30
0.0
 10
687.082843308582
 20
1361.510421011813
 30
0.0
 10
687.0959155915346
 20
1361.334545401392
 30
0.0
 10
687.0963289321814
 20
1361.24587873005
 30
0.0
  0
SPLINE
  5
29D
330
23E
100
AcDbEntity
  8
P-SANR-FIXT
100
AcDbSpline
210
0.0
220
0.0
230
1.0
 70
     8
 71
     3
 72
     9
 73
     5
 74
     0
 42
0.000000001
 43
0.0000000001
 40
0.0
 40
0.0
 40
0.0
 40
0.0
 40
0.5
 40
1.0
 40
1.0
 40
1.0
 40
1.0
 10
687.0963289321814
 20
1361.24587873005
 30
0.0
 10
687.0959155915346
 20
1361.157212058708
 30
0.0
 10
687.0828433085819
 20
1360.981336448287
 30
0.0
 10
687.0452798223109
 20
1360.820241087218
 30
0.0
 10
687.0203752783459
 20
1360.74587873005
 30
0.0
  0
SPLINE
  5
29E
330
23E
100
AcDbEntity
  8
P-SANR-FIXT
100
AcDbSpline
210
0.0
220
0.0
230
1.0
 70
     8
 71
     3
 72
     9
 73
     5
 74
     0
 42
0.000000001
 43
0.0000000001
 40
0.0
 40
0.0
 40
0.0
 40
0.0
 40
0.5
 40
1.0
 40
1.0
 40
1.0
 40
1.0
 10
687.0203752783459
 20
1360.74587873005
 30
0.0
 10
685.7832268651625
 20
1357.151151899466
 30
0.0
 10
683.9037504794549
 20
1349.889758402215
 30
0.0
 10
683.2139149750656
 20
1342.4844852328
 30
0.0
 10
683.1664074432005
 20
1338.745878730051
 30
0.0
  0
SPLINE
  5
29F
330
23E
100
AcDbEntity
  8
P-SANR-FIXT
100
AcDbSpline
210
0.0
220
0.0
230
1.0
 70
     8
 71
     3
 72
     9
 73
     5
 74
     0
 42
0.000000001
 43
0.0000000001
 40
0.0
 40
0.0
 40
0.0
 40
0.0
 40
0.5
 40
1.0
 40
1.0
 40
1.0
 40
1.0
 10
683.1664074432005
 20
1338.745878730051
 30
0.0
 10
683.2139149750654
 20
1335.007272227308
 30
0.0
 10
683.9037504794528
 20
1327.601999057903
 30
0.0
 10
685.7832268651558
 20
1320.340605560661
 30
0.0
 10
687.0203752783363
 20
1316.745878730081
 30
0.0
  0
SPLINE
  5
2A0
330
23E
100
AcDbEntity
  8
P-SANR-FIXT
100
AcDbSpline
210
0.0
220
0.0
230
1.0
 70
     8
 71
     3
 72
     9
 73
     5
 74
     0
 42
0.000000001
 43
0.0000000001
 40
0.0
 40
0.0
 40
0.0
 40
0.0
 40
0.5
 40
1.0
 40
1.0
 40
1.0
 40
1.0
 10
707.312439608064
 20
1316.745878730081
 30
0.0
 10
708.5495880212435
 20
1320.340605560661
 30
0.0
 10
710.429064406946
 20
1327.601999057903
 30
0.0
 10
711.118899911335
 20
1335.007272227308
 30
0.0
 10
711.1664074432009
 20
1338.745878730051
 30
0.0
  0
SPLINE
  5
2A1
330
23E
100
AcDbEntity
  8
P-SANR-FIXT
100
AcDbSpline
210
0.0
220
0.0
230
1.0
 70
     8
 71
     3
 72
     9
 73
     5
 74
     0
 42
0.000000001
 43
0.0000000001
 40
0.0
 40
0.0
 40
0.0
 40
0.0
 40
0.5
 40
1.0
 40
1.0
 40
1.0
 40
1.0
 10
711.1664074432009
 20
1338.745878730051
 30
0.0
 10
711.1188999113347
 20
1342.484485232799
 30
0.0
 10
710.4290644069441
 20
1349.889758402214
 30
0.0
 10
708.5495880212369
 20
1357.151151899466
 30
0.0
 10
707.3124396080542
 20
1360.74587873005
 30
0.0
  0
SPLINE
  5
2A2
330
23E
100
AcDbEntity
  8
P-SANR-FIXT
100
AcDbSpline
210
0.0
220
0.0
230
1.0
 70
     8
 71
     3
 72
    11
 73
     7
 74
     0
 42
0.000000001
 43
0.0000000001
 40
0.0
 40
0.0
 40
0.0
 40
0.0
 40
0.25
 40
0.5
 40
0.75
 40
1.0
 40
1.0
 40
1.0
 40
1.0
 10
687.0203752783363
 20
1316.745878730081
 30
0.0
 10
687.0452633046796
 20
1316.671696824124
 30
0.0
 10
687.0825794637335
 20
1316.533012519823
 30
0.0
 10
687.1032511653225
 20
1316.369176138031
 30
0.0
 10
687.0823888981971
 20
1316.267666204038
 30
0.0
 10
687.045174374096
 20
1316.245878730082
 30
0.0
 10
687.0203752783362
 20
1316.245878730082
 30
0.0
  0
SPLINE
  5
2A3
330
23E
100
AcDbEntity
  8
P-SANR-FIXT
100
AcDbSpline
210
0.0
220
0.0
230
1.0
 70
     8
 71
     3
 72
    11
 73
     7
 74
     0
 42
0.000000001
 43
0.0000000001
 40
0.0
 40
0.0
 40
0.0
 40
0.0
 40
0.25
 40
0.5
 40
0.75
 40
1.0
 40
1.0
 40
1.0
 40
1.0
 10
707.312439608064
 20
1316.245878730082
 30
0.0
 10
707.2876405123041
 20
1316.245878730082
 30
0.0
 10
707.250425988203
 20
1316.267666204038
 30
0.0
 10
707.2295637210777
 20
1316.369176138031
 30
0.0
 10
707.2502354226667
 20
1316.533012519823
 30
0.0
 10
707.2875515817204
 20
1316.671696824124
 30
0.0
 10
707.312439608064
 20
1316.745878730081
 30
0.0
  0
SPLINE
  5
2A4
330
23E
100
AcDbEntity
  8
P-SANR-FIXT
100
AcDbSpline
210
0.0
220
0.0
230
1.0
 70
    24
 71
     3
 72
     9
 73
     5
 74
     0
 42
0.000000001
 43
0.0000000001
 40
0.0
 40
0.0
 40
0.0
 40
0.0
 40
0.5
 40
1.0
 40
1.0
 40
1.0
 40
1.0
 10
687.0203752783362
 20
1316.245878730082
 30
0.0
 10
685.7832268651527
 20
1316.245878730083
 30
0.0
 10
683.9037504794467
 20
1316.245878730086
 30
0.0
 10
683.2139149750623
 20
1316.245878730089
 30
0.0
 10
683.1664074432005
 20
1316.245878730091
 30
0.0
  0
SPLINE
  5
2A5
330
23E
100
AcDbEntity
  8
P-SANR-FIXT
100
AcDbSpline
210
0.0
220
0.0
230
1.0
 70
    24
 71
     3
 72
     9
 73
     5
 74
     0
 42
0.000000001
 43
0.0000000001
 40
0.0
 40
0.0
 40
0.0
 40
0.0
 40
0.5
 40
1.0
 40
1.0
 40
1.0
 40
1.0
 10
711.1664074432009
 20
1316.245878730091
 30
0.0
 10
711.118899911338
 20
1316.245878730089
 30
0.0
 10
710.4290644069525
 20
1316.245878730086
 30
0.0
 10
708.5495880212469
 20
1316.245878730083
 30
0.0
 10
707.312439608064
 20
1316.245878730082
 30
0.0
  0
SPLINE
  5
2A6
330
23E
100
AcDbEntity
  8
P-SANR-FIXT
100
AcDbSpline
210
0.0
220
0.0
230
1.0
 70
    24
 71
     3
 72
     9
 73
     5
 74
     0
 42
0.000000001
 43
0.0000000001
 40
0.0
 40
0.0
 40
0.0
 40
0.0
 40
0.5
 40
1.0
 40
1.0
 40
1.0
 40
1.0
 10
683.1664074432008
 20
1406.245878730045
 30
0.0
 10
683.2139149750726
 20
1406.245878730044
 30
0.0
 10
683.9037504794701
 20
1406.245878730041
 30
0.0
 10
685.783226865175
 20
1406.245878730038
 30
0.0
 10
687.0203752783543
 20
1406.245878730037
 30
0.0
  0
SPLINE
  5
2A7
330
23E
100
AcDbEntity
  8
P-SANR-FIXT
100
AcDbSpline
210
0.0
220
0.0
230
1.0
 70
    24
 71
     3
 72
     9
 73
     5
 74
     0
 42
0.000000001
 43
0.0000000001
 40
0.0
 40
0.0
 40
0.0
 40
0.0
 40
0.5
 40
1.0
 40
1.0
 40
1.0
 40
1.0
 10
707.3124396080463
 20
1406.245878730037
 30
0.0
 10
708.549588021225
 20
1406.245878730038
 30
0.0
 10
710.4290644069297
 20
1406.245878730041
 30
0.0
 10
711.1188999113283
 20
1406.245878730044
 30
0.0
 10
711.1664074432011
 20
1406.245878730045
 30
0.0
  0
SPLINE
  5
2A8
330
23E
100
AcDbEntity
  8
P-SANR-FIXT
100
AcDbSpline
210
0.0
220
0.0
230
1.0
 70
     8
 71
     3
 72
    11
 73
     7
 74
     0
 42
0.000000001
 43
0.0000000001
 40
0.0
 40
0.0
 40
0.0
 40
0.0
 40
0.25
 40
0.5
 40
0.75
 40
1.0
 40
1.0
 40
1.0
 40
1.0
 10
687.0203752783543
 20
1406.245878730037
 30
0.0
 10
687.0452633046978
 20
1406.245878730037
 30
0.0
 10
687.0825794637515
 20
1406.223873765887
 30
0.0
 10
687.1032511653405
 20
1406.12195826737
 30
0.0
 10
687.0823888982151
 20
1405.957979542686
 30
0.0
 10
687.0451743741141
 20
1405.819707904564
 30
0.0
 10
687.0203752783542
 20
1405.745878730036
 30
0.0
  0
SPLINE
  5
2A9
330
23E
100
AcDbEntity
  8
P-SANR-FIXT
100
AcDbSpline
210
0.0
220
0.0
230
1.0
 70
     8
 71
     3
 72
    11
 73
     7
 74
     0
 42
0.000000001
 43
0.0000000001
 40
0.0
 40
0.0
 40
0.0
 40
0.0
 40
0.25
 40
0.5
 40
0.75
 40
1.0
 40
1.0
 40
1.0
 40
1.0
 10
707.3124396080463
 20
1405.745878730036
 30
0.0
 10
707.2876405122865
 20
1405.819707904564
 30
0.0
 10
707.2504259881854
 20
1405.957979542686
 30
0.0
 10
707.2295637210601
 20
1406.12195826737
 30
0.0
 10
707.2502354226493
 20
1406.223873765887
 30
0.0
 10
707.2875515817028
 20
1406.245878730037
 30
0.0
 10
707.3124396080463
 20
1406.245878730037
 30
0.0
  0
SPLINE
  5
2AA
330
23E
100
AcDbEntity
  8
P-SANR-FIXT
100
AcDbSpline
210
0.0
220
0.0
230
1.0
 70
     8
 71
     3
 72
     9
 73
     5
 74
     0
 42
0.000000001
 43
0.0000000001
 40
0.0
 40
0.0
 40
0.0
 40
0.0
 40
0.5
 40
1.0
 40
1.0
 40
1.0
 40
1.0
 10
687.0203752783543
 20
1405.745878730036
 30
0.0
 10
685.7832268651733
 20
1402.151151899451
 30
0.0
 10
683.9037504794665
 20
1394.889758402198
 30
0.0
 10
683.2139149750708
 20
1387.48448523278
 30
0.0
 10
683.1664074432008
 20
1383.745878730031
 30
0.0
  0
SPLINE
  5
2AB
330
23E
100
AcDbEntity
  8
P-SANR-FIXT
100
AcDbSpline
210
0.0
220
0.0
230
1.0
 70
     8
 71
     3
 72
     9
 73
     5
 74
     0
 42
0.000000001
 43
0.0000000001
 40
0.0
 40
0.0
 40
0.0
 40
0.0
 40
0.5
 40
1.0
 40
1.0
 40
1.0
 40
1.0
 10
683.1664074432008
 20
1383.745878730031
 30
0.0
 10
683.2139149750706
 20
1380.007272227286
 30
0.0
 10
683.9037504794646
 20
1372.601999057877
 30
0.0
 10
685.7832268651677
 20
1365.340605560632
 30
0.0
 10
687.0203752783462
 20
1361.74587873005
 30
0.0
  0
SPLINE
  5
2AC
330
23E
100
AcDbEntity
  8
P-SANR-FIXT
100
AcDbSpline
210
0.0
220
0.0
230
1.0
 70
     8
 71
     3
 72
     9
 73
     5
 74
     0
 42
0.000000001
 43
0.0000000001
 40
0.0
 40
0.0
 40
0.0
 40
0.0
 40
0.5
 40
1.0
 40
1.0
 40
1.0
 40
1.0
 10
707.312439608054
 20
1361.74587873005
 30
0.0
 10
708.549588021232
 20
1365.340605560632
 30
0.0
 10
710.4290644069346
 20
1372.601999057878
 30
0.0
 10
711.1188999113302
 20
1380.007272227287
 30
0.0
 10
711.1664074432011
 20
1383.745878730031
 30
0.0
  0
SPLINE
  5
2AD
330
23E
100
AcDbEntity
  8
P-SANR-FIXT
100
AcDbSpline
210
0.0
220
0.0
230
1.0
 70
     8
 71
     3
 72
     9
 73
     5
 74
     0
 42
0.000000001
 43
0.0000000001
 40
0.0
 40
0.0
 40
0.0
 40
0.0
 40
0.5
 40
1.0
 40
1.0
 40
1.0
 40
1.0
 10
711.1664074432011
 20
1383.745878730031
 30
0.0
 10
711.1188999113299
 20
1387.48448523278
 30
0.0
 10
710.429064406933
 20
1394.889758402197
 30
0.0
 10
708.5495880212266
 20
1402.151151899451
 30
0.0
 10
707.3124396080463
 20
1405.745878730036
 30
0.0
  0
LINE
  5
2AE
330
23E
100
AcDbEntity
  8
P-SANR-FIXT
100
AcDbLine
 10
924.0203752783356
 20
1316.245878730081
 30
0.0
 11
944.3124396080634
 21
1316.245878730081
 31
0.0
  0
LINE
  5
2AF
330
23E
100
AcDbEntity
  8
P-SANR-FIXT
100
AcDbLine
 10
944.3124396080458
 20
1406.245878730036
 30
0.0
 11
924.0203752783536
 21
1406.245878730036
 31
0.0
  0
LINE
  5
2B0
330
23E
100
AcDbEntity
  8
P-SANR-FIXT
100
AcDbLine
 10
948.1664074431975
 20
1406.245878730043
 30
0.0
 11
948.1664074431977
 21
1383.745878730033
 31
0.0
  0
LINE
  5
2B1
330
23E
100
AcDbEntity
  8
P-SANR-FIXT
100
AcDbLine
 10
948.1664074431977
 20
1383.745878730033
 30
0.0
 11
948.1664074431975
 21
1361.24587873005
 31
0.0
  0
LINE
  5
2B2
330
23E
100
AcDbEntity
  8
P-SANR-FIXT
100
AcDbLine
 10
948.1664074431975
 20
1361.245878730049
 30
0.0
 11
948.1664074431975
 21
1338.745878730039
 31
0.0
  0
LINE
  5
2B3
330
23E
100
AcDbEntity
  8
P-SANR-FIXT
100
AcDbLine
 10
948.1664074431975
 20
1338.745878730039
 30
0.0
 11
948.1664074431973
 21
1316.245878730055
 31
0.0
  0
LINE
  5
2B4
330
23E
100
AcDbEntity
  8
P-SANR-FIXT
100
AcDbLine
 10
920.1664074431972
 20
1361.245878730049
 30
0.0
 11
920.1664074431974
 21
1383.74587873003
 31
0.0
  0
LINE
  5
2B5
330
23E
100
AcDbEntity
  8
P-SANR-FIXT
100
AcDbLine
 10
920.1664074431974
 20
1383.74587873003
 30
0.0
 11
920.1664074431972
 21
1406.245878730038
 31
0.0
  0
LINE
  5
2B6
330
23E
100
AcDbEntity
  8
P-SANR-FIXT
100
AcDbLine
 10
920.1664074431969
 20
1316.24587873006
 30
0.0
 11
920.166407443197
 21
1338.745878730041
 31
0.0
  0
LINE
  5
2B7
330
23E
100
AcDbEntity
  8
P-SANR-FIXT
100
AcDbLine
 10
920.166407443197
 20
1338.745878730041
 30
0.0
 11
920.1664074431972
 21
1361.245878730048
 31
0.0
  0
SPLINE
  5
2B8
330
23E
100
AcDbEntity
  8
P-SANR-FIXT
100
AcDbSpline
210
0.0
220
0.0
230
1.0
 70
     8
 71
     3
 72
     9
 73
     5
 74
     0
 42
0.000000001
 43
0.0000000001
 40
0.0
 40
0.0
 40
0.0
 40
0.0
 40
0.5
 40
1.0
 40
1.0
 40
1.0
 40
1.0
 10
924.0203752783443
 20
1361.745878730049
 30
0.0
 10
924.0452798223094
 20
1361.671516372881
 30
0.0
 10
924.08284330858
 20
1361.510421011812
 30
0.0
 10
924.095915591533
 20
1361.334545401391
 30
0.0
 10
924.0963289321797
 20
1361.245878730049
 30
0.0
  0
SPLINE
  5
2B9
330
23E
100
AcDbEntity
  8
P-SANR-FIXT
100
AcDbSpline
210
0.0
220
0.0
230
1.0
 70
     8
 71
     3
 72
     9
 73
     5
 74
     0
 42
0.000000001
 43
0.0000000001
 40
0.0
 40
0.0
 40
0.0
 40
0.0
 40
0.5
 40
1.0
 40
1.0
 40
1.0
 40
1.0
 10
924.0963289321797
 20
1361.245878730049
 30
0.0
 10
924.095915591533
 20
1361.157212058707
 30
0.0
 10
924.08284330858
 20
1360.981336448287
 30
0.0
 10
924.0452798223092
 20
1360.820241087217
 30
0.0
 10
924.0203752783441
 20
1360.745878730049
 30
0.0
  0
SPLINE
  5
2BA
330
23E
100
AcDbEntity
  8
P-SANR-FIXT
100
AcDbSpline
210
0.0
220
0.0
230
1.0
 70
     8
 71
     3
 72
     9
 73
     5
 74
     0
 42
0.000000001
 43
0.0000000001
 40
0.0
 40
0.0
 40
0.0
 40
0.0
 40
0.5
 40
1.0
 40
1.0
 40
1.0
 40
1.0
 10
944.3124396080524
 20
1360.745878730049
 30
0.0
 10
944.2875350640875
 20
1360.820241087217
 30
0.0
 10
944.2499715778165
 20
1360.981336448287
 30
0.0
 10
944.2368992948637
 20
1361.157212058707
 30
0.0
 10
944.2364859542168
 20
1361.245878730049
 30
0.0
  0
SPLINE
  5
2BB
330
23E
100
AcDbEntity
  8
P-SANR-FIXT
100
AcDbSpline
210
0.0
220
0.0
230
1.0
 70
     8
 71
     3
 72
     9
 73
     5
 74
     0
 42
0.000000001
 43
0.0000000001
 40
0.0
 40
0.0
 40
0.0
 40
0.0
 40
0.5
 40
1.0
 40
1.0
 40
1.0
 40
1.0
 10
944.2364859542168
 20
1361.245878730049
 30
0.0
 10
944.2368992948637
 20
1361.334545401391
 30
0.0
 10
944.2499715778163
 20
1361.510421011812
 30
0.0
 10
944.2875350640871
 20
1361.671516372881
 30
0.0
 10
944.3124396080522
 20
1361.745878730049
 30
0.0
  0
SPLINE
  5
2BC
330
23E
100
AcDbEntity
  8
P-SANR-FIXT
100
AcDbSpline
210
0.0
220
0.0
230
1.0
 70
     8
 71
     3
 72
     9
 73
     5
 74
     0
 42
0.000000001
 43
0.0000000001
 40
0.0
 40
0.0
 40
0.0
 40
0.0
 40
0.5
 40
1.0
 40
1.0
 40
1.0
 40
1.0
 10
924.0203752783441
 20
1360.745878730049
 30
0.0
 10
922.7832268651614
 20
1357.151151899464
 30
0.0
 10
920.9037504794542
 20
1349.889758402214
 30
0.0
 10
920.2139149750633
 20
1342.484485232798
 30
0.0
 10
920.1664074431972
 20
1338.74587873005
 30
0.0
  0
SPLINE
  5
2BD
330
23E
100
AcDbEntity
  8
P-SANR-FIXT
100
AcDbSpline
210
0.0
220
0.0
230
1.0
 70
     8
 71
     3
 72
     9
 73
     5
 74
     0
 42
0.000000001
 43
0.0000000001
 40
0.0
 40
0.0
 40
0.0
 40
0.0
 40
0.5
 40
1.0
 40
1.0
 40
1.0
 40
1.0
 10
920.1664074431972
 20
1338.74587873005
 30
0.0
 10
920.2139149750632
 20
1335.007272227306
 30
0.0
 10
920.9037504794521
 20
1327.601999057901
 30
0.0
 10
922.7832268651546
 20
1320.34060556066
 30
0.0
 10
924.0203752783342
 20
1316.74587873008
 30
0.0
  0
SPLINE
  5
2BE
330
23E
100
AcDbEntity
  8
P-SANR-FIXT
100
AcDbSpline
210
0.0
220
0.0
230
1.0
 70
     8
 71
     3
 72
     9
 73
     5
 74
     0
 42
0.000000001
 43
0.0000000001
 40
0.0
 40
0.0
 40
0.0
 40
0.0
 40
0.5
 40
1.0
 40
1.0
 40
1.0
 40
1.0
 10
944.3124396080618
 20
1316.74587873008
 30
0.0
 10
945.5495880212422
 20
1320.34060556066
 30
0.0
 10
947.4290644069453
 20
1327.601999057901
 30
0.0
 10
948.1188999113326
 20
1335.007272227307
 30
0.0
 10
948.1664074431975
 20
1338.74587873005
 30
0.0
  0
SPLINE
  5
2BF
330
23E
100
AcDbEntity
  8
P-SANR-FIXT
100
AcDbSpline
210
0.0
220
0.0
230
1.0
 70
     8
 71
     3
 72
     9
 73
     5
 74
     0
 42
0.000000001
 43
0.0000000001
 40
0.0
 40
0.0
 40
0.0
 40
0.0
 40
0.5
 40
1.0
 40
1.0
 40
1.0
 40
1.0
 10
948.1664074431975
 20
1338.74587873005
 30
0.0
 10
948.1188999113324
 20
1342.484485232799
 30
0.0
 10
947.4290644069434
 20
1349.889758402214
 30
0.0
 10
945.5495880212357
 20
1357.151151899465
 30
0.0
 10
944.3124396080524
 20
1360.745878730049
 30
0.0
  0
SPLINE
  5
2C0
330
23E
100
AcDbEntity
  8
P-SANR-FIXT
100
AcDbSpline
210
0.0
220
0.0
230
1.0
 70
     8
 71
     3
 72
    11
 73
     7
 74
     0
 42
0.000000001
 43
0.0000000001
 40
0.0
 40
0.0
 40
0.0
 40
0.0
 40
0.25
 40
0.5
 40
0.75
 40
1.0
 40
1.0
 40
1.0
 40
1.0
 10
924.0203752783342
 20
1316.74587873008
 30
0.0
 10
924.0452633046777
 20
1316.671696824123
 30
0.0
 10
924.0825794637313
 20
1316.533012519822
 30
0.0
 10
924.1032511653203
 20
1316.36917613803
 30
0.0
 10
924.082388898195
 20
1316.267666204036
 30
0.0
 10
924.0451743740939
 20
1316.245878730081
 30
0.0
 10
924.0203752783342
 20
1316.245878730081
 30
0.0
  0
SPLINE
  5
2C1
330
23E
100
AcDbEntity
  8
P-SANR-FIXT
100
AcDbSpline
210
0.0
220
0.0
230
1.0
 70
     8
 71
     3
 72
    11
 73
     7
 74
     0
 42
0.000000001
 43
0.0000000001
 40
0.0
 40
0.0
 40
0.0
 40
0.0
 40
0.25
 40
0.5
 40
0.75
 40
1.0
 40
1.0
 40
1.0
 40
1.0
 10
944.3124396080619
 20
1316.245878730081
 30
0.0
 10
944.2876405123021
 20
1316.245878730081
 30
0.0
 10
944.250425988201
 20
1316.267666204036
 30
0.0
 10
944.2295637210754
 20
1316.36917613803
 30
0.0
 10
944.2502354226645
 20
1316.533012519822
 30
0.0
 10
944.2875515817183
 20
1316.671696824123
 30
0.0
 10
944.3124396080618
 20
1316.74587873008
 30
0.0
  0
SPLINE
  5
2C2
330
23E
100
AcDbEntity
  8
P-SANR-FIXT
100
AcDbSpline
210
0.0
220
0.0
230
1.0
 70
    24
 71
     3
 72
     9
 73
     5
 74
     0
 42
0.000000001
 43
0.0000000001
 40
0.0
 40
0.0
 40
0.0
 40
0.0
 40
0.5
 40
1.0
 40
1.0
 40
1.0
 40
1.0
 10
924.0203752783342
 20
1316.245878730081
 30
0.0
 10
922.7832268651511
 20
1316.245878730082
 30
0.0
 10
920.9037504794455
 20
1316.245878730085
 30
0.0
 10
920.2139149750598
 20
1316.245878730088
 30
0.0
 10
920.1664074431972
 20
1316.245878730089
 30
0.0
  0
SPLINE
  5
2C3
330
23E
100
AcDbEntity
  8
P-SANR-FIXT
100
AcDbSpline
210
0.0
220
0.0
230
1.0
 70
    24
 71
     3
 72
     9
 73
     5
 74
     0
 42
0.000000001
 43
0.0000000001
 40
0.0
 40
0.0
 40
0.0
 40
0.0
 40
0.5
 40
1.0
 40
1.0
 40
1.0
 40
1.0
 10
948.1664074431975
 20
1316.245878730089
 30
0.0
 10
948.1188999113358
 20
1316.245878730088
 30
0.0
 10
947.4290644069514
 20
1316.245878730085
 30
0.0
 10
945.5495880212454
 20
1316.245878730082
 30
0.0
 10
944.3124396080619
 20
1316.245878730081
 30
0.0
  0
SPLINE
  5
2C4
330
23E
100
AcDbEntity
  8
P-SANR-FIXT
100
AcDbSpline
210
0.0
220
0.0
230
1.0
 70
    24
 71
     3
 72
     9
 73
     5
 74
     0
 42
0.000000001
 43
0.0000000001
 40
0.0
 40
0.0
 40
0.0
 40
0.0
 40
0.5
 40
1.0
 40
1.0
 40
1.0
 40
1.0
 10
920.1664074431974
 20
1406.245878730044
 30
0.0
 10
920.2139149750703
 20
1406.245878730043
 30
0.0
 10
920.9037504794689
 20
1406.24587873004
 30
0.0
 10
922.7832268651736
 20
1406.245878730037
 30
0.0
 10
924.0203752783523
 20
1406.245878730036
 30
0.0
  0
SPLINE
  5
2C5
330
23E
100
AcDbEntity
  8
P-SANR-FIXT
100
AcDbSpline
210
0.0
220
0.0
230
1.0
 70
    24
 71
     3
 72
     9
 73
     5
 74
     0
 42
0.000000001
 43
0.0000000001
 40
0.0
 40
0.0
 40
0.0
 40
0.0
 40
0.5
 40
1.0
 40
1.0
 40
1.0
 40
1.0
 10
944.3124396080444
 20
1406.245878730036
 30
0.0
 10
945.5495880212238
 20
1406.245878730037
 30
0.0
 10
947.4290644069286
 20
1406.24587873004
 30
0.0
 10
948.118899911326
 20
1406.245878730043
 30
0.0
 10
948.1664074431977
 20
1406.245878730044
 30
0.0
  0
SPLINE
  5
2C6
330
23E
100
AcDbEntity
  8
P-SANR-FIXT
100
AcDbSpline
210
0.0
220
0.0
230
1.0
 70
     8
 71
     3
 72
    11
 73
     7
 74
     0
 42
0.000000001
 43
0.0000000001
 40
0.0
 40
0.0
 40
0.0
 40
0.0
 40
0.25
 40
0.5
 40
0.75
 40
1.0
 40
1.0
 40
1.0
 40
1.0
 10
924.0203752783523
 20
1406.245878730036
 30
0.0
 10
924.0452633046958
 20
1406.245878730036
 30
0.0
 10
924.0825794637496
 20
1406.223873765886
 30
0.0
 10
924.1032511653385
 20
1406.121958267369
 30
0.0
 10
924.0823888982131
 20
1405.957979542685
 30
0.0
 10
924.045174374112
 20
1405.819707904563
 30
0.0
 10
924.0203752783523
 20
1405.745878730036
 30
0.0
  0
SPLINE
  5
2C7
330
23E
100
AcDbEntity
  8
P-SANR-FIXT
100
AcDbSpline
210
0.0
220
0.0
230
1.0
 70
     8
 71
     3
 72
    11
 73
     7
 74
     0
 42
0.000000001
 43
0.0000000001
 40
0.0
 40
0.0
 40
0.0
 40
0.0
 40
0.25
 40
0.5
 40
0.75
 40
1.0
 40
1.0
 40
1.0
 40
1.0
 10
944.3124396080444
 20
1405.745878730036
 30
0.0
 10
944.2876405122845
 20
1405.819707904563
 30
0.0
 10
944.2504259881834
 20
1405.957979542685
 30
0.0
 10
944.2295637210579
 20
1406.121958267369
 30
0.0
 10
944.2502354226469
 20
1406.223873765886
 30
0.0
 10
944.2875515817009
 20
1406.245878730036
 30
0.0
 10
944.3124396080444
 20
1406.245878730036
 30
0.0
  0
SPLINE
  5
2C8
330
23E
100
AcDbEntity
  8
P-SANR-FIXT
100
AcDbSpline
210
0.0
220
0.0
230
1.0
 70
     8
 71
     3
 72
     9
 73
     5
 74
     0
 42
0.000000001
 43
0.0000000001
 40
0.0
 40
0.0
 40
0.0
 40
0.0
 40
0.5
 40
1.0
 40
1.0
 40
1.0
 40
1.0
 10
944.3124396080522
 20
1361.745878730049
 30
0.0
 10
945.5495880212309
 20
1365.340605560631
 30
0.0
 10
947.4290644069338
 20
1372.601999057877
 30
0.0
 10
948.118899911328
 20
1380.007272227285
 30
0.0
 10
948.1664074431977
 20
1383.74587873003
 30
0.0
  0
SPLINE
  5
2C9
330
23E
100
AcDbEntity
  8
P-SANR-FIXT
100
AcDbSpline
210
0.0
220
0.0
230
1.0
 70
     8
 71
     3
 72
     9
 73
     5
 74
     0
 42
0.000000001
 43
0.0000000001
 40
0.0
 40
0.0
 40
0.0
 40
0.0
 40
0.5
 40
1.0
 40
1.0
 40
1.0
 40
1.0
 10
948.1664074431977
 20
1383.74587873003
 30
0.0
 10
948.1188999113278
 20
1387.484485232779
 30
0.0
 10
947.429064406932
 20
1394.889758402196
 30
0.0
 10
945.5495880212254
 20
1402.15115189945
 30
0.0
 10
944.3124396080444
 20
1405.745878730036
 30
0.0
  0
SPLINE
  5
2CA
330
23E
100
AcDbEntity
  8
P-SANR-FIXT
100
AcDbSpline
210
0.0
220
0.0
230
1.0
 70
     8
 71
     3
 72
     9
 73
     5
 74
     0
 42
0.000000001
 43
0.0000000001
 40
0.0
 40
0.0
 40
0.0
 40
0.0
 40
0.5
 40
1.0
 40
1.0
 40
1.0
 40
1.0
 10
924.0203752783523
 20
1405.745878730036
 30
0.0
 10
922.783226865172
 20
1402.151151899449
 30
0.0
 10
920.9037504794656
 20
1394.889758402196
 30
0.0
 10
920.2139149750687
 20
1387.484485232779
 30
0.0
 10
920.1664074431974
 20
1383.74587873003
 30
0.0
  0
SPLINE
  5
2CB
330
23E
100
AcDbEntity
  8
P-SANR-FIXT
100
AcDbSpline
210
0.0
220
0.0
230
1.0
 70
     8
 71
     3
 72
     9
 73
     5
 74
     0
 42
0.000000001
 43
0.0000000001
 40
0.0
 40
0.0
 40
0.0
 40
0.0
 40
0.5
 40
1.0
 40
1.0
 40
1.0
 40
1.0
 10
920.1664074431974
 20
1383.74587873003
 30
0.0
 10
920.2139149750683
 20
1380.007272227285
 30
0.0
 10
920.9037504794638
 20
1372.601999057877
 30
0.0
 10
922.7832268651663
 20
1365.340605560631
 30
0.0
 10
924.0203752783443
 20
1361.745878730049
 30
0.0
  0
LINE
  5
2CC
330
23E
100
AcDbEntity
  8
P-SANR-FIXT
100
AcDbLine
 10
920.1664074431988
 20
1402.00587873005
 30
0.0
 11
917.6664074432007
 21
1402.00587873005
 31
0.0
  0
LINE
  5
2CD
330
23E
100
AcDbEntity
  8
P-SANR-FIXT
100
AcDbLine
 10
917.6664074432004
 20
1320.48587873005
 30
0.0
 11
920.1664074431985
 21
1320.48587873005
 31
0.0
  0
LINE
  5
2CE
330
23E
100
AcDbEntity
  8
P-SANR-FIXT
100
AcDbLine
 10
917.6664074432007
 20
1391.395878730049
 30
0.0
 11
912.7512032137357
 21
1391.395878730049
 31
0.0
  0
LINE
  5
2CF
330
23E
100
AcDbEntity
  8
P-SANR-FIXT
100
AcDbLine
 10
878.6999139706596
 20
1331.09587873005
 30
0.0
 11
917.6664074432004
 21
1331.09587873005
 31
0.0
  0
LINE
  5
2D0
330
23E
100
AcDbEntity
  8
P-SANR-FIXT
100
AcDbLine
 10
718.5030689260213
 20
1391.39587873005
 30
0.0
 11
713.6664074432006
 21
1391.395878730051
 31
0.0
  0
LINE
  5
2D1
330
23E
100
AcDbEntity
  8
P-SANR-FIXT
100
AcDbLine
 10
713.6664074432003
 20
1331.095878730051
 30
0.0
 11
752.6329009157407
 21
1331.09587873005
 31
0.0
  0
LINE
  5
2D2
330
23E
100
AcDbEntity
  8
P-SANR-FIXT
100
AcDbLine
 10
713.6664074432005
 20
1402.005878730051
 30
0.0
 11
711.1664074432029
 21
1402.005878730051
 31
0.0
  0
LINE
  5
2D3
330
23E
100
AcDbEntity
  8
P-SANR-FIXT
100
AcDbLine
 10
711.1664074432025
 20
1320.485878730051
 30
0.0
 11
713.6664074432002
 21
1320.485878730051
 31
0.0
  0
LINE
  5
2D4
330
23E
100
AcDbEntity
  8
P-SANR-FIXT
100
AcDbLine
 10
805.0164074432007
 20
1292.21030401726
 30
0.0
 11
805.0164074432004
 21
1263.24587873005
 31
0.0
  0
LINE
  5
2D5
330
23E
100
AcDbEntity
  8
P-SANR-FIXT
100
AcDbLine
 10
826.3164074431998
 20
1263.24587873005
 30
0.0
 11
826.3164074431998
 21
1292.210304017261
 31
0.0
  0
ARC
  5
2D6
330
23E
100
AcDbEntity
  8
P-SANR-FIXT
100
AcDbCircle
 10
815.666407443199
 20
1361.24587873005
 30
0.0
 40
43.99999999999991
100
AcDbArc
 50
180.243833993197
 51
359.7561660068005
  0
ARC
  5
2D7
330
23E
100
AcDbEntity
  8
P-SANR-FIXT
100
AcDbCircle
 10
815.666407443199
 20
1361.24587873005
 30
0.0
 40
69.84999999999965
100
AcDbArc
 50
180.1535109152566
 51
359.8464890847418
  0
SPLINE
  5
2D8
330
23E
100
AcDbEntity
  8
P-SANR-FIXT
100
AcDbSpline
210
0.0
220
0.0
230
1.0
 70
     8
 71
     3
 72
    10
 73
     6
 74
     0
 42
0.000000001
 43
0.0000000001
 40
0.5
 40
0.5
 40
0.5
 40
0.5
 40
0.5138888888888889
 40
0.5486111111111111
 40
0.574074074074074
 40
0.574074074074074
 40
0.574074074074074
 40
0.574074074074074
 10
878.6859720970035
 20
1331.120167104767
 30
0.0
 10
878.6859635566681
 20
1331.120154489633
 30
0.0
 10
878.7011899711076
 20
1331.152069137708
 30
0.0
 10
878.8062719441168
 20
1331.371976865521
 30
0.0
 10
878.9764234851155
 20
1331.734645941749
 30
0.0
 10
879.0632516813548
 20
1331.922411356959
 30
0.0
  0
SPLINE
  5
2D9
330
23E
100
AcDbEntity
  8
P-SANR-FIXT
100
AcDbSpline
210
0.0
220
0.0
230
1.0
 70
     8
 71
     3
 72
    10
 73
     6
 74
     0
 42
0.000000001
 43
0.0000000001
 40
0.6111111111111109
 40
0.6111111111111109
 40
0.6111111111111109
 40
0.6111111111111109
 40
0.6180555555555555
 40
0.6527777777777777
 40
0.685185185185185
 40
0.685185185185185
 40
0.685185185185185
 40
0.685185185185185
 10
879.5308372784173
 20
1332.955283596185
 30
0.0
 10
879.56498270905
 20
1333.03236405071
 30
0.0
 10
879.7745907087543
 20
1333.507802398494
 30
0.0
 10
880.1927234328893
 20
1334.484605920054
 30
0.0
 10
880.6110462765735
 20
1335.523953635353
 30
0.0
 10
880.8246027059317
 20
1336.077619978708
 30
0.0
  0
SPLINE
  5
2DA
330
23E
100
AcDbEntity
  8
P-SANR-FIXT
100
AcDbSpline
210
0.0
220
0.0
230
1.0
 70
     8
 71
     3
 72
    10
 73
     6
 74
     0
 42
0.000000001
 43
0.0000000001
 40
0.7037037037037034
 40
0.7037037037037034
 40
0.7037037037037034
 40
0.7037037037037034
 40
0.7222222222222223
 40
0.7569444444444445
 40
0.7592592592592589
 40
0.7592592592592589
 40
0.7592592592592589
 40
0.7592592592592589
 10
881.2014449267207
 20
1337.076143508484
 30
0.0
 10
881.3300645250841
 20
1337.424839325463
 30
0.0
 10
881.7062921491832
 20
1338.471570825429
 30
0.0
 10
882.1085194846981
 20
1339.668743251569
 30
0.0
 10
882.3655755553604
 20
1340.504737044817
 30
0.0
 10
882.381603742664
 20
1340.557133139239
 30
0.0
  0
SPLINE
  5
2DB
330
23E
100
AcDbEntity
  8
P-SANR-FIXT
100
AcDbSpline
210
0.0
220
0.0
230
1.0
 70
     8
 71
     3
 72
     9
 73
     5
 74
     0
 42
0.000000001
 43
0.0000000001
 40
0.7777777777777774
 40
0.7777777777777774
 40
0.7777777777777774
 40
0.7777777777777774
 40
0.7916666666666668
 40
0.8148148148148143
 40
0.8148148148148143
 40
0.8148148148148143
 40
0.8148148148148143
 10
882.7658403032046
 20
1341.835946826591
 30
0.0
 10
882.8606149181602
 20
1342.163642934727
 30
0.0
 10
883.107693459681
 20
1343.058380739988
 30
0.0
 10
883.3674789165941
 20
1343.989656435229
 30
0.0
 10
883.5249299345022
 20
1344.58968655329
 30
0.0
  0
SPLINE
  5
2DC
330
23E
100
AcDbEntity
  8
P-SANR-FIXT
100
AcDbSpline
210
0.0
220
0.0
230
1.0
 70
     8
 71
     3
 72
     9
 73
     5
 74
     0
 42
0.000000001
 43
0.0000000001
 40
0.8333333333333328
 40
0.8333333333333328
 40
0.8333333333333328
 40
0.8333333333333328
 40
0.861111111111111
 40
0.8703703703703698
 40
0.8703703703703698
 40
0.8703703703703698
 40
0.8703703703703698
 10
883.853389382069
 20
1346.103268324647
 30
0.0
 10
884.0224476465433
 20
1346.863716913575
 30
0.0
 10
884.2521960745607
 20
1347.890241679615
 30
0.0
 10
884.4189379061743
 20
1348.973368158603
 30
0.0
 10
884.4572157680968
 20
1349.247212324926
 30
0.0
  0
SPLINE
  5
2DD
330
23E
100
AcDbEntity
  8
P-SANR-FIXT
100
AcDbSpline
210
0.0
220
0.0
230
1.0
 70
     8
 71
     3
 72
     8
 73
     4
 74
     0
 42
0.000000001
 43
0.0000000001
 40
0.8888888888888882
 40
0.8888888888888882
 40
0.8888888888888882
 40
0.8888888888888882
 40
0.9629629629629622
 40
0.9629629629629622
 40
0.9629629629629622
 40
0.9629629629629622
 10
884.740104080986
 20
1350.845672327523
 30
0.0
 10
885.0690876121518
 20
1353.020127067568
 30
0.0
 10
885.2242137289884
 20
1355.346473183495
 30
0.0
 10
885.3445683629592
 20
1357.703197574599
 30
0.0
  0
SPLINE
  5
2DE
330
23E
100
AcDbEntity
  8
P-SANR-FIXT
100
AcDbSpline
210
0.0
220
0.0
230
1.0
 70
     8
 71
     3
 72
     8
 73
     4
 74
     0
 42
0.000000001
 43
0.0000000001
 40
0.9814814814814807
 40
0.9814814814814807
 40
0.9814814814814807
 40
0.9814814814814807
 40
0.9981028177633737
 40
0.9981028177633737
 40
0.9981028177633737
 40
0.9981028177633737
 10
885.4931726082718
 20
1359.423345099843
 30
0.0
 10
885.5069756139505
 20
1359.963059683688
 30
0.0
 10
885.5134247926045
 20
1360.508760563977
 30
0.0
 10
885.5157627386532
 20
1361.057762274961
 30
0.0
  0
SPLINE
  5
2DF
330
23E
100
AcDbEntity
  8
P-SANR-FIXT
100
AcDbSpline
210
0.0
220
0.0
230
1.0
 70
     8
 71
     3
 72
     8
 73
     4
 74
     0
 42
0.000000001
 43
0.0000000001
 40
0.0018971701308292
 40
0.0018971701308292
 40
0.0018971701308292
 40
0.0018971701308292
 40
0.0185185185185185
 40
0.0185185185185185
 40
0.0185185185185185
 40
0.0185185185185185
 10
745.8166633493159
 20
1361.057418276352
 30
0.0
 10
745.8181564764703
 20
1360.507534144283
 30
0.0
 10
745.826169882504
 20
1359.961966707396
 30
0.0
 10
745.8403450724926
 20
1359.421066275098
 30
0.0
  0
SPLINE
  5
2E0
330
23E
100
AcDbEntity
  8
P-SANR-FIXT
100
AcDbSpline
210
0.0
220
0.0
230
1.0
 70
     8
 71
     3
 72
     9
 73
     5
 74
     0
 42
0.000000001
 43
0.0000000001
 40
0.037037037037037
 40
0.037037037037037
 40
0.037037037037037
 40
0.037037037037037
 40
0.0555555555555556
 40
0.1111111111111111
 40
0.1111111111111111
 40
0.1111111111111111
 40
0.1111111111111111
 10
745.9101747765758
 20
1357.631012994635
 30
0.0
 10
745.9407694931023
 20
1357.040444747186
 30
0.0
 10
746.0917598919385
 20
1354.703282442131
 30
0.0
 10
746.3492636865066
 20
1352.474314483019
 30
0.0
 10
746.5955790782803
 20
1350.84188098957
 30
0.0
  0
SPLINE
  5
2E1
330
23E
100
AcDbEntity
  8
P-SANR-FIXT
100
AcDbSpline
210
0.0
220
0.0
230
1.0
 70
     8
 71
     3
 72
     8
 73
     4
 74
     0
 42
0.000000001
 43
0.0000000001
 40
0.1296296296296296
 40
0.1296296296296296
 40
0.1296296296296296
 40
0.1296296296296296
 40
0.1666666666666666
 40
0.1666666666666666
 40
0.1666666666666666
 40
0.1666666666666666
 10
746.8590786212066
 20
1349.223748319336
 30
0.0
 10
747.0458377300614
 20
1348.155329308827
 30
0.0
 10
747.2540556249955
 20
1347.109186945949
 30
0.0
 10
747.4793720596363
 20
1346.094947880735
 30
0.0
  0
SPLINE
  5
2E2
330
23E
100
AcDbEntity
  8
P-SANR-FIXT
100
AcDbSpline
210
0.0
220
0.0
230
1.0
 70
     8
 71
     3
 72
     9
 73
     5
 74
     0
 42
0.000000001
 43
0.0000000001
 40
0.1851851851851852
 40
0.1851851851851852
 40
0.1851851851851852
 40
0.1851851851851852
 40
0.1944444444444444
 40
0.2222222222222222
 40
0.2222222222222222
 40
0.2222222222222222
 40
0.2222222222222222
 10
747.8285587300349
 20
1344.601229086929
 30
0.0
 10
747.8883565304508
 20
1344.357501310425
 30
0.0
 10
748.1302104806991
 20
1343.394278359591
 30
0.0
 10
748.3794916526023
 20
1342.485232691025
 30
0.0
 10
748.5695989561519
 20
1341.82834050162
 30
0.0
  0
SPLINE
  5
2E3
330
23E
100
AcDbEntity
  8
P-SANR-FIXT
100
AcDbSpline
210
0.0
220
0.0
230
1.0
 70
     8
 71
     3
 72
    10
 73
     6
 74
     0
 42
0.000000001
 43
0.0000000001
 40
0.2407407407407407
 40
0.2407407407407407
 40
0.2407407407407407
 40
0.2407407407407407
 40
0.25
 40
0.2777777777777778
 40
0.2962962962962963
 40
0.2962962962962963
 40
0.2962962962962963
 40
0.2962962962962963
 10
748.9539556512718
 20
1340.546257329515
 30
0.0
 10
749.018696590994
 20
1340.337612300392
 30
0.0
 10
749.2790056160186
 20
1339.512607113239
 30
0.0
 10
749.6773813159363
 20
1338.328084280633
 30
0.0
 10
750.0043104137825
 20
1337.420557932314
 30
0.0
 10
750.1326262932645
 20
1337.07268071774
 30
0.0
  0
SPLINE
  5
2E4
330
23E
100
AcDbEntity
  8
P-SANR-FIXT
100
AcDbSpline
210
0.0
220
0.0
230
1.0
 70
     8
 71
     3
 72
    10
 73
     6
 74
     0
 42
0.000000001
 43
0.0000000001
 40
0.3148148148148148
 40
0.3148148148148148
 40
0.3148148148148148
 40
0.3148148148148148
 40
0.3333333333333333
 40
0.3611111111111111
 40
0.3888888888888888
 40
0.3888888888888888
 40
0.3888888888888888
 40
0.3888888888888888
 10
750.5087404462345
 20
1336.076377863662
 30
0.0
 10
750.6308600486882
 20
1335.760223766747
 30
0.0
 10
750.927715005287
 20
1335.008951271091
 30
0.0
 10
751.3669460885012
 20
1333.949590107714
 30
0.0
 10
751.6657173641239
 20
1333.262911249634
 30
0.0
 10
751.8023738713702
 20
1332.954400933082
 30
0.0
  0
SPLINE
  5
2E5
330
23E
100
AcDbEntity
  8
P-SANR-FIXT
100
AcDbSpline
210
0.0
220
0.0
230
1.0
 70
     8
 71
     3
 72
    10
 73
     6
 74
     0
 42
0.000000001
 43
0.0000000001
 40
0.4259259259259257
 40
0.4259259259259257
 40
0.4259259259259257
 40
0.4259259259259257
 40
0.4444444444444445
 40
0.4791666666666666
 40
0.4814814814814614
 40
0.4814814814814614
 40
0.4814814814814614
 40
0.4814814814814614
 10
752.2705857797076
 20
1331.920240261364
 30
0.0
 10
752.3339703410195
 20
1331.783211536878
 30
0.0
 10
752.4936106460773
 20
1331.44149362323
 30
0.0
 10
752.5888841872626
 20
1331.241639637545
 30
0.0
 10
752.6216951663949
 20
1331.172856481538
 30
0.0
 10
752.6236257854103
 20
1331.168809510286
 30
0.0
  0
SPLINE
  5
2E6
330
23E
100
AcDbEntity
  8
P-SANR-FIXT
100
AcDbSpline
210
0.0
220
0.0
230
1.0
 70
     8
 71
     3
 72
    15
 73
    11
 74
     0
 42
0.000000001
 43
0.0000000001
 40
0.4814814814814815
 40
0.4814814814814815
 40
0.4814814814814815
 40
0.4814814814814815
 40
0.5138888888888889
 40
0.5486111111111111
 40
0.5833333333333333
 40
0.6527777777777777
 40
0.7222222222222223
 40
0.7916666666666668
 40
0.861111111111111
 40
0.9259259259259264
 40
0.9259259259259264
 40
0.9259259259259264
 40
0.9259259259259264
 10
805.0366650085807
 20
1292.209378145336
 30
0.0
 10
805.0166270778673
 20
1292.212468384139
 30
0.0
 10
805.0129300068824
 20
1292.21311466043
 30
0.0
 10
805.1200324855519
 20
1292.196572179243
 30
0.0
 10
805.439362084934
 20
1292.148170023295
 30
0.0
 10
806.1517532407274
 20
1292.044294419724
 30
0.0
 10
807.4503008571268
 20
1291.87472238839
 30
0.0
 10
809.1241553079383
 20
1291.697162903864
 30
0.0
 10
811.0841137353524
 20
1291.527109378379
 30
0.0
 10
812.5321881782898
 20
1291.480350917103
 30
0.0
 10
813.2406801475395
 20
1291.461662032164
 30
0.0
  0
SPLINE
  5
2E7
330
23E
100
AcDbEntity
  8
P-SANR-FIXT
100
AcDbSpline
210
0.0
220
0.0
230
1.0
 70
     8
 71
     3
 72
     8
 73
     4
 74
     0
 42
0.000000001
 43
0.0000000001
 40
0.9629629629629635
 40
0.9629629629629635
 40
0.9629629629629635
 40
0.9629629629629635
 40
1.0
 40
1.0
 40
1.0
 40
1.0
 10
814.4033938365165
 20
1291.407103578782
 30
0.0
 10
814.8160444786858
 20
1291.399732464018
 30
0.0
 10
815.2368364469035
 20
1291.39587873005
 30
0.0
 10
815.6664074431994
 20
1291.39587873005
 30
0.0
  0
SPLINE
  5
2E8
330
23E
100
AcDbEntity
  8
P-SANR-FIXT
100
AcDbSpline
210
0.0
220
0.0
230
1.0
 70
     8
 71
     3
 72
     8
 73
     4
 74
     0
 42
0.000000001
 43
0.0000000001
 40
0.0
 40
0.0
 40
0.0
 40
0.0
 40
0.037037037037037
 40
0.037037037037037
 40
0.037037037037037
 40
0.037037037037037
 10
815.6664074431994
 20
1291.39587873005
 30
0.0
 10
816.095978439495
 20
1291.39587873005
 30
0.0
 10
816.5179971106443
 20
1291.399877908379
 30
0.0
 10
816.9312647318465
 20
1291.407359958076
 30
0.0
  0
SPLINE
  5
2E9
330
23E
100
AcDbEntity
  8
P-SANR-FIXT
100
AcDbSpline
210
0.0
220
0.0
230
1.0
 70
     8
 71
     3
 72
    16
 73
    12
 74
     0
 42
0.000000001
 43
0.0000000001
 40
0.0740740740740741
 40
0.0740740740740741
 40
0.0740740740740741
 40
0.0740740740740741
 40
0.1111111111111111
 40
0.1666666666666666
 40
0.2222222222222222
 40
0.2777777777777778
 40
0.3333333333333333
 40
0.3888888888888888
 40
0.4444444444444445
 40
0.5138888888888889
 40
0.5185185185185186
 40
0.5185185185185186
 40
0.5185185185185186
 40
0.5185185185185186
 10
818.1441872566482
 20
1291.439780878818
 30
0.0
 10
818.5398971248291
 20
1291.453797293309
 30
0.0
 10
819.5100127128199
 20
1291.496679385686
 30
0.0
 10
821.0192969901752
 20
1291.594889048847
 30
0.0
 10
822.5468027717235
 20
1291.730701238503
 30
0.0
 10
823.8590347271857
 20
1291.874488993632
 30
0.0
 10
824.936835660749
 20
1292.011689664118
 30
0.0
 10
825.7165907832332
 20
1292.121711229986
 30
0.0
 10
826.2518609806527
 20
1292.202325949237
 30
0.0
 10
826.3387655873465
 20
1292.215972579731
 30
0.0
 10
826.2978270653302
 20
1292.20969335811
 30
0.0
 10
826.2949104728324
 20
1292.209245579609
 30
0.0
  0
LINE
  5
2EA
330
23E
100
AcDbEntity
  8
P-SANR-FIXT
100
AcDbLine
 10
713.6664074431993
 20
1361.24587873005
 30
0.0
 11
713.6664074431991
 21
1402.00587873005
 31
0.0
  0
LINE
  5
2EB
330
23E
100
AcDbEntity
  8
P-SANR-FIXT
100
AcDbLine
 10
713.666407443199
 20
1320.48587873005
 30
0.0
 11
713.6664074431993
 21
1361.24587873005
 31
0.0
  0
LINE
  5
2EC
330
23E
100
AcDbEntity
  8
P-SANR-FIXT
100
AcDbLine
 10
917.6664074431993
 20
1402.005878730049
 30
0.0
 11
917.6664074431993
 21
1361.245878730049
 31
0.0
  0
LINE
  5
2ED
330
23E
100
AcDbEntity
  8
P-SANR-FIXT
100
AcDbLine
 10
917.6664074431993
 20
1361.245878730049
 30
0.0
 11
917.666407443199
 21
1320.485878730049
 31
0.0
  0
LWPOLYLINE
  5
2EE
330
23E
100
AcDbEntity
  8
P-SANR-FIXT
100
AcDbPolyline
 90
       80
 70
   128
 43
0.0
 10
881.4411934768864
 20
1361.24587873005
 10
881.3885806636625
 20
1363.876168629805
 10
881.2308263932683
 20
1366.50225062682
 10
880.9681830388843
 20
1369.119923550099
 10
880.6010707738494
 20
1371.724999681373
 10
880.1300768994748
 20
1374.313311454551
 10
879.5559549054864
 20
1376.88071812294
 10
878.8796232646017
 20
1379.423112383555
 10
878.1021639631696
 20
1381.936426947928
 10
877.2248207702229
 20
1384.4166410489
 10
876.2489972477142
 20
1386.859786872994
 10
875.1762545051152
 20
1389.261955908069
 10
874.0083087019737
 20
1391.619305196103
 10
872.7470283024267
 20
1393.92806348111
 10
871.3944310860547
 20
1396.184537242344
 10
869.9526809198651
 20
1398.38511660314
 10
868.4240842965669
 20
1400.526281105954
 10
866.8110866446742
 20
1402.604605344339
 10
865.116268416342
 20
1404.616764442866
 10
863.3423409591937
 20
1406.559539376214
 10
861.4921421787435
 20
1408.429822118928
 10
859.5686319983517
 20
1410.22462061759
 10
857.5748876239801
 20
1411.941063577473
 10
855.5140986213181
 20
1413.576405055996
 10
853.3895618131587
 20
1415.128028855648
 10
851.2046760051843
 20
1416.593452709345
 10
848.9629365486038
 20
1417.970332251527
 10
846.6679297483352
 20
1419.256464768647
 10
844.323327125684
 20
1420.449792723036
 10
841.932879544691
 20
1421.548407044532
 10
839.5004112115504
 20
1422.550550184577
 10
837.0298135566969
 20
1423.454618927928
 10
834.5250390093456
 20
1424.259166957452
 10
831.9900946744485
 20
1424.96290716793
 10
829.4290359221822
 20
1425.564713725149
 10
826.8459599002206
 20
1426.063623866995
 10
824.2449989791717
 20
1426.458839443671
 10
821.630314141667
 20
1426.74972819456
 10
819.0060883256771
 20
1426.935824759716
 10
816.3765197327023
 20
1427.016831424332
 10
813.745815111547
 20
1426.992618595026
 10
811.1181830284181
 20
1426.863225007159
 10
808.4978271341162
 20
1426.628857662869
 10
805.8889394390938
 20
1426.289891499911
 10
803.295693607129
 20
1425.846868791838
 10
800.722238278357
 20
1425.300498280476
 10
798.1726904323296
 20
1424.651654042089
 10
795.6511288017257
 20
1423.901374089048
 10
793.1615873472495
 20
1423.050858709224
 10
790.7080488041549
 20
1422.101468545793
 10
788.2944383107167
 20
1421.054722420491
 10
785.9246171288483
 20
1419.912294903823
 10
783.6023764669062
 20
1418.676013636112
 10
781.3314314145643
 20
1417.34785640366
 10
779.1154149994643
 20
1415.929947974714
 10
776.9578723751448
 20
1414.424556700289
 10
774.8622551495535
 20
1412.834090885291
 10
772.831915863211
 20
1411.161094935742
 10
770.8701026258584
 20
1409.408245288277
 10
768.9799539201786
 20
1407.578346128409
 10
767.1644935808898
 20
1405.674324904435
 10
765.4266259572578
 20
1403.699227644146
 10
763.7691312667548
 20
1401.656214081826
 10
762.1946611473057
 20
1399.548552603354
 10
760.7057344152324
 20
1397.379615017487
 10
759.3047330356857
 20
1395.152871161679
 10
757.9938983120083
 20
1392.871883351086
 10
756.7753273001285
 20
1390.540300679621
 10
755.650969453717
 20
1388.16185318218
 10
754.6226235054782
 20
1385.740345867384
 10
753.6919345895604
 20
1383.279652630375
 10
752.8603916096924
 20
1380.783710055414
 10
752.1293248572561
 20
1378.256511118181
 10
751.4999038831025
 20
1375.702098797868
 10
750.9731356265212
 20
1373.124559609276
 10
750.5498628043511
 20
1370.52801706526
 10
750.2307625628148
 20
1367.916625079992
 10
750.0163453942271
 20
1365.294561323581
 10
749.9069543203181
 20
1362.666020538692
 10
749.8916214095141
 20
1361.24587873005
  0
LINE
  5
2EF
330
23E
100
AcDbEntity
  8
P-SANR-FIXT
100
AcDbLine
 10
881.4409276862857
 20
1361.058890577638
 30
0.0
 11
881.4411934768864
 21
1361.24587873005
 31
0.0
  0
LINE
  5
2F0
330
23E
100
AcDbEntity
  8
P-SANR-FIXT
100
AcDbLine
 10
749.8916214095141
 20
1361.24587873005
 30
0.0
 11
749.8918872001148
 21
1361.058890577639
 31
0.0
  0
LWPOLYLINE
  5
2F1
330
23E
100
AcDbEntity
  8
P-SANR-FIXT
100
AcDbPolyline
 90
       80
 70
   128
 43
0.0
 10
917.456147434293
 20
1361.24587873005
 10
917.3747264992933
 20
1365.316382659324
 10
917.1305939504213
 20
1369.38037465064
 10
916.7241403476767
 20
1373.431353183749
 10
916.1560159301179
 20
1377.462837557161
 10
915.4271295756203
 20
1381.468378255883
 10
914.5386473468629
 20
1385.441567269268
 10
913.4919906258792
 20
1389.376048342461
 10
912.288833840148
 20
1393.265527145057
 10
910.9311017838667
 20
1397.103781340683
 10
909.4209665386912
 20
1400.88467054141
 10
907.760843998869
 20
1404.602146131063
 10
905.9533900063229
 20
1408.250260941719
 10
904.0014961018716
 20
1411.823178767902
 10
901.9082848993804
 20
1415.315183703274
 10
899.677105090245
 20
1418.720689284859
 10
897.3115260862009
 20
1422.034247430194
 10
894.8153323090243
 20
1425.250557153103
 10
892.1925171362659
 20
1428.364473044138
 10
889.4472765126979
 20
1431.371013502141
 10
886.584002237698
 20
1434.265368703739
 10
883.6072749393068
 20
1437.04290829804
 10
880.5218567462009
 20
1439.699188814203
 10
877.3326836693014
 20
1442.229960770044
 10
874.0448577052106
 20
1444.631175470304
 10
870.663638674106
 20
1446.898991483695
 10
867.1944358051488
 20
1449.029780788369
 10
863.6427990828721
 20
1451.020134575983
 10
860.0144103683899
 20
1452.866868705064
 10
856.3150743096299
 20
1454.567028794954
 10
852.550709055137
 20
1456.11789495219
 10
848.7273367862961
 20
1457.516986121754
 10
844.8510740831284
 20
1458.762064056234
 10
840.9281221390672
 20
1459.851136896534
 10
836.9647568403708
 20
1460.782462358435
 10
832.9673187260446
 20
1461.554550519868
 10
828.9422028443299
 20
1462.16616620448
 10
824.8958485219922
 20
1462.616330957646
 10
820.8347290627708
 20
1462.904324611792
 10
816.7653413914745
 20
1463.029686438504
 10
812.6941956602877
 20
1462.992215885605
 10
808.6278048339158
 20
1462.791972897984
 10
804.5726742702299
 20
1462.429277821706
 10
800.5352913130842
 20
1461.904710891521
 10
796.5221149139472
 20
1461.219111302618
 10
792.5395652989591
 20
1460.373575868083
 10
788.5940136979385
 20
1459.369457264242
 10
784.6917721517747
 20
1458.208361866661
 10
780.839083414507
 20
1456.892147180287
 10
777.0421109662525
 20
1455.422918867841
 10
773.3069291529508
 20
1453.803027381206
 10
769.6395134687064
 20
1452.035064201201
 10
766.0457309962744
 20
1450.121857691768
 10
762.5313310209775
 20
1448.066468575195
 10
759.1019358330781
 20
1445.872185035607
 10
755.7630317333108
 20
1443.54251745858
 10
752.5199602559743
 20
1441.081192815267
 10
749.3779096236133
 20
1438.492148700042
 10
746.3419064469721
 20
1435.779527031192
 10
743.4168076834867
 20
1432.947667424723
 10
740.607292867191
 20
1430.001100251908
 10
737.9178566224594
 20
1426.944539391657
 10
735.3528014735683
 20
1423.782874689314
 10
732.9162309615732
 20
1420.52116413395
 10
730.6120430795189
 20
1417.164625766661
 10
728.4439240364833
 20
1413.718629332809
 10
726.4153423604275
 20
1410.188687691582
 10
724.5295433492925
 20
1406.580447996592
 10
722.7895438792139
 20
1402.899682661636
 10
721.1981275781632
 20
1399.152280126059
 10
719.7578403727385
 20
1395.344235434517
 10
718.4709864152234
 20
1391.481640646175
 10
717.3396243974357
 20
1387.57067508872
 10
716.3655642572596
 20
1383.617595472748
 10
715.550364283131
 20
1379.628725882366
 10
714.895328621108
 20
1375.610447658005
 10
714.4015051885169
 20
1371.569189187637
 10
714.0696839975064
 20
1367.511415622726
 10
713.9003958911971
 20
1363.443618535363
 10
713.8766674521075
 20
1361.24587873005
  0
LINE
  5
2F2
330
23E
100
AcDbEntity
  8
P-SANR-FIXT
100
AcDbLine
 10
917.4559756632087
 20
1361.058878627033
 30
0.0
 11
917.456147434293
 21
1361.24587873005
 31
0.0
  0
LINE
  5
2F3
330
23E
100
AcDbEntity
  8
P-SANR-FIXT
100
AcDbLine
 10
713.8766674521075
 20
1361.24587873005
 30
0.0
 11
713.8768392231916
 21
1361.058878627035
 31
0.0
  0
LWPOLYLINE
  5
2F4
330
23E
100
AcDbEntity
  8
P-SANR-FIXT
100
AcDbPolyline
 90
       66
 70
   128
 43
0.0
 10
914.5707218933829
 20
1391.395878703061
 10
913.8339779643031
 20
1393.777571537346
 10
912.4545336432074
 20
1397.677205436821
 10
910.920248967224
 20
1401.518556985167
 10
909.233578464538
 20
1405.295480839351
 10
907.3972204481497
 20
1409.001934726907
 10
905.4141126991501
 20
1412.631989112284
 10
903.287427766897
 20
1416.179836682835
 10
901.0205678936133
 20
1419.63980163928
 10
898.6171595715255
 20
1423.006348775777
 10
896.0810477412488
 20
1426.274092335065
 10
893.4162896407038
 20
1429.43780462453
 10
890.6271483143996
 20
1432.4924243794
 10
887.7180857934732
 20
1435.433064859683
 10
884.6937559573918
 20
1438.255021667914
 10
881.5589970887362
 20
1440.953780275185
 10
878.3188241329844
 20
1443.52502324343
 10
874.9784206756647
 20
1445.964637132401
 10
871.5431306497276
 20
1448.2687190803
 10
868.0184497863919
 20
1450.433583047521
 10
864.4100168231474
 20
1452.45576571353
 10
860.723604482977
 20
1454.332032017436
 10
856.9651102392324
 20
1456.059380333403
 10
853.1405468809339
 20
1457.635047272606
 10
849.2560328935921
 20
1459.056512104067
 10
845.3177826709341
 20
1460.321500787286
 10
841.332096573201
 20
1461.427989610218
 10
837.305350847915
 20
1462.374208426785
 10
833.2439874292433
 20
1463.158643488731
 10
829.1545036322776
 20
1463.780039867294
 10
825.0434417587163
 20
1464.237403460824
 10
820.9173786305777
 20
1464.530002585139
 10
816.7829150686864
 20
1464.657369144057
 10
812.6466653327705
 20
1464.619299378254
 10
808.5152465400536
 20
1464.415854191234
 10
804.395268079282
 20
1464.047359051898
 10
800.2933210371113
 20
1463.514403473859
 10
796.2159676537735
 20
1462.817840072351
 10
792.1697308248929
 20
1461.958783200226
 10
788.1610836662446
 20
1460.938607165222
 10
784.1964391581499
 20
1459.75894403137
 10
780.2821398860761
 20
1458.421681008035
 10
776.4244478938527
 20
1456.928957430787
 10
772.6295346657366
 20
1455.28316133892
 10
768.9034712533545
 20
1453.486925655096
 10
765.2522185633151
 20
1451.543123973233
 10
761.6816178210304
 20
1449.454865961365
 10
758.1973812259999
 20
1447.225492386841
 10
754.805082813512
 20
1444.858569771805
 10
751.5101495373747
 20
1442.357884687525
 10
748.3178525879485
 20
1439.727437696684
 10
745.2332989593651
 20
1436.971436953338
 10
742.2614232794277
 20
1434.094291470757
 10
739.4069799152572
 20
1431.100604067959
 10
736.6745353673214
 20
1427.995164006165
 10
734.068460964006
 20
1424.782939327018
 10
731.5929258684239
 20
1421.469068904766
 10
729.2518904086422
 20
1418.058854225163
 10
727.0490997420019
 20
1414.557750904223
 10
724.9880778636658
 20
1410.971359960397
 10
723.0721219689785
 20
1407.30541885414
 10
721.3042971786559
 20
1403.565792309195
 10
719.6874316352468
 20
1399.75846293029
 10
718.2241119787073
 20
1395.889521632244
 10
716.9166792083301
 20
1391.965157895805
 10
716.7519984289614
 20
1391.39587870315
  0
ARC
  5
2F5
330
23E
100
AcDbEntity
  8
P-SANR-FIXT
100
AcDbCircle
 10
815.666407443199
 20
1361.24587873005
 30
0.0
 40
43.44240153902807
100
AcDbArc
 50
0.0000000000002354
 51
179.9999999999996
  0
LWPOLYLINE
  5
2F6
330
23E
100
AcDbEntity
  8
P-SANR-FIXT
100
AcDbPolyline
 90
        6
 70
   128
 43
0.0
 10
749.8977685842204
 20
1361.058890905978
 10
750.1122877755796
 20
1361.058865241548
 10
752.3206408027841
 20
1361.058865241548
 10
756.8405210933867
 20
1361.058865241548
 10
763.5401908413809
 20
1361.058865241548
 10
772.2244084395473
 20
1361.058865241548
  0
ARC
  5
2F7
330
23E
100
AcDbEntity
  8
P-SANR-FIXT
100
AcDbCircle
 10
815.666407443199
 20
1361.24587873005
 30
0.0
 40
43.44240153902821
100
AcDbArc
 50
180.0
 51
180.2466511131712
  0
ARC
  5
2F8
330
23E
100
AcDbEntity
  8
P-SANR-FIXT
100
AcDbCircle
 10
815.666407443199
 20
1361.24587873005
 30
0.0
 40
43.44240153902795
100
AcDbArc
 50
359.7533488868269
 51
0.0000000000000763
  0
LWPOLYLINE
  5
2F9
330
23E
100
AcDbEntity
  8
P-SANR-FIXT
100
AcDbPolyline
 90
        6
 70
   128
 43
0.0
 10
859.1084064468509
 20
1361.058865241547
 10
867.7926240450172
 20
1361.058865241547
 10
874.4922937930111
 20
1361.058865241547
 10
879.0121740836138
 20
1361.058865241547
 10
881.2205271108183
 20
1361.058865241547
 10
881.4350463021776
 20
1361.058890905977
  0
LWPOLYLINE
  5
2FA
330
23E
100
AcDbEntity
  8
P-SANR-FIXT
100
AcDbPolyline
 90
        7
 70
   128
 43
0.0
 10
881.4451178397556
 20
1361.058810528533
 10
891.7692250593185
 20
1361.058865241547
 10
900.9543535730855
 20
1361.058865241547
 10
908.3141126526067
 20
1361.058865241547
 10
913.6123890832431
 20
1361.058865241547
 10
916.6788167711894
 20
1361.058865241547
 10
917.4140890317653
 20
1361.058865241547
  0
LWPOLYLINE
  5
2FB
330
23E
100
AcDbEntity
  8
P-SANR-FIXT
100
AcDbPolyline
 90
        7
 70
   128
 43
0.0
 10
713.9187258546322
 20
1361.058865241548
 10
714.6539981152081
 20
1361.058865241548
 10
717.7204258031546
 20
1361.058865241548
 10
723.0187022337912
 20
1361.058865241548
 10
730.3784613133124
 20
1361.058865241548
 10
739.5635898270795
 20
1361.058865241548
 10
749.8876970466424
 20
1361.058810528534
  0
ARC
  5
2FC
330
23E
100
AcDbEntity
  8
P-SANR-FIXT
100
AcDbCircle
 10
815.6664074431988
 20
1361.24587873005
 30
0.0
 40
101.7478534549659
100
AcDbArc
 50
170.9762997477378
 51
171.1067851277201
  0
LINE
  5
2FD
330
23E
100
AcDbEntity
  8
P-SANR-FIXT
100
AcDbLine
 10
772.2244084395473
 20
1361.058865241548
 30
0.0
 11
822.1827690033691
 21
1361.058865241548
 31
0.0
  0
LINE
  5
2FE
330
23E
100
AcDbEntity
  8
P-SANR-FIXT
100
AcDbLine
 10
833.1500458830285
 20
1361.058865241548
 30
0.0
 11
859.1084064468509
 21
1361.058865241547
 31
0.0
  0
ENDBLK
  5
300
330
23E
100
AcDbEntity
  8
0
100
AcDbBlockEnd
  0
BLOCK
  5
3E7
330
302
100
AcDbEntity
  8
0
100
AcDbBlockBegin
  2
Automatic flow rate regulator valve_Caleffi_121 DN15 - 1_2__-V2-Est - Idraulica
 70
     0
 10
0.0
 20
0.0
 30
0.0
  3
Automatic flow rate regulator valve_Caleffi_121 DN15 - 1_2__-V2-Est - Idraulica
  1

  0
LINE
  5
303
330
302
100
AcDbEntity
  8
P-SANR-FIXT
100
AcDbLine
 10
1303.609317835696
 20
1676.282558849944
 30
0.0
 11
1303.609317835696
 21
1678.982558849996
 31
0.0
  0
LINE
  5
304
330
302
100
AcDbEntity
  8
P-SANR-FIXT
100
AcDbLine
 10
1306.753775360905
 20
1662.763137432142
 30
0.0
 11
1306.753775360905
 21
1676.282558849944
 31
0.0
  0
LINE
  5
305
330
302
100
AcDbEntity
  8
P-SANR-FIXT
100
AcDbLine
 10
1307.534353943103
 20
1652.482558849928
 30
0.0
 11
1307.534353943103
 21
1662.763137432142
 31
0.0
  0
LINE
  5
306
330
302
100
AcDbEntity
  8
P-SANR-FIXT
100
AcDbLine
 10
1306.614353943101
 20
1650.982558849928
 30
0.0
 11
1306.614353943101
 21
1652.482558849928
 31
0.0
  0
LINE
  5
307
330
302
100
AcDbEntity
  8
P-SANR-FIXT
100
AcDbLine
 10
1303.864353943103
 20
1647.982558849928
 30
0.0
 11
1303.864353943103
 21
1650.982558849928
 31
0.0
  0
LINE
  5
308
330
302
100
AcDbEntity
  8
P-SANR-FIXT
100
AcDbLine
 10
1305.564353943102
 20
1645.982558849957
 30
0.0
 11
1305.564353943102
 21
1647.982558849928
 31
0.0
  0
LINE
  5
309
330
302
100
AcDbEntity
  8
P-SANR-FIXT
100
AcDbLine
 10
1306.91435394309
 20
1636.982558849957
 30
0.0
 11
1306.91435394309
 21
1645.982558849957
 31
0.0
  0
LINE
  5
30A
330
302
100
AcDbEntity
  8
P-SANR-FIXT
100
AcDbLine
 10
1284.614353943106
 20
1626.928325805801
 30
0.0
 11
1284.614353943106
 21
1614.982558849956
 31
0.0
  0
LINE
  5
30B
330
302
100
AcDbEntity
  8
P-SANR-FIXT
100
AcDbLine
 10
1299.614353943102
 20
1614.982558849956
 30
0.0
 11
1299.614353943102
 21
1636.982558849957
 31
0.0
  0
LINE
  5
30C
330
302
100
AcDbEntity
  8
P-SANR-FIXT
100
AcDbLine
 10
1284.614353943106
 20
1614.982558849956
 30
0.0
 11
1285.614353943106
 21
1613.982558849956
 31
0.0
  0
LINE
  5
30D
330
302
100
AcDbEntity
  8
P-SANR-FIXT
100
AcDbLine
 10
1298.614353943103
 20
1613.982558849956
 30
0.0
 11
1299.614353943103
 21
1614.982558849956
 31
0.0
  0
LINE
  5
30E
330
302
100
AcDbEntity
  8
P-SANR-FIXT
100
AcDbLine
 10
1292.114353943102
 20
1613.982558849956
 30
0.0
 11
1285.614353943104
 21
1613.982558849956
 31
0.0
  0
LINE
  5
30F
330
302
100
AcDbEntity
  8
P-SANR-FIXT
100
AcDbLine
 10
1298.6143539431
 20
1613.982558849956
 30
0.0
 11
1292.114353943102
 21
1613.982558849956
 31
0.0
  0
LINE
  5
310
330
302
100
AcDbEntity
  8
P-SANR-FIXT
100
AcDbLine
 10
1292.301663073609
 20
1676.282558849944
 30
0.0
 11
1306.753775360903
 21
1676.282558849944
 31
0.0
  0
LINE
  5
311
330
302
100
AcDbEntity
  8
P-SANR-FIXT
100
AcDbLine
 10
1292.299566289938
 20
1662.763137432141
 30
0.0
 11
1307.533549952363
 21
1662.763137432141
 31
0.0
  0
LINE
  5
312
330
302
100
AcDbEntity
  8
P-SANR-FIXT
100
AcDbLine
 10
1292.301663577962
 20
1652.482558849927
 30
0.0
 11
1307.5343539431
 21
1652.482558849927
 31
0.0
  0
LINE
  5
313
330
302
100
AcDbEntity
  8
P-SANR-FIXT
100
AcDbLine
 10
1292.301662974849
 20
1650.982558849927
 30
0.0
 11
1306.614353943099
 21
1650.982558849927
 31
0.0
  0
LINE
  5
314
330
302
100
AcDbEntity
  8
P-SANR-FIXT
100
AcDbLine
 10
1292.301662129679
 20
1647.982558849928
 30
0.0
 11
1305.564353943101
 21
1647.982558849928
 31
0.0
  0
LINE
  5
315
330
302
100
AcDbEntity
  8
P-SANR-FIXT
100
AcDbLine
 10
1292.301663183915
 20
1645.982558849956
 30
0.0
 11
1306.914353943087
 21
1645.982558849956
 31
0.0
  0
LINE
  5
316
330
302
100
AcDbEntity
  8
P-SANR-FIXT
100
AcDbLine
 10
1292.301663183915
 20
1636.982558849956
 30
0.0
 11
1306.914353943087
 21
1636.982558849956
 31
0.0
  0
LINE
  5
317
330
302
100
AcDbEntity
  8
P-SANR-FIXT
100
AcDbLine
 10
1284.614353943104
 20
1614.982558849956
 30
0.0
 11
1292.114353943102
 21
1614.982558849956
 31
0.0
  0
LINE
  5
318
330
302
100
AcDbEntity
  8
P-SANR-FIXT
100
AcDbLine
 10
1292.114353943102
 20
1614.982558849956
 30
0.0
 11
1299.6143539431
 21
1614.982558849956
 31
0.0
  0
LINE
  5
319
330
302
100
AcDbEntity
  8
P-SANR-FIXT
100
AcDbLine
 10
1286.614353943105
 20
2333.98255885019
 30
0.0
 11
1286.614353943105
 21
2325.982558850034
 31
0.0
  0
LINE
  5
31A
330
302
100
AcDbEntity
  8
P-SANR-FIXT
100
AcDbLine
 10
1297.614353943104
 20
2322.48255885019
 30
0.0
 11
1297.614353943104
 21
2333.98255885019
 31
0.0
  0
LINE
  5
31B
330
302
100
AcDbEntity
  8
P-SANR-FIXT
100
AcDbLine
 10
1295.114353943105
 20
2318.982558850097
 30
0.0
 11
1295.114353943105
 21
2322.48255885019
 31
0.0
  0
LINE
  5
31C
330
302
100
AcDbEntity
  8
P-SANR-FIXT
100
AcDbLine
 10
1299.364353943105
 20
2315.982558850034
 30
0.0
 11
1299.364353943105
 21
2318.982558850097
 31
0.0
  0
LWPOLYLINE
  5
31D
330
302
100
AcDbEntity
  8
P-SANR-FIXT
100
AcDbPolyline
 90
       31
 70
   128
 43
0.0
 10
1319.762994094016
 20
2256.31052462314
 10
1319.770722134103
 20
2256.258601105201
 10
1319.780520379492
 20
2256.207028159715
 10
1319.792373155083
 20
2256.155888292394
 10
1319.806261498961
 20
2256.105263316117
 10
1319.822163192741
 20
2256.055234220045
 10
1319.840052797103
 20
2256.005881040061
 10
1319.859901692498
 20
2255.957282730724
 10
1319.881678124926
 20
2255.909517038963
 10
1319.905347256742
 20
2255.862660379694
 10
1319.930871222383
 20
2255.816787713575
 10
1319.958209188949
 20
2255.77197242709
 10
1319.987317421526
 20
2255.728286215134
 10
1320.018149353151
 20
2255.685798966329
 10
1320.050655659311
 20
2255.644578651208
 10
1320.084784336849
 20
2255.604691213482
 10
1320.120480787162
 20
2255.566200464544
 10
1320.157687903545
 20
2255.529167981381
 10
1320.196346162548
 20
2255.493653008065
 10
1320.236393719205
 20
2255.459712360979
 10
1320.277766505966
 20
2255.427400337916
 10
1320.320398335199
 20
2255.396768631221
 10
1320.364221005071
 20
2255.367866245091
 10
1320.40916440866
 20
2255.340739417177
 10
1320.455156646106
 20
2255.315431544618
 10
1320.502124139642
 20
2255.291983114611
 10
1320.549991751295
 20
2255.270431639641
 10
1320.5986829031
 20
2255.250811597472
 10
1320.6481196996
 20
2255.233154375986
 10
1320.698223052466
 20
2255.217488222969
 10
1320.725079651517
 20
2255.209985346342
  0
LINE
  5
31E
330
302
100
AcDbEntity
  8
P-SANR-FIXT
100
AcDbLine
 10
1330.373172988188
 20
2252.624786528281
 30
0.0
 11
1320.725079651517
 21
2255.209985346342
 31
0.0
  0
LWPOLYLINE
  5
31F
330
302
100
AcDbEntity
  8
P-SANR-FIXT
100
AcDbPolyline
 90
       34
 70
   128
 43
0.0
 10
1330.373172988188
 20
2252.624786528281
 10
1330.411592691225
 20
2252.613663889357
 10
1330.449536875673
 20
2252.601013769016
 10
1330.486944838929
 20
2252.586856404748
 10
1330.523756736235
 20
2252.571214445318
 10
1330.559913676406
 20
2252.554112914523
 10
1330.595357816051
 20
2252.535579171166
 10
1330.630032452109
 20
2252.515642865281
 10
1330.663882112558
 20
2252.494335890706
 10
1330.696852645161
 20
2252.471692334053
 10
1330.728891304101
 20
2252.447748420184
 10
1330.759946834358
 20
2252.422542454254
 10
1330.789969553708
 20
2252.39611476043
 10
1330.818911432205
 20
2252.368507617385
 10
1330.846726169017
 20
2252.339765190657
 10
1330.873369266498
 20
2252.309933462001
 10
1330.898798101376
 20
2252.279060155816
 10
1330.922971992941
 20
2252.247194662807
 10
1330.945852268121
 20
2252.214387960966
 10
1330.967402323358
 20
2252.180692534016
 10
1330.987587683161
 20
2252.146162287454
 10
1331.00637605526
 20
2252.110852462307
 10
1331.023737382267
 20
2252.074819546763
 10
1331.039643889763
 20
2252.0381211858
 10
1331.054070130728
 20
2252.000816088968
 10
1331.066993026256
 20
2251.962963936463
 10
1331.078391902469
 20
2251.924625283656
 10
1331.088248523598
 20
2251.885861464211
 10
1331.096547121151
 20
2251.846734491971
 10
1331.103274419143
 20
2251.807306961744
 10
1331.108419655331
 20
2251.767641949168
 10
1331.111974598436
 20
2251.727802909803
 10
1331.113933561307
 20
2251.687853577612
 10
1331.114353943086
 20
2251.658860701991
  0
LINE
  5
320
330
302
100
AcDbEntity
  8
P-SANR-FIXT
100
AcDbLine
 10
1331.114353943086
 20
2249.982558850048
 30
0.0
 11
1331.114353943086
 21
2251.658860701991
 31
0.0
  0
LINE
  5
321
330
302
100
AcDbEntity
  8
P-SANR-FIXT
100
AcDbLine
 10
1319.614353943105
 20
2306.482558850112
 30
0.0
 11
1319.614353943105
 21
2315.982558850034
 31
0.0
  0
LINE
  5
322
330
302
100
AcDbEntity
  8
P-SANR-FIXT
100
AcDbLine
 10
1317.867353943104
 20
2267.982558850027
 30
0.0
 11
1317.867353943104
 21
2306.482558850112
 31
0.0
  0
LINE
  5
323
330
302
100
AcDbEntity
  8
P-SANR-FIXT
100
AcDbLine
 10
1286.614353943102
 20
2333.982558850189
 30
0.0
 11
1292.114353943102
 21
2333.982558850189
 31
0.0
  0
LINE
  5
324
330
302
100
AcDbEntity
  8
P-SANR-FIXT
100
AcDbLine
 10
1292.114353943102
 20
2333.982558850189
 30
0.0
 11
1297.614353943102
 21
2333.982558850189
 31
0.0
  0
LINE
  5
325
330
302
100
AcDbEntity
  8
P-SANR-FIXT
100
AcDbLine
 10
1292.302283688208
 20
2322.482558850189
 30
0.0
 11
1297.614353943102
 21
2322.482558850189
 31
0.0
  0
LINE
  5
326
330
302
100
AcDbEntity
  8
P-SANR-FIXT
100
AcDbLine
 10
1292.30229921908
 20
2318.982558850096
 30
0.0
 11
1299.364353943102
 21
2318.982558850096
 31
0.0
  0
LINE
  5
327
330
302
100
AcDbEntity
  8
P-SANR-FIXT
100
AcDbLine
 10
1292.301558405191
 20
2256.310524623139
 30
0.0
 11
1319.762994094014
 21
2256.310524623139
 31
0.0
  0
LINE
  5
328
330
302
100
AcDbEntity
  8
P-SANR-FIXT
100
AcDbLine
 10
1292.301558389687
 20
2315.982558850032
 30
0.0
 11
1319.614353943103
 21
2315.982558850032
 31
0.0
  0
LINE
  5
329
330
302
100
AcDbEntity
  8
P-SANR-FIXT
100
AcDbLine
 10
1292.301558389687
 20
2306.482558850111
 30
0.0
 11
1319.614353943103
 21
2306.482558850111
 31
0.0
  0
LINE
  5
32A
330
302
100
AcDbEntity
  8
P-SANR-FIXT
100
AcDbLine
 10
1292.301367431603
 20
2267.982558850026
 30
0.0
 11
1302.083900477656
 21
2267.982558850026
 31
0.0
  0
LINE
  5
32B
330
302
100
AcDbEntity
  8
P-SANR-FIXT
100
AcDbLine
 10
1302.083900477656
 20
2267.982558850026
 30
0.0
 11
1303.272819598706
 21
2267.982558850026
 31
0.0
  0
LINE
  5
32C
330
302
100
AcDbEntity
  8
P-SANR-FIXT
100
AcDbLine
 10
1303.272819598706
 20
2267.982558850026
 30
0.0
 11
1310.268362350421
 21
2267.982558850026
 31
0.0
  0
LINE
  5
32D
330
302
100
AcDbEntity
  8
P-SANR-FIXT
100
AcDbLine
 10
1310.324474878999
 20
2267.982558850026
 30
0.0
 11
1317.371887518589
 21
2267.982558850026
 31
0.0
  0
LINE
  5
32E
330
302
100
AcDbEntity
  8
P-SANR-FIXT
100
AcDbLine
 10
1317.371887518589
 20
2267.982558850026
 30
0.0
 11
1317.864353943093
 21
2267.982558850026
 31
0.0
  0
LINE
  5
32F
330
302
100
AcDbEntity
  8
P-SANR-FIXT
100
AcDbLine
 10
1303.272819598706
 20
2256.31052462314
 30
0.0
 11
1302.69509708674
 21
2256.31052462314
 31
0.0
  0
LINE
  5
330
330
302
100
AcDbEntity
  8
P-SANR-FIXT
100
AcDbLine
 10
1302.681229336125
 20
2256.31052462314
 30
0.0
 11
1302.083900477656
 21
2256.31052462314
 31
0.0
  0
LINE
  5
331
330
302
100
AcDbEntity
  8
P-SANR-FIXT
100
AcDbLine
 10
1302.083900477656
 20
2256.31052462314
 30
0.0
 11
1302.083900477656
 21
2267.982558850026
 31
0.0
  0
LINE
  5
332
330
302
100
AcDbEntity
  8
P-SANR-FIXT
100
AcDbLine
 10
1303.272819598706
 20
2256.31052462314
 30
0.0
 11
1303.272819598706
 21
2267.982558850026
 31
0.0
  0
LINE
  5
333
330
302
100
AcDbEntity
  8
P-SANR-FIXT
100
AcDbLine
 10
1317.371887518589
 20
2256.31052462314
 30
0.0
 11
1317.371887518589
 21
2267.982558850026
 31
0.0
  0
LINE
  5
334
330
302
100
AcDbEntity
  8
P-SANR-FIXT
100
AcDbLine
 10
1317.864353943093
 20
2256.31052462314
 30
0.0
 11
1317.864353943093
 21
2267.982558850026
 31
0.0
  0
ARC
  5
335
330
302
100
AcDbEntity
  8
P-SANR-FIXT
100
AcDbCircle
 10
1292.114353943101
 20
1849.982558850012
 30
0.0
 40
36.59999999999915
100
AcDbArc
 50
55.62560455273727
 51
64.3743954472623
  0
LINE
  5
336
330
302
100
AcDbEntity
  8
P-SANR-FIXT
100
AcDbLine
 10
1307.943441093046
 20
1882.982558850003
 30
0.0
 11
1276.285266793155
 21
1882.982558850003
 31
0.0
  0
ARC
  5
337
330
302
100
AcDbEntity
  8
P-SANR-FIXT
100
AcDbCircle
 10
1292.114353943101
 20
1849.982558850012
 30
0.0
 40
36.59999999999929
100
AcDbArc
 50
115.6256045527373
 51
124.3743954472624
  0
LINE
  5
338
330
302
100
AcDbEntity
  8
P-SANR-FIXT
100
AcDbLine
 10
1271.450059193195
 20
1880.190950440578
 30
0.0
 11
1255.62097204325
 21
1852.774167259437
 31
0.0
  0
ARC
  5
339
330
302
100
AcDbEntity
  8
P-SANR-FIXT
100
AcDbCircle
 10
1292.114353943101
 20
1849.982558850012
 30
0.0
 40
36.59999999999936
100
AcDbArc
 50
175.6256045527372
 51
184.3743954472617
  0
LINE
  5
33A
330
302
100
AcDbEntity
  8
P-SANR-FIXT
100
AcDbLine
 10
1255.62097204325
 20
1847.190950440588
 30
0.0
 11
1271.450059193196
 21
1819.774167259447
 31
0.0
  0
ARC
  5
33B
330
302
100
AcDbEntity
  8
P-SANR-FIXT
100
AcDbCircle
 10
1292.114353943101
 20
1849.982558850012
 30
0.0
 40
36.59999999999897
100
AcDbArc
 50
235.6256045527371
 51
244.3743954472621
  0
LINE
  5
33C
330
302
100
AcDbEntity
  8
P-SANR-FIXT
100
AcDbLine
 10
1276.285266793156
 20
1816.982558850022
 30
0.0
 11
1307.943441093047
 21
1816.982558850023
 31
0.0
  0
ARC
  5
33D
330
302
100
AcDbEntity
  8
P-SANR-FIXT
100
AcDbCircle
 10
1292.114353943101
 20
1849.982558850012
 30
0.0
 40
36.59999999999867
100
AcDbArc
 50
295.6256045527375
 51
304.3743954472621
  0
LINE
  5
33E
330
302
100
AcDbEntity
  8
P-SANR-FIXT
100
AcDbLine
 10
1312.778648693007
 20
1819.774167259447
 30
0.0
 11
1328.607735842951
 21
1847.190950440588
 31
0.0
  0
ARC
  5
33F
330
302
100
AcDbEntity
  8
P-SANR-FIXT
100
AcDbCircle
 10
1292.114353943101
 20
1849.982558850012
 30
0.0
 40
36.59999999999886
100
AcDbArc
 50
355.6256045527376
 51
4.374395447262031
  0
LINE
  5
340
330
302
100
AcDbEntity
  8
P-SANR-FIXT
100
AcDbLine
 10
1328.607735842951
 20
1852.774167259437
 30
0.0
 11
1312.778648693006
 21
1880.190950440578
 31
0.0
  0
ARC
  5
341
330
302
100
AcDbEntity
  8
P-SANR-FIXT
100
AcDbCircle
 10
1292.114353943101
 20
1849.982558850012
 30
0.0
 40
25.40000000000035
100
AcDbArc
 50
90.00000000000078
 51
269.9999999999999
  0
ARC
  5
342
330
302
100
AcDbEntity
  8
P-SANR-FIXT
100
AcDbCircle
 10
1292.114353943101
 20
1849.982558850012
 30
0.0
 40
25.39999999999987
100
AcDbArc
 50
269.9999999999997
 51
89.99999999999948
  0
ARC
  5
343
330
302
100
AcDbEntity
  8
P-SANR-FIXT
100
AcDbCircle
 10
1292.114353943103
 20
1849.982558850011
 30
0.0
 40
36.59999999999949
100
AcDbArc
 50
4.374395447265201
 51
55.62560455274179
  0
ARC
  5
344
330
302
100
AcDbEntity
  8
P-SANR-FIXT
100
AcDbCircle
 10
1292.114353943103
 20
1849.982558850011
 30
0.0
 40
36.59999999999985
100
AcDbArc
 50
304.3743954472617
 51
355.6256045527401
  0
ARC
  5
345
330
302
100
AcDbEntity
  8
P-SANR-FIXT
100
AcDbCircle
 10
1292.114353943103
 20
1849.982558850011
 30
0.0
 40
36.59999999999945
100
AcDbArc
 50
244.3743954472584
 51
295.6256045527362
  0
ARC
  5
346
330
302
100
AcDbEntity
  8
P-SANR-FIXT
100
AcDbCircle
 10
1292.114353943103
 20
1849.982558850011
 30
0.0
 40
36.59999999999965
100
AcDbArc
 50
184.3743954472591
 51
235.6256045527334
  0
ARC
  5
347
330
302
100
AcDbEntity
  8
P-SANR-FIXT
100
AcDbCircle
 10
1292.114353943103
 20
1849.982558850011
 30
0.0
 40
36.59999999999954
100
AcDbArc
 50
124.3743954472633
 51
175.6256045527348
  0
ARC
  5
348
330
302
100
AcDbEntity
  8
P-SANR-FIXT
100
AcDbCircle
 10
1292.114353943103
 20
1849.982558850011
 30
0.0
 40
36.59999999999963
100
AcDbArc
 50
64.37439544726649
 51
115.6256045527386
  0
ARC
  5
349
330
302
100
AcDbEntity
  8
P-SANR-FIXT
100
AcDbCircle
 10
1292.114353943101
 20
1849.982558850011
 30
0.0
 40
44.99999999999352
100
AcDbArc
 50
90.00000000000017
 51
119.9999999999798
  0
ARC
  5
34A
330
302
100
AcDbEntity
  8
P-SANR-FIXT
100
AcDbCircle
 10
1292.114353943101
 20
1849.982558850011
 30
0.0
 40
44.99999999999359
100
AcDbArc
 50
119.9999999999796
 51
179.9999999999797
  0
ARC
  5
34B
330
302
100
AcDbEntity
  8
P-SANR-FIXT
100
AcDbCircle
 10
1292.114353943101
 20
1849.982558850011
 30
0.0
 40
44.99999999999352
100
AcDbArc
 50
179.9999999999799
 51
239.9999999999796
  0
ARC
  5
34C
330
302
100
AcDbEntity
  8
P-SANR-FIXT
100
AcDbCircle
 10
1292.114353943101
 20
1849.982558850011
 30
0.0
 40
44.99999999999324
100
AcDbArc
 50
239.9999999999796
 51
269.9999999999997
  0
ARC
  5
34D
330
302
100
AcDbEntity
  8
P-SANR-FIXT
100
AcDbCircle
 10
1292.114353943101
 20
1849.982558850011
 30
0.0
 40
44.99999999999363
100
AcDbArc
 50
269.9999999999997
 51
299.9999999999798
  0
ARC
  5
34E
330
302
100
AcDbEntity
  8
P-SANR-FIXT
100
AcDbCircle
 10
1292.114353943101
 20
1849.982558850011
 30
0.0
 40
44.99999999999339
100
AcDbArc
 50
299.9999999999794
 51
359.9999999999797
  0
ARC
  5
34F
330
302
100
AcDbEntity
  8
P-SANR-FIXT
100
AcDbCircle
 10
1292.114353943101
 20
1849.982558850011
 30
0.0
 40
44.99999999999363
100
AcDbArc
 50
359.9999999999797
 51
59.99999999997989
  0
ARC
  5
350
330
302
100
AcDbEntity
  8
P-SANR-FIXT
100
AcDbCircle
 10
1292.114353943101
 20
1849.982558850011
 30
0.0
 40
44.99999999999336
100
AcDbArc
 50
59.99999999997966
 51
89.99999999999943
  0
SPLINE
  5
351
330
302
100
AcDbEntity
  8
P-SANR-FIXT
100
AcDbSpline
210
0.0
220
0.0
230
1.0
 70
     8
 71
     3
 72
     9
 73
     5
 74
     0
 42
0.000000001
 43
0.0000000001
 40
0.0
 40
0.0
 40
0.0
 40
0.0
 40
0.5
 40
1.0
 40
1.0
 40
1.0
 40
1.0
 10
1291.614353943101
 20
1901.65540794246
 30
0.0
 10
1291.68871630027
 20
1901.698341069389
 30
0.0
 10
1291.849811661339
 20
1901.765663463626
 30
0.0
 10
1292.025687271759
 20
1901.789382538675
 30
0.0
 10
1292.114353943101
 20
1901.789382538675
 30
0.0
  0
SPLINE
  5
352
330
302
100
AcDbEntity
  8
P-SANR-FIXT
100
AcDbSpline
210
0.0
220
0.0
230
1.0
 70
     8
 71
     3
 72
     9
 73
     5
 74
     0
 42
0.000000001
 43
0.0000000001
 40
0.0
 40
0.0
 40
0.0
 40
0.0
 40
0.5
 40
1.0
 40
1.0
 40
1.0
 40
1.0
 10
1292.114353943101
 20
1901.789382538675
 30
0.0
 10
1292.203020614444
 20
1901.789382538675
 30
0.0
 10
1292.378896224864
 20
1901.765663463626
 30
0.0
 10
1292.539991585933
 20
1901.698341069388
 30
0.0
 10
1292.614353943102
 20
1901.65540794246
 30
0.0
  0
SPLINE
  5
353
330
302
100
AcDbEntity
  8
P-SANR-FIXT
100
AcDbSpline
210
0.0
220
0.0
230
1.0
 70
    24
 71
     3
 72
     9
 73
     5
 74
     0
 42
0.000000001
 43
0.0000000001
 40
0.0
 40
0.0
 40
0.0
 40
0.0
 40
0.5
 40
1.0
 40
1.0
 40
1.0
 40
1.0
 10
1292.614353943102
 20
1901.65540794246
 30
0.0
 10
1296.209080773686
 20
1899.579991439157
 30
0.0
 10
1303.470474270937
 20
1895.387623948824
 30
0.0
 10
1310.875747440352
 20
1891.112187491036
 30
0.0
 10
1314.6143539431
 20
1888.953702020279
 30
0.0
  0
SPLINE
  5
354
330
302
100
AcDbEntity
  8
P-SANR-FIXT
100
AcDbSpline
210
0.0
220
0.0
230
1.0
 70
    24
 71
     3
 72
     9
 73
     5
 74
     0
 42
0.000000001
 43
0.0000000001
 40
0.0
 40
0.0
 40
0.0
 40
0.0
 40
0.5
 40
1.0
 40
1.0
 40
1.0
 40
1.0
 10
1314.6143539431
 20
1888.953702020279
 30
0.0
 10
1318.352960445844
 20
1886.795216549523
 30
0.0
 10
1325.758233615249
 20
1882.519780091741
 30
0.0
 10
1333.01962711249
 20
1878.327412601414
 30
0.0
 10
1336.61435394307
 20
1876.251996098114
 30
0.0
  0
SPLINE
  5
355
330
302
100
AcDbEntity
  8
P-SANR-FIXT
100
AcDbSpline
210
0.0
220
0.0
230
1.0
 70
     8
 71
     3
 72
    11
 73
     7
 74
     0
 42
0.000000001
 43
0.0000000001
 40
0.0
 40
0.0
 40
0.0
 40
0.0
 40
0.25
 40
0.5
 40
0.75
 40
1.0
 40
1.0
 40
1.0
 40
1.0
 10
1336.61435394307
 20
1876.251996098114
 30
0.0
 10
1336.688535849028
 20
1876.20916715474
 30
0.0
 10
1336.827220153329
 20
1876.103688590369
 30
0.0
 10
1336.991056535121
 20
1875.891415730231
 30
0.0
 10
1337.092566469114
 20
1875.64346262084
 30
0.0
 10
1337.11435394307
 20
1875.471221281905
 30
0.0
 10
1337.11435394307
 20
1875.385970694329
 30
0.0
  0
SPLINE
  5
356
330
302
100
AcDbEntity
  8
P-SANR-FIXT
100
AcDbSpline
210
0.0
220
0.0
230
1.0
 70
    24
 71
     3
 72
     9
 73
     5
 74
     0
 42
0.000000001
 43
0.0000000001
 40
0.0
 40
0.0
 40
0.0
 40
0.0
 40
0.5
 40
1.0
 40
1.0
 40
1.0
 40
1.0
 10
1337.11435394307
 20
1875.385970694329
 30
0.0
 10
1337.114353943068
 20
1871.235137687729
 30
0.0
 10
1337.114353943065
 20
1862.850402707073
 30
0.0
 10
1337.114353943063
 20
1854.299529791507
 30
0.0
 10
1337.114353943061
 20
1849.982558849996
 30
0.0
  0
SPLINE
  5
357
330
302
100
AcDbEntity
  8
P-SANR-FIXT
100
AcDbSpline
210
0.0
220
0.0
230
1.0
 70
    24
 71
     3
 72
     9
 73
     5
 74
     0
 42
0.000000001
 43
0.0000000001
 40
0.0
 40
0.0
 40
0.0
 40
0.0
 40
0.5
 40
1.0
 40
1.0
 40
1.0
 40
1.0
 10
1337.114353943061
 20
1849.982558849996
 30
0.0
 10
1337.11435394306
 20
1845.665587908486
 30
0.0
 10
1337.114353943057
 20
1837.114714992922
 30
0.0
 10
1337.114353943054
 20
1828.729980012268
 30
0.0
 10
1337.114353943052
 20
1824.579147005669
 30
0.0
  0
SPLINE
  5
358
330
302
100
AcDbEntity
  8
P-SANR-FIXT
100
AcDbSpline
210
0.0
220
0.0
230
1.0
 70
     8
 71
     3
 72
    11
 73
     7
 74
     0
 42
0.000000001
 43
0.0000000001
 40
0.0
 40
0.0
 40
0.0
 40
0.0
 40
0.25
 40
0.5
 40
0.75
 40
1.0
 40
1.0
 40
1.0
 40
1.0
 10
1337.114353943052
 20
1824.579147005669
 30
0.0
 10
1337.114353943052
 20
1824.493489118921
 30
0.0
 10
1337.092348978903
 20
1824.320645706105
 30
0.0
 10
1336.990433480386
 20
1824.07262280734
 30
0.0
 10
1336.826454755702
 20
1823.86073607107
 30
0.0
 10
1336.68818311758
 20
1823.755746895672
 30
0.0
 10
1336.614353943052
 20
1823.713121601884
 30
0.0
  0
SPLINE
  5
359
330
302
100
AcDbEntity
  8
P-SANR-FIXT
100
AcDbSpline
210
0.0
220
0.0
230
1.0
 70
    24
 71
     3
 72
     9
 73
     5
 74
     0
 42
0.000000001
 43
0.0000000001
 40
0.0
 40
0.0
 40
0.0
 40
0.0
 40
0.5
 40
1.0
 40
1.0
 40
1.0
 40
1.0
 10
1336.614353943052
 20
1823.713121601884
 30
0.0
 10
1333.019627112471
 20
1821.637705098586
 30
0.0
 10
1325.758233615225
 20
1817.445337608264
 30
0.0
 10
1318.352960445816
 20
1813.169901150486
 30
0.0
 10
1314.614353943071
 20
1811.011415679734
 30
0.0
  0
SPLINE
  5
35A
330
302
100
AcDbEntity
  8
P-SANR-FIXT
100
AcDbSpline
210
0.0
220
0.0
230
1.0
 70
    24
 71
     3
 72
     9
 73
     5
 74
     0
 42
0.000000001
 43
0.0000000001
 40
0.0
 40
0.0
 40
0.0
 40
0.0
 40
0.5
 40
1.0
 40
1.0
 40
1.0
 40
1.0
 10
1314.614353943071
 20
1811.011415679734
 30
0.0
 10
1310.875747440321
 20
1808.852930208979
 30
0.0
 10
1303.470474270904
 20
1804.577493751196
 30
0.0
 10
1296.209080773651
 20
1800.385126260868
 30
0.0
 10
1292.614353943066
 20
1798.309709757569
 30
0.0
  0
SPLINE
  5
35B
330
302
100
AcDbEntity
  8
P-SANR-FIXT
100
AcDbSpline
210
0.0
220
0.0
230
1.0
 70
     8
 71
     3
 72
     9
 73
     5
 74
     0
 42
0.000000001
 43
0.0000000001
 40
0.0
 40
0.0
 40
0.0
 40
0.0
 40
0.5
 40
1.0
 40
1.0
 40
1.0
 40
1.0
 10
1292.614353943066
 20
1798.309709757569
 30
0.0
 10
1292.539991585903
 20
1798.266776630643
 30
0.0
 10
1292.378896224845
 20
1798.199454236409
 30
0.0
 10
1292.203020614437
 20
1798.175735161357
 30
0.0
 10
1292.114353943101
 20
1798.175735161353
 30
0.0
  0
SPLINE
  5
35C
330
302
100
AcDbEntity
  8
P-SANR-FIXT
100
AcDbSpline
210
0.0
220
0.0
230
1.0
 70
     8
 71
     3
 72
     9
 73
     5
 74
     0
 42
0.000000001
 43
0.0000000001
 40
0.0
 40
0.0
 40
0.0
 40
0.0
 40
0.5
 40
1.0
 40
1.0
 40
1.0
 40
1.0
 10
1292.114353943101
 20
1798.175735161353
 30
0.0
 10
1292.025687271753
 20
1798.17573516135
 30
0.0
 10
1291.84981166132
 20
1798.199454236397
 30
0.0
 10
1291.688716300239
 20
1798.266776630638
 30
0.0
 10
1291.614353943066
 20
1798.309709757569
 30
0.0
  0
SPLINE
  5
35D
330
302
100
AcDbEntity
  8
P-SANR-FIXT
100
AcDbSpline
210
0.0
220
0.0
230
1.0
 70
    24
 71
     3
 72
     9
 73
     5
 74
     0
 42
0.000000001
 43
0.0000000001
 40
0.0
 40
0.0
 40
0.0
 40
0.0
 40
0.5
 40
1.0
 40
1.0
 40
1.0
 40
1.0
 10
1291.614353943066
 20
1798.309709757569
 30
0.0
 10
1288.019627112486
 20
1800.385126260869
 30
0.0
 10
1280.758233615244
 20
1804.577493751197
 30
0.0
 10
1273.352960445839
 20
1808.852930208979
 30
0.0
 10
1269.614353943096
 20
1811.011415679734
 30
0.0
  0
SPLINE
  5
35E
330
302
100
AcDbEntity
  8
P-SANR-FIXT
100
AcDbSpline
210
0.0
220
0.0
230
1.0
 70
    24
 71
     3
 72
     9
 73
     5
 74
     0
 42
0.000000001
 43
0.0000000001
 40
0.0
 40
0.0
 40
0.0
 40
0.0
 40
0.5
 40
1.0
 40
1.0
 40
1.0
 40
1.0
 10
1269.614353943096
 20
1811.011415679734
 30
0.0
 10
1265.875747440348
 20
1813.169901150491
 30
0.0
 10
1258.470474270933
 20
1817.445337608279
 30
0.0
 10
1251.209080773682
 20
1821.637705098612
 30
0.0
 10
1247.614353943097
 20
1823.713121601915
 30
0.0
  0
SPLINE
  5
35F
330
302
100
AcDbEntity
  8
P-SANR-FIXT
100
AcDbSpline
210
0.0
220
0.0
230
1.0
 70
     8
 71
     3
 72
    11
 73
     7
 74
     0
 42
0.000000001
 43
0.0000000001
 40
0.0
 40
0.0
 40
0.0
 40
0.0
 40
0.25
 40
0.5
 40
0.75
 40
1.0
 40
1.0
 40
1.0
 40
1.0
 10
1247.614353943097
 20
1823.713121601915
 30
0.0
 10
1247.54017203714
 20
1823.755950545288
 30
0.0
 10
1247.401487732839
 20
1823.861429109659
 30
0.0
 10
1247.237651351047
 20
1824.073701969797
 30
0.0
 10
1247.136141417053
 20
1824.321655079189
 30
0.0
 10
1247.114353943097
 20
1824.493896418124
 30
0.0
 10
1247.114353943097
 20
1824.5791470057
 30
0.0
  0
SPLINE
  5
360
330
302
100
AcDbEntity
  8
P-SANR-FIXT
100
AcDbSpline
210
0.0
220
0.0
230
1.0
 70
    24
 71
     3
 72
     9
 73
     5
 74
     0
 42
0.000000001
 43
0.0000000001
 40
0.0
 40
0.0
 40
0.0
 40
0.0
 40
0.5
 40
1.0
 40
1.0
 40
1.0
 40
1.0
 10
1247.114353943097
 20
1824.5791470057
 30
0.0
 10
1247.114353943099
 20
1828.729980012299
 30
0.0
 10
1247.114353943102
 20
1837.114714992955
 30
0.0
 10
1247.114353943105
 20
1845.665587908518
 30
0.0
 10
1247.114353943106
 20
1849.982558850027
 30
0.0
  0
SPLINE
  5
361
330
302
100
AcDbEntity
  8
P-SANR-FIXT
100
AcDbSpline
210
0.0
220
0.0
230
1.0
 70
    24
 71
     3
 72
     9
 73
     5
 74
     0
 42
0.000000001
 43
0.0000000001
 40
0.0
 40
0.0
 40
0.0
 40
0.0
 40
0.5
 40
1.0
 40
1.0
 40
1.0
 40
1.0
 10
1247.114353943106
 20
1849.982558850027
 30
0.0
 10
1247.114353943107
 20
1854.299529791537
 30
0.0
 10
1247.114353943111
 20
1862.850402707102
 30
0.0
 10
1247.114353943113
 20
1871.235137687759
 30
0.0
 10
1247.114353943115
 20
1875.385970694361
 30
0.0
  0
SPLINE
  5
362
330
302
100
AcDbEntity
  8
P-SANR-FIXT
100
AcDbSpline
210
0.0
220
0.0
230
1.0
 70
     8
 71
     3
 72
    11
 73
     7
 74
     0
 42
0.000000001
 43
0.0000000001
 40
0.0
 40
0.0
 40
0.0
 40
0.0
 40
0.25
 40
0.5
 40
0.75
 40
1.0
 40
1.0
 40
1.0
 40
1.0
 10
1247.114353943115
 20
1875.385970694361
 30
0.0
 10
1247.114353943115
 20
1875.471628581108
 30
0.0
 10
1247.136358907265
 20
1875.644471993924
 30
0.0
 10
1247.238274405781
 20
1875.892494892689
 30
0.0
 10
1247.402253130466
 20
1876.104381628959
 30
0.0
 10
1247.540524768587
 20
1876.209370804357
 30
0.0
 10
1247.614353943115
 20
1876.251996098145
 30
0.0
  0
SPLINE
  5
363
330
302
100
AcDbEntity
  8
P-SANR-FIXT
100
AcDbSpline
210
0.0
220
0.0
230
1.0
 70
    24
 71
     3
 72
     9
 73
     5
 74
     0
 42
0.000000001
 43
0.0000000001
 40
0.0
 40
0.0
 40
0.0
 40
0.0
 40
0.5
 40
1.0
 40
1.0
 40
1.0
 40
1.0
 10
1247.614353943115
 20
1876.251996098145
 30
0.0
 10
1251.209080773701
 20
1878.327412601445
 30
0.0
 10
1258.470474270954
 20
1882.519780091772
 30
0.0
 10
1265.875747440371
 20
1886.795216549555
 30
0.0
 10
1269.614353943121
 20
1888.95370202031
 30
0.0
  0
SPLINE
  5
364
330
302
100
AcDbEntity
  8
P-SANR-FIXT
100
AcDbSpline
210
0.0
220
0.0
230
1.0
 70
    24
 71
     3
 72
     9
 73
     5
 74
     0
 42
0.000000001
 43
0.0000000001
 40
0.0
 40
0.0
 40
0.0
 40
0.0
 40
0.5
 40
1.0
 40
1.0
 40
1.0
 40
1.0
 10
1269.614353943121
 20
1888.95370202031
 30
0.0
 10
1273.352960445866
 20
1891.112187491062
 30
0.0
 10
1280.758233615274
 20
1895.387623948838
 30
0.0
 10
1288.019627112519
 20
1899.579991439162
 30
0.0
 10
1291.614353943101
 20
1901.65540794246
 30
0.0
  0
ARC
  5
365
330
302
100
AcDbEntity
  8
P-SANR-FIXT
100
AcDbCircle
 10
1292.114353943101
 20
2149.982558850011
 30
0.0
 40
36.59999999999915
100
AcDbArc
 50
55.62560455273736
 51
64.37439544726252
  0
LINE
  5
366
330
302
100
AcDbEntity
  8
P-SANR-FIXT
100
AcDbLine
 10
1307.943441093046
 20
2182.982558850002
 30
0.0
 11
1276.285266793155
 21
2182.982558850002
 31
0.0
  0
ARC
  5
367
330
302
100
AcDbEntity
  8
P-SANR-FIXT
100
AcDbCircle
 10
1292.114353943101
 20
2149.982558850011
 30
0.0
 40
36.59999999999929
100
AcDbArc
 50
115.6256045527372
 51
124.374395447262
  0
LINE
  5
368
330
302
100
AcDbEntity
  8
P-SANR-FIXT
100
AcDbLine
 10
1271.450059193195
 20
2180.190950440577
 30
0.0
 11
1255.62097204325
 21
2152.774167259436
 31
0.0
  0
ARC
  5
369
330
302
100
AcDbEntity
  8
P-SANR-FIXT
100
AcDbCircle
 10
1292.114353943101
 20
2149.982558850011
 30
0.0
 40
36.59999999999936
100
AcDbArc
 50
175.6256045527372
 51
184.3743954472617
  0
LINE
  5
36A
330
302
100
AcDbEntity
  8
P-SANR-FIXT
100
AcDbLine
 10
1255.62097204325
 20
2147.190950440586
 30
0.0
 11
1271.450059193196
 21
2119.774167259445
 31
0.0
  0
ARC
  5
36B
330
302
100
AcDbEntity
  8
P-SANR-FIXT
100
AcDbCircle
 10
1292.114353943101
 20
2149.982558850011
 30
0.0
 40
36.59999999999897
100
AcDbArc
 50
235.625604552737
 51
244.3743954472622
  0
LINE
  5
36C
330
302
100
AcDbEntity
  8
P-SANR-FIXT
100
AcDbLine
 10
1276.285266793156
 20
2116.982558850021
 30
0.0
 11
1307.943441093046
 21
2116.982558850021
 31
0.0
  0
ARC
  5
36D
330
302
100
AcDbEntity
  8
P-SANR-FIXT
100
AcDbCircle
 10
1292.114353943101
 20
2149.982558850011
 30
0.0
 40
36.59999999999887
100
AcDbArc
 50
295.6256045527372
 51
304.3743954472621
  0
LINE
  5
36E
330
302
100
AcDbEntity
  8
P-SANR-FIXT
100
AcDbLine
 10
1312.778648693007
 20
2119.774167259446
 30
0.0
 11
1328.607735842951
 21
2147.190950440587
 31
0.0
  0
ARC
  5
36F
330
302
100
AcDbEntity
  8
P-SANR-FIXT
100
AcDbCircle
 10
1292.114353943101
 20
2149.982558850011
 30
0.0
 40
36.59999999999886
100
AcDbArc
 50
355.6256045527376
 51
4.374395447261295
  0
LINE
  5
370
330
302
100
AcDbEntity
  8
P-SANR-FIXT
100
AcDbLine
 10
1328.607735842951
 20
2152.774167259436
 30
0.0
 11
1312.778648693006
 21
2180.190950440577
 31
0.0
  0
ARC
  5
371
330
302
100
AcDbEntity
  8
P-SANR-FIXT
100
AcDbCircle
 10
1292.114353943101
 20
2149.982558850011
 30
0.0
 40
25.39999999999987
100
AcDbArc
 50
90.00000000000053
 51
269.9999999999997
  0
ARC
  5
372
330
302
100
AcDbEntity
  8
P-SANR-FIXT
100
AcDbCircle
 10
1292.114353943101
 20
2149.982558850011
 30
0.0
 40
25.40000000000014
100
AcDbArc
 50
269.9999999999999
 51
89.99999999999975
  0
ARC
  5
373
330
302
100
AcDbEntity
  8
P-SANR-FIXT
100
AcDbCircle
 10
1292.114353943103
 20
2149.982558850009
 30
0.0
 40
36.59999999999949
100
AcDbArc
 50
4.374395447265554
 51
55.62560455274158
  0
ARC
  5
374
330
302
100
AcDbEntity
  8
P-SANR-FIXT
100
AcDbCircle
 10
1292.114353943103
 20
2149.982558850009
 30
0.0
 40
36.59999999999985
100
AcDbArc
 50
304.3743954472617
 51
355.6256045527398
  0
ARC
  5
375
330
302
100
AcDbEntity
  8
P-SANR-FIXT
100
AcDbCircle
 10
1292.114353943103
 20
2149.982558850009
 30
0.0
 40
36.59999999999945
100
AcDbArc
 50
244.3743954472584
 51
295.6256045527364
  0
ARC
  5
376
330
302
100
AcDbEntity
  8
P-SANR-FIXT
100
AcDbCircle
 10
1292.114353943103
 20
2149.982558850009
 30
0.0
 40
36.59999999999965
100
AcDbArc
 50
184.3743954472594
 51
235.6256045527329
  0
ARC
  5
377
330
302
100
AcDbEntity
  8
P-SANR-FIXT
100
AcDbCircle
 10
1292.114353943103
 20
2149.982558850009
 30
0.0
 40
36.59999999999954
100
AcDbArc
 50
124.3743954472632
 51
175.6256045527345
  0
ARC
  5
378
330
302
100
AcDbEntity
  8
P-SANR-FIXT
100
AcDbCircle
 10
1292.114353943103
 20
2149.982558850009
 30
0.0
 40
36.59999999999963
100
AcDbArc
 50
64.37439544726649
 51
115.6256045527386
  0
LINE
  5
379
330
302
100
AcDbEntity
  8
P-SANR-FIXT
100
AcDbLine
 10
1390.114353943104
 20
2137.482558849995
 30
0.0
 11
1393.114353943134
 21
2137.482558849995
 31
0.0
  0
LINE
  5
37A
330
302
100
AcDbEntity
  8
P-SANR-FIXT
100
AcDbLine
 10
1393.114353943134
 20
2162.482558849986
 30
0.0
 11
1390.114353943104
 21
2162.482558849986
 31
0.0
  0
LINE
  5
37B
330
302
100
AcDbEntity
  8
P-SANR-FIXT
100
AcDbLine
 10
1393.114353943131
 20
2149.982558849989
 30
0.0
 11
1393.114353943131
 21
2137.482558849994
 31
0.0
  0
LINE
  5
37C
330
302
100
AcDbEntity
  8
P-SANR-FIXT
100
AcDbLine
 10
1393.114353943131
 20
2162.482558849985
 30
0.0
 11
1393.114353943131
 21
2149.982558849989
 31
0.0
  0
LINE
  5
37D
330
302
100
AcDbEntity
  8
P-SANR-FIXT
100
AcDbLine
 10
1390.114353943102
 20
2149.982558849989
 30
0.0
 11
1390.114353943102
 21
2162.482558849985
 31
0.0
  0
LINE
  5
37E
330
302
100
AcDbEntity
  8
P-SANR-FIXT
100
AcDbLine
 10
1390.114353943102
 20
2137.482558849994
 30
0.0
 11
1390.114353943102
 21
2149.982558849989
 31
0.0
  0
LINE
  5
37F
330
302
100
AcDbEntity
  8
P-SANR-FIXT
100
AcDbLine
 10
1397.414353943163
 20
2155.178711272697
 30
0.0
 11
1397.414353943163
 21
2144.786406427282
 31
0.0
  0
LINE
  5
380
330
302
100
AcDbEntity
  8
P-SANR-FIXT
100
AcDbLine
 10
1397.414353943163
 20
2144.786406427282
 30
0.0
 11
1397.414353943163
 21
2139.590254004575
 31
0.0
  0
LINE
  5
381
330
302
100
AcDbEntity
  8
P-SANR-FIXT
100
AcDbLine
 10
1397.414353943163
 20
2160.374863695404
 30
0.0
 11
1397.414353943163
 21
2155.178711272697
 31
0.0
  0
LINE
  5
382
330
302
100
AcDbEntity
  8
P-SANR-FIXT
100
AcDbLine
 10
1397.414353943163
 20
2155.178711272697
 30
0.0
 11
1393.114353943131
 21
2155.178711272697
 31
0.0
  0
LINE
  5
383
330
302
100
AcDbEntity
  8
P-SANR-FIXT
100
AcDbLine
 10
1393.114353943131
 20
2144.786406427282
 30
0.0
 11
1397.414353943163
 21
2144.786406427282
 31
0.0
  0
LINE
  5
384
330
302
100
AcDbEntity
  8
P-SANR-FIXT
100
AcDbLine
 10
1393.114353943131
 20
2139.590254004575
 30
0.0
 11
1397.414353943163
 21
2139.590254004575
 31
0.0
  0
LINE
  5
385
330
302
100
AcDbEntity
  8
P-SANR-FIXT
100
AcDbLine
 10
1393.114353943131
 20
2160.374863695404
 30
0.0
 11
1397.414353943163
 21
2160.374863695404
 31
0.0
  0
ARC
  5
386
330
302
100
AcDbEntity
  8
P-SANR-FIXT
100
AcDbCircle
 10
1292.114353943101
 20
2149.98255885001
 30
0.0
 40
44.99999999999336
100
AcDbArc
 50
90.00000000000017
 51
119.9999999999802
  0
ARC
  5
387
330
302
100
AcDbEntity
  8
P-SANR-FIXT
100
AcDbCircle
 10
1292.114353943101
 20
2149.98255885001
 30
0.0
 40
44.99999999999359
100
AcDbArc
 50
119.9999999999796
 51
179.9999999999797
  0
ARC
  5
388
330
302
100
AcDbEntity
  8
P-SANR-FIXT
100
AcDbCircle
 10
1292.114353943101
 20
2149.98255885001
 30
0.0
 40
44.99999999999313
100
AcDbArc
 50
179.9999999999799
 51
239.9999999999802
  0
ARC
  5
389
330
302
100
AcDbEntity
  8
P-SANR-FIXT
100
AcDbCircle
 10
1292.114353943101
 20
2149.98255885001
 30
0.0
 40
44.99999999999324
100
AcDbArc
 50
239.9999999999796
 51
269.9999999999993
  0
ARC
  5
38A
330
302
100
AcDbEntity
  8
P-SANR-FIXT
100
AcDbCircle
 10
1292.114353943101
 20
2149.98255885001
 30
0.0
 40
44.99999999999306
100
AcDbArc
 50
269.9999999999992
 51
299.9999999999797
  0
ARC
  5
38B
330
302
100
AcDbEntity
  8
P-SANR-FIXT
100
AcDbCircle
 10
1292.114353943101
 20
2149.98255885001
 30
0.0
 40
44.99999999999339
100
AcDbArc
 50
299.9999999999795
 51
359.9999999999799
  0
ARC
  5
38C
330
302
100
AcDbEntity
  8
P-SANR-FIXT
100
AcDbCircle
 10
1292.114353943101
 20
2149.98255885001
 30
0.0
 40
44.99999999999374
100
AcDbArc
 50
359.9999999999798
 51
59.99999999997997
  0
ARC
  5
38D
330
302
100
AcDbEntity
  8
P-SANR-FIXT
100
AcDbCircle
 10
1292.114353943101
 20
2149.98255885001
 30
0.0
 40
44.99999999999336
100
AcDbArc
 50
59.99999999997966
 51
89.99999999999943
  0
SPLINE
  5
38E
330
302
100
AcDbEntity
  8
P-SANR-FIXT
100
AcDbSpline
210
0.0
220
0.0
230
1.0
 70
     8
 71
     3
 72
     9
 73
     5
 74
     0
 42
0.000000001
 43
0.0000000001
 40
0.0
 40
0.0
 40
0.0
 40
0.0
 40
0.5
 40
1.0
 40
1.0
 40
1.0
 40
1.0
 10
1291.614353943101
 20
2201.655407942459
 30
0.0
 10
1291.68871630027
 20
2201.698341069388
 30
0.0
 10
1291.849811661339
 20
2201.765663463625
 30
0.0
 10
1292.025687271759
 20
2201.789382538674
 30
0.0
 10
1292.114353943101
 20
2201.789382538674
 30
0.0
  0
SPLINE
  5
38F
330
302
100
AcDbEntity
  8
P-SANR-FIXT
100
AcDbSpline
210
0.0
220
0.0
230
1.0
 70
     8
 71
     3
 72
     9
 73
     5
 74
     0
 42
0.000000001
 43
0.0000000001
 40
0.0
 40
0.0
 40
0.0
 40
0.0
 40
0.5
 40
1.0
 40
1.0
 40
1.0
 40
1.0
 10
1292.114353943101
 20
2201.789382538674
 30
0.0
 10
1292.203020614444
 20
2201.789382538674
 30
0.0
 10
1292.378896224864
 20
2201.765663463624
 30
0.0
 10
1292.539991585933
 20
2201.698341069387
 30
0.0
 10
1292.614353943102
 20
2201.655407942459
 30
0.0
  0
SPLINE
  5
390
330
302
100
AcDbEntity
  8
P-SANR-FIXT
100
AcDbSpline
210
0.0
220
0.0
230
1.0
 70
    24
 71
     3
 72
     9
 73
     5
 74
     0
 42
0.000000001
 43
0.0000000001
 40
0.0
 40
0.0
 40
0.0
 40
0.0
 40
0.5
 40
1.0
 40
1.0
 40
1.0
 40
1.0
 10
1292.614353943102
 20
2201.655407942459
 30
0.0
 10
1296.209080773686
 20
2199.579991439156
 30
0.0
 10
1303.470474270937
 20
2195.387623948823
 30
0.0
 10
1310.875747440352
 20
2191.112187491035
 30
0.0
 10
1314.6143539431
 20
2188.953702020278
 30
0.0
  0
SPLINE
  5
391
330
302
100
AcDbEntity
  8
P-SANR-FIXT
100
AcDbSpline
210
0.0
220
0.0
230
1.0
 70
    24
 71
     3
 72
     9
 73
     5
 74
     0
 42
0.000000001
 43
0.0000000001
 40
0.0
 40
0.0
 40
0.0
 40
0.0
 40
0.5
 40
1.0
 40
1.0
 40
1.0
 40
1.0
 10
1314.6143539431
 20
2188.953702020278
 30
0.0
 10
1318.352960445844
 20
2186.795216549523
 30
0.0
 10
1325.758233615249
 20
2182.519780091741
 30
0.0
 10
1333.01962711249
 20
2178.327412601413
 30
0.0
 10
1336.61435394307
 20
2176.251996098113
 30
0.0
  0
SPLINE
  5
392
330
302
100
AcDbEntity
  8
P-SANR-FIXT
100
AcDbSpline
210
0.0
220
0.0
230
1.0
 70
     8
 71
     3
 72
    11
 73
     7
 74
     0
 42
0.000000001
 43
0.0000000001
 40
0.0
 40
0.0
 40
0.0
 40
0.0
 40
0.25
 40
0.5
 40
0.75
 40
1.0
 40
1.0
 40
1.0
 40
1.0
 10
1336.61435394307
 20
2176.251996098113
 30
0.0
 10
1336.688535849028
 20
2176.209167154739
 30
0.0
 10
1336.827220153329
 20
2176.103688590368
 30
0.0
 10
1336.991056535121
 20
2175.891415730231
 30
0.0
 10
1337.092566469114
 20
2175.643462620839
 30
0.0
 10
1337.11435394307
 20
2175.471221281904
 30
0.0
 10
1337.11435394307
 20
2175.385970694328
 30
0.0
  0
SPLINE
  5
393
330
302
100
AcDbEntity
  8
P-SANR-FIXT
100
AcDbSpline
210
0.0
220
0.0
230
1.0
 70
    24
 71
     3
 72
     9
 73
     5
 74
     0
 42
0.000000001
 43
0.0000000001
 40
0.0
 40
0.0
 40
0.0
 40
0.0
 40
0.5
 40
1.0
 40
1.0
 40
1.0
 40
1.0
 10
1337.11435394307
 20
2175.385970694328
 30
0.0
 10
1337.114353943068
 20
2171.235137687728
 30
0.0
 10
1337.114353943065
 20
2162.850402707072
 30
0.0
 10
1337.114353943063
 20
2154.299529791506
 30
0.0
 10
1337.114353943061
 20
2149.982558849995
 30
0.0
  0
SPLINE
  5
394
330
302
100
AcDbEntity
  8
P-SANR-FIXT
100
AcDbSpline
210
0.0
220
0.0
230
1.0
 70
    24
 71
     3
 72
     9
 73
     5
 74
     0
 42
0.000000001
 43
0.0000000001
 40
0.0
 40
0.0
 40
0.0
 40
0.0
 40
0.5
 40
1.0
 40
1.0
 40
1.0
 40
1.0
 10
1337.114353943061
 20
2149.982558849995
 30
0.0
 10
1337.11435394306
 20
2145.665587908485
 30
0.0
 10
1337.114353943056
 20
2137.114714992921
 30
0.0
 10
1337.114353943054
 20
2128.729980012267
 30
0.0
 10
1337.114353943052
 20
2124.579147005667
 30
0.0
  0
SPLINE
  5
395
330
302
100
AcDbEntity
  8
P-SANR-FIXT
100
AcDbSpline
210
0.0
220
0.0
230
1.0
 70
     8
 71
     3
 72
    11
 73
     7
 74
     0
 42
0.000000001
 43
0.0000000001
 40
0.0
 40
0.0
 40
0.0
 40
0.0
 40
0.25
 40
0.5
 40
0.75
 40
1.0
 40
1.0
 40
1.0
 40
1.0
 10
1337.114353943052
 20
2124.579147005667
 30
0.0
 10
1337.114353943052
 20
2124.49348911892
 30
0.0
 10
1337.092348978903
 20
2124.320645706104
 30
0.0
 10
1336.990433480386
 20
2124.072622807338
 30
0.0
 10
1336.826454755702
 20
2123.860736071069
 30
0.0
 10
1336.68818311758
 20
2123.755746895671
 30
0.0
 10
1336.614353943052
 20
2123.713121601883
 30
0.0
  0
SPLINE
  5
396
330
302
100
AcDbEntity
  8
P-SANR-FIXT
100
AcDbSpline
210
0.0
220
0.0
230
1.0
 70
    24
 71
     3
 72
     9
 73
     5
 74
     0
 42
0.000000001
 43
0.0000000001
 40
0.0
 40
0.0
 40
0.0
 40
0.0
 40
0.5
 40
1.0
 40
1.0
 40
1.0
 40
1.0
 10
1336.614353943052
 20
2123.713121601883
 30
0.0
 10
1333.019627112471
 20
2121.637705098585
 30
0.0
 10
1325.758233615225
 20
2117.445337608263
 30
0.0
 10
1318.352960445816
 20
2113.169901150484
 30
0.0
 10
1314.614353943071
 20
2111.011415679732
 30
0.0
  0
SPLINE
  5
397
330
302
100
AcDbEntity
  8
P-SANR-FIXT
100
AcDbSpline
210
0.0
220
0.0
230
1.0
 70
    24
 71
     3
 72
     9
 73
     5
 74
     0
 42
0.000000001
 43
0.0000000001
 40
0.0
 40
0.0
 40
0.0
 40
0.0
 40
0.5
 40
1.0
 40
1.0
 40
1.0
 40
1.0
 10
1314.614353943071
 20
2111.011415679732
 30
0.0
 10
1310.875747440321
 20
2108.852930208978
 30
0.0
 10
1303.470474270904
 20
2104.577493751195
 30
0.0
 10
1296.209080773651
 20
2100.385126260867
 30
0.0
 10
1292.614353943066
 20
2098.309709757568
 30
0.0
  0
SPLINE
  5
398
330
302
100
AcDbEntity
  8
P-SANR-FIXT
100
AcDbSpline
210
0.0
220
0.0
230
1.0
 70
     8
 71
     3
 72
     9
 73
     5
 74
     0
 42
0.000000001
 43
0.0000000001
 40
0.0
 40
0.0
 40
0.0
 40
0.0
 40
0.5
 40
1.0
 40
1.0
 40
1.0
 40
1.0
 10
1292.614353943066
 20
2098.309709757568
 30
0.0
 10
1292.539991585903
 20
2098.266776630642
 30
0.0
 10
1292.378896224845
 20
2098.199454236408
 30
0.0
 10
1292.203020614437
 20
2098.175735161355
 30
0.0
 10
1292.114353943101
 20
2098.175735161352
 30
0.0
  0
SPLINE
  5
399
330
302
100
AcDbEntity
  8
P-SANR-FIXT
100
AcDbSpline
210
0.0
220
0.0
230
1.0
 70
     8
 71
     3
 72
     9
 73
     5
 74
     0
 42
0.000000001
 43
0.0000000001
 40
0.0
 40
0.0
 40
0.0
 40
0.0
 40
0.5
 40
1.0
 40
1.0
 40
1.0
 40
1.0
 10
1292.114353943101
 20
2098.175735161352
 30
0.0
 10
1292.025687271753
 20
2098.175735161349
 30
0.0
 10
1291.84981166132
 20
2098.199454236396
 30
0.0
 10
1291.688716300239
 20
2098.266776630636
 30
0.0
 10
1291.614353943066
 20
2098.309709757568
 30
0.0
  0
SPLINE
  5
39A
330
302
100
AcDbEntity
  8
P-SANR-FIXT
100
AcDbSpline
210
0.0
220
0.0
230
1.0
 70
    24
 71
     3
 72
     9
 73
     5
 74
     0
 42
0.000000001
 43
0.0000000001
 40
0.0
 40
0.0
 40
0.0
 40
0.0
 40
0.5
 40
1.0
 40
1.0
 40
1.0
 40
1.0
 10
1291.614353943066
 20
2098.309709757568
 30
0.0
 10
1288.019627112486
 20
2100.385126260869
 30
0.0
 10
1280.758233615244
 20
2104.577493751196
 30
0.0
 10
1273.352960445839
 20
2108.852930208978
 30
0.0
 10
1269.614353943096
 20
2111.011415679732
 30
0.0
  0
SPLINE
  5
39B
330
302
100
AcDbEntity
  8
P-SANR-FIXT
100
AcDbSpline
210
0.0
220
0.0
230
1.0
 70
    24
 71
     3
 72
     9
 73
     5
 74
     0
 42
0.000000001
 43
0.0000000001
 40
0.0
 40
0.0
 40
0.0
 40
0.0
 40
0.5
 40
1.0
 40
1.0
 40
1.0
 40
1.0
 10
1269.614353943096
 20
2111.011415679732
 30
0.0
 10
1265.875747440348
 20
2113.16990115049
 30
0.0
 10
1258.470474270933
 20
2117.445337608277
 30
0.0
 10
1251.209080773682
 20
2121.637705098611
 30
0.0
 10
1247.614353943097
 20
2123.713121601913
 30
0.0
  0
SPLINE
  5
39C
330
302
100
AcDbEntity
  8
P-SANR-FIXT
100
AcDbSpline
210
0.0
220
0.0
230
1.0
 70
     8
 71
     3
 72
    11
 73
     7
 74
     0
 42
0.000000001
 43
0.0000000001
 40
0.0
 40
0.0
 40
0.0
 40
0.0
 40
0.25
 40
0.5
 40
0.75
 40
1.0
 40
1.0
 40
1.0
 40
1.0
 10
1247.614353943097
 20
2123.713121601913
 30
0.0
 10
1247.54017203714
 20
2123.755950545287
 30
0.0
 10
1247.401487732839
 20
2123.861429109658
 30
0.0
 10
1247.237651351047
 20
2124.073701969796
 30
0.0
 10
1247.136141417053
 20
2124.321655079188
 30
0.0
 10
1247.114353943097
 20
2124.493896418123
 30
0.0
 10
1247.114353943097
 20
2124.579147005698
 30
0.0
  0
SPLINE
  5
39D
330
302
100
AcDbEntity
  8
P-SANR-FIXT
100
AcDbSpline
210
0.0
220
0.0
230
1.0
 70
    24
 71
     3
 72
     9
 73
     5
 74
     0
 42
0.000000001
 43
0.0000000001
 40
0.0
 40
0.0
 40
0.0
 40
0.0
 40
0.5
 40
1.0
 40
1.0
 40
1.0
 40
1.0
 10
1247.114353943097
 20
2124.579147005698
 30
0.0
 10
1247.114353943099
 20
2128.729980012298
 30
0.0
 10
1247.114353943102
 20
2137.114714992954
 30
0.0
 10
1247.114353943105
 20
2145.665587908517
 30
0.0
 10
1247.114353943106
 20
2149.982558850026
 30
0.0
  0
SPLINE
  5
39E
330
302
100
AcDbEntity
  8
P-SANR-FIXT
100
AcDbSpline
210
0.0
220
0.0
230
1.0
 70
    24
 71
     3
 72
     9
 73
     5
 74
     0
 42
0.000000001
 43
0.0000000001
 40
0.0
 40
0.0
 40
0.0
 40
0.0
 40
0.5
 40
1.0
 40
1.0
 40
1.0
 40
1.0
 10
1247.114353943106
 20
2149.982558850026
 30
0.0
 10
1247.114353943107
 20
2154.299529791535
 30
0.0
 10
1247.114353943111
 20
2162.850402707101
 30
0.0
 10
1247.114353943113
 20
2171.235137687758
 30
0.0
 10
1247.114353943115
 20
2175.385970694359
 30
0.0
  0
SPLINE
  5
39F
330
302
100
AcDbEntity
  8
P-SANR-FIXT
100
AcDbSpline
210
0.0
220
0.0
230
1.0
 70
     8
 71
     3
 72
    11
 73
     7
 74
     0
 42
0.000000001
 43
0.0000000001
 40
0.0
 40
0.0
 40
0.0
 40
0.0
 40
0.25
 40
0.5
 40
0.75
 40
1.0
 40
1.0
 40
1.0
 40
1.0
 10
1247.114353943115
 20
2175.385970694359
 30
0.0
 10
1247.114353943115
 20
2175.471628581107
 30
0.0
 10
1247.136358907265
 20
2175.644471993922
 30
0.0
 10
1247.238274405781
 20
2175.892494892687
 30
0.0
 10
1247.402253130466
 20
2176.104381628958
 30
0.0
 10
1247.540524768587
 20
2176.209370804356
 30
0.0
 10
1247.614353943115
 20
2176.251996098144
 30
0.0
  0
SPLINE
  5
3A0
330
302
100
AcDbEntity
  8
P-SANR-FIXT
100
AcDbSpline
210
0.0
220
0.0
230
1.0
 70
    24
 71
     3
 72
     9
 73
     5
 74
     0
 42
0.000000001
 43
0.0000000001
 40
0.0
 40
0.0
 40
0.0
 40
0.0
 40
0.5
 40
1.0
 40
1.0
 40
1.0
 40
1.0
 10
1247.614353943115
 20
2176.251996098144
 30
0.0
 10
1251.209080773701
 20
2178.327412601444
 30
0.0
 10
1258.470474270954
 20
2182.519780091771
 30
0.0
 10
1265.875747440371
 20
2186.795216549553
 30
0.0
 10
1269.614353943121
 20
2188.953702020308
 30
0.0
  0
SPLINE
  5
3A1
330
302
100
AcDbEntity
  8
P-SANR-FIXT
100
AcDbSpline
210
0.0
220
0.0
230
1.0
 70
    24
 71
     3
 72
     9
 73
     5
 74
     0
 42
0.000000001
 43
0.0000000001
 40
0.0
 40
0.0
 40
0.0
 40
0.0
 40
0.5
 40
1.0
 40
1.0
 40
1.0
 40
1.0
 10
1269.614353943121
 20
2188.953702020308
 30
0.0
 10
1273.352960445866
 20
2191.112187491061
 30
0.0
 10
1280.758233615274
 20
2195.387623948838
 30
0.0
 10
1288.019627112519
 20
2199.57999143916
 30
0.0
 10
1291.614353943101
 20
2201.655407942459
 30
0.0
  0
LINE
  5
3A2
330
302
100
AcDbEntity
  8
P-SANR-FIXT
100
AcDbLine
 10
1361.964353943104
 20
1769.982558850011
 30
0.0
 11
1361.964353943104
 21
1999.982558850011
 31
0.0
  0
LINE
  5
3A3
330
302
100
AcDbEntity
  8
P-SANR-FIXT
100
AcDbLine
 10
1336.114353943104
 20
2245.154131725266
 30
0.0
 11
1336.114353943104
 21
2249.982558850012
 31
0.0
  0
LINE
  5
3A4
330
302
100
AcDbEntity
  8
P-SANR-FIXT
100
AcDbLine
 10
1361.964353943104
 20
2214.928505886705
 30
0.0
 11
1361.964353943104
 21
2226.982558850012
 31
0.0
  0
LINE
  5
3A5
330
302
100
AcDbEntity
  8
P-SANR-FIXT
100
AcDbLine
 10
1336.114353943104
 20
2226.982558850012
 30
0.0
 11
1336.114353943104
 21
2245.154131725266
 31
0.0
  0
LINE
  5
3A6
330
302
100
AcDbEntity
  8
P-SANR-FIXT
100
AcDbLine
 10
1361.964353943104
 20
1999.982558850011
 30
0.0
 11
1361.964353943104
 21
2139.332558849998
 31
0.0
  0
LINE
  5
3A7
330
302
100
AcDbEntity
  8
P-SANR-FIXT
100
AcDbLine
 10
1361.964353943104
 20
2160.632558849998
 30
0.0
 11
1361.964353943104
 21
2214.928505886705
 31
0.0
  0
LINE
  5
3A8
330
302
100
AcDbEntity
  8
P-SANR-FIXT
100
AcDbLine
 10
1390.114353943104
 20
2160.632558849998
 30
0.0
 11
1361.964353943104
 21
2160.632558849998
 31
0.0
  0
LINE
  5
3A9
330
302
100
AcDbEntity
  8
P-SANR-FIXT
100
AcDbLine
 10
1361.964353943104
 20
2139.332558849998
 30
0.0
 11
1390.114353943104
 21
2139.332558849998
 31
0.0
  0
LINE
  5
3AA
330
302
100
AcDbEntity
  8
P-SANR-FIXT
100
AcDbLine
 10
1292.301604442306
 20
2249.982558850011
 30
0.0
 11
1336.114353943102
 21
2249.982558850011
 31
0.0
  0
LINE
  5
3AB
330
302
100
AcDbEntity
  8
P-SANR-FIXT
100
AcDbLine
 10
1361.964353943102
 20
2226.982558850011
 30
0.0
 11
1292.301500792188
 21
2226.982558850011
 31
0.0
  0
SPLINE
  5
3AC
330
302
100
AcDbEntity
  8
P-SANR-FIXT
100
AcDbSpline
210
0.0
220
0.0
230
1.0
 70
     8
 71
     3
 72
    23
 73
    19
 74
     0
 42
0.000000001
 43
0.0000000001
 40
0.0
 40
0.0
 40
0.0
 40
0.0
 40
0.0555555555555556
 40
0.1111111111111111
 40
0.1666666666666666
 40
0.2222222222222222
 40
0.2777777777777778
 40
0.3333333333333333
 40
0.3888888888888888
 40
0.4444444444444445
 40
0.5138888888888889
 40
0.5486111111111111
 40
0.5833333333333333
 40
0.6527777777777777
 40
0.7222222222222223
 40
0.7916666666666668
 40
0.861111111111111
 40
1.0
 40
1.0
 40
1.0
 40
1.0
 10
1361.964353943102
 20
2139.332558849997
 30
0.0
 10
1361.964353943102
 20
2139.339259493661
 30
0.0
 10
1361.946359000534
 20
2139.45484740195
 30
0.0
 10
1361.875819196499
 20
2139.920086952798
 30
0.0
 10
1361.765179327309
 20
2140.721290715458
 30
0.0
 10
1361.629108758826
 20
2141.782557095021
 30
0.0
 10
1361.485460104619
 20
2143.105918975068
 30
0.0
 10
1361.348532837027
 20
2144.624391526285
 30
0.0
 10
1361.238476248201
 20
2146.321567258325
 30
0.0
 10
1361.157806487881
 20
2148.27190344058
 30
0.0
 10
1361.141099751121
 20
2150.066923096559
 30
0.0
 10
1361.163664372522
 20
2151.616601862104
 30
0.0
 10
1361.212042192069
 20
2153.109696455391
 30
0.0
 10
1361.316102980452
 20
2154.959579641244
 30
0.0
 10
1361.484908871418
 20
2156.879824980977
 30
0.0
 10
1361.665310695639
 20
2158.493059472253
 30
0.0
 10
1361.883064242207
 20
2160.124324505909
 30
0.0
 10
1361.964353943102
 20
2160.615372134756
 30
0.0
 10
1361.964353943102
 20
2160.632558849997
 30
0.0
  0
LINE
  5
3AD
330
302
100
AcDbEntity
  8
P-SANR-FIXT
100
AcDbLine
 10
1292.301500792188
 20
1769.982558850011
 30
0.0
 11
1361.964353943102
 21
1769.98255885001
 31
0.0
  0
LINE
  5
3AE
330
302
100
AcDbEntity
  8
P-SANR-FIXT
100
AcDbLine
 10
1355.114353943106
 20
1765.954908244478
 30
0.0
 11
1355.114353943106
 21
1769.982558849998
 31
0.0
  0
LINE
  5
3AF
330
302
100
AcDbEntity
  8
P-SANR-FIXT
100
AcDbLine
 10
1347.614353943105
 20
1761.524801082801
 30
0.0
 11
1347.614353943105
 21
1765.954908244478
 31
0.0
  0
LINE
  5
3B0
330
302
100
AcDbEntity
  8
P-SANR-FIXT
100
AcDbLine
 10
1340.114353943105
 20
1709.482558849934
 30
0.0
 11
1340.114353943105
 21
1747.982558849933
 31
0.0
  0
LWPOLYLINE
  5
3B1
330
302
100
AcDbEntity
  8
P-SANR-FIXT
100
AcDbPolyline
 90
        3
 70
   128
 43
0.0
 10
1277.078304281353
 20
1692.168631238781
 10
1277.059762323174
 20
1692.168631238781
 10
1277.0588848939
 20
1692.168631238781
  0
LINE
  5
3B2
330
302
100
AcDbEntity
  8
P-SANR-FIXT
100
AcDbLine
 10
1277.0588848939
 20
1692.168631238781
 30
0.0
 11
1277.070927663309
 21
1692.168631238781
 31
0.0
  0
LWPOLYLINE
  5
3B3
330
302
100
AcDbEntity
  8
P-SANR-FIXT
100
AcDbPolyline
 90
       26
 70
   128
 43
0.0
 10
1340.114353943105
 20
1709.482558849934
 10
1339.1808009021
 20
1708.183275430313
 10
1338.196037125085
 20
1706.922363463382
 10
1337.161638024029
 20
1705.701840139309
 10
1336.079258416836
 20
1704.523658035048
 10
1334.95062987998
 20
1703.389701990633
 10
1333.77755797836
 20
1702.301786093837
 10
1332.561919376777
 20
1701.261650778019
 10
1331.30565883767
 20
1700.270960037802
 10
1330.010786109914
 20
1699.331298767032
 10
1328.679372713649
 20
1698.444170223293
 10
1327.313548626289
 20
1697.61099362301
 10
1325.915498875014
 20
1696.83310187101
 10
1324.48746004119
 20
1696.111739428155
 10
1323.031716682321
 20
1695.448060320469
 10
1321.550597677238
 20
1694.843126292949
 10
1320.046472500393
 20
1694.297905110993
 10
1318.521747431208
 20
1693.813269012183
 10
1316.978861704536
 20
1693.389993310896
 10
1315.420283608407
 20
1693.028755157957
 10
1313.848506535297
 20
1692.730132457354
 10
1312.266044993228
 20
1692.494602941703
 10
1310.675430583093
 20
1692.322543407986
 10
1309.079207948636
 20
1692.214229114753
 10
1307.479930705563
 20
1692.169833341767
 10
1307.169822992309
 20
1692.168631238781
  0
LWPOLYLINE
  5
3B4
330
302
100
AcDbEntity
  8
P-SANR-FIXT
100
AcDbPolyline
 90
       41
 70
   128
 43
0.0
 10
1292.301367431606
 20
1692.168631238781
 10
1292.71641212625
 20
1692.168631238781
 10
1293.317507144734
 20
1692.168631238781
 10
1293.916677374755
 20
1692.168631238781
 10
1294.51296427176
 20
1692.168631238781
 10
1295.105413903916
 20
1692.168631238781
 10
1295.693078478193
 20
1692.168631238781
 10
1296.275017856634
 20
1692.168631238781
 10
1296.850301060375
 20
1692.168631238781
 10
1297.41800775901
 20
1692.168631238781
 10
1297.977229742925
 20
1692.168631238781
 10
1298.52707237624
 20
1692.168631238781
 10
1299.066656028036
 20
1692.168631238781
 10
1299.595117479575
 20
1692.168631238781
 10
1300.111611305267
 20
1692.168631238781
 10
1300.615311225169
 20
1692.168631238781
 10
1301.105411426862
 20
1692.168631238781
 10
1301.58112785457
 20
1692.168631238781
 10
1302.041699463491
 20
1692.168631238781
 10
1302.486389437299
 20
1692.168631238781
 10
1302.9144863669
 20
1692.168631238781
 10
1303.325305388528
 20
1692.168631238781
 10
1303.718189279386
 20
1692.168631238781
 10
1304.092509509059
 20
1692.168631238781
 10
1304.447667245029
 20
1692.168631238781
 10
1304.783094310683
 20
1692.168631238781
 10
1305.098254094269
 20
1692.168631238781
 10
1305.392642407365
 20
1692.168631238781
 10
1305.665788291468
 20
1692.168631238781
 10
1305.917254771432
 20
1692.168631238781
 10
1306.146639554533
 20
1692.168631238781
 10
1306.35357567405
 20
1692.168631238781
 10
1306.537732076336
 20
1692.168631238781
 10
1306.698814150432
 20
1692.168631238781
 10
1306.836564199382
 20
1692.168631238781
 10
1306.950761852492
 20
1692.168631238781
 10
1307.041224417879
 20
1692.168631238781
 10
1307.107807174736
 20
1692.168631238781
 10
1307.150403604855
 20
1692.168631238781
 10
1307.168945563035
 20
1692.168631238781
 10
1307.169822992309
 20
1692.168631238781
  0
LWPOLYLINE
  5
3B5
330
302
100
AcDbEntity
  8
P-SANR-FIXT
100
AcDbPolyline
 90
       12
 70
   128
 43
0.0
 10
1307.169822992309
 20
1692.168631238781
 10
1307.1577802229
 20
1692.168631238781
 10
1307.121671180538
 20
1692.168631238781
 10
1307.061553631984
 20
1692.168631238781
 10
1306.977523752496
 20
1692.168631238781
 10
1306.869715971953
 20
1692.168631238781
 10
1306.738302759806
 20
1692.168631238781
 10
1306.583494349162
 20
1692.168631238781
 10
1306.405538400453
 20
1692.168631238781
 10
1306.204719605236
 20
1692.168631238781
 10
1305.981359230744
 20
1692.168631238781
 10
1305.943591211375
 20
1692.168631238781
  0
LINE
  5
3B6
330
302
100
AcDbEntity
  8
P-SANR-FIXT
100
AcDbLine
 10
1306.114353943106
 20
1691.074640691403
 30
0.0
 11
1306.114353943106
 21
1692.182558849933
 31
0.0
  0
LINE
  5
3B7
330
302
100
AcDbEntity
  8
P-SANR-FIXT
100
AcDbLine
 10
1346.614353943103
 20
1747.982558849933
 30
0.0
 11
1346.614353943103
 21
1761.524801082801
 31
0.0
  0
LINE
  5
3B8
330
302
100
AcDbEntity
  8
P-SANR-FIXT
100
AcDbLine
 10
1306.114353943102
 20
1678.982558849996
 30
0.0
 11
1306.114353943102
 21
1691.074640691403
 31
0.0
  0
LINE
  5
3B9
330
302
100
AcDbEntity
  8
P-SANR-FIXT
100
AcDbLine
 10
1292.301541660589
 20
1765.954908244477
 30
0.0
 11
1355.114353943104
 21
1765.954908244477
 31
0.0
  0
LINE
  5
3BA
330
302
100
AcDbEntity
  8
P-SANR-FIXT
100
AcDbLine
 10
1292.301541581121
 20
1761.524801082801
 30
0.0
 11
1347.614353943103
 21
1761.524801082801
 31
0.0
  0
LINE
  5
3BB
330
302
100
AcDbEntity
  8
P-SANR-FIXT
100
AcDbLine
 10
1292.301541461553
 20
1709.482558849933
 30
0.0
 11
1340.114353943103
 21
1709.482558849933
 31
0.0
  0
LINE
  5
3BC
330
302
100
AcDbEntity
  8
P-SANR-FIXT
100
AcDbLine
 10
1292.301662596078
 20
1692.182558849932
 30
0.0
 11
1293.486593907716
 21
1692.182558849932
 31
0.0
  0
LINE
  5
3BD
330
302
100
AcDbEntity
  8
P-SANR-FIXT
100
AcDbLine
 10
1294.845618451329
 20
1692.182558849932
 30
0.0
 11
1296.178339424665
 21
1692.182558849932
 31
0.0
  0
LINE
  5
3BE
330
302
100
AcDbEntity
  8
P-SANR-FIXT
100
AcDbLine
 10
1297.704310566642
 20
1692.182558849932
 30
0.0
 11
1300.995859921394
 21
1692.182558849932
 31
0.0
  0
LINE
  5
3BF
330
302
100
AcDbEntity
  8
P-SANR-FIXT
100
AcDbLine
 10
1300.774607980925
 20
1691.074640691402
 30
0.0
 11
1305.970760403658
 21
1691.074640691402
 31
0.0
  0
LINE
  5
3C0
330
302
100
AcDbEntity
  8
P-SANR-FIXT
100
AcDbLine
 10
1292.29502027769
 20
1691.074640691402
 30
0.0
 11
1297.310506365836
 21
1691.074640691402
 31
0.0
  0
LINE
  5
3C1
330
302
100
AcDbEntity
  8
P-SANR-FIXT
100
AcDbLine
 10
1346.6143539431
 20
1747.982558849932
 30
0.0
 11
1346.216205389775
 21
1747.982558849932
 31
0.0
  0
LINE
  5
3C2
330
302
100
AcDbEntity
  8
P-SANR-FIXT
100
AcDbLine
 10
1346.216205389775
 20
1747.982558849932
 30
0.0
 11
1335.019853410072
 21
1747.982558849932
 31
0.0
  0
LINE
  5
3C3
330
302
100
AcDbEntity
  8
P-SANR-FIXT
100
AcDbLine
 10
1335.019853410072
 20
1747.982558849932
 30
0.0
 11
1325.720426541512
 21
1747.982558849932
 31
0.0
  0
LINE
  5
3C4
330
302
100
AcDbEntity
  8
P-SANR-FIXT
100
AcDbLine
 10
1325.720426541512
 20
1747.982558849932
 30
0.0
 11
1298.690041743008
 21
1747.982558849932
 31
0.0
  0
LINE
  5
3C5
330
302
100
AcDbEntity
  8
P-SANR-FIXT
100
AcDbLine
 10
1298.690041743008
 20
1747.982558849932
 30
0.0
 11
1292.301481103386
 21
1747.982558849932
 31
0.0
  0
LINE
  5
3C6
330
302
100
AcDbEntity
  8
P-SANR-FIXT
100
AcDbLine
 10
1298.690041743008
 20
1761.524801082801
 30
0.0
 11
1298.690041743008
 21
1747.982558849932
 31
0.0
  0
LINE
  5
3C7
330
302
100
AcDbEntity
  8
P-SANR-FIXT
100
AcDbLine
 10
1335.019853410072
 20
1761.524801082801
 30
0.0
 11
1335.019853410072
 21
1747.982558849932
 31
0.0
  0
LINE
  5
3C8
330
302
100
AcDbEntity
  8
P-SANR-FIXT
100
AcDbLine
 10
1325.720426541512
 20
1747.982558849932
 30
0.0
 11
1325.720426541512
 21
1761.524801082801
 31
0.0
  0
LINE
  5
3C9
330
302
100
AcDbEntity
  8
P-SANR-FIXT
100
AcDbLine
 10
1346.216205389775
 20
1747.982558849932
 30
0.0
 11
1346.216205389775
 21
1761.524801082801
 31
0.0
  0
LINE
  5
3CA
330
302
100
AcDbEntity
  8
P-SANR-FIXT
100
AcDbLine
 10
1297.310506365822
 20
1678.982558849995
 30
0.0
 11
1292.301367431604
 21
1678.982558849995
 31
0.0
  0
LINE
  5
3CB
330
302
100
AcDbEntity
  8
P-SANR-FIXT
100
AcDbLine
 10
1306.1143539431
 20
1678.982558849995
 30
0.0
 11
1305.970760403653
 21
1678.982558849995
 31
0.0
  0
LINE
  5
3CC
330
302
100
AcDbEntity
  8
P-SANR-FIXT
100
AcDbLine
 10
1305.970760403653
 20
1678.982558849995
 30
0.0
 11
1300.774607980933
 21
1678.982558849995
 31
0.0
  0
LINE
  5
3CD
330
302
100
AcDbEntity
  8
P-SANR-FIXT
100
AcDbLine
 10
1300.774607980933
 20
1678.982558849995
 30
0.0
 11
1297.310506365822
 21
1678.982558849995
 31
0.0
  0
LINE
  5
3CE
330
302
100
AcDbEntity
  8
P-SANR-FIXT
100
AcDbLine
 10
1297.310506365822
 20
1691.074640691402
 30
0.0
 11
1297.310506365822
 21
1678.982558849995
 31
0.0
  0
LINE
  5
3CF
330
302
100
AcDbEntity
  8
P-SANR-FIXT
100
AcDbLine
 10
1300.774607980933
 20
1678.982558849995
 30
0.0
 11
1300.774607980933
 21
1691.074640691402
 31
0.0
  0
LINE
  5
3D0
330
302
100
AcDbEntity
  8
P-SANR-FIXT
100
AcDbLine
 10
1305.970760403653
 20
1678.982558849995
 30
0.0
 11
1305.970760403653
 21
1691.074640691402
 31
0.0
  0
LWPOLYLINE
  5
3D1
330
302
100
AcDbEntity
  8
P-SANR-FIXT
100
AcDbPolyline
 90
       23
 70
   128
 43
0.0
 10
1226.727222006614
 20
2262.237418518859
 10
1226.475230573714
 20
2265.465688225147
 10
1226.352537063212
 20
2268.701452629624
 10
1226.359337758551
 20
2271.939535199499
 10
1226.495621780071
 20
2275.174755693419
 10
1226.761171102408
 20
2278.401938448734
 10
1227.155560903295
 20
2281.615920661464
 10
1227.678160243181
 20
2284.811560645684
 10
1228.328133074606
 20
2287.983746059119
 10
1229.104439579693
 20
2291.127402081803
 10
1230.005837833635
 20
2294.237499534711
 10
1231.030885791516
 20
2297.30906292537
 10
1232.177943595268
 20
2300.337178407588
 10
1233.445176197097
 20
2303.317001642556
 10
1234.83055629517
 20
2306.24376554876
 10
1236.33186757686
 20
2309.112787928293
 10
1237.946708264381
 20
2311.919478957374
 10
1239.672494957112
 20
2314.659348529085
 10
1241.506466764495
 20
2317.328013436585
 10
1243.445689722862
 20
2319.921204385307
 10
1245.487061489161
 20
2322.434772822917
 10
1247.627316304034
 20
2324.864697576117
 10
1248.671952404076
 20
2325.982558850034
  0
LWPOLYLINE
  5
3D2
330
302
100
AcDbEntity
  8
P-SANR-FIXT
100
AcDbPolyline
 90
       29
 70
   128
 43
0.0
 10
1190.366500488138
 20
2196.640940483406
 10
1190.325973975314
 20
2199.557793102755
 10
1190.402122873546
 20
2202.473933179387
 10
1190.59482536084
 20
2205.384695511257
 10
1190.903773154326
 20
2208.285423499564
 10
1191.328472003439
 20
2211.171476598315
 10
1191.868242480617
 20
2214.03823773821
 10
1192.522221068243
 20
2216.881120712969
 10
1193.289361540084
 20
2219.695577516281
 10
1194.168436635032
 20
2222.477105617646
 10
1195.158040020463
 20
2225.221255165464
 10
1196.256588542063
 20
2227.923636105845
 10
1197.462324756543
 20
2230.579925205762
 10
1198.773319743169
 20
2233.1858729693
 10
1200.187476189626
 20
2235.737310435942
 10
1201.702531747272
 20
2238.230155850021
 10
1203.316062650408
 20
2240.660421190651
 10
1205.025487593791
 20
2243.024218551718
 10
1206.82807186217
 20
2245.317766361693
 10
1208.720931705245
 20
2247.537395433344
 10
1210.701038951057
 20
2249.679554833652
 10
1212.765225850412
 20
2251.740817564547
 10
1214.910190144608
 20
2253.717886045371
 10
1217.132500348342
 20
2255.607597388308
 10
1219.428601239356
 20
2257.406928458325
 10
1221.794819546033
 20
2259.113000709548
 10
1224.227369823849
 20
2260.723084790317
 10
1226.722360511274
 20
2262.234604909568
 10
1226.727222006614
 20
2262.237418518858
  0
LINE
  5
3D3
330
302
100
AcDbEntity
  8
P-SANR-FIXT
100
AcDbLine
 10
1190.366500488138
 20
2196.640940483406
 30
0.0
 11
1190.366500488138
 21
1796.640940483403
 31
0.0
  0
LWPOLYLINE
  5
3D4
330
302
100
AcDbEntity
  8
P-SANR-FIXT
100
AcDbPolyline
 90
       26
 70
   128
 43
0.0
 10
1229.961150904107
 20
1683.21997705179
 10
1226.308722230916
 20
1686.661959199587
 10
1222.796857685464
 20
1690.247246319595
 10
1219.431175501867
 20
1693.970102717244
 10
1216.217060053644
 20
1697.824572616465
 10
1213.159653239871
 20
1701.804489687661
 10
1210.263846259238
 20
1705.903486912523
 10
1207.534271785175
 20
1710.115006769895
 10
1204.975296554563
 20
1714.432311726418
 10
1202.591014381884
 20
1718.848495015135
 10
1200.385239609996
 20
1723.356491684855
 10
1198.361501007993
 20
1727.94908990256
 10
1196.523036125929
 20
1732.618942490803
 10
1194.872786115433
 20
1737.358578681626
 10
1193.413391024486
 20
1742.160416068192
 10
1192.147185573912
 20
1747.01677273502
 10
1191.076195422323
 20
1751.919879547409
 10
1190.202133925497
 20
1756.861892580402
 10
1189.52639939537
 20
1761.834905667384
 10
1189.050072863042
 20
1766.830963048269
 10
1188.773916349355
 20
1771.842072097018
 10
1188.69837164582
 20
1776.860216108131
 10
1188.823559607848
 20
1781.877367121671
 10
1189.149279961403
 20
1786.885498766285
 10
1189.675011623404
 20
1791.876599099685
 10
1190.366500488138
 20
1796.640940483403
  0
LWPOLYLINE
  5
3D5
330
302
100
AcDbEntity
  8
P-SANR-FIXT
100
AcDbPolyline
 90
       32
 70
   128
 43
0.0
 10
1262.461150904107
 20
1626.928325805801
 10
1260.422064391306
 20
1627.935460515805
 10
1258.424883576714
 20
1629.023331337459
 10
1256.472803523591
 20
1630.190197909515
 10
1254.568947143601
 20
1631.434193494376
 10
1252.716360200817
 20
1632.753327964477
 10
1250.918006439151
 20
1634.145490986067
 10
1249.176762840992
 20
1635.608455395291
 10
1247.495415024653
 20
1637.139880761176
 10
1245.876652787971
 20
1638.737317129822
 10
1244.323065805208
 20
1640.398208943809
 10
1242.837139484121
 20
1642.119899130539
 10
1241.421250989843
 20
1643.899633352988
 10
1240.077665441926
 20
1645.734564416056
 10
1238.808532290629
 20
1647.621756821472
 10
1237.615881878261
 20
1649.558191463969
 10
1236.501622191063
 20
1651.540770461201
 10
1235.467535806838
 20
1653.566322109702
 10
1234.515277043209
 20
1655.631605958927
 10
1233.646369311058
 20
1657.73331799529
 10
1232.862202677401
 20
1659.868095927873
 10
1232.164031641571
 20
1662.032524567378
 10
1231.55297312829
 20
1664.223141289702
 10
1231.030004700828
 20
1666.436441575398
 10
1230.595962997107
 20
1668.668884616153
 10
1230.251542391264
 20
1670.91689897933
 10
1229.997293882794
 20
1673.1768883215
 10
1229.833624215075
 20
1675.445237141821
 10
1229.76079522466
 20
1677.718316566069
 10
1229.778923422399
 20
1679.992490152062
 10
1229.887979807042
 20
1682.264119707194
 10
1229.961150904108
 20
1683.21997705179
  0
LINE
  5
3D6
330
302
100
AcDbEntity
  8
P-SANR-FIXT
100
AcDbLine
 10
1292.114353943102
 20
2325.982558850033
 30
0.0
 11
1248.671952404074
 21
2325.982558850033
 31
0.0
  0
LWPOLYLINE
  5
3D7
330
302
100
AcDbEntity
  8
P-SANR-FIXT
100
AcDbPolyline
 90
        6
 70
   128
 43
0.0
 10
1292.301367431603
 20
2262.237418518857
 10
1292.301367431603
 20
2276.12021346881
 10
1292.301367431603
 20
2289.831755831568
 10
1292.301367431603
 20
2302.965157942955
 10
1292.301367431604
 20
2315.134755653855
 10
1292.301367431604
 20
2325.982558850033
  0
LINE
  5
3D8
330
302
100
AcDbEntity
  8
P-SANR-FIXT
100
AcDbLine
 10
1292.301367431604
 20
2325.982558850033
 30
0.0
 11
1292.114353943102
 21
2325.982558850033
 31
0.0
  0
LINE
  5
3D9
330
302
100
AcDbEntity
  8
P-SANR-FIXT
100
AcDbLine
 10
1226.727222006612
 20
2262.237418518857
 30
0.0
 11
1292.114353943101
 21
2262.237418518857
 31
0.0
  0
LWPOLYLINE
  5
3DA
330
302
100
AcDbEntity
  8
P-SANR-FIXT
100
AcDbPolyline
 90
        7
 70
   128
 43
0.0
 10
1292.301347354545
 20
2201.765589018565
 10
1292.301367431603
 20
2209.73111496792
 10
1292.301367431603
 20
2222.476387441647
 10
1292.301367431603
 20
2234.466533004123
 10
1292.301367431603
 20
2245.315483590353
 10
1292.301367431603
 20
2254.67335207977
 10
1292.301367431603
 20
2262.237418518857
  0
LINE
  5
3DB
330
302
100
AcDbEntity
  8
P-SANR-FIXT
100
AcDbLine
 10
1292.114353943102
 20
2262.237418518857
 30
0.0
 11
1292.301367431603
 21
2262.237418518857
 31
0.0
  0
LINE
  5
3DC
330
302
100
AcDbEntity
  8
P-SANR-FIXT
100
AcDbLine
 10
1190.366500488136
 20
2196.640940483405
 30
0.0
 11
1282.927464141699
 21
2196.640940483405
 31
0.0
  0
LINE
  5
3DD
330
302
100
AcDbEntity
  8
P-SANR-FIXT
100
AcDbLine
 10
1292.301367431604
 20
1796.640940483403
 30
0.0
 11
1292.301367431604
 21
1798.20055577931
 31
0.0
  0
LINE
  5
3DE
330
302
100
AcDbEntity
  8
P-SANR-FIXT
100
AcDbLine
 10
1292.301367431604
 20
1901.764561920724
 30
0.0
 11
1292.301367431604
 21
2098.200555779309
 31
0.0
  0
LINE
  5
3DF
330
302
100
AcDbEntity
  8
P-SANR-FIXT
100
AcDbLine
 10
1190.366500488136
 20
1796.640940483402
 30
0.0
 11
1292.114353943101
 21
1796.640940483403
 31
0.0
  0
LWPOLYLINE
  5
3E0
330
302
100
AcDbEntity
  8
P-SANR-FIXT
100
AcDbPolyline
 90
        8
 70
   128
 43
0.0
 10
1292.301367431603
 20
1683.219977051789
 10
1292.301367431603
 20
1696.132472579105
 10
1292.301367431603
 20
1710.672388408518
 10
1292.301367431603
 20
1726.543574144736
 10
1292.301367431603
 20
1743.424275407599
 10
1292.301367431603
 20
1760.972312743604
 10
1292.301367431603
 20
1778.83193412996
 10
1292.301367431603
 20
1796.640940483403
  0
LINE
  5
3E1
330
302
100
AcDbEntity
  8
P-SANR-FIXT
100
AcDbLine
 10
1292.114353943101
 20
1796.640940483403
 30
0.0
 11
1292.301367431603
 21
1796.640940483403
 31
0.0
  0
LINE
  5
3E2
330
302
100
AcDbEntity
  8
P-SANR-FIXT
100
AcDbLine
 10
1229.961150904106
 20
1683.219977051789
 30
0.0
 11
1292.114353943101
 21
1683.219977051789
 31
0.0
  0
LWPOLYLINE
  5
3E3
330
302
100
AcDbEntity
  8
P-SANR-FIXT
100
AcDbPolyline
 90
        7
 70
   128
 43
0.0
 10
1292.301367431604
 20
1626.9283258058
 10
1292.301367431604
 20
1632.848827124641
 10
1292.301367431604
 20
1640.634654536273
 10
1292.301367431604
 20
1649.967454973866
 10
1292.301367431603
 20
1660.466408709972
 10
1292.301367431603
 20
1671.703415021329
 10
1292.301367431603
 20
1683.219977051789
  0
LINE
  5
3E4
330
302
100
AcDbEntity
  8
P-SANR-FIXT
100
AcDbLine
 10
1292.114353943101
 20
1683.219977051789
 30
0.0
 11
1292.301367431603
 21
1683.219977051789
 31
0.0
  0
LINE
  5
3E5
330
302
100
AcDbEntity
  8
P-SANR-FIXT
100
AcDbLine
 10
1262.461150904105
 20
1626.9283258058
 30
0.0
 11
1292.114353943102
 21
1626.9283258058
 31
0.0
  0
LINE
  5
3E6
330
302
100
AcDbEntity
  8
P-SANR-FIXT
100
AcDbLine
 10
1292.114353943102
 20
1626.9283258058
 30
0.0
 11
1292.301367431604
 21
1626.9283258058
 31
0.0
  0
ENDBLK
  5
3E8
330
302
100
AcDbEntity
  8
0
100
AcDbBlockEnd
  0
ENDSEC
  0
SECTION
  2
ENTITIES
  0
INSERT
  5
23D
330
71
100
AcDbEntity
  8
P-SANR-FIXT
100
AcDbBlockReference
  2
Automatic flow rate regulator valve_Caleffi_121 DN15 - 1_2__-859151-Est - Idraulica
 10
0.0
 20
0.0
 30
0.0
1001
REVIT
1002
{
1070
     1
1000
863131
1002
}
1002
{
1070
     5
1000
859151
1002
}
1002
{
1070
     2
1000
-2001160
1002
}
  0
INSERT
  5
301
330
71
100
AcDbEntity
  8
P-SANR-FIXT
100
AcDbBlockReference
  2
Automatic flow rate regulator valve_Caleffi_121 DN15 - 1_2__-V1-Est - Idraulica
 10
0.0
 20
0.0
 30
0.0
1001
REVIT
1002
{
1070
     1
1000
863152
1002
}
1002
{
1070
     5
1000
859151
1002
}
1002
{
1070
     2
1000
-2001160
1002
}
  0
INSERT
  5
3E9
330
71
100
AcDbEntity
  8
P-SANR-FIXT
100
AcDbBlockReference
  2
Automatic flow rate regulator valve_Caleffi_121 DN15 - 1_2__-V2-Est - Idraulica
 10
0.0
 20
0.0
 30
0.0
1001
REVIT
1002
{
1070
     1
1000
863172
1002
}
1002
{
1070
     5
1000
859151
1002
}
1002
{
1070
     2
1000
-2001160
1002
}
  0
ENDSEC
  0
SECTION
  2
OBJECTS
  0
DICTIONARY
  5
C
330
0
100
AcDbDictionary
281
     1
  3
ACAD_CIP_PREVIOUS_PRODUCT_INFO
350
7A
  3
ACAD_COLOR
350
63
  3
ACAD_DETAILVIEWSTYLE
350
6B
  3
ACAD_GROUP
350
D
  3
ACAD_IMAGE_VARS
350
7B
  3
ACAD_LAYOUT
350
62
  3
ACAD_MATERIAL
350
10
  3
ACAD_MLEADERSTYLE
350
66
  3
ACAD_MLINESTYLE
350
5F
  3
ACAD_PLOTSETTINGS
350
61
  3
ACAD_PLOTSTYLENAME
350
E
  3
ACAD_SCALELIST
350
42
  3
ACAD_SECTIONVIEWSTYLE
350
68
  3
ACAD_TABLESTYLE
350
64
  3
ACAD_VISUALSTYLE
350
29
  3
ACDB_RECOMPOSE_DATA
350
3F3
  3
AcDbVariableDictionary
350
7C
  3
REVIT_DICTIONARY
350
3EB
  0
DICTIONARY
  5
3EF
330
71
100
AcDbDictionary
280
     1
281
     1
  3
ACAD_SORTENTS
360
3F0
  0
XRECORD
  5
7A
102
{ACAD_REACTORS
330
C
102
}
330
C
100
AcDbXrecord
280
     1
300
RVT
300
2013
300
RVT2013
  0
DICTIONARY
  5
63
102
{ACAD_REACTORS
330
C
102
}
330
C
100
AcDbDictionary
281
     1
  0
DICTIONARY
  5
6B
102
{ACAD_REACTORS
330
C
102
}
330
C
100
AcDbDictionary
281
     1
  3
Imperial24
350
6C
  0
DICTIONARY
  5
D
102
{ACAD_REACTORS
330
C
102
}
330
C
100
AcDbDictionary
281
     1
  0
RASTERVARIABLES
  5
7B
102
{ACAD_REACTORS
330
C
102
}
330
C
100
AcDbRasterVariables
 90
        0
 70
     0
 71
     1
 72
     1
  0
DICTIONARY
  5
62
102
{ACAD_REACTORS
330
C
102
}
330
C
100
AcDbDictionary
281
     1
  3
Layout1
350
70
  3
Layout2
350
78
  3
Model
350
74
  0
DICTIONARY
  5
10
102
{ACAD_REACTORS
330
C
102
}
330
C
100
AcDbDictionary
281
     1
  3
ByBlock
350
19
  3
ByLayer
350
11
  3
Global
350
21
  0
DICTIONARY
  5
66
102
{ACAD_REACTORS
330
C
102
}
330
C
100
AcDbDictionary
281
     1
  3
Standard
350
67
  0
DICTIONARY
  5
5F
102
{ACAD_REACTORS
330
C
102
}
330
C
100
AcDbDictionary
281
     1
  3
Standard
350
60
  0
DICTIONARY
  5
61
102
{ACAD_REACTORS
330
C
102
}
330
C
100
AcDbDictionary
281
     1
  0
ACDBDICTIONARYWDFLT
  5
E
102
{ACAD_REACTORS
330
C
102
}
330
C
100
AcDbDictionary
281
     1
  3
Normal
350
F
100
AcDbDictionaryWithDefault
340
F
  0
DICTIONARY
  5
42
102
{ACAD_REACTORS
330
C
102
}
330
C
100
AcDbDictionary
281
     1
  3
A0
350
43
  3
A1
350
44
  3
A2
350
45
  3
A3
350
46
  3
A4
350
47
  3
A5
350
48
  3
A6
350
49
  3
A7
350
4A
  3
A8
350
4B
  3
A9
350
4C
  3
B0
350
4D
  3
B1
350
4E
  3
B2
350
4F
  3
B3
350
50
  3
B4
350
51
  3
B5
350
52
  3
B6
350
53
  0
DICTIONARY
  5
68
102
{ACAD_REACTORS
330
C
102
}
330
C
100
AcDbDictionary
281
     1
  3
Imperial24
350
6A
  0
DICTIONARY
  5
64
102
{ACAD_REACTORS
330
C
102
}
330
C
100
AcDbDictionary
281
     1
  3
Standard
350
65
  0
DICTIONARY
  5
29
102
{ACAD_REACTORS
330
C
102
}
330
C
100
AcDbDictionary
281
     1
  3
2dWireframe
350
2F
  3
Basic
350
2E
  3
Brighten
350
35
  3
ColorChange
350
39
  3
Conceptual
350
32
  3
Dim
350
34
  3
EdgeColorOff
350
41
  3
Facepattern
350
38
  3
Flat
350
2A
  3
FlatWithEdges
350
2B
  3
Gouraud
350
2C
  3
GouraudWithEdges
350
2D
  3
Hidden
350
31
  3
JitterOff
350
3F
  3
Linepattern
350
37
  3
OverhangOff
350
40
  3
Realistic
350
33
  3
Shaded
350
3E
  3
Shaded with edges
350
3D
  3
Shades of Gray
350
3A
  3
Sketchy
350
3B
  3
Thicken
350
36
  3
Wireframe
350
30
  3
X-Ray
350
3C
  0
XRECORD
  5
3F3
102
{ACAD_REACTORS
330
C
102
}
330
C
100
AcDbXrecord
280
     1
 90
        1
330
65
  0
DICTIONARY
  5
7C
102
{ACAD_REACTORS
330
C
102
}
330
C
100
AcDbDictionary
281
     1
  3
CANNOSCALE
350
81
  3
CMLEADERSTYLE
350
7E
  3
CTABLESTYLE
350
7D
  3
CVIEWDETAILSTYLE
350
7F
  3
CVIEWSECTIONSTYLE
350
80
  0
DICTIONARY
  5
3EB
102
{ACAD_REACTORS
330
C
102
}
330
C
100
AcDbDictionary
281
     1
  3
DRAWING_TOOL
350
3EE
  3
REVIT_CATEGORY_MAPPING
350
3ED
  3
REVIT_TYPE_MAPPING
350
3EC
  0
SORTENTSTABLE
  5
3F0
102
{ACAD_REACTORS
330
3EF
102
}
330
3EF
100
AcDbSortentsTable
330
71
  0
ACDBDETAILVIEWSTYLE
  5
6C
102
{ACAD_REACTORS
330
6B
102
}
330
6B
100
AcDbModelDocViewStyle
 70
     0
  3
Imperial24
290
     1
100
AcDbDetailViewStyle
 70
     0
 71
     0
 90
        3
 71
     1
340
55
 62
   256
 40
0.24
340
0
 62
   256
 40
0.24
300

 40
0.36
280
     3
 71
     2
340
5D
 90
       25
 62
   256
 71
     3
340
55
 62
   256
 40
0.24
 90
        1
 40
0.75
 90
        1
300
%<\AcVar ViewType \f "%tc1">% %<\AcVar ViewDetailId>%\PSCALA %<\AcVar ViewScale \f "%sn">%
 71
     4
340
5D
 90
       25
 62
   256
340
5D
 90
       25
 62
   256
280
     0
  0
LAYOUT
  5
70
102
{ACAD_REACTORS
330
62
102
}
330
62
100
AcDbPlotSettings
  1

  2

  4

  6

 40
0.0
 41
0.0
 42
0.0
 43
0.0
 44
0.0
 45
0.0
 46
0.0
 47
0.0
 48
0.0
 49
0.0
140
0.0
141
0.0
142
1.0
143
1.0
 70
   688
 72
     0
 73
     0
 74
     5
  7

 75
    16
147
1.0
 76
     0
 77
     2
 78
   300
148
0.0
149
0.0
100
AcDbLayout
  1
Layout1
 70
     1
 71
     1
 10
0.0
 20
0.0
 11
12.0
 21
9.0
 12
0.0
 22
0.0
 32
0.0
 14
0.0
 24
0.0
 34
0.0
 15
0.0
 25
0.0
 35
0.0
146
0.0
 13
0.0
 23
0.0
 33
0.0
 16
1.0
 26
0.0
 36
0.0
 17
0.0
 27
1.0
 37
0.0
 76
     0
330
6D
  0
LAYOUT
  5
78
102
{ACAD_REACTORS
330
62
102
}
330
62
100
AcDbPlotSettings
  1

  2

  4

  6

 40
0.0
 41
0.0
 42
0.0
 43
0.0
 44
0.0
 45
0.0
 46
0.0
 47
0.0
 48
0.0
 49
0.0
140
0.0
141
0.0
142
1.0
143
1.0
 70
   688
 72
     0
 73
     0
 74
     5
  7

 75
    16
147
1.0
 76
     0
 77
     2
 78
   300
148
0.0
149
0.0
100
AcDbLayout
  1
Layout2
 70
     1
 71
     2
 10
0.0
 20
0.0
 11
12.0
 21
9.0
 12
0.0
 22
0.0
 32
0.0
 14
0.0
 24
0.0
 34
0.0
 15
0.0
 25
0.0
 35
0.0
146
0.0
 13
0.0
 23
0.0
 33
0.0
 16
1.0
 26
0.0
 36
0.0
 17
0.0
 27
1.0
 37
0.0
 76
     0
330
75
  0
LAYOUT
  5
74
102
{ACAD_REACTORS
330
62
102
}
330
62
100
AcDbPlotSettings
  1

  2

  4

  6

 40
0.0
 41
0.0
 42
0.0
 43
0.0
 44
0.0
 45
0.0
 46
0.0
 47
0.0
 48
0.0
 49
0.0
140
0.0
141
0.0
142
1.0
143
1.0
 70
  1712
 72
     0
 73
     0
 74
     0
  7

 75
     0
147
1.0
 76
     0
 77
     2
 78
   300
148
0.0
149
0.0
100
AcDbLayout
  1
Model
 70
     1
 71
     0
 10
0.0
 20
0.0
 11
12.0
 21
9.0
 12
0.0
 22
0.0
 32
0.0
 14
0.0
 24
0.0
 34
0.0
 15
0.0
 25
0.0
 35
0.0
146
0.0
 13
0.0
 23
0.0
 33
0.0
 16
1.0
 26
0.0
 36
0.0
 17
0.0
 27
1.0
 37
0.0
 76
     0
330
71
  0
MATERIAL
  5
19
102
{ACAD_XDICTIONARY
360
1A
102
}
102
{ACAD_REACTORS
330
10
102
}
330
10
100
AcDbMaterial
  1
ByBlock
 72
     0
 43
0.0208333333333333
 43
0.0
 43
0.0
 43
0.0
 43
0.0
 43
0.0208333333333333
 43
0.0
 43
0.0
 43
0.0
 43
0.0
 43
1.0
 43
0.0
 43
0.0
 43
0.0
 43
0.0
 43
1.0
 77
     0
 47
0.0208333333333333
 47
0.0
 47
0.0
 47
0.0
 47
0.0
 47
0.0208333333333333
 47
0.0
 47
0.0
 47
0.0
 47
0.0
 47
1.0
 47
0.0
 47
0.0
 47
0.0
 47
0.0
 47
1.0
171
     0
 49
0.0208333333333333
 49
0.0
 49
0.0
 49
0.0
 49
0.0
 49
0.0208333333333333
 49
0.0
 49
0.0
 49
0.0
 49
0.0
 49
1.0
 49
0.0
 49
0.0
 49
0.0
 49
0.0
 49
1.0
175
     0
142
0.0208333333333333
142
0.0
142
0.0
142
0.0
142
0.0
142
0.0208333333333333
142
0.0
142
0.0
142
0.0
142
0.0
142
1.0
142
0.0
142
0.0
142
0.0
142
0.0
142
1.0
179
     0
144
0.0208333333333333
144
0.0
144
0.0
144
0.0
144
0.0
144
0.0208333333333333
144
0.0
144
0.0
144
0.0
144
0.0
144
1.0
144
0.0
144
0.0
144
0.0
144
0.0
144
1.0
147
0.0208333333333333
147
0.0
147
0.0
147
0.0
147
0.0
147
0.0208333333333333
147
0.0
147
0.0
147
0.0
147
0.0
147
1.0
147
0.0
147
0.0
147
0.0
147
0.0
147
1.0
  0
MATERIAL
  5
11
102
{ACAD_XDICTIONARY
360
12
102
}
102
{ACAD_REACTORS
330
10
102
}
330
10
100
AcDbMaterial
  1
ByLayer
 72
     0
 43
0.0208333333333333
 43
0.0
 43
0.0
 43
0.0
 43
0.0
 43
0.0208333333333333
 43
0.0
 43
0.0
 43
0.0
 43
0.0
 43
1.0
 43
0.0
 43
0.0
 43
0.0
 43
0.0
 43
1.0
 77
     0
 47
0.0208333333333333
 47
0.0
 47
0.0
 47
0.0
 47
0.0
 47
0.0208333333333333
 47
0.0
 47
0.0
 47
0.0
 47
0.0
 47
1.0
 47
0.0
 47
0.0
 47
0.0
 47
0.0
 47
1.0
171
     0
 49
0.0208333333333333
 49
0.0
 49
0.0
 49
0.0
 49
0.0
 49
0.0208333333333333
 49
0.0
 49
0.0
 49
0.0
 49
0.0
 49
1.0
 49
0.0
 49
0.0
 49
0.0
 49
0.0
 49
1.0
175
     0
142
0.0208333333333333
142
0.0
142
0.0
142
0.0
142
0.0
142
0.0208333333333333
142
0.0
142
0.0
142
0.0
142
0.0
142
1.0
142
0.0
142
0.0
142
0.0
142
0.0
142
1.0
179
     0
144
0.0208333333333333
144
0.0
144
0.0
144
0.0
144
0.0
144
0.0208333333333333
144
0.0
144
0.0
144
0.0
144
0.0
144
1.0
144
0.0
144
0.0
144
0.0
144
0.0
144
1.0
147
0.0208333333333333
147
0.0
147
0.0
147
0.0
147
0.0
147
0.0208333333333333
147
0.0
147
0.0
147
0.0
147
0.0
147
1.0
147
0.0
147
0.0
147
0.0
147
0.0
147
1.0
  0
MATERIAL
  5
21
102
{ACAD_XDICTIONARY
360
22
102
}
102
{ACAD_REACTORS
330
10
102
}
330
10
100
AcDbMaterial
  1
Global
 72
     0
 43
0.0208333333333333
 43
0.0
 43
0.0
 43
0.0
 43
0.0
 43
0.0208333333333333
 43
0.0
 43
0.0
 43
0.0
 43
0.0
 43
1.0
 43
0.0
 43
0.0
 43
0.0
 43
0.0
 43
1.0
 77
     0
 47
0.0208333333333333
 47
0.0
 47
0.0
 47
0.0
 47
0.0
 47
0.0208333333333333
 47
0.0
 47
0.0
 47
0.0
 47
0.0
 47
1.0
 47
0.0
 47
0.0
 47
0.0
 47
0.0
 47
1.0
171
     0
 49
0.0208333333333333
 49
0.0
 49
0.0
 49
0.0
 49
0.0
 49
0.0208333333333333
 49
0.0
 49
0.0
 49
0.0
 49
0.0
 49
1.0
 49
0.0
 49
0.0
 49
0.0
 49
0.0
 49
1.0
175
     0
142
0.0208333333333333
142
0.0
142
0.0
142
0.0
142
0.0
142
0.0208333333333333
142
0.0
142
0.0
142
0.0
142
0.0
142
1.0
142
0.0
142
0.0
142
0.0
142
0.0
142
1.0
179
     0
144
0.0208333333333333
144
0.0
144
0.0
144
0.0
144
0.0
144
0.0208333333333333
144
0.0
144
0.0
144
0.0
144
0.0
144
1.0
144
0.0
144
0.0
144
0.0
144
0.0
144
1.0
147
0.0208333333333333
147
0.0
147
0.0
147
0.0
147
0.0
147
0.0208333333333333
147
0.0
147
0.0
147
0.0
147
0.0
147
1.0
147
0.0
147
0.0
147
0.0
147
0.0
147
1.0
  0
MLEADERSTYLE
  5
67
102
{ACAD_REACTORS
330
66
102
}
330
66
100
AcDbMLeaderStyle
179
     2
170
     2
171
     1
172
     0
 90
        2
 40
0.0
 41
0.0
173
     1
 91
-1056964608
340
5B
 92
       -2
290
     1
 42
0.09
291
     1
 43
0.36
  3
Standard
 44
0.18
300

342
55
174
     1
178
     6
175
     1
176
     0
 93
-1056964608
 45
0.18
292
     0
297
     0
 46
0.18
 94
-1056964608
 47
1.0
 49
1.0
140
1.0
293
     1
141
0.0
294
     1
177
     0
142
1.0
295
     1
296
     0
143
0.125
271
     0
272
     9
273
     9
298
     1
  0
MLINESTYLE
  5
60
102
{ACAD_REACTORS
330
5F
102
}
330
5F
100
AcDbMlineStyle
  2
STANDARD
 70
     0
  3

 62
   256
 51
90.0
 52
90.0
 71
     2
 49
0.5
 62
   256
  6
BYLAYER
 49
-0.5
 62
   256
  6
BYLAYER
  0
ACDBPLACEHOLDER
  5
F
102
{ACAD_REACTORS
330
E
102
}
330
E
  0
SCALE
  5
43
102
{ACAD_REACTORS
330
42
102
}
330
42
100
AcDbScale
 70
     0
300
1:1
140
1.0
141
1.0
290
     1
  0
SCALE
  5
44
102
{ACAD_REACTORS
330
42
102
}
330
42
100
AcDbScale
 70
     0
300
1/128" = 1'-0"
140
0.0078125
141
12.0
290
     0
  0
SCALE
  5
45
102
{ACAD_REACTORS
330
42
102
}
330
42
100
AcDbScale
 70
     0
300
1/64" = 1'-0"
140
0.015625
141
12.0
290
     0
  0
SCALE
  5
46
102
{ACAD_REACTORS
330
42
102
}
330
42
100
AcDbScale
 70
     0
300
1/32" = 1'-0"
140
0.03125
141
12.0
290
     0
  0
SCALE
  5
47
102
{ACAD_REACTORS
330
42
102
}
330
42
100
AcDbScale
 70
     0
300
1/16" = 1'-0"
140
0.0625
141
12.0
290
     0
  0
SCALE
  5
48
102
{ACAD_REACTORS
330
42
102
}
330
42
100
AcDbScale
 70
     0
300
3/32" = 1'-0"
140
0.09375
141
12.0
290
     0
  0
SCALE
  5
49
102
{ACAD_REACTORS
330
42
102
}
330
42
100
AcDbScale
 70
     0
300
1/8" = 1'-0"
140
0.125
141
12.0
290
     0
  0
SCALE
  5
4A
102
{ACAD_REACTORS
330
42
102
}
330
42
100
AcDbScale
 70
     0
300
3/16" = 1'-0"
140
0.1875
141
12.0
290
     0
  0
SCALE
  5
4B
102
{ACAD_REACTORS
330
42
102
}
330
42
100
AcDbScale
 70
     0
300
1/4" = 1'-0"
140
0.25
141
12.0
290
     0
  0
SCALE
  5
4C
102
{ACAD_REACTORS
330
42
102
}
330
42
100
AcDbScale
 70
     0
300
3/8" = 1'-0"
140
0.375
141
12.0
290
     0
  0
SCALE
  5
4D
102
{ACAD_REACTORS
330
42
102
}
330
42
100
AcDbScale
 70
     0
300
1/2" = 1'-0"
140
0.5
141
12.0
290
     0
  0
SCALE
  5
4E
102
{ACAD_REACTORS
330
42
102
}
330
42
100
AcDbScale
 70
     0
300
3/4" = 1'-0"
140
0.75
141
12.0
290
     0
  0
SCALE
  5
4F
102
{ACAD_REACTORS
330
42
102
}
330
42
100
AcDbScale
 70
     0
300
1" = 1'-0"
140
1.0
141
12.0
290
     0
  0
SCALE
  5
50
102
{ACAD_REACTORS
330
42
102
}
330
42
100
AcDbScale
 70
     0
300
1-1/2" = 1'-0"
140
1.5
141
12.0
290
     0
  0
SCALE
  5
51
102
{ACAD_REACTORS
330
42
102
}
330
42
100
AcDbScale
 70
     0
300
3" = 1'-0"
140
3.0
141
12.0
290
     0
  0
SCALE
  5
52
102
{ACAD_REACTORS
330
42
102
}
330
42
100
AcDbScale
 70
     0
300
6" = 1'-0"
140
6.0
141
12.0
290
     0
  0
SCALE
  5
53
102
{ACAD_REACTORS
330
42
102
}
330
42
100
AcDbScale
 70
     0
300
1'-0" = 1'-0"
140
12.0
141
12.0
290
     0
  0
ACDBSECTIONVIEWSTYLE
  5
6A
102
{ACAD_REACTORS
330
68
102
}
330
68
100
AcDbModelDocViewStyle
 70
     0
  3
Imperial24
290
     1
100
AcDbSectionViewStyle
 70
     0
 71
     0
 90
       78
 71
     1
340
55
 62
   256
 40
0.24
340
0
340
0
 62
   256
 40
0.24
300
I, O, Q, S, X, Z
 40
0.48
 90
        3
 40
0.18
 90
        1
 71
     2
340
69
 90
       25
 62
   256
340
5D
 90
       50
 62
   256
 40
0.24
 40
0.0
 40
0.24
 71
     3
340
55
 62
   256
 40
0.24
 90
        1
 40
0.75
 90
        1
300
%<\AcVar ViewType \f "%tc1">% %<\AcVar ViewSectionStartId>%-%<\AcVar ViewSectionEndId>%\PSCALA %<\AcVar ViewScale \f "%sn">%
 71
     4
 62
   256
 62
   257
300
ANSI31
 40
1.0
 90
        0
290
     0
290
     0
 90
        6
 40
0.0
 40
1.570796326794896
 40
0.2617993877991494
 40
1.308996938995747
 40
-0.2617993877991494
 40
1.832595714594046
  0
TABLESTYLE
  5
65
102
{ACAD_XDICTIONARY
360
3F1
102
}
102
{ACAD_REACTORS
330
64
102
}
330
64
100
AcDbTableStyle
280
     0
  3
Standard
 70
     0
 71
     0
 40
0.06
 41
0.06
280
     0
281
     0
  7
Standard
140
0.18
170
     2
 62
     0
 63
     7
283
     0
 90
      512
 91
        0
  1

274
    -2
284
     1
 64
     0
275
    -2
285
     1
 65
     0
276
    -2
286
     1
 66
     0
277
    -2
287
     1
 67
     0
278
    -2
288
     1
 68
     0
279
    -2
289
     1
 69
     0
  7
Standard
140
0.25
170
     5
 62
     0
 63
     7
283
     0
 90
      512
 91
        0
  1

274
    -2
284
     1
 64
     0
275
    -2
285
     1
 65
     0
276
    -2
286
     1
 66
     0
277
    -2
287
     1
 67
     0
278
    -2
288
     1
 68
     0
279
    -2
289
     1
 69
     0
  7
Standard
140
0.18
170
     5
 62
     0
 63
     7
283
     0
 90
      512
 91
        0
  1

274
    -2
284
     1
 64
     0
275
    -2
285
     1
 65
     0
276
    -2
286
     1
 66
     0
277
    -2
287
     1
 67
     0
278
    -2
288
     1
 68
     0
279
    -2
289
     1
 69
     0
  0
VISUALSTYLE
  5
2F
102
{ACAD_REACTORS
330
29
102
}
330
29
100
AcDbVisualStyle
  2
2dWireframe
 70
     4
177
     3
291
     0
 70
    58
 90
        0
176
     1
 90
        2
176
     1
 90
        0
176
     1
 90
        0
176
     1
 40
0.6
176
     1
 40
30.0
176
     1
 62
     7
420
 16777215
176
     1
 90
        1
176
     1
 90
        4
176
     1
 62
     7
176
     1
 62
   257
176
     1
 90
        1
176
     1
 90
        1
176
     1
 40
1.0
176
     1
 90
        0
176
     1
 62
   257
176
     1
 40
1.0
176
     1
 90
        1
176
     1
 90
        6
176
     1
 90
        2
176
     1
 62
     7
176
     1
 90
        5
176
     1
 90
        0
176
     1
 90
        0
176
     1
290
     0
176
     1
 90
        1
176
     1
 40
0.0
176
     1
 90
        0
176
     1
290
     1
176
     1
290
     1
176
     1
290
     0
176
     1
290
     0
176
     1
290
     0
176
     1
290
     0
176
     1
290
     0
176
     1
290
     0
176
     1
290
     0
176
     1
 90
       50
176
     1
 40
0.0
176
     1
 40
1.0
176
     1
 90
        0
176
     1
 62
    18
420
        0
176
     1
 90
       50
176
     1
 90
        3
176
     1
 62
     5
420
      255
176
     1
290
     0
176
     1
 90
       50
176
     1
 90
       50
176
     1
 90
       50
176
     1
290
     0
176
     1
 90
       50
176
     1
 62
   256
176
     0
 40
1.0
176
     0
 90
        2
176
     1
  1
strokes_ogs.tif
176
     1
290
     0
176
     1
 40
1.0
176
     1
 40
1.0
176
     1
  0
VISUALSTYLE
  5
2E
102
{ACAD_REACTORS
330
29
102
}
330
29
100
AcDbVisualStyle
  2
Basic
 70
     7
177
     3
291
     1
 70
    58
 90
        1
176
     1
 90
        0
176
     1
 90
        1
176
     1
 90
        0
176
     1
 40
0.6
176
     1
 40
30.0
176
     1
 62
     7
420
 16777215
176
     1
 90
        0
176
     1
 90
        4
176
     1
 62
     7
176
     1
 62
   257
176
     1
 90
        1
176
     1
 90
        1
176
     1
 40
1.0
176
     1
 90
        8
176
     1
 62
     7
176
     1
 40
1.0
176
     1
 90
        1
176
     1
 90
        6
176
     1
 90
        2
176
     1
 62
     7
176
     1
 90
        5
176
     1
 90
        0
176
     1
 90
        0
176
     1
290
     0
176
     1
 90
        1
176
     1
 40
0.0
176
     1
 90
        0
176
     1
290
     0
176
     1
290
     1
176
     1
290
     1
176
     1
290
     0
176
     1
290
     0
176
     1
290
     0
176
     1
290
     0
176
     1
290
     0
176
     1
290
     0
176
     1
 90
       50
176
     1
 40
0.0
176
     1
 40
1.0
176
     1
 90
        0
176
     1
 62
    18
420
        0
176
     1
 90
       50
176
     1
 90
        3
176
     1
 62
     5
420
      255
176
     1
290
     0
176
     1
 90
       50
176
     1
 90
       50
176
     1
 90
       50
176
     1
290
     0
176
     1
 90
       50
176
     1
 62
   256
176
     0
 40
1.0
176
     0
 90
        2
176
     1
  1
strokes_ogs.tif
176
     1
290
     0
176
     1
 40
1.0
176
     1
 40
1.0
176
     1
  0
VISUALSTYLE
  5
35
102
{ACAD_REACTORS
330
29
102
}
330
29
100
AcDbVisualStyle
  2
Brighten
 70
    12
177
     3
291
     1
 70
    58
 90
        2
176
     1
 90
        2
176
     1
 90
        0
176
     1
 90
        0
176
     1
 40
0.6
176
     1
 40
30.0
176
     1
 62
     7
420
 16777215
176
     1
 90
        1
176
     1
 90
        4
176
     1
 62
     7
176
     1
 62
   257
176
     1
 90
        1
176
     1
 90
        1
176
     1
 40
1.0
176
     1
 90
        8
176
     1
 62
     7
176
     1
 40
1.0
176
     1
 90
        1
176
     1
 90
        6
176
     1
 90
        2
176
     1
 62
     7
176
     1
 90
        5
176
     1
 90
        0
176
     1
 90
        0
176
     1
290
     0
176
     1
 90
        1
176
     1
 40
50.0
176
     1
 90
        0
176
     1
290
     0
176
     1
290
     1
176
     1
290
     1
176
     1
290
     0
176
     1
290
     0
176
     1
290
     0
176
     1
290
     0
176
     1
290
     0
176
     1
290
     0
176
     1
 90
       50
176
     1
 40
0.0
176
     1
 40
1.0
176
     1
 90
        0
176
     1
 62
    18
420
        0
176
     1
 90
       50
176
     1
 90
        3
176
     1
 62
     5
420
      255
176
     1
290
     0
176
     1
 90
       50
176
     1
 90
       50
176
     1
 90
       50
176
     1
290
     0
176
     1
 90
       50
176
     1
 62
   256
176
     0
 40
1.0
176
     0
 90
        2
176
     1
  1
strokes_ogs.tif
176
     1
290
     0
176
     1
 40
1.0
176
     1
 40
1.0
176
     1
  0
VISUALSTYLE
  5
39
102
{ACAD_REACTORS
330
29
102
}
330
29
100
AcDbVisualStyle
  2
ColorChange
 70
    16
177
     3
291
     1
 70
    58
 90
        2
176
     1
 90
        2
176
     1
 90
        3
176
     1
 90
        0
176
     1
 40
0.6
176
     1
 40
30.0
176
     1
 62
     8
420
  8421504
176
     1
 90
        1
176
     1
 90
        4
176
     1
 62
     7
176
     1
 62
   257
176
     1
 90
        1
176
     1
 90
        1
176
     1
 40
1.0
176
     1
 90
        8
176
     1
 62
     8
420
  8421504
176
     1
 40
1.0
176
     1
 90
        1
176
     1
 90
        6
176
     1
 90
        2
176
     1
 62
     7
176
     1
 90
        5
176
     1
 90
        0
176
     1
 90
        0
176
     1
290
     0
176
     1
 90
        1
176
     1
 40
0.0
176
     1
 90
        0
176
     1
290
     0
176
     1
290
     1
176
     1
290
     1
176
     1
290
     0
176
     1
290
     0
176
     1
290
     0
176
     1
290
     0
176
     1
290
     0
176
     1
290
     0
176
     1
 90
       50
176
     1
 40
0.0
176
     1
 40
1.0
176
     1
 90
        0
176
     1
 62
    18
420
        0
176
     1
 90
       50
176
     1
 90
        3
176
     1
 62
     5
420
      255
176
     1
290
     0
176
     1
 90
       50
176
     1
 90
       50
176
     1
 90
       50
176
     1
290
     0
176
     1
 90
       50
176
     1
 62
   256
176
     0
 40
1.0
176
     0
 90
        2
176
     1
  1
strokes_ogs.tif
176
     1
290
     0
176
     1
 40
1.0
176
     1
 40
1.0
176
     1
  0
VISUALSTYLE
  5
32
102
{ACAD_REACTORS
330
29
102
}
330
29
100
AcDbVisualStyle
  2
Conceptual
 70
     9
177
     3
291
     0
 70
    58
 90
        3
176
     1
 90
        2
176
     1
 90
        0
176
     1
 90
        0
176
     1
 40
0.6
176
     1
 40
30.0
176
     1
 62
     7
420
 16777215
176
     1
 90
        2
176
     1
 90
        2
176
     1
 62
     7
176
     1
 62
   257
176
     1
 90
        1
176
     1
 90
        1
176
     1
 40
179.0
176
     1
 90
        8
176
     1
 62
     7
176
     1
 40
1.0
176
     1
 90
        1
176
     1
 90
        6
176
     1
 90
        2
176
     1
 62
     7
176
     1
 90
        3
176
     1
 90
        0
176
     1
 90
        0
176
     1
290
     0
176
     1
 90
        1
176
     1
 40
0.0
176
     1
 90
        0
176
     1
290
     0
176
     1
290
     1
176
     1
290
     1
176
     1
290
     0
176
     1
290
     0
176
     1
290
     0
176
     1
290
     0
176
     1
290
     0
176
     1
290
     0
176
     1
 90
       50
176
     1
 40
0.0
176
     1
 40
1.0
176
     1
 90
        0
176
     1
 62
    18
420
        0
176
     1
 90
       50
176
     1
 90
        3
176
     1
 62
     5
420
      255
176
     1
290
     0
176
     1
 90
       50
176
     1
 90
       50
176
     1
 90
       50
176
     1
290
     0
176
     1
 90
       50
176
     1
 62
   256
176
     0
 40
1.0
176
     0
 90
        2
176
     1
  1
strokes_ogs.tif
176
     1
290
     0
176
     1
 40
1.0
176
     1
 40
1.0
176
     1
  0
VISUALSTYLE
  5
34
102
{ACAD_REACTORS
330
29
102
}
330
29
100
AcDbVisualStyle
  2
Dim
 70
    11
177
     3
291
     1
 70
    58
 90
        2
176
     1
 90
        2
176
     1
 90
        0
176
     1
 90
        0
176
     1
 40
0.6
176
     1
 40
30.0
176
     1
 62
     7
420
 16777215
176
     1
 90
        1
176
     1
 90
        4
176
     1
 62
     7
176
     1
 62
   257
176
     1
 90
        1
176
     1
 90
        1
176
     1
 40
1.0
176
     1
 90
        8
176
     1
 62
     7
176
     1
 40
1.0
176
     1
 90
        1
176
     1
 90
        6
176
     1
 90
        2
176
     1
 62
     7
176
     1
 90
        5
176
     1
 90
        0
176
     1
 90
        0
176
     1
290
     0
176
     1
 90
        1
176
     1
 40
-50.0
176
     1
 90
        0
176
     1
290
     0
176
     1
290
     1
176
     1
290
     1
176
     1
290
     0
176
     1
290
     0
176
     1
290
     0
176
     1
290
     0
176
     1
290
     0
176
     1
290
     0
176
     1
 90
       50
176
     1
 40
0.0
176
     1
 40
1.0
176
     1
 90
        0
176
     1
 62
    18
420
        0
176
     1
 90
       50
176
     1
 90
        3
176
     1
 62
     5
420
      255
176
     1
290
     0
176
     1
 90
       50
176
     1
 90
       50
176
     1
 90
       50
176
     1
290
     0
176
     1
 90
       50
176
     1
 62
   256
176
     0
 40
1.0
176
     0
 90
        2
176
     1
  1
strokes_ogs.tif
176
     1
290
     0
176
     1
 40
1.0
176
     1
 40
1.0
176
     1
  0
VISUALSTYLE
  5
41
102
{ACAD_REACTORS
330
29
102
}
330
29
100
AcDbVisualStyle
  2
EdgeColorOff
 70
    22
177
     3
291
     1
 70
    58
 90
        2
176
     0
 90
        2
176
     0
 90
        0
176
     0
 90
        0
176
     0
 40
0.6
176
     0
 40
30.0
176
     0
 62
     7
420
 16777215
176
     0
 90
        1
176
     0
 90
        4
176
     0
 62
     7
176
     0
 62
   257
176
     0
 90
        1
176
     0
 90
        1
176
     0
 40
1.0
176
     0
 90
        8
176
     2
 62
     7
176
     0
 40
1.0
176
     0
 90
        1
176
     0
 90
        6
176
     0
 90
        2
176
     0
 62
     7
176
     0
 90
        5
176
     0
 90
        0
176
     0
 90
        0
176
     0
290
     0
176
     0
 90
        1
176
     0
 40
0.0
176
     0
 90
        0
176
     0
290
     0
176
     0
290
     1
176
     0
290
     1
176
     0
290
     0
176
     0
290
     0
176
     0
290
     0
176
     0
290
     0
176
     0
290
     0
176
     0
290
     0
176
     0
 90
       50
176
     0
 40
0.0
176
     0
 40
1.0
176
     0
 90
        0
176
     0
 62
    18
420
        0
176
     0
 90
       50
176
     0
 90
        3
176
     0
 62
     5
420
      255
176
     0
290
     0
176
     0
 90
       50
176
     0
 90
       50
176
     0
 90
       50
176
     0
290
     0
176
     0
 90
       50
176
     0
 62
   256
176
     0
 40
1.0
176
     0
 90
        2
176
     0
  1
strokes_ogs.tif
176
     0
290
     0
176
     0
 40
1.0
176
     0
 40
1.0
176
     0
  0
VISUALSTYLE
  5
38
102
{ACAD_REACTORS
330
29
102
}
330
29
100
AcDbVisualStyle
  2
Facepattern
 70
    15
177
     3
291
     1
 70
    58
 90
        2
176
     1
 90
        2
176
     1
 90
        0
176
     1
 90
        0
176
     1
 40
0.6
176
     1
 40
30.0
176
     1
 62
     7
420
 16777215
176
     1
 90
        1
176
     1
 90
        4
176
     1
 62
     7
176
     1
 62
   257
176
     1
 90
        1
176
     1
 90
        1
176
     1
 40
1.0
176
     1
 90
        8
176
     1
 62
     7
176
     1
 40
1.0
176
     1
 90
        1
176
     1
 90
        6
176
     1
 90
        2
176
     1
 62
     7
176
     1
 90
        5
176
     1
 90
        0
176
     1
 90
        0
176
     1
290
     0
176
     1
 90
        1
176
     1
 40
0.0
176
     1
 90
        0
176
     1
290
     0
176
     1
290
     1
176
     1
290
     1
176
     1
290
     0
176
     1
290
     0
176
     1
290
     0
176
     1
290
     0
176
     1
290
     0
176
     1
290
     0
176
     1
 90
       50
176
     1
 40
0.0
176
     1
 40
1.0
176
     1
 90
        0
176
     1
 62
    18
420
        0
176
     1
 90
       50
176
     1
 90
        3
176
     1
 62
     5
420
      255
176
     1
290
     0
176
     1
 90
       50
176
     1
 90
       50
176
     1
 90
       50
176
     1
290
     0
176
     1
 90
       50
176
     1
 62
   256
176
     0
 40
1.0
176
     0
 90
        2
176
     1
  1
strokes_ogs.tif
176
     1
290
     0
176
     1
 40
1.0
176
     1
 40
1.0
176
     1
  0
VISUALSTYLE
  5
2A
102
{ACAD_REACTORS
330
29
102
}
330
29
100
AcDbVisualStyle
  2
Flat
 70
     0
177
     3
291
     1
 70
    58
 90
        2
176
     1
 90
        1
176
     1
 90
        1
176
     1
 90
        2
176
     1
 40
0.6
176
     1
 40
30.0
176
     1
 62
     7
420
 16777215
176
     1
 90
        0
176
     1
 90
        0
176
     1
 62
     7
176
     1
 62
   257
176
     1
 90
        1
176
     1
 90
        1
176
     1
 40
1.0
176
     1
 90
        8
176
     1
 62
     7
176
     1
 40
1.0
176
     1
 90
        1
176
     1
 90
        6
176
     1
 90
        2
176
     1
 62
     7
176
     1
 90
        5
176
     1
 90
        0
176
     1
 90
        0
176
     1
290
     0
176
     1
 90
       13
176
     1
 40
0.0
176
     1
 90
        0
176
     1
290
     0
176
     1
290
     1
176
     1
290
     1
176
     1
290
     0
176
     1
290
     0
176
     1
290
     0
176
     1
290
     0
176
     1
290
     0
176
     1
290
     0
176
     1
 90
       50
176
     1
 40
0.0
176
     1
 40
1.0
176
     1
 90
        0
176
     1
 62
    18
420
        0
176
     1
 90
       50
176
     1
 90
        3
176
     1
 62
     5
420
      255
176
     1
290
     0
176
     1
 90
       50
176
     1
 90
       50
176
     1
 90
       50
176
     1
290
     0
176
     1
 90
       50
176
     1
 62
   256
176
     0
 40
1.0
176
     0
 90
        2
176
     1
  1
strokes_ogs.tif
176
     1
290
     0
176
     1
 40
1.0
176
     1
 40
1.0
176
     1
  0
VISUALSTYLE
  5
2B
102
{ACAD_REACTORS
330
29
102
}
330
29
100
AcDbVisualStyle
  2
FlatWithEdges
 70
     1
177
     3
291
     1
 70
    58
 90
        2
176
     1
 90
        1
176
     1
 90
        1
176
     1
 90
        2
176
     1
 40
0.6
176
     1
 40
30.0
176
     1
 62
     7
420
 16777215
176
     1
 90
        1
176
     1
 90
        0
176
     1
 62
     7
176
     1
 62
   257
176
     1
 90
        1
176
     1
 90
        1
176
     1
 40
1.0
176
     1
 90
        0
176
     1
 62
   257
176
     1
 40
1.0
176
     1
 90
        1
176
     1
 90
        6
176
     1
 90
        2
176
     1
 62
     7
176
     1
 90
        5
176
     1
 90
        0
176
     1
 90
        0
176
     1
290
     0
176
     1
 90
       13
176
     1
 40
0.0
176
     1
 90
        0
176
     1
290
     0
176
     1
290
     1
176
     1
290
     1
176
     1
290
     0
176
     1
290
     0
176
     1
290
     0
176
     1
290
     0
176
     1
290
     0
176
     1
290
     0
176
     1
 90
       50
176
     1
 40
0.0
176
     1
 40
1.0
176
     1
 90
        0
176
     1
 62
    18
420
        0
176
     1
 90
       50
176
     1
 90
        3
176
     1
 62
     5
420
      255
176
     1
290
     0
176
     1
 90
       50
176
     1
 90
       50
176
     1
 90
       50
176
     1
290
     0
176
     1
 90
       50
176
     1
 62
   256
176
     0
 40
1.0
176
     0
 90
        2
176
     1
  1
strokes_ogs.tif
176
     1
290
     0
176
     1
 40
1.0
176
     1
 40
1.0
176
     1
  0
VISUALSTYLE
  5
2C
102
{ACAD_REACTORS
330
29
102
}
330
29
100
AcDbVisualStyle
  2
Gouraud
 70
     2
177
     3
291
     1
 70
    58
 90
        2
176
     1
 90
        2
176
     1
 90
        1
176
     1
 90
        2
176
     1
 40
0.6
176
     1
 40
30.0
176
     1
 62
     7
420
 16777215
176
     1
 90
        0
176
     1
 90
        0
176
     1
 62
     7
176
     1
 62
   257
176
     1
 90
        1
176
     1
 90
        1
176
     1
 40
1.0
176
     1
 90
        0
176
     1
 62
     7
176
     1
 40
1.0
176
     1
 90
        1
176
     1
 90
        6
176
     1
 90
        2
176
     1
 62
     7
176
     1
 90
        5
176
     1
 90
        0
176
     1
 90
        0
176
     1
290
     0
176
     1
 90
       13
176
     1
 40
0.0
176
     1
 90
        0
176
     1
290
     0
176
     1
290
     1
176
     1
290
     1
176
     1
290
     0
176
     1
290
     0
176
     1
290
     0
176
     1
290
     0
176
     1
290
     0
176
     1
290
     0
176
     1
 90
       50
176
     1
 40
0.0
176
     1
 40
1.0
176
     1
 90
        0
176
     1
 62
    18
420
        0
176
     1
 90
       50
176
     1
 90
        3
176
     1
 62
     5
420
      255
176
     1
290
     0
176
     1
 90
       50
176
     1
 90
       50
176
     1
 90
       50
176
     1
290
     0
176
     1
 90
       50
176
     1
 62
   256
176
     0
 40
1.0
176
     0
 90
        2
176
     1
  1
strokes_ogs.tif
176
     1
290
     0
176
     1
 40
1.0
176
     1
 40
1.0
176
     1
  0
VISUALSTYLE
  5
2D
102
{ACAD_REACTORS
330
29
102
}
330
29
100
AcDbVisualStyle
  2
GouraudWithEdges
 70
     3
177
     3
291
     1
 70
    58
 90
        2
176
     1
 90
        2
176
     1
 90
        1
176
     1
 90
        2
176
     1
 40
0.6
176
     1
 40
30.0
176
     1
 62
     7
420
 16777215
176
     1
 90
        1
176
     1
 90
        0
176
     1
 62
     7
176
     1
 62
   257
176
     1
 90
        1
176
     1
 90
        1
176
     1
 40
1.0
176
     1
 90
        0
176
     1
 62
   257
176
     1
 40
1.0
176
     1
 90
        1
176
     1
 90
        6
176
     1
 90
        2
176
     1
 62
     7
176
     1
 90
        5
176
     1
 90
        0
176
     1
 90
        0
176
     1
290
     0
176
     1
 90
       13
176
     1
 40
0.0
176
     1
 90
        0
176
     1
290
     0
176
     1
290
     1
176
     1
290
     1
176
     1
290
     0
176
     1
290
     0
176
     1
290
     0
176
     1
290
     0
176
     1
290
     0
176
     1
290
     0
176
     1
 90
       50
176
     1
 40
0.0
176
     1
 40
1.0
176
     1
 90
        0
176
     1
 62
    18
420
        0
176
     1
 90
       50
176
     1
 90
        3
176
     1
 62
     5
420
      255
176
     1
290
     0
176
     1
 90
       50
176
     1
 90
       50
176
     1
 90
       50
176
     1
290
     0
176
     1
 90
       50
176
     1
 62
   256
176
     0
 40
1.0
176
     0
 90
        2
176
     1
  1
strokes_ogs.tif
176
     1
290
     0
176
     1
 40
1.0
176
     1
 40
1.0
176
     1
  0
VISUALSTYLE
  5
31
102
{ACAD_REACTORS
330
29
102
}
330
29
100
AcDbVisualStyle
  2
Hidden
 70
     6
177
     3
291
     0
 70
    58
 90
        1
176
     1
 90
        2
176
     1
 90
        2
176
     1
 90
        0
176
     1
 40
0.6
176
     1
 40
30.0
176
     1
 62
     7
420
 16777215
176
     1
 90
        2
176
     1
 90
        2
176
     1
 62
     7
176
     1
 62
   257
176
     1
 90
        2
176
     1
 90
        1
176
     1
 40
40.0
176
     1
 90
        0
176
     1
 62
   257
176
     1
 40
1.0
176
     1
 90
        1
176
     1
 90
        6
176
     1
 90
        2
176
     1
 62
     7
176
     1
 90
        3
176
     1
 90
        0
176
     1
 90
        0
176
     1
290
     0
176
     1
 90
        1
176
     1
 40
0.0
176
     1
 90
        0
176
     1
290
     0
176
     1
290
     1
176
     1
290
     1
176
     1
290
     0
176
     1
290
     0
176
     1
290
     0
176
     1
290
     0
176
     1
290
     0
176
     1
290
     0
176
     1
 90
       50
176
     1
 40
0.0
176
     1
 40
1.0
176
     1
 90
        0
176
     1
 62
    18
420
        0
176
     1
 90
       50
176
     1
 90
        3
176
     1
 62
     5
420
      255
176
     1
290
     0
176
     1
 90
       50
176
     1
 90
       50
176
     1
 90
       50
176
     1
290
     0
176
     1
 90
       50
176
     1
 62
   256
176
     0
 40
1.0
176
     0
 90
        2
176
     1
  1
strokes_ogs.tif
176
     1
290
     0
176
     1
 40
1.0
176
     1
 40
1.0
176
     1
  0
VISUALSTYLE
  5
3F
102
{ACAD_REACTORS
330
29
102
}
330
29
100
AcDbVisualStyle
  2
JitterOff
 70
    20
177
     3
291
     1
 70
    58
 90
        2
176
     0
 90
        2
176
     0
 90
        0
176
     0
 90
        0
176
     0
 40
0.6
176
     0
 40
30.0
176
     0
 62
     7
420
 16777215
176
     0
 90
        1
176
     0
 90
        4
176
     0
 62
     7
176
     0
 62
   257
176
     0
 90
        1
176
     0
 90
        1
176
     0
 40
1.0
176
     0
 90
       10
176
     2
 62
     7
176
     0
 40
1.0
176
     0
 90
        1
176
     0
 90
        6
176
     0
 90
        2
176
     0
 62
     7
176
     0
 90
        5
176
     0
 90
        0
176
     0
 90
        0
176
     0
290
     0
176
     0
 90
        1
176
     0
 40
0.0
176
     0
 90
        0
176
     0
290
     0
176
     0
290
     1
176
     0
290
     1
176
     0
290
     0
176
     0
290
     0
176
     0
290
     0
176
     0
290
     0
176
     0
290
     0
176
     0
290
     0
176
     0
 90
       50
176
     0
 40
0.0
176
     0
 40
1.0
176
     0
 90
        0
176
     0
 62
    18
420
        0
176
     0
 90
       50
176
     0
 90
        3
176
     0
 62
     5
420
      255
176
     0
290
     0
176
     0
 90
       50
176
     0
 90
       50
176
     0
 90
       50
176
     0
290
     0
176
     0
 90
       50
176
     0
 62
   256
176
     0
 40
1.0
176
     0
 90
        2
176
     0
  1
strokes_ogs.tif
176
     0
290
     0
176
     0
 40
1.0
176
     0
 40
1.0
176
     0
  0
VISUALSTYLE
  5
37
102
{ACAD_REACTORS
330
29
102
}
330
29
100
AcDbVisualStyle
  2
Linepattern
 70
    14
177
     3
291
     1
 70
    58
 90
        2
176
     1
 90
        2
176
     1
 90
        0
176
     1
 90
        0
176
     1
 40
0.6
176
     1
 40
30.0
176
     1
 62
     7
420
 16777215
176
     1
 90
        1
176
     1
 90
        4
176
     1
 62
     7
176
     1
 62
   257
176
     1
 90
        7
176
     1
 90
        7
176
     1
 40
1.0
176
     1
 90
        8
176
     1
 62
     7
176
     1
 40
1.0
176
     1
 90
        1
176
     1
 90
        6
176
     1
 90
        2
176
     1
 62
     7
176
     1
 90
        5
176
     1
 90
        0
176
     1
 90
        0
176
     1
290
     0
176
     1
 90
        1
176
     1
 40
0.0
176
     1
 90
        0
176
     1
290
     0
176
     1
290
     1
176
     1
290
     1
176
     1
290
     0
176
     1
290
     0
176
     1
290
     0
176
     1
290
     0
176
     1
290
     0
176
     1
290
     0
176
     1
 90
       50
176
     1
 40
0.0
176
     1
 40
1.0
176
     1
 90
        0
176
     1
 62
    18
420
        0
176
     1
 90
       50
176
     1
 90
        3
176
     1
 62
     5
420
      255
176
     1
290
     0
176
     1
 90
       50
176
     1
 90
       50
176
     1
 90
       50
176
     1
290
     0
176
     1
 90
       50
176
     1
 62
   256
176
     0
 40
1.0
176
     0
 90
        2
176
     1
  1
strokes_ogs.tif
176
     1
290
     0
176
     1
 40
1.0
176
     1
 40
1.0
176
     1
  0
VISUALSTYLE
  5
40
102
{ACAD_REACTORS
330
29
102
}
330
29
100
AcDbVisualStyle
  2
OverhangOff
 70
    21
177
     3
291
     1
 70
    58
 90
        2
176
     0
 90
        2
176
     0
 90
        0
176
     0
 90
        0
176
     0
 40
0.6
176
     0
 40
30.0
176
     0
 62
     7
420
 16777215
176
     0
 90
        1
176
     0
 90
        4
176
     0
 62
     7
176
     0
 62
   257
176
     0
 90
        1
176
     0
 90
        1
176
     0
 40
1.0
176
     0
 90
        9
176
     2
 62
     7
176
     0
 40
1.0
176
     0
 90
        1
176
     0
 90
        6
176
     0
 90
        2
176
     0
 62
     7
176
     0
 90
        5
176
     0
 90
        0
176
     0
 90
        0
176
     0
290
     0
176
     0
 90
        1
176
     0
 40
0.0
176
     0
 90
        0
176
     0
290
     0
176
     0
290
     1
176
     0
290
     1
176
     0
290
     0
176
     0
290
     0
176
     0
290
     0
176
     0
290
     0
176
     0
290
     0
176
     0
290
     0
176
     0
 90
       50
176
     0
 40
0.0
176
     0
 40
1.0
176
     0
 90
        0
176
     0
 62
    18
420
        0
176
     0
 90
       50
176
     0
 90
        3
176
     0
 62
     5
420
      255
176
     0
290
     0
176
     0
 90
       50
176
     0
 90
       50
176
     0
 90
       50
176
     0
290
     0
176
     0
 90
       50
176
     0
 62
   256
176
     0
 40
1.0
176
     0
 90
        2
176
     0
  1
strokes_ogs.tif
176
     0
290
     0
176
     0
 40
1.0
176
     0
 40
1.0
176
     0
  0
VISUALSTYLE
  5
33
102
{ACAD_REACTORS
330
29
102
}
330
29
100
AcDbVisualStyle
  2
Realistic
 70
     8
177
     3
291
     0
 70
    58
 90
        2
176
     1
 90
        3
176
     1
 90
        0
176
     1
 90
        2
176
     1
 40
0.6
176
     1
 40
30.0
176
     1
 62
     7
420
 16777215
176
     1
 90
        0
176
     1
 90
        0
176
     1
 62
     7
176
     1
 62
   257
176
     1
 90
        1
176
     1
 90
        1
176
     1
 40
1.0
176
     1
 90
        8
176
     1
 62
   257
176
     1
 40
1.0
176
     1
 90
        1
176
     1
 90
        6
176
     1
 90
        2
176
     1
 62
     7
176
     1
 90
        3
176
     1
 90
        0
176
     1
 90
        0
176
     1
290
     0
176
     1
 90
       13
176
     1
 40
0.0
176
     1
 90
        0
176
     1
290
     0
176
     1
290
     1
176
     1
290
     1
176
     1
290
     0
176
     1
290
     0
176
     1
290
     0
176
     1
290
     0
176
     1
290
     0
176
     1
290
     0
176
     1
 90
       50
176
     1
 40
0.0
176
     1
 40
1.0
176
     1
 90
        0
176
     1
 62
    18
420
        0
176
     1
 90
       50
176
     1
 90
        3
176
     1
 62
     5
420
      255
176
     1
290
     0
176
     1
 90
       50
176
     1
 90
       50
176
     1
 90
       50
176
     1
290
     0
176
     1
 90
       50
176
     1
 62
   256
176
     0
 40
1.0
176
     0
 90
        2
176
     1
  1
strokes_ogs.tif
176
     1
290
     0
176
     1
 40
1.0
176
     1
 40
1.0
176
     1
  0
VISUALSTYLE
  5
3E
102
{ACAD_REACTORS
330
29
102
}
330
29
100
AcDbVisualStyle
  2
Shaded
 70
    27
177
     3
291
     0
 70
    58
 90
        2
176
     1
 90
        2
176
     1
 90
        1
176
     1
 90
        2
176
     1
 40
0.6
176
     1
 40
30.0
176
     1
 62
     7
420
 16777215
176
     1
 90
        0
176
     1
 90
        4
176
     1
 62
     7
176
     1
 62
   257
176
     1
 90
        1
176
     1
 90
        1
176
     1
 40
1.0
176
     1
 90
        8
176
     1
 62
   257
176
     1
 40
1.0
176
     1
 90
        1
176
     1
 90
        6
176
     1
 90
        2
176
     1
 62
     8
420
  7895160
176
     1
 90
        3
176
     1
 90
        0
176
     1
 90
        0
176
     1
290
     0
176
     1
 90
        5
176
     1
 40
0.0
176
     1
 90
        0
176
     1
290
     0
176
     1
290
     1
176
     1
290
     1
176
     1
290
     0
176
     1
290
     0
176
     1
290
     0
176
     1
290
     0
176
     1
290
     0
176
     1
290
     0
176
     1
 90
       50
176
     1
 40
0.0
176
     1
 40
1.0
176
     1
 90
        0
176
     1
 62
    18
420
        0
176
     1
 90
       50
176
     1
 90
        3
176
     1
 62
     5
420
      255
176
     1
290
     0
176
     1
 90
       50
176
     1
 90
       50
176
     1
 90
       50
176
     1
290
     0
176
     1
 90
       50
176
     1
 62
   256
176
     0
 40
1.0
176
     0
 90
        2
176
     1
  1
strokes_ogs.tif
176
     1
290
     0
176
     1
 40
1.0
176
     1
 40
1.0
176
     1
  0
VISUALSTYLE
  5
3D
102
{ACAD_REACTORS
330
29
102
}
330
29
100
AcDbVisualStyle
  2
Shaded with edges
 70
    26
177
     3
291
     0
 70
    58
 90
        2
176
     1
 90
        2
176
     1
 90
        1
176
     1
 90
        2
176
     1
 40
0.6
176
     1
 40
30.0
176
     1
 62
     7
420
 16777215
176
     1
 90
        1
176
     1
 90
       10
176
     1
 62
     7
176
     1
 62
   257
176
     1
 90
        2
176
     1
 90
        1
176
     1
 40
1.0
176
     1
 90
        8
176
     1
 62
   257
176
     1
 40
1.0
176
     1
 90
        1
176
     1
 90
        6
176
     1
 90
        2
176
     1
 62
     7
176
     1
 90
        3
176
     1
 90
        0
176
     1
 90
        0
176
     1
290
     0
176
     1
 90
        5
176
     1
 40
0.0
176
     1
 90
        0
176
     1
290
     0
176
     1
290
     1
176
     1
290
     1
176
     1
290
     0
176
     1
290
     0
176
     1
290
     0
176
     1
290
     0
176
     1
290
     0
176
     1
290
     0
176
     1
 90
       50
176
     1
 40
0.0
176
     1
 40
1.0
176
     1
 90
        0
176
     1
 62
    18
420
        0
176
     1
 90
       50
176
     1
 90
        3
176
     1
 62
     5
420
      255
176
     1
290
     0
176
     1
 90
       50
176
     1
 90
       50
176
     1
 90
       50
176
     1
290
     0
176
     1
 90
       50
176
     1
 62
   256
176
     0
 40
1.0
176
     0
 90
        2
176
     1
  1
strokes_ogs.tif
176
     1
290
     0
176
     1
 40
1.0
176
     1
 40
1.0
176
     1
  0
VISUALSTYLE
  5
3A
102
{ACAD_REACTORS
330
29
102
}
330
29
100
AcDbVisualStyle
  2
Shades of Gray
 70
    23
177
     3
291
     0
 70
    58
 90
        2
176
     1
 90
        2
176
     1
 90
        3
176
     1
 90
        0
176
     1
 40
0.6
176
     1
 40
30.0
176
     1
 62
     7
420
 16777215
176
     1
 90
        2
176
     1
 90
        2
176
     1
 62
     7
176
     1
 62
     7
176
     1
 90
        1
176
     1
 90
        1
176
     1
 40
40.0
176
     1
 90
        8
176
     1
 62
     7
176
     1
 40
1.0
176
     1
 90
        1
176
     1
 90
        6
176
     1
 90
        2
176
     1
 62
     7
176
     1
 90
        3
176
     1
 90
        0
176
     1
 90
        0
176
     1
290
     0
176
     1
 90
        1
176
     1
 40
0.0
176
     1
 90
        0
176
     1
290
     0
176
     1
290
     1
176
     1
290
     1
176
     1
290
     0
176
     1
290
     0
176
     1
290
     0
176
     1
290
     0
176
     1
290
     0
176
     1
290
     0
176
     1
 90
       50
176
     1
 40
0.0
176
     1
 40
1.0
176
     1
 90
        0
176
     1
 62
    18
420
        0
176
     1
 90
       50
176
     1
 90
        3
176
     1
 62
     5
420
      255
176
     1
290
     0
176
     1
 90
       50
176
     1
 90
       50
176
     1
 90
       50
176
     1
290
     0
176
     1
 90
       50
176
     1
 62
   256
176
     0
 40
1.0
176
     0
 90
        2
176
     1
  1
strokes_ogs.tif
176
     1
290
     0
176
     1
 40
1.0
176
     1
 40
1.0
176
     1
  0
VISUALSTYLE
  5
3B
102
{ACAD_REACTORS
330
29
102
}
330
29
100
AcDbVisualStyle
  2
Sketchy
 70
    24
177
     3
291
     0
 70
    58
 90
        1
176
     1
 90
        2
176
     1
 90
        2
176
     1
 90
        0
176
     1
 40
0.6
176
     1
 40
30.0
176
     1
 62
     7
420
 16777215
176
     1
 90
        2
176
     1
 90
        2
176
     1
 62
     7
176
     1
 62
     7
176
     1
 90
        1
176
     1
 90
        1
176
     1
 40
40.0
176
     1
 90
       11
176
     1
 62
     7
176
     1
 40
1.0
176
     1
 90
        1
176
     1
 90
        6
176
     1
 90
        2
176
     1
 62
     7
176
     1
 90
        6
176
     1
 90
        0
176
     1
 90
        0
176
     1
290
     0
176
     1
 90
        1
176
     1
 40
0.0
176
     1
 90
        0
176
     1
290
     0
176
     1
290
     1
176
     1
290
     1
176
     1
290
     0
176
     1
290
     0
176
     1
290
     0
176
     1
290
     0
176
     1
290
     0
176
     1
290
     0
176
     1
 90
       50
176
     1
 40
0.0
176
     1
 40
1.0
176
     1
 90
        0
176
     1
 62
    18
420
        0
176
     1
 90
       50
176
     1
 90
        3
176
     1
 62
     5
420
      255
176
     1
290
     0
176
     1
 90
       50
176
     1
 90
       50
176
     1
 90
       50
176
     1
290
     0
176
     1
 90
       50
176
     1
 62
   256
176
     0
 40
1.0
176
     0
 90
        2
176
     1
  1
strokes_ogs.tif
176
     1
290
     0
176
     1
 40
1.0
176
     1
 40
1.0
176
     1
  0
VISUALSTYLE
  5
36
102
{ACAD_REACTORS
330
29
102
}
330
29
100
AcDbVisualStyle
  2
Thicken
 70
    13
177
     3
291
     1
 70
    58
 90
        2
176
     1
 90
        2
176
     1
 90
        0
176
     1
 90
        0
176
     1
 40
0.6
176
     1
 40
30.0
176
     1
 62
     7
420
 16777215
176
     1
 90
        1
176
     1
 90
        4
176
     1
 62
     7
176
     1
 62
   257
176
     1
 90
        1
176
     1
 90
        1
176
     1
 40
1.0
176
     1
 90
       12
176
     1
 62
     7
176
     1
 40
1.0
176
     1
 90
        1
176
     1
 90
        6
176
     1
 90
        2
176
     1
 62
     7
176
     1
 90
        5
176
     1
 90
        0
176
     1
 90
        0
176
     1
290
     0
176
     1
 90
        1
176
     1
 40
0.0
176
     1
 90
        0
176
     1
290
     0
176
     1
290
     1
176
     1
290
     1
176
     1
290
     0
176
     1
290
     0
176
     1
290
     0
176
     1
290
     0
176
     1
290
     0
176
     1
290
     0
176
     1
 90
       50
176
     1
 40
0.0
176
     1
 40
1.0
176
     1
 90
        0
176
     1
 62
    18
420
        0
176
     1
 90
       50
176
     1
 90
        3
176
     1
 62
     5
420
      255
176
     1
290
     0
176
     1
 90
       50
176
     1
 90
       50
176
     1
 90
       50
176
     1
290
     0
176
     1
 90
       50
176
     1
 62
   256
176
     0
 40
1.0
176
     0
 90
        2
176
     1
  1
strokes_ogs.tif
176
     1
290
     0
176
     1
 40
1.0
176
     1
 40
1.0
176
     1
  0
VISUALSTYLE
  5
30
102
{ACAD_REACTORS
330
29
102
}
330
29
100
AcDbVisualStyle
  2
Wireframe
 70
     5
177
     3
291
     0
 70
    58
 90
        0
176
     1
 90
        2
176
     1
 90
        0
176
     1
 90
        0
176
     1
 40
0.6
176
     1
 40
30.0
176
     1
 62
     7
420
 16777215
176
     1
 90
        1
176
     1
 90
        4
176
     1
 62
     7
176
     1
 62
   257
176
     1
 90
        1
176
     1
 90
        1
176
     1
 40
1.0
176
     1
 90
        0
176
     1
 62
   257
176
     1
 40
1.0
176
     1
 90
        1
176
     1
 90
        6
176
     1
 90
        2
176
     1
 62
     7
176
     1
 90
        3
176
     1
 90
        0
176
     1
 90
        0
176
     1
290
     0
176
     1
 90
        1
176
     1
 40
0.0
176
     1
 90
        0
176
     1
290
     0
176
     1
290
     1
176
     1
290
     1
176
     1
290
     0
176
     1
290
     0
176
     1
290
     0
176
     1
290
     0
176
     1
290
     0
176
     1
290
     0
176
     1
 90
       50
176
     1
 40
0.0
176
     1
 40
1.0
176
     1
 90
        0
176
     1
 62
    18
420
        0
176
     1
 90
       50
176
     1
 90
        3
176
     1
 62
     5
420
      255
176
     1
290
     0
176
     1
 90
       50
176
     1
 90
       50
176
     1
 90
       50
176
     1
290
     0
176
     1
 90
       50
176
     1
 62
   256
176
     0
 40
1.0
176
     0
 90
        2
176
     1
  1
strokes_ogs.tif
176
     1
290
     0
176
     1
 40
1.0
176
     1
 40
1.0
176
     1
  0
VISUALSTYLE
  5
3C
102
{ACAD_REACTORS
330
29
102
}
330
29
100
AcDbVisualStyle
  2
X-Ray
 70
    25
177
     3
291
     0
 70
    58
 90
        2
176
     1
 90
        2
176
     1
 90
        1
176
     1
 90
        1
176
     1
 40
0.5
176
     1
 40
30.0
176
     1
 62
     7
420
 16777215
176
     1
 90
        1
176
     1
 90
        0
176
     1
 62
     7
176
     1
 62
   257
176
     1
 90
        1
176
     1
 90
        1
176
     1
 40
1.0
176
     1
 90
        8
176
     1
 62
     7
176
     1
 40
1.0
176
     1
 90
        1
176
     1
 90
        6
176
     1
 90
        2
176
     1
 62
     7
176
     1
 90
        3
176
     1
 90
        0
176
     1
 90
        0
176
     1
290
     0
176
     1
 90
       13
176
     1
 40
0.0
176
     1
 90
        0
176
     1
290
     0
176
     1
290
     1
176
     1
290
     1
176
     1
290
     0
176
     1
290
     0
176
     1
290
     0
176
     1
290
     0
176
     1
290
     0
176
     1
290
     0
176
     1
 90
       50
176
     1
 40
0.0
176
     1
 40
1.0
176
     1
 90
        0
176
     1
 62
    18
420
        0
176
     1
 90
       50
176
     1
 90
        3
176
     1
 62
     5
420
      255
176
     1
290
     0
176
     1
 90
       50
176
     1
 90
       50
176
     1
 90
       50
176
     1
290
     0
176
     1
 90
       50
176
     1
 62
   256
176
     0
 40
1.0
176
     0
 90
        2
176
     1
  1
strokes_ogs.tif
176
     1
290
     0
176
     1
 40
1.0
176
     1
 40
1.0
176
     1
  0
DICTIONARYVAR
  5
81
102
{ACAD_REACTORS
330
7C
102
}
330
7C
100
DictionaryVariables
280
     0
  1
1:1
  0
DICTIONARYVAR
  5
7E
102
{ACAD_REACTORS
330
7C
102
}
330
7C
100
DictionaryVariables
280
     0
  1
STANDARD
  0
DICTIONARYVAR
  5
7D
102
{ACAD_REACTORS
330
7C
102
}
330
7C
100
DictionaryVariables
280
     0
  1
STANDARD
  0
DICTIONARYVAR
  5
7F
102
{ACAD_REACTORS
330
7C
102
}
330
7C
100
DictionaryVariables
280
     0
  1
Imperial24
  0
DICTIONARYVAR
  5
80
102
{ACAD_REACTORS
330
7C
102
}
330
7C
100
DictionaryVariables
280
     0
  1
Imperial24
  0
XRECORD
  5
3EE
102
{ACAD_REACTORS
330
3EB
102
}
330
3EB
100
AcDbXrecord
280
     1
  1
BUILDING_ID
  1
Progetto per messa in tavola DXF, DWG
  1
FLOOR_ID
  1
694395
  0
XRECORD
  5
3ED
102
{ACAD_REACTORS
330
3EB
102
}
330
3EB
100
AcDbXrecord
280
     1
  1
-2001160
  1
Apparecchi idraulici
  0
XRECORD
  5
3EC
102
{ACAD_REACTORS
330
3EB
102
}
330
3EB
100
AcDbXrecord
280
     1
  1
859151
  1
Automatic flow rate regulator valve_Caleffi_121 DN15 : 1/2''
  0
DICTIONARY
  5
1A
330
19
100
AcDbDictionary
280
     1
281
     1
  3
BUMPTILE
360
1C
  3
DIFFUSETILE
360
1B
  3
OPACITYTILE
360
1F
  3
REFLECTIONTILE
360
1E
  3
REFRACTIONTILE
360
20
  3
SPECULARTILE
360
1D
  0
DICTIONARY
  5
12
330
11
100
AcDbDictionary
280
     1
281
     1
  3
BUMPTILE
360
14
  3
DIFFUSETILE
360
13
  3
OPACITYTILE
360
17
  3
REFLECTIONTILE
360
16
  3
REFRACTIONTILE
360
18
  3
SPECULARTILE
360
15
  0
DICTIONARY
  5
22
330
21
100
AcDbDictionary
280
     1
281
     1
  3
BUMPTILE
360
24
  3
DIFFUSETILE
360
23
  3
OPACITYTILE
360
27
  3
REFLECTIONTILE
360
26
  3
REFRACTIONTILE
360
28
  3
SPECULARTILE
360
25
  0
DICTIONARY
  5
3F1
330
65
100
AcDbDictionary
280
     1
281
     1
  3
ACAD_ROUNDTRIP_2008_TABLESTYLE_CELLSTYLEMAP
360
3F2
  0
XRECORD
  5
1C
102
{ACAD_REACTORS
330
1A
102
}
330
1A
100
AcDbXrecord
280
     1
270
     1
271
     1
  0
XRECORD
  5
1B
102
{ACAD_REACTORS
330
1A
102
}
330
1A
100
AcDbXrecord
280
     1
270
     1
271
     1
  0
XRECORD
  5
1F
102
{ACAD_REACTORS
330
1A
102
}
330
1A
100
AcDbXrecord
280
     1
270
     1
271
     1
  0
XRECORD
  5
1E
102
{ACAD_REACTORS
330
1A
102
}
330
1A
100
AcDbXrecord
280
     1
270
     1
271
     1
  0
XRECORD
  5
20
102
{ACAD_REACTORS
330
1A
102
}
330
1A
100
AcDbXrecord
280
     1
270
     1
271
     1
  0
XRECORD
  5
1D
102
{ACAD_REACTORS
330
1A
102
}
330
1A
100
AcDbXrecord
280
     1
270
     1
271
     1
  0
XRECORD
  5
14
102
{ACAD_REACTORS
330
12
102
}
330
12
100
AcDbXrecord
280
     1
270
     1
271
     1
  0
XRECORD
  5
13
102
{ACAD_REACTORS
330
12
102
}
330
12
100
AcDbXrecord
280
     1
270
     1
271
     1
  0
XRECORD
  5
17
102
{ACAD_REACTORS
330
12
102
}
330
12
100
AcDbXrecord
280
     1
270
     1
271
     1
  0
XRECORD
  5
16
102
{ACAD_REACTORS
330
12
102
}
330
12
100
AcDbXrecord
280
     1
270
     1
271
     1
  0
XRECORD
  5
18
102
{ACAD_REACTORS
330
12
102
}
330
12
100
AcDbXrecord
280
     1
270
     1
271
     1
  0
XRECORD
  5
15
102
{ACAD_REACTORS
330
12
102
}
330
12
100
AcDbXrecord
280
     1
270
     1
271
     1
  0
XRECORD
  5
24
102
{ACAD_REACTORS
330
22
102
}
330
22
100
AcDbXrecord
280
     1
270
     1
271
     1
  0
XRECORD
  5
23
102
{ACAD_REACTORS
330
22
102
}
330
22
100
AcDbXrecord
280
     1
270
     1
271
     1
  0
XRECORD
  5
27
102
{ACAD_REACTORS
330
22
102
}
330
22
100
AcDbXrecord
280
     1
270
     1
271
     1
  0
XRECORD
  5
26
102
{ACAD_REACTORS
330
22
102
}
330
22
100
AcDbXrecord
280
     1
270
     1
271
     1
  0
XRECORD
  5
28
102
{ACAD_REACTORS
330
22
102
}
330
22
100
AcDbXrecord
280
     1
270
     1
271
     1
  0
XRECORD
  5
25
102
{ACAD_REACTORS
330
22
102
}
330
22
100
AcDbXrecord
280
     1
270
     1
271
     1
  0
CELLSTYLEMAP
  5
3F2
102
{ACAD_REACTORS
330
3F1
102
}
330
3F1
100
AcDbCellStyleMap
 90
        3
300
CELLSTYLE
  1
TABLEFORMAT_BEGIN
 90
        5
170
     1
 91
        0
 92
    32768
 62
   257
 93
        1
300
CONTENTFORMAT
  1
CONTENTFORMAT_BEGIN
 90
        0
 91
        0
 92
      512
 93
        0
300

 40
0.0
140
1.0
 94
        5
 62
     0
340
55
144
0.25
309
CONTENTFORMAT_END
171
     0
 94
        0
309
TABLEFORMAT_END
  1
CELLSTYLE_BEGIN
 90
        1
 91
        1
300
_TITLE
309
CELLSTYLE_END
300
CELLSTYLE
  1
TABLEFORMAT_BEGIN
 90
        5
170
     1
 91
        0
 92
        0
 62
   257
 93
        1
300
CONTENTFORMAT
  1
CONTENTFORMAT_BEGIN
 90
        0
 91
        0
 92
      512
 93
        0
300

 40
0.0
140
1.0
 94
        5
 62
     0
340
55
144
0.18
309
CONTENTFORMAT_END
171
     0
 94
        0
309
TABLEFORMAT_END
  1
CELLSTYLE_BEGIN
 90
        2
 91
        1
300
_HEADER
309
CELLSTYLE_END
300
CELLSTYLE
  1
TABLEFORMAT_BEGIN
 90
        5
170
     1
 91
        0
 92
        0
 62
   257
 93
        1
300
CONTENTFORMAT
  1
CONTENTFORMAT_BEGIN
 90
        0
 91
        0
 92
      512
 93
        0
300

 40
0.0
140
1.0
 94
        2
 62
     0
340
55
144
0.18
309
CONTENTFORMAT_END
171
     0
 94
        0
309
TABLEFORMAT_END
  1
CELLSTYLE_BEGIN
 90
        3
 91
        2
300
_DATA
309
CELLSTYLE_END
  0
ENDSEC
  0
EOF
