  0
SECTION
  2
HEADER
  9
$ACADVER
  1
AC1027
  9
$ACADMAINTVER
 70
    20
  9
$DWGCODEPAGE
  3
ANSI_1252
  9
$REQUIREDVERSIONS
160
                 0
  9
$INSBASE
 10
0.0
 20
0.0
 30
0.0
  9
$EXTMIN
 10
674.666407443137
 20
1283.945878729988
 30
-0.00000001
  9
$EXTMAX
 10
1389.414353943164
 20
2310.000000000175
 30
0.00000001
  9
$LIMMIN
 10
0.0
 20
0.0
  9
$LIMMAX
 10
12.0
 20
9.0
  9
$ORTHOMODE
 70
     0
  9
$REGENMODE
 70
     1
  9
$FILLMODE
 70
     1
  9
$QTEXTMODE
 70
     0
  9
$MIRRTEXT
 70
     0
  9
$LTSCALE
 40
1.0
  9
$ATTMODE
 70
     1
  9
$TEXTSIZE
 40
0.2
  9
$TRACEWID
 40
0.05
  9
$TEXTSTYLE
  7
Standard
  9
$CLAYER
  8
0
  9
$CELTYPE
  6
ByLayer
  9
$CECOLOR
 62
   256
  9
$CELTSCALE
 40
1.0
  9
$DISPSILH
 70
     0
  9
$DIMSCALE
 40
1.0
  9
$DIMASZ
 40
0.18
  9
$DIMEXO
 40
0.0625
  9
$DIMDLI
 40
0.38
  9
$DIMRND
 40
0.0
  9
$DIMDLE
 40
0.0
  9
$DIMEXE
 40
0.18
  9
$DIMTP
 40
0.0
  9
$DIMTM
 40
0.0
  9
$DIMTXT
 40
0.18
  9
$DIMCEN
 40
0.09
  9
$DIMTSZ
 40
0.0
  9
$DIMTOL
 70
     0
  9
$DIMLIM
 70
     0
  9
$DIMTIH
 70
     1
  9
$DIMTOH
 70
     1
  9
$DIMSE1
 70
     0
  9
$DIMSE2
 70
     0
  9
$DIMTAD
 70
     0
  9
$DIMZIN
 70
     0
  9
$DIMBLK
  1

  9
$DIMASO
 70
     1
  9
$DIMSHO
 70
     1
  9
$DIMPOST
  1

  9
$DIMAPOST
  1

  9
$DIMALT
 70
     0
  9
$DIMALTD
 70
     2
  9
$DIMALTF
 40
25.4
  9
$DIMLFAC
 40
1.0
  9
$DIMTOFL
 70
     0
  9
$DIMTVP
 40
0.0
  9
$DIMTIX
 70
     0
  9
$DIMSOXD
 70
     0
  9
$DIMSAH
 70
     0
  9
$DIMBLK1
  1

  9
$DIMBLK2
  1

  9
$DIMSTYLE
  2
Standard
  9
$DIMCLRD
 70
     0
  9
$DIMCLRE
 70
     0
  9
$DIMCLRT
 70
     0
  9
$DIMTFAC
 40
1.0
  9
$DIMGAP
 40
0.09
  9
$DIMJUST
 70
     0
  9
$DIMSD1
 70
     0
  9
$DIMSD2
 70
     0
  9
$DIMTOLJ
 70
     1
  9
$DIMTZIN
 70
     0
  9
$DIMALTZ
 70
     0
  9
$DIMALTTZ
 70
     0
  9
$DIMUPT
 70
     0
  9
$DIMDEC
 70
     4
  9
$DIMTDEC
 70
     4
  9
$DIMALTU
 70
     2
  9
$DIMALTTD
 70
     2
  9
$DIMTXSTY
  7
Standard
  9
$DIMAUNIT
 70
     0
  9
$DIMADEC
 70
     0
  9
$DIMALTRND
 40
0.0
  9
$DIMAZIN
 70
     0
  9
$DIMDSEP
 70
    46
  9
$DIMATFIT
 70
     3
  9
$DIMFRAC
 70
     0
  9
$DIMLDRBLK
  1

  9
$DIMLUNIT
 70
     2
  9
$DIMLWD
 70
    -2
  9
$DIMLWE
 70
    -2
  9
$DIMTMOVE
 70
     0
  9
$DIMFXL
 40
1.0
  9
$DIMFXLON
 70
     0
  9
$DIMJOGANG
 40
0.7853981633974483
  9
$DIMTFILL
 70
     0
  9
$DIMTFILLCLR
 70
     0
  9
$DIMARCSYM
 70
     0
  9
$DIMLTYPE
  6

  9
$DIMLTEX1
  6

  9
$DIMLTEX2
  6

  9
$DIMTXTDIRECTION
 70
     0
  9
$LUNITS
 70
     2
  9
$LUPREC
 70
     4
  9
$SKETCHINC
 40
0.1
  9
$FILLETRAD
 40
0.0
  9
$AUNITS
 70
     0
  9
$AUPREC
 70
     0
  9
$MENU
  1
.
  9
$ELEVATION
 40
0.0
  9
$PELEVATION
 40
0.0
  9
$THICKNESS
 40
0.0
  9
$LIMCHECK
 70
     0
  9
$CHAMFERA
 40
0.0
  9
$CHAMFERB
 40
0.0
  9
$CHAMFERC
 40
0.0
  9
$CHAMFERD
 40
0.0
  9
$SKPOLY
 70
     0
  9
$TDCREATE
 40
2457549.693941181
  9
$TDUCREATE
 40
2457549.610607847
  9
$TDUPDATE
 40
2457549.693941181
  9
$TDUUPDATE
 40
2457549.610607847
  9
$TDINDWG
 40
0.0000314583
  9
$TDUSRTIMER
 40
0.0000314583
  9
$USRTIMER
 70
     1
  9
$ANGBASE
 50
0.0
  9
$ANGDIR
 70
     0
  9
$PDMODE
 70
     0
  9
$PDSIZE
 40
0.0
  9
$PLINEWID
 40
0.0
  9
$SPLFRAME
 70
     0
  9
$SPLINETYPE
 70
     6
  9
$SPLINESEGS
 70
     8
  9
$HANDSEED
  5
3F6
  9
$SURFTAB1
 70
     6
  9
$SURFTAB2
 70
     6
  9
$SURFTYPE
 70
     6
  9
$SURFU
 70
     6
  9
$SURFV
 70
     6
  9
$UCSBASE
  2

  9
$UCSNAME
  2

  9
$UCSORG
 10
0.0
 20
0.0
 30
0.0
  9
$UCSXDIR
 10
1.0
 20
0.0
 30
0.0
  9
$UCSYDIR
 10
0.0
 20
1.0
 30
0.0
  9
$UCSORTHOREF
  2

  9
$UCSORTHOVIEW
 70
     0
  9
$UCSORGTOP
 10
0.0
 20
0.0
 30
0.0
  9
$UCSORGBOTTOM
 10
0.0
 20
0.0
 30
0.0
  9
$UCSORGLEFT
 10
0.0
 20
0.0
 30
0.0
  9
$UCSORGRIGHT
 10
0.0
 20
0.0
 30
0.0
  9
$UCSORGFRONT
 10
0.0
 20
0.0
 30
0.0
  9
$UCSORGBACK
 10
0.0
 20
0.0
 30
0.0
  9
$PUCSBASE
  2

  9
$PUCSNAME
  2

  9
$PUCSORG
 10
0.0
 20
0.0
 30
0.0
  9
$PUCSXDIR
 10
1.0
 20
0.0
 30
0.0
  9
$PUCSYDIR
 10
0.0
 20
1.0
 30
0.0
  9
$PUCSORTHOREF
  2

  9
$PUCSORTHOVIEW
 70
     0
  9
$PUCSORGTOP
 10
0.0
 20
0.0
 30
0.0
  9
$PUCSORGBOTTOM
 10
0.0
 20
0.0
 30
0.0
  9
$PUCSORGLEFT
 10
0.0
 20
0.0
 30
0.0
  9
$PUCSORGRIGHT
 10
0.0
 20
0.0
 30
0.0
  9
$PUCSORGFRONT
 10
0.0
 20
0.0
 30
0.0
  9
$PUCSORGBACK
 10
0.0
 20
0.0
 30
0.0
  9
$USERI1
 70
     0
  9
$USERI2
 70
     0
  9
$USERI3
 70
     0
  9
$USERI4
 70
     0
  9
$USERI5
 70
     0
  9
$USERR1
 40
0.0
  9
$USERR2
 40
0.0
  9
$USERR3
 40
0.0
  9
$USERR4
 40
0.0
  9
$USERR5
 40
0.0
  9
$WORLDVIEW
 70
     1
  9
$SHADEDGE
 70
     3
  9
$SHADEDIF
 70
    70
  9
$TILEMODE
 70
     1
  9
$MAXACTVP
 70
    64
  9
$PINSBASE
 10
0.0
 20
0.0
 30
0.0
  9
$PLIMCHECK
 70
     0
  9
$PEXTMIN
 10
1.000000000000000E+20
 20
1.000000000000000E+20
 30
1.000000000000000E+20
  9
$PEXTMAX
 10
-1.000000000000000E+20
 20
-1.000000000000000E+20
 30
-1.000000000000000E+20
  9
$PLIMMIN
 10
0.0
 20
0.0
  9
$PLIMMAX
 10
12.0
 20
9.0
  9
$UNITMODE
 70
     0
  9
$VISRETAIN
 70
     1
  9
$PLINEGEN
 70
     0
  9
$PSLTSCALE
 70
     1
  9
$TREEDEPTH
 70
  3020
  9
$CMLSTYLE
  2
Standard
  9
$CMLJUST
 70
     0
  9
$CMLSCALE
 40
1.0
  9
$PROXYGRAPHICS
 70
     1
  9
$MEASUREMENT
 70
     1
  9
$CELWEIGHT
370
    -1
  9
$ENDCAPS
280
     0
  9
$JOINSTYLE
280
     0
  9
$LWDISPLAY
290
     0
  9
$INSUNITS
 70
     4
  9
$HYPERLINKBASE
  1

  9
$STYLESHEET
  1

  9
$XEDIT
290
     1
  9
$CEPSNTYPE
380
     0
  9
$PSTYLEMODE
290
     1
  9
$FINGERPRINTGUID
  2
{63F4893B-0F09-4F75-9733-3E2CF2E6CFDC}
  9
$VERSIONGUID
  2
{9E86A22C-1ABC-47F4-8C23-29C307A7F4B1}
  9
$EXTNAMES
290
     1
  9
$PSVPSCALE
 40
0.0
  9
$OLESTARTUP
290
     0
  9
$SORTENTS
280
   127
  9
$INDEXCTL
280
     0
  9
$HIDETEXT
280
     1
  9
$XCLIPFRAME
280
     2
  9
$HALOGAP
280
     0
  9
$OBSCOLOR
 70
   257
  9
$OBSLTYPE
280
     0
  9
$INTERSECTIONDISPLAY
280
     0
  9
$INTERSECTIONCOLOR
 70
   257
  9
$DIMASSOC
280
     2
  9
$PROJECTNAME
  1

  9
$CAMERADISPLAY
290
     0
  9
$LENSLENGTH
 40
50.0
  9
$CAMERAHEIGHT
 40
0.0
  9
$STEPSPERSEC
 40
2.0
  9
$STEPSIZE
 40
6.0
  9
$3DDWFPREC
 40
2.0
  9
$PSOLWIDTH
 40
0.25
  9
$PSOLHEIGHT
 40
4.0
  9
$LOFTANG1
 40
1.570796326794896
  9
$LOFTANG2
 40
1.570796326794896
  9
$LOFTMAG1
 40
0.0
  9
$LOFTMAG2
 40
0.0
  9
$LOFTPARAM
 70
     7
  9
$LOFTNORMALS
280
     1
  9
$LATITUDE
 40
37.795
  9
$LONGITUDE
 40
-122.394
  9
$NORTHDIRECTION
 40
0.0
  9
$TIMEZONE
 70
 -8000
  9
$LIGHTGLYPHDISPLAY
280
     1
  9
$TILEMODELIGHTSYNCH
280
     1
  9
$CMATERIAL
347
11
  9
$SOLIDHIST
280
     0
  9
$SHOWHIST
280
     1
  9
$DWFFRAME
280
     2
  9
$DGNFRAME
280
     0
  9
$REALWORLDSCALE
290
     1
  9
$INTERFERECOLOR
 62
     1
  9
$INTERFEREOBJVS
345
33
  9
$INTERFEREVPVS
346
30
  9
$CSHADOW
280
     0
  9
$SHADOWPLANELOCATION
 40
0.0
  0
ENDSEC
  0
SECTION
  2
CLASSES
  0
CLASS
  1
ACDBDICTIONARYWDFLT
  2
AcDbDictionaryWithDefault
  3
ObjectDBX Classes
 90
        0
 91
        1
280
     0
281
     0
  0
CLASS
  1
MATERIAL
  2
AcDbMaterial
  3
ObjectDBX Classes
 90
     1153
 91
        3
280
     0
281
     0
  0
CLASS
  1
VISUALSTYLE
  2
AcDbVisualStyle
  3
ObjectDBX Classes
 90
     4095
 91
       24
280
     0
281
     0
  0
CLASS
  1
SCALE
  2
AcDbScale
  3
ObjectDBX Classes
 90
     1153
 91
       17
280
     0
281
     0
  0
CLASS
  1
TABLESTYLE
  2
AcDbTableStyle
  3
ObjectDBX Classes
 90
     4095
 91
        1
280
     0
281
     0
  0
CLASS
  1
MLEADERSTYLE
  2
AcDbMLeaderStyle
  3
ACDB_MLEADERSTYLE_CLASS
 90
     4095
 91
        1
280
     0
281
     0
  0
CLASS
  1
ACDBSECTIONVIEWSTYLE
  2
AcDbSectionViewStyle
  3
ObjectDBX Classes
 90
     1025
 91
        1
280
     0
281
     0
  0
CLASS
  1
ACDBDETAILVIEWSTYLE
  2
AcDbDetailViewStyle
  3
ObjectDBX Classes
 90
     1025
 91
        1
280
     0
281
     0
  0
CLASS
  1
RASTERVARIABLES
  2
AcDbRasterVariables
  3
ISM
 90
        0
 91
        1
280
     0
281
     0
  0
CLASS
  1
DICTIONARYVAR
  2
AcDbDictionaryVar
  3
ObjectDBX Classes
 90
        0
 91
        5
280
     0
281
     0
  0
CLASS
  1
CELLSTYLEMAP
  2
AcDbCellStyleMap
  3
ObjectDBX Classes
 90
     1152
 91
        2
280
     0
281
     0
  0
CLASS
  1
SORTENTSTABLE
  2
AcDbSortentsTable
  3
ObjectDBX Classes
 90
        0
 91
        1
280
     0
281
     0
  0
ENDSEC
  0
SECTION
  2
TABLES
  0
TABLE
  2
VPORT
  5
8
330
0
100
AcDbSymbolTable
 70
     1
  0
VPORT
  5
57
330
8
100
AcDbSymbolTableRecord
100
AcDbViewportTableRecord
  2
*Active
 70
     0
 10
0.0
 20
0.0
 11
1.0
 21
1.0
 12
1032.04038069315
 22
1796.972939365081
 13
0.0
 23
0.0
 14
1.0
 24
1.0
 15
0.0
 25
0.0
 16
0.0
 26
0.0
 36
1.0
 17
0.0
 27
0.0
 37
0.0
 40
1026.054121270186
 41
0.6965986800142829
 42
50.0
 43
0.0
 44
0.0
 50
0.0
 51
0.0
 71
     0
 72
  1000
 73
     1
 74
     1
 75
     0
 76
     0
 77
     0
 78
     0
281
     0
 65
     1
110
0.0
120
0.0
130
0.0
111
1.0
121
0.0
131
0.0
112
0.0
122
1.0
132
0.0
 79
     0
146
0.0
 60
     3
 61
     5
292
     1
282
     1
141
0.0
142
0.0
 63
   250
421
  3355443
  0
ENDTAB
  0
TABLE
  2
LTYPE
  5
5
330
0
100
AcDbSymbolTable
 70
     3
  0
LTYPE
  5
5B
330
5
100
AcDbSymbolTableRecord
100
AcDbLinetypeTableRecord
  2
ByBlock
 70
     0
  3

 72
    65
 73
     0
 40
0.0
  0
LTYPE
  5
5C
330
5
100
AcDbSymbolTableRecord
100
AcDbLinetypeTableRecord
  2
ByLayer
 70
     0
  3

 72
    65
 73
     0
 40
0.0
  0
LTYPE
  5
5D
330
5
100
AcDbSymbolTableRecord
100
AcDbLinetypeTableRecord
  2
Continuous
 70
     0
  3
Solid line
 72
    65
 73
     0
 40
0.0
  0
LTYPE
  5
69
330
5
100
AcDbSymbolTableRecord
100
AcDbLinetypeTableRecord
  2
PHANTOM2
 70
     0
  3
___ _ _ ___ _ _ ___ _ _ ___ _ _
 72
    65
 73
     6
 40
1.25
 49
0.625
 74
     0
 49
-0.125
 74
     0
 49
0.125
 74
     0
 49
-0.125
 74
     0
 49
0.125
 74
     0
 49
-0.125
 74
     0
  0
LTYPE
  5
86
330
5
100
AcDbSymbolTableRecord
100
AcDbLinetypeTableRecord
  2
Nascosto 1_5 mm
 70
     0
  3

 72
    65
 73
     2
 40
2.2
 49
1.5
 74
     0
 49
-0.7000000000000001
 74
     0
  0
ENDTAB
  0
TABLE
  2
LAYER
  5
2
330
0
100
AcDbSymbolTable
 70
     3
  0
LAYER
  5
54
330
2
100
AcDbSymbolTableRecord
100
AcDbLayerTableRecord
  2
0
 70
     0
 62
     7
  6
Continuous
370
    -3
390
F
347
21
348
0
  0
LAYER
  5
85
330
2
100
AcDbSymbolTableRecord
100
AcDbLayerTableRecord
  2
P-SANR-FIXT
 70
     0
 62
     6
  6
Continuous
370
    18
390
F
347
21
348
0
  0
ENDTAB
  0
TABLE
  2
STYLE
  5
3
330
0
100
AcDbSymbolTable
 70
     2
  0
STYLE
  5
55
330
3
100
AcDbSymbolTableRecord
100
AcDbTextStyleTableRecord
  2
Standard
 70
     0
 40
0.0
 41
1.0
 50
0.0
 71
     0
 42
0.2
  3
txt
  4

  0
STYLE
  5
5A
330
3
100
AcDbSymbolTableRecord
100
AcDbTextStyleTableRecord
  2
Annotative
 70
     0
 40
0.0
 41
1.0
 50
0.0
 71
     0
 42
0.2
  3
txt
  4

1001
AcadAnnotative
1000
AnnotativeData
1002
{
1070
     1
1070
     1
1002
}
  0
ENDTAB
  0
TABLE
  2
VIEW
  5
6
330
0
100
AcDbSymbolTable
 70
     0
  0
ENDTAB
  0
TABLE
  2
UCS
  5
7
330
0
100
AcDbSymbolTable
 70
     0
  0
ENDTAB
  0
TABLE
  2
APPID
  5
9
330
0
100
AcDbSymbolTable
 70
     3
  0
APPID
  5
56
330
9
100
AcDbSymbolTableRecord
100
AcDbRegAppTableRecord
  2
ACAD
 70
     0
  0
APPID
  5
5E
330
9
100
AcDbSymbolTableRecord
100
AcDbRegAppTableRecord
  2
AcadAnnotative
 70
     0
  0
APPID
  5
79
330
9
100
AcDbSymbolTableRecord
100
AcDbRegAppTableRecord
  2
REVIT
 70
     0
  0
ENDTAB
  0
TABLE
  2
DIMSTYLE
  5
A
330
0
100
AcDbSymbolTable
 70
     2
100
AcDbDimStyleTable
 71
     0
  0
DIMSTYLE
105
58
330
A
100
AcDbSymbolTableRecord
100
AcDbDimStyleTableRecord
  2
Standard
 70
     0
340
55
  0
DIMSTYLE
105
59
330
A
100
AcDbSymbolTableRecord
100
AcDbDimStyleTableRecord
  2
Annotative
 70
     0
340
55
1001
AcadAnnotative
1000
AnnotativeData
1002
{
1070
     1
1070
     1
1002
}
  0
ENDTAB
  0
TABLE
  2
BLOCK_RECORD
  5
1
330
0
100
AcDbSymbolTable
 70
     4
  0
BLOCK_RECORD
  5
71
102
{ACAD_XDICTIONARY
360
3F1
102
}
330
1
100
AcDbSymbolTableRecord
100
AcDbBlockTableRecord
  2
*Model_Space
340
74
 70
     0
280
     1
281
     0
  0
BLOCK_RECORD
  5
6D
330
1
100
AcDbSymbolTableRecord
100
AcDbBlockTableRecord
  2
*Paper_Space
340
70
 70
     0
280
     1
281
     0
  0
BLOCK_RECORD
  5
75
330
1
100
AcDbSymbolTableRecord
100
AcDbBlockTableRecord
  2
*Paper_Space0
340
78
 70
     0
280
     1
281
     0
  0
BLOCK_RECORD
  5
87
330
1
100
AcDbSymbolTableRecord
100
AcDbBlockTableRecord
  2
Automatic flow rate regulator valve_Caleffi_121 DN15 - 1_2__-859151-Est - Idraulica
340
0
102
{BLKREFS
331
24D
102
}
 70
     0
280
     1
281
     0
  0
BLOCK_RECORD
  5
24E
330
1
100
AcDbSymbolTableRecord
100
AcDbBlockTableRecord
  2
Automatic flow rate regulator valve_Caleffi_121 DN15 - 1_2__-V1-Est - Idraulica
340
0
102
{BLKREFS
331
30B
102
}
 70
     0
280
     1
281
     0
  0
BLOCK_RECORD
  5
30C
330
1
100
AcDbSymbolTableRecord
100
AcDbBlockTableRecord
  2
Automatic flow rate regulator valve_Caleffi_121 DN15 - 1_2__-V2-Est - Idraulica
340
0
102
{BLKREFS
331
3EB
102
}
 70
     0
280
     1
281
     0
  0
ENDTAB
  0
ENDSEC
  0
SECTION
  2
BLOCKS
  0
BLOCK
  5
72
330
71
100
AcDbEntity
  8
0
100
AcDbBlockBegin
  2
*Model_Space
 70
     0
 10
0.0
 20
0.0
 30
0.0
  3
*Model_Space
  1

  0
ENDBLK
  5
73
330
71
100
AcDbEntity
  8
0
100
AcDbBlockEnd
  0
BLOCK
  5
6E
330
6D
100
AcDbEntity
 67
     1
  8
0
100
AcDbBlockBegin
  2
*Paper_Space
 70
     0
 10
0.0
 20
0.0
 30
0.0
  3
*Paper_Space
  1

  0
ENDBLK
  5
6F
330
6D
100
AcDbEntity
 67
     1
  8
0
100
AcDbBlockEnd
  0
BLOCK
  5
76
330
75
100
AcDbEntity
 67
     1
  8
0
100
AcDbBlockBegin
  2
*Paper_Space0
 70
     0
 10
0.0
 20
0.0
 30
0.0
  3
*Paper_Space0
  1

  0
ENDBLK
  5
77
330
75
100
AcDbEntity
 67
     1
  8
0
100
AcDbBlockEnd
  0
BLOCK
  5
24B
330
87
100
AcDbEntity
  8
0
100
AcDbBlockBegin
  2
Automatic flow rate regulator valve_Caleffi_121 DN15 - 1_2__-859151-Est - Idraulica
 70
     0
 10
0.0
 20
0.0
 30
0.0
  3
Automatic flow rate regulator valve_Caleffi_121 DN15 - 1_2__-859151-Est - Idraulica
  1

  0
LWPOLYLINE
  5
88
330
87
100
AcDbEntity
  8
P-SANR-FIXT
100
AcDbPolyline
 90
       17
 70
   128
 43
0.0
 10
855.6664074432003
 20
2299.999999999997
 10
857.8190641582079
 20
2296.563844319108
 10
859.8325893996074
 20
2293.044353887496
 10
861.7037619565422
 20
2289.447159139065
 10
863.4295883520829
 20
2285.778014818051
 10
865.0073076321536
 20
2282.042790772662
 10
866.4343957824682
 20
2278.247462564562
 10
867.7085697664159
 20
2274.398101909258
 10
868.827791177431
 20
2270.500866962647
 10
869.7902695000106
 20
2266.561992469275
 10
870.5944649741564
 20
2262.587779788086
 10
871.2390910586623
 20
2258.584586811581
 10
871.7231164893059
 20
2254.558817794553
 10
872.0457669286517
 20
2250.516913108646
 10
872.2065262048248
 20
2246.46533893913
 10
872.2051371372771
 20
2242.410576940386
 10
872.0668634203748
 20
2238.792665025888
  0
LWPOLYLINE
  5
89
330
87
100
AcDbEntity
  8
P-SANR-FIXT
100
AcDbPolyline
 90
       17
 70
   128
 43
0.0
 10
759.2659514660266
 20
2238.792665025888
 10
759.1197739056472
 20
2242.844791494399
 10
759.1357551112403
 20
2246.899522237251
 10
759.3138695162864
 20
2250.95037055022
 10
759.6538321757329
 20
2254.990855940139
 10
760.1550992218461
 20
2259.014514492308
 10
760.8168687342839
 20
2263.01490921138
 10
761.638082022996
 20
2266.985640319175
 10
762.6174253219034
 20
2270.920355492965
 10
763.7533318906435
 20
2274.812760027833
 10
765.0439845210199
 20
2278.656626906858
 10
766.4873184441482
 20
2282.445806763016
 10
768.0810246336467
 20
2286.174237716852
 10
769.822553499585
 20
2289.835955074195
 10
771.7091189672831
 20
2293.4251008684
 10
773.7377029344391
 20
2296.935933231838
 10
775.6664074432012
 20
2299.999999999997
  0
LWPOLYLINE
  5
8A
330
87
100
AcDbEntity
  8
P-SANR-FIXT
100
AcDbPolyline
 90
       23
 70
   128
 43
0.0
 10
872.0668634203745
 20
2238.792665025887
 10
874.8645359519569
 20
2236.274154201697
 10
877.559257072915
 20
2233.645780855728
 10
880.1467158042989
 20
2230.911749824645
 10
882.6227727640999
 20
2228.07643497487
 10
884.98346678938
 20
2225.144372205326
 10
887.2250212732859
 20
2222.120252190972
 10
889.3438502068169
 20
2219.00891287872
 10
891.3365639156717
 20
2215.815331747751
 10
893.1999744830056
 20
2212.544617846615
 10
894.9311008494177
 20
2209.202003619838
 10
896.5271735820085
 20
2205.79283653713
 10
897.9856393048835
 20
2202.322570538575
 10
899.3041647840088
 20
2198.796757309484
 10
900.4806406598886
 20
2195.221037398891
 10
901.5131848220889
 20
2191.601131195874
 10
902.4001454202148
 20
2187.942829778151
 10
903.1401035065176
 20
2184.251985647596
 10
903.7318753059086
 20
2180.534503367479
 10
904.1745141097466
 20
2176.796330116428
 10
904.46731179037
 20
2173.04344617421
 10
904.6097999339497
 20
2169.28185535456
 10
904.605794866439
 20
2165.709028414481
  0
LWPOLYLINE
  5
8B
330
87
100
AcDbEntity
  8
P-SANR-FIXT
100
AcDbPolyline
 90
       23
 70
   128
 43
0.0
 10
726.7270200199625
 20
2165.709028414481
 10
726.7266299894179
 20
2169.473316954618
 10
726.8767716632622
 20
2173.234610062489
 10
727.1772048468467
 20
2176.986890471485
 10
727.6274489111657
 20
2180.724155333397
 10
728.2267835617639
 20
2184.440425821686
 10
728.9742499910513
 20
2188.129756696334
 10
729.8686524121921
 20
2191.786245814954
 10
730.9085599721083
 20
2195.404043574969
 10
732.092309040539
 20
2198.977362271717
 10
733.4180058714941
 20
2202.50048535755
 10
734.8835296328446
 20
2205.967776587091
 10
736.4865357992012
 20
2209.373689034022
 10
738.2244599026534
 20
2212.712773964984
 10
740.0945216353731
 20
2215.979689556387
 10
742.0937292975135
 20
2219.16920944019
 10
744.2188845832898
 20
2222.276231064974
 10
746.4665876975876
 20
2225.295783858934
 10
748.8332427949077
 20
2228.223037181738
 10
751.3150637319545
 20
2231.053308052516
 10
753.908080124655
 20
2233.782068641634
 10
756.6081436999288
 20
2236.404953514253
 10
759.2659514660271
 20
2238.792665025887
  0
LINE
  5
8C
330
87
100
AcDbEntity
  8
P-SANR-FIXT
100
AcDbLine
 10
904.6057948664385
 20
1825.709028414482
 30
0.0
 11
904.6057948664385
 21
1845.95432256052
 31
0.0
  0
LINE
  5
8D
330
87
100
AcDbEntity
  8
P-SANR-FIXT
100
AcDbLine
 10
904.6057948664385
 20
1894.045677439471
 30
0.0
 11
904.6057948664385
 21
2105.954322560521
 31
0.0
  0
LINE
  5
8E
330
87
100
AcDbEntity
  8
P-SANR-FIXT
100
AcDbLine
 10
904.6057948664385
 20
2154.045677439471
 30
0.0
 11
904.6057948664385
 21
2165.709028414481
 31
0.0
  0
LINE
  5
8F
330
87
100
AcDbEntity
  8
P-SANR-FIXT
100
AcDbLine
 10
726.7270200199629
 20
2165.709028414465
 30
0.0
 11
726.7270200199629
 21
2154.045677439471
 31
0.0
  0
LINE
  5
90
330
87
100
AcDbEntity
  8
P-SANR-FIXT
100
AcDbLine
 10
726.7270200199629
 20
2105.954322560521
 30
0.0
 11
726.7270200199629
 21
1894.045677439471
 31
0.0
  0
LINE
  5
91
330
87
100
AcDbEntity
  8
P-SANR-FIXT
100
AcDbLine
 10
726.7270200199629
 20
1845.954322560521
 30
0.0
 11
726.7270200199629
 21
1825.709028414475
 31
0.0
  0
LWPOLYLINE
  5
92
330
87
100
AcDbEntity
  8
P-SANR-FIXT
100
AcDbPolyline
 90
       29
 70
   128
 43
0.0
 10
876.4996857650496
 20
1703.441545092561
 10
876.7278083899622
 20
1700.72940804704
 10
876.8472919864333
 20
1698.010317949993
 10
876.8579454061974
 20
1695.288624765534
 10
876.7597516060547
 20
1692.568682622161
 10
876.5528676751392
 20
1689.854842847079
 10
876.2376245836072
 20
1687.151447005009
 10
875.814526653157
 20
1684.462819952602
 10
875.2842507502213
 20
1681.7932629196
 10
874.6476452031251
 20
1679.147046627781
 10
873.9057284449421
 20
1676.528404458715
 10
873.0596873842177
 20
1673.941525681259
 10
872.110875506171
 20
1671.390548749618
 10
871.0608107074031
 20
1668.879554682705
 10
869.9111728675912
 20
1666.412560535376
 10
868.6638011620354
 20
1663.993512972002
 10
867.320691119373
 20
1661.62628195265
 10
865.8839914291577
 20
1659.314654541968
 10
864.356000504414
 20
1657.062328850691
 10
862.7391628046675
 20
1654.872908119456
 10
861.0360649253307
 20
1652.749894954381
 10
859.2494314597026
 20
1650.696685723644
 10
857.3821206401996
 20
1648.716565124021
 10
855.4371197657951
 20
1646.812700926068
 10
853.4175404229765
 20
1644.988138906364
 10
851.3266135078715
 20
1643.245797974923
 10
849.167684057504
 20
1641.588465505556
 10
846.9442058984473
 20
1640.018792876667
 10
846.9164074432011
 20
1639.999999999996
  0
LWPOLYLINE
  5
93
330
87
100
AcDbEntity
  8
P-SANR-FIXT
100
AcDbPolyline
 90
       29
 70
   128
 43
0.0
 10
784.4164074432004
 20
1639.999999999996
 10
782.192155533719
 20
1641.568576019465
 10
780.0324090991639
 20
1643.224843698347
 10
777.9406232731091
 20
1644.966153361675
 10
775.9201444666528
 20
1646.789719285447
 10
773.9742050148721
 20
1648.692624153193
 10
772.1059180057791
 20
1650.671823723054
 10
770.3182723000409
 20
1652.724151697925
 10
768.6141277494431
 20
1654.846324790855
 10
766.9962106217351
 20
1657.034947977599
 10
765.4671092391838
 20
1659.28651992794
 10
764.0292698378109
 20
1661.597438607068
 10
762.6849926539351
 20
1663.964007038066
 10
761.4364282442875
 20
1666.382439216285
 10
760.2855740455768
 20
1668.848866166145
 10
759.234271179019
 20
1671.359342130668
 10
758.2842015049339
 20
1673.909850883852
 10
757.4368849321302
 20
1676.496312155771
 10
756.6936769863723
 20
1679.114588160139
 10
756.0557666418313
 20
1681.760490213883
 10
755.5241744189782
 20
1684.429785438149
 10
755.099750751969
 20
1687.118203529996
 10
754.7831746281324
 20
1689.821443593974
 10
754.5749525017336
 20
1692.535181022644
 10
754.4754174837566
 20
1695.255074415018
 10
754.4847288089973
 20
1697.976772521881
 10
754.6028715813211
 20
1700.695921206862
 10
754.8296567974955
 20
1703.408170412118
 10
754.8331291213519
 20
1703.441545092561
  0
LWPOLYLINE
  5
94
330
87
100
AcDbEntity
  8
P-SANR-FIXT
100
AcDbPolyline
 90
       19
 70
   128
 43
0.0
 10
904.6057948664396
 20
1825.709028414475
 10
905.3469477397825
 20
1818.356738735781
 10
905.793494600881
 20
1810.980691894692
 10
905.9447210700151
 20
1803.592687992681
 10
905.8003852170941
 20
1796.204546259967
 10
905.3607179486927
 20
1788.828086147272
 10
904.6264226386497
 20
1781.475108417213
 10
903.5986740028201
 20
1774.157376265607
 10
902.2791162197794
 20
1766.886596502863
 10
900.6698603004902
 20
1759.674400825587
 10
898.7734807111333
 20
1752.53232720834
 10
896.5930112545128
 20
1745.471801445351
 10
894.1319402166172
 20
1738.504118871673
 10
891.3942047861063
 20
1731.640426293067
 10
888.3841847556501
 20
1724.89170415348
 10
885.1066955151939
 20
1718.268748968685
 10
881.566980348362
 20
1711.782156054158
 10
877.7707020443225
 20
1705.442302574828
 10
876.4996857650503
 20
1703.441545092561
  0
LWPOLYLINE
  5
95
330
87
100
AcDbEntity
  8
P-SANR-FIXT
100
AcDbPolyline
 90
       19
 70
   128
 43
0.0
 10
754.8331291213513
 20
1703.441545092561
 10
750.9558251802713
 20
1709.732171869726
 10
747.3331806452226
 20
1716.172817619476
 10
743.9709909746718
 20
1722.753178682544
 10
740.8746349548626
 20
1729.462727884963
 10
738.049066094906
 20
1736.290731379305
 10
735.4988047022223
 20
1743.22626581654
 10
733.2279306510127
 20
1750.258235821073
 10
731.2400768553323
 20
1757.375391740968
 10
729.538423457201
 20
1764.566347644999
 10
728.1256927390558
 20
1771.81959953771
 10
727.0041447686793
 20
1779.123543763348
 10
726.1755737835733
 20
1786.466495569246
 10
725.6413053205616
 20
1793.836707798926
 10
725.4021940952139
 20
1801.222389685049
 10
725.4586226344827
 20
1808.611725712126
 10
725.8105006647433
 20
1815.99289451882
 10
726.45726525621
 20
1823.354087809607
 10
726.7270200199621
 20
1825.709028414475
  0
LINE
  5
96
330
87
100
AcDbEntity
  8
P-SANR-FIXT
100
AcDbLine
 10
775.6675258036657
 20
2299.999999999995
 30
0.0
 11
822.1925762935338
 21
2299.999999999995
 31
0.0
  0
LINE
  5
97
330
87
100
AcDbEntity
  8
P-SANR-FIXT
100
AcDbLine
 10
833.140238592864
 20
2299.999999999995
 30
0.0
 11
855.6652890827326
 21
2299.999999999995
 31
0.0
  0
LINE
  5
98
330
87
100
AcDbEntity
  8
P-SANR-FIXT
100
AcDbLine
 10
855.6652890827326
 20
2299.999999999995
 30
0.0
 11
855.6664074431987
 21
2299.999999999995
 31
0.0
  0
SPLINE
  5
99
330
87
100
AcDbEntity
  8
P-SANR-FIXT
100
AcDbSpline
210
0.0
220
0.0
230
1.0
 70
     8
 71
     3
 72
     8
 73
     4
 74
     0
 42
0.000000001
 43
0.0000000001
 40
-1.0
 40
-1.0
 40
-1.0
 40
-1.0
 40
-0.8750478155665135
 40
-0.8750478155665135
 40
-0.8750478155665135
 40
-0.8750478155665135
 10
855.6652890827326
 20
2299.999999999995
 30
0.0
 10
857.1461633482845
 20
2297.733065543296
 30
0.0
 10
858.5288932505649
 20
2295.424955079464
 30
0.0
 10
859.814890252648
 20
2293.072350690238
 30
0.0
  0
SPLINE
  5
9A
330
87
100
AcDbEntity
  8
P-SANR-FIXT
100
AcDbSpline
210
0.0
220
0.0
230
1.0
 70
     8
 71
     3
 72
     8
 73
     4
 74
     0
 42
0.000000001
 43
0.0000000001
 40
-0.875
 40
-0.875
 40
-0.875
 40
-0.875
 40
-0.7500869053277996
 40
-0.7500869053277996
 40
-0.7500869053277996
 40
-0.7500869053277996
 10
859.8163665510936
 20
2293.069649850882
 30
0.0
 10
861.1018872343898
 20
2290.717747402244
 30
0.0
 10
862.3051758642464
 20
2288.324337642856
 30
0.0
 10
863.3843533178652
 20
2285.877231793907
 30
0.0
  0
SPLINE
  5
9B
330
87
100
AcDbEntity
  8
P-SANR-FIXT
100
AcDbSpline
210
0.0
220
0.0
230
1.0
 70
     8
 71
     3
 72
     8
 73
     4
 74
     0
 42
0.000000001
 43
0.0000000001
 40
-0.75
 40
-0.75
 40
-0.75
 40
-0.75
 40
-0.6251167389761726
 40
-0.6251167389761726
 40
-0.6251167389761726
 40
-0.6251167389761726
 10
863.3866055741073
 20
2285.872124168082
 30
0.0
 10
864.4797989963231
 20
2283.428489471657
 30
0.0
 10
865.4428898349818
 20
2280.931464121193
 30
0.0
 10
866.323932863632
 20
2278.399421031378
 30
0.0
  0
SPLINE
  5
9C
330
87
100
AcDbEntity
  8
P-SANR-FIXT
100
AcDbSpline
210
0.0
220
0.0
230
1.0
 70
     8
 71
     3
 72
     8
 73
     4
 74
     0
 42
0.000000001
 43
0.0000000001
 40
-0.625
 40
-0.625
 40
-0.625
 40
-0.625
 40
-0.5001389679709137
 40
-0.5001389679709137
 40
-0.5001389679709137
 40
-0.5001389679709137
 10
866.3788323199177
 20
2278.400779494134
 30
0.0
 10
867.2770220753207
 20
2275.871938295104
 30
0.0
 10
868.0391380254974
 20
2273.300811089208
 30
0.0
 10
868.7708206775422
 20
2270.710768108328
 30
0.0
  0
SPLINE
  5
9D
330
87
100
AcDbEntity
  8
P-SANR-FIXT
100
AcDbSpline
210
0.0
220
0.0
230
1.0
 70
     8
 71
     3
 72
     8
 73
     4
 74
     0
 42
0.000000001
 43
0.0000000001
 40
-0.5
 40
-0.5
 40
-0.5
 40
-0.5
 40
-0.3751656201699356
 40
-0.3751656201699356
 40
-0.3751656201699356
 40
-0.3751656201699356
 10
868.7732636115184
 20
2270.702120031275
 30
0.0
 10
869.46802687577
 20
2268.108099406629
 30
0.0
 10
870.1384976239355
 20
2265.493558536295
 30
0.0
 10
870.6645779240602
 20
2262.858732916086
 30
0.0
  0
SPLINE
  5
9E
330
87
100
AcDbEntity
  8
P-SANR-FIXT
100
AcDbSpline
210
0.0
220
0.0
230
1.0
 70
     8
 71
     3
 72
     8
 73
     4
 74
     0
 42
0.000000001
 43
0.0000000001
 40
-0.3749999999999987
 40
-0.3749999999999987
 40
-0.3749999999999987
 40
-0.3749999999999987
 40
-0.2501649899213691
 40
-0.2501649899213691
 40
-0.2501649899213691
 40
-0.2501649899213691
 10
870.547398828277
 20
2262.837226966253
 30
0.0
 10
871.0333935113006
 20
2260.198666126981
 30
0.0
 10
871.4850468641019
 20
2257.549578061944
 30
0.0
 10
871.6896668985322
 20
2254.882915152273
 30
0.0
  0
SPLINE
  5
9F
330
87
100
AcDbEntity
  8
P-SANR-FIXT
100
AcDbSpline
210
0.0
220
0.0
230
1.0
 70
     8
 71
     3
 72
     8
 73
     4
 74
     0
 42
0.000000001
 43
0.0000000001
 40
-0.25
 40
-0.25
 40
-0.25
 40
-0.25
 40
-0.1251061943454013
 40
-0.1251061943454013
 40
-0.1251061943454013
 40
-0.1251061943454013
 10
871.6904769202052
 20
2254.872341764169
 30
0.0
 10
871.9652235795416
 20
2252.2104814967
 30
0.0
 10
872.0279319686424
 20
2249.532193566414
 30
0.0
 10
872.0375088734897
 20
2246.85026184978
 30
0.0
  0
SPLINE
  5
A0
330
87
100
AcDbEntity
  8
P-SANR-FIXT
100
AcDbSpline
210
0.0
220
0.0
230
1.0
 70
     8
 71
     3
 72
     8
 73
     4
 74
     0
 42
0.000000001
 43
0.0000000001
 40
-0.125
 40
-0.125
 40
-0.125
 40
-0.125
 40
0.0
 40
0.0
 40
0.0
 40
0.0
 10
872.1964108760493
 20
2246.859988951998
 30
0.0
 10
872.25886483865
 20
2244.181293412927
 30
0.0
 10
872.2152730407426
 20
2241.493436021531
 30
0.0
 10
872.0660702688455
 20
2238.792665025886
 30
0.0
  0
SPLINE
  5
A1
330
87
100
AcDbEntity
  8
P-SANR-FIXT
100
AcDbSpline
210
0.0
220
0.0
230
1.0
 70
     8
 71
     3
 72
     8
 73
     4
 74
     0
 42
0.000000001
 43
0.0000000001
 40
-1.0
 40
-1.0
 40
-1.0
 40
-1.0
 40
-0.875
 40
-0.875
 40
-0.875
 40
-0.875
 10
759.2667446175529
 20
2238.792665025886
 30
0.0
 10
759.1175418456558
 20
2241.493436021531
 30
0.0
 10
759.0739500477484
 20
2244.181293412927
 30
0.0
 10
759.1364040103491
 20
2246.859988951998
 30
0.0
  0
SPLINE
  5
A2
330
87
100
AcDbEntity
  8
P-SANR-FIXT
100
AcDbSpline
210
0.0
220
0.0
230
1.0
 70
     8
 71
     3
 72
     8
 73
     4
 74
     0
 42
0.000000001
 43
0.0000000001
 40
-0.8748938056545988
 40
-0.8748938056545988
 40
-0.8748938056545988
 40
-0.8748938056545988
 40
-0.75
 40
-0.75
 40
-0.75
 40
-0.75
 10
759.136563414147
 20
2246.866816027826
 30
0.0
 10
759.199144349286
 20
2249.543220317283
 30
0.0
 10
759.3535829223453
 20
2252.215083242947
 30
0.0
 10
759.6423379661931
 20
2254.872341764169
 30
0.0
  0
SPLINE
  5
A3
330
87
100
AcDbEntity
  8
P-SANR-FIXT
100
AcDbSpline
210
0.0
220
0.0
230
1.0
 70
     8
 71
     3
 72
     8
 73
     4
 74
     0
 42
0.000000001
 43
0.0000000001
 40
-0.7498350100786296
 40
-0.7498350100786296
 40
-0.7498350100786296
 40
-0.7498350100786296
 40
-0.6250000000000014
 40
-0.6250000000000014
 40
-0.6250000000000014
 40
-0.6250000000000014
 10
759.6434273780728
 20
2254.882891020852
 30
0.0
 10
759.9183254146081
 20
2257.54348389635
 30
0.0
 10
760.3325042159759
 20
2260.186220331056
 30
0.0
 10
760.8350730910781
 20
2262.818545943644
 30
0.0
  0
SPLINE
  5
A4
330
87
100
AcDbEntity
  8
P-SANR-FIXT
100
AcDbSpline
210
0.0
220
0.0
230
1.0
 70
     8
 71
     3
 72
     8
 73
     4
 74
     0
 42
0.000000001
 43
0.0000000001
 40
-0.6248343798300651
 40
-0.6248343798300651
 40
-0.6248343798300651
 40
-0.6248343798300651
 40
-0.5
 40
-0.5
 40
-0.5
 40
-0.5
 10
760.7873509377177
 20
2262.847728713504
 30
0.0
 10
761.2736215043264
 20
2265.486232108474
 30
0.0
 10
761.8988745873121
 20
2268.09379854331
 30
0.0
 10
762.5595512748799
 20
2270.702120031275
 30
0.0
  0
SPLINE
  5
A5
330
87
100
AcDbEntity
  8
P-SANR-FIXT
100
AcDbSpline
210
0.0
220
0.0
230
1.0
 70
     8
 71
     3
 72
     8
 73
     4
 74
     0
 42
0.000000001
 43
0.0000000001
 40
-0.4998610320290864
 40
-0.4998610320290864
 40
-0.4998610320290864
 40
-0.4998610320290864
 40
-0.375
 40
-0.375
 40
-0.375
 40
-0.375
 10
762.5618719304778
 20
2270.710783064841
 30
0.0
 10
763.2570142227294
 20
2273.305295489697
 30
0.0
 10
763.9831529193347
 20
2275.904855876011
 30
0.0
 10
764.8449621274695
 20
2278.450183327696
 30
0.0
  0
SPLINE
  5
A6
330
87
100
AcDbEntity
  8
P-SANR-FIXT
100
AcDbSpline
210
0.0
220
0.0
230
1.0
 70
     8
 71
     3
 72
     8
 73
     4
 74
     0
 42
0.000000001
 43
0.0000000001
 40
-0.3748832610238274
 40
-0.3748832610238274
 40
-0.3748832610238274
 40
-0.3748832610238274
 40
-0.25
 40
-0.25
 40
-0.25
 40
-0.25
 10
764.956502118038
 20
2278.407872424605
 30
0.0
 10
765.8550376966436
 20
2280.93709312635
 30
0.0
 10
766.7885787140638
 20
2283.458129446469
 30
0.0
 10
767.9462093122911
 20
2285.872124168082
 30
0.0
  0
SPLINE
  5
A7
330
87
100
AcDbEntity
  8
P-SANR-FIXT
100
AcDbSpline
210
0.0
220
0.0
230
1.0
 70
     8
 71
     3
 72
     8
 73
     4
 74
     0
 42
0.000000001
 43
0.0000000001
 40
-0.2499130946722005
 40
-0.2499130946722005
 40
-0.2499130946722005
 40
-0.2499130946722005
 40
0.0
 40
0.0
 40
0.0
 40
0.0
 10
767.9484916860117
 20
2285.877225620049
 30
0.0
 10
770.1364267817011
 20
2290.767230028295
 30
0.0
 10
772.7056738584401
 20
2295.465972779412
 30
0.0
 10
775.6675258036657
 20
2299.999999999995
 30
0.0
  0
LINE
  5
A8
330
87
100
AcDbEntity
  8
P-SANR-FIXT
100
AcDbLine
 10
775.6664074431996
 20
2299.999999999995
 30
0.0
 11
775.6675258036657
 21
2299.999999999995
 31
0.0
  0
LINE
  5
A9
330
87
100
AcDbEntity
  8
P-SANR-FIXT
100
AcDbLine
 10
872.0660702688451
 20
2238.792665025886
 30
0.0
 11
872.0666651321423
 21
2238.792665025886
 31
0.0
  0
SPLINE
  5
AA
330
87
100
AcDbEntity
  8
P-SANR-FIXT
100
AcDbSpline
210
0.0
220
0.0
230
1.0
 70
     8
 71
     3
 72
    12
 73
     8
 74
     0
 42
0.000000001
 43
0.0000000001
 40
-1.0
 40
-1.0
 40
-1.0
 40
-1.0
 40
-0.85
 40
-0.7
 40
-0.4
 40
-0.2
 40
0.0
 40
0.0
 40
0.0
 40
0.0
 10
872.0660702688455
 20
2238.792665025886
 30
0.0
 10
875.2200601410617
 20
2236.05823828318
 30
0.0
 10
881.0977029625206
 20
2230.259604970918
 30
0.0
 10
891.238655538611
 20
2217.193636387076
 30
0.0
 10
899.3106123622267
 20
2201.039499681658
 30
0.0
 10
903.9716448371708
 20
2182.212520559767
 30
0.0
 10
904.7103342217416
 20
2171.267288557416
 30
0.0
 10
904.6052918955815
 20
2165.709028414463
 30
0.0
  0
SPLINE
  5
AB
330
87
100
AcDbEntity
  8
P-SANR-FIXT
100
AcDbSpline
210
0.0
220
0.0
230
1.0
 70
     8
 71
     3
 72
    12
 73
     8
 74
     0
 42
0.000000001
 43
0.0000000001
 40
-1.0
 40
-1.0
 40
-1.0
 40
-1.0
 40
-0.85
 40
-0.7
 40
-0.4
 40
-0.2
 40
0.0
 40
0.0
 40
0.0
 40
0.0
 10
726.7275229908168
 20
2165.709028414463
 30
0.0
 10
726.6487412461968
 20
2169.877723521677
 30
0.0
 10
727.0241664375471
 20
2178.117965884093
 30
0.0
 10
729.9459430034988
 20
2194.394508153321
 30
0.0
 10
736.5479742835449
 20
2211.205750369075
 30
0.0
 10
747.4156510445526
 20
2227.26671695552
 30
0.0
 10
755.0614247879313
 20
2235.146762702278
 30
0.0
 10
759.2667446175529
 20
2238.792665025886
 30
0.0
  0
LINE
  5
AC
330
87
100
AcDbEntity
  8
P-SANR-FIXT
100
AcDbLine
 10
759.2661497542557
 20
2238.792665025886
 30
0.0
 11
759.2667446175529
 21
2238.792665025886
 31
0.0
  0
LINE
  5
AD
330
87
100
AcDbEntity
  8
P-SANR-FIXT
100
AcDbLine
 10
904.6052918955815
 20
2165.70902841448
 30
0.0
 11
904.6056691236342
 21
2165.70902841448
 31
0.0
  0
LINE
  5
AE
330
87
100
AcDbEntity
  8
P-SANR-FIXT
100
AcDbLine
 10
904.6052918955815
 20
2165.709028414463
 30
0.0
 11
904.6052918955815
 21
2154.13824788391
 31
0.0
  0
LINE
  5
AF
330
87
100
AcDbEntity
  8
P-SANR-FIXT
100
AcDbLine
 10
904.6052918955815
 20
2105.861752116079
 30
0.0
 11
904.6052918955815
 21
1894.138247883909
 31
0.0
  0
LINE
  5
B0
330
87
100
AcDbEntity
  8
P-SANR-FIXT
100
AcDbLine
 10
904.6052918955815
 20
1845.861752116079
 30
0.0
 11
904.6052918955815
 21
1825.709028414481
 31
0.0
  0
LINE
  5
B1
330
87
100
AcDbEntity
  8
P-SANR-FIXT
100
AcDbLine
 10
726.7275229908168
 20
1825.709028414481
 30
0.0
 11
726.7275229908168
 21
1845.86175211608
 31
0.0
  0
LINE
  5
B2
330
87
100
AcDbEntity
  8
P-SANR-FIXT
100
AcDbLine
 10
726.7275229908168
 20
1894.13824788391
 30
0.0
 11
726.7275229908168
 21
2105.86175211608
 31
0.0
  0
LINE
  5
B3
330
87
100
AcDbEntity
  8
P-SANR-FIXT
100
AcDbLine
 10
726.7275229908168
 20
2154.13824788391
 30
0.0
 11
726.7275229908168
 21
2165.709028414463
 31
0.0
  0
LINE
  5
B4
330
87
100
AcDbEntity
  8
P-SANR-FIXT
100
AcDbLine
 10
726.727145762764
 20
2165.709028414463
 30
0.0
 11
726.7275229908168
 21
2165.709028414463
 31
0.0
  0
SPLINE
  5
B5
330
87
100
AcDbEntity
  8
P-SANR-FIXT
100
AcDbSpline
210
0.0
220
0.0
230
1.0
 70
     8
 71
     3
 72
    17
 73
    13
 74
     0
 42
0.000000001
 43
0.0000000001
 40
-1.0
 40
-1.0
 40
-1.0
 40
-1.0
 40
-0.85
 40
-0.775
 40
-0.7
 40
-0.625
 40
-0.55
 40
-0.475
 40
-0.4
 40
-0.3
 40
-0.2
 40
0.0
 40
0.0
 40
0.0
 40
0.0
 10
784.4178389573719
 20
1639.999999999995
 30
0.0
 10
781.3294253781142
 20
1642.098012438531
 30
0.0
 10
777.017483851308
 20
1645.554462480214
 30
0.0
 10
771.9227276986441
 20
1650.76452037875
 30
0.0
 10
768.3857409939885
 20
1655.029775261267
 30
0.0
 10
765.2017823846131
 20
1659.561015105862
 30
0.0
 10
762.4325315173126
 20
1664.281725093057
 30
0.0
 10
760.0160526088559
 20
1669.290260275884
 30
0.0
 10
757.8088927098562
 20
1674.986409810566
 30
0.0
 10
755.9865657881589
 20
1681.489515547075
 30
0.0
 10
754.3521682146928
 20
1691.186767545377
 30
0.0
 10
754.3298602052535
 20
1698.490608611876
 30
0.0
 10
754.8338644764861
 20
1703.44154509256
 30
0.0
  0
LINE
  5
B6
330
87
100
AcDbEntity
  8
P-SANR-FIXT
100
AcDbLine
 10
754.8338644764861
 20
1703.44154509256
 30
0.0
 11
754.8331291213503
 21
1703.44154509256
 31
0.0
  0
LINE
  5
B7
330
87
100
AcDbEntity
  8
P-SANR-FIXT
100
AcDbLine
 10
876.499685765048
 20
1703.441545092561
 30
0.0
 11
876.4989504099121
 21
1703.441545092561
 31
0.0
  0
SPLINE
  5
B8
330
87
100
AcDbEntity
  8
P-SANR-FIXT
100
AcDbSpline
210
0.0
220
0.0
230
1.0
 70
     8
 71
     3
 72
    17
 73
    13
 74
     0
 42
0.000000001
 43
0.0000000001
 40
-1.0
 40
-1.0
 40
-1.0
 40
-1.0
 40
-0.85
 40
-0.775
 40
-0.7
 40
-0.625
 40
-0.55
 40
-0.475
 40
-0.4
 40
-0.3
 40
-0.2
 40
0.0
 40
0.0
 40
0.0
 40
0.0
 10
876.4989504099123
 20
1703.441545092559
 30
0.0
 10
876.8769536133367
 20
1699.728342732047
 30
0.0
 10
877.0008418480696
 20
1694.204803625483
 30
0.0
 10
876.2846673780181
 20
1686.953971853425
 30
0.0
 10
875.2909924416748
 20
1681.502752384962
 30
0.0
 10
873.866662619331
 20
1676.150753720802
 30
0.0
 10
872.0305785493994
 20
1670.994946984661
 30
0.0
 10
869.7472705169674
 20
1665.924321431712
 30
0.0
 10
866.8026097584645
 20
1660.572000715164
 30
0.0
 10
862.9927647082929
 20
1654.995977157591
 30
0.0
 10
856.6149412539386
 20
1647.510428882994
 30
0.0
 10
851.03286070137
 20
1642.797349918043
 30
0.0
 10
846.9149759290264
 20
1639.999999999995
 30
0.0
  0
LINE
  5
B9
330
87
100
AcDbEntity
  8
P-SANR-FIXT
100
AcDbLine
 10
846.9149759290264
 20
1639.999999999995
 30
0.0
 11
846.916407443199
 21
1639.999999999995
 31
0.0
  0
LINE
  5
BA
330
87
100
AcDbEntity
  8
P-SANR-FIXT
100
AcDbLine
 10
846.9149759290264
 20
1639.999999999995
 30
0.0
 11
823.1468026509917
 21
1639.999999999995
 31
0.0
  0
LINE
  5
BB
330
87
100
AcDbEntity
  8
P-SANR-FIXT
100
AcDbLine
 10
808.1860122354067
 20
1639.999999999995
 30
0.0
 11
784.4178389573719
 21
1639.999999999995
 31
0.0
  0
LINE
  5
BC
330
87
100
AcDbEntity
  8
P-SANR-FIXT
100
AcDbLine
 10
784.4164074431988
 20
1639.999999999995
 30
0.0
 11
784.4178389573714
 21
1639.999999999995
 31
0.0
  0
LINE
  5
BD
330
87
100
AcDbEntity
  8
P-SANR-FIXT
100
AcDbLine
 10
904.6052918955824
 20
1825.709028414474
 30
0.0
 11
904.6057948664378
 21
1825.709028414474
 31
0.0
  0
SPLINE
  5
BE
330
87
100
AcDbEntity
  8
P-SANR-FIXT
100
AcDbSpline
210
0.0
220
0.0
230
1.0
 70
     8
 71
     3
 72
     9
 73
     5
 74
     0
 42
0.000000001
 43
0.0000000001
 40
-1.0
 40
-1.0
 40
-1.0
 40
-1.0
 40
-0.8333333333333332
 40
-0.7916666666665988
 40
-0.7916666666665988
 40
-0.7916666666665988
 40
-0.7916666666665988
 10
904.6052918955815
 20
1825.709028414481
 30
0.0
 10
905.4608815331892
 20
1818.618746881015
 30
0.0
 10
906.0179719197902
 20
1809.762285745715
 30
0.0
 10
905.9339746315698
 20
1800.879443796082
 30
0.0
 10
905.8915494224121
 20
1799.102851252318
 30
0.0
  0
SPLINE
  5
BF
330
87
100
AcDbEntity
  8
P-SANR-FIXT
100
AcDbSpline
210
0.0
220
0.0
230
1.0
 70
     8
 71
     3
 72
     8
 73
     4
 74
     0
 42
0.000000001
 43
0.0000000001
 40
-0.7916344158830294
 40
-0.7916344158830294
 40
-0.7916344158830294
 40
-0.7916344158830294
 40
-0.6666666666666666
 40
-0.6666666666666666
 40
-0.6666666666666666
 40
-0.6666666666666666
 10
905.8914508626255
 20
1799.098725904158
 30
0.0
 10
905.7640890949178
 20
1793.770323278623
 30
0.0
 10
905.4355946646346
 20
1788.431582933
 30
0.0
 10
904.8183066470706
 20
1783.14070533082
 30
0.0
  0
SPLINE
  5
C0
330
87
100
AcDbEntity
  8
P-SANR-FIXT
100
AcDbSpline
210
0.0
220
0.0
230
1.0
 70
     8
 71
     3
 72
     8
 73
     4
 74
     0
 42
0.000000001
 43
0.0000000001
 40
-0.6666396305889454
 40
-0.6666396305889454
 40
-0.6666396305889454
 40
-0.6666396305889454
 40
-0.4583333333332015
 40
-0.4583333333332015
 40
-0.4583333333332015
 40
-0.4583333333332015
 10
904.8179250428674
 20
1783.137264805674
 30
0.0
 10
903.8377867296043
 20
1774.30114277103
 30
0.0
 10
902.0711372375734
 20
1765.603761692231
 30
0.0
 10
899.8133223331375
 20
1757.011958084974
 30
0.0
  0
SPLINE
  5
C1
330
87
100
AcDbEntity
  8
P-SANR-FIXT
100
AcDbSpline
210
0.0
220
0.0
230
1.0
 70
     8
 71
     3
 72
     8
 73
     4
 74
     0
 42
0.000000001
 43
0.0000000001
 40
-0.458253103858649
 40
-0.458253103858649
 40
-0.458253103858649
 40
-0.458253103858649
 40
-0.3333333333333333
 40
-0.3333333333333333
 40
-0.3333333333333333
 40
-0.3333333333333333
 10
899.9765363776699
 20
1756.932240196227
 30
0.0
 10
898.6333097234622
 20
1751.77521920654
 30
0.0
 10
897.0040841777379
 20
1746.705211882717
 30
0.0
 10
895.2819512075537
 20
1741.651591524644
 30
0.0
  0
SPLINE
  5
C2
330
87
100
AcDbEntity
  8
P-SANR-FIXT
100
AcDbSpline
210
0.0
220
0.0
230
1.0
 70
     8
 71
     3
 72
     9
 73
     5
 74
     0
 42
0.000000001
 43
0.0000000001
 40
-0.3332956883390146
 40
-0.3332956883390146
 40
-0.3332956883390146
 40
-0.3332956883390146
 40
-0.1666666666666666
 40
-0.1250000000000044
 40
-0.1250000000000044
 40
-0.1250000000000044
 40
-0.1250000000000044
 10
895.2803372852061
 20
1741.647049454579
 30
0.0
 10
892.8990004142756
 20
1734.945518649536
 30
0.0
 10
889.6077500368832
 20
1726.650962568702
 30
0.0
 10
885.3197158113108
 20
1718.871833488176
 30
0.0
 10
884.4413279921068
 20
1717.326470926925
 30
0.0
  0
SPLINE
  5
C3
330
87
100
AcDbEntity
  8
P-SANR-FIXT
100
AcDbSpline
210
0.0
220
0.0
230
1.0
 70
     8
 71
     3
 72
     8
 73
     4
 74
     0
 42
0.000000001
 43
0.0000000001
 40
-0.1248988113993208
 40
-0.1248988113993208
 40
-0.1248988113993208
 40
-0.1248988113993208
 40
0.0
 40
0.0
 40
0.0
 40
0.0
 10
884.5710968092534
 20
1717.248053016241
 30
0.0
 10
882.0863610657182
 20
1712.542586854917
 30
0.0
 10
879.3969291267345
 20
1707.943205664949
 30
0.0
 10
876.4989504099123
 20
1703.441545092559
 30
0.0
  0
SPLINE
  5
C4
330
87
100
AcDbEntity
  8
P-SANR-FIXT
100
AcDbSpline
210
0.0
220
0.0
230
1.0
 70
     8
 71
     3
 72
     9
 73
     5
 74
     0
 42
0.000000001
 43
0.0000000001
 40
-1.0
 40
-1.0
 40
-1.0
 40
-1.0
 40
-0.8333333333333332
 40
-0.6667043116609856
 40
-0.6667043116609856
 40
-0.6667043116609856
 40
-0.6667043116609856
 10
754.8338644764861
 20
1703.44154509256
 30
0.0
 10
750.9667624008748
 20
1709.448621970706
 30
0.0
 10
743.9760494497074
 20
1721.80939390371
 30
0.0
 10
738.4338144721226
 20
1734.945518649536
 30
0.0
 10
736.0524776011923
 20
1741.647049454579
 30
0.0
  0
SPLINE
  5
C5
330
87
100
AcDbEntity
  8
P-SANR-FIXT
100
AcDbSpline
210
0.0
220
0.0
230
1.0
 70
     8
 71
     3
 72
     8
 73
     4
 74
     0
 42
0.000000001
 43
0.0000000001
 40
-0.6666666666666666
 40
-0.6666666666666666
 40
-0.6666666666666666
 40
-0.6666666666666666
 40
-0.5417468961413505
 40
-0.5417468961413505
 40
-0.5417468961413505
 40
-0.5417468961413505
 10
736.0508636788446
 20
1741.651591524644
 30
0.0
 10
734.2657360390729
 20
1746.675693910393
 30
0.0
 10
732.7671153888585
 20
1751.780577483256
 30
0.0
 10
731.4830965013292
 20
1756.942290834094
 30
0.0
  0
SPLINE
  5
C6
330
87
100
AcDbEntity
  8
P-SANR-FIXT
100
AcDbSpline
210
0.0
220
0.0
230
1.0
 70
     8
 71
     3
 72
     8
 73
     4
 74
     0
 42
0.000000001
 43
0.0000000001
 40
-0.541666666666381
 40
-0.541666666666381
 40
-0.541666666666381
 40
-0.541666666666381
 40
-0.3333603694110547
 40
-0.3333603694110547
 40
-0.3333603694110547
 40
-0.3333603694110547
 10
731.3536907307182
 20
1756.942176526891
 30
0.0
 10
729.1143102046971
 20
1765.541738671577
 30
0.0
 10
727.6479550673267
 20
1774.30305145778
 30
0.0
 10
726.514949380962
 20
1783.137265548763
 30
0.0
  0
SPLINE
  5
C7
330
87
100
AcDbEntity
  8
P-SANR-FIXT
100
AcDbSpline
210
0.0
220
0.0
230
1.0
 70
     8
 71
     3
 72
     8
 73
     4
 74
     0
 42
0.000000001
 43
0.0000000001
 40
-0.3333333333333333
 40
-0.3333333333333333
 40
-0.3333333333333333
 40
-0.3333333333333333
 40
-0.2083655841169735
 40
-0.2083655841169735
 40
-0.2083655841169735
 40
-0.2083655841169735
 10
726.5145082393278
 20
1783.14070533082
 30
0.0
 10
725.926600205657
 20
1788.441710559689
 30
0.0
 10
725.4245964057445
 20
1793.77258459721
 30
0.0
 10
725.3331833153294
 20
1799.100423205825
 30
0.0
  0
SPLINE
  5
C8
330
87
100
AcDbEntity
  8
P-SANR-FIXT
100
AcDbSpline
210
0.0
220
0.0
230
1.0
 70
     8
 71
     3
 72
     9
 73
     5
 74
     0
 42
0.000000001
 43
0.0000000001
 40
-0.2083333333366348
 40
-0.2083333333366348
 40
-0.2083333333366348
 40
-0.2083333333366348
 40
-0.1666666666666666
 40
0.0
 40
0.0
 40
0.0
 40
0.0
 10
725.441265463996
 20
1799.102851251904
 30
0.0
 10
725.398840254831
 20
1800.879443795807
 30
0.0
 10
725.3148429665993
 20
1809.762285745578
 30
0.0
 10
725.871933353209
 20
1818.618746881015
 30
0.0
 10
726.7275229908168
 20
1825.709028414481
 30
0.0
  0
LINE
  5
C9
330
87
100
AcDbEntity
  8
P-SANR-FIXT
100
AcDbLine
 10
726.7270200199614
 20
1825.709028414481
 30
0.0
 11
726.7275229908168
 21
1825.709028414481
 31
0.0
  0
LINE
  5
CA
330
87
100
AcDbEntity
  8
P-SANR-FIXT
100
AcDbLine
 10
674.6664074431385
 20
1840.850043814786
 30
0.0
 11
695.1664074431387
 21
1840.850043814786
 31
0.0
  0
LINE
  5
CB
330
87
100
AcDbEntity
  8
P-SANR-FIXT
100
AcDbLine
 10
695.1664074431387
 20
1899.150043814812
 30
0.0
 11
674.6664074431385
 21
1899.150043814812
 31
0.0
  0
LINE
  5
CC
330
87
100
AcDbEntity
  8
P-SANR-FIXT
100
AcDbLine
 10
695.1664074431387
 20
1840.850043814786
 30
0.0
 11
697.6664074432018
 21
1840.850043814786
 31
0.0
  0
LINE
  5
CD
330
87
100
AcDbEntity
  8
P-SANR-FIXT
100
AcDbLine
 10
697.6664074432019
 20
1899.150043814812
 30
0.0
 11
695.1664074431387
 21
1899.150043814812
 31
0.0
  0
LINE
  5
CE
330
87
100
AcDbEntity
  8
P-SANR-FIXT
100
AcDbLine
 10
674.666407443137
 20
1887.889040155305
 30
0.0
 11
674.6664074431371
 21
1898.876419278663
 31
0.0
  0
LINE
  5
CF
330
87
100
AcDbEntity
  8
P-SANR-FIXT
100
AcDbLine
 10
674.6664074431371
 20
1898.876419278663
 30
0.0
 11
674.6664074431371
 21
1899.150043814811
 31
0.0
  0
LINE
  5
D0
330
87
100
AcDbEntity
  8
P-SANR-FIXT
100
AcDbLine
 10
674.6664074431371
 20
1840.850043814785
 30
0.0
 11
674.6664074431371
 21
1841.123668350934
 31
0.0
  0
LINE
  5
D1
330
87
100
AcDbEntity
  8
P-SANR-FIXT
100
AcDbLine
 10
674.6664074431371
 20
1841.123668350934
 30
0.0
 11
674.666407443137
 21
1852.111047474292
 31
0.0
  0
LINE
  5
D2
330
87
100
AcDbEntity
  8
P-SANR-FIXT
100
AcDbLine
 10
674.666407443137
 20
1852.111047474292
 30
0.0
 11
674.666407443137
 21
1859.01266469144
 31
0.0
  0
LINE
  5
D3
330
87
100
AcDbEntity
  8
P-SANR-FIXT
100
AcDbLine
 10
674.666407443137
 20
1859.012664691441
 30
0.0
 11
674.666407443137
 21
1880.987422938157
 31
0.0
  0
LINE
  5
D4
330
87
100
AcDbEntity
  8
P-SANR-FIXT
100
AcDbLine
 10
674.666407443137
 20
1880.987422938156
 30
0.0
 11
674.666407443137
 21
1887.889040155305
 31
0.0
  0
LINE
  5
D5
330
87
100
AcDbEntity
  8
P-SANR-FIXT
100
AcDbLine
 10
674.666407443137
 20
1880.987422938156
 30
0.0
 11
695.1664074431372
 21
1880.987422938156
 31
0.0
  0
LINE
  5
D6
330
87
100
AcDbEntity
  8
P-SANR-FIXT
100
AcDbLine
 10
674.666407443137
 20
1859.012664691441
 30
0.0
 11
695.1664074431372
 21
1859.012664691441
 31
0.0
  0
LINE
  5
D7
330
87
100
AcDbEntity
  8
P-SANR-FIXT
100
AcDbLine
 10
674.666407443137
 20
1852.111047474292
 30
0.0
 11
695.1664074431372
 21
1852.111047474292
 31
0.0
  0
LINE
  5
D8
330
87
100
AcDbEntity
  8
P-SANR-FIXT
100
AcDbLine
 10
674.6664074431371
 20
1841.123668350934
 30
0.0
 11
695.1664074431374
 21
1841.123668350934
 31
0.0
  0
LINE
  5
D9
330
87
100
AcDbEntity
  8
P-SANR-FIXT
100
AcDbLine
 10
674.6664074431371
 20
1898.876419278663
 30
0.0
 11
695.1664074431374
 21
1898.876419278663
 31
0.0
  0
LINE
  5
DA
330
87
100
AcDbEntity
  8
P-SANR-FIXT
100
AcDbLine
 10
695.1664074431372
 20
1887.889040155305
 30
0.0
 11
674.666407443137
 21
1887.889040155305
 31
0.0
  0
LINE
  5
DB
330
87
100
AcDbEntity
  8
P-SANR-FIXT
100
AcDbLine
 10
695.1664074431372
 20
1870.000043814798
 30
0.0
 11
695.1664074431372
 21
1880.987422938156
 31
0.0
  0
LINE
  5
DC
330
87
100
AcDbEntity
  8
P-SANR-FIXT
100
AcDbLine
 10
695.1664074431372
 20
1859.012664691441
 30
0.0
 11
695.1664074431372
 21
1870.000043814798
 31
0.0
  0
LINE
  5
DD
330
87
100
AcDbEntity
  8
P-SANR-FIXT
100
AcDbLine
 10
695.1664074431374
 20
1841.123668350934
 30
0.0
 11
695.1664074431372
 21
1852.111047474292
 31
0.0
  0
LINE
  5
DE
330
87
100
AcDbEntity
  8
P-SANR-FIXT
100
AcDbLine
 10
695.1664074431372
 20
1887.889040155305
 30
0.0
 11
695.1664074431374
 21
1898.876419278662
 31
0.0
  0
LINE
  5
DF
330
87
100
AcDbEntity
  8
P-SANR-FIXT
100
AcDbLine
 10
936.1664074432622
 20
1840.850043814785
 30
0.0
 11
956.6664074432624
 21
1840.850043814785
 31
0.0
  0
LINE
  5
E0
330
87
100
AcDbEntity
  8
P-SANR-FIXT
100
AcDbLine
 10
956.6664074432624
 20
1899.150043814811
 30
0.0
 11
936.1664074432622
 21
1899.150043814811
 31
0.0
  0
LINE
  5
E1
330
87
100
AcDbEntity
  8
P-SANR-FIXT
100
AcDbLine
 10
933.666407443199
 20
1840.850043814785
 30
0.0
 11
936.1664074432622
 21
1840.850043814785
 31
0.0
  0
LINE
  5
E2
330
87
100
AcDbEntity
  8
P-SANR-FIXT
100
AcDbLine
 10
936.1664074432622
 20
1899.150043814811
 30
0.0
 11
933.666407443199
 21
1899.150043814811
 31
0.0
  0
LINE
  5
E3
330
87
100
AcDbEntity
  8
P-SANR-FIXT
100
AcDbLine
 10
956.6664074432607
 20
1887.889040155304
 30
0.0
 11
956.6664074432607
 21
1880.987422938156
 31
0.0
  0
LINE
  5
E4
330
87
100
AcDbEntity
  8
P-SANR-FIXT
100
AcDbLine
 10
956.6664074432607
 20
1880.987422938156
 30
0.0
 11
956.6664074432607
 21
1859.01266469144
 31
0.0
  0
LINE
  5
E5
330
87
100
AcDbEntity
  8
P-SANR-FIXT
100
AcDbLine
 10
956.6664074432607
 20
1859.01266469144
 30
0.0
 11
956.6664074432607
 21
1852.111047474291
 31
0.0
  0
LINE
  5
E6
330
87
100
AcDbEntity
  8
P-SANR-FIXT
100
AcDbLine
 10
956.6664074432607
 20
1852.111047474291
 30
0.0
 11
956.6664074432608
 21
1841.123668350933
 31
0.0
  0
LINE
  5
E7
330
87
100
AcDbEntity
  8
P-SANR-FIXT
100
AcDbLine
 10
956.6664074432608
 20
1841.123668350933
 30
0.0
 11
956.6664074432608
 21
1840.850043814784
 31
0.0
  0
LINE
  5
E8
330
87
100
AcDbEntity
  8
P-SANR-FIXT
100
AcDbLine
 10
956.6664074432608
 20
1899.150043814811
 30
0.0
 11
956.6664074432608
 21
1898.876419278662
 31
0.0
  0
LINE
  5
E9
330
87
100
AcDbEntity
  8
P-SANR-FIXT
100
AcDbLine
 10
956.6664074432608
 20
1898.876419278662
 30
0.0
 11
956.6664074432607
 21
1887.889040155304
 31
0.0
  0
LINE
  5
EA
330
87
100
AcDbEntity
  8
P-SANR-FIXT
100
AcDbLine
 10
956.6664074432607
 20
1887.889040155304
 30
0.0
 11
936.1664074432605
 21
1887.889040155304
 31
0.0
  0
LINE
  5
EB
330
87
100
AcDbEntity
  8
P-SANR-FIXT
100
AcDbLine
 10
936.1664074432605
 20
1880.987422938156
 30
0.0
 11
956.6664074432607
 21
1880.987422938156
 31
0.0
  0
LINE
  5
EC
330
87
100
AcDbEntity
  8
P-SANR-FIXT
100
AcDbLine
 10
936.1664074432605
 20
1859.01266469144
 30
0.0
 11
956.6664074432607
 21
1859.01266469144
 31
0.0
  0
LINE
  5
ED
330
87
100
AcDbEntity
  8
P-SANR-FIXT
100
AcDbLine
 10
936.1664074432605
 20
1852.111047474291
 30
0.0
 11
956.6664074432607
 21
1852.111047474291
 31
0.0
  0
LINE
  5
EE
330
87
100
AcDbEntity
  8
P-SANR-FIXT
100
AcDbLine
 10
936.1664074432606
 20
1841.123668350933
 30
0.0
 11
956.6664074432608
 21
1841.123668350933
 31
0.0
  0
LINE
  5
EF
330
87
100
AcDbEntity
  8
P-SANR-FIXT
100
AcDbLine
 10
936.1664074432606
 20
1898.876419278662
 30
0.0
 11
956.6664074432608
 21
1898.876419278662
 31
0.0
  0
LINE
  5
F0
330
87
100
AcDbEntity
  8
P-SANR-FIXT
100
AcDbLine
 10
936.1664074432606
 20
1898.876419278662
 30
0.0
 11
936.1664074432605
 21
1887.889040155304
 31
0.0
  0
LINE
  5
F1
330
87
100
AcDbEntity
  8
P-SANR-FIXT
100
AcDbLine
 10
936.1664074432605
 20
1852.111047474292
 30
0.0
 11
936.1664074432606
 21
1841.123668350933
 31
0.0
  0
LINE
  5
F2
330
87
100
AcDbEntity
  8
P-SANR-FIXT
100
AcDbLine
 10
936.1664074432605
 20
1870.000043814797
 30
0.0
 11
936.1664074432605
 21
1859.01266469144
 31
0.0
  0
LINE
  5
F3
330
87
100
AcDbEntity
  8
P-SANR-FIXT
100
AcDbLine
 10
936.1664074432605
 20
1880.987422938156
 30
0.0
 11
936.1664074432605
 21
1870.000043814797
 31
0.0
  0
LINE
  5
F4
330
87
100
AcDbEntity
  8
P-SANR-FIXT
100
AcDbLine
 10
828.6664074431795
 20
1693.999999999979
 30
0.0
 11
826.6664074432352
 21
1693.999999999979
 31
0.0
  0
LINE
  5
F5
330
87
100
AcDbEntity
  8
P-SANR-FIXT
100
AcDbLine
 10
826.6664074432352
 20
1693.999999999979
 30
0.0
 11
817.6664074431457
 21
1693.999999999979
 31
0.0
  0
LINE
  5
F6
330
87
100
AcDbEntity
  8
P-SANR-FIXT
100
AcDbLine
 10
817.6664074431457
 20
1693.999999999979
 30
0.0
 11
813.6664074432568
 21
1693.999999999979
 31
0.0
  0
LINE
  5
F7
330
87
100
AcDbEntity
  8
P-SANR-FIXT
100
AcDbLine
 10
813.6664074432568
 20
1693.999999999979
 30
0.0
 11
804.6664074431676
 21
1693.999999999979
 31
0.0
  0
LINE
  5
F8
330
87
100
AcDbEntity
  8
P-SANR-FIXT
100
AcDbLine
 10
804.6664074431676
 20
1693.999999999979
 30
0.0
 11
802.6664074432233
 21
1693.999999999979
 31
0.0
  0
LINE
  5
F9
330
87
100
AcDbEntity
  8
P-SANR-FIXT
100
AcDbLine
 10
802.6664074432233
 20
1706.092081841386
 30
0.0
 11
802.7230333978051
 21
1706.092081841386
 31
0.0
  0
LINE
  5
FA
330
87
100
AcDbEntity
  8
P-SANR-FIXT
100
AcDbLine
 10
814.2916755040243
 20
1706.092081841386
 30
0.0
 11
817.0411393823734
 21
1706.092081841386
 31
0.0
  0
LINE
  5
FB
330
87
100
AcDbEntity
  8
P-SANR-FIXT
100
AcDbLine
 10
827.5435515471086
 20
1706.092081841386
 30
0.0
 11
827.7907630961824
 21
1706.092081841386
 31
0.0
  0
LINE
  5
FC
330
87
100
AcDbEntity
  8
P-SANR-FIXT
100
AcDbLine
 10
828.6097814885934
 20
1706.092081841386
 30
0.0
 11
828.6664074431794
 21
1706.092081841386
 31
0.0
  0
LINE
  5
FD
330
87
100
AcDbEntity
  8
P-SANR-FIXT
100
AcDbLine
 10
802.6664074432233
 20
1693.999999999979
 30
0.0
 11
802.6664074432233
 21
1706.092081841386
 31
0.0
  0
LINE
  5
FE
330
87
100
AcDbEntity
  8
P-SANR-FIXT
100
AcDbLine
 10
804.6664074431676
 20
1693.999999999979
 30
0.0
 11
804.6664074431676
 21
1706.092081841386
 31
0.0
  0
LINE
  5
FF
330
87
100
AcDbEntity
  8
P-SANR-FIXT
100
AcDbLine
 10
813.6664074432568
 20
1693.999999999979
 30
0.0
 11
813.6664074432568
 21
1706.092081841386
 31
0.0
  0
LINE
  5
100
330
87
100
AcDbEntity
  8
P-SANR-FIXT
100
AcDbLine
 10
817.6664074431457
 20
1693.999999999979
 30
0.0
 11
817.6664074431457
 21
1706.092081841386
 31
0.0
  0
LINE
  5
101
330
87
100
AcDbEntity
  8
P-SANR-FIXT
100
AcDbLine
 10
826.6664074432352
 20
1693.999999999979
 30
0.0
 11
826.6664074432352
 21
1706.092081841386
 31
0.0
  0
LINE
  5
102
330
87
100
AcDbEntity
  8
P-SANR-FIXT
100
AcDbLine
 10
828.6664074431795
 20
1693.999999999979
 30
0.0
 11
828.6664074431795
 21
1706.092081841386
 31
0.0
  0
LINE
  5
103
330
87
100
AcDbEntity
  8
P-SANR-FIXT
100
AcDbLine
 10
871.1664074432018
 20
1776.999999999917
 30
0.0
 11
871.1664074432018
 21
1780.727103205666
 31
0.0
  0
LINE
  5
104
330
87
100
AcDbEntity
  8
P-SANR-FIXT
100
AcDbLine
 10
760.1664074431997
 20
1780.727103205666
 30
0.0
 11
760.1664074431997
 21
1776.999999999917
 31
0.0
  0
LINE
  5
105
330
87
100
AcDbEntity
  8
P-SANR-FIXT
100
AcDbLine
 10
878.6664074432014
 20
1780.727103205666
 30
0.0
 11
878.6664074432014
 21
1784.999999999982
 31
0.0
  0
LINE
  5
106
330
87
100
AcDbEntity
  8
P-SANR-FIXT
100
AcDbLine
 10
752.6664074432001
 20
1784.999999999982
 30
0.0
 11
752.6664074432001
 21
1780.727103205666
 31
0.0
  0
LINE
  5
107
330
87
100
AcDbEntity
  8
P-SANR-FIXT
100
AcDbLine
 10
829.6664074432005
 20
1706.092081841387
 30
0.0
 11
829.6664074432005
 21
1707.199999999917
 31
0.0
  0
LINE
  5
108
330
87
100
AcDbEntity
  8
P-SANR-FIXT
100
AcDbLine
 10
801.6664074432011
 20
1707.199999999917
 30
0.0
 11
801.6664074432011
 21
1706.092081841387
 31
0.0
  0
LWPOLYLINE
  5
109
330
87
100
AcDbEntity
  8
P-SANR-FIXT
100
AcDbPolyline
 90
       25
 70
   128
 43
0.0
 10
800.8513711240828
 20
1707.201899484567
 10
799.4854671689413
 20
1707.229221206663
 10
797.8485274178573
 20
1707.327555621355
 10
796.2168293717478
 20
1707.491271509755
 10
794.5929833994092
 20
1707.720106961362
 10
792.9795873079959
 20
1708.013695888272
 10
791.379222187081
 20
1708.37156861083
 10
789.7944482794648
 20
1708.793152609021
 10
788.2278008853325
 20
1709.277773438383
 10
786.6817863063147
 20
1709.824655808968
 10
785.1588778359388
 20
1710.432924825645
 10
783.6615118028874
 20
1711.101607387744
 10
782.1920836733926
 20
1711.829633745812
 10
780.7529442190001
 20
1712.615839212979
 10
779.3463957558372
 20
1713.458966028213
 10
777.9746884613969
 20
1714.357665368466
 10
776.6400167747352
 20
1715.310499506507
 10
775.3445158858363
 20
1716.315944110975
 10
774.0902583197629
 20
1717.372390684986
 10
772.8792506210607
 20
1718.478149139386
 10
771.713430143713
 20
1719.631450496529
 10
770.594661951788
 20
1720.83044972027
 10
769.5247358357357
 20
1722.073228667621
 10
768.5053634491023
 20
1723.357799157381
 10
767.6664074432011
 20
1724.499999999916
  0
LWPOLYLINE
  5
10A
330
87
100
AcDbEntity
  8
P-SANR-FIXT
100
AcDbPolyline
 90
       25
 70
   128
 43
0.0
 10
863.6664074432006
 20
1724.499999999916
 10
862.692039832447
 20
1723.180966579223
 10
861.6657043435916
 20
1721.901952556583
 10
860.5890428944764
 20
1720.665004081593
 10
859.4637779137446
 20
1719.472100007943
 10
858.291709585322
 20
1718.325148727679
 10
857.0747129685056
 20
1717.225985118178
 10
855.8147349982709
 20
1716.176367606741
 10
854.5137913705886
 20
1715.17797535748
 10
853.1739633177435
 20
1714.232405585014
 10
851.7973942788055
 20
1713.341170999268
 10
850.3862864705842
 20
1712.50569738546
 10
848.9428973645527
 20
1711.727321323147
 10
847.469536075374
 20
1711.007288047984
 10
845.9685596668107
 20
1710.346749459612
 10
844.4423693809252
 20
1709.746762278866
 10
842.8934067966043
 20
1709.208286357243
 10
841.3241499235564
 20
1708.732183141351
 10
839.7371092380204
 20
1708.31921429477
 10
838.1348236665429
 20
1707.970040479561
 10
836.5198565242359
 20
1707.685220299341
 10
834.8947914140188
 20
1707.46520940564
 10
833.2622280934058
 20
1707.310359768955
 10
831.6247783154484
 20
1707.220919115672
 10
830.7959488429835
 20
1707.20659232637
  0
LWPOLYLINE
  5
10B
330
87
100
AcDbEntity
  8
P-SANR-FIXT
100
AcDbPolyline
 90
       11
 70
   128
 43
0.0
 10
830.2077850158084
 20
1707.196425579763
 10
830.1961534647478
 20
1707.196425579763
 10
830.1612774195668
 20
1707.196425579763
 10
830.1032126744976
 20
1707.196425579763
 10
830.0220521207455
 20
1707.196425579763
 10
829.9179255978838
 20
1707.196425579763
 10
829.7909996861363
 20
1707.196425579763
 10
829.6414774398858
 20
1707.196425579763
 10
829.4695980628299
 20
1707.196425579763
 10
829.2756365253062
 20
1707.196425579763
 10
829.2039998973635
 20
1707.196425579763
  0
LWPOLYLINE
  5
10C
330
87
100
AcDbEntity
  8
P-SANR-FIXT
100
AcDbPolyline
 90
       11
 70
   128
 43
0.0
 10
802.132186705066
 20
1707.196425579763
 10
801.9651966301918
 20
1707.196425579763
 10
801.7813605257018
 20
1707.196425579763
 10
801.619737534294
 20
1707.196425579763
 10
801.4805862182775
 20
1707.196425579763
 10
801.3641291900738
 20
1707.196425579763
 10
801.270552756085
 20
1707.196425579763
 10
801.2000066186441
 20
1707.196425579763
 10
801.1526036365212
 20
1707.196425579763
 10
801.1284196443764
 20
1707.196425579763
 10
801.1250298705929
 20
1707.196425579763
  0
LWPOLYLINE
  5
10D
330
87
100
AcDbEntity
  8
P-SANR-FIXT
100
AcDbPolyline
 90
       80
 70
   128
 43
0.0
 10
801.1250298705929
 20
1707.196425579763
 10
801.1366614216537
 20
1707.196425579763
 10
801.1715374668348
 20
1707.196425579763
 10
801.2296022119041
 20
1707.196425579763
 10
801.3107627656562
 20
1707.196425579763
 10
801.4148892885177
 20
1707.196425579763
 10
801.5418152002652
 20
1707.196425579763
 10
801.6913374465158
 20
1707.196425579763
 10
801.8632168235718
 20
1707.196425579763
 10
802.0571783610957
 20
1707.196425579763
 10
802.2729117620032
 20
1707.196425579763
 10
802.5100718988744
 20
1707.196425579763
 10
802.768279366081
 20
1707.196425579763
 10
803.0471210867572
 20
1707.196425579763
 10
803.3461509736328
 20
1707.196425579763
 10
803.6648906426787
 20
1707.196425579763
 10
804.0028301784181
 20
1707.196425579763
 10
804.3594289496844
 20
1707.196425579763
 10
804.7341164745132
 20
1707.196425579763
 10
805.1262933327944
 20
1707.196425579763
 10
805.5353321252145
 20
1707.196425579763
 10
805.9605784769624
 20
1707.196425579763
 10
806.40135208459
 20
1707.196425579763
 10
806.8569478043517
 20
1707.196425579763
 10
807.3266367802842
 20
1707.196425579763
 10
807.8096676102214
 20
1707.196425579763
 10
808.3052675478761
 20
1707.196425579763
 10
808.8126437390709
 20
1707.196425579763
 10
809.3309844901336
 20
1707.196425579763
 10
809.8594605664366
 20
1707.196425579763
 10
810.3972265189929
 20
1707.196425579763
 10
810.9434220369964
 20
1707.196425579763
 10
811.4971733241329
 20
1707.196425579763
 10
812.0575944964711
 20
1707.196425579763
 10
812.6237889996849
 20
1707.196425579763
 10
813.194851043351
 20
1707.196425579763
 10
813.7698670500194
 20
1707.196425579763
 10
814.3479171167433
 20
1707.196425579763
 10
814.9280764867267
 20
1707.196425579763
 10
815.5094170287382
 20
1707.196425579763
 10
816.0910087219235
 20
1707.196425579763
 10
816.6719211436394
 20
1707.196425579763
 10
817.2512249579328
 20
1707.196425579763
 10
817.8279934022791
 20
1707.196425579763
 10
818.4013037702046
 20
1707.196425579763
 10
818.97023888742
 20
1707.196425579763
 10
819.5338885791048
 20
1707.196425579763
 10
820.0913511259908
 20
1707.196425579763
 10
820.6417347069219
 20
1707.196425579763
 10
821.1841588255776
 20
1707.196425579763
 10
821.717755719079
 20
1707.196425579763
 10
822.2416717462243
 20
1707.196425579763
 10
822.7550687531332
 20
1707.196425579763
 10
823.2571254141133
 20
1707.196425579763
 10
823.7470385456065
 20
1707.196425579763
 10
824.2240243911121
 20
1707.196425579763
 10
824.6873198750288
 20
1707.196425579763
 10
825.136183823413
 20
1707.196425579763
 10
825.5698981496999
 20
1707.196425579763
 10
825.9877690034889
 20
1707.196425579763
 10
826.3891278805541
 20
1707.196425579763
 10
826.7733326923112
 20
1707.196425579763
 10
827.1397687930209
 20
1707.196425579763
 10
827.4878499630908
 20
1707.196425579763
 10
827.8170193469021
 20
1707.196425579763
 10
828.1267503436597
 20
1707.196425579763
 10
828.4165474498413
 20
1707.196425579763
 10
828.6859470518972
 20
1707.196425579763
 10
828.9345181679326
 20
1707.196425579763
 10
829.161863137188
 20
1707.196425579763
 10
829.36761825621
 20
1707.196425579763
 10
829.5514543607
 20
1707.196425579763
 10
829.7130773521077
 20
1707.196425579763
 10
829.852228668124
 20
1707.196425579763
 10
829.9686856963276
 20
1707.196425579763
 10
830.0622621303167
 20
1707.196425579763
 10
830.1328082677576
 20
1707.196425579763
 10
830.1802112498801
 20
1707.196425579763
 10
830.2043952420255
 20
1707.196425579763
 10
830.2077850158084
 20
1707.196425579763
  0
LINE
  5
10E
330
87
100
AcDbEntity
  8
P-SANR-FIXT
100
AcDbLine
 10
863.6664074432008
 20
1724.499999999917
 30
0.0
 11
863.6664074432008
 21
1762.999999999917
 31
0.0
  0
LINE
  5
10F
330
87
100
AcDbEntity
  8
P-SANR-FIXT
100
AcDbLine
 10
767.6664074432006
 20
1762.999999999917
 30
0.0
 11
767.6664074432006
 21
1724.499999999917
 31
0.0
  0
LINE
  5
110
330
87
100
AcDbEntity
  8
P-SANR-FIXT
100
AcDbLine
 10
871.1664074432
 20
1776.999999999916
 30
0.0
 11
760.1664074431982
 21
1776.999999999916
 31
0.0
  0
LINE
  5
111
330
87
100
AcDbEntity
  8
P-SANR-FIXT
100
AcDbLine
 10
878.6664074431998
 20
1780.727103205665
 30
0.0
 11
752.6664074431985
 21
1780.727103205665
 31
0.0
  0
LINE
  5
112
330
87
100
AcDbEntity
  8
P-SANR-FIXT
100
AcDbLine
 10
829.6632020091134
 20
1706.092081841386
 30
0.0
 11
828.6741084187195
 21
1706.092081841386
 31
0.0
  0
LINE
  5
113
330
87
100
AcDbEntity
  8
P-SANR-FIXT
100
AcDbLine
 10
828.6007208983567
 20
1706.092081841386
 30
0.0
 11
827.8032937952996
 21
1706.092081841386
 31
0.0
  0
LINE
  5
114
330
87
100
AcDbEntity
  8
P-SANR-FIXT
100
AcDbLine
 10
827.5338942405101
 20
1706.092081841386
 30
0.0
 11
826.6755589273007
 21
1706.092081841386
 31
0.0
  0
LINE
  5
115
330
87
100
AcDbEntity
  8
P-SANR-FIXT
100
AcDbLine
 10
826.6505442409613
 20
1706.092081841386
 30
0.0
 11
817.7083612632182
 21
1706.092081841386
 31
0.0
  0
LINE
  5
116
330
87
100
AcDbEntity
  8
P-SANR-FIXT
100
AcDbLine
 10
817.6688468248098
 20
1706.092081841386
 30
0.0
 11
813.6639680615928
 21
1706.092081841386
 31
0.0
  0
LINE
  5
117
330
87
100
AcDbEntity
  8
P-SANR-FIXT
100
AcDbLine
 10
813.624453623186
 20
1706.092081841386
 30
0.0
 11
804.6822706454335
 21
1706.092081841386
 31
0.0
  0
LINE
  5
118
330
87
100
AcDbEntity
  8
P-SANR-FIXT
100
AcDbLine
 10
804.6572559591027
 20
1706.092081841386
 30
0.0
 11
803.6796875001032
 21
1706.092081841386
 31
0.0
  0
LINE
  5
119
330
87
100
AcDbEntity
  8
P-SANR-FIXT
100
AcDbLine
 10
803.529521091103
 20
1706.092081841386
 30
0.0
 11
802.7320939880414
 21
1706.092081841386
 31
0.0
  0
LINE
  5
11A
330
87
100
AcDbEntity
  8
P-SANR-FIXT
100
AcDbLine
 10
802.6587064676839
 20
1706.092081841386
 30
0.0
 11
801.6696128772847
 21
1706.092081841386
 31
0.0
  0
LINE
  5
11B
330
87
100
AcDbEntity
  8
P-SANR-FIXT
100
AcDbLine
 10
829.6632020091129
 20
1707.199999999916
 30
0.0
 11
801.6696128772853
 21
1707.199999999916
 31
0.0
  0
LINE
  5
11C
330
87
100
AcDbEntity
  8
P-SANR-FIXT
100
AcDbLine
 10
863.6664074431992
 20
1724.499999999916
 30
0.0
 11
767.666407443199
 21
1724.499999999916
 31
0.0
  0
LINE
  5
11D
330
87
100
AcDbEntity
  8
P-SANR-FIXT
100
AcDbLine
 10
761.1664074432044
 20
1776.999999999917
 30
0.0
 11
761.1664074432044
 21
1762.999999999917
 31
0.0
  0
LINE
  5
11E
330
87
100
AcDbEntity
  8
P-SANR-FIXT
100
AcDbLine
 10
870.166407443197
 20
1762.999999999917
 30
0.0
 11
870.166407443197
 21
1776.999999999917
 31
0.0
  0
LINE
  5
11F
330
87
100
AcDbEntity
  8
P-SANR-FIXT
100
AcDbLine
 10
870.1664074431954
 20
1762.999999999917
 30
0.0
 11
869.7682588898683
 21
1762.999999999917
 31
0.0
  0
LINE
  5
120
330
87
100
AcDbEntity
  8
P-SANR-FIXT
100
AcDbLine
 10
869.7682588898683
 20
1762.999999999917
 30
0.0
 11
858.571906910182
 21
1762.999999999917
 31
0.0
  0
LINE
  5
121
330
87
100
AcDbEntity
  8
P-SANR-FIXT
100
AcDbLine
 10
858.571906910182
 20
1762.999999999917
 30
0.0
 11
849.2724800415885
 21
1762.999999999917
 31
0.0
  0
LINE
  5
122
330
87
100
AcDbEntity
  8
P-SANR-FIXT
100
AcDbLine
 10
849.2724800415885
 20
1762.999999999917
 30
0.0
 11
822.2420952431303
 21
1762.999999999917
 31
0.0
  0
LINE
  5
123
330
87
100
AcDbEntity
  8
P-SANR-FIXT
100
AcDbLine
 10
822.2420952431303
 20
1762.999999999917
 30
0.0
 11
809.0907196432738
 21
1762.999999999917
 31
0.0
  0
LINE
  5
124
330
87
100
AcDbEntity
  8
P-SANR-FIXT
100
AcDbLine
 10
809.0907196432738
 20
1762.999999999917
 30
0.0
 11
782.0603348448045
 21
1762.999999999917
 31
0.0
  0
LINE
  5
125
330
87
100
AcDbEntity
  8
P-SANR-FIXT
100
AcDbLine
 10
782.0603348448045
 20
1762.999999999917
 30
0.0
 11
772.7609079762254
 21
1762.999999999917
 31
0.0
  0
LINE
  5
126
330
87
100
AcDbEntity
  8
P-SANR-FIXT
100
AcDbLine
 10
772.7609079762254
 20
1762.999999999917
 30
0.0
 11
761.5645559965283
 21
1762.999999999917
 31
0.0
  0
LINE
  5
127
330
87
100
AcDbEntity
  8
P-SANR-FIXT
100
AcDbLine
 10
761.5645559965283
 20
1762.999999999917
 30
0.0
 11
761.1664074432029
 21
1762.999999999917
 31
0.0
  0
LINE
  5
128
330
87
100
AcDbEntity
  8
P-SANR-FIXT
100
AcDbLine
 10
761.5645559965283
 20
1776.999999999916
 30
0.0
 11
761.5645559965283
 21
1762.999999999917
 31
0.0
  0
LINE
  5
129
330
87
100
AcDbEntity
  8
P-SANR-FIXT
100
AcDbLine
 10
782.0603348448045
 20
1776.999999999916
 30
0.0
 11
782.0603348448045
 21
1762.999999999917
 31
0.0
  0
LINE
  5
12A
330
87
100
AcDbEntity
  8
P-SANR-FIXT
100
AcDbLine
 10
822.2420952431303
 20
1776.999999999916
 30
0.0
 11
822.2420952431303
 21
1762.999999999917
 31
0.0
  0
LINE
  5
12B
330
87
100
AcDbEntity
  8
P-SANR-FIXT
100
AcDbLine
 10
858.571906910182
 20
1776.999999999916
 30
0.0
 11
858.571906910182
 21
1762.999999999917
 31
0.0
  0
LINE
  5
12C
330
87
100
AcDbEntity
  8
P-SANR-FIXT
100
AcDbLine
 10
772.7609079762252
 20
1762.999999999917
 30
0.0
 11
772.7609079762252
 21
1776.999999999916
 31
0.0
  0
LINE
  5
12D
330
87
100
AcDbEntity
  8
P-SANR-FIXT
100
AcDbLine
 10
809.0907196432734
 20
1762.999999999917
 30
0.0
 11
809.0907196432734
 21
1776.999999999916
 31
0.0
  0
LINE
  5
12E
330
87
100
AcDbEntity
  8
P-SANR-FIXT
100
AcDbLine
 10
849.2724800415883
 20
1762.999999999917
 30
0.0
 11
849.2724800415883
 21
1776.999999999916
 31
0.0
  0
LINE
  5
12F
330
87
100
AcDbEntity
  8
P-SANR-FIXT
100
AcDbLine
 10
869.7682588898683
 20
1762.999999999917
 30
0.0
 11
869.7682588898683
 21
1776.999999999916
 31
0.0
  0
LINE
  5
130
330
87
100
AcDbEntity
  8
P-SANR-FIXT
100
AcDbLine
 10
801.0269860253995
 20
1690.299999999955
 30
0.0
 11
801.0269860253995
 21
1676.780578582152
 31
0.0
  0
LINE
  5
131
330
87
100
AcDbEntity
  8
P-SANR-FIXT
100
AcDbLine
 10
830.3058288610021
 20
1683.449999999955
 30
0.0
 11
830.3058288610021
 21
1690.299999999955
 31
0.0
  0
LINE
  5
132
330
87
100
AcDbEntity
  8
P-SANR-FIXT
100
AcDbLine
 10
800.2464074432023
 20
1676.780578582152
 30
0.0
 11
800.2464074432023
 21
1666.499999999939
 31
0.0
  0
LINE
  5
133
330
87
100
AcDbEntity
  8
P-SANR-FIXT
100
AcDbLine
 10
831.0864074431993
 20
1666.499999999939
 30
0.0
 11
831.0864074431993
 21
1670.549999999955
 31
0.0
  0
LINE
  5
134
330
87
100
AcDbEntity
  8
P-SANR-FIXT
100
AcDbLine
 10
804.1714435506086
 20
1693.99999999998
 30
0.0
 11
804.1714435506086
 21
1690.299999999955
 31
0.0
  0
LINE
  5
135
330
87
100
AcDbEntity
  8
P-SANR-FIXT
100
AcDbLine
 10
827.1613713357929
 20
1690.299999999955
 30
0.0
 11
827.1613713357929
 21
1693.99999999998
 31
0.0
  0
LINE
  5
136
330
87
100
AcDbEntity
  8
P-SANR-FIXT
100
AcDbLine
 10
801.1664074432033
 20
1666.499999999939
 30
0.0
 11
801.1664074432033
 21
1664.999999999939
 31
0.0
  0
LINE
  5
137
330
87
100
AcDbEntity
  8
P-SANR-FIXT
100
AcDbLine
 10
830.1664074431982
 20
1664.999999999939
 30
0.0
 11
830.1664074431982
 21
1666.499999999939
 31
0.0
  0
LINE
  5
138
330
87
100
AcDbEntity
  8
P-SANR-FIXT
100
AcDbLine
 10
803.916407443202
 20
1664.999999999939
 30
0.0
 11
803.916407443202
 21
1661.999999999939
 31
0.0
  0
LINE
  5
139
330
87
100
AcDbEntity
  8
P-SANR-FIXT
100
AcDbLine
 10
827.4164074431997
 20
1661.999999999939
 30
0.0
 11
827.4164074431997
 21
1664.999999999939
 31
0.0
  0
LINE
  5
13A
330
87
100
AcDbEntity
  8
P-SANR-FIXT
100
AcDbLine
 10
802.3172476581413
 20
1661.999999999939
 30
0.0
 11
802.3172476581409
 21
1659.999999999967
 31
0.0
  0
LINE
  5
13B
330
87
100
AcDbEntity
  8
P-SANR-FIXT
100
AcDbLine
 10
829.0155672282605
 20
1659.999999999967
 30
0.0
 11
829.0155672282605
 21
1661.999999999939
 31
0.0
  0
LINE
  5
13C
330
87
100
AcDbEntity
  8
P-SANR-FIXT
100
AcDbLine
 10
800.8664074432152
 20
1659.999999999967
 30
0.0
 11
800.8664074432152
 21
1650.999999999967
 31
0.0
  0
LINE
  5
13D
330
87
100
AcDbEntity
  8
P-SANR-FIXT
100
AcDbLine
 10
830.4664074431864
 20
1650.999999999967
 30
0.0
 11
830.4664074431864
 21
1659.999999999967
 31
0.0
  0
LINE
  5
13E
330
87
100
AcDbEntity
  8
P-SANR-FIXT
100
AcDbLine
 10
808.1664074432021
 20
1650.999999999967
 30
0.0
 11
808.1664074432021
 21
1628.999999999967
 31
0.0
  0
LINE
  5
13F
330
87
100
AcDbEntity
  8
P-SANR-FIXT
100
AcDbLine
 10
823.1664074431995
 20
1628.999999999967
 30
0.0
 11
823.1664074431995
 21
1650.999999999967
 31
0.0
  0
LINE
  5
140
330
87
100
AcDbEntity
  8
P-SANR-FIXT
100
AcDbLine
 10
808.1664074432021
 20
1628.999999999967
 30
0.0
 11
808.2148458547683
 21
1628.951561588401
 31
0.0
  0
LINE
  5
141
330
87
100
AcDbEntity
  8
P-SANR-FIXT
100
AcDbLine
 10
808.2305709828984
 20
1628.935836460271
 30
0.0
 11
809.1664074432021
 21
1627.999999999967
 31
0.0
  0
LINE
  5
142
330
87
100
AcDbEntity
  8
P-SANR-FIXT
100
AcDbLine
 10
822.1664074431995
 20
1627.999999999967
 30
0.0
 11
823.1022439035031
 21
1628.935836460271
 31
0.0
  0
LINE
  5
143
330
87
100
AcDbEntity
  8
P-SANR-FIXT
100
AcDbLine
 10
823.1179690316333
 20
1628.951561588401
 30
0.0
 11
823.1664074431995
 21
1628.999999999967
 31
0.0
  0
LINE
  5
144
330
87
100
AcDbEntity
  8
P-SANR-FIXT
100
AcDbLine
 10
842.1664074432024
 20
1680.749999999892
 30
0.0
 11
837.6664074432023
 21
1680.749999999892
 31
0.0
  0
LINE
  5
145
330
87
100
AcDbEntity
  8
P-SANR-FIXT
100
AcDbLine
 10
837.6664074432023
 20
1673.250000000018
 30
0.0
 11
842.1664074432024
 21
1673.250000000018
 31
0.0
  0
LINE
  5
146
330
87
100
AcDbEntity
  8
P-SANR-FIXT
100
AcDbLine
 10
837.6664074432023
 20
1683.449999999955
 30
0.0
 11
830.3058288610021
 21
1683.449999999955
 31
0.0
  0
LINE
  5
147
330
87
100
AcDbEntity
  8
P-SANR-FIXT
100
AcDbLine
 10
831.0864074431993
 20
1670.549999999955
 30
0.0
 11
837.6664074432023
 21
1670.549999999955
 31
0.0
  0
LINE
  5
148
330
87
100
AcDbEntity
  8
P-SANR-FIXT
100
AcDbLine
 10
822.1664074431979
 20
1627.999999999967
 30
0.0
 11
809.1664074432005
 21
1627.999999999967
 31
0.0
  0
LINE
  5
149
330
87
100
AcDbEntity
  8
P-SANR-FIXT
100
AcDbLine
 10
830.3027634240375
 20
1690.299999999954
 30
0.0
 11
801.0300514623608
 21
1690.299999999954
 31
0.0
  0
SPLINE
  5
14A
330
87
100
AcDbEntity
  8
P-SANR-FIXT
100
AcDbSpline
210
0.0
220
0.0
230
1.0
 70
     8
 71
     3
 72
    12
 73
     8
 74
     0
 42
0.000000001
 43
0.0000000001
 40
0.0
 40
0.0
 40
0.0
 40
0.0
 40
0.1428571428571428
 40
0.2857142857142857
 40
0.5714285714285714
 40
0.7857142857142857
 40
0.9711907784405362
 40
0.9711907784405362
 40
0.9711907784405362
 40
0.9711907784405362
 10
828.8101628124447
 20
1676.780578582151
 30
0.0
 10
828.8032411716702
 20
1677.289066289682
 30
0.0
 10
828.8425956772837
 20
1678.275809306134
 30
0.0
 10
829.1346153625102
 20
1680.17836086447
 30
0.0
 10
829.6821555259429
 20
1681.945929147396
 30
0.0
 10
830.165528950854
 20
1683.135068780351
 30
0.0
 10
830.2888743146043
 20
1683.408917224753
 30
0.0
 10
830.3026108673147
 20
1683.441610587096
 30
0.0
  0
SPLINE
  5
14B
330
87
100
AcDbEntity
  8
P-SANR-FIXT
100
AcDbSpline
210
0.0
220
0.0
230
1.0
 70
     8
 71
     3
 72
    15
 73
    11
 74
     0
 42
0.000000001
 43
0.0000000001
 40
0.0300778059152957
 40
0.0300778059152957
 40
0.0300778059152957
 40
0.0300778059152957
 40
0.1428571428571428
 40
0.2857142857142857
 40
0.5714285714285714
 40
0.6785714285714287
 40
0.7857142857142857
 40
0.8392857142857142
 40
0.8928571428571427
 40
1.0
 40
1.0
 40
1.0
 40
1.0
 10
831.0834168293164
 20
1670.557979150195
 30
0.0
 10
831.0759689213606
 20
1670.576309023738
 30
0.0
 10
831.0277906950091
 20
1670.689111741111
 30
0.0
 10
830.7883006236805
 20
1671.282250999433
 30
0.0
 10
830.3892687240701
 20
1672.379817772001
 30
0.0
 10
830.0407586826397
 20
1673.725799832735
 30
0.0
 10
829.884184837393
 20
1674.520497942037
 30
0.0
 10
829.7848820815111
 20
1675.196847322209
 30
0.0
 10
829.7104539288756
 20
1675.881804004599
 30
0.0
 10
829.6811119452407
 20
1676.416067698266
 30
0.0
 10
829.6743354041272
 20
1676.780578582151
 30
0.0
  0
LINE
  5
14C
330
87
100
AcDbEntity
  8
P-SANR-FIXT
100
AcDbLine
 10
829.6743354041272
 20
1676.780578582151
 30
0.0
 11
800.2492529058422
 21
1676.780578582151
 31
0.0
  0
LINE
  5
14D
330
87
100
AcDbEntity
  8
P-SANR-FIXT
100
AcDbLine
 10
800.2493177141529
 20
1666.499999999938
 30
0.0
 11
831.0834971722455
 21
1666.499999999938
 31
0.0
  0
LINE
  5
14E
330
87
100
AcDbEntity
  8
P-SANR-FIXT
100
AcDbLine
 10
801.1695023530821
 20
1664.999999999938
 30
0.0
 11
830.1633125333163
 21
1664.999999999938
 31
0.0
  0
LINE
  5
14F
330
87
100
AcDbEntity
  8
P-SANR-FIXT
100
AcDbLine
 10
802.3206093608125
 20
1661.999999999938
 30
0.0
 11
829.0122055255858
 21
1661.999999999938
 31
0.0
  0
LINE
  5
150
330
87
100
AcDbEntity
  8
P-SANR-FIXT
100
AcDbLine
 10
800.869439622763
 20
1659.999999999967
 30
0.0
 11
830.4633752636354
 21
1659.999999999967
 31
0.0
  0
LINE
  5
151
330
87
100
AcDbEntity
  8
P-SANR-FIXT
100
AcDbLine
 10
800.869439622763
 20
1650.999999999967
 30
0.0
 11
830.4633752636354
 21
1650.999999999967
 31
0.0
  0
LINE
  5
152
330
87
100
AcDbEntity
  8
P-SANR-FIXT
100
AcDbLine
 10
808.1664074432005
 20
1628.999999999966
 30
0.0
 11
823.1664074431979
 21
1628.999999999966
 31
0.0
  0
LINE
  5
153
330
87
100
AcDbEntity
  8
P-SANR-FIXT
100
AcDbLine
 10
842.1664074432008
 20
1673.262077013182
 30
0.0
 11
842.1664074432008
 21
1680.737922986727
 31
0.0
  0
LINE
  5
154
330
87
100
AcDbEntity
  8
P-SANR-FIXT
100
AcDbLine
 10
837.6664074432007
 20
1683.442994943171
 30
0.0
 11
837.6664074432007
 21
1670.557005056737
 31
0.0
  0
LINE
  5
155
330
87
100
AcDbEntity
  8
P-SANR-FIXT
100
AcDbLine
 10
789.9164074432027
 20
2244.500000000011
 30
0.0
 11
790.3204868192426
 21
2244.500000000011
 31
0.0
  0
LINE
  5
156
330
87
100
AcDbEntity
  8
P-SANR-FIXT
100
AcDbLine
 10
790.3204868192426
 20
2244.500000000011
 30
0.0
 11
797.4562865073022
 21
2244.500000000011
 31
0.0
  0
LINE
  5
157
330
87
100
AcDbEntity
  8
P-SANR-FIXT
100
AcDbLine
 10
797.5123990358119
 20
2244.500000000011
 30
0.0
 11
804.5963288360546
 21
2244.500000000011
 31
0.0
  0
LINE
  5
158
330
87
100
AcDbEntity
  8
P-SANR-FIXT
100
AcDbLine
 10
804.5963288360544
 20
2244.500000000011
 30
0.0
 11
805.5718627459651
 21
2244.500000000011
 31
0.0
  0
LINE
  5
159
330
87
100
AcDbEntity
  8
P-SANR-FIXT
100
AcDbLine
 10
805.5718627459652
 20
2244.500000000011
 30
0.0
 11
815.6664074431994
 21
2244.500000000011
 31
0.0
  0
LINE
  5
15A
330
87
100
AcDbEntity
  8
P-SANR-FIXT
100
AcDbLine
 10
815.7427625420012
 20
2244.500000000011
 30
0.0
 11
825.7609521404367
 21
2244.500000000011
 31
0.0
  0
LINE
  5
15B
330
87
100
AcDbEntity
  8
P-SANR-FIXT
100
AcDbLine
 10
825.7609521404363
 20
2244.500000000011
 30
0.0
 11
826.7364860503473
 21
2244.500000000011
 31
0.0
  0
LINE
  5
15C
330
87
100
AcDbEntity
  8
P-SANR-FIXT
100
AcDbLine
 10
826.7364860503473
 20
2244.500000000011
 30
0.0
 11
833.8204158506426
 21
2244.500000000011
 31
0.0
  0
LINE
  5
15D
330
87
100
AcDbEntity
  8
P-SANR-FIXT
100
AcDbLine
 10
833.8765283790959
 20
2244.500000000011
 30
0.0
 11
841.0123280671596
 21
2244.500000000011
 31
0.0
  0
LINE
  5
15E
330
87
100
AcDbEntity
  8
P-SANR-FIXT
100
AcDbLine
 10
841.0123280671594
 20
2244.500000000011
 30
0.0
 11
841.4164074431994
 21
2244.500000000011
 31
0.0
  0
LINE
  5
15F
330
87
100
AcDbEntity
  8
P-SANR-FIXT
100
AcDbLine
 10
841.4164074431996
 20
2232.827965773124
 30
0.0
 11
841.0123280671596
 21
2232.827965773124
 31
0.0
  0
LINE
  5
160
330
87
100
AcDbEntity
  8
P-SANR-FIXT
100
AcDbLine
 10
826.7364860503473
 20
2232.827965773124
 30
0.0
 11
825.7609521404367
 21
2232.827965773124
 31
0.0
  0
LINE
  5
161
330
87
100
AcDbEntity
  8
P-SANR-FIXT
100
AcDbLine
 10
805.5718627459652
 20
2232.827965773124
 30
0.0
 11
804.5963288360546
 21
2232.827965773124
 31
0.0
  0
LINE
  5
162
330
87
100
AcDbEntity
  8
P-SANR-FIXT
100
AcDbLine
 10
804.5963288360546
 20
2232.827965773124
 30
0.0
 11
804.5047346839284
 21
2232.827965773124
 31
0.0
  0
LINE
  5
163
330
87
100
AcDbEntity
  8
P-SANR-FIXT
100
AcDbLine
 10
790.3907362543264
 20
2232.827965773124
 30
0.0
 11
790.3204868192426
 21
2232.827965773124
 31
0.0
  0
LINE
  5
164
330
87
100
AcDbEntity
  8
P-SANR-FIXT
100
AcDbLine
 10
790.3204868192426
 20
2232.827965773124
 30
0.0
 11
789.9164074432028
 21
2232.827965773124
 31
0.0
  0
LINE
  5
165
330
87
100
AcDbEntity
  8
P-SANR-FIXT
100
AcDbLine
 10
789.9164074432027
 20
2232.827965773124
 30
0.0
 11
789.9164074432027
 21
2244.500000000011
 31
0.0
  0
LINE
  5
166
330
87
100
AcDbEntity
  8
P-SANR-FIXT
100
AcDbLine
 10
790.3204868192426
 20
2232.827965773124
 30
0.0
 11
790.3204868192426
 21
2244.500000000011
 31
0.0
  0
LINE
  5
167
330
87
100
AcDbEntity
  8
P-SANR-FIXT
100
AcDbLine
 10
804.5963288360544
 20
2232.827965773124
 30
0.0
 11
804.5963288360544
 21
2244.500000000011
 31
0.0
  0
LINE
  5
168
330
87
100
AcDbEntity
  8
P-SANR-FIXT
100
AcDbLine
 10
805.5718627459652
 20
2232.827965773124
 30
0.0
 11
805.5718627459652
 21
2244.500000000011
 31
0.0
  0
LINE
  5
169
330
87
100
AcDbEntity
  8
P-SANR-FIXT
100
AcDbLine
 10
825.7609521404363
 20
2232.827965773124
 30
0.0
 11
825.7609521404363
 21
2244.500000000011
 31
0.0
  0
LINE
  5
16A
330
87
100
AcDbEntity
  8
P-SANR-FIXT
100
AcDbLine
 10
826.7364860503473
 20
2232.827965773124
 30
0.0
 11
826.7364860503473
 21
2244.500000000011
 31
0.0
  0
LINE
  5
16B
330
87
100
AcDbEntity
  8
P-SANR-FIXT
100
AcDbLine
 10
841.0123280671594
 20
2232.827965773124
 30
0.0
 11
841.0123280671594
 21
2244.500000000011
 31
0.0
  0
LINE
  5
16C
330
87
100
AcDbEntity
  8
P-SANR-FIXT
100
AcDbLine
 10
841.4164074431996
 20
2232.827965773124
 30
0.0
 11
841.4164074431996
 21
2244.500000000011
 31
0.0
  0
LINE
  5
16D
330
87
100
AcDbEntity
  8
P-SANR-FIXT
100
AcDbLine
 10
822.1664074432007
 20
2310.000000000175
 30
0.0
 11
822.1664074432007
 21
2298.500000000175
 31
0.0
  0
LINE
  5
16E
330
87
100
AcDbEntity
  8
P-SANR-FIXT
100
AcDbLine
 10
833.1664074432005
 20
2298.500000000175
 30
0.0
 11
833.1664074432005
 21
2310.000000000175
 31
0.0
  0
LINE
  5
16F
330
87
100
AcDbEntity
  8
P-SANR-FIXT
100
AcDbLine
 10
824.6664074432006
 20
2298.500000000175
 30
0.0
 11
824.6664074432006
 21
2295.000000000081
 31
0.0
  0
LINE
  5
170
330
87
100
AcDbEntity
  8
P-SANR-FIXT
100
AcDbLine
 10
830.6664074432003
 20
2295.000000000081
 30
0.0
 11
830.6664074432003
 21
2298.500000000175
 31
0.0
  0
LINE
  5
171
330
87
100
AcDbEntity
  8
P-SANR-FIXT
100
AcDbLine
 10
820.4164074432007
 20
2295.000000000081
 30
0.0
 11
820.4164074432007
 21
2292.000000000018
 31
0.0
  0
LINE
  5
172
330
87
100
AcDbEntity
  8
P-SANR-FIXT
100
AcDbLine
 10
834.9164074432005
 20
2292.000000000018
 30
0.0
 11
834.9164074432005
 21
2295.000000000081
 31
0.0
  0
LINE
  5
173
330
87
100
AcDbEntity
  8
P-SANR-FIXT
100
AcDbLine
 10
822.1664074431989
 20
2310.000000000173
 30
0.0
 11
833.1664074431989
 21
2310.000000000173
 31
0.0
  0
LINE
  5
174
330
87
100
AcDbEntity
  8
P-SANR-FIXT
100
AcDbLine
 10
822.1746219061762
 20
2298.500000000173
 30
0.0
 11
833.1581929802215
 21
2298.500000000173
 31
0.0
  0
LINE
  5
175
330
87
100
AcDbEntity
  8
P-SANR-FIXT
100
AcDbLine
 10
820.4226397634705
 20
2295.000000000079
 30
0.0
 11
834.9101751229271
 21
2295.000000000079
 31
0.0
  0
LWPOLYLINE
  5
176
330
87
100
AcDbEntity
  8
P-SANR-FIXT
100
AcDbPolyline
 90
       26
 70
   128
 43
0.0
 10
843.3243598736416
 20
2232.827965773125
 10
843.350155379319
 20
2232.758138398057
 10
843.3787226015803
 20
2232.689398422539
 10
843.4100158389641
 20
2232.621855815866
 10
843.4439850289654
 20
2232.555618631803
 10
843.4805758281273
 20
2232.490792835712
 10
843.5197296989763
 20
2232.42748213504
 10
843.5613840036717
 20
2232.365787813402
 10
843.6054721042115
 20
2232.305808568552
 10
843.6519234690399
 20
2232.247640354486
 10
843.7006637858823
 20
2232.191376227939
 10
843.7516150806294
 20
2232.13710619951
 10
843.804695842078
 20
2232.084917089669
 10
843.8598211523338
 20
2232.034892389857
 10
843.9169028226592
 20
2231.987112128924
 10
843.9758495345587
 20
2231.941652745093
 10
844.0365669858682
 20
2231.898586963682
 10
844.0989580416175
 20
2231.857983680754
 10
844.1629228894267
 20
2231.8199078529
 10
844.2283591991852
 20
2231.784420393323
 10
844.2951622867555
 20
2231.751578074387
 10
844.3632252814484
 20
2231.721433436796
 10
844.4324392969921
 20
2231.694034705542
 10
844.502693605726
 20
2231.669425712747
 10
844.5738758157432
 20
2231.647645827552
 10
844.6010167604899
 20
2231.640152936596
  0
LWPOLYLINE
  5
177
330
87
100
AcDbEntity
  8
P-SANR-FIXT
100
AcDbPolyline
 90
       26
 70
   128
 43
0.0
 10
786.731798125912
 20
2231.640152936596
 10
786.8033016815104
 20
2231.660853466995
 10
786.8739202414632
 20
2231.684396818758
 10
786.9435408311387
 20
2231.710745327544
 10
787.0120520724452
 20
2231.739856841361
 10
787.0793443620113
 20
2231.771684787995
 10
787.1453100465291
 20
2231.806178249523
 10
787.2098435949745
 20
2231.843282043763
 10
787.2728417674371
 20
2231.882936812561
 10
787.3342037802796
 20
2231.925079116745
 10
787.3938314673714
 20
2231.969641537619
 10
787.4516294371329
 20
2232.016552784815
 10
787.5075052251422
 20
2232.065737810345
 10
787.561369442058
 20
2232.117117928661
 10
787.6131359166238
 20
2232.170610942532
 10
787.6627218335227
 20
2232.226131274549
 10
787.7100478658658
 20
2232.283590104024
 10
787.7550383020972
 20
2232.342895509088
 10
787.797621167116
 20
2232.403952613743
 10
787.8377283374224
 20
2232.466663739646
 10
787.8752956500992
 20
2232.530928562374
 10
787.9102630054604
 20
2232.59664427192
 10
787.9425744631969
 20
2232.663705737166
 10
787.9721783318686
 20
2232.732005674074
 10
787.9990272516009
 20
2232.801434817316
 10
788.0084550127604
 20
2232.827965773125
  0
LINE
  5
178
330
87
100
AcDbEntity
  8
P-SANR-FIXT
100
AcDbLine
 10
786.731798125912
 20
2231.640152936596
 30
0.0
 11
777.4075883981169
 21
2229.141738469975
 31
0.0
  0
LINE
  5
179
330
87
100
AcDbEntity
  8
P-SANR-FIXT
100
AcDbLine
 10
853.9252264882849
 20
2229.141738469975
 30
0.0
 11
844.6010167604899
 21
2231.640152936596
 31
0.0
  0
LWPOLYLINE
  5
17A
330
87
100
AcDbEntity
  8
P-SANR-FIXT
100
AcDbPolyline
 90
       34
 70
   128
 43
0.0
 10
853.9252264882847
 20
2229.141738469975
 10
853.9636461913216
 20
2229.130615831052
 10
854.0015903757689
 20
2229.11796571071
 10
854.0389983390259
 20
2229.103808346442
 10
854.0758102363314
 20
2229.088166387013
 10
854.1119671765024
 20
2229.071064856217
 10
854.1474113161479
 20
2229.052531112861
 10
854.1820859522054
 20
2229.032594806976
 10
854.2159356126537
 20
2229.0112878324
 10
854.2489061452576
 20
2228.988644275748
 10
854.2809448041978
 20
2228.964700361879
 10
854.3120003344546
 20
2228.939494395948
 10
854.3420230538046
 20
2228.913066702124
 10
854.3709649323012
 20
2228.885459559078
 10
854.398779669113
 20
2228.856717132352
 10
854.4254227665943
 20
2228.826885403695
 10
854.4508516014726
 20
2228.79601209751
 10
854.4750254930368
 20
2228.764146604502
 10
854.4979057682173
 20
2228.73133990266
 10
854.5194558234548
 20
2228.69764447571
 10
854.5396411832575
 20
2228.663114229148
 10
854.5584295553561
 20
2228.627804404001
 10
854.5757908823631
 20
2228.591771488457
 10
854.591697389859
 20
2228.555073127495
 10
854.6061236308247
 20
2228.517768030663
 10
854.6190465263524
 20
2228.479915878158
 10
854.6304454025658
 20
2228.44157722535
 10
854.6403020236947
 20
2228.402813405905
 10
854.6486006212479
 20
2228.363686433665
 10
854.6553279192396
 20
2228.324258903438
 10
854.660473155428
 20
2228.284593890863
 10
854.6640280985329
 20
2228.244754851497
 10
854.6659870614034
 20
2228.204805519306
 10
854.6664074431822
 20
2228.175812643686
  0
LWPOLYLINE
  5
17B
330
87
100
AcDbEntity
  8
P-SANR-FIXT
100
AcDbPolyline
 90
       34
 70
   128
 43
0.0
 10
776.6664074432194
 20
2228.175812643686
 10
776.6672073365582
 20
2228.215801977873
 10
776.6696057369167
 20
2228.255727337655
 10
776.6735988073656
 20
2228.295524850975
 10
776.6791801598437
 20
2228.3351308503
 10
776.6863408653782
 20
2228.374481974481
 10
776.6950694683672
 20
2228.413515270113
 10
776.7053520049086
 20
2228.45216829225
 10
776.7171720251369
 20
2228.490379204302
 10
776.7305106195416
 20
2228.528086876961
 10
776.7453464492165
 20
2228.565230985995
 10
776.7616557799994
 20
2228.601752108751
 10
776.77941252044
 20
2228.637591819227
 10
776.7985882635419
 20
2228.67269278153
 10
776.819152332206
 20
2228.706998841607
 10
776.8410718283099
 20
2228.740455117081
 10
776.864311685335
 20
2228.773008085048
 10
776.8888347244685
 20
2228.804605667704
 10
776.9146017140784
 20
2228.835197315657
 10
776.9415714324785
 20
2228.864734088797
 10
776.9697007338723
 20
2228.893168734586
 10
776.9989446173781
 20
2228.920455763657
 10
777.0292562990208
 20
2228.946551522585
 10
777.060587286576
 20
2228.971414263722
 10
777.0928874571469
 20
2228.995004211987
 10
777.1261051373512
 20
2229.017283628494
 10
777.1601871859866
 20
2229.038216870929
 10
777.1950790790457
 20
2229.057770450571
 10
777.2307249969427
 20
2229.075913085862
 10
777.2670679138132
 20
2229.092615752458
 10
777.3040496887428
 20
2229.107851729653
 10
777.3416111587809
 20
2229.121596643135
 10
777.3796922335876
 20
2229.133828503975
 10
777.4075883981169
 20
2229.141738469975
  0
LINE
  5
17C
330
87
100
AcDbEntity
  8
P-SANR-FIXT
100
AcDbLine
 10
776.66640744322
 20
2228.175812643686
 30
0.0
 11
776.66640744322
 21
2226.500000000033
 31
0.0
  0
LINE
  5
17D
330
87
100
AcDbEntity
  8
P-SANR-FIXT
100
AcDbLine
 10
854.6664074431816
 20
2226.500000000033
 30
0.0
 11
854.6664074431816
 21
2228.175812643686
 31
0.0
  0
LINE
  5
17E
330
87
100
AcDbEntity
  8
P-SANR-FIXT
100
AcDbLine
 10
789.913407443201
 20
2282.500000000097
 30
0.0
 11
789.913407443201
 21
2244.500000000012
 31
0.0
  0
LINE
  5
17F
330
87
100
AcDbEntity
  8
P-SANR-FIXT
100
AcDbLine
 10
841.4194074432005
 20
2244.500000000012
 30
0.0
 11
841.4194074432005
 21
2282.500000000097
 31
0.0
  0
LINE
  5
180
330
87
100
AcDbEntity
  8
P-SANR-FIXT
100
AcDbLine
 10
788.1664074432202
 20
2292.000000000018
 30
0.0
 11
788.1664074432202
 21
2282.500000000097
 31
0.0
  0
LINE
  5
181
330
87
100
AcDbEntity
  8
P-SANR-FIXT
100
AcDbLine
 10
843.1664074431814
 20
2282.500000000097
 30
0.0
 11
843.1664074431814
 21
2292.000000000018
 31
0.0
  0
LINE
  5
182
330
87
100
AcDbEntity
  8
P-SANR-FIXT
100
AcDbLine
 10
788.0100757201976
 20
2232.827965773124
 30
0.0
 11
789.9009481075209
 21
2232.827965773124
 31
0.0
  0
LINE
  5
183
330
87
100
AcDbEntity
  8
P-SANR-FIXT
100
AcDbLine
 10
790.0807005774746
 20
2232.827965773124
 30
0.0
 11
790.3068365905883
 21
2232.827965773124
 31
0.0
  0
LINE
  5
184
330
87
100
AcDbEntity
  8
P-SANR-FIXT
100
AcDbLine
 10
790.3375032245641
 20
2232.827965773124
 30
0.0
 11
804.5574496285457
 21
2232.827965773124
 31
0.0
  0
LINE
  5
185
330
87
100
AcDbEntity
  8
P-SANR-FIXT
100
AcDbLine
 10
804.589794939287
 20
2232.827965773124
 30
0.0
 11
805.5663736057006
 21
2232.827965773124
 31
0.0
  0
LINE
  5
186
330
87
100
AcDbEntity
  8
P-SANR-FIXT
100
AcDbLine
 10
805.6113869128374
 20
2232.827965773124
 30
0.0
 11
825.7214279735599
 21
2232.827965773124
 31
0.0
  0
LINE
  5
187
330
87
100
AcDbEntity
  8
P-SANR-FIXT
100
AcDbLine
 10
825.7664412807008
 20
2232.827965773124
 30
0.0
 11
826.7430199471146
 21
2232.827965773124
 31
0.0
  0
LINE
  5
188
330
87
100
AcDbEntity
  8
P-SANR-FIXT
100
AcDbLine
 10
826.7753652578605
 20
2232.827965773124
 30
0.0
 11
840.9953116618297
 21
2232.827965773124
 31
0.0
  0
LINE
  5
189
330
87
100
AcDbEntity
  8
P-SANR-FIXT
100
AcDbLine
 10
841.0259782958137
 20
2232.827965773124
 30
0.0
 11
841.2190236048539
 21
2232.827965773124
 31
0.0
  0
LINE
  5
18A
330
87
100
AcDbEntity
  8
P-SANR-FIXT
100
AcDbLine
 10
841.4318667788815
 20
2232.827965773124
 30
0.0
 11
843.3227391662006
 21
2232.827965773124
 31
0.0
  0
LINE
  5
18B
330
87
100
AcDbEntity
  8
P-SANR-FIXT
100
AcDbLine
 10
788.1680374593717
 20
2292.000000000017
 30
0.0
 11
843.1647774270267
 21
2292.000000000017
 31
0.0
  0
LINE
  5
18C
330
87
100
AcDbEntity
  8
P-SANR-FIXT
100
AcDbLine
 10
788.1680374593717
 20
2282.500000000095
 30
0.0
 11
843.1647774270267
 21
2282.500000000095
 31
0.0
  0
LINE
  5
18D
330
87
100
AcDbEntity
  8
P-SANR-FIXT
100
AcDbLine
 10
910.6060310744712
 20
1827.142149298559
 30
0.0
 11
930.226783811929
 21
1827.142149298559
 31
0.0
  0
LINE
  5
18E
330
87
100
AcDbEntity
  8
P-SANR-FIXT
100
AcDbLine
 10
930.226783811929
 20
1912.857938331071
 30
0.0
 11
910.6060310744709
 21
1912.857938331071
 31
0.0
  0
LINE
  5
18F
330
87
100
AcDbEntity
  8
P-SANR-FIXT
100
AcDbLine
 10
907.1664074431991
 20
1833.100043814816
 30
0.0
 11
910.6060310744712
 21
1827.142149298559
 31
0.0
  0
LINE
  5
190
330
87
100
AcDbEntity
  8
P-SANR-FIXT
100
AcDbLine
 10
910.6060310744709
 20
1912.857938331071
 30
0.0
 11
907.1664074431989
 21
1906.900043814814
 31
0.0
  0
LINE
  5
191
330
87
100
AcDbEntity
  8
P-SANR-FIXT
100
AcDbLine
 10
933.666407443199
 20
1906.900043814817
 30
0.0
 11
930.226783811929
 21
1912.857938331071
 31
0.0
  0
LINE
  5
192
330
87
100
AcDbEntity
  8
P-SANR-FIXT
100
AcDbLine
 10
930.226783811929
 20
1827.142149298559
 30
0.0
 11
933.6664074431991
 21
1833.100043814813
 31
0.0
  0
LINE
  5
193
330
87
100
AcDbEntity
  8
P-SANR-FIXT
100
AcDbLine
 10
933.6664074431972
 20
1906.900043814816
 30
0.0
 11
933.6664074431974
 21
1833.100043814813
 31
0.0
  0
LINE
  5
194
330
87
100
AcDbEntity
  8
P-SANR-FIXT
100
AcDbLine
 10
907.1664074431973
 20
1833.100043814815
 30
0.0
 11
907.1664074431971
 21
1906.900043814813
 31
0.0
  0
SPLINE
  5
195
330
87
100
AcDbEntity
  8
P-SANR-FIXT
100
AcDbSpline
210
0.0
220
0.0
230
1.0
 70
     8
 71
     3
 72
    11
 73
     7
 74
     0
 42
0.000000001
 43
0.0000000001
 40
0.0
 40
0.0
 40
0.0
 40
0.0
 40
0.25
 40
0.5
 40
0.75
 40
1.0
 40
1.0
 40
1.0
 40
1.0
 10
910.5303736401136
 20
1891.795016476726
 30
0.0
 10
910.5551685812114
 20
1891.752182216793
 30
0.0
 10
910.5923452163958
 20
1891.646692101494
 30
0.0
 10
910.6129211930065
 20
1891.43443986259
 30
0.0
 10
910.5921558988448
 20
1891.186505767603
 30
0.0
 10
910.555080233021
 20
1891.014252438324
 30
0.0
 10
910.5303736401136
 20
1890.928991072941
 30
0.0
  0
SPLINE
  5
196
330
87
100
AcDbEntity
  8
P-SANR-FIXT
100
AcDbSpline
210
0.0
220
0.0
230
1.0
 70
     8
 71
     3
 72
    11
 73
     7
 74
     0
 42
0.000000001
 43
0.0000000001
 40
0.0
 40
0.0
 40
0.0
 40
0.0
 40
0.25
 40
0.5
 40
0.75
 40
1.0
 40
1.0
 40
1.0
 40
1.0
 10
930.3024412462825
 20
1890.928991072941
 30
0.0
 10
930.2777346533749
 20
1891.014252438324
 30
0.0
 10
930.2406589875513
 20
1891.186505767602
 30
0.0
 10
930.2198936933894
 20
1891.43443986259
 30
0.0
 10
930.2404696700001
 20
1891.646692101494
 30
0.0
 10
930.2776463051843
 20
1891.752182216793
 30
0.0
 10
930.3024412462825
 20
1891.795016476726
 30
0.0
  0
SPLINE
  5
197
330
87
100
AcDbEntity
  8
P-SANR-FIXT
100
AcDbSpline
210
0.0
220
0.0
230
1.0
 70
     8
 71
     3
 72
    10
 73
     6
 74
     0
 42
0.000000001
 43
0.0000000001
 40
0.0
 40
0.0
 40
0.0
 40
0.0
 40
0.3333333333333333
 40
0.6666666666666666
 40
1.0
 40
1.0
 40
1.0
 40
1.0
 10
910.5303736401136
 20
1890.928991072941
 30
0.0
 10
909.1329453594866
 20
1886.278241981224
 30
0.0
 10
907.2699945768977
 20
1876.975039809897
 30
0.0
 10
907.2945266569956
 20
1862.884017714696
 30
0.0
 10
909.1437050437402
 20
1853.661404174817
 30
0.0
 10
910.5303736401138
 20
1849.071096556686
 30
0.0
  0
SPLINE
  5
198
330
87
100
AcDbEntity
  8
P-SANR-FIXT
100
AcDbSpline
210
0.0
220
0.0
230
1.0
 70
     8
 71
     3
 72
    10
 73
     6
 74
     0
 42
0.000000001
 43
0.0000000001
 40
0.0
 40
0.0
 40
0.0
 40
0.0
 40
0.3333333333333333
 40
0.6666666666666666
 40
1.0
 40
1.0
 40
1.0
 40
1.0
 10
930.3024412462825
 20
1849.071096556686
 30
0.0
 10
931.6891098426557
 20
1853.661404174817
 30
0.0
 10
933.5382882293998
 20
1862.884017714696
 30
0.0
 10
933.5628203094978
 20
1876.975039809897
 30
0.0
 10
931.699869526909
 20
1886.278241981224
 30
0.0
 10
930.3024412462825
 20
1890.928991072941
 30
0.0
  0
SPLINE
  5
199
330
87
100
AcDbEntity
  8
P-SANR-FIXT
100
AcDbSpline
210
0.0
220
0.0
230
1.0
 70
     8
 71
     3
 72
    11
 73
     7
 74
     0
 42
0.000000001
 43
0.0000000001
 40
0.0
 40
0.0
 40
0.0
 40
0.0
 40
0.25
 40
0.5
 40
0.75
 40
1.0
 40
1.0
 40
1.0
 40
1.0
 10
910.5303736401138
 20
1849.071096556686
 30
0.0
 10
910.5551685812116
 20
1848.985428036821
 30
0.0
 10
910.592345216396
 20
1848.812573165747
 30
0.0
 10
910.6129211930065
 20
1848.56457896853
 30
0.0
 10
910.5921558988448
 20
1848.352702174483
 30
0.0
 10
910.555080233021
 20
1848.247701835593
 30
0.0
 10
910.5303736401136
 20
1848.205071152902
 30
0.0
  0
SPLINE
  5
19A
330
87
100
AcDbEntity
  8
P-SANR-FIXT
100
AcDbSpline
210
0.0
220
0.0
230
1.0
 70
     8
 71
     3
 72
    11
 73
     7
 74
     0
 42
0.000000001
 43
0.0000000001
 40
0.0
 40
0.0
 40
0.0
 40
0.0
 40
0.25
 40
0.5
 40
0.75
 40
1.0
 40
1.0
 40
1.0
 40
1.0
 10
930.3024412462825
 20
1848.205071152902
 30
0.0
 10
930.2777346533751
 20
1848.247701835593
 30
0.0
 10
930.2406589875513
 20
1848.352702174483
 30
0.0
 10
930.2198936933894
 20
1848.56457896853
 30
0.0
 10
930.2404696700001
 20
1848.812573165747
 30
0.0
 10
930.2776463051845
 20
1848.985428036821
 30
0.0
 10
930.3024412462825
 20
1849.071096556686
 30
0.0
  0
SPLINE
  5
19B
330
87
100
AcDbEntity
  8
P-SANR-FIXT
100
AcDbSpline
210
0.0
220
0.0
230
1.0
 70
     8
 71
     3
 72
    10
 73
     6
 74
     0
 42
0.000000001
 43
0.0000000001
 40
0.0
 40
0.0
 40
0.0
 40
0.0
 40
0.3333333333333333
 40
0.6666666666666666
 40
1.0
 40
1.0
 40
1.0
 40
1.0
 10
910.5303736401136
 20
1848.205071152902
 30
0.0
 10
909.1329453594861
 20
1845.879696607043
 30
0.0
 10
907.2699945768958
 20
1841.228095521379
 30
0.0
 10
907.2945266569911
 20
1834.182584473779
 30
0.0
 10
909.1437050437351
 20
1829.57127770384
 30
0.0
 10
910.5303736401081
 20
1827.276123894774
 30
0.0
  0
SPLINE
  5
19C
330
87
100
AcDbEntity
  8
P-SANR-FIXT
100
AcDbSpline
210
0.0
220
0.0
230
1.0
 70
     8
 71
     3
 72
    10
 73
     6
 74
     0
 42
0.000000001
 43
0.0000000001
 40
0.0
 40
0.0
 40
0.0
 40
0.0
 40
0.3333333333333333
 40
0.6666666666666666
 40
1.0
 40
1.0
 40
1.0
 40
1.0
 10
930.3024412462885
 20
1827.276123894774
 30
0.0
 10
931.6891098426616
 20
1829.57127770384
 30
0.0
 10
933.5382882294048
 20
1834.182584473779
 30
0.0
 10
933.5628203095001
 20
1841.228095521379
 30
0.0
 10
931.6998695269099
 20
1845.879696607043
 30
0.0
 10
930.3024412462825
 20
1848.205071152902
 30
0.0
  0
SPLINE
  5
19D
330
87
100
AcDbEntity
  8
P-SANR-FIXT
100
AcDbSpline
210
0.0
220
0.0
230
1.0
 70
     8
 71
     3
 72
     9
 73
     5
 74
     0
 42
0.000000001
 43
0.0000000001
 40
0.0
 40
0.0
 40
0.0
 40
0.0
 40
0.5
 40
1.0
 40
1.0
 40
1.0
 40
1.0
 10
910.5303736401081
 20
1827.276123894774
 30
0.0
 10
910.5551850298027
 20
1827.233185792884
 30
0.0
 10
910.5926059918907
 20
1827.165863075074
 30
0.0
 10
910.6056233193768
 20
1827.142149298557
 30
0.0
 10
910.6060310744695
 20
1827.142149298558
 30
0.0
  0
SPLINE
  5
19E
330
87
100
AcDbEntity
  8
P-SANR-FIXT
100
AcDbSpline
210
0.0
220
0.0
230
1.0
 70
     8
 71
     3
 72
     9
 73
     5
 74
     0
 42
0.000000001
 43
0.0000000001
 40
0.0
 40
0.0
 40
0.0
 40
0.0
 40
0.5
 40
1.0
 40
1.0
 40
1.0
 40
1.0
 10
930.2267838119275
 20
1827.142149298559
 30
0.0
 10
930.2271915670202
 20
1827.142149298557
 30
0.0
 10
930.2402088945063
 20
1827.165863075074
 30
0.0
 10
930.2776298565943
 20
1827.233185792884
 30
0.0
 10
930.3024412462885
 20
1827.276123894774
 30
0.0
  0
SPLINE
  5
19F
330
87
100
AcDbEntity
  8
P-SANR-FIXT
100
AcDbSpline
210
0.0
220
0.0
230
1.0
 70
     8
 71
     3
 72
     9
 73
     5
 74
     0
 42
0.000000001
 43
0.0000000001
 40
0.0
 40
0.0
 40
0.0
 40
0.0
 40
0.5
 40
1.0
 40
1.0
 40
1.0
 40
1.0
 10
910.6060310744693
 20
1912.85793833107
 30
0.0
 10
910.6056233193767
 20
1912.857938331071
 30
0.0
 10
910.5926059918903
 20
1912.834224554554
 30
0.0
 10
910.5551850298024
 20
1912.766901836744
 30
0.0
 10
910.5303736401081
 20
1912.723963734854
 30
0.0
  0
SPLINE
  5
1A0
330
87
100
AcDbEntity
  8
P-SANR-FIXT
100
AcDbSpline
210
0.0
220
0.0
230
1.0
 70
     8
 71
     3
 72
     9
 73
     5
 74
     0
 42
0.000000001
 43
0.0000000001
 40
0.0
 40
0.0
 40
0.0
 40
0.0
 40
0.5
 40
1.0
 40
1.0
 40
1.0
 40
1.0
 10
930.3024412462884
 20
1912.723963734854
 30
0.0
 10
930.2776298565941
 20
1912.766901836744
 30
0.0
 10
930.2402088945061
 20
1912.834224554554
 30
0.0
 10
930.22719156702
 20
1912.857938331071
 30
0.0
 10
930.2267838119272
 20
1912.85793833107
 30
0.0
  0
SPLINE
  5
1A1
330
87
100
AcDbEntity
  8
P-SANR-FIXT
100
AcDbSpline
210
0.0
220
0.0
230
1.0
 70
     8
 71
     3
 72
    10
 73
     6
 74
     0
 42
0.000000001
 43
0.0000000001
 40
0.0
 40
0.0
 40
0.0
 40
0.0
 40
0.3333333333333333
 40
0.6666666666666666
 40
1.0
 40
1.0
 40
1.0
 40
1.0
 10
930.3024412462825
 20
1891.795016476726
 30
0.0
 10
931.6998695269099
 20
1894.120391022585
 30
0.0
 10
933.5628203095001
 20
1898.771992108249
 30
0.0
 10
933.5382882294046
 20
1905.817503155849
 30
0.0
 10
931.6891098426614
 20
1910.428809925788
 30
0.0
 10
930.3024412462884
 20
1912.723963734854
 30
0.0
  0
SPLINE
  5
1A2
330
87
100
AcDbEntity
  8
P-SANR-FIXT
100
AcDbSpline
210
0.0
220
0.0
230
1.0
 70
     8
 71
     3
 72
    10
 73
     6
 74
     0
 42
0.000000001
 43
0.0000000001
 40
0.0
 40
0.0
 40
0.0
 40
0.0
 40
0.3333333333333333
 40
0.6666666666666666
 40
1.0
 40
1.0
 40
1.0
 40
1.0
 10
910.5303736401081
 20
1912.723963734854
 30
0.0
 10
909.1437050437349
 20
1910.428809925788
 30
0.0
 10
907.2945266569909
 20
1905.817503155849
 30
0.0
 10
907.2699945768956
 20
1898.771992108249
 30
0.0
 10
909.1329453594859
 20
1894.120391022585
 30
0.0
 10
910.5303736401136
 20
1891.795016476726
 30
0.0
  0
LINE
  5
1A3
330
87
100
AcDbEntity
  8
P-SANR-FIXT
100
AcDbLine
 10
701.1060310744721
 20
1827.14214929856
 30
0.0
 11
720.7267838119299
 21
1827.14214929856
 31
0.0
  0
LINE
  5
1A4
330
87
100
AcDbEntity
  8
P-SANR-FIXT
100
AcDbLine
 10
720.72678381193
 20
1912.857938331072
 30
0.0
 11
701.1060310744722
 21
1912.857938331072
 31
0.0
  0
LINE
  5
1A5
330
87
100
AcDbEntity
  8
P-SANR-FIXT
100
AcDbLine
 10
724.1664074432023
 20
1906.900043814815
 30
0.0
 11
720.72678381193
 21
1912.857938331072
 31
0.0
  0
LINE
  5
1A6
330
87
100
AcDbEntity
  8
P-SANR-FIXT
100
AcDbLine
 10
720.7267838119299
 20
1827.14214929856
 30
0.0
 11
724.1664074432019
 21
1833.100043814817
 31
0.0
  0
LINE
  5
1A7
330
87
100
AcDbEntity
  8
P-SANR-FIXT
100
AcDbLine
 10
697.6664074432019
 20
1833.100043814815
 30
0.0
 11
701.1060310744721
 21
1827.14214929856
 31
0.0
  0
LINE
  5
1A8
330
87
100
AcDbEntity
  8
P-SANR-FIXT
100
AcDbLine
 10
701.1060310744722
 20
1912.857938331072
 30
0.0
 11
697.666407443202
 21
1906.900043814817
 31
0.0
  0
LINE
  5
1A9
330
87
100
AcDbEntity
  8
P-SANR-FIXT
100
AcDbLine
 10
697.6664074432005
 20
1833.100043814814
 30
0.0
 11
697.6664074432006
 21
1906.900043814817
 31
0.0
  0
LINE
  5
1AA
330
87
100
AcDbEntity
  8
P-SANR-FIXT
100
AcDbLine
 10
724.1664074432008
 20
1906.900043814814
 30
0.0
 11
724.1664074432004
 21
1833.100043814816
 31
0.0
  0
SPLINE
  5
1AB
330
87
100
AcDbEntity
  8
P-SANR-FIXT
100
AcDbSpline
210
0.0
220
0.0
230
1.0
 70
     8
 71
     3
 72
    11
 73
     7
 74
     0
 42
0.000000001
 43
0.0000000001
 40
0.0
 40
0.0
 40
0.0
 40
0.0
 40
0.25
 40
0.5
 40
0.75
 40
1.0
 40
1.0
 40
1.0
 40
1.0
 10
720.8024412462837
 20
1890.928991072943
 30
0.0
 10
720.7776463051857
 20
1891.014659592809
 30
0.0
 10
720.7404696700014
 20
1891.187514463882
 30
0.0
 10
720.7198936933909
 20
1891.435508661099
 30
0.0
 10
720.7406589875525
 20
1891.647385455146
 30
0.0
 10
720.7777346533764
 20
1891.752385794036
 30
0.0
 10
720.8024412462839
 20
1891.795016476727
 30
0.0
  0
SPLINE
  5
1AC
330
87
100
AcDbEntity
  8
P-SANR-FIXT
100
AcDbSpline
210
0.0
220
0.0
230
1.0
 70
     8
 71
     3
 72
    11
 73
     7
 74
     0
 42
0.000000001
 43
0.0000000001
 40
0.0
 40
0.0
 40
0.0
 40
0.0
 40
0.25
 40
0.5
 40
0.75
 40
1.0
 40
1.0
 40
1.0
 40
1.0
 10
701.0303736401148
 20
1891.795016476727
 30
0.0
 10
701.0550802330223
 20
1891.752385794036
 30
0.0
 10
701.092155898846
 20
1891.647385455146
 30
0.0
 10
701.1129211930077
 20
1891.435508661099
 30
0.0
 10
701.0923452163971
 20
1891.187514463882
 30
0.0
 10
701.0551685812129
 20
1891.014659592809
 30
0.0
 10
701.030373640115
 20
1890.928991072943
 30
0.0
  0
SPLINE
  5
1AD
330
87
100
AcDbEntity
  8
P-SANR-FIXT
100
AcDbSpline
210
0.0
220
0.0
230
1.0
 70
     8
 71
     3
 72
    10
 73
     6
 74
     0
 42
0.000000001
 43
0.0000000001
 40
0.0
 40
0.0
 40
0.0
 40
0.0
 40
0.3333333333333333
 40
0.6666666666666666
 40
1.0
 40
1.0
 40
1.0
 40
1.0
 10
701.030373640115
 20
1890.928991072943
 30
0.0
 10
699.6329453594882
 20
1886.278241981225
 30
0.0
 10
697.7699945768994
 20
1876.975039809897
 30
0.0
 10
697.7945266569974
 20
1862.884017714697
 30
0.0
 10
699.6437050437418
 20
1853.661404174818
 30
0.0
 10
701.0303736401148
 20
1849.071096556687
 30
0.0
  0
SPLINE
  5
1AE
330
87
100
AcDbEntity
  8
P-SANR-FIXT
100
AcDbSpline
210
0.0
220
0.0
230
1.0
 70
     8
 71
     3
 72
    10
 73
     6
 74
     0
 42
0.000000001
 43
0.0000000001
 40
0.0
 40
0.0
 40
0.0
 40
0.0
 40
0.3333333333333333
 40
0.6666666666666666
 40
1.0
 40
1.0
 40
1.0
 40
1.0
 10
720.8024412462836
 20
1849.071096556687
 30
0.0
 10
722.189109842657
 20
1853.661404174818
 30
0.0
 10
724.0382882294016
 20
1862.884017714697
 30
0.0
 10
724.0628203094996
 20
1876.975039809898
 30
0.0
 10
722.1998695269107
 20
1886.278241981225
 30
0.0
 10
720.8024412462837
 20
1890.928991072943
 30
0.0
  0
SPLINE
  5
1AF
330
87
100
AcDbEntity
  8
P-SANR-FIXT
100
AcDbSpline
210
0.0
220
0.0
230
1.0
 70
     8
 71
     3
 72
    11
 73
     7
 74
     0
 42
0.000000001
 43
0.0000000001
 40
0.0
 40
0.0
 40
0.0
 40
0.0
 40
0.25
 40
0.5
 40
0.75
 40
1.0
 40
1.0
 40
1.0
 40
1.0
 10
701.0303736401148
 20
1849.071096556687
 30
0.0
 10
701.0551685812129
 20
1848.985428036822
 30
0.0
 10
701.0923452163971
 20
1848.812573165748
 30
0.0
 10
701.1129211930076
 20
1848.564578968531
 30
0.0
 10
701.092155898846
 20
1848.352702174485
 30
0.0
 10
701.0550802330222
 20
1848.247701835594
 30
0.0
 10
701.0303736401148
 20
1848.205071152903
 30
0.0
  0
SPLINE
  5
1B0
330
87
100
AcDbEntity
  8
P-SANR-FIXT
100
AcDbSpline
210
0.0
220
0.0
230
1.0
 70
     8
 71
     3
 72
    11
 73
     7
 74
     0
 42
0.000000001
 43
0.0000000001
 40
0.0
 40
0.0
 40
0.0
 40
0.0
 40
0.25
 40
0.5
 40
0.75
 40
1.0
 40
1.0
 40
1.0
 40
1.0
 10
720.8024412462837
 20
1848.205071152903
 30
0.0
 10
720.7777346533762
 20
1848.247701835594
 30
0.0
 10
720.7406589875525
 20
1848.352702174485
 30
0.0
 10
720.7198936933907
 20
1848.564578968531
 30
0.0
 10
720.7404696700014
 20
1848.812573165748
 30
0.0
 10
720.7776463051857
 20
1848.985428036822
 30
0.0
 10
720.8024412462836
 20
1849.071096556687
 30
0.0
  0
SPLINE
  5
1B1
330
87
100
AcDbEntity
  8
P-SANR-FIXT
100
AcDbSpline
210
0.0
220
0.0
230
1.0
 70
     8
 71
     3
 72
    10
 73
     6
 74
     0
 42
0.000000001
 43
0.0000000001
 40
0.0
 40
0.0
 40
0.0
 40
0.0
 40
0.3333333333333333
 40
0.6666666666666666
 40
1.0
 40
1.0
 40
1.0
 40
1.0
 10
701.0303736401148
 20
1848.205071152903
 30
0.0
 10
699.6329453594874
 20
1845.879696607044
 30
0.0
 10
697.7699945768976
 20
1841.22809552138
 30
0.0
 10
697.7945266569928
 20
1834.18258447378
 30
0.0
 10
699.6437050437364
 20
1829.571277703841
 30
0.0
 10
701.0303736401095
 20
1827.276123894775
 30
0.0
  0
SPLINE
  5
1B2
330
87
100
AcDbEntity
  8
P-SANR-FIXT
100
AcDbSpline
210
0.0
220
0.0
230
1.0
 70
     8
 71
     3
 72
    10
 73
     6
 74
     0
 42
0.000000001
 43
0.0000000001
 40
0.0
 40
0.0
 40
0.0
 40
0.0
 40
0.3333333333333333
 40
0.6666666666666666
 40
1.0
 40
1.0
 40
1.0
 40
1.0
 10
720.8024412462897
 20
1827.276123894775
 30
0.0
 10
722.1891098426627
 20
1829.571277703841
 30
0.0
 10
724.0382882294063
 20
1834.18258447378
 30
0.0
 10
724.0628203095018
 20
1841.22809552138
 30
0.0
 10
722.1998695269112
 20
1845.879696607044
 30
0.0
 10
720.8024412462837
 20
1848.205071152903
 30
0.0
  0
SPLINE
  5
1B3
330
87
100
AcDbEntity
  8
P-SANR-FIXT
100
AcDbSpline
210
0.0
220
0.0
230
1.0
 70
     8
 71
     3
 72
     9
 73
     5
 74
     0
 42
0.000000001
 43
0.0000000001
 40
0.0
 40
0.0
 40
0.0
 40
0.0
 40
0.5
 40
1.0
 40
1.0
 40
1.0
 40
1.0
 10
701.0303736401095
 20
1827.276123894775
 30
0.0
 10
701.0551850298037
 20
1827.233185792885
 30
0.0
 10
701.0926059918915
 20
1827.165863075075
 30
0.0
 10
701.1056233193778
 20
1827.142149298558
 30
0.0
 10
701.1060310744705
 20
1827.142149298559
 30
0.0
  0
SPLINE
  5
1B4
330
87
100
AcDbEntity
  8
P-SANR-FIXT
100
AcDbSpline
210
0.0
220
0.0
230
1.0
 70
     8
 71
     3
 72
     9
 73
     5
 74
     0
 42
0.000000001
 43
0.0000000001
 40
0.0
 40
0.0
 40
0.0
 40
0.0
 40
0.5
 40
1.0
 40
1.0
 40
1.0
 40
1.0
 10
720.7267838119284
 20
1827.142149298559
 30
0.0
 10
720.7271915670211
 20
1827.142149298558
 30
0.0
 10
720.7402088945073
 20
1827.165863075075
 30
0.0
 10
720.7776298565952
 20
1827.233185792885
 30
0.0
 10
720.8024412462896
 20
1827.276123894775
 30
0.0
  0
SPLINE
  5
1B5
330
87
100
AcDbEntity
  8
P-SANR-FIXT
100
AcDbSpline
210
0.0
220
0.0
230
1.0
 70
     8
 71
     3
 72
     9
 73
     5
 74
     0
 42
0.000000001
 43
0.0000000001
 40
0.0
 40
0.0
 40
0.0
 40
0.0
 40
0.5
 40
1.0
 40
1.0
 40
1.0
 40
1.0
 10
701.1060310744706
 20
1912.857938331071
 30
0.0
 10
701.1056233193779
 20
1912.857938331072
 30
0.0
 10
701.0926059918918
 20
1912.834224554555
 30
0.0
 10
701.0551850298038
 20
1912.766901836745
 30
0.0
 10
701.0303736401095
 20
1912.723963734855
 30
0.0
  0
SPLINE
  5
1B6
330
87
100
AcDbEntity
  8
P-SANR-FIXT
100
AcDbSpline
210
0.0
220
0.0
230
1.0
 70
     8
 71
     3
 72
     9
 73
     5
 74
     0
 42
0.000000001
 43
0.0000000001
 40
0.0
 40
0.0
 40
0.0
 40
0.0
 40
0.5
 40
1.0
 40
1.0
 40
1.0
 40
1.0
 10
720.8024412462898
 20
1912.723963734855
 30
0.0
 10
720.7776298565955
 20
1912.766901836745
 30
0.0
 10
720.7402088945076
 20
1912.834224554555
 30
0.0
 10
720.7271915670213
 20
1912.857938331072
 30
0.0
 10
720.7267838119285
 20
1912.857938331071
 30
0.0
  0
SPLINE
  5
1B7
330
87
100
AcDbEntity
  8
P-SANR-FIXT
100
AcDbSpline
210
0.0
220
0.0
230
1.0
 70
     8
 71
     3
 72
    10
 73
     6
 74
     0
 42
0.000000001
 43
0.0000000001
 40
0.0
 40
0.0
 40
0.0
 40
0.0
 40
0.3333333333333333
 40
0.6666666666666666
 40
1.0
 40
1.0
 40
1.0
 40
1.0
 10
701.0303736401095
 20
1912.723963734855
 30
0.0
 10
699.6329453594832
 20
1910.398589188996
 30
0.0
 10
697.7699945768951
 20
1905.746988103332
 30
0.0
 10
697.7945266569954
 20
1898.701477055732
 30
0.0
 10
699.643705043741
 20
1894.090170285792
 30
0.0
 10
701.0303736401148
 20
1891.795016476727
 30
0.0
  0
SPLINE
  5
1B8
330
87
100
AcDbEntity
  8
P-SANR-FIXT
100
AcDbSpline
210
0.0
220
0.0
230
1.0
 70
     8
 71
     3
 72
    10
 73
     6
 74
     0
 42
0.000000001
 43
0.0000000001
 40
0.0
 40
0.0
 40
0.0
 40
0.0
 40
0.3333333333333333
 40
0.6666666666666666
 40
1.0
 40
1.0
 40
1.0
 40
1.0
 10
720.8024412462839
 20
1891.795016476727
 30
0.0
 10
722.189109842658
 20
1894.090170285792
 30
0.0
 10
724.038288229404
 20
1898.701477055732
 30
0.0
 10
724.0628203095044
 20
1905.746988103332
 30
0.0
 10
722.1998695269164
 20
1910.398589188996
 30
0.0
 10
720.8024412462898
 20
1912.723963734855
 30
0.0
  0
LINE
  5
1B9
330
87
100
AcDbEntity
  8
P-SANR-FIXT
100
AcDbLine
 10
695.1664074431392
 20
2100.849956185148
 30
0.0
 11
697.6664074432022
 21
2100.849956185148
 31
0.0
  0
LINE
  5
1BA
330
87
100
AcDbEntity
  8
P-SANR-FIXT
100
AcDbLine
 10
697.6664074432025
 20
2159.149956185173
 30
0.0
 11
695.1664074431392
 21
2159.149956185173
 31
0.0
  0
LINE
  5
1BB
330
87
100
AcDbEntity
  8
P-SANR-FIXT
100
AcDbLine
 10
674.666407443139
 20
2100.849956185147
 30
0.0
 11
695.1664074431392
 21
2100.849956185147
 31
0.0
  0
LINE
  5
1BC
330
87
100
AcDbEntity
  8
P-SANR-FIXT
100
AcDbLine
 10
695.1664074431392
 20
2159.149956185174
 30
0.0
 11
674.666407443139
 21
2159.149956185174
 31
0.0
  0
LINE
  5
1BD
330
87
100
AcDbEntity
  8
P-SANR-FIXT
100
AcDbLine
 10
695.1664074431377
 20
2129.999956185159
 30
0.0
 11
695.1664074431377
 21
2140.987335308516
 31
0.0
  0
LINE
  5
1BE
330
87
100
AcDbEntity
  8
P-SANR-FIXT
100
AcDbLine
 10
695.1664074431377
 20
2119.012577061803
 30
0.0
 11
695.1664074431377
 21
2129.999956185159
 31
0.0
  0
LINE
  5
1BF
330
87
100
AcDbEntity
  8
P-SANR-FIXT
100
AcDbLine
 10
695.1664074431377
 20
2147.888952525667
 30
0.0
 11
695.1664074431378
 21
2158.876331649024
 31
0.0
  0
LINE
  5
1C0
330
87
100
AcDbEntity
  8
P-SANR-FIXT
100
AcDbLine
 10
695.1664074431378
 20
2101.123580721295
 30
0.0
 11
695.1664074431377
 21
2112.110959844653
 31
0.0
  0
LINE
  5
1C1
330
87
100
AcDbEntity
  8
P-SANR-FIXT
100
AcDbLine
 10
674.6664074431374
 20
2147.888952525667
 30
0.0
 11
674.6664074431375
 21
2158.876331649024
 31
0.0
  0
LINE
  5
1C2
330
87
100
AcDbEntity
  8
P-SANR-FIXT
100
AcDbLine
 10
674.6664074431375
 20
2158.876331649024
 30
0.0
 11
674.6664074431375
 21
2159.149956185173
 31
0.0
  0
LINE
  5
1C3
330
87
100
AcDbEntity
  8
P-SANR-FIXT
100
AcDbLine
 10
674.6664074431375
 20
2100.849956185146
 30
0.0
 11
674.6664074431375
 21
2101.123580721294
 31
0.0
  0
LINE
  5
1C4
330
87
100
AcDbEntity
  8
P-SANR-FIXT
100
AcDbLine
 10
674.6664074431375
 20
2101.123580721295
 30
0.0
 11
674.6664074431374
 21
2112.110959844653
 31
0.0
  0
LINE
  5
1C5
330
87
100
AcDbEntity
  8
P-SANR-FIXT
100
AcDbLine
 10
674.6664074431374
 20
2112.110959844653
 30
0.0
 11
674.6664074431374
 21
2119.012577061802
 31
0.0
  0
LINE
  5
1C6
330
87
100
AcDbEntity
  8
P-SANR-FIXT
100
AcDbLine
 10
674.6664074431374
 20
2119.012577061802
 30
0.0
 11
674.6664074431374
 21
2140.987335308518
 31
0.0
  0
LINE
  5
1C7
330
87
100
AcDbEntity
  8
P-SANR-FIXT
100
AcDbLine
 10
674.6664074431374
 20
2140.987335308518
 30
0.0
 11
674.6664074431374
 21
2147.888952525666
 31
0.0
  0
LINE
  5
1C8
330
87
100
AcDbEntity
  8
P-SANR-FIXT
100
AcDbLine
 10
674.6664074431374
 20
2140.987335308518
 30
0.0
 11
695.1664074431377
 21
2140.987335308518
 31
0.0
  0
LINE
  5
1C9
330
87
100
AcDbEntity
  8
P-SANR-FIXT
100
AcDbLine
 10
674.6664074431374
 20
2119.012577061802
 30
0.0
 11
695.1664074431377
 21
2119.012577061802
 31
0.0
  0
LINE
  5
1CA
330
87
100
AcDbEntity
  8
P-SANR-FIXT
100
AcDbLine
 10
674.6664074431374
 20
2112.110959844653
 30
0.0
 11
695.1664074431377
 21
2112.110959844653
 31
0.0
  0
LINE
  5
1CB
330
87
100
AcDbEntity
  8
P-SANR-FIXT
100
AcDbLine
 10
674.6664074431375
 20
2101.123580721295
 30
0.0
 11
695.1664074431378
 21
2101.123580721295
 31
0.0
  0
LINE
  5
1CC
330
87
100
AcDbEntity
  8
P-SANR-FIXT
100
AcDbLine
 10
674.6664074431375
 20
2158.876331649024
 30
0.0
 11
695.1664074431378
 21
2158.876331649024
 31
0.0
  0
LINE
  5
1CD
330
87
100
AcDbEntity
  8
P-SANR-FIXT
100
AcDbLine
 10
695.1664074431377
 20
2147.888952525666
 30
0.0
 11
674.6664074431374
 21
2147.888952525666
 31
0.0
  0
LINE
  5
1CE
330
87
100
AcDbEntity
  8
P-SANR-FIXT
100
AcDbLine
 10
936.1664074432622
 20
2100.849956185147
 30
0.0
 11
956.6664074432624
 21
2100.849956185147
 31
0.0
  0
LINE
  5
1CF
330
87
100
AcDbEntity
  8
P-SANR-FIXT
100
AcDbLine
 10
956.6664074432624
 20
2159.149956185174
 30
0.0
 11
936.1664074432622
 21
2159.149956185174
 31
0.0
  0
LINE
  5
1D0
330
87
100
AcDbEntity
  8
P-SANR-FIXT
100
AcDbLine
 10
933.666407443199
 20
2100.849956185148
 30
0.0
 11
936.1664074432622
 21
2100.849956185148
 31
0.0
  0
LINE
  5
1D1
330
87
100
AcDbEntity
  8
P-SANR-FIXT
100
AcDbLine
 10
936.1664074432622
 20
2159.149956185173
 30
0.0
 11
933.666407443199
 21
2159.149956185173
 31
0.0
  0
LINE
  5
1D2
330
87
100
AcDbEntity
  8
P-SANR-FIXT
100
AcDbLine
 10
956.6664074432607
 20
2147.888952525667
 30
0.0
 11
956.6664074432607
 21
2140.987335308518
 31
0.0
  0
LINE
  5
1D3
330
87
100
AcDbEntity
  8
P-SANR-FIXT
100
AcDbLine
 10
956.6664074432607
 20
2140.987335308518
 30
0.0
 11
956.6664074432607
 21
2119.012577061802
 31
0.0
  0
LINE
  5
1D4
330
87
100
AcDbEntity
  8
P-SANR-FIXT
100
AcDbLine
 10
956.6664074432607
 20
2119.012577061802
 30
0.0
 11
956.6664074432607
 21
2112.110959844653
 31
0.0
  0
LINE
  5
1D5
330
87
100
AcDbEntity
  8
P-SANR-FIXT
100
AcDbLine
 10
956.6664074432607
 20
2112.110959844653
 30
0.0
 11
956.6664074432608
 21
2101.123580721295
 31
0.0
  0
LINE
  5
1D6
330
87
100
AcDbEntity
  8
P-SANR-FIXT
100
AcDbLine
 10
956.6664074432608
 20
2101.123580721294
 30
0.0
 11
956.6664074432608
 21
2100.849956185146
 31
0.0
  0
LINE
  5
1D7
330
87
100
AcDbEntity
  8
P-SANR-FIXT
100
AcDbLine
 10
956.6664074432608
 20
2159.149956185173
 30
0.0
 11
956.6664074432608
 21
2158.876331649024
 31
0.0
  0
LINE
  5
1D8
330
87
100
AcDbEntity
  8
P-SANR-FIXT
100
AcDbLine
 10
956.6664074432608
 20
2158.876331649024
 30
0.0
 11
956.6664074432607
 21
2147.888952525667
 31
0.0
  0
LINE
  5
1D9
330
87
100
AcDbEntity
  8
P-SANR-FIXT
100
AcDbLine
 10
956.6664074432607
 20
2147.888952525667
 30
0.0
 11
936.1664074432605
 21
2147.888952525667
 31
0.0
  0
LINE
  5
1DA
330
87
100
AcDbEntity
  8
P-SANR-FIXT
100
AcDbLine
 10
936.1664074432605
 20
2140.987335308518
 30
0.0
 11
956.6664074432607
 21
2140.987335308518
 31
0.0
  0
LINE
  5
1DB
330
87
100
AcDbEntity
  8
P-SANR-FIXT
100
AcDbLine
 10
936.1664074432605
 20
2119.012577061802
 30
0.0
 11
956.6664074432607
 21
2119.012577061802
 31
0.0
  0
LINE
  5
1DC
330
87
100
AcDbEntity
  8
P-SANR-FIXT
100
AcDbLine
 10
936.1664074432605
 20
2112.110959844653
 30
0.0
 11
956.6664074432607
 21
2112.110959844653
 31
0.0
  0
LINE
  5
1DD
330
87
100
AcDbEntity
  8
P-SANR-FIXT
100
AcDbLine
 10
936.1664074432606
 20
2101.123580721294
 30
0.0
 11
956.6664074432608
 21
2101.123580721294
 31
0.0
  0
LINE
  5
1DE
330
87
100
AcDbEntity
  8
P-SANR-FIXT
100
AcDbLine
 10
936.1664074432606
 20
2158.876331649024
 30
0.0
 11
956.6664074432608
 21
2158.876331649024
 31
0.0
  0
LINE
  5
1DF
330
87
100
AcDbEntity
  8
P-SANR-FIXT
100
AcDbLine
 10
936.1664074432606
 20
2158.876331649024
 30
0.0
 11
936.1664074432605
 21
2147.888952525666
 31
0.0
  0
LINE
  5
1E0
330
87
100
AcDbEntity
  8
P-SANR-FIXT
100
AcDbLine
 10
936.1664074432605
 20
2112.110959844654
 30
0.0
 11
936.1664074432606
 21
2101.123580721295
 31
0.0
  0
LINE
  5
1E1
330
87
100
AcDbEntity
  8
P-SANR-FIXT
100
AcDbLine
 10
936.1664074432605
 20
2129.999956185159
 30
0.0
 11
936.1664074432605
 21
2119.012577061802
 31
0.0
  0
LINE
  5
1E2
330
87
100
AcDbEntity
  8
P-SANR-FIXT
100
AcDbLine
 10
936.1664074432605
 20
2140.987335308518
 30
0.0
 11
936.1664074432605
 21
2129.999956185159
 31
0.0
  0
LINE
  5
1E3
330
87
100
AcDbEntity
  8
P-SANR-FIXT
100
AcDbLine
 10
701.1060310744725
 20
2087.142061668922
 30
0.0
 11
720.7267838119304
 21
2087.142061668922
 31
0.0
  0
LINE
  5
1E4
330
87
100
AcDbEntity
  8
P-SANR-FIXT
100
AcDbLine
 10
720.7267838119305
 20
2172.857850701433
 30
0.0
 11
701.1060310744726
 21
2172.857850701433
 31
0.0
  0
LINE
  5
1E5
330
87
100
AcDbEntity
  8
P-SANR-FIXT
100
AcDbLine
 10
724.1664074432025
 20
2166.899956185176
 30
0.0
 11
720.7267838119305
 21
2172.857850701433
 31
0.0
  0
LINE
  5
1E6
330
87
100
AcDbEntity
  8
P-SANR-FIXT
100
AcDbLine
 10
720.7267838119304
 20
2087.142061668922
 30
0.0
 11
724.1664074432025
 21
2093.099956185179
 31
0.0
  0
LINE
  5
1E7
330
87
100
AcDbEntity
  8
P-SANR-FIXT
100
AcDbLine
 10
697.6664074432025
 20
2093.099956185176
 30
0.0
 11
701.1060310744725
 21
2087.142061668922
 31
0.0
  0
LINE
  5
1E8
330
87
100
AcDbEntity
  8
P-SANR-FIXT
100
AcDbLine
 10
701.1060310744726
 20
2172.857850701433
 30
0.0
 11
697.6664074432026
 21
2166.899956185179
 31
0.0
  0
LINE
  5
1E9
330
87
100
AcDbEntity
  8
P-SANR-FIXT
100
AcDbLine
 10
697.666407443201
 20
2093.099956185175
 30
0.0
 11
697.6664074432011
 21
2166.899956185178
 31
0.0
  0
LINE
  5
1EA
330
87
100
AcDbEntity
  8
P-SANR-FIXT
100
AcDbLine
 10
724.1664074432011
 20
2166.899956185175
 30
0.0
 11
724.1664074432009
 21
2093.099956185177
 31
0.0
  0
SPLINE
  5
1EB
330
87
100
AcDbEntity
  8
P-SANR-FIXT
100
AcDbSpline
210
0.0
220
0.0
230
1.0
 70
     8
 71
     3
 72
    11
 73
     7
 74
     0
 42
0.000000001
 43
0.0000000001
 40
0.0
 40
0.0
 40
0.0
 40
0.0
 40
0.25
 40
0.5
 40
0.75
 40
1.0
 40
1.0
 40
1.0
 40
1.0
 10
720.8024412462842
 20
2150.928903443304
 30
0.0
 10
720.7776463051863
 20
2151.014571963169
 30
0.0
 10
720.7404696700019
 20
2151.187426834243
 30
0.0
 10
720.7198936933912
 20
2151.43542103146
 30
0.0
 10
720.7406589875529
 20
2151.647297825507
 30
0.0
 10
720.7777346533768
 20
2151.752298164397
 30
0.0
 10
720.8024412462842
 20
2151.794928847088
 30
0.0
  0
SPLINE
  5
1EC
330
87
100
AcDbEntity
  8
P-SANR-FIXT
100
AcDbSpline
210
0.0
220
0.0
230
1.0
 70
     8
 71
     3
 72
    11
 73
     7
 74
     0
 42
0.000000001
 43
0.0000000001
 40
0.0
 40
0.0
 40
0.0
 40
0.0
 40
0.25
 40
0.5
 40
0.75
 40
1.0
 40
1.0
 40
1.0
 40
1.0
 10
701.0303736401152
 20
2151.794928847088
 30
0.0
 10
701.0550802330227
 20
2151.752298164398
 30
0.0
 10
701.0921558988465
 20
2151.647297825507
 30
0.0
 10
701.1129211930082
 20
2151.43542103146
 30
0.0
 10
701.0923452163977
 20
2151.187426834243
 30
0.0
 10
701.0551685812132
 20
2151.014571963169
 30
0.0
 10
701.0303736401153
 20
2150.928903443304
 30
0.0
  0
SPLINE
  5
1ED
330
87
100
AcDbEntity
  8
P-SANR-FIXT
100
AcDbSpline
210
0.0
220
0.0
230
1.0
 70
     8
 71
     3
 72
    10
 73
     6
 74
     0
 42
0.000000001
 43
0.0000000001
 40
0.0
 40
0.0
 40
0.0
 40
0.0
 40
0.3333333333333333
 40
0.6666666666666666
 40
1.0
 40
1.0
 40
1.0
 40
1.0
 10
701.0303736401153
 20
2150.928903443304
 30
0.0
 10
699.6329453594888
 20
2146.278154351586
 30
0.0
 10
697.7699945768998
 20
2136.974952180258
 30
0.0
 10
697.7945266569977
 20
2122.883930085059
 30
0.0
 10
699.6437050437421
 20
2113.661316545179
 30
0.0
 10
701.0303736401152
 20
2109.071008927049
 30
0.0
  0
SPLINE
  5
1EE
330
87
100
AcDbEntity
  8
P-SANR-FIXT
100
AcDbSpline
210
0.0
220
0.0
230
1.0
 70
     8
 71
     3
 72
    10
 73
     6
 74
     0
 42
0.000000001
 43
0.0000000001
 40
0.0
 40
0.0
 40
0.0
 40
0.0
 40
0.3333333333333333
 40
0.6666666666666666
 40
1.0
 40
1.0
 40
1.0
 40
1.0
 10
720.802441246284
 20
2109.071008927049
 30
0.0
 10
722.1891098426575
 20
2113.661316545179
 30
0.0
 10
724.0382882294023
 20
2122.883930085058
 30
0.0
 10
724.0628203095001
 20
2136.974952180258
 30
0.0
 10
722.1998695269111
 20
2146.278154351586
 30
0.0
 10
720.8024412462842
 20
2150.928903443304
 30
0.0
  0
SPLINE
  5
1EF
330
87
100
AcDbEntity
  8
P-SANR-FIXT
100
AcDbSpline
210
0.0
220
0.0
230
1.0
 70
     8
 71
     3
 72
    11
 73
     7
 74
     0
 42
0.000000001
 43
0.0000000001
 40
0.0
 40
0.0
 40
0.0
 40
0.0
 40
0.25
 40
0.5
 40
0.75
 40
1.0
 40
1.0
 40
1.0
 40
1.0
 10
701.0303736401152
 20
2109.071008927049
 30
0.0
 10
701.0551685812132
 20
2108.985340407183
 30
0.0
 10
701.0923452163975
 20
2108.812485536109
 30
0.0
 10
701.112921193008
 20
2108.564491338893
 30
0.0
 10
701.0921558988465
 20
2108.352614544846
 30
0.0
 10
701.0550802330227
 20
2108.247614205955
 30
0.0
 10
701.0303736401152
 20
2108.204983523264
 30
0.0
  0
SPLINE
  5
1F0
330
87
100
AcDbEntity
  8
P-SANR-FIXT
100
AcDbSpline
210
0.0
220
0.0
230
1.0
 70
     8
 71
     3
 72
    11
 73
     7
 74
     0
 42
0.000000001
 43
0.0000000001
 40
0.0
 40
0.0
 40
0.0
 40
0.0
 40
0.25
 40
0.5
 40
0.75
 40
1.0
 40
1.0
 40
1.0
 40
1.0
 10
720.8024412462841
 20
2108.204983523264
 30
0.0
 10
720.7777346533767
 20
2108.247614205955
 30
0.0
 10
720.7406589875528
 20
2108.352614544845
 30
0.0
 10
720.7198936933912
 20
2108.564491338893
 30
0.0
 10
720.7404696700017
 20
2108.812485536109
 30
0.0
 10
720.7776463051861
 20
2108.985340407183
 30
0.0
 10
720.8024412462841
 20
2109.071008927049
 30
0.0
  0
SPLINE
  5
1F1
330
87
100
AcDbEntity
  8
P-SANR-FIXT
100
AcDbSpline
210
0.0
220
0.0
230
1.0
 70
     8
 71
     3
 72
    10
 73
     6
 74
     0
 42
0.000000001
 43
0.0000000001
 40
0.0
 40
0.0
 40
0.0
 40
0.0
 40
0.3333333333333333
 40
0.6666666666666666
 40
1.0
 40
1.0
 40
1.0
 40
1.0
 10
701.0303736401152
 20
2108.204983523264
 30
0.0
 10
699.632945359488
 20
2105.879608977405
 30
0.0
 10
697.7699945768978
 20
2101.228007891741
 30
0.0
 10
697.7945266569933
 20
2094.182496844142
 30
0.0
 10
699.6437050437369
 20
2089.571190074202
 30
0.0
 10
701.0303736401098
 20
2087.276036265136
 30
0.0
  0
SPLINE
  5
1F2
330
87
100
AcDbEntity
  8
P-SANR-FIXT
100
AcDbSpline
210
0.0
220
0.0
230
1.0
 70
     8
 71
     3
 72
    10
 73
     6
 74
     0
 42
0.000000001
 43
0.0000000001
 40
0.0
 40
0.0
 40
0.0
 40
0.0
 40
0.3333333333333333
 40
0.6666666666666666
 40
1.0
 40
1.0
 40
1.0
 40
1.0
 10
720.8024412462901
 20
2087.276036265136
 30
0.0
 10
722.1891098426631
 20
2089.571190074202
 30
0.0
 10
724.0382882294068
 20
2094.182496844141
 30
0.0
 10
724.0628203095022
 20
2101.228007891741
 30
0.0
 10
722.1998695269117
 20
2105.879608977405
 30
0.0
 10
720.8024412462841
 20
2108.204983523264
 30
0.0
  0
SPLINE
  5
1F3
330
87
100
AcDbEntity
  8
P-SANR-FIXT
100
AcDbSpline
210
0.0
220
0.0
230
1.0
 70
     8
 71
     3
 72
     9
 73
     5
 74
     0
 42
0.000000001
 43
0.0000000001
 40
0.0
 40
0.0
 40
0.0
 40
0.0
 40
0.5
 40
1.0
 40
1.0
 40
1.0
 40
1.0
 10
701.0303736401096
 20
2087.276036265136
 30
0.0
 10
701.0551850298042
 20
2087.233098163246
 30
0.0
 10
701.0926059918921
 20
2087.165775445436
 30
0.0
 10
701.1056233193783
 20
2087.142061668919
 30
0.0
 10
701.1060310744709
 20
2087.142061668921
 30
0.0
  0
SPLINE
  5
1F4
330
87
100
AcDbEntity
  8
P-SANR-FIXT
100
AcDbSpline
210
0.0
220
0.0
230
1.0
 70
     8
 71
     3
 72
     9
 73
     5
 74
     0
 42
0.000000001
 43
0.0000000001
 40
0.0
 40
0.0
 40
0.0
 40
0.0
 40
0.5
 40
1.0
 40
1.0
 40
1.0
 40
1.0
 10
720.7267838119289
 20
2087.142061668921
 30
0.0
 10
720.7271915670215
 20
2087.142061668919
 30
0.0
 10
720.7402088945078
 20
2087.165775445436
 30
0.0
 10
720.7776298565956
 20
2087.233098163246
 30
0.0
 10
720.8024412462901
 20
2087.276036265136
 30
0.0
  0
SPLINE
  5
1F5
330
87
100
AcDbEntity
  8
P-SANR-FIXT
100
AcDbSpline
210
0.0
220
0.0
230
1.0
 70
     8
 71
     3
 72
     9
 73
     5
 74
     0
 42
0.000000001
 43
0.0000000001
 40
0.0
 40
0.0
 40
0.0
 40
0.0
 40
0.5
 40
1.0
 40
1.0
 40
1.0
 40
1.0
 10
701.106031074471
 20
2172.857850701431
 30
0.0
 10
701.1056233193784
 20
2172.857850701433
 30
0.0
 10
701.0926059918922
 20
2172.834136924917
 30
0.0
 10
701.0551850298043
 20
2172.766814207106
 30
0.0
 10
701.0303736401098
 20
2172.723876105216
 30
0.0
  0
SPLINE
  5
1F6
330
87
100
AcDbEntity
  8
P-SANR-FIXT
100
AcDbSpline
210
0.0
220
0.0
230
1.0
 70
     8
 71
     3
 72
     9
 73
     5
 74
     0
 42
0.000000001
 43
0.0000000001
 40
0.0
 40
0.0
 40
0.0
 40
0.0
 40
0.5
 40
1.0
 40
1.0
 40
1.0
 40
1.0
 10
720.8024412462902
 20
2172.723876105216
 30
0.0
 10
720.7776298565959
 20
2172.766814207106
 30
0.0
 10
720.7402088945079
 20
2172.834136924917
 30
0.0
 10
720.7271915670217
 20
2172.857850701433
 30
0.0
 10
720.7267838119291
 20
2172.857850701431
 30
0.0
  0
SPLINE
  5
1F7
330
87
100
AcDbEntity
  8
P-SANR-FIXT
100
AcDbSpline
210
0.0
220
0.0
230
1.0
 70
     8
 71
     3
 72
    10
 73
     6
 74
     0
 42
0.000000001
 43
0.0000000001
 40
0.0
 40
0.0
 40
0.0
 40
0.0
 40
0.3333333333333333
 40
0.6666666666666666
 40
1.0
 40
1.0
 40
1.0
 40
1.0
 10
701.0303736401098
 20
2172.723876105216
 30
0.0
 10
699.6329453594836
 20
2170.398501559357
 30
0.0
 10
697.7699945768955
 20
2165.746900473693
 30
0.0
 10
697.7945266569959
 20
2158.701389426093
 30
0.0
 10
699.6437050437414
 20
2154.090082656153
 30
0.0
 10
701.0303736401152
 20
2151.794928847088
 30
0.0
  0
SPLINE
  5
1F8
330
87
100
AcDbEntity
  8
P-SANR-FIXT
100
AcDbSpline
210
0.0
220
0.0
230
1.0
 70
     8
 71
     3
 72
    10
 73
     6
 74
     0
 42
0.000000001
 43
0.0000000001
 40
0.0
 40
0.0
 40
0.0
 40
0.0
 40
0.3333333333333333
 40
0.6666666666666666
 40
1.0
 40
1.0
 40
1.0
 40
1.0
 10
720.8024412462842
 20
2151.794928847088
 30
0.0
 10
722.1891098426583
 20
2154.090082656153
 30
0.0
 10
724.0382882294045
 20
2158.701389426093
 30
0.0
 10
724.0628203095049
 20
2165.746900473694
 30
0.0
 10
722.1998695269168
 20
2170.398501559357
 30
0.0
 10
720.8024412462902
 20
2172.723876105216
 30
0.0
  0
LINE
  5
1F9
330
87
100
AcDbEntity
  8
P-SANR-FIXT
100
AcDbLine
 10
910.6060310744712
 20
2087.142061668922
 30
0.0
 11
930.226783811929
 21
2087.142061668922
 31
0.0
  0
LINE
  5
1FA
330
87
100
AcDbEntity
  8
P-SANR-FIXT
100
AcDbLine
 10
930.226783811929
 20
2172.857850701433
 30
0.0
 11
910.6060310744709
 21
2172.857850701433
 31
0.0
  0
LINE
  5
1FB
330
87
100
AcDbEntity
  8
P-SANR-FIXT
100
AcDbLine
 10
907.1664074431991
 20
2093.099956185179
 30
0.0
 11
910.6060310744712
 21
2087.142061668922
 31
0.0
  0
LINE
  5
1FC
330
87
100
AcDbEntity
  8
P-SANR-FIXT
100
AcDbLine
 10
910.6060310744709
 20
2172.857850701433
 30
0.0
 11
907.1664074431989
 21
2166.899956185176
 31
0.0
  0
LINE
  5
1FD
330
87
100
AcDbEntity
  8
P-SANR-FIXT
100
AcDbLine
 10
933.666407443199
 20
2166.899956185179
 30
0.0
 11
930.226783811929
 21
2172.857850701433
 31
0.0
  0
LINE
  5
1FE
330
87
100
AcDbEntity
  8
P-SANR-FIXT
100
AcDbLine
 10
930.226783811929
 20
2087.142061668922
 30
0.0
 11
933.6664074431991
 21
2093.099956185176
 31
0.0
  0
LINE
  5
1FF
330
87
100
AcDbEntity
  8
P-SANR-FIXT
100
AcDbLine
 10
907.1664074431973
 20
2093.099956185177
 30
0.0
 11
907.1664074431971
 21
2166.899956185175
 31
0.0
  0
LINE
  5
200
330
87
100
AcDbEntity
  8
P-SANR-FIXT
100
AcDbLine
 10
933.6664074431972
 20
2166.899956185178
 30
0.0
 11
933.6664074431974
 21
2093.099956185175
 31
0.0
  0
SPLINE
  5
201
330
87
100
AcDbEntity
  8
P-SANR-FIXT
100
AcDbSpline
210
0.0
220
0.0
230
1.0
 70
     8
 71
     3
 72
    11
 73
     7
 74
     0
 42
0.000000001
 43
0.0000000001
 40
0.0
 40
0.0
 40
0.0
 40
0.0
 40
0.25
 40
0.5
 40
0.75
 40
1.0
 40
1.0
 40
1.0
 40
1.0
 10
910.5303736401136
 20
2151.794928847088
 30
0.0
 10
910.5551685812114
 20
2151.752094587155
 30
0.0
 10
910.5923452163958
 20
2151.646604471856
 30
0.0
 10
910.6129211930065
 20
2151.434352232952
 30
0.0
 10
910.5921558988448
 20
2151.186418137964
 30
0.0
 10
910.555080233021
 20
2151.014164808685
 30
0.0
 10
910.5303736401136
 20
2150.928903443304
 30
0.0
  0
SPLINE
  5
202
330
87
100
AcDbEntity
  8
P-SANR-FIXT
100
AcDbSpline
210
0.0
220
0.0
230
1.0
 70
     8
 71
     3
 72
    11
 73
     7
 74
     0
 42
0.000000001
 43
0.0000000001
 40
0.0
 40
0.0
 40
0.0
 40
0.0
 40
0.25
 40
0.5
 40
0.75
 40
1.0
 40
1.0
 40
1.0
 40
1.0
 10
930.3024412462825
 20
2150.928903443304
 30
0.0
 10
930.2777346533749
 20
2151.014164808685
 30
0.0
 10
930.2406589875513
 20
2151.186418137964
 30
0.0
 10
930.2198936933896
 20
2151.434352232952
 30
0.0
 10
930.2404696700001
 20
2151.646604471856
 30
0.0
 10
930.2776463051845
 20
2151.752094587155
 30
0.0
 10
930.3024412462825
 20
2151.794928847088
 30
0.0
  0
SPLINE
  5
203
330
87
100
AcDbEntity
  8
P-SANR-FIXT
100
AcDbSpline
210
0.0
220
0.0
230
1.0
 70
     8
 71
     3
 72
    10
 73
     6
 74
     0
 42
0.000000001
 43
0.0000000001
 40
0.0
 40
0.0
 40
0.0
 40
0.0
 40
0.3333333333333333
 40
0.6666666666666666
 40
1.0
 40
1.0
 40
1.0
 40
1.0
 10
910.5303736401136
 20
2150.928903443304
 30
0.0
 10
909.1329453594866
 20
2146.278154351586
 30
0.0
 10
907.2699945768977
 20
2136.974952180259
 30
0.0
 10
907.2945266569956
 20
2122.883930085058
 30
0.0
 10
909.1437050437402
 20
2113.661316545179
 30
0.0
 10
910.5303736401138
 20
2109.071008927049
 30
0.0
  0
SPLINE
  5
204
330
87
100
AcDbEntity
  8
P-SANR-FIXT
100
AcDbSpline
210
0.0
220
0.0
230
1.0
 70
     8
 71
     3
 72
    10
 73
     6
 74
     0
 42
0.000000001
 43
0.0000000001
 40
0.0
 40
0.0
 40
0.0
 40
0.0
 40
0.3333333333333333
 40
0.6666666666666666
 40
1.0
 40
1.0
 40
1.0
 40
1.0
 10
930.3024412462825
 20
2109.071008927049
 30
0.0
 10
931.6891098426557
 20
2113.661316545179
 30
0.0
 10
933.5382882294
 20
2122.883930085058
 30
0.0
 10
933.562820309498
 20
2136.974952180258
 30
0.0
 10
931.699869526909
 20
2146.278154351586
 30
0.0
 10
930.3024412462825
 20
2150.928903443304
 30
0.0
  0
SPLINE
  5
205
330
87
100
AcDbEntity
  8
P-SANR-FIXT
100
AcDbSpline
210
0.0
220
0.0
230
1.0
 70
     8
 71
     3
 72
    11
 73
     7
 74
     0
 42
0.000000001
 43
0.0000000001
 40
0.0
 40
0.0
 40
0.0
 40
0.0
 40
0.25
 40
0.5
 40
0.75
 40
1.0
 40
1.0
 40
1.0
 40
1.0
 10
910.5303736401138
 20
2109.071008927049
 30
0.0
 10
910.5551685812116
 20
2108.985340407183
 30
0.0
 10
910.5923452163962
 20
2108.812485536109
 30
0.0
 10
910.6129211930065
 20
2108.564491338893
 30
0.0
 10
910.5921558988448
 20
2108.352614544845
 30
0.0
 10
910.555080233021
 20
2108.247614205955
 30
0.0
 10
910.5303736401136
 20
2108.204983523264
 30
0.0
  0
SPLINE
  5
206
330
87
100
AcDbEntity
  8
P-SANR-FIXT
100
AcDbSpline
210
0.0
220
0.0
230
1.0
 70
     8
 71
     3
 72
    11
 73
     7
 74
     0
 42
0.000000001
 43
0.0000000001
 40
0.0
 40
0.0
 40
0.0
 40
0.0
 40
0.25
 40
0.5
 40
0.75
 40
1.0
 40
1.0
 40
1.0
 40
1.0
 10
930.3024412462827
 20
2108.204983523264
 30
0.0
 10
930.2777346533751
 20
2108.247614205955
 30
0.0
 10
930.2406589875513
 20
2108.352614544845
 30
0.0
 10
930.2198936933896
 20
2108.564491338893
 30
0.0
 10
930.2404696700003
 20
2108.812485536109
 30
0.0
 10
930.2776463051845
 20
2108.985340407183
 30
0.0
 10
930.3024412462825
 20
2109.071008927049
 30
0.0
  0
SPLINE
  5
207
330
87
100
AcDbEntity
  8
P-SANR-FIXT
100
AcDbSpline
210
0.0
220
0.0
230
1.0
 70
     8
 71
     3
 72
    10
 73
     6
 74
     0
 42
0.000000001
 43
0.0000000001
 40
0.0
 40
0.0
 40
0.0
 40
0.0
 40
0.3333333333333333
 40
0.6666666666666666
 40
1.0
 40
1.0
 40
1.0
 40
1.0
 10
910.5303736401136
 20
2108.204983523264
 30
0.0
 10
909.1329453594861
 20
2105.879608977405
 30
0.0
 10
907.2699945768958
 20
2101.228007891741
 30
0.0
 10
907.2945266569913
 20
2094.182496844141
 30
0.0
 10
909.1437050437352
 20
2089.571190074202
 30
0.0
 10
910.5303736401081
 20
2087.276036265136
 30
0.0
  0
SPLINE
  5
208
330
87
100
AcDbEntity
  8
P-SANR-FIXT
100
AcDbSpline
210
0.0
220
0.0
230
1.0
 70
     8
 71
     3
 72
    10
 73
     6
 74
     0
 42
0.000000001
 43
0.0000000001
 40
0.0
 40
0.0
 40
0.0
 40
0.0
 40
0.3333333333333333
 40
0.6666666666666666
 40
1.0
 40
1.0
 40
1.0
 40
1.0
 10
930.3024412462885
 20
2087.276036265136
 30
0.0
 10
931.6891098426616
 20
2089.571190074202
 30
0.0
 10
933.5382882294048
 20
2094.182496844142
 30
0.0
 10
933.5628203095001
 20
2101.228007891741
 30
0.0
 10
931.69986952691
 20
2105.879608977405
 30
0.0
 10
930.3024412462827
 20
2108.204983523264
 30
0.0
  0
SPLINE
  5
209
330
87
100
AcDbEntity
  8
P-SANR-FIXT
100
AcDbSpline
210
0.0
220
0.0
230
1.0
 70
     8
 71
     3
 72
     9
 73
     5
 74
     0
 42
0.000000001
 43
0.0000000001
 40
0.0
 40
0.0
 40
0.0
 40
0.0
 40
0.5
 40
1.0
 40
1.0
 40
1.0
 40
1.0
 10
910.5303736401081
 20
2087.276036265136
 30
0.0
 10
910.5551850298027
 20
2087.233098163246
 30
0.0
 10
910.5926059918907
 20
2087.165775445436
 30
0.0
 10
910.6056233193768
 20
2087.142061668919
 30
0.0
 10
910.6060310744695
 20
2087.142061668921
 30
0.0
  0
SPLINE
  5
20A
330
87
100
AcDbEntity
  8
P-SANR-FIXT
100
AcDbSpline
210
0.0
220
0.0
230
1.0
 70
     8
 71
     3
 72
     9
 73
     5
 74
     0
 42
0.000000001
 43
0.0000000001
 40
0.0
 40
0.0
 40
0.0
 40
0.0
 40
0.5
 40
1.0
 40
1.0
 40
1.0
 40
1.0
 10
930.2267838119275
 20
2087.142061668921
 30
0.0
 10
930.2271915670202
 20
2087.142061668919
 30
0.0
 10
930.2402088945063
 20
2087.165775445436
 30
0.0
 10
930.2776298565943
 20
2087.233098163246
 30
0.0
 10
930.3024412462885
 20
2087.276036265136
 30
0.0
  0
SPLINE
  5
20B
330
87
100
AcDbEntity
  8
P-SANR-FIXT
100
AcDbSpline
210
0.0
220
0.0
230
1.0
 70
     8
 71
     3
 72
     9
 73
     5
 74
     0
 42
0.000000001
 43
0.0000000001
 40
0.0
 40
0.0
 40
0.0
 40
0.0
 40
0.5
 40
1.0
 40
1.0
 40
1.0
 40
1.0
 10
910.6060310744693
 20
2172.857850701431
 30
0.0
 10
910.6056233193767
 20
2172.857850701433
 30
0.0
 10
910.5926059918903
 20
2172.834136924917
 30
0.0
 10
910.5551850298024
 20
2172.766814207106
 30
0.0
 10
910.5303736401081
 20
2172.723876105216
 30
0.0
  0
SPLINE
  5
20C
330
87
100
AcDbEntity
  8
P-SANR-FIXT
100
AcDbSpline
210
0.0
220
0.0
230
1.0
 70
     8
 71
     3
 72
     9
 73
     5
 74
     0
 42
0.000000001
 43
0.0000000001
 40
0.0
 40
0.0
 40
0.0
 40
0.0
 40
0.5
 40
1.0
 40
1.0
 40
1.0
 40
1.0
 10
930.3024412462885
 20
2172.723876105216
 30
0.0
 10
930.2776298565941
 20
2172.766814207106
 30
0.0
 10
930.2402088945063
 20
2172.834136924917
 30
0.0
 10
930.22719156702
 20
2172.857850701433
 30
0.0
 10
930.2267838119272
 20
2172.857850701431
 30
0.0
  0
SPLINE
  5
20D
330
87
100
AcDbEntity
  8
P-SANR-FIXT
100
AcDbSpline
210
0.0
220
0.0
230
1.0
 70
     8
 71
     3
 72
    10
 73
     6
 74
     0
 42
0.000000001
 43
0.0000000001
 40
0.0
 40
0.0
 40
0.0
 40
0.0
 40
0.3333333333333333
 40
0.6666666666666666
 40
1.0
 40
1.0
 40
1.0
 40
1.0
 10
930.3024412462825
 20
2151.794928847088
 30
0.0
 10
931.6998695269099
 20
2154.120303392947
 30
0.0
 10
933.5628203095001
 20
2158.771904478611
 30
0.0
 10
933.5382882294048
 20
2165.817415526211
 30
0.0
 10
931.6891098426614
 20
2170.428722296151
 30
0.0
 10
930.3024412462885
 20
2172.723876105216
 30
0.0
  0
SPLINE
  5
20E
330
87
100
AcDbEntity
  8
P-SANR-FIXT
100
AcDbSpline
210
0.0
220
0.0
230
1.0
 70
     8
 71
     3
 72
    10
 73
     6
 74
     0
 42
0.000000001
 43
0.0000000001
 40
0.0
 40
0.0
 40
0.0
 40
0.0
 40
0.3333333333333333
 40
0.6666666666666666
 40
1.0
 40
1.0
 40
1.0
 40
1.0
 10
910.5303736401081
 20
2172.723876105216
 30
0.0
 10
909.1437050437349
 20
2170.428722296151
 30
0.0
 10
907.2945266569909
 20
2165.817415526211
 30
0.0
 10
907.2699945768956
 20
2158.771904478611
 30
0.0
 10
909.1329453594859
 20
2154.120303392947
 30
0.0
 10
910.5303736401136
 20
2151.794928847088
 30
0.0
  0
LINE
  5
20F
330
87
100
AcDbEntity
  8
P-SANR-FIXT
100
AcDbLine
 10
806.6664074432141
 20
2135.196108607858
 30
0.0
 11
806.6664074432138
 21
2124.803803762445
 31
0.0
  0
LINE
  5
210
330
87
100
AcDbEntity
  8
P-SANR-FIXT
100
AcDbLine
 10
806.6664074432138
 20
2124.803803762445
 30
0.0
 11
815.6664074432137
 21
2119.607651339737
 31
0.0
  0
LINE
  5
211
330
87
100
AcDbEntity
  8
P-SANR-FIXT
100
AcDbLine
 10
815.6664074432137
 20
2119.607651339737
 30
0.0
 11
824.6664074432141
 21
2124.803803762444
 31
0.0
  0
LINE
  5
212
330
87
100
AcDbEntity
  8
P-SANR-FIXT
100
AcDbLine
 10
824.6664074432141
 20
2124.803803762444
 30
0.0
 11
824.6664074432144
 21
2135.196108607857
 31
0.0
  0
LINE
  5
213
330
87
100
AcDbEntity
  8
P-SANR-FIXT
100
AcDbLine
 10
824.6664074432144
 20
2135.196108607857
 30
0.0
 11
815.6664074432146
 21
2140.392261030564
 31
0.0
  0
LINE
  5
214
330
87
100
AcDbEntity
  8
P-SANR-FIXT
100
AcDbLine
 10
815.6664074432146
 20
2140.392261030564
 30
0.0
 11
806.6664074432141
 21
2135.196108607858
 31
0.0
  0
ARC
  5
215
330
87
100
AcDbEntity
  8
P-SANR-FIXT
100
AcDbCircle
 10
815.6664074432141
 20
2129.999956185151
 30
0.0
 40
12.49999999999455
100
AcDbArc
 50
179.9999999999997
 51
359.9999999999973
  0
ARC
  5
216
330
87
100
AcDbEntity
  8
P-SANR-FIXT
100
AcDbCircle
 10
815.6664074432141
 20
2129.999956185151
 30
0.0
 40
12.4999999999942
100
AcDbArc
 50
0.0
 51
180.0
  0
LINE
  5
217
330
87
100
AcDbEntity
  8
P-SANR-FIXT
100
AcDbLine
 10
758.5164074432011
 20
1999.999999999996
 30
0.0
 11
758.5164074432011
 21
1894.149999999996
 31
0.0
  0
LINE
  5
218
330
87
100
AcDbEntity
  8
P-SANR-FIXT
100
AcDbLine
 10
758.5164074432011
 20
1845.849999999995
 30
0.0
 11
758.5164074432011
 21
1833.699922097982
 31
0.0
  0
LINE
  5
219
330
87
100
AcDbEntity
  8
P-SANR-FIXT
100
AcDbLine
 10
872.8164074432005
 20
1833.699922097982
 30
0.0
 11
872.8164074432005
 21
1845.849999999995
 31
0.0
  0
LINE
  5
21A
330
87
100
AcDbEntity
  8
P-SANR-FIXT
100
AcDbLine
 10
872.8164074432005
 20
1894.149999999995
 30
0.0
 11
872.8164074432005
 21
1999.999999999996
 31
0.0
  0
LINE
  5
21B
330
87
100
AcDbEntity
  8
P-SANR-FIXT
100
AcDbLine
 10
746.416407443201
 20
1821.599922097983
 30
0.0
 11
746.416407443201
 21
1819.999999999996
 31
0.0
  0
LINE
  5
21C
330
87
100
AcDbEntity
  8
P-SANR-FIXT
100
AcDbLine
 10
884.9164074432009
 20
1819.999999999996
 30
0.0
 11
884.9164074432009
 21
1821.599922097983
 31
0.0
  0
LINE
  5
21D
330
87
100
AcDbEntity
  8
P-SANR-FIXT
100
AcDbLine
 10
771.666407443201
 20
2226.499999999997
 30
0.0
 11
771.666407443201
 21
2203.499999999996
 31
0.0
  0
LINE
  5
21E
330
87
100
AcDbEntity
  8
P-SANR-FIXT
100
AcDbLine
 10
859.6664074432005
 20
2203.499999999996
 30
0.0
 11
859.6664074432005
 21
2226.499999999997
 31
0.0
  0
LINE
  5
21F
330
87
100
AcDbEntity
  8
P-SANR-FIXT
100
AcDbLine
 10
758.5164074432011
 20
2203.499999999996
 30
0.0
 11
758.5164074432011
 21
2154.149999999996
 31
0.0
  0
LINE
  5
220
330
87
100
AcDbEntity
  8
P-SANR-FIXT
100
AcDbLine
 10
758.5164074432011
 20
2105.849999999995
 30
0.0
 11
758.5164074432011
 21
1999.999999999996
 31
0.0
  0
LINE
  5
221
330
87
100
AcDbEntity
  8
P-SANR-FIXT
100
AcDbLine
 10
872.8164074432005
 20
1999.999999999996
 30
0.0
 11
872.8164074432005
 21
2105.849999999995
 31
0.0
  0
LINE
  5
222
330
87
100
AcDbEntity
  8
P-SANR-FIXT
100
AcDbLine
 10
872.8164074432005
 20
2154.149999999996
 30
0.0
 11
872.8164074432005
 21
2203.499999999996
 31
0.0
  0
LINE
  5
223
330
87
100
AcDbEntity
  8
P-SANR-FIXT
100
AcDbLine
 10
746.4164074432018
 20
1819.999999999996
 30
0.0
 11
746.4164074432018
 21
1784.999999999995
 31
0.0
  0
LINE
  5
224
330
87
100
AcDbEntity
  8
P-SANR-FIXT
100
AcDbLine
 10
884.9164074431996
 20
1784.999999999995
 30
0.0
 11
884.9164074431996
 21
1819.999999999996
 31
0.0
  0
LINE
  5
225
330
87
100
AcDbEntity
  8
P-SANR-FIXT
100
AcDbLine
 10
907.1664074431986
 20
2162.849999999996
 30
0.0
 11
905.6664074432008
 21
2162.849999999996
 31
0.0
  0
LINE
  5
226
330
87
100
AcDbEntity
  8
P-SANR-FIXT
100
AcDbLine
 10
905.6664074432008
 20
2097.149999999996
 30
0.0
 11
907.1664074431986
 21
2097.149999999996
 31
0.0
  0
LINE
  5
227
330
87
100
AcDbEntity
  8
P-SANR-FIXT
100
AcDbLine
 10
896.1379803184545
 20
2154.149999999996
 30
0.0
 11
872.8164074432005
 21
2154.149999999996
 31
0.0
  0
LINE
  5
228
330
87
100
AcDbEntity
  8
P-SANR-FIXT
100
AcDbLine
 10
872.8164074432005
 20
2105.849999999995
 30
0.0
 11
896.1379803184543
 21
2105.849999999995
 31
0.0
  0
LINE
  5
229
330
87
100
AcDbEntity
  8
P-SANR-FIXT
100
AcDbLine
 10
758.5164074432011
 20
2154.149999999996
 30
0.0
 11
735.194834567947
 21
2154.149999999996
 31
0.0
  0
LINE
  5
22A
330
87
100
AcDbEntity
  8
P-SANR-FIXT
100
AcDbLine
 10
735.1948345679469
 20
2105.849999999995
 30
0.0
 11
758.5164074432011
 21
2105.849999999995
 31
0.0
  0
LINE
  5
22B
330
87
100
AcDbEntity
  8
P-SANR-FIXT
100
AcDbLine
 10
725.6664074432007
 20
2162.849999999997
 30
0.0
 11
724.1664074432035
 21
2162.849999999997
 31
0.0
  0
LINE
  5
22C
330
87
100
AcDbEntity
  8
P-SANR-FIXT
100
AcDbLine
 10
724.1664074432033
 20
2097.149999999996
 30
0.0
 11
725.6664074432007
 21
2097.149999999996
 31
0.0
  0
LINE
  5
22D
330
87
100
AcDbEntity
  8
P-SANR-FIXT
100
AcDbLine
 10
905.6664074432005
 20
2154.149999999996
 30
0.0
 11
896.1379803184545
 21
2154.149999999996
 31
0.0
  0
LINE
  5
22E
330
87
100
AcDbEntity
  8
P-SANR-FIXT
100
AcDbLine
 10
896.1379803184543
 20
2105.849999999995
 30
0.0
 11
905.6664074432005
 21
2105.849999999995
 31
0.0
  0
LINE
  5
22F
330
87
100
AcDbEntity
  8
P-SANR-FIXT
100
AcDbLine
 10
735.194834567947
 20
2154.149999999996
 30
0.0
 11
725.6664074432007
 21
2154.149999999996
 31
0.0
  0
LINE
  5
230
330
87
100
AcDbEntity
  8
P-SANR-FIXT
100
AcDbLine
 10
725.6664074432007
 20
2105.849999999995
 30
0.0
 11
735.1948345679469
 21
2105.849999999995
 31
0.0
  0
LINE
  5
231
330
87
100
AcDbEntity
  8
P-SANR-FIXT
100
AcDbLine
 10
905.6664074432008
 20
1837.149999999995
 30
0.0
 11
907.1664074431977
 21
1837.149999999995
 31
0.0
  0
LINE
  5
232
330
87
100
AcDbEntity
  8
P-SANR-FIXT
100
AcDbLine
 10
907.1664074431978
 20
1902.849999999995
 30
0.0
 11
905.666407443201
 21
1902.849999999995
 31
0.0
  0
LINE
  5
233
330
87
100
AcDbEntity
  8
P-SANR-FIXT
100
AcDbLine
 10
872.8164074432005
 20
1845.849999999995
 30
0.0
 11
896.1379803184545
 21
1845.849999999995
 31
0.0
  0
LINE
  5
234
330
87
100
AcDbEntity
  8
P-SANR-FIXT
100
AcDbLine
 10
896.1379803184547
 20
1894.149999999995
 30
0.0
 11
872.8164074432005
 21
1894.149999999995
 31
0.0
  0
LINE
  5
235
330
87
100
AcDbEntity
  8
P-SANR-FIXT
100
AcDbLine
 10
735.194834567947
 20
1845.849999999995
 30
0.0
 11
758.5164074432011
 21
1845.849999999995
 31
0.0
  0
LINE
  5
236
330
87
100
AcDbEntity
  8
P-SANR-FIXT
100
AcDbLine
 10
758.5164074432011
 20
1894.149999999996
 30
0.0
 11
735.1948345679471
 21
1894.149999999996
 31
0.0
  0
LINE
  5
237
330
87
100
AcDbEntity
  8
P-SANR-FIXT
100
AcDbLine
 10
724.1664074432025
 20
1837.149999999995
 30
0.0
 11
725.6664074432007
 21
1837.149999999995
 31
0.0
  0
LINE
  5
238
330
87
100
AcDbEntity
  8
P-SANR-FIXT
100
AcDbLine
 10
725.6664074432009
 20
1902.849999999996
 30
0.0
 11
724.1664074432028
 21
1902.849999999996
 31
0.0
  0
LINE
  5
239
330
87
100
AcDbEntity
  8
P-SANR-FIXT
100
AcDbLine
 10
896.1379803184545
 20
1845.849999999995
 30
0.0
 11
905.6664074432008
 21
1845.849999999995
 31
0.0
  0
LINE
  5
23A
330
87
100
AcDbEntity
  8
P-SANR-FIXT
100
AcDbLine
 10
905.6664074432008
 20
1894.149999999996
 30
0.0
 11
896.1379803184547
 21
1894.149999999996
 31
0.0
  0
LINE
  5
23B
330
87
100
AcDbEntity
  8
P-SANR-FIXT
100
AcDbLine
 10
725.6664074432007
 20
1845.849999999995
 30
0.0
 11
735.194834567947
 21
1845.849999999995
 31
0.0
  0
LINE
  5
23C
330
87
100
AcDbEntity
  8
P-SANR-FIXT
100
AcDbLine
 10
735.1948345679471
 20
1894.149999999996
 30
0.0
 11
725.6664074432007
 21
1894.149999999996
 31
0.0
  0
LINE
  5
23D
330
87
100
AcDbEntity
  8
P-SANR-FIXT
100
AcDbLine
 10
758.516407443201
 20
1833.699922097982
 30
0.0
 11
758.516407443201
 21
1821.599922097983
 31
0.0
  0
LINE
  5
23E
330
87
100
AcDbEntity
  8
P-SANR-FIXT
100
AcDbLine
 10
872.8164074432005
 20
1821.599922097983
 30
0.0
 11
872.8164074432005
 21
1833.699922097982
 31
0.0
  0
SPLINE
  5
23F
330
87
100
AcDbEntity
  8
P-SANR-FIXT
100
AcDbSpline
210
0.0
220
0.0
230
1.0
 70
     8
 71
     3
 72
    30
 73
    26
 74
     0
 42
0.000000001
 43
0.0000000001
 40
0.0038078583244345
 40
0.0038078583244345
 40
0.0038078583244345
 40
0.0038078583244345
 40
0.0555555555555556
 40
0.1111111111111111
 40
0.1666666666666666
 40
0.2222222222222222
 40
0.2777777777777778
 40
0.3055555555555556
 40
0.3333333333333333
 40
0.3611111111111111
 40
0.3888888888888888
 40
0.4166666666666666
 40
0.4444444444444445
 40
0.4791666666666666
 40
0.5138888888888889
 40
0.5486111111111111
 40
0.5833333333333333
 40
0.6180555555555555
 40
0.6527777777777777
 40
0.6875
 40
0.7222222222222223
 40
0.7569444444444445
 40
0.7916666666666668
 40
0.861111111111111
 40
0.9961920661574577
 40
0.9961920661574577
 40
0.9961920661574577
 40
0.9961920661574577
 10
758.5172147839361
 20
1894.144021766518
 30
0.0
 10
758.5245133573995
 20
1894.109628560673
 30
0.0
 10
758.6418154237874
 20
1893.832485695372
 30
0.0
 10
759.0843403049772
 20
1892.793993703814
 30
0.0
 10
759.791730558472
 20
1890.974398159025
 30
0.0
 10
760.6635318881022
 20
1888.565462852794
 30
0.0
 10
761.43793654729
 20
1886.110689225516
 30
0.0
 10
762.0515778536539
 20
1883.88398174637
 30
0.0
 10
762.4755287710611
 20
1882.143890781721
 30
0.0
 10
762.8618292572879
 20
1880.295784778002
 30
0.0
 10
763.2117018994512
 20
1878.325007017284
 30
0.0
 10
763.5017904616248
 20
1876.285931453357
 30
0.0
 10
763.7287735440647
 20
1874.073655539239
 30
0.0
 10
763.8590150260189
 20
1871.625083815119
 30
0.0
 10
763.8720663463858
 20
1868.909347352048
 30
0.0
 10
763.756648469661
 20
1866.254247544526
 30
0.0
 10
763.509158749553
 20
1863.709206227555
 30
0.0
 10
763.1336480509259
 20
1861.162704774681
 30
0.0
 10
762.6743509195035
 20
1858.745647242761
 30
0.0
 10
762.1652396577535
 20
1856.537504047492
 30
0.0
 10
761.5913310773078
 20
1854.433428307656
 30
0.0
 10
761.0049136118503
 20
1852.510325034561
 30
0.0
 10
760.2608291938881
 20
1850.287454586512
 30
0.0
 10
759.0504159491411
 20
1847.055876556668
 30
0.0
 10
758.5536158572787
 20
1845.980907373331
 30
0.0
 10
758.5186631702706
 20
1845.858918174894
 30
0.0
  0
SPLINE
  5
240
330
87
100
AcDbEntity
  8
P-SANR-FIXT
100
AcDbSpline
210
0.0
220
0.0
230
1.0
 70
     8
 71
     3
 72
    30
 73
    26
 74
     0
 42
0.000000001
 43
0.0000000001
 40
0.0038078583244463
 40
0.0038078583244463
 40
0.0038078583244463
 40
0.0038078583244463
 40
0.0555555555555556
 40
0.1111111111111111
 40
0.1666666666666666
 40
0.2222222222222222
 40
0.2777777777777778
 40
0.3055555555555556
 40
0.3333333333333333
 40
0.3611111111111111
 40
0.3888888888888888
 40
0.4166666666666666
 40
0.4444444444444445
 40
0.4791666666666666
 40
0.5138888888888889
 40
0.5486111111111111
 40
0.5833333333333333
 40
0.6180555555555555
 40
0.6527777777777777
 40
0.6875
 40
0.7222222222222223
 40
0.7569444444444445
 40
0.7916666666666668
 40
0.861111111111111
 40
0.9961920661574451
 40
0.9961920661574451
 40
0.9961920661574451
 40
0.9961920661574451
 10
872.8156001024624
 20
1845.855978233472
 30
0.0
 10
872.8083015289987
 20
1845.890371439316
 30
0.0
 10
872.690999462611
 20
1846.167514304618
 30
0.0
 10
872.2484745814211
 20
1847.206006296175
 30
0.0
 10
871.5410843279263
 20
1849.025601840964
 30
0.0
 10
870.6692829982959
 20
1851.434537147195
 30
0.0
 10
869.8948783391083
 20
1853.889310774474
 30
0.0
 10
869.2812370327443
 20
1856.116018253619
 30
0.0
 10
868.8572861153371
 20
1857.856109218268
 30
0.0
 10
868.4709856291103
 20
1859.704215221988
 30
0.0
 10
868.1211129869472
 20
1861.674992982706
 30
0.0
 10
867.8310244247734
 20
1863.714068546632
 30
0.0
 10
867.6040413423336
 20
1865.926344460751
 30
0.0
 10
867.4737998603795
 20
1868.37491618487
 30
0.0
 10
867.4607485400125
 20
1871.090652647941
 30
0.0
 10
867.5761664167371
 20
1873.745752455463
 30
0.0
 10
867.8236561368452
 20
1876.290793772434
 30
0.0
 10
868.1991668354724
 20
1878.837295225309
 30
0.0
 10
868.6584639668947
 20
1881.254352757229
 30
0.0
 10
869.1675752286446
 20
1883.462495952497
 30
0.0
 10
869.7414838090905
 20
1885.566571692332
 30
0.0
 10
870.3279012745481
 20
1887.489674965429
 30
0.0
 10
871.07198569251
 20
1889.712545413478
 30
0.0
 10
872.2823989372574
 20
1892.944123443321
 30
0.0
 10
872.7791990291194
 20
1894.019092626658
 30
0.0
 10
872.8141517161276
 20
1894.141081825095
 30
0.0
  0
LINE
  5
241
330
87
100
AcDbEntity
  8
P-SANR-FIXT
100
AcDbLine
 10
884.9164074431989
 20
1821.599922097982
 30
0.0
 11
746.4164074431993
 21
1821.599922097982
 31
0.0
  0
LINE
  5
242
330
87
100
AcDbEntity
  8
P-SANR-FIXT
100
AcDbLine
 10
771.6674267011328
 20
2226.499999999995
 30
0.0
 11
859.6653881852656
 21
2226.499999999995
 31
0.0
  0
SPLINE
  5
243
330
87
100
AcDbEntity
  8
P-SANR-FIXT
100
AcDbSpline
210
0.0
220
0.0
230
1.0
 70
     8
 71
     3
 72
    30
 73
    26
 74
     0
 42
0.000000001
 43
0.0000000001
 40
0.0038078583244463
 40
0.0038078583244463
 40
0.0038078583244463
 40
0.0038078583244463
 40
0.0555555555555556
 40
0.1111111111111111
 40
0.1666666666666666
 40
0.2222222222222222
 40
0.2777777777777778
 40
0.3055555555555556
 40
0.3333333333333333
 40
0.3611111111111111
 40
0.3888888888888888
 40
0.4166666666666666
 40
0.4444444444444445
 40
0.4791666666666666
 40
0.5138888888888889
 40
0.5486111111111111
 40
0.5833333333333333
 40
0.6180555555555555
 40
0.6527777777777777
 40
0.6875
 40
0.7222222222222223
 40
0.7569444444444445
 40
0.7916666666666668
 40
0.861111111111111
 40
0.9961920661574451
 40
0.9961920661574451
 40
0.9961920661574451
 40
0.9961920661574451
 10
872.8156001024624
 20
2105.855978233472
 30
0.0
 10
872.8083015289987
 20
2105.890371439317
 30
0.0
 10
872.690999462611
 20
2106.167514304618
 30
0.0
 10
872.2484745814211
 20
2107.206006296175
 30
0.0
 10
871.5410843279265
 20
2109.025601840965
 30
0.0
 10
870.6692829982959
 20
2111.434537147195
 30
0.0
 10
869.8948783391083
 20
2113.889310774474
 30
0.0
 10
869.2812370327443
 20
2116.11601825362
 30
0.0
 10
868.8572861153371
 20
2117.856109218268
 30
0.0
 10
868.4709856291103
 20
2119.704215221988
 30
0.0
 10
868.1211129869472
 20
2121.674992982706
 30
0.0
 10
867.8310244247734
 20
2123.714068546632
 30
0.0
 10
867.6040413423336
 20
2125.926344460751
 30
0.0
 10
867.4737998603795
 20
2128.374916184871
 30
0.0
 10
867.4607485400125
 20
2131.090652647941
 30
0.0
 10
867.5761664167371
 20
2133.745752455463
 30
0.0
 10
867.8236561368452
 20
2136.290793772434
 30
0.0
 10
868.1991668354724
 20
2138.837295225309
 30
0.0
 10
868.6584639668947
 20
2141.254352757229
 30
0.0
 10
869.1675752286446
 20
2143.462495952497
 30
0.0
 10
869.7414838090905
 20
2145.566571692333
 30
0.0
 10
870.3279012745481
 20
2147.489674965429
 30
0.0
 10
871.07198569251
 20
2149.712545413478
 30
0.0
 10
872.2823989372573
 20
2152.944123443321
 30
0.0
 10
872.7791990291196
 20
2154.019092626658
 30
0.0
 10
872.8141517161276
 20
2154.141081825095
 30
0.0
  0
LINE
  5
244
330
87
100
AcDbEntity
  8
P-SANR-FIXT
100
AcDbLine
 10
758.5164074431997
 20
2203.499999999995
 30
0.0
 11
872.8164074431985
 21
2203.499999999995
 31
0.0
  0
SPLINE
  5
245
330
87
100
AcDbEntity
  8
P-SANR-FIXT
100
AcDbSpline
210
0.0
220
0.0
230
1.0
 70
     8
 71
     3
 72
    30
 73
    26
 74
     0
 42
0.000000001
 43
0.0000000001
 40
0.0038078583244345
 40
0.0038078583244345
 40
0.0038078583244345
 40
0.0038078583244345
 40
0.0555555555555556
 40
0.1111111111111111
 40
0.1666666666666666
 40
0.2222222222222222
 40
0.2777777777777778
 40
0.3055555555555556
 40
0.3333333333333333
 40
0.3611111111111111
 40
0.3888888888888888
 40
0.4166666666666666
 40
0.4444444444444445
 40
0.4791666666666666
 40
0.5138888888888889
 40
0.5486111111111111
 40
0.5833333333333333
 40
0.6180555555555555
 40
0.6527777777777777
 40
0.6875
 40
0.7222222222222223
 40
0.7569444444444445
 40
0.7916666666666668
 40
0.861111111111111
 40
0.9961920661574572
 40
0.9961920661574572
 40
0.9961920661574572
 40
0.9961920661574572
 10
758.5172147839361
 20
2154.144021766517
 30
0.0
 10
758.5245133573995
 20
2154.109628560673
 30
0.0
 10
758.6418154237874
 20
2153.832485695371
 30
0.0
 10
759.0843403049772
 20
2152.793993703814
 30
0.0
 10
759.791730558472
 20
2150.974398159025
 30
0.0
 10
760.6635318881022
 20
2148.565462852794
 30
0.0
 10
761.43793654729
 20
2146.110689225515
 30
0.0
 10
762.0515778536539
 20
2143.88398174637
 30
0.0
 10
762.4755287710611
 20
2142.143890781722
 30
0.0
 10
762.8618292572879
 20
2140.295784778001
 30
0.0
 10
763.2117018994512
 20
2138.325007017283
 30
0.0
 10
763.5017904616248
 20
2136.285931453357
 30
0.0
 10
763.7287735440647
 20
2134.073655539238
 30
0.0
 10
763.8590150260189
 20
2131.625083815119
 30
0.0
 10
763.872066346386
 20
2128.909347352048
 30
0.0
 10
763.756648469661
 20
2126.254247544526
 30
0.0
 10
763.509158749553
 20
2123.709206227556
 30
0.0
 10
763.1336480509258
 20
2121.162704774681
 30
0.0
 10
762.6743509195034
 20
2118.745647242761
 30
0.0
 10
762.1652396577535
 20
2116.537504047492
 30
0.0
 10
761.5913310773078
 20
2114.433428307656
 30
0.0
 10
761.0049136118503
 20
2112.510325034561
 30
0.0
 10
760.2608291938881
 20
2110.287454586512
 30
0.0
 10
759.0504159491411
 20
2107.055876556668
 30
0.0
 10
758.5536158572787
 20
2105.98090737333
 30
0.0
 10
758.5186631702706
 20
2105.858918174893
 30
0.0
  0
LINE
  5
246
330
87
100
AcDbEntity
  8
P-SANR-FIXT
100
AcDbLine
 10
746.4164074432003
 20
1784.999999999994
 30
0.0
 11
884.916407443198
 21
1784.999999999994
 31
0.0
  0
LINE
  5
247
330
87
100
AcDbEntity
  8
P-SANR-FIXT
100
AcDbLine
 10
725.6664074431991
 20
2097.149999999994
 30
0.0
 11
725.6664074431993
 21
2162.849999999995
 31
0.0
  0
LINE
  5
248
330
87
100
AcDbEntity
  8
P-SANR-FIXT
100
AcDbLine
 10
905.666407443199
 20
2162.849999999995
 30
0.0
 11
905.666407443199
 21
2097.149999999995
 31
0.0
  0
LINE
  5
249
330
87
100
AcDbEntity
  8
P-SANR-FIXT
100
AcDbLine
 10
905.6664074431992
 20
1902.849999999994
 30
0.0
 11
905.666407443199
 21
1837.149999999995
 31
0.0
  0
LINE
  5
24A
330
87
100
AcDbEntity
  8
P-SANR-FIXT
100
AcDbLine
 10
725.6664074431993
 20
1837.149999999995
 30
0.0
 11
725.6664074431994
 21
1902.849999999995
 31
0.0
  0
ENDBLK
  5
24C
330
87
100
AcDbEntity
  8
0
100
AcDbBlockEnd
  0
BLOCK
  5
309
330
24E
100
AcDbEntity
  8
0
100
AcDbBlockBegin
  2
Automatic flow rate regulator valve_Caleffi_121 DN15 - 1_2__-V1-Est - Idraulica
 70
     0
 10
0.0
 20
0.0
 30
0.0
  3
Automatic flow rate regulator valve_Caleffi_121 DN15 - 1_2__-V1-Est - Idraulica
  1

  0
LWPOLYLINE
  5
24F
330
24E
100
AcDbEntity
  8
P-SANR-FIXT
100
AcDbPolyline
 90
       80
 70
   128
 43
0.0
 10
872.2261121055412
 20
1381.24587873005
 10
872.1808703745248
 20
1383.507663661289
 10
872.045217558594
 20
1385.765830219128
 10
871.8193706733165
 20
1388.016765818788
 10
871.503691025531
 20
1390.256869443486
 10
871.0986836353322
 20
1392.482557405283
 10
870.6049964281474
 20
1394.690269078231
 10
870.0234191981943
 20
1396.876472594606
 10
869.3548823449772
 20
1399.037670495145
 10
868.6004553848475
 20
1401.170405324241
 10
867.7613452400059
 20
1403.271265161125
 10
866.8388943076832
 20
1405.336889078218
 10
865.8345783125925
 20
1407.363972517895
 10
864.7500039460831
 20
1409.349272579075
 10
863.586906295778
 20
1411.289613205166
 10
862.3471460698032
 20
1413.181890265087
 10
861.0327066200525
 20
1415.023076519203
 10
859.6456907692463
 20
1416.810226462274
 10
858.1883174468654
 20
1418.540481035631
 10
856.6629181393354
 20
1420.211072201056
 10
855.0719331601476
 20
1421.819327369058
 10
853.4179077458762
 20
1423.362673674446
 10
851.7034879843446
 20
1424.838642092359
 10
849.9314165814478
 20
1426.244871388187
 10
848.1045284734085
 20
1427.579111895034
 10
846.2257462914843
 20
1428.839229112713
 10
844.2980756863807
 20
1430.023207122487
 10
842.3246005198516
 20
1431.129151812108
 10
840.3084779311777
 20
1432.155293905995
 10
838.2529332864177
 20
1433.099991795697
 10
836.1612550185103
 20
1433.961734166114
 10
834.0367893664836
 20
1434.739142413283
 10
831.8829350221852
 20
1435.430972849847
 10
829.7031376931018
 20
1436.036118694689
 10
827.5008845899614
 20
1436.553611843548
 10
825.2796988479399
 20
1436.982624417781
 10
823.043133890397
 20
1437.322470088784
 10
820.7947677441566
 20
1437.572605175981
 10
818.5381973154264
 20
1437.732629516593
 10
816.2770326355163
 20
1437.802287105809
 10
814.0148910855582
 20
1437.781466506349
 10
811.7553916094678
 20
1437.670201026729
 10
809.5021489244057
 20
1437.46866866798
 10
807.258767738002
 20
1437.177191838887
 10
805.0288369815927
 20
1436.796236840196
 10
802.8159240686942
 20
1436.326413118641
 10
800.6235691879052
 20
1435.76847229195
 10
798.4552796393568
 20
1435.123306946428
 10
796.3145242237831
 20
1434.391949208997
 10
794.2047276931788
 20
1433.575569096024
 10
792.1292652719269
 20
1432.675472641537
 10
790.0914572571601
 20
1431.693099807853
 10
788.0945637069925
 20
1430.630022181944
 10
786.1417792251231
 20
1429.487940461235
 10
784.2362278501512
 20
1428.268681732847
 10
782.3809580577807
 20
1426.97419655065
 10
780.5789378839098
 20
1425.606555814795
 10
778.8330501764062
 20
1424.167947458711
 10
777.1460879831656
 20
1422.66067294888
 10
775.5207500838313
 20
1421.087143602984
 10
773.9596366723218
 20
1419.449876732308
 10
772.4652451970755
 20
1417.751491614581
 10
771.0399663656668
 20
1415.994705303685
 10
769.6860803201826
 20
1414.182328282961
 10
768.4057529894817
 20
1412.317259969019
 10
767.2010326241716
 20
1410.402484073303
 10
766.0738465198435
 20
1408.441063828782
 10
765.0259979338105
 20
1406.436137089433
 10
764.0591632002815
 20
1404.390911310344
 10
763.1748890485828
 20
1402.30865841647
 10
762.3745901287223
 20
1400.192709568251
 10
761.65954674825
 20
1398.046449832467
 10
761.0309028240402
 20
1395.873312766849
 10
760.4896640522688
 20
1393.676774927125
 10
760.0366962995119
 20
1391.460350305269
 10
759.6727242175462
 20
1389.227584707863
 10
759.3983300840594
 20
1386.982050083566
 10
759.213952871131
 20
1384.727338808755
 10
759.1198875429699
 20
1382.46705794049
 10
759.10670278086
 20
1381.24587873005
  0
LINE
  5
250
330
24E
100
AcDbEntity
  8
P-SANR-FIXT
100
AcDbLine
 10
872.2253217694865
 20
1380.946877520909
 30
0.0
 11
872.2261121055412
 21
1381.24587873005
 31
0.0
  0
LINE
  5
251
330
24E
100
AcDbEntity
  8
P-SANR-FIXT
100
AcDbLine
 10
759.10670278086
 20
1381.24587873005
 30
0.0
 11
759.1074931169149
 21
1380.94687752091
 31
0.0
  0
LWPOLYLINE
  5
252
330
24E
100
AcDbEntity
  8
P-SANR-FIXT
100
AcDbPolyline
 90
       80
 70
   128
 43
0.0
 10
904.6248124570068
 20
1381.24587873005
 10
904.5536552213862
 20
1384.803266116857
 10
904.3402973509222
 20
1388.354962442714
 10
903.9850801726933
 20
1391.895285751154
 10
903.4885719584091
 20
1395.418572280113
 10
902.851567015297
 20
1398.919185522739
 10
902.0750844153777
 20
1402.3915252446
 10
901.160366365171
 20
1405.830036442869
 10
900.1088762184281
 20
1409.229218233139
 10
898.9222961350771
 20
1412.583632649663
 10
897.6025243901283
 20
1415.887913344948
 10
896.1516723368369
 20
1419.136774174755
 10
894.57206102899
 20
1422.32501765481
 10
892.8662175077141
 20
1425.447543275669
 10
891.0368707587496
 20
1428.49935566244
 10
889.0869473466546
 20
1431.475572566323
 10
887.0195667329275
 20
1434.371432675164
 10
884.8380362855321
 20
1437.182303230541
 10
882.5458459878163
 20
1439.903687439184
 10
880.1466628552816
 20
1442.531231666891
 10
877.644325069142
 20
1445.06073240341
 10
875.0428358360512
 20
1447.488142987162
 10
872.346356983828
 20
1449.809580079031
 10
869.5592023034173
 20
1452.021329874885
 10
866.6858306477466
 20
1454.119854046865
 10
863.730838798512
 20
1456.101795403957
 10
860.6989541123072
 20
1457.963983262781
 10
857.595026957863
 20
1459.703438520009
 10
854.4240229564902
 20
1461.317378418294
 10
851.1910150381467
 20
1462.803220998085
 10
847.9011753258301
 20
1464.15858922822
 10
844.5597668612847
 20
1465.38131480866
 10
841.1721351852586
 20
1466.469441639309
 10
837.7436997857767
 20
1467.42122894936
 10
834.2799454281177
 20
1468.235154082155
 10
830.7864133803597
 20
1468.909914931109
 10
827.2686925485313
 20
1469.444432022805
 10
823.7324105355565
 20
1469.837850243921
 10
820.1832246382894
 20
1470.089540209227
 10
816.6268127970464
 20
1470.199099268469
 10
813.0688645121129
 20
1470.166352150525
 10
809.5150717417562
 20
1469.991351243798
 10
805.9711197963068
 20
1469.674376512407
 10
802.4426782428749
 20
1469.215935048304
 10
798.9353918352512
 20
1468.616760260036
 10
795.4548714835079
 20
1467.877810699448
 10
792.0066852777355
 20
1467.000268528202
 10
788.5963495802895
 20
1465.985537626572
 10
785.2293202007867
 20
1464.835241347539
 10
781.9109836679724
 20
1463.551219919763
 10
778.6466486124258
 20
1462.135527503621
 10
775.4415372738807
 20
1460.590428904978
 10
772.3007771467591
 20
1458.918395951991
 10
769.2293927772703
 20
1457.122103540702
 10
766.2322977252123
 20
1455.20442535578
 10
763.3142867033223
 20
1453.168429273239
 10
760.480027906759
 20
1451.017372452488
 10
757.7340555449876
 20
1448.754696125572
 10
755.0807625880109
 20
1446.384020091937
 10
752.5243937385543
 20
1443.909136927518
 10
750.0690386414471
 20
1441.334005917433
 10
747.7186253410637
 20
1438.662746721964
 10
745.47691399729
 20
1435.899632785987
 10
743.3474908700699
 20
1433.049084502366
 10
741.3337625821538
 20
1430.11566214027
 10
739.4389506692302
 20
1427.104058549716
 10
737.6660864261552
 20
1424.019091654007
 10
736.018006057526
 20
1420.865696742086
 10
734.4973461403611
 20
1417.648918573121
 10
733.106539406138
 20
1414.373903305976
 10
731.8478108489416
 20
1411.045890266444
 10
730.7231741659492
 20
1407.670203565451
 10
729.7344285359437
 20
1404.25224358161
 10
728.8831557410121
 20
1400.797478321769
 10
728.1707176360305
 20
1397.311434673367
 10
727.5982539699891
 20
1393.799689562591
 10
727.166680562634
 20
1390.267861032486
 10
726.8766878393531
 20
1386.721599255285
 10
726.7287397266417
 20
1383.166577493335
 10
726.7080024293946
 20
1381.24587873005
  0
LINE
  5
253
330
24E
100
AcDbEntity
  8
P-SANR-FIXT
100
AcDbLine
 10
904.6243097173505
 20
1380.946804185576
 30
0.0
 11
904.6248124570068
 21
1381.24587873005
 31
0.0
  0
LINE
  5
254
330
24E
100
AcDbEntity
  8
P-SANR-FIXT
100
AcDbLine
 10
726.7080024293946
 20
1381.245878730049
 30
0.0
 11
726.7085051690507
 21
1380.946804185578
 31
0.0
  0
LWPOLYLINE
  5
255
330
24E
100
AcDbEntity
  8
P-SANR-FIXT
100
AcDbPolyline
 90
        3
 70
   128
 43
0.0
 10
905.6664074432006
 20
1388.287270411341
 10
905.6560045329336
 20
1388.460444140968
 10
905.6311019686706
 20
1388.708639144204
  0
LWPOLYLINE
  5
256
330
24E
100
AcDbEntity
  8
P-SANR-FIXT
100
AcDbPolyline
 90
       67
 70
   128
 43
0.0
 10
902.6414229381092
 20
1405.39587873005
 10
902.428891022083
 20
1406.194806195274
 10
901.3617992913864
 20
1409.644423665077
 10
900.1576132144412
 20
1413.048609521017
 10
898.8182592320912
 20
1416.401917791913
 10
897.3458800249947
 20
1419.698983899865
 10
895.7428310857922
 20
1422.934533242436
 10
894.0116769508207
 20
1426.103389630893
 10
892.1551870974035
 20
1429.200483571
 10
890.1763315132754
 20
1432.220860373132
 10
888.078275945238
 20
1435.159688078718
 10
885.8643768346386
 20
1438.012265190345
 10
883.538175947781
 20
1440.774028193152
 10
881.1033947098547
 20
1443.44055885548
 10
878.5639282514477
 20
1446.007591297098
 10
875.9238391771699
 20
1448.471018813704
 10
873.1873510663506
 20
1450.826900446774
 10
870.3588417162146
 20
1453.071467288257
 10
867.4428361383389
 20
1455.201128510022
 10
864.4439993196
 20
1457.212477108418
 10
861.36712875919
 20
1459.102295354751
 10
858.2171467936419
 20
1460.867559942968
 10
854.9990927221401
 20
1462.505446826298
 10
851.7181147447171
 20
1464.013335735123
 10
848.3794617262326
 20
1465.388814368856
 10
844.9884747993078
 20
1466.629682255102
 10
841.550578819654
 20
1467.733954269949
 10
838.0712736874599
 20
1468.699863813736
 10
834.5561255487249
 20
1469.525865637246
 10
831.0107578906128
 20
1470.210638313763
 10
827.4408425450715
 20
1470.753086353082
 10
823.852090615113
 20
1471.152341954058
 10
820.2502433382651
 20
1471.407766392897
 10
816.6410629018182
 20
1471.518951044987
 10
813.0303232245527
 20
1471.4857180386
 10
809.4238007197024
 20
1471.308120539459
 10
805.8272650539247
 20
1470.986442665677
 10
802.2464699170649
 20
1470.52119903323
 10
798.6871438174794
 20
1469.913133932684
 10
795.1549809176452
 20
1469.163220138486
 10
791.6556319247145
 20
1468.272657352734
 10
788.1946950505879
 20
1467.242870285908
 10
784.7777070559698
 20
1466.075506377639
 10
781.4101343927335
 20
1464.772433161157
 10
778.0973644587625
 20
1463.335735275632
 10
774.8446969792651
 20
1461.767711131203
 10
771.6573355283428
 20
1460.070869232007
 10
768.540379204383
 20
1458.24792416311
 10
765.4988144725887
 20
1456.301792247746
 10
762.5375071876983
 20
1454.235586881828
 10
759.661194809656
 20
1452.052613553174
 10
756.8744788246858
 20
1449.756364553435
 10
754.1818173838958
 20
1447.350513391169
 10
751.5875181711879
 20
1444.838908915016
 10
749.0957315118812
 20
1442.225569156356
 10
746.7104437330776
 20
1439.51467490132
 10
744.4354707863895
 20
1436.710563002425
 10
742.2744521432297
 20
1433.817719440528
 10
740.230844972434
 20
1430.840772148222
 10
738.3079186095297
 20
1427.784483606127
 10
736.5087493264955
 20
1424.653743223937
 10
734.8362154103814
 20
1421.453559518407
 10
733.2929925586652
 20
1418.189052100797
 10
731.8815495987061
 20
1414.865443486583
 10
730.6041445381487
 20
1411.48805074055
 10
729.462820952591
 20
1408.06227697062
 10
728.6914867003815
 20
1405.395878730051
  0
LINE
  5
257
330
24E
100
AcDbEntity
  8
P-SANR-FIXT
100
AcDbLine
 10
725.715106753435
 20
1388.708639144205
 30
0.0
 11
725.6664074432007
 21
1388.113105226989
 31
0.0
  0
LINE
  5
258
330
24E
100
AcDbEntity
  8
P-SANR-FIXT
100
AcDbLine
 10
775.6675258036657
 20
1380.946767402022
 30
0.0
 11
822.1925762935338
 21
1380.946767402022
 31
0.0
  0
LINE
  5
259
330
24E
100
AcDbEntity
  8
P-SANR-FIXT
100
AcDbLine
 10
833.1402385928642
 20
1380.946767402021
 30
0.0
 11
855.6652890827326
 21
1380.946767402021
 31
0.0
  0
ARC
  5
25A
330
24E
100
AcDbEntity
  8
P-SANR-FIXT
100
AcDbCircle
 10
815.6664074431992
 20
1381.24587873005
 30
0.0
 40
39.99999999999955
100
AcDbArc
 50
359.9999999999993
 51
179.999999999999
  0
ARC
  5
25B
330
24E
100
AcDbEntity
  8
P-SANR-FIXT
100
AcDbCircle
 10
815.6664074431992
 20
1381.24587873005
 30
0.0
 40
39.99999999999953
100
AcDbArc
 50
359.5715505894697
 51
359.9999999999993
  0
SPLINE
  5
25C
330
24E
100
AcDbEntity
  8
P-SANR-FIXT
100
AcDbSpline
210
0.0
220
0.0
230
1.0
 70
    24
 71
     3
 72
    11
 73
     7
 74
     0
 42
0.000000001
 43
0.0000000001
 40
-1.0
 40
-1.0
 40
-1.0
 40
-1.0
 40
-0.75
 40
-0.5
 40
-0.25
 40
-0.0729601163499903
 40
-0.0729601163499903
 40
-0.0729601163499903
 40
-0.0729601163499903
 10
855.6652890827326
 20
1380.946767402021
 30
0.0
 10
858.6281709888513
 20
1380.946767402021
 30
0.0
 10
863.7681788680511
 20
1380.946767402021
 30
0.0
 10
869.1887509231875
 20
1380.946767402021
 30
0.0
 10
871.8315970386854
 20
1380.946767402021
 30
0.0
 10
872.2558008339127
 20
1380.946767402021
 30
0.0
 10
872.2193045234297
 20
1380.946767402021
 30
0.0
  0
SPLINE
  5
25D
330
24E
100
AcDbEntity
  8
P-SANR-FIXT
100
AcDbSpline
210
0.0
220
0.0
230
1.0
 70
    24
 71
     3
 72
    11
 73
     7
 74
     0
 42
0.000000001
 43
0.0000000001
 40
-0.9270398836500101
 40
-0.9270398836500101
 40
-0.9270398836500101
 40
-0.9270398836500101
 40
-0.75
 40
-0.5
 40
-0.25
 40
0.0
 40
0.0
 40
0.0
 40
0.0
 10
759.1135103629686
 20
1380.946767402022
 30
0.0
 10
759.0770140524856
 20
1380.946767402022
 30
0.0
 10
759.5012178477132
 20
1380.946767402022
 30
0.0
 10
762.1440639632108
 20
1380.946767402022
 30
0.0
 10
767.5646360183472
 20
1380.946767402022
 30
0.0
 10
772.7046438975469
 20
1380.946767402022
 30
0.0
 10
775.6675258036657
 20
1380.946767402022
 30
0.0
  0
ARC
  5
25E
330
24E
100
AcDbEntity
  8
P-SANR-FIXT
100
AcDbCircle
 10
815.6664074431992
 20
1381.24587873005
 30
0.0
 40
39.99999999999938
100
AcDbArc
 50
179.9999999999996
 51
180.4284494105283
  0
SPLINE
  5
25F
330
24E
100
AcDbEntity
  8
P-SANR-FIXT
100
AcDbSpline
210
0.0
220
0.0
230
1.0
 70
    24
 71
     3
 72
    12
 73
     8
 74
     0
 42
0.000000001
 43
0.0000000001
 40
-0.9978083096628061
 40
-0.9978083096628061
 40
-0.9978083096628061
 40
-0.9978083096628061
 40
-0.85
 40
-0.7
 40
-0.4
 40
-0.2
 40
0.0
 40
0.0
 40
0.0
 40
0.0
 10
872.2041838846886
 20
1380.946767402021
 30
0.0
 10
875.3058968805799
 20
1380.946767402021
 30
0.0
 10
881.1347460088056
 20
1380.946767402021
 30
0.0
 10
891.238655538611
 20
1380.946767402021
 30
0.0
 10
899.3106123622267
 20
1380.946767402021
 30
0.0
 10
903.9716448371708
 20
1380.946767402021
 30
0.0
 10
904.7103342217416
 20
1380.946767402021
 30
0.0
 10
904.6052918955815
 20
1380.946767402021
 30
0.0
  0
SPLINE
  5
260
330
24E
100
AcDbEntity
  8
P-SANR-FIXT
100
AcDbSpline
210
0.0
220
0.0
230
1.0
 70
    24
 71
     3
 72
    12
 73
     8
 74
     0
 42
0.000000001
 43
0.0000000001
 40
-1.0
 40
-1.0
 40
-1.0
 40
-1.0
 40
-0.85
 40
-0.7
 40
-0.4
 40
-0.2
 40
-0.0021916903371939
 40
-0.0021916903371939
 40
-0.0021916903371939
 40
-0.0021916903371939
 10
726.7275229908168
 20
1380.946767402022
 30
0.0
 10
726.6487412461968
 20
1380.946767402022
 30
0.0
 10
727.0241664375471
 20
1380.946767402022
 30
0.0
 10
729.9459430034988
 20
1380.946767402022
 30
0.0
 10
736.547974283545
 20
1380.946767402022
 30
0.0
 10
747.3816244986314
 20
1380.946767402022
 30
0.0
 10
754.9776820474087
 20
1380.946767402022
 30
0.0
 10
759.128630980518
 20
1380.946767402022
 30
0.0
  0
ARC
  5
261
330
24E
100
AcDbEntity
  8
P-SANR-FIXT
100
AcDbCircle
 10
815.6664074431992
 20
1381.245878730049
 30
0.0
 40
88.93938742323781
100
AcDbArc
 50
154.9999999999994
 51
159.9999999999994
  0
LINE
  5
262
330
24E
100
AcDbEntity
  8
P-SANR-FIXT
100
AcDbLine
 10
789.916407443203
 20
1371.652674556189
 30
0.0
 11
789.916407443203
 21
1371.151334032815
 31
0.0
  0
ARC
  5
263
330
24E
100
AcDbEntity
  8
P-SANR-FIXT
100
AcDbCircle
 10
815.6664074432013
 20
1381.245878730051
 30
0.0
 40
27.65795243043852
100
AcDbArc
 50
201.4062299834587
 51
203.5937700165388
  0
LINE
  5
264
330
24E
100
AcDbEntity
  8
P-SANR-FIXT
100
AcDbLine
 10
790.3204868192427
 20
1370.175800122905
 30
0.0
 11
790.6749881030038
 21
1369.821298839143
 31
0.0
  0
LINE
  5
265
330
24E
100
AcDbEntity
  8
P-SANR-FIXT
100
AcDbLine
 10
804.2418275522924
 20
1356.254459389855
 30
0.0
 11
804.5963288360546
 21
1355.899958106093
 31
0.0
  0
ARC
  5
266
330
24E
100
AcDbEntity
  8
P-SANR-FIXT
100
AcDbCircle
 10
815.6664074432013
 20
1381.245878730051
 30
0.0
 40
27.65795243043859
100
AcDbArc
 50
246.4062299834585
 51
248.5937700165384
  0
LINE
  5
267
330
24E
100
AcDbEntity
  8
P-SANR-FIXT
100
AcDbLine
 10
805.5718627459652
 20
1355.495878730053
 30
0.0
 11
806.073203269341
 21
1355.495878730053
 31
0.0
  0
LINE
  5
268
330
24E
100
AcDbEntity
  8
P-SANR-FIXT
100
AcDbLine
 10
825.2596116170563
 20
1355.495878730052
 30
0.0
 11
825.7609521404367
 21
1355.495878730052
 31
0.0
  0
ARC
  5
269
330
24E
100
AcDbEntity
  8
P-SANR-FIXT
100
AcDbCircle
 10
815.6664074432013
 20
1381.245878730051
 30
0.0
 40
27.65795243043863
100
AcDbArc
 50
291.4062299834584
 51
293.5937700165382
  0
LINE
  5
26A
330
24E
100
AcDbEntity
  8
P-SANR-FIXT
100
AcDbLine
 10
826.7364860503473
 20
1355.899958106092
 30
0.0
 11
827.0909873341137
 21
1356.254459389859
 31
0.0
  0
LINE
  5
26B
330
24E
100
AcDbEntity
  8
P-SANR-FIXT
100
AcDbLine
 10
840.6578267833904
 20
1369.821298839135
 30
0.0
 11
841.0123280671598
 21
1370.175800122904
 31
0.0
  0
ARC
  5
26C
330
24E
100
AcDbEntity
  8
P-SANR-FIXT
100
AcDbCircle
 10
815.6664074432013
 20
1381.245878730051
 30
0.0
 40
27.65795243043859
100
AcDbArc
 50
336.4062299834592
 51
338.5937700165384
  0
LINE
  5
26D
330
24E
100
AcDbEntity
  8
P-SANR-FIXT
100
AcDbLine
 10
841.4164074431996
 20
1371.151334032815
 30
0.0
 11
841.4164074431996
 21
1371.652674556201
 31
0.0
  0
ARC
  5
26E
330
24E
100
AcDbEntity
  8
P-SANR-FIXT
100
AcDbCircle
 10
827.6664074431987
 20
1381.24587873005
 30
0.0
 40
5.5
100
AcDbArc
 50
0.0
 51
180.0
  0
ARC
  5
26F
330
24E
100
AcDbEntity
  8
P-SANR-FIXT
100
AcDbCircle
 10
827.6664074431987
 20
1381.24587873005
 30
0.0
 40
5.499999999999886
100
AcDbArc
 50
180.0
 51
0.0
  0
ARC
  5
270
330
24E
100
AcDbEntity
  8
P-SANR-FIXT
100
AcDbCircle
 10
827.6664074431987
 20
1381.24587873005
 30
0.0
 40
7.24999999999996
100
AcDbArc
 50
182.375880671753
 51
357.6241193282462
  0
LWPOLYLINE
  5
271
330
24E
100
AcDbEntity
  8
P-SANR-FIXT
100
AcDbPolyline
 90
       80
 70
   128
 43
0.0
 10
776.6723904675376
 20
1380.946767402022
 10
776.6976032834411
 20
1379.686294696772
 10
776.7911408974171
 20
1378.129205665253
 10
776.9468706449183
 20
1376.577102645784
 10
777.1645433915697
 20
1375.032468672097
 10
777.4438109074105
 20
1373.497774829046
 10
777.7842264239897
 20
1371.975476299396
 10
778.1852453490986
 20
1370.468008436054
 10
778.6462261380034
 20
1368.977782866027
 10
779.1664313197787
 20
1367.507183632328
 10
779.7450286771053
 20
1366.058563380019
 10
780.3810925776388
 20
1364.634239592483
 10
781.073605454825
 20
1363.23649088394
 10
781.8214594357885
 20
1361.867553354153
 10
782.6234581136933
 20
1360.529617011145
 10
783.4783184617386
 20
1359.224822267654
 10
784.3846728857283
 20
1357.955256516927
 10
785.3410714119291
 20
1356.722950793341
 10
786.3459840067198
 20
1355.529876523174
 10
787.3978030243189
 20
1354.377942370751
 10
788.4948457786742
 20
1353.268991184982
 10
789.6353572354021
 20
1352.2047970512
 10
790.8175128194679
 20
1351.187062453004
 10
792.0394213341171
 20
1350.217415548646
 10
793.2991279863855
 20
1349.297407566326
 10
794.5946175143534
 20
1348.428510322557
 10
795.923817411132
 20
1347.612113867575
 10
797.2846012404337
 20
1346.849524261553
 10
798.674792038417
 20
1346.141961485183
 10
800.0921657963637
 20
1345.490557487968
 10
801.5344550186171
 20
1344.896354377345
 10
802.9993523500944
 20
1344.360302751535
 10
804.4845142675599
 20
1343.883260178788
 10
805.9875648287627
 20
1343.465989825455
 10
807.5060994734393
 20
1343.10915923509
 10
809.0376888700944
 20
1342.813339260518
 10
810.5798828024155
 20
1342.579003150592
 10
812.1302140890945
 20
1342.4065257931
 10
813.686202530792
 20
1342.296183115021
 10
815.2453588779286
 20
1342.2481516411
 10
816.8051888129506
 20
1342.262508211449
 10
818.3631969407079
 20
1342.339229858621
 10
819.9168907805539
 20
1342.478193844343
 10
821.4637847537812
 20
1342.679177855885
 10
823.0014041600195
 20
1342.941860361701
 10
824.5272891362269
 20
1343.265821125818
 10
826.0389985919459
 20
1343.650541880122
 10
827.5341141145286
 20
1344.095407153475
 10
829.0102438380795
 20
1344.59970525634
 10
830.4650262699317
 20
1345.162629419328
 10
831.8961340685316
 20
1345.783279083865
 10
833.3012777666878
 20
1346.460661342885
 10
834.6782094342316
 20
1347.193692529273
 10
836.0247262742245
 20
1347.981199949504
 10
837.3386741469644
 20
1348.821923759697
 10
838.6179510161483
 20
1349.714518981101
 10
839.8605103116839
 20
1350.657557651772
 10
841.0643642037628
 20
1351.649531111008
 10
842.2275867829672
 20
1352.688852412884
 10
843.3483171413101
 20
1353.773858865026
 10
844.4247623492957
 20
1354.902814688568
 10
845.4552003242197
 20
1356.073913795021
 10
846.4379825851379
 20
1357.285282675638
 10
847.3715368900814
 20
1358.534983398621
 10
848.2543697513101
 20
1359.821016709402
 10
849.0850688245737
 20
1361.141325229022
 10
849.8623051685614
 20
1362.493796745501
 10
850.5848353709243
 20
1363.876267592925
 10
851.2515035374702
 20
1365.286526112849
 10
851.8612431413474
 20
1366.72231619248
 10
852.4130787292609
 20
1368.181340873976
 10
852.9061274819884
 20
1369.661266029089
 10
853.3396006267036
 20
1371.159724093271
 10
853.7128046988447
 20
1372.674317853274
 10
854.0251426515085
 20
1374.202624282178
 10
854.2761148105997
 20
1375.742198415717
 10
854.4653196742011
 20
1377.290577263704
 10
854.5924545548926
 20
1378.845283750284
 10
854.6573160639862
 20
1380.403830676732
 10
854.6631780140607
 20
1380.946767402021
  0
ARC
  5
272
330
24E
100
AcDbEntity
  8
P-SANR-FIXT
100
AcDbCircle
 10
815.6664074431992
 20
1381.245878730049
 30
0.0
 40
27.65795243044057
100
AcDbArc
 50
180.6202718203114
 51
201.4184442636462
  0
ARC
  5
273
330
24E
100
AcDbEntity
  8
P-SANR-FIXT
100
AcDbCircle
 10
815.6664074431992
 20
1381.245878730049
 30
0.0
 40
27.65795243044053
100
AcDbArc
 50
203.6085410637495
 51
246.3914589362495
  0
ARC
  5
274
330
24E
100
AcDbEntity
  8
P-SANR-FIXT
100
AcDbCircle
 10
815.6664074431992
 20
1381.245878730049
 30
0.0
 40
27.65795243044054
100
AcDbArc
 50
248.5815557363525
 51
291.4184442636539
  0
ARC
  5
275
330
24E
100
AcDbEntity
  8
P-SANR-FIXT
100
AcDbCircle
 10
815.6664074431992
 20
1381.245878730049
 30
0.0
 40
27.65795243044053
100
AcDbArc
 50
293.6085410637576
 51
336.3914589362481
  0
ARC
  5
276
330
24E
100
AcDbEntity
  8
P-SANR-FIXT
100
AcDbCircle
 10
815.6664074431992
 20
1381.245878730049
 30
0.0
 40
27.65795243044058
100
AcDbArc
 50
338.5815557363511
 51
359.379728179687
  0
ARC
  5
277
330
24E
100
AcDbEntity
  8
P-SANR-FIXT
100
AcDbCircle
 10
815.6664074431992
 20
1381.24587873005
 30
0.0
 40
27.49999999998051
100
AcDbArc
 50
180.6238344909131
 51
359.3761655090843
  0
LINE
  5
278
330
24E
100
AcDbEntity
  8
P-SANR-FIXT
100
AcDbLine
 10
907.3982124754333
 20
1418.547396476883
 30
0.0
 11
907.3684701463314
 21
1418.495878730045
 31
0.0
  0
LINE
  5
279
330
24E
100
AcDbEntity
  8
P-SANR-FIXT
100
AcDbLine
 10
907.368470146344
 20
1343.995878730031
 30
0.0
 11
907.3982124754465
 21
1343.944360983192
 31
0.0
  0
LINE
  5
27A
330
24E
100
AcDbEntity
  8
P-SANR-FIXT
100
AcDbLine
 10
933.4643447400681
 20
1418.495878730044
 30
0.0
 11
933.4346024109661
 21
1418.547396476883
 31
0.0
  0
LINE
  5
27B
330
24E
100
AcDbEntity
  8
P-SANR-FIXT
100
AcDbLine
 10
933.4346024109526
 20
1343.944360983191
 30
0.0
 11
933.4643447400548
 21
1343.995878730031
 31
0.0
  0
SPLINE
  5
27C
330
24E
100
AcDbEntity
  8
P-SANR-FIXT
100
AcDbSpline
210
0.0
220
0.0
230
1.0
 70
    24
 71
     3
 72
     8
 73
     4
 74
     0
 42
0.000000001
 43
0.0000000001
 40
0.4444444444444445
 40
0.4444444444444445
 40
0.4444444444444445
 40
0.4444444444444445
 40
0.5390067493332626
 40
0.5390067493332626
 40
0.5390067493332626
 40
0.5390067493332626
 10
907.4343503414482
 20
1343.99587873003
 30
0.0
 10
907.3918760007101
 20
1343.99587873003
 30
0.0
 10
907.3561671310724
 20
1343.99587873003
 30
0.0
 10
907.3661926826723
 20
1343.99587873003
 30
0.0
  0
SPLINE
  5
27D
330
24E
100
AcDbEntity
  8
P-SANR-FIXT
100
AcDbSpline
210
0.0
220
0.0
230
1.0
 70
    24
 71
     3
 72
     8
 73
     4
 74
     0
 42
0.000000001
 43
0.0000000001
 40
0.4609932506669053
 40
0.4609932506669053
 40
0.4609932506669053
 40
0.4609932506669053
 40
0.5555555555547788
 40
0.5555555555547788
 40
0.5555555555547788
 40
0.5555555555547788
 10
933.4136556284828
 20
1343.99587873003
 30
0.0
 10
933.4459141460603
 20
1343.99587873003
 30
0.0
 10
933.4719877206353
 20
1343.99587873003
 30
0.0
 10
933.4487851544437
 20
1343.99587873003
 30
0.0
  0
SPLINE
  5
27E
330
24E
100
AcDbEntity
  8
P-SANR-FIXT
100
AcDbSpline
210
0.0
220
0.0
230
1.0
 70
    24
 71
     3
 72
     8
 73
     4
 74
     0
 42
0.000000001
 43
0.0000000001
 40
0.4444444444444445
 40
0.4444444444444445
 40
0.4444444444444445
 40
0.4444444444444445
 40
0.5555555555555556
 40
0.5555555555555556
 40
0.5555555555555556
 40
0.5555555555555556
 10
907.434350341435
 20
1418.495878730044
 30
0.0
 10
907.384442810113
 20
1418.495878730044
 30
0.0
 10
907.3454062522873
 20
1418.495878730044
 30
0.0
 10
907.3781626352319
 20
1418.495878730044
 30
0.0
  0
SPLINE
  5
27F
330
24E
100
AcDbEntity
  8
P-SANR-FIXT
100
AcDbSpline
210
0.0
220
0.0
230
1.0
 70
    24
 71
     3
 72
     8
 73
     4
 74
     0
 42
0.000000001
 43
0.0000000001
 40
0.4444444444450274
 40
0.4444444444450274
 40
0.4444444444450274
 40
0.4444444444450274
 40
0.5555555555555556
 40
0.5555555555555556
 40
0.5555555555555556
 40
0.5555555555555556
 10
933.3932998965204
 20
1418.495878730043
 30
0.0
 10
933.4465070643458
 20
1418.495878730043
 30
0.0
 10
933.489962265838
 20
1418.495878730043
 30
0.0
 10
933.460849829294
 20
1418.495878730043
 30
0.0
  0
LINE
  5
280
330
24E
100
AcDbEntity
  8
P-SANR-FIXT
100
AcDbLine
 10
723.9643447400696
 20
1418.495878730045
 30
0.0
 11
723.9346024109677
 21
1418.547396476884
 31
0.0
  0
LINE
  5
281
330
24E
100
AcDbEntity
  8
P-SANR-FIXT
100
AcDbLine
 10
723.9346024109541
 20
1343.944360983192
 30
0.0
 11
723.9643447400562
 21
1343.995878730031
 31
0.0
  0
LINE
  5
282
330
24E
100
AcDbEntity
  8
P-SANR-FIXT
100
AcDbLine
 10
697.8982124754351
 20
1418.547396476884
 30
0.0
 11
697.8684701463333
 21
1418.495878730045
 31
0.0
  0
LINE
  5
283
330
24E
100
AcDbEntity
  8
P-SANR-FIXT
100
AcDbLine
 10
697.8684701463459
 20
1343.995878730032
 30
0.0
 11
697.898212475448
 21
1343.944360983192
 31
0.0
  0
SPLINE
  5
284
330
24E
100
AcDbEntity
  8
P-SANR-FIXT
100
AcDbSpline
210
0.0
220
0.0
230
1.0
 70
    24
 71
     3
 72
     8
 73
     4
 74
     0
 42
0.000000001
 43
0.0000000001
 40
0.4444444444444445
 40
0.4444444444444445
 40
0.4444444444444445
 40
0.4444444444444445
 40
0.5390067493330948
 40
0.5390067493330948
 40
0.5390067493330948
 40
0.5390067493330948
 10
697.93435034145
 20
1343.995878730031
 30
0.0
 10
697.891876000712
 20
1343.995878730031
 30
0.0
 10
697.8561671310741
 20
1343.995878730031
 30
0.0
 10
697.8661926826739
 20
1343.995878730031
 30
0.0
  0
SPLINE
  5
285
330
24E
100
AcDbEntity
  8
P-SANR-FIXT
100
AcDbSpline
210
0.0
220
0.0
230
1.0
 70
    24
 71
     3
 72
     8
 73
     4
 74
     0
 42
0.000000001
 43
0.0000000001
 40
0.4609932506683585
 40
0.4609932506683585
 40
0.4609932506683585
 40
0.4609932506683585
 40
0.5555555555540019
 40
0.5555555555540019
 40
0.5555555555540019
 40
0.5555555555540019
 10
723.913655628486
 20
1343.995878730031
 30
0.0
 10
723.9459141460618
 20
1343.995878730031
 30
0.0
 10
723.9719877206352
 20
1343.995878730031
 30
0.0
 10
723.9487851544451
 20
1343.995878730031
 30
0.0
  0
SPLINE
  5
286
330
24E
100
AcDbEntity
  8
P-SANR-FIXT
100
AcDbSpline
210
0.0
220
0.0
230
1.0
 70
    24
 71
     3
 72
     8
 73
     4
 74
     0
 42
0.000000001
 43
0.0000000001
 40
0.4444444444444445
 40
0.4444444444444445
 40
0.4444444444444445
 40
0.4444444444444445
 40
0.5555555555555556
 40
0.5555555555555556
 40
0.5555555555555556
 40
0.5555555555555556
 10
697.9343503414368
 20
1418.495878730045
 30
0.0
 10
697.884442810115
 20
1418.495878730045
 30
0.0
 10
697.8454062522891
 20
1418.495878730045
 30
0.0
 10
697.8781626352336
 20
1418.495878730045
 30
0.0
  0
SPLINE
  5
287
330
24E
100
AcDbEntity
  8
P-SANR-FIXT
100
AcDbSpline
210
0.0
220
0.0
230
1.0
 70
    24
 71
     3
 72
     8
 73
     4
 74
     0
 42
0.000000001
 43
0.0000000001
 40
0.4444444444456103
 40
0.4444444444456103
 40
0.4444444444456103
 40
0.4444444444456103
 40
0.5555555555555556
 40
0.5555555555555556
 40
0.5555555555555556
 40
0.5555555555555556
 10
723.8932998965231
 20
1418.495878730044
 30
0.0
 10
723.9465070643478
 20
1418.495878730044
 30
0.0
 10
723.989962265839
 20
1418.495878730044
 30
0.0
 10
723.9608498292954
 20
1418.495878730044
 30
0.0
  0
LINE
  5
288
330
24E
100
AcDbEntity
  8
P-SANR-FIXT
100
AcDbLine
 10
697.6664074432025
 20
1410.395878730063
 30
0.0
 11
695.1664074431391
 21
1410.395878730063
 31
0.0
  0
LINE
  5
289
330
24E
100
AcDbEntity
  8
P-SANR-FIXT
100
AcDbLine
 10
695.166407443139
 20
1352.095878730038
 30
0.0
 11
697.6664074432022
 21
1352.095878730038
 31
0.0
  0
LINE
  5
28A
330
24E
100
AcDbEntity
  8
P-SANR-FIXT
100
AcDbLine
 10
695.1664074431377
 20
1352.095878730037
 30
0.0
 11
695.1664074431377
 21
1354.245878730044
 31
0.0
  0
LINE
  5
28B
330
24E
100
AcDbEntity
  8
P-SANR-FIXT
100
AcDbLine
 10
695.1664074431379
 20
1408.245878730057
 30
0.0
 11
695.1664074431379
 21
1410.395878730063
 31
0.0
  0
LINE
  5
28C
330
24E
100
AcDbEntity
  8
P-SANR-FIXT
100
AcDbLine
 10
695.1664074431378
 20
1385.230529288216
 30
0.0
 11
695.1664074431379
 21
1404.261228171892
 31
0.0
  0
LINE
  5
28D
330
24E
100
AcDbEntity
  8
P-SANR-FIXT
100
AcDbLine
 10
695.1664074431377
 20
1358.230529288209
 30
0.0
 11
695.1664074431378
 21
1377.261228171885
 31
0.0
  0
LINE
  5
28E
330
24E
100
AcDbEntity
  8
P-SANR-FIXT
100
AcDbLine
 10
674.6664074431374
 20
1358.230529288208
 30
0.0
 11
674.6664074431375
 21
1377.261228171886
 31
0.0
  0
LINE
  5
28F
330
24E
100
AcDbEntity
  8
P-SANR-FIXT
100
AcDbLine
 10
674.6664074431375
 20
1377.261228171886
 30
0.0
 11
674.6664074431375
 21
1385.230529288215
 31
0.0
  0
LINE
  5
290
330
24E
100
AcDbEntity
  8
P-SANR-FIXT
100
AcDbLine
 10
674.6664074431375
 20
1385.230529288215
 30
0.0
 11
674.6664074431377
 21
1404.261228171893
 31
0.0
  0
LINE
  5
291
330
24E
100
AcDbEntity
  8
P-SANR-FIXT
100
AcDbLine
 10
674.6664074431377
 20
1404.261228171893
 30
0.0
 11
674.6664074431377
 21
1408.245878730057
 31
0.0
  0
LINE
  5
292
330
24E
100
AcDbEntity
  8
P-SANR-FIXT
100
AcDbLine
 10
674.6664074431374
 20
1354.245878730043
 30
0.0
 11
674.6664074431374
 21
1358.230529288208
 31
0.0
  0
LINE
  5
293
330
24E
100
AcDbEntity
  8
P-SANR-FIXT
100
AcDbLine
 10
674.6664074431374
 20
1354.245878730043
 30
0.0
 11
695.1664074431377
 21
1354.245878730043
 31
0.0
  0
LINE
  5
294
330
24E
100
AcDbEntity
  8
P-SANR-FIXT
100
AcDbLine
 10
674.6664074431377
 20
1408.245878730057
 30
0.0
 11
695.1664074431379
 21
1408.245878730057
 31
0.0
  0
LINE
  5
295
330
24E
100
AcDbEntity
  8
P-SANR-FIXT
100
AcDbLine
 10
674.6664074431377
 20
1404.261228171893
 30
0.0
 11
695.1664074431379
 21
1404.261228171893
 31
0.0
  0
LINE
  5
296
330
24E
100
AcDbEntity
  8
P-SANR-FIXT
100
AcDbLine
 10
674.6664074431375
 20
1385.230529288215
 30
0.0
 11
695.1664074431378
 21
1385.230529288215
 31
0.0
  0
LINE
  5
297
330
24E
100
AcDbEntity
  8
P-SANR-FIXT
100
AcDbLine
 10
674.6664074431375
 20
1377.261228171886
 30
0.0
 11
695.1664074431378
 21
1377.261228171886
 31
0.0
  0
LINE
  5
298
330
24E
100
AcDbEntity
  8
P-SANR-FIXT
100
AcDbLine
 10
695.1664074431377
 20
1358.230529288208
 30
0.0
 11
674.6664074431374
 21
1358.230529288208
 31
0.0
  0
LINE
  5
299
330
24E
100
AcDbEntity
  8
P-SANR-FIXT
100
AcDbLine
 10
933.6664074431986
 20
1352.095878730037
 30
0.0
 11
936.1664074432622
 21
1352.095878730037
 31
0.0
  0
LINE
  5
29A
330
24E
100
AcDbEntity
  8
P-SANR-FIXT
100
AcDbLine
 10
936.1664074432622
 20
1410.395878730062
 30
0.0
 11
933.666407443199
 21
1410.395878730062
 31
0.0
  0
LINE
  5
29B
330
24E
100
AcDbEntity
  8
P-SANR-FIXT
100
AcDbLine
 10
956.6664074432607
 20
1358.230529288207
 30
0.0
 11
956.6664074432607
 21
1354.245878730043
 31
0.0
  0
LINE
  5
29C
330
24E
100
AcDbEntity
  8
P-SANR-FIXT
100
AcDbLine
 10
956.6664074432608
 20
1408.245878730056
 30
0.0
 11
956.6664074432608
 21
1404.261228171892
 31
0.0
  0
LINE
  5
29D
330
24E
100
AcDbEntity
  8
P-SANR-FIXT
100
AcDbLine
 10
956.6664074432608
 20
1404.261228171892
 30
0.0
 11
956.6664074432608
 21
1385.230529288214
 31
0.0
  0
LINE
  5
29E
330
24E
100
AcDbEntity
  8
P-SANR-FIXT
100
AcDbLine
 10
956.6664074432608
 20
1385.230529288214
 30
0.0
 11
956.6664074432608
 21
1377.261228171885
 31
0.0
  0
LINE
  5
29F
330
24E
100
AcDbEntity
  8
P-SANR-FIXT
100
AcDbLine
 10
956.6664074432608
 20
1377.261228171885
 30
0.0
 11
956.6664074432607
 21
1358.230529288207
 31
0.0
  0
LINE
  5
2A0
330
24E
100
AcDbEntity
  8
P-SANR-FIXT
100
AcDbLine
 10
956.6664074432607
 20
1358.230529288207
 30
0.0
 11
936.1664074432605
 21
1358.230529288207
 31
0.0
  0
LINE
  5
2A1
330
24E
100
AcDbEntity
  8
P-SANR-FIXT
100
AcDbLine
 10
936.1664074432605
 20
1354.245878730043
 30
0.0
 11
956.6664074432607
 21
1354.245878730043
 31
0.0
  0
LINE
  5
2A2
330
24E
100
AcDbEntity
  8
P-SANR-FIXT
100
AcDbLine
 10
936.1664074432606
 20
1408.245878730056
 30
0.0
 11
956.6664074432608
 21
1408.245878730056
 31
0.0
  0
LINE
  5
2A3
330
24E
100
AcDbEntity
  8
P-SANR-FIXT
100
AcDbLine
 10
936.1664074432606
 20
1404.261228171892
 30
0.0
 11
956.6664074432608
 21
1404.261228171892
 31
0.0
  0
LINE
  5
2A4
330
24E
100
AcDbEntity
  8
P-SANR-FIXT
100
AcDbLine
 10
936.1664074432606
 20
1385.230529288214
 30
0.0
 11
956.6664074432608
 21
1385.230529288214
 31
0.0
  0
LINE
  5
2A5
330
24E
100
AcDbEntity
  8
P-SANR-FIXT
100
AcDbLine
 10
936.1664074432606
 20
1377.261228171885
 30
0.0
 11
956.6664074432608
 21
1377.261228171885
 31
0.0
  0
LINE
  5
2A6
330
24E
100
AcDbEntity
  8
P-SANR-FIXT
100
AcDbLine
 10
936.1664074432606
 20
1377.261228171885
 30
0.0
 11
936.1664074432605
 21
1358.230529288207
 31
0.0
  0
LINE
  5
2A7
330
24E
100
AcDbEntity
  8
P-SANR-FIXT
100
AcDbLine
 10
936.1664074432606
 20
1404.261228171892
 30
0.0
 11
936.1664074432606
 21
1385.230529288214
 31
0.0
  0
LINE
  5
2A8
330
24E
100
AcDbEntity
  8
P-SANR-FIXT
100
AcDbLine
 10
936.1664074432606
 20
1410.395878730062
 30
0.0
 11
936.1664074432606
 21
1408.245878730055
 31
0.0
  0
LINE
  5
2A9
330
24E
100
AcDbEntity
  8
P-SANR-FIXT
100
AcDbLine
 10
936.1664074432605
 20
1354.245878730043
 30
0.0
 11
936.1664074432605
 21
1352.095878730036
 31
0.0
  0
LINE
  5
2AA
330
24E
100
AcDbEntity
  8
P-SANR-FIXT
100
AcDbLine
 10
701.0303736401167
 20
1343.995878730032
 30
0.0
 11
720.8024412462856
 21
1343.995878730032
 31
0.0
  0
LINE
  5
2AB
330
24E
100
AcDbEntity
  8
P-SANR-FIXT
100
AcDbLine
 10
720.8024412462976
 20
1418.495878730045
 30
0.0
 11
701.0303736401054
 21
1418.495878730046
 31
0.0
  0
LINE
  5
2AC
330
24E
100
AcDbEntity
  8
P-SANR-FIXT
100
AcDbLine
 10
724.1664074432025
 20
1418.145878730049
 30
0.0
 11
723.9346024109683
 21
1418.547396476884
 31
0.0
  0
LINE
  5
2AD
330
24E
100
AcDbEntity
  8
P-SANR-FIXT
100
AcDbLine
 10
723.9346024109546
 20
1343.944360983192
 30
0.0
 11
724.1664074432021
 21
1344.345878730051
 31
0.0
  0
LINE
  5
2AE
330
24E
100
AcDbEntity
  8
P-SANR-FIXT
100
AcDbLine
 10
697.8982124754353
 20
1418.547396476885
 30
0.0
 11
697.6664074432025
 21
1418.145878730052
 31
0.0
  0
LINE
  5
2AF
330
24E
100
AcDbEntity
  8
P-SANR-FIXT
100
AcDbLine
 10
697.6664074432021
 20
1344.345878730049
 30
0.0
 11
697.8982124754483
 21
1343.944360983193
 31
0.0
  0
LINE
  5
2B0
330
24E
100
AcDbEntity
  8
P-SANR-FIXT
100
AcDbLine
 10
697.6664074432011
 20
1381.24587873005
 30
0.0
 11
697.6664074432011
 21
1418.145878730051
 31
0.0
  0
LINE
  5
2B1
330
24E
100
AcDbEntity
  8
P-SANR-FIXT
100
AcDbLine
 10
697.6664074432008
 20
1344.345878730049
 30
0.0
 11
697.6664074432011
 21
1381.245878730049
 31
0.0
  0
LINE
  5
2B2
330
24E
100
AcDbEntity
  8
P-SANR-FIXT
100
AcDbLine
 10
724.1664074432011
 20
1418.145878730048
 30
0.0
 11
724.1664074432011
 21
1381.24587873005
 31
0.0
  0
LINE
  5
2B3
330
24E
100
AcDbEntity
  8
P-SANR-FIXT
100
AcDbLine
 10
724.1664074432011
 20
1381.245878730049
 30
0.0
 11
724.1664074432009
 21
1344.345878730051
 31
0.0
  0
SPLINE
  5
2B4
330
24E
100
AcDbEntity
  8
P-SANR-FIXT
100
AcDbSpline
210
0.0
220
0.0
230
1.0
 70
     8
 71
     3
 72
    11
 73
     7
 74
     0
 42
0.000000001
 43
0.0000000001
 40
0.0
 40
0.0
 40
0.0
 40
0.0
 40
0.25
 40
0.5
 40
0.75
 40
1.0
 40
1.0
 40
1.0
 40
1.0
 10
720.8024412462844
 20
1343.995878730031
 30
0.0
 10
720.7776463051864
 20
1343.995878730031
 30
0.0
 10
720.740469670002
 20
1344.017890416616
 30
0.0
 10
720.7198936933914
 20
1344.119798674631
 30
0.0
 10
720.7406589875532
 20
1344.283761183517
 30
0.0
 10
720.777734653377
 20
1344.422040221649
 30
0.0
 10
720.8024412462844
 20
1344.495878730032
 30
0.0
  0
SPLINE
  5
2B5
330
24E
100
AcDbEntity
  8
P-SANR-FIXT
100
AcDbSpline
210
0.0
220
0.0
230
1.0
 70
     8
 71
     3
 72
    11
 73
     7
 74
     0
 42
0.000000001
 43
0.0000000001
 40
0.0
 40
0.0
 40
0.0
 40
0.0
 40
0.25
 40
0.5
 40
0.75
 40
1.0
 40
1.0
 40
1.0
 40
1.0
 10
701.0303736401153
 20
1344.495878730032
 30
0.0
 10
701.0550802330229
 20
1344.42204022165
 30
0.0
 10
701.0921558988465
 20
1344.283761183517
 30
0.0
 10
701.1129211930083
 20
1344.119798674631
 30
0.0
 10
701.0923452163978
 20
1344.017890416617
 30
0.0
 10
701.0551685812133
 20
1343.995878730032
 30
0.0
 10
701.0303736401155
 20
1343.995878730032
 30
0.0
  0
SPLINE
  5
2B6
330
24E
100
AcDbEntity
  8
P-SANR-FIXT
100
AcDbSpline
210
0.0
220
0.0
230
1.0
 70
    24
 71
     3
 72
     9
 73
     5
 74
     0
 42
0.000000001
 43
0.0000000001
 40
0.0
 40
0.0
 40
0.0
 40
0.0
 40
0.3333333333333333
 40
0.539006749333678
 40
0.539006749333678
 40
0.539006749333678
 40
0.539006749333678
 10
701.0303736401155
 20
1343.995878730032
 30
0.0
 10
699.6329453594889
 20
1343.995878730032
 30
0.0
 10
698.1267307912511
 20
1343.995878730032
 30
0.0
 10
697.8489968447505
 20
1343.995878730032
 30
0.0
 10
697.9191592579158
 20
1343.995878730032
 30
0.0
  0
SPLINE
  5
2B7
330
24E
100
AcDbEntity
  8
P-SANR-FIXT
100
AcDbSpline
210
0.0
220
0.0
230
1.0
 70
    24
 71
     3
 72
     9
 73
     5
 74
     0
 42
0.000000001
 43
0.0000000001
 40
0.4609932506670236
 40
0.4609932506670236
 40
0.4609932506670236
 40
0.4609932506670236
 40
0.6666666666666666
 40
1.0
 40
1.0
 40
1.0
 40
1.0
 10
723.9136556284851
 20
1343.995878730031
 30
0.0
 10
723.983818041649
 20
1343.995878730031
 30
0.0
 10
723.7060840951471
 20
1343.995878730031
 30
0.0
 10
722.1998695269111
 20
1343.995878730031
 30
0.0
 10
720.8024412462844
 20
1343.995878730031
 30
0.0
  0
SPLINE
  5
2B8
330
24E
100
AcDbEntity
  8
P-SANR-FIXT
100
AcDbSpline
210
0.0
220
0.0
230
1.0
 70
    24
 71
     3
 72
     9
 73
     5
 74
     0
 42
0.000000001
 43
0.0000000001
 40
0.4444444444444445
 40
0.4444444444444445
 40
0.4444444444444445
 40
0.4444444444444445
 40
0.6666666666666666
 40
1.0
 40
1.0
 40
1.0
 40
1.0
 10
697.9343503414372
 20
1418.495878730045
 30
0.0
 10
697.8345352787933
 20
1418.495878730045
 30
0.0
 10
698.1027230547756
 20
1418.495878730045
 30
0.0
 10
699.64370504373
 20
1418.495878730045
 30
0.0
 10
701.030373640104
 20
1418.495878730045
 30
0.0
  0
SPLINE
  5
2B9
330
24E
100
AcDbEntity
  8
P-SANR-FIXT
100
AcDbSpline
210
0.0
220
0.0
230
1.0
 70
    24
 71
     3
 72
     9
 73
     5
 74
     0
 42
0.000000001
 43
0.0000000001
 40
0.0
 40
0.0
 40
0.0
 40
0.0
 40
0.3333333333333333
 40
0.5555555555555556
 40
0.5555555555555556
 40
0.5555555555555556
 40
0.5555555555555556
 10
720.8024412462963
 20
1418.495878730045
 30
0.0
 10
722.1891098426704
 20
1418.495878730045
 30
0.0
 10
723.7300918316251
 20
1418.495878730045
 30
0.0
 10
723.9982796076073
 20
1418.495878730045
 30
0.0
 10
723.8984645449635
 20
1418.495878730045
 30
0.0
  0
SPLINE
  5
2BA
330
24E
100
AcDbEntity
  8
P-SANR-FIXT
100
AcDbSpline
210
0.0
220
0.0
230
1.0
 70
     8
 71
     3
 72
    11
 73
     7
 74
     0
 42
0.000000001
 43
0.0000000001
 40
0.0
 40
0.0
 40
0.0
 40
0.0
 40
0.25
 40
0.5
 40
0.75
 40
1.0
 40
1.0
 40
1.0
 40
1.0
 10
701.030373640104
 20
1418.495878730045
 30
0.0
 10
701.055168581202
 20
1418.495878730045
 30
0.0
 10
701.0923452163864
 20
1418.47386704346
 30
0.0
 10
701.1129211929969
 20
1418.371958785446
 30
0.0
 10
701.0921558988354
 20
1418.207996276559
 30
0.0
 10
701.0550802330116
 20
1418.069717238427
 30
0.0
 10
701.0303736401041
 20
1417.995878730045
 30
0.0
  0
SPLINE
  5
2BB
330
24E
100
AcDbEntity
  8
P-SANR-FIXT
100
AcDbSpline
210
0.0
220
0.0
230
1.0
 70
     8
 71
     3
 72
    11
 73
     7
 74
     0
 42
0.000000001
 43
0.0000000001
 40
0.0
 40
0.0
 40
0.0
 40
0.0
 40
0.25
 40
0.5
 40
0.75
 40
1.0
 40
1.0
 40
1.0
 40
1.0
 10
720.8024412462962
 20
1417.995878730045
 30
0.0
 10
720.7777346533887
 20
1418.069717238427
 30
0.0
 10
720.740658987565
 20
1418.207996276559
 30
0.0
 10
720.7198936934032
 20
1418.371958785445
 30
0.0
 10
720.740469670014
 20
1418.47386704346
 30
0.0
 10
720.7776463051983
 20
1418.495878730045
 30
0.0
 10
720.8024412462963
 20
1418.495878730045
 30
0.0
  0
SPLINE
  5
2BC
330
24E
100
AcDbEntity
  8
P-SANR-FIXT
100
AcDbSpline
210
0.0
220
0.0
230
1.0
 70
     8
 71
     3
 72
    10
 73
     6
 74
     0
 42
0.000000001
 43
0.0000000001
 40
0.0
 40
0.0
 40
0.0
 40
0.0
 40
0.3333333333333333
 40
0.6666666666666666
 40
1.0
 40
1.0
 40
1.0
 40
1.0
 10
701.0303736401041
 20
1417.995878730045
 30
0.0
 10
699.6329453594775
 20
1413.96821186999
 30
0.0
 10
697.7699945768891
 20
1405.911402453078
 30
0.0
 10
697.7945266569892
 20
1393.708219353346
 30
0.0
 10
699.6437050437354
 20
1385.721201738525
 30
0.0
 10
701.0303736401096
 20
1381.745878730038
 30
0.0
  0
SPLINE
  5
2BD
330
24E
100
AcDbEntity
  8
P-SANR-FIXT
100
AcDbSpline
210
0.0
220
0.0
230
1.0
 70
     8
 71
     3
 72
    10
 73
     6
 74
     0
 42
0.000000001
 43
0.0000000001
 40
0.0
 40
0.0
 40
0.0
 40
0.0
 40
0.3333333333333333
 40
0.6666666666666666
 40
1.0
 40
1.0
 40
1.0
 40
1.0
 10
720.8024412462905
 20
1381.745878730038
 30
0.0
 10
722.1891098426648
 20
1385.721201738524
 30
0.0
 10
724.0382882294114
 20
1393.708219353346
 30
0.0
 10
724.0628203095119
 20
1405.911402453077
 30
0.0
 10
722.1998695269231
 20
1413.96821186999
 30
0.0
 10
720.8024412462962
 20
1417.995878730045
 30
0.0
  0
SPLINE
  5
2BE
330
24E
100
AcDbEntity
  8
P-SANR-FIXT
100
AcDbSpline
210
0.0
220
0.0
230
1.0
 70
     8
 71
     3
 72
     9
 73
     5
 74
     0
 42
0.000000001
 43
0.0000000001
 40
0.0
 40
0.0
 40
0.0
 40
0.0
 40
0.5
 40
1.0
 40
1.0
 40
1.0
 40
1.0
 10
701.0303736401096
 20
1381.745878730038
 30
0.0
 10
701.055185029803
 20
1381.671507755987
 30
0.0
 10
701.0926059918899
 20
1381.510401478783
 30
0.0
 10
701.1056233193772
 20
1381.334535451469
 30
0.0
 10
701.106031074471
 20
1381.24587873005
 30
0.0
  0
SPLINE
  5
2BF
330
24E
100
AcDbEntity
  8
P-SANR-FIXT
100
AcDbSpline
210
0.0
220
0.0
230
1.0
 70
     8
 71
     3
 72
     9
 73
     5
 74
     0
 42
0.000000001
 43
0.0000000001
 40
0.0
 40
0.0
 40
0.0
 40
0.0
 40
0.5
 40
1.0
 40
1.0
 40
1.0
 40
1.0
 10
701.106031074471
 20
1381.24587873005
 30
0.0
 10
701.1056233193784
 20
1381.157222008627
 30
0.0
 10
701.0926059918922
 20
1380.981355981304
 30
0.0
 10
701.0551850298043
 20
1380.820249704093
 30
0.0
 10
701.0303736401098
 20
1380.745878730039
 30
0.0
  0
SPLINE
  5
2C0
330
24E
100
AcDbEntity
  8
P-SANR-FIXT
100
AcDbSpline
210
0.0
220
0.0
230
1.0
 70
     8
 71
     3
 72
     9
 73
     5
 74
     0
 42
0.000000001
 43
0.0000000001
 40
0.0
 40
0.0
 40
0.0
 40
0.0
 40
0.5
 40
1.0
 40
1.0
 40
1.0
 40
1.0
 10
720.8024412462902
 20
1380.745878730038
 30
0.0
 10
720.7776298565959
 20
1380.820249704093
 30
0.0
 10
720.7402088945079
 20
1380.981355981304
 30
0.0
 10
720.7271915670217
 20
1381.157222008627
 30
0.0
 10
720.7267838119291
 20
1381.24587873005
 30
0.0
  0
SPLINE
  5
2C1
330
24E
100
AcDbEntity
  8
P-SANR-FIXT
100
AcDbSpline
210
0.0
220
0.0
230
1.0
 70
     8
 71
     3
 72
     9
 73
     5
 74
     0
 42
0.000000001
 43
0.0000000001
 40
0.0
 40
0.0
 40
0.0
 40
0.0
 40
0.5
 40
1.0
 40
1.0
 40
1.0
 40
1.0
 10
720.7267838119291
 20
1381.24587873005
 30
0.0
 10
720.7271915670229
 20
1381.334535451468
 30
0.0
 10
720.7402088945102
 20
1381.510401478783
 30
0.0
 10
720.7776298565971
 20
1381.671507755987
 30
0.0
 10
720.8024412462905
 20
1381.745878730038
 30
0.0
  0
SPLINE
  5
2C2
330
24E
100
AcDbEntity
  8
P-SANR-FIXT
100
AcDbSpline
210
0.0
220
0.0
230
1.0
 70
     8
 71
     3
 72
    10
 73
     6
 74
     0
 42
0.000000001
 43
0.0000000001
 40
0.0
 40
0.0
 40
0.0
 40
0.0
 40
0.3333333333333333
 40
0.6666666666666666
 40
1.0
 40
1.0
 40
1.0
 40
1.0
 10
701.0303736401098
 20
1380.745878730039
 30
0.0
 10
699.6329453594836
 20
1376.718211869984
 30
0.0
 10
697.7699945768956
 20
1368.661402453071
 30
0.0
 10
697.7945266569959
 20
1356.45821935334
 30
0.0
 10
699.6437050437415
 20
1348.471201738518
 30
0.0
 10
701.0303736401153
 20
1344.495878730032
 30
0.0
  0
SPLINE
  5
2C3
330
24E
100
AcDbEntity
  8
P-SANR-FIXT
100
AcDbSpline
210
0.0
220
0.0
230
1.0
 70
     8
 71
     3
 72
    10
 73
     6
 74
     0
 42
0.000000001
 43
0.0000000001
 40
0.0
 40
0.0
 40
0.0
 40
0.0
 40
0.3333333333333333
 40
0.6666666666666666
 40
1.0
 40
1.0
 40
1.0
 40
1.0
 10
720.8024412462844
 20
1344.495878730032
 30
0.0
 10
722.1891098426586
 20
1348.471201738518
 30
0.0
 10
724.0382882294045
 20
1356.458219353339
 30
0.0
 10
724.062820309505
 20
1368.661402453071
 30
0.0
 10
722.1998695269168
 20
1376.718211869983
 30
0.0
 10
720.8024412462902
 20
1380.745878730038
 30
0.0
  0
LINE
  5
2C4
330
24E
100
AcDbEntity
  8
P-SANR-FIXT
100
AcDbLine
 10
910.5303736401152
 20
1343.995878730031
 30
0.0
 11
930.3024412462841
 21
1343.995878730031
 31
0.0
  0
LINE
  5
2C5
330
24E
100
AcDbEntity
  8
P-SANR-FIXT
100
AcDbLine
 10
930.3024412462962
 20
1418.495878730045
 30
0.0
 11
910.5303736401038
 21
1418.495878730045
 31
0.0
  0
LINE
  5
2C6
330
24E
100
AcDbEntity
  8
P-SANR-FIXT
100
AcDbLine
 10
907.3982124754333
 20
1418.547396476883
 30
0.0
 11
907.1664074431989
 21
1418.145878730048
 31
0.0
  0
LINE
  5
2C7
330
24E
100
AcDbEntity
  8
P-SANR-FIXT
100
AcDbLine
 10
907.1664074431986
 20
1344.34587873005
 30
0.0
 11
907.3982124754465
 21
1343.944360983192
 31
0.0
  0
LINE
  5
2C8
330
24E
100
AcDbEntity
  8
P-SANR-FIXT
100
AcDbLine
 10
933.666407443199
 20
1418.145878730051
 30
0.0
 11
933.4346024109661
 21
1418.547396476883
 31
0.0
  0
LINE
  5
2C9
330
24E
100
AcDbEntity
  8
P-SANR-FIXT
100
AcDbLine
 10
933.4346024109526
 20
1343.944360983192
 30
0.0
 11
933.6664074431988
 21
1344.345878730047
 31
0.0
  0
LINE
  5
2CA
330
24E
100
AcDbEntity
  8
P-SANR-FIXT
100
AcDbLine
 10
907.1664074431971
 20
1381.245878730049
 30
0.0
 11
907.1664074431975
 21
1418.145878730048
 31
0.0
  0
LINE
  5
2CB
330
24E
100
AcDbEntity
  8
P-SANR-FIXT
100
AcDbLine
 10
907.1664074431971
 20
1344.34587873005
 30
0.0
 11
907.1664074431971
 21
1381.245878730049
 31
0.0
  0
LINE
  5
2CC
330
24E
100
AcDbEntity
  8
P-SANR-FIXT
100
AcDbLine
 10
933.6664074431974
 20
1418.145878730051
 30
0.0
 11
933.6664074431972
 21
1381.245878730049
 31
0.0
  0
LINE
  5
2CD
330
24E
100
AcDbEntity
  8
P-SANR-FIXT
100
AcDbLine
 10
933.6664074431972
 20
1381.245878730049
 30
0.0
 11
933.6664074431972
 21
1344.345878730047
 31
0.0
  0
SPLINE
  5
2CE
330
24E
100
AcDbEntity
  8
P-SANR-FIXT
100
AcDbSpline
210
0.0
220
0.0
230
1.0
 70
     8
 71
     3
 72
    11
 73
     7
 74
     0
 42
0.000000001
 43
0.0000000001
 40
0.0
 40
0.0
 40
0.0
 40
0.0
 40
0.25
 40
0.5
 40
0.75
 40
1.0
 40
1.0
 40
1.0
 40
1.0
 10
910.5303736401136
 20
1344.495878730031
 30
0.0
 10
910.5551685812116
 20
1344.421687615523
 30
0.0
 10
910.592345216396
 20
1344.282996749297
 30
0.0
 10
910.6129211930067
 20
1344.119181603524
 30
0.0
 10
910.592155898845
 20
1344.01767217185
 30
0.0
 10
910.5550802330212
 20
1343.995878730031
 30
0.0
 10
910.5303736401138
 20
1343.995878730031
 30
0.0
  0
SPLINE
  5
2CF
330
24E
100
AcDbEntity
  8
P-SANR-FIXT
100
AcDbSpline
210
0.0
220
0.0
230
1.0
 70
     8
 71
     3
 72
    11
 73
     7
 74
     0
 42
0.000000001
 43
0.0000000001
 40
0.0
 40
0.0
 40
0.0
 40
0.0
 40
0.25
 40
0.5
 40
0.75
 40
1.0
 40
1.0
 40
1.0
 40
1.0
 10
930.3024412462825
 20
1343.995878730031
 30
0.0
 10
930.2777346533751
 20
1343.995878730031
 30
0.0
 10
930.2406589875513
 20
1344.01767217185
 30
0.0
 10
930.2198936933898
 20
1344.119181603524
 30
0.0
 10
930.2404696700003
 20
1344.282996749297
 30
0.0
 10
930.2776463051847
 20
1344.421687615522
 30
0.0
 10
930.3024412462827
 20
1344.495878730031
 30
0.0
  0
SPLINE
  5
2D0
330
24E
100
AcDbEntity
  8
P-SANR-FIXT
100
AcDbSpline
210
0.0
220
0.0
230
1.0
 70
    24
 71
     3
 72
     9
 73
     5
 74
     0
 42
0.000000001
 43
0.0000000001
 40
0.0
 40
0.0
 40
0.0
 40
0.0
 40
0.3333333333333333
 40
0.5390067493332622
 40
0.5390067493332622
 40
0.5390067493332622
 40
0.5390067493332622
 10
910.5303736401138
 20
1343.995878730031
 30
0.0
 10
909.1329453594868
 20
1343.995878730031
 30
0.0
 10
907.62673079125
 20
1343.995878730031
 30
0.0
 10
907.3489968447487
 20
1343.995878730031
 30
0.0
 10
907.4191592579133
 20
1343.995878730031
 30
0.0
  0
SPLINE
  5
2D1
330
24E
100
AcDbEntity
  8
P-SANR-FIXT
100
AcDbSpline
210
0.0
220
0.0
230
1.0
 70
    24
 71
     3
 72
     9
 73
     5
 74
     0
 42
0.000000001
 43
0.0000000001
 40
0.4609932506669049
 40
0.4609932506669049
 40
0.4609932506669049
 40
0.4609932506669049
 40
0.6666666666666666
 40
1.0
 40
1.0
 40
1.0
 40
1.0
 10
933.4136556284828
 20
1343.995878730031
 30
0.0
 10
933.4838180416468
 20
1343.995878730031
 30
0.0
 10
933.2060840951454
 20
1343.995878730031
 30
0.0
 10
931.6998695269091
 20
1343.995878730031
 30
0.0
 10
930.3024412462825
 20
1343.995878730031
 30
0.0
  0
SPLINE
  5
2D2
330
24E
100
AcDbEntity
  8
P-SANR-FIXT
100
AcDbSpline
210
0.0
220
0.0
230
1.0
 70
    24
 71
     3
 72
     9
 73
     5
 74
     0
 42
0.000000001
 43
0.0000000001
 40
0.4444444444444445
 40
0.4444444444444445
 40
0.4444444444444445
 40
0.4444444444444445
 40
0.6666666666666666
 40
1.0
 40
1.0
 40
1.0
 40
1.0
 10
907.434350341435
 20
1418.495878730044
 30
0.0
 10
907.3345352787914
 20
1418.495878730044
 30
0.0
 10
907.6027230547735
 20
1418.495878730044
 30
0.0
 10
909.1437050437281
 20
1418.495878730044
 30
0.0
 10
910.5303736401022
 20
1418.495878730044
 30
0.0
  0
SPLINE
  5
2D3
330
24E
100
AcDbEntity
  8
P-SANR-FIXT
100
AcDbSpline
210
0.0
220
0.0
230
1.0
 70
    24
 71
     3
 72
     9
 73
     5
 74
     0
 42
0.000000001
 43
0.0000000001
 40
0.0
 40
0.0
 40
0.0
 40
0.0
 40
0.3333333333333333
 40
0.5555555555555556
 40
0.5555555555555556
 40
0.5555555555555556
 40
0.5555555555555556
 10
930.3024412462946
 20
1418.495878730044
 30
0.0
 10
931.6891098426685
 20
1418.495878730044
 30
0.0
 10
933.230091831623
 20
1418.495878730044
 30
0.0
 10
933.4982796076053
 20
1418.495878730044
 30
0.0
 10
933.3984645449614
 20
1418.495878730044
 30
0.0
  0
SPLINE
  5
2D4
330
24E
100
AcDbEntity
  8
P-SANR-FIXT
100
AcDbSpline
210
0.0
220
0.0
230
1.0
 70
     8
 71
     3
 72
    11
 73
     7
 74
     0
 42
0.000000001
 43
0.0000000001
 40
0.0
 40
0.0
 40
0.0
 40
0.0
 40
0.25
 40
0.5
 40
0.75
 40
1.0
 40
1.0
 40
1.0
 40
1.0
 10
910.5303736401022
 20
1418.495878730044
 30
0.0
 10
910.5551685812002
 20
1418.495878730044
 30
0.0
 10
910.5923452163846
 20
1418.47386704346
 30
0.0
 10
910.6129211929953
 20
1418.371958785445
 30
0.0
 10
910.5921558988336
 20
1418.207996276558
 30
0.0
 10
910.5550802330098
 20
1418.069717238426
 30
0.0
 10
910.5303736401024
 20
1417.995878730044
 30
0.0
  0
SPLINE
  5
2D5
330
24E
100
AcDbEntity
  8
P-SANR-FIXT
100
AcDbSpline
210
0.0
220
0.0
230
1.0
 70
     8
 71
     3
 72
    11
 73
     7
 74
     0
 42
0.000000001
 43
0.0000000001
 40
0.0
 40
0.0
 40
0.0
 40
0.0
 40
0.25
 40
0.5
 40
0.75
 40
1.0
 40
1.0
 40
1.0
 40
1.0
 10
930.3024412462944
 20
1417.995878730044
 30
0.0
 10
930.277734653387
 20
1418.069717238426
 30
0.0
 10
930.2406589875632
 20
1418.207996276558
 30
0.0
 10
930.2198936934017
 20
1418.371958785445
 30
0.0
 10
930.2404696700122
 20
1418.473867043459
 30
0.0
 10
930.2776463051966
 20
1418.495878730044
 30
0.0
 10
930.3024412462946
 20
1418.495878730044
 30
0.0
  0
SPLINE
  5
2D6
330
24E
100
AcDbEntity
  8
P-SANR-FIXT
100
AcDbSpline
210
0.0
220
0.0
230
1.0
 70
     8
 71
     3
 72
    10
 73
     6
 74
     0
 42
0.000000001
 43
0.0000000001
 40
0.0
 40
0.0
 40
0.0
 40
0.0
 40
0.3333333333333333
 40
0.6666666666666666
 40
1.0
 40
1.0
 40
1.0
 40
1.0
 10
910.5303736401024
 20
1417.995878730044
 30
0.0
 10
909.1329453594754
 20
1413.96821186999
 30
0.0
 10
907.2699945768867
 20
1405.911402453077
 30
0.0
 10
907.2945266569869
 20
1393.708219353345
 30
0.0
 10
909.1437050437335
 20
1385.721201738524
 30
0.0
 10
910.5303736401079
 20
1381.745878730038
 30
0.0
  0
SPLINE
  5
2D7
330
24E
100
AcDbEntity
  8
P-SANR-FIXT
100
AcDbSpline
210
0.0
220
0.0
230
1.0
 70
     8
 71
     3
 72
    10
 73
     6
 74
     0
 42
0.000000001
 43
0.0000000001
 40
0.0
 40
0.0
 40
0.0
 40
0.0
 40
0.3333333333333333
 40
0.6666666666666666
 40
1.0
 40
1.0
 40
1.0
 40
1.0
 10
930.3024412462885
 20
1381.745878730037
 30
0.0
 10
931.6891098426628
 20
1385.721201738524
 30
0.0
 10
933.5382882294091
 20
1393.708219353345
 30
0.0
 10
933.5628203095096
 20
1405.911402453076
 30
0.0
 10
931.6998695269212
 20
1413.968211869989
 30
0.0
 10
930.3024412462944
 20
1417.995878730044
 30
0.0
  0
SPLINE
  5
2D8
330
24E
100
AcDbEntity
  8
P-SANR-FIXT
100
AcDbSpline
210
0.0
220
0.0
230
1.0
 70
     8
 71
     3
 72
     9
 73
     5
 74
     0
 42
0.000000001
 43
0.0000000001
 40
0.0
 40
0.0
 40
0.0
 40
0.0
 40
0.5
 40
1.0
 40
1.0
 40
1.0
 40
1.0
 10
910.5303736401079
 20
1381.745878730038
 30
0.0
 10
910.5551850298011
 20
1381.671507755986
 30
0.0
 10
910.592605991888
 20
1381.510401478782
 30
0.0
 10
910.6056233193754
 20
1381.334535451468
 30
0.0
 10
910.6060310744693
 20
1381.245878730049
 30
0.0
  0
SPLINE
  5
2D9
330
24E
100
AcDbEntity
  8
P-SANR-FIXT
100
AcDbSpline
210
0.0
220
0.0
230
1.0
 70
     8
 71
     3
 72
     9
 73
     5
 74
     0
 42
0.000000001
 43
0.0000000001
 40
0.0
 40
0.0
 40
0.0
 40
0.0
 40
0.5
 40
1.0
 40
1.0
 40
1.0
 40
1.0
 10
910.6060310744693
 20
1381.245878730049
 30
0.0
 10
910.6056233193767
 20
1381.157222008626
 30
0.0
 10
910.5926059918903
 20
1380.981355981303
 30
0.0
 10
910.5551850298024
 20
1380.820249704092
 30
0.0
 10
910.5303736401081
 20
1380.745878730037
 30
0.0
  0
SPLINE
  5
2DA
330
24E
100
AcDbEntity
  8
P-SANR-FIXT
100
AcDbSpline
210
0.0
220
0.0
230
1.0
 70
     8
 71
     3
 72
     9
 73
     5
 74
     0
 42
0.000000001
 43
0.0000000001
 40
0.0
 40
0.0
 40
0.0
 40
0.0
 40
0.5
 40
1.0
 40
1.0
 40
1.0
 40
1.0
 10
930.3024412462885
 20
1380.745878730037
 30
0.0
 10
930.2776298565941
 20
1380.820249704092
 30
0.0
 10
930.2402088945063
 20
1380.981355981303
 30
0.0
 10
930.22719156702
 20
1381.157222008626
 30
0.0
 10
930.2267838119272
 20
1381.245878730049
 30
0.0
  0
SPLINE
  5
2DB
330
24E
100
AcDbEntity
  8
P-SANR-FIXT
100
AcDbSpline
210
0.0
220
0.0
230
1.0
 70
     8
 71
     3
 72
     9
 73
     5
 74
     0
 42
0.000000001
 43
0.0000000001
 40
0.0
 40
0.0
 40
0.0
 40
0.0
 40
0.5
 40
1.0
 40
1.0
 40
1.0
 40
1.0
 10
930.2267838119272
 20
1381.245878730049
 30
0.0
 10
930.227191567021
 20
1381.334535451468
 30
0.0
 10
930.2402088945084
 20
1381.510401478782
 30
0.0
 10
930.2776298565952
 20
1381.671507755986
 30
0.0
 10
930.3024412462885
 20
1381.745878730037
 30
0.0
  0
SPLINE
  5
2DC
330
24E
100
AcDbEntity
  8
P-SANR-FIXT
100
AcDbSpline
210
0.0
220
0.0
230
1.0
 70
     8
 71
     3
 72
    10
 73
     6
 74
     0
 42
0.000000001
 43
0.0000000001
 40
0.0
 40
0.0
 40
0.0
 40
0.0
 40
0.3333333333333333
 40
0.6666666666666666
 40
1.0
 40
1.0
 40
1.0
 40
1.0
 10
930.3024412462827
 20
1344.495878730031
 30
0.0
 10
931.69986952691
 20
1348.523545590085
 30
0.0
 10
933.5628203095001
 20
1356.580355006998
 30
0.0
 10
933.538288229405
 20
1368.783538106729
 30
0.0
 10
931.6891098426614
 20
1376.770555721551
 30
0.0
 10
930.3024412462885
 20
1380.745878730037
 30
0.0
  0
SPLINE
  5
2DD
330
24E
100
AcDbEntity
  8
P-SANR-FIXT
100
AcDbSpline
210
0.0
220
0.0
230
1.0
 70
     8
 71
     3
 72
    10
 73
     6
 74
     0
 42
0.000000001
 43
0.0000000001
 40
0.0
 40
0.0
 40
0.0
 40
0.0
 40
0.3333333333333333
 40
0.6666666666666666
 40
1.0
 40
1.0
 40
1.0
 40
1.0
 10
910.5303736401081
 20
1380.745878730037
 30
0.0
 10
909.1437050437349
 20
1376.770555721551
 30
0.0
 10
907.2945266569911
 20
1368.783538106729
 30
0.0
 10
907.2699945768956
 20
1356.580355006998
 30
0.0
 10
909.1329453594861
 20
1348.523545590085
 30
0.0
 10
910.5303736401136
 20
1344.495878730031
 30
0.0
  0
LINE
  5
2DE
330
24E
100
AcDbEntity
  8
P-SANR-FIXT
100
AcDbLine
 10
824.6664074432148
 20
1283.945878729988
 30
0.0
 11
815.6664074432148
 21
1283.945878729988
 31
0.0
  0
LINE
  5
2DF
330
24E
100
AcDbEntity
  8
P-SANR-FIXT
100
AcDbLine
 10
815.6664074432148
 20
1283.945878729988
 30
0.0
 11
806.6664074432145
 21
1283.945878729988
 31
0.0
  0
LINE
  5
2E0
330
24E
100
AcDbEntity
  8
P-SANR-FIXT
100
AcDbLine
 10
806.6664074432145
 20
1283.945878729988
 30
0.0
 11
806.6664074432145
 21
1288.245878730021
 31
0.0
  0
LINE
  5
2E1
330
24E
100
AcDbEntity
  8
P-SANR-FIXT
100
AcDbLine
 10
824.6664074432148
 20
1288.245878730021
 30
0.0
 11
824.6664074432148
 21
1283.945878729988
 31
0.0
  0
LINE
  5
2E2
330
24E
100
AcDbEntity
  8
P-SANR-FIXT
100
AcDbLine
 10
815.6664074432148
 20
1288.245878730021
 30
0.0
 11
815.6664074432148
 21
1283.945878729988
 31
0.0
  0
LINE
  5
2E3
330
24E
100
AcDbEntity
  8
P-SANR-FIXT
100
AcDbLine
 10
803.1664074432216
 20
1291.24587873005
 30
0.0
 11
803.1664074432216
 21
1288.245878730021
 31
0.0
  0
LINE
  5
2E4
330
24E
100
AcDbEntity
  8
P-SANR-FIXT
100
AcDbLine
 10
828.16640744321
 20
1288.245878730021
 30
0.0
 11
828.16640744321
 21
1291.24587873005
 31
0.0
  0
LINE
  5
2E5
330
24E
100
AcDbEntity
  8
P-SANR-FIXT
100
AcDbLine
 10
828.1664074432086
 20
1288.245878730021
 30
0.0
 11
803.1664074432203
 21
1288.245878730021
 31
0.0
  0
LINE
  5
2E6
330
24E
100
AcDbEntity
  8
P-SANR-FIXT
100
AcDbLine
 10
803.1664074432203
 20
1291.24587873005
 30
0.0
 11
828.1664074432086
 21
1291.24587873005
 31
0.0
  0
LINE
  5
2E7
330
24E
100
AcDbEntity
  8
P-SANR-FIXT
100
AcDbLine
 10
907.1664074431986
 20
1414.095878730049
 30
0.0
 11
905.6664074432008
 21
1414.095878730049
 31
0.0
  0
LINE
  5
2E8
330
24E
100
AcDbEntity
  8
P-SANR-FIXT
100
AcDbLine
 10
905.6664074432003
 20
1348.39587873005
 30
0.0
 11
907.1664074431982
 21
1348.39587873005
 31
0.0
  0
LINE
  5
2E9
330
24E
100
AcDbEntity
  8
P-SANR-FIXT
100
AcDbLine
 10
867.4828340643452
 20
1357.095878730049
 30
0.0
 11
896.1379803184543
 21
1357.095878730049
 31
0.0
  0
LINE
  5
2EA
330
24E
100
AcDbEntity
  8
P-SANR-FIXT
100
AcDbLine
 10
735.1948345679467
 20
1357.095878730049
 30
0.0
 11
763.8499808220559
 21
1357.095878730049
 31
0.0
  0
LINE
  5
2EB
330
24E
100
AcDbEntity
  8
P-SANR-FIXT
100
AcDbLine
 10
725.6664074432007
 20
1414.095878730051
 30
0.0
 11
724.1664074432033
 21
1414.095878730051
 31
0.0
  0
LINE
  5
2EC
330
24E
100
AcDbEntity
  8
P-SANR-FIXT
100
AcDbLine
 10
724.166407443203
 20
1348.39587873005
 30
0.0
 11
725.6664074432006
 21
1348.39587873005
 31
0.0
  0
LINE
  5
2ED
330
24E
100
AcDbEntity
  8
P-SANR-FIXT
100
AcDbLine
 10
805.0164074432007
 20
1325.094154099668
 30
0.0
 11
805.0164074432007
 21
1291.24587873005
 31
0.0
  0
LINE
  5
2EE
330
24E
100
AcDbEntity
  8
P-SANR-FIXT
100
AcDbLine
 10
826.3164074431999
 20
1291.24587873005
 30
0.0
 11
826.3164074432003
 21
1325.094154099668
 31
0.0
  0
LINE
  5
2EF
330
24E
100
AcDbEntity
  8
P-SANR-FIXT
100
AcDbLine
 10
905.6664074432008
 20
1405.39587873005
 30
0.0
 11
901.2187211686986
 21
1405.39587873005
 31
0.0
  0
LINE
  5
2F0
330
24E
100
AcDbEntity
  8
P-SANR-FIXT
100
AcDbLine
 10
896.1379803184543
 20
1357.095878730049
 30
0.0
 11
905.6664074432006
 21
1357.095878730049
 31
0.0
  0
LINE
  5
2F1
330
24E
100
AcDbEntity
  8
P-SANR-FIXT
100
AcDbLine
 10
730.1012607997952
 20
1405.39587873005
 30
0.0
 11
725.6664074432007
 21
1405.395878730051
 31
0.0
  0
LINE
  5
2F2
330
24E
100
AcDbEntity
  8
P-SANR-FIXT
100
AcDbLine
 10
725.6664074432006
 20
1357.095878730049
 30
0.0
 11
735.1948345679467
 21
1357.095878730049
 31
0.0
  0
ARC
  5
2F3
330
24E
100
AcDbEntity
  8
P-SANR-FIXT
100
AcDbCircle
 10
815.6664074431992
 20
1381.245878730049
 30
0.0
 40
69.24999999999972
100
AcDbArc
 50
278.8413309124843
 51
339.5785907998788
  0
ARC
  5
2F4
330
24E
100
AcDbEntity
  8
P-SANR-FIXT
100
AcDbCircle
 10
815.6664074431992
 20
1381.245878730049
 30
0.0
 40
69.2499999999998
100
AcDbArc
 50
200.4214092001203
 51
261.1586690875147
  0
ARC
  5
2F5
330
24E
100
AcDbEntity
  8
P-SANR-FIXT
100
AcDbCircle
 10
815.6664074431992
 20
1381.245878730049
 30
0.0
 40
43.99999999999965
100
AcDbArc
 50
180.3899906370809
 51
359.610009362916
  0
SPLINE
  5
2F6
330
24E
100
AcDbEntity
  8
P-SANR-FIXT
100
AcDbSpline
210
0.0
220
0.0
230
1.0
 70
     8
 71
     3
 72
    10
 73
     6
 74
     0
 42
0.000000001
 43
0.0000000001
 40
0.5
 40
0.5
 40
0.5
 40
0.5
 40
0.5138888888888889
 40
0.5486111111111111
 40
0.5833333333333333
 40
0.5833333333333333
 40
0.5833333333333333
 40
0.5833333333333333
 10
867.4719432213226
 20
1357.114779641644
 30
0.0
 10
867.4719370460652
 20
1357.114770593005
 30
0.0
 10
867.4838320511744
 20
1357.140357281981
 30
0.0
 10
867.5761669899069
 20
1357.338664141845
 30
0.0
 10
867.7411583750936
 20
1357.699981646257
 30
0.0
 10
867.8449929665983
 20
1357.932412390244
 30
0.0
  0
SPLINE
  5
2F7
330
24E
100
AcDbEntity
  8
P-SANR-FIXT
100
AcDbSpline
210
0.0
220
0.0
230
1.0
 70
     8
 71
     3
 72
    11
 73
     7
 74
     0
 42
0.000000001
 43
0.0000000001
 40
0.6111111111111112
 40
0.6111111111111112
 40
0.6111111111111112
 40
0.6111111111111112
 40
0.6180555555555555
 40
0.6527777777777777
 40
0.6875
 40
0.6944444444444446
 40
0.6944444444444446
 40
0.6944444444444446
 40
0.6944444444444446
 10
868.1313850791434
 20
1358.584257925735
 30
0.0
 10
868.1580358917251
 20
1358.645957887938
 30
0.0
 10
868.3216490993872
 20
1359.026540482307
 30
0.0
 10
868.6584091262703
 20
1359.833099234464
 30
0.0
 10
869.0319408141403
 20
1360.785939745049
 30
0.0
 10
869.2509555097945
 20
1361.375885135322
 30
0.0
 10
869.2878197845582
 20
1361.476043175117
 30
0.0
  0
SPLINE
  5
2F8
330
24E
100
AcDbEntity
  8
P-SANR-FIXT
100
AcDbSpline
210
0.0
220
0.0
230
1.0
 70
     8
 71
     3
 72
     9
 73
     5
 74
     0
 42
0.000000001
 43
0.0000000001
 40
0.7222222222222223
 40
0.7222222222222223
 40
0.7222222222222223
 40
0.7222222222222223
 40
0.7569444444444445
 40
0.7777777777777779
 40
0.7777777777777779
 40
0.7777777777777779
 40
0.7777777777777779
 10
869.7435686232591
 20
1362.758500908797
 30
0.0
 10
869.9369452803273
 20
1363.324297893912
 30
0.0
 10
870.252047168767
 20
1364.283575534838
 30
0.0
 10
870.5475725878908
 20
1365.310361829313
 30
0.0
 10
870.6587530295134
 20
1365.704469330906
 30
0.0
  0
SPLINE
  5
2F9
330
24E
100
AcDbEntity
  8
P-SANR-FIXT
100
AcDbSpline
210
0.0
220
0.0
230
1.0
 70
     8
 71
     3
 72
     9
 73
     5
 74
     0
 42
0.000000001
 43
0.0000000001
 40
0.8055555555555583
 40
0.8055555555555583
 40
0.8055555555555583
 40
0.8055555555555583
 40
0.861111111111111
 40
0.996192066157447
 40
0.996192066157447
 40
0.996192066157447
 40
0.996192066157447
 10
871.0992769115755
 20
1367.344970347867
 30
0.0
 10
871.3849749834825
 20
1368.488454056253
 30
0.0
 10
872.3170195806348
 20
1372.710932580634
 30
0.0
 10
872.7792339340085
 20
1377.389005771078
 30
0.0
 10
872.8141531516151
 20
1380.944607008289
 30
0.0
  0
ARC
  5
2FA
330
24E
100
AcDbEntity
  8
P-SANR-FIXT
100
AcDbCircle
 10
815.6664074431992
 20
1381.245878730049
 30
0.0
 40
57.14999999999947
100
AcDbArc
 50
180.3001541240926
 51
359.6998458759049
  0
SPLINE
  5
2FB
330
24E
100
AcDbEntity
  8
P-SANR-FIXT
100
AcDbSpline
210
0.0
220
0.0
230
1.0
 70
     8
 71
     3
 72
    11
 73
     7
 74
     0
 42
0.000000001
 43
0.0000000001
 40
0.0038078583244339
 40
0.0038078583244339
 40
0.0038078583244339
 40
0.0038078583244339
 40
0.0555555555555556
 40
0.1111111111111111
 40
0.1666666666666666
 40
0.1944444444444444
 40
0.1944444444444444
 40
0.1944444444444444
 40
0.1944444444444444
 10
758.5172147839361
 20
1380.94330712467
 30
0.0
 10
758.5245133573995
 20
1379.575138497626
 30
0.0
 10
758.6418154237873
 20
1376.807688565956
 30
0.0
 10
759.0843403049775
 20
1372.887570087803
 30
0.0
 10
759.6738321828889
 20
1369.685404087728
 30
0.0
 10
760.0891814631886
 20
1367.917390257799
 30
0.0
 10
760.2322540428201
 20
1367.34693012978
 30
0.0
  0
SPLINE
  5
2FC
330
24E
100
AcDbEntity
  8
P-SANR-FIXT
100
AcDbSpline
210
0.0
220
0.0
230
1.0
 70
     8
 71
     3
 72
     8
 73
     4
 74
     0
 42
0.000000001
 43
0.0000000001
 40
0.2222222222222222
 40
0.2222222222222222
 40
0.2222222222222222
 40
0.2222222222222222
 40
0.2777777777777778
 40
0.2777777777777778
 40
0.2777777777777778
 40
0.2777777777777778
 10
760.6731125983348
 20
1365.694029254641
 30
0.0
 10
760.9732937517774
 20
1364.632312385847
 30
0.0
 10
761.2830556154444
 20
1363.653491030456
 30
0.0
 10
761.5908566721322
 20
1362.753790994866
 30
0.0
  0
SPLINE
  5
2FD
330
24E
100
AcDbEntity
  8
P-SANR-FIXT
100
AcDbSpline
210
0.0
220
0.0
230
1.0
 70
     8
 71
     3
 72
    10
 73
     6
 74
     0
 42
0.000000001
 43
0.0000000001
 40
0.3055555555555556
 40
0.3055555555555556
 40
0.3055555555555556
 40
0.3055555555555556
 40
0.3333333333333333
 40
0.3611111111111111
 40
0.3888888888888888
 40
0.3888888888888888
 40
0.3888888888888888
 40
0.3888888888888888
 10
762.045531176593
 20
1361.474077385679
 30
0.0
 10
762.1928948261228
 20
1361.074283482039
 30
0.0
 10
762.4755287710031
 20
1360.335247243562
 30
0.0
 10
762.8618292574916
 20
1359.380178926945
 30
0.0
 10
763.0950776849601
 20
1358.830498111298
 30
0.0
 10
763.2017378861196
 20
1358.583554306761
 30
0.0
  0
SPLINE
  5
2FE
330
24E
100
AcDbEntity
  8
P-SANR-FIXT
100
AcDbSpline
210
0.0
220
0.0
230
1.0
 70
     8
 71
     3
 72
     9
 73
     5
 74
     0
 42
0.000000001
 43
0.0000000001
 40
0.4166666666666666
 40
0.4166666666666666
 40
0.4166666666666666
 40
0.4166666666666666
 40
0.4444444444444445
 40
0.4722222222222224
 40
0.4722222222222224
 40
0.4722222222222224
 40
0.4722222222222224
 10
763.4883628421508
 20
1357.931201773013
 30
0.0
 10
763.5716314100122
 20
1357.744840230531
 30
0.0
 10
763.7113133038397
 20
1357.437488522547
 30
0.0
 10
763.7929879275357
 20
1357.260924092815
 30
0.0
 10
763.8201307878865
 20
1357.202434066484
 30
0.0
  0
SPLINE
  5
2FF
330
24E
100
AcDbEntity
  8
P-SANR-FIXT
100
AcDbSpline
210
0.0
220
0.0
230
1.0
 70
     8
 71
     3
 72
    11
 73
     7
 74
     0
 42
0.000000001
 43
0.0000000001
 40
0.5555555555555776
 40
0.5555555555555776
 40
0.5555555555555776
 40
0.5555555555555776
 40
0.5833333333333333
 40
0.6527777777777777
 40
0.7222222222222223
 40
0.7777777777777782
 40
0.7777777777777782
 40
0.7777777777777782
 40
0.7777777777777782
 10
805.179429111852
 20
1325.066293315735
 30
0.0
 10
805.2328928391839
 20
1325.05631357622
 30
0.0
 10
805.4681296850644
 20
1325.012615204866
 30
0.0
 10
806.1540686948356
 20
1324.890216691453
 30
0.0
 10
807.3607157360466
 20
1324.695125001595
 30
0.0
 10
808.3506564667107
 20
1324.567392582473
 30
0.0
 10
808.8205793080902
 20
1324.509237317884
 30
0.0
  0
SPLINE
  5
300
330
24E
100
AcDbEntity
  8
P-SANR-FIXT
100
AcDbSpline
210
0.0
220
0.0
230
1.0
 70
     8
 71
     3
 72
     9
 73
     5
 74
     0
 42
0.000000001
 43
0.0000000001
 40
0.8148148148148152
 40
0.8148148148148152
 40
0.8148148148148152
 40
0.8148148148148152
 40
0.861111111111111
 40
0.9259259259259264
 40
0.9259259259259264
 40
0.9259259259259264
 40
0.9259259259259264
 10
809.812784846173
 20
1324.396669731856
 30
0.0
 10
810.2472066152344
 20
1324.352045794843
 30
0.0
 10
811.3284859589429
 20
1324.24496415826
 30
0.0
 10
812.526928259539
 20
1324.197407760122
 30
0.0
 10
813.2364889355345
 20
1324.174906555664
 30
0.0
  0
SPLINE
  5
301
330
24E
100
AcDbEntity
  8
P-SANR-FIXT
100
AcDbSpline
210
0.0
220
0.0
230
1.0
 70
     8
 71
     3
 72
     8
 73
     4
 74
     0
 42
0.000000001
 43
0.0000000001
 40
0.9629629629629635
 40
0.9629629629629635
 40
0.9629629629629635
 40
0.9629629629629635
 40
1.0
 40
1.0
 40
1.0
 40
1.0
 10
814.4026041230596
 20
1324.109619579588
 30
0.0
 10
814.815510936666
 20
1324.100596616127
 30
0.0
 10
815.2365765586756
 20
1324.09587873005
 30
0.0
 10
815.6664074431992
 20
1324.09587873005
 30
0.0
  0
SPLINE
  5
302
330
24E
100
AcDbEntity
  8
P-SANR-FIXT
100
AcDbSpline
210
0.0
220
0.0
230
1.0
 70
     8
 71
     3
 72
     8
 73
     4
 74
     0
 42
0.000000001
 43
0.0000000001
 40
0.0
 40
0.0
 40
0.0
 40
0.0
 40
0.037037037037037
 40
0.037037037037037
 40
0.037037037037037
 40
0.037037037037037
 10
815.6664074431992
 20
1324.09587873005
 30
0.0
 10
816.0962383277228
 20
1324.09587873005
 30
0.0
 10
816.5185242592396
 20
1324.100772396594
 30
0.0
 10
816.9320439455328
 20
1324.109929080212
 30
0.0
  0
SPLINE
  5
303
330
24E
100
AcDbEntity
  8
P-SANR-FIXT
100
AcDbSpline
210
0.0
220
0.0
230
1.0
 70
     8
 71
     3
 72
    10
 73
     6
 74
     0
 42
0.000000001
 43
0.0000000001
 40
0.0740740740740741
 40
0.0740740740740741
 40
0.0740740740740741
 40
0.0740740740740741
 40
0.1111111111111111
 40
0.1666666666666666
 40
0.1851851851851852
 40
0.1851851851851852
 40
0.1851851851851852
 40
0.1851851851851852
 10
818.1456519579274
 20
1324.14960911586
 30
0.0
 10
818.5415558243606
 20
1324.166764350243
 30
0.0
 10
819.5120364533124
 20
1324.219249185312
 30
0.0
 10
820.6437553570847
 20
1324.309386349506
 30
0.0
 10
821.3474815192386
 20
1324.378660718938
 30
0.0
 10
821.5199733372804
 20
1324.396423515256
 30
0.0
  0
SPLINE
  5
304
330
24E
100
AcDbEntity
  8
P-SANR-FIXT
100
AcDbSpline
210
0.0
220
0.0
230
1.0
 70
     8
 71
     3
 72
    11
 73
     7
 74
     0
 42
0.000000001
 43
0.0000000001
 40
0.2222222222222222
 40
0.2222222222222222
 40
0.2222222222222222
 40
0.2222222222222222
 40
0.2777777777777778
 40
0.3333333333333333
 40
0.3888888888888888
 40
0.4444444444444445
 40
0.4444444444444445
 40
0.4444444444444445
 40
0.4444444444444445
 10
822.5115063491109
 20
1324.507292909038
 30
0.0
 10
822.9844932075243
 20
1324.564354994101
 30
0.0
 10
823.8589164881497
 20
1324.681804589764
 30
0.0
 10
824.9357739336316
 20
1324.85000122486
 30
0.0
 10
825.7158636622556
 20
1324.985173204126
 30
0.0
 10
826.0456895498512
 20
1325.046226628256
 30
0.0
 10
826.1538173343568
 20
1325.066374159657
 30
0.0
  0
LINE
  5
305
330
24E
100
AcDbEntity
  8
P-SANR-FIXT
100
AcDbLine
 10
725.6664074431993
 20
1381.24587873005
 30
0.0
 11
725.6664074431993
 21
1414.09587873005
 31
0.0
  0
LINE
  5
306
330
24E
100
AcDbEntity
  8
P-SANR-FIXT
100
AcDbLine
 10
725.6664074431991
 20
1348.395878730049
 30
0.0
 11
725.6664074431993
 21
1381.245878730049
 31
0.0
  0
LINE
  5
307
330
24E
100
AcDbEntity
  8
P-SANR-FIXT
100
AcDbLine
 10
905.6664074431992
 20
1414.095878730049
 30
0.0
 11
905.666407443199
 21
1381.245878730049
 31
0.0
  0
LINE
  5
308
330
24E
100
AcDbEntity
  8
P-SANR-FIXT
100
AcDbLine
 10
905.666407443199
 20
1381.245878730049
 30
0.0
 11
905.6664074431989
 21
1348.395878730049
 31
0.0
  0
ENDBLK
  5
30A
330
24E
100
AcDbEntity
  8
0
100
AcDbBlockEnd
  0
BLOCK
  5
3E9
330
30C
100
AcDbEntity
  8
0
100
AcDbBlockBegin
  2
Automatic flow rate regulator valve_Caleffi_121 DN15 - 1_2__-V2-Est - Idraulica
 70
     0
 10
0.0
 20
0.0
 30
0.0
  3
Automatic flow rate regulator valve_Caleffi_121 DN15 - 1_2__-V2-Est - Idraulica
  1

  0
LWPOLYLINE
  5
30D
330
30C
100
AcDbEntity
  8
P-SANR-FIXT
100
AcDbPolyline
 90
       17
 70
   128
 43
0.0
 10
1235.71389796593
 20
2238.775223875903
 10
1235.567720405551
 20
2242.827350344414
 10
1235.583701611144
 20
2246.882081087267
 10
1235.76181601619
 20
2250.932929400236
 10
1236.101778675636
 20
2254.973414790155
 10
1236.60304572175
 20
2258.997073342325
 10
1237.264815234187
 20
2262.997468061396
 10
1238.086028522899
 20
2266.968199169191
 10
1239.065371821807
 20
2270.90291434298
 10
1240.201278390547
 20
2274.795318877849
 10
1241.491931020923
 20
2278.639185756874
 10
1242.935264944052
 20
2282.428365613032
 10
1244.52897113355
 20
2286.156796566868
 10
1246.270499999488
 20
2289.818513924211
 10
1248.157065467186
 20
2293.407659718415
 10
1250.185649434343
 20
2296.918492081854
 10
1252.114353943104
 20
2299.982558850012
  0
LWPOLYLINE
  5
30E
330
30C
100
AcDbEntity
  8
P-SANR-FIXT
100
AcDbPolyline
 90
       23
 70
   128
 43
0.0
 10
1203.174966519866
 20
2165.691587264496
 10
1203.174576489322
 20
2169.455875804634
 10
1203.324718163166
 20
2173.217168912504
 10
1203.62515134675
 20
2176.969449321501
 10
1204.07539541107
 20
2180.706714183412
 10
1204.674730061668
 20
2184.422984671702
 10
1205.422196490955
 20
2188.112315546349
 10
1206.316598912096
 20
2191.76880466497
 10
1207.356506472012
 20
2195.386602424984
 10
1208.540255540443
 20
2198.959921121732
 10
1209.865952371398
 20
2202.483044207566
 10
1211.331476132748
 20
2205.950335437107
 10
1212.934482299105
 20
2209.356247884038
 10
1214.672406402557
 20
2212.695332815
 10
1216.542468135277
 20
2215.962248406403
 10
1218.541675797417
 20
2219.151768290206
 10
1220.666831083194
 20
2222.258789914989
 10
1222.914534197491
 20
2225.27834270895
 10
1225.281189294812
 20
2228.205596031754
 10
1227.763010231858
 20
2231.035866902531
 10
1230.356026624559
 20
2233.764627491649
 10
1233.056090199833
 20
2236.387512364269
 10
1235.713897965931
 20
2238.775223875903
  0
LINE
  5
30F
330
30C
100
AcDbEntity
  8
P-SANR-FIXT
100
AcDbLine
 10
1203.174966519867
 20
2165.691587264496
 30
0.0
 11
1203.174966519867
 21
1825.691587264491
 31
0.0
  0
LWPOLYLINE
  5
310
330
30C
100
AcDbEntity
  8
P-SANR-FIXT
100
AcDbPolyline
 90
       29
 70
   128
 43
0.0
 10
1260.864353943104
 20
1639.982558850012
 10
1258.640102033622
 20
1641.55113486948
 10
1256.480355599067
 20
1643.207402548363
 10
1254.388569773013
 20
1644.948712211691
 10
1252.368090966556
 20
1646.772278135464
 10
1250.422151514776
 20
1648.675183003209
 10
1248.553864505683
 20
1650.65438257307
 10
1246.766218799944
 20
1652.706710547941
 10
1245.062074249347
 20
1654.82888364087
 10
1243.444157121639
 20
1657.017506827614
 10
1241.915055739087
 20
1659.269078777955
 10
1240.477216337714
 20
1661.579997457083
 10
1239.132939153839
 20
1663.946565888081
 10
1237.884374744191
 20
1666.3649980663
 10
1236.73352054548
 20
1668.83142501616
 10
1235.682217678922
 20
1671.341900980684
 10
1234.732148004838
 20
1673.892409733868
 10
1233.884831432034
 20
1676.478871005787
 10
1233.141623486276
 20
1679.097147010154
 10
1232.503713141735
 20
1681.743049063899
 10
1231.972120918882
 20
1684.412344288165
 10
1231.547697251873
 20
1687.100762380011
 10
1231.231121128036
 20
1689.80400244399
 10
1231.022899001637
 20
1692.517739872659
 10
1230.92336398366
 20
1695.237633265034
 10
1230.932675308901
 20
1697.959331371897
 10
1231.050818081225
 20
1700.678480056878
 10
1231.277603297399
 20
1703.390729262133
 10
1231.281075621255
 20
1703.424103942577
  0
LWPOLYLINE
  5
311
330
30C
100
AcDbEntity
  8
P-SANR-FIXT
100
AcDbPolyline
 90
       19
 70
   128
 43
0.0
 10
1231.281075621255
 20
1703.424103942577
 10
1227.403771680175
 20
1709.714730719741
 10
1223.781127145126
 20
1716.155376469492
 10
1220.418937474576
 20
1722.735737532559
 10
1217.322581454766
 20
1729.445286734979
 10
1214.49701259481
 20
1736.273290229321
 10
1211.946751202126
 20
1743.208824666556
 10
1209.675877150917
 20
1750.240794671088
 10
1207.688023355236
 20
1757.357950590983
 10
1205.986369957105
 20
1764.548906495015
 10
1204.57363923896
 20
1771.802158387725
 10
1203.452091268583
 20
1779.106102613364
 10
1202.623520283477
 20
1786.449054419261
 10
1202.089251820465
 20
1793.819266648942
 10
1201.850140595118
 20
1801.204948535065
 10
1201.906569134387
 20
1808.594284562142
 10
1202.258447164647
 20
1815.975453368836
 10
1202.905211756114
 20
1823.336646659623
 10
1203.174966519866
 20
1825.691587264491
  0
LINE
  5
312
330
30C
100
AcDbEntity
  8
P-SANR-FIXT
100
AcDbLine
 10
1252.114353943103
 20
2299.982558850011
 30
0.0
 11
1292.114353943102
 21
2299.982558850011
 31
0.0
  0
SPLINE
  5
313
330
30C
100
AcDbEntity
  8
P-SANR-FIXT
100
AcDbSpline
210
0.0
220
0.0
230
1.0
 70
    24
 71
     3
 72
    11
 73
     7
 74
     0
 42
0.000000001
 43
0.0000000001
 40
-1.0
 40
-1.0
 40
-1.0
 40
-1.0
 40
-0.75
 40
-0.5
 40
-0.25
 40
0.0
 40
0.0
 40
0.0
 40
0.0
 10
1292.41346527113
 20
2238.775223875901
 30
0.0
 10
1292.41346527113
 20
2244.176765867192
 30
0.0
 10
1292.41346527113
 20
2254.87654101577
 30
0.0
 10
1292.41346527113
 20
2270.796361329123
 30
0.0
 10
1292.41346527113
 20
2286.04608695548
 30
0.0
 10
1292.41346527113
 20
2295.446954956855
 30
0.0
 10
1292.41346527113
 20
2299.982558850011
 30
0.0
  0
LINE
  5
314
330
30C
100
AcDbEntity
  8
P-SANR-FIXT
100
AcDbLine
 10
1292.114353943102
 20
2299.982558850011
 30
0.0
 11
1292.41346527113
 21
2299.982558850011
 31
0.0
  0
LINE
  5
315
330
30C
100
AcDbEntity
  8
P-SANR-FIXT
100
AcDbLine
 10
1235.713897965929
 20
2238.775223875902
 30
0.0
 11
1292.114353943102
 21
2238.775223875902
 31
0.0
  0
SPLINE
  5
316
330
30C
100
AcDbEntity
  8
P-SANR-FIXT
100
AcDbSpline
210
0.0
220
0.0
230
1.0
 70
    24
 71
     3
 72
    12
 73
     8
 74
     0
 42
0.000000001
 43
0.0000000001
 40
-0.9137813364232334
 40
-0.9137813364232334
 40
-0.9137813364232334
 40
-0.9137813364232334
 40
-0.85
 40
-0.7
 40
-0.4
 40
-0.2
 40
0.0
 40
0.0
 40
0.0
 40
0.0
 10
1292.413465271129
 20
2172.836212580552
 30
0.0
 10
1292.413465271129
 20
2174.5882778294
 30
0.0
 10
1292.413465271129
 20
2180.439427604282
 30
0.0
 10
1292.413465271129
 20
2194.377067003337
 30
0.0
 10
1292.413465271129
 20
2211.188309219091
 30
0.0
 10
1292.41346527113
 20
2227.249275805536
 30
0.0
 10
1292.41346527113
 20
2235.129321552294
 30
0.0
 10
1292.41346527113
 20
2238.775223875901
 30
0.0
  0
LINE
  5
317
330
30C
100
AcDbEntity
  8
P-SANR-FIXT
100
AcDbLine
 10
1292.114353943102
 20
2238.775223875901
 30
0.0
 11
1292.413465271129
 21
2238.775223875901
 31
0.0
  0
LINE
  5
318
330
30C
100
AcDbEntity
  8
P-SANR-FIXT
100
AcDbLine
 10
1203.174966519864
 20
2165.691587264495
 30
0.0
 11
1279.453750261289
 21
2165.691587264495
 31
0.0
  0
LINE
  5
319
330
30C
100
AcDbEntity
  8
P-SANR-FIXT
100
AcDbLine
 10
1292.41346527113
 20
1825.691587264497
 30
0.0
 11
1292.41346527113
 21
1827.159324160414
 31
0.0
  0
LINE
  5
31A
330
30C
100
AcDbEntity
  8
P-SANR-FIXT
100
AcDbLine
 10
1292.41346527113
 20
1912.805881169247
 30
0.0
 11
1292.41346527113
 21
2087.159236530775
 31
0.0
  0
LINE
  5
31B
330
30C
100
AcDbEntity
  8
P-SANR-FIXT
100
AcDbLine
 10
1292.114353943102
 20
1703.424103942576
 30
0.0
 11
1231.281075621253
 21
1703.424103942576
 31
0.0
  0
SPLINE
  5
31C
330
30C
100
AcDbEntity
  8
P-SANR-FIXT
100
AcDbSpline
210
0.0
220
0.0
230
1.0
 70
    24
 71
     3
 72
    17
 73
    13
 74
     0
 42
0.000000001
 43
0.0000000001
 40
-1.0
 40
-1.0
 40
-1.0
 40
-1.0
 40
-0.85
 40
-0.775
 40
-0.7
 40
-0.625
 40
-0.55
 40
-0.475
 40
-0.4
 40
-0.3
 40
-0.2
 40
0.0
 40
0.0
 40
0.0
 40
0.0
 10
1292.41346527113
 20
1639.98255885001
 30
0.0
 10
1292.41346527113
 20
1642.080571288547
 30
0.0
 10
1292.41346527113
 20
1645.53702133023
 30
0.0
 10
1292.41346527113
 20
1650.747079228765
 30
0.0
 10
1292.41346527113
 20
1655.012334111282
 30
0.0
 10
1292.41346527113
 20
1659.543573955877
 30
0.0
 10
1292.41346527113
 20
1664.264283943074
 30
0.0
 10
1292.41346527113
 20
1669.2728191259
 30
0.0
 10
1292.41346527113
 20
1674.968968660582
 30
0.0
 10
1292.41346527113
 20
1681.472074397091
 30
0.0
 10
1292.41346527113
 20
1691.169326395393
 30
0.0
 10
1292.41346527113
 20
1698.473167461892
 30
0.0
 10
1292.41346527113
 20
1703.424103942575
 30
0.0
  0
LINE
  5
31D
330
30C
100
AcDbEntity
  8
P-SANR-FIXT
100
AcDbLine
 10
1292.41346527113
 20
1703.424103942575
 30
0.0
 11
1292.114353943102
 21
1703.424103942575
 31
0.0
  0
LINE
  5
31E
330
30C
100
AcDbEntity
  8
P-SANR-FIXT
100
AcDbLine
 10
1260.864353943102
 20
1639.982558850011
 30
0.0
 11
1292.114353943102
 21
1639.982558850011
 31
0.0
  0
LINE
  5
31F
330
30C
100
AcDbEntity
  8
P-SANR-FIXT
100
AcDbLine
 10
1292.114353943102
 20
1639.982558850011
 30
0.0
 11
1292.41346527113
 21
1639.982558850011
 31
0.0
  0
LINE
  5
320
330
30C
100
AcDbEntity
  8
P-SANR-FIXT
100
AcDbLine
 10
1203.174966519864
 20
1825.69158726449
 30
0.0
 11
1292.114353943101
 21
1825.69158726449
 31
0.0
  0
SPLINE
  5
321
330
30C
100
AcDbEntity
  8
P-SANR-FIXT
100
AcDbSpline
210
0.0
220
0.0
230
1.0
 70
    24
 71
     3
 72
    12
 73
     8
 74
     0
 42
0.000000001
 43
0.0000000001
 40
-1.0
 40
-1.0
 40
-1.0
 40
-1.0
 40
-0.8333333333333332
 40
-0.6666666666666666
 40
-0.3333333333333333
 40
-0.1666666666666666
 40
0.0
 40
0.0
 40
0.0
 40
0.0
 10
1292.41346527113
 20
1703.424103942575
 30
0.0
 10
1292.41346527113
 20
1709.431180820721
 30
0.0
 10
1292.41346527113
 20
1721.793348874964
 30
0.0
 10
1292.413465271129
 20
1748.068740926263
 30
0.0
 10
1292.413465271129
 20
1775.955222512221
 30
0.0
 10
1292.413465271129
 20
1804.430967914555
 30
0.0
 10
1292.413465271129
 20
1818.601305731031
 30
0.0
 10
1292.413465271129
 20
1825.691587264497
 30
0.0
  0
LINE
  5
322
330
30C
100
AcDbEntity
  8
P-SANR-FIXT
100
AcDbLine
 10
1292.114353943102
 20
1825.691587264497
 30
0.0
 11
1292.413465271129
 21
1825.691587264497
 31
0.0
  0
LINE
  5
323
330
30C
100
AcDbEntity
  8
P-SANR-FIXT
100
AcDbLine
 10
1315.129703384943
 20
1887.871599005321
 30
0.0
 11
1296.099004501265
 21
1898.858978128679
 31
0.0
  0
ARC
  5
324
330
30C
100
AcDbEntity
  8
P-SANR-FIXT
100
AcDbCircle
 10
1292.114353943101
 20
1869.982602664814
 30
0.0
 40
29.15000000001327
100
AcDbArc
 50
82.14337228275358
 51
97.85662771724734
  0
LINE
  5
325
330
30C
100
AcDbEntity
  8
P-SANR-FIXT
100
AcDbLine
 10
1288.129703384936
 20
1898.858978128679
 30
0.0
 11
1269.099004501258
 21
1887.87159900532
 31
0.0
  0
ARC
  5
326
330
30C
100
AcDbEntity
  8
P-SANR-FIXT
100
AcDbCircle
 10
1292.114353943101
 20
1869.982602664814
 30
0.0
 40
29.15000000001339
100
AcDbArc
 50
142.143372282754
 51
157.8566277172478
  0
LINE
  5
327
330
30C
100
AcDbEntity
  8
P-SANR-FIXT
100
AcDbLine
 10
1265.114353943094
 20
1880.969981788171
 30
0.0
 11
1265.114353943095
 21
1858.995223541455
 31
0.0
  0
ARC
  5
328
330
30C
100
AcDbEntity
  8
P-SANR-FIXT
100
AcDbCircle
 10
1292.114353943101
 20
1869.982602664814
 30
0.0
 40
29.15000000001319
100
AcDbArc
 50
202.1433722827541
 51
217.8566277172481
  0
LINE
  5
329
330
30C
100
AcDbEntity
  8
P-SANR-FIXT
100
AcDbLine
 10
1269.099004501259
 20
1852.093606324307
 30
0.0
 11
1288.129703384937
 21
1841.106227200949
 31
0.0
  0
ARC
  5
32A
330
30C
100
AcDbEntity
  8
P-SANR-FIXT
100
AcDbCircle
 10
1292.114353943101
 20
1869.982602664814
 30
0.0
 40
29.15000000001347
100
AcDbArc
 50
262.1433722827537
 51
277.8566277172478
  0
LINE
  5
32B
330
30C
100
AcDbEntity
  8
P-SANR-FIXT
100
AcDbLine
 10
1296.099004501266
 20
1841.106227200949
 30
0.0
 11
1315.129703384944
 21
1852.093606324308
 31
0.0
  0
ARC
  5
32C
330
30C
100
AcDbEntity
  8
P-SANR-FIXT
100
AcDbCircle
 10
1292.114353943101
 20
1869.982602664814
 30
0.0
 40
29.15000000001325
100
AcDbArc
 50
322.1433722827537
 51
337.8566277172474
  0
LINE
  5
32D
330
30C
100
AcDbEntity
  8
P-SANR-FIXT
100
AcDbLine
 10
1319.114353943108
 20
1858.995223541456
 30
0.0
 11
1319.114353943108
 21
1880.969981788173
 31
0.0
  0
ARC
  5
32E
330
30C
100
AcDbEntity
  8
P-SANR-FIXT
100
AcDbCircle
 10
1292.114353943101
 20
1869.982602664814
 30
0.0
 40
29.15000000001336
100
AcDbArc
 50
22.14337228275323
 51
37.85662771724763
  0
ARC
  5
32F
330
30C
100
AcDbEntity
  8
P-SANR-FIXT
100
AcDbCircle
 10
1292.114353943101
 20
1869.982602664831
 30
0.0
 40
19.05000000000007
100
AcDbArc
 50
90.00000000000033
 51
269.9999999999999
  0
ARC
  5
330
330
30C
100
AcDbEntity
  8
P-SANR-FIXT
100
AcDbCircle
 10
1292.114353943101
 20
1869.982602664831
 30
0.0
 40
19.04999999999995
100
AcDbArc
 50
269.9999999999997
 51
89.99999999999934
  0
ARC
  5
331
330
30C
100
AcDbEntity
  8
P-SANR-FIXT
100
AcDbCircle
 10
1292.114353943101
 20
1869.982602664814
 30
0.0
 40
29.15000000001294
100
AcDbArc
 50
359.9999999999994
 51
22.14337228275327
  0
ARC
  5
332
330
30C
100
AcDbEntity
  8
P-SANR-FIXT
100
AcDbCircle
 10
1292.114353943101
 20
1869.982602664814
 30
0.0
 40
29.1500000000128
100
AcDbArc
 50
337.8566277172477
 51
0.0
  0
ARC
  5
333
330
30C
100
AcDbEntity
  8
P-SANR-FIXT
100
AcDbCircle
 10
1292.114353943101
 20
1869.982602664814
 30
0.0
 40
29.15000000001272
100
AcDbArc
 50
277.856627717248
 51
322.1433722827539
  0
ARC
  5
334
330
30C
100
AcDbEntity
  8
P-SANR-FIXT
100
AcDbCircle
 10
1292.114353943101
 20
1869.982602664814
 30
0.0
 40
29.15000000001273
100
AcDbArc
 50
217.8566277172481
 51
262.1433722827544
  0
ARC
  5
335
330
30C
100
AcDbEntity
  8
P-SANR-FIXT
100
AcDbCircle
 10
1292.114353943101
 20
1869.982602664814
 30
0.0
 40
29.1500000000126
100
AcDbArc
 50
180.0
 51
202.1433722827539
  0
ARC
  5
336
330
30C
100
AcDbEntity
  8
P-SANR-FIXT
100
AcDbCircle
 10
1292.114353943101
 20
1869.982602664814
 30
0.0
 40
29.15000000001268
100
AcDbArc
 50
157.8566277172482
 51
179.9999999999996
  0
ARC
  5
337
330
30C
100
AcDbEntity
  8
P-SANR-FIXT
100
AcDbCircle
 10
1292.114353943101
 20
1869.982602664814
 30
0.0
 40
29.15000000001266
100
AcDbArc
 50
97.85662771724751
 51
142.1433722827537
  0
ARC
  5
338
330
30C
100
AcDbEntity
  8
P-SANR-FIXT
100
AcDbCircle
 10
1292.114353943101
 20
1869.982602664814
 30
0.0
 40
29.15000000001285
100
AcDbArc
 50
37.85662771724711
 51
82.14337228275352
  0
LINE
  5
339
330
30C
100
AcDbEntity
  8
P-SANR-FIXT
100
AcDbLine
 10
1306.114353943102
 20
1693.982558849995
 30
0.0
 11
1306.114353943102
 21
1706.074640691403
 31
0.0
  0
LINE
  5
33A
330
30C
100
AcDbEntity
  8
P-SANR-FIXT
100
AcDbLine
 10
1306.1143539431
 20
1693.982558849995
 30
0.0
 11
1305.970760403659
 21
1693.982558849995
 31
0.0
  0
LINE
  5
33B
330
30C
100
AcDbEntity
  8
P-SANR-FIXT
100
AcDbLine
 10
1305.970760403659
 20
1693.982558849995
 30
0.0
 11
1300.774607980901
 21
1693.982558849995
 31
0.0
  0
LINE
  5
33C
330
30C
100
AcDbEntity
  8
P-SANR-FIXT
100
AcDbLine
 10
1300.774607980901
 20
1693.982558849995
 30
0.0
 11
1297.310506365859
 21
1693.982558849995
 31
0.0
  0
LINE
  5
33D
330
30C
100
AcDbEntity
  8
P-SANR-FIXT
100
AcDbLine
 10
1297.310506365859
 20
1693.982558849995
 30
0.0
 11
1292.41346527113
 21
1693.982558849995
 31
0.0
  0
LINE
  5
33E
330
30C
100
AcDbEntity
  8
P-SANR-FIXT
100
AcDbLine
 10
1297.476829528948
 20
1706.074640691402
 30
0.0
 11
1298.725047865714
 21
1706.074640691402
 31
0.0
  0
LINE
  5
33F
330
30C
100
AcDbEntity
  8
P-SANR-FIXT
100
AcDbLine
 10
1299.912368486057
 20
1706.074640691402
 30
0.0
 11
1300.774607980901
 21
1706.074640691402
 31
0.0
  0
LINE
  5
340
330
30C
100
AcDbEntity
  8
P-SANR-FIXT
100
AcDbLine
 10
1305.94796364348
 20
1706.074640691402
 30
0.0
 11
1305.970760403659
 21
1706.074640691402
 31
0.0
  0
LINE
  5
341
330
30C
100
AcDbEntity
  8
P-SANR-FIXT
100
AcDbLine
 10
1305.970760403659
 20
1706.074640691402
 30
0.0
 11
1306.000741505307
 21
1706.074640691402
 31
0.0
  0
LINE
  5
342
330
30C
100
AcDbEntity
  8
P-SANR-FIXT
100
AcDbLine
 10
1297.310506365859
 20
1693.982558849995
 30
0.0
 11
1297.310506365859
 21
1706.074640691402
 31
0.0
  0
LINE
  5
343
330
30C
100
AcDbEntity
  8
P-SANR-FIXT
100
AcDbLine
 10
1300.774607980901
 20
1693.982558849995
 30
0.0
 11
1300.774607980901
 21
1706.074640691402
 31
0.0
  0
LINE
  5
344
330
30C
100
AcDbEntity
  8
P-SANR-FIXT
100
AcDbLine
 10
1305.970760403659
 20
1693.982558849995
 30
0.0
 11
1305.970760403659
 21
1706.074640691402
 31
0.0
  0
LINE
  5
345
330
30C
100
AcDbEntity
  8
P-SANR-FIXT
100
AcDbLine
 10
1347.614353943105
 20
1776.982558849933
 30
0.0
 11
1347.614353943105
 21
1780.709662055681
 31
0.0
  0
LINE
  5
346
330
30C
100
AcDbEntity
  8
P-SANR-FIXT
100
AcDbLine
 10
1355.114353943105
 20
1780.709662055681
 30
0.0
 11
1355.114353943105
 21
1784.982558849997
 31
0.0
  0
LINE
  5
347
330
30C
100
AcDbEntity
  8
P-SANR-FIXT
100
AcDbLine
 10
1306.114353943104
 20
1706.074640691403
 30
0.0
 11
1306.114353943104
 21
1707.182558849932
 31
0.0
  0
LWPOLYLINE
  5
348
330
30C
100
AcDbEntity
  8
P-SANR-FIXT
100
AcDbPolyline
 90
        3
 70
   128
 43
0.0
 10
1277.591732653962
 20
1707.178984429779
 10
1277.573823838637
 20
1707.178984429779
 10
1277.572976370497
 20
1707.178984429779
  0
LINE
  5
349
330
30C
100
AcDbEntity
  8
P-SANR-FIXT
100
AcDbLine
 10
1277.584607921557
 20
1707.178984429779
 30
0.0
 11
1277.601641340487
 21
1707.178984429779
 31
0.0
  0
LWPOLYLINE
  5
34A
330
30C
100
AcDbEntity
  8
P-SANR-FIXT
100
AcDbPolyline
 90
       25
 70
   128
 43
0.0
 10
1340.114353943105
 20
1724.482558849932
 10
1339.139986332351
 20
1723.163525429239
 10
1338.113650843495
 20
1721.884511406599
 10
1337.03698939438
 20
1720.647562931609
 10
1335.911724413648
 20
1719.454658857959
 10
1334.739656085226
 20
1718.307707577694
 10
1333.522659468409
 20
1717.208543968194
 10
1332.262681498175
 20
1716.158926456757
 10
1330.961737870492
 20
1715.160534207495
 10
1329.621909817647
 20
1714.214964435029
 10
1328.245340778709
 20
1713.323729849284
 10
1326.834232970488
 20
1712.488256235476
 10
1325.390843864456
 20
1711.709880173163
 10
1323.917482575278
 20
1710.989846897999
 10
1322.416506166714
 20
1710.329308309627
 10
1320.890315880829
 20
1709.729321128881
 10
1319.341353296508
 20
1709.190845207259
 10
1317.77209642346
 20
1708.714741991366
 10
1316.185055737924
 20
1708.301773144786
 10
1314.582770166447
 20
1707.952599329576
 10
1312.96780302414
 20
1707.667779149356
 10
1311.342737913922
 20
1707.447768255656
 10
1309.710174593309
 20
1707.292918618971
 10
1308.072724815352
 20
1707.203477965688
 10
1306.655731515712
 20
1707.178984429779
  0
LWPOLYLINE
  5
34B
330
30C
100
AcDbEntity
  8
P-SANR-FIXT
100
AcDbPolyline
 90
       41
 70
   128
 43
0.0
 10
1292.413465271132
 20
1707.178984429779
 10
1292.695853950389
 20
1707.178984429779
 10
1293.276423681709
 20
1707.178984429779
 10
1293.855134349343
 20
1707.178984429779
 10
1294.431060139673
 20
1707.178984429779
 10
1295.003279694293
 20
1707.178984429779
 10
1295.570877583982
 20
1707.178984429779
 10
1296.132945773198
 20
1707.178984429779
 10
1296.68858507274
 20
1707.178984429779
 10
1297.236906578258
 20
1707.178984429779
 10
1297.777033092313
 20
1707.178984429779
 10
1298.308100527704
 20
1707.178984429779
 10
1298.82925928982
 20
1707.178984429779
 10
1299.33967563582
 20
1707.178984429779
 10
1299.83853300843
 20
1707.178984429779
 10
1300.325033342273
 20
1707.178984429779
 10
1300.798398340595
 20
1707.178984429779
 10
1301.257870720379
 20
1707.178984429779
 10
1301.702715423832
 20
1707.178984429779
 10
1302.132220794324
 20
1707.178984429779
 10
1302.545699714884
 20
1707.178984429779
 10
1302.942490707445
 20
1707.178984429779
 10
1303.321958991063
 20
1707.178984429779
 10
1303.683497497432
 20
1707.178984429779
 10
1304.026527842066
 20
1707.178984429779
 10
1304.35050124959
 20
1707.178984429779
 10
1304.654899431663
 20
1707.178984429779
 10
1304.939235416127
 20
1707.178984429779
 10
1305.203054326064
 20
1707.178984429779
 10
1305.445934107495
 20
1707.178984429779
 10
1305.667486204582
 20
1707.178984429779
 10
1305.867356181231
 20
1707.178984429779
 10
1306.045224288117
 20
1707.178984429779
 10
1306.200805974211
 20
1707.178984429779
 10
1306.333852342004
 20
1707.178984429779
 10
1306.444150545691
 20
1707.178984429779
 10
1306.531524131673
 20
1707.178984429779
 10
1306.595833320854
 20
1707.178984429779
 10
1306.636975232247
 20
1707.178984429779
 10
1306.654884047571
 20
1707.178984429779
 10
1306.655731515712
 20
1707.178984429779
  0
LWPOLYLINE
  5
34C
330
30C
100
AcDbEntity
  8
P-SANR-FIXT
100
AcDbPolyline
 90
       11
 70
   128
 43
0.0
 10
1306.655731515712
 20
1707.178984429779
 10
1306.644099964652
 20
1707.178984429779
 10
1306.60922391947
 20
1707.178984429779
 10
1306.551159174401
 20
1707.178984429779
 10
1306.469998620649
 20
1707.178984429779
 10
1306.365872097788
 20
1707.178984429779
 10
1306.23894618604
 20
1707.178984429779
 10
1306.089423939789
 20
1707.178984429779
 10
1305.917544562733
 20
1707.178984429779
 10
1305.72358302521
 20
1707.178984429779
 10
1305.651946397267
 20
1707.178984429779
  0
LINE
  5
34D
330
30C
100
AcDbEntity
  8
P-SANR-FIXT
100
AcDbLine
 10
1340.114353943105
 20
1724.482558849932
 30
0.0
 11
1340.114353943105
 21
1762.982558849932
 31
0.0
  0
LINE
  5
34E
330
30C
100
AcDbEntity
  8
P-SANR-FIXT
100
AcDbLine
 10
1347.614353943103
 20
1776.982558849931
 30
0.0
 11
1292.413742923276
 21
1776.982558849931
 31
0.0
  0
LINE
  5
34F
330
30C
100
AcDbEntity
  8
P-SANR-FIXT
100
AcDbLine
 10
1355.114353943103
 20
1780.709662055681
 30
0.0
 11
1292.413743248418
 21
1780.709662055681
 31
0.0
  0
LINE
  5
350
330
30C
100
AcDbEntity
  8
P-SANR-FIXT
100
AcDbLine
 10
1306.114353943102
 20
1706.074640691402
 30
0.0
 11
1306.000650845374
 21
1706.074640691402
 31
0.0
  0
LINE
  5
351
330
30C
100
AcDbEntity
  8
P-SANR-FIXT
100
AcDbLine
 10
1305.964640026679
 20
1706.074640691402
 30
0.0
 11
1300.79471907413
 21
1706.074640691402
 31
0.0
  0
LINE
  5
352
330
30C
100
AcDbEntity
  8
P-SANR-FIXT
100
AcDbLine
 10
1300.781133803575
 20
1706.074640691402
 30
0.0
 11
1299.122065522044
 21
1706.074640691402
 31
0.0
  0
LINE
  5
353
330
30C
100
AcDbEntity
  8
P-SANR-FIXT
100
AcDbLine
 10
1298.713908258666
 20
1706.074640691402
 30
0.0
 11
1297.313073052487
 21
1706.074640691402
 31
0.0
  0
LINE
  5
354
330
30C
100
AcDbEntity
  8
P-SANR-FIXT
100
AcDbLine
 10
1297.291198090995
 20
1706.074640691402
 30
0.0
 11
1292.413923433507
 21
1706.074640691402
 31
0.0
  0
LINE
  5
355
330
30C
100
AcDbEntity
  8
P-SANR-FIXT
100
AcDbLine
 10
1306.114353943101
 20
1707.182558849932
 30
0.0
 11
1292.413923433507
 21
1707.182558849932
 31
0.0
  0
LINE
  5
356
330
30C
100
AcDbEntity
  8
P-SANR-FIXT
100
AcDbLine
 10
1340.114353943102
 20
1724.482558849931
 30
0.0
 11
1292.413742434068
 21
1724.482558849931
 31
0.0
  0
LINE
  5
357
330
30C
100
AcDbEntity
  8
P-SANR-FIXT
100
AcDbLine
 10
1346.614353943097
 20
1762.982558849933
 30
0.0
 11
1346.614353943097
 21
1776.982558849933
 31
0.0
  0
LINE
  5
358
330
30C
100
AcDbEntity
  8
P-SANR-FIXT
100
AcDbLine
 10
1346.614353943094
 20
1762.982558849932
 30
0.0
 11
1346.216205389768
 21
1762.982558849932
 31
0.0
  0
LINE
  5
359
330
30C
100
AcDbEntity
  8
P-SANR-FIXT
100
AcDbLine
 10
1346.216205389768
 20
1762.982558849932
 30
0.0
 11
1335.019853410078
 21
1762.982558849932
 31
0.0
  0
LINE
  5
35A
330
30C
100
AcDbEntity
  8
P-SANR-FIXT
100
AcDbLine
 10
1335.019853410078
 20
1762.982558849932
 30
0.0
 11
1325.720426541501
 21
1762.982558849932
 31
0.0
  0
LINE
  5
35B
330
30C
100
AcDbEntity
  8
P-SANR-FIXT
100
AcDbLine
 10
1325.720426541501
 20
1762.982558849932
 30
0.0
 11
1298.690041743013
 21
1762.982558849932
 31
0.0
  0
LINE
  5
35C
330
30C
100
AcDbEntity
  8
P-SANR-FIXT
100
AcDbLine
 10
1298.690041743013
 20
1762.982558849932
 30
0.0
 11
1292.41364616269
 21
1762.982558849932
 31
0.0
  0
LINE
  5
35D
330
30C
100
AcDbEntity
  8
P-SANR-FIXT
100
AcDbLine
 10
1298.690041743013
 20
1776.982558849931
 30
0.0
 11
1298.690041743013
 21
1762.982558849932
 31
0.0
  0
LINE
  5
35E
330
30C
100
AcDbEntity
  8
P-SANR-FIXT
100
AcDbLine
 10
1335.019853410078
 20
1776.982558849931
 30
0.0
 11
1335.019853410078
 21
1762.982558849932
 31
0.0
  0
LINE
  5
35F
330
30C
100
AcDbEntity
  8
P-SANR-FIXT
100
AcDbLine
 10
1325.720426541501
 20
1762.982558849932
 30
0.0
 11
1325.720426541501
 21
1776.982558849931
 31
0.0
  0
LINE
  5
360
330
30C
100
AcDbEntity
  8
P-SANR-FIXT
100
AcDbLine
 10
1346.216205389768
 20
1762.982558849932
 30
0.0
 11
1346.216205389768
 21
1776.982558849931
 31
0.0
  0
LINE
  5
361
330
30C
100
AcDbEntity
  8
P-SANR-FIXT
100
AcDbLine
 10
1306.753775360906
 20
1676.763137432168
 30
0.0
 11
1306.753775360906
 21
1690.28255884997
 31
0.0
  0
LINE
  5
362
330
30C
100
AcDbEntity
  8
P-SANR-FIXT
100
AcDbLine
 10
1307.534353943103
 20
1666.482558849954
 30
0.0
 11
1307.534353943103
 21
1676.763137432168
 31
0.0
  0
LINE
  5
363
330
30C
100
AcDbEntity
  8
P-SANR-FIXT
100
AcDbLine
 10
1303.609317835696
 20
1690.28255884997
 30
0.0
 11
1303.609317835696
 21
1693.982558849995
 31
0.0
  0
LINE
  5
364
330
30C
100
AcDbEntity
  8
P-SANR-FIXT
100
AcDbLine
 10
1306.614353943102
 20
1664.982558849955
 30
0.0
 11
1306.614353943102
 21
1666.482558849954
 31
0.0
  0
LINE
  5
365
330
30C
100
AcDbEntity
  8
P-SANR-FIXT
100
AcDbLine
 10
1303.864353943103
 20
1661.982558849954
 30
0.0
 11
1303.864353943103
 21
1664.982558849955
 31
0.0
  0
LINE
  5
366
330
30C
100
AcDbEntity
  8
P-SANR-FIXT
100
AcDbLine
 10
1305.463513728164
 20
1659.982558849983
 30
0.0
 11
1305.463513728164
 21
1661.982558849954
 31
0.0
  0
LINE
  5
367
330
30C
100
AcDbEntity
  8
P-SANR-FIXT
100
AcDbLine
 10
1306.91435394309
 20
1650.982558849983
 30
0.0
 11
1306.91435394309
 21
1659.982558849983
 31
0.0
  0
LINE
  5
368
330
30C
100
AcDbEntity
  8
P-SANR-FIXT
100
AcDbLine
 10
1284.614353943106
 20
1639.982558850012
 30
0.0
 11
1284.614353943106
 21
1628.982558849983
 31
0.0
  0
LINE
  5
369
330
30C
100
AcDbEntity
  8
P-SANR-FIXT
100
AcDbLine
 10
1299.614353943103
 20
1628.982558849983
 30
0.0
 11
1299.614353943103
 21
1650.982558849983
 31
0.0
  0
LINE
  5
36A
330
30C
100
AcDbEntity
  8
P-SANR-FIXT
100
AcDbLine
 10
1284.614353943106
 20
1628.982558849983
 30
0.0
 11
1285.614353943105
 21
1627.982558849982
 31
0.0
  0
LINE
  5
36B
330
30C
100
AcDbEntity
  8
P-SANR-FIXT
100
AcDbLine
 10
1298.614353943103
 20
1627.982558849982
 30
0.0
 11
1299.614353943103
 21
1628.982558849983
 31
0.0
  0
LINE
  5
36C
330
30C
100
AcDbEntity
  8
P-SANR-FIXT
100
AcDbLine
 10
1292.114353943102
 20
1627.982558849982
 30
0.0
 11
1285.614353943103
 21
1627.982558849982
 31
0.0
  0
LINE
  5
36D
330
30C
100
AcDbEntity
  8
P-SANR-FIXT
100
AcDbLine
 10
1298.614353943101
 20
1627.982558849982
 30
0.0
 11
1292.114353943102
 21
1627.982558849982
 31
0.0
  0
LINE
  5
36E
330
30C
100
AcDbEntity
  8
P-SANR-FIXT
100
AcDbLine
 10
1306.753775360903
 20
1690.28255884997
 30
0.0
 11
1292.413925387259
 21
1690.28255884997
 31
0.0
  0
LINE
  5
36F
330
30C
100
AcDbEntity
  8
P-SANR-FIXT
100
AcDbLine
 10
1307.533549952363
 20
1676.763137432167
 30
0.0
 11
1292.410573407702
 21
1676.763137432167
 31
0.0
  0
LINE
  5
370
330
30C
100
AcDbEntity
  8
P-SANR-FIXT
100
AcDbLine
 10
1292.413927450758
 20
1666.482558849954
 30
0.0
 11
1307.534353943101
 21
1666.482558849954
 31
0.0
  0
LINE
  5
371
330
30C
100
AcDbEntity
  8
P-SANR-FIXT
100
AcDbLine
 10
1292.413924983196
 20
1664.982558849954
 30
0.0
 11
1306.6143539431
 21
1664.982558849954
 31
0.0
  0
LINE
  5
372
330
30C
100
AcDbEntity
  8
P-SANR-FIXT
100
AcDbLine
 10
1292.413921149621
 20
1661.982558849954
 30
0.0
 11
1305.463513728162
 21
1661.982558849954
 31
0.0
  0
LINE
  5
373
330
30C
100
AcDbEntity
  8
P-SANR-FIXT
100
AcDbLine
 10
1292.413925838562
 20
1659.982558849982
 30
0.0
 11
1306.914353943088
 21
1659.982558849982
 31
0.0
  0
LINE
  5
374
330
30C
100
AcDbEntity
  8
P-SANR-FIXT
100
AcDbLine
 10
1292.413925838562
 20
1650.982558849982
 30
0.0
 11
1306.914353943088
 21
1650.982558849982
 31
0.0
  0
LINE
  5
375
330
30C
100
AcDbEntity
  8
P-SANR-FIXT
100
AcDbLine
 10
1284.614353943104
 20
1628.982558849982
 30
0.0
 11
1292.114353943102
 21
1628.982558849982
 31
0.0
  0
LINE
  5
376
330
30C
100
AcDbEntity
  8
P-SANR-FIXT
100
AcDbLine
 10
1292.114353943102
 20
1628.982558849982
 30
0.0
 11
1299.614353943101
 21
1628.982558849982
 31
0.0
  0
LINE
  5
377
330
30C
100
AcDbEntity
  8
P-SANR-FIXT
100
AcDbLine
 10
1292.41346527113
 20
2244.482558850026
 30
0.0
 11
1302.208898640336
 21
2244.482558850026
 31
0.0
  0
LINE
  5
378
330
30C
100
AcDbEntity
  8
P-SANR-FIXT
100
AcDbLine
 10
1302.208898640336
 20
2244.482558850026
 30
0.0
 11
1303.184432550247
 21
2244.482558850026
 31
0.0
  0
LINE
  5
379
330
30C
100
AcDbEntity
  8
P-SANR-FIXT
100
AcDbLine
 10
1303.184432550247
 20
2244.482558850026
 30
0.0
 11
1310.268362350487
 21
2244.482558850026
 31
0.0
  0
LINE
  5
37A
330
30C
100
AcDbEntity
  8
P-SANR-FIXT
100
AcDbLine
 10
1310.324474878999
 20
2244.482558850026
 30
0.0
 11
1317.460274567059
 21
2244.482558850026
 31
0.0
  0
LINE
  5
37B
330
30C
100
AcDbEntity
  8
P-SANR-FIXT
100
AcDbLine
 10
1317.460274567059
 20
2244.482558850026
 30
0.0
 11
1317.864353943099
 21
2244.482558850026
 31
0.0
  0
LINE
  5
37C
330
30C
100
AcDbEntity
  8
P-SANR-FIXT
100
AcDbLine
 10
1317.864353943099
 20
2232.81052462314
 30
0.0
 11
1317.460274567059
 21
2232.81052462314
 31
0.0
  0
LINE
  5
37D
330
30C
100
AcDbEntity
  8
P-SANR-FIXT
100
AcDbLine
 10
1303.184432550247
 20
2232.81052462314
 30
0.0
 11
1302.208898640336
 21
2232.81052462314
 31
0.0
  0
LINE
  5
37E
330
30C
100
AcDbEntity
  8
P-SANR-FIXT
100
AcDbLine
 10
1302.208898640336
 20
2232.81052462314
 30
0.0
 11
1302.058696949834
 21
2232.81052462314
 31
0.0
  0
LINE
  5
37F
330
30C
100
AcDbEntity
  8
P-SANR-FIXT
100
AcDbLine
 10
1302.208898640336
 20
2232.81052462314
 30
0.0
 11
1302.208898640336
 21
2244.482558850026
 31
0.0
  0
LINE
  5
380
330
30C
100
AcDbEntity
  8
P-SANR-FIXT
100
AcDbLine
 10
1303.184432550247
 20
2232.81052462314
 30
0.0
 11
1303.184432550247
 21
2244.482558850026
 31
0.0
  0
LINE
  5
381
330
30C
100
AcDbEntity
  8
P-SANR-FIXT
100
AcDbLine
 10
1317.460274567059
 20
2232.81052462314
 30
0.0
 11
1317.460274567059
 21
2244.482558850026
 31
0.0
  0
LINE
  5
382
330
30C
100
AcDbEntity
  8
P-SANR-FIXT
100
AcDbLine
 10
1317.864353943099
 20
2232.81052462314
 30
0.0
 11
1317.864353943099
 21
2244.482558850026
 31
0.0
  0
LINE
  5
383
330
30C
100
AcDbEntity
  8
P-SANR-FIXT
100
AcDbLine
 10
1286.614353943104
 20
2309.98255885019
 30
0.0
 11
1286.614353943104
 21
2299.982558850012
 31
0.0
  0
LINE
  5
384
330
30C
100
AcDbEntity
  8
P-SANR-FIXT
100
AcDbLine
 10
1297.614353943104
 20
2298.48255885019
 30
0.0
 11
1297.614353943104
 21
2309.98255885019
 31
0.0
  0
LINE
  5
385
330
30C
100
AcDbEntity
  8
P-SANR-FIXT
100
AcDbLine
 10
1295.114353943104
 20
2294.982558850097
 30
0.0
 11
1295.114353943104
 21
2298.48255885019
 31
0.0
  0
LINE
  5
386
330
30C
100
AcDbEntity
  8
P-SANR-FIXT
100
AcDbLine
 10
1299.364353943105
 20
2291.982558850033
 30
0.0
 11
1299.364353943105
 21
2294.982558850097
 31
0.0
  0
LINE
  5
387
330
30C
100
AcDbEntity
  8
P-SANR-FIXT
100
AcDbLine
 10
1286.614353943102
 20
2309.982558850188
 30
0.0
 11
1292.114353943102
 21
2309.982558850188
 31
0.0
  0
LINE
  5
388
330
30C
100
AcDbEntity
  8
P-SANR-FIXT
100
AcDbLine
 10
1292.114353943102
 20
2309.982558850188
 30
0.0
 11
1297.614353943102
 21
2309.982558850188
 31
0.0
  0
LINE
  5
389
330
30C
100
AcDbEntity
  8
P-SANR-FIXT
100
AcDbLine
 10
1292.414839575617
 20
2298.482558850189
 30
0.0
 11
1297.614353943102
 21
2298.482558850189
 31
0.0
  0
LINE
  5
38A
330
30C
100
AcDbEntity
  8
P-SANR-FIXT
100
AcDbLine
 10
1292.414903110665
 20
2294.982558850096
 30
0.0
 11
1299.364353943102
 21
2294.982558850096
 31
0.0
  0
LWPOLYLINE
  5
38B
330
30C
100
AcDbEntity
  8
P-SANR-FIXT
100
AcDbPolyline
 90
       26
 70
   128
 43
0.0
 10
1319.772306373545
 20
2232.810524623141
 10
1319.798101879223
 20
2232.740697248073
 10
1319.826669101484
 20
2232.671957272554
 10
1319.857962338868
 20
2232.604414665882
 10
1319.891931528869
 20
2232.538177481818
 10
1319.928522328031
 20
2232.473351685728
 10
1319.96767619888
 20
2232.410040985056
 10
1320.009330503575
 20
2232.348346663418
 10
1320.053418604115
 20
2232.288367418567
 10
1320.099869968944
 20
2232.230199204502
 10
1320.148610285786
 20
2232.173935077955
 10
1320.199561580533
 20
2232.119665049526
 10
1320.252642341982
 20
2232.067475939684
 10
1320.307767652237
 20
2232.017451239872
 10
1320.364849322563
 20
2231.969670978939
 10
1320.423796034462
 20
2231.924211595108
 10
1320.484513485772
 20
2231.881145813698
 10
1320.546904541521
 20
2231.84054253077
 10
1320.61086938933
 20
2231.802466702916
 10
1320.676305699089
 20
2231.766979243339
 10
1320.743108786659
 20
2231.734136924402
 10
1320.811171781352
 20
2231.703992286812
 10
1320.880385796896
 20
2231.676593555557
 10
1320.95064010563
 20
2231.651984562763
 10
1321.021822315647
 20
2231.630204677568
 10
1321.048963260394
 20
2231.622711786612
  0
LINE
  5
38C
330
30C
100
AcDbEntity
  8
P-SANR-FIXT
100
AcDbLine
 10
1330.373172988188
 20
2229.124297319991
 30
0.0
 11
1321.048963260393
 21
2231.622711786612
 31
0.0
  0
LWPOLYLINE
  5
38D
330
30C
100
AcDbEntity
  8
P-SANR-FIXT
100
AcDbPolyline
 90
       34
 70
   128
 43
0.0
 10
1330.373172988188
 20
2229.124297319991
 10
1330.411592691225
 20
2229.113174681068
 10
1330.449536875673
 20
2229.100524560725
 10
1330.48694483893
 20
2229.086367196458
 10
1330.523756736235
 20
2229.070725237027
 10
1330.559913676406
 20
2229.053623706233
 10
1330.595357816051
 20
2229.035089962876
 10
1330.630032452109
 20
2229.015153656991
 10
1330.663882112558
 20
2228.993846682416
 10
1330.696852645161
 20
2228.971203125764
 10
1330.728891304101
 20
2228.947259211895
 10
1330.759946834358
 20
2228.922053245964
 10
1330.789969553708
 20
2228.895625552139
 10
1330.818911432205
 20
2228.868018409094
 10
1330.846726169016
 20
2228.839275982367
 10
1330.873369266498
 20
2228.809444253711
 10
1330.898798101376
 20
2228.778570947525
 10
1330.92297199294
 20
2228.746705454517
 10
1330.945852268121
 20
2228.713898752676
 10
1330.967402323358
 20
2228.680203325726
 10
1330.987587683161
 20
2228.645673079164
 10
1331.006376055259
 20
2228.610363254016
 10
1331.023737382267
 20
2228.574330338473
 10
1331.039643889763
 20
2228.53763197751
 10
1331.054070130728
 20
2228.500326880678
 10
1331.066993026256
 20
2228.462474728174
 10
1331.078391902469
 20
2228.424136075366
 10
1331.088248523598
 20
2228.385372255921
 10
1331.096547121151
 20
2228.34624528368
 10
1331.103274419143
 20
2228.306817753454
 10
1331.108419655331
 20
2228.267152740878
 10
1331.111974598436
 20
2228.227313701513
 10
1331.113933561307
 20
2228.187364369322
 10
1331.114353943086
 20
2228.158371493702
  0
LINE
  5
38E
330
30C
100
AcDbEntity
  8
P-SANR-FIXT
100
AcDbLine
 10
1331.114353943085
 20
2226.482558850049
 30
0.0
 11
1331.114353943085
 21
2228.158371493702
 31
0.0
  0
LINE
  5
38F
330
30C
100
AcDbEntity
  8
P-SANR-FIXT
100
AcDbLine
 10
1317.867353943104
 20
2244.482558850028
 30
0.0
 11
1317.867353943104
 21
2282.482558850112
 31
0.0
  0
LINE
  5
390
330
30C
100
AcDbEntity
  8
P-SANR-FIXT
100
AcDbLine
 10
1319.614353943085
 20
2282.482558850112
 30
0.0
 11
1319.614353943085
 21
2291.982558850033
 31
0.0
  0
LINE
  5
391
330
30C
100
AcDbEntity
  8
P-SANR-FIXT
100
AcDbLine
 10
1292.413767155585
 20
2232.81052462314
 30
0.0
 11
1302.169374473465
 21
2232.81052462314
 31
0.0
  0
LINE
  5
392
330
30C
100
AcDbEntity
  8
P-SANR-FIXT
100
AcDbLine
 10
1302.2143877806
 20
2232.81052462314
 30
0.0
 11
1303.190966447014
 21
2232.81052462314
 31
0.0
  0
LINE
  5
393
330
30C
100
AcDbEntity
  8
P-SANR-FIXT
100
AcDbLine
 10
1303.223311757755
 20
2232.81052462314
 30
0.0
 11
1317.443258161737
 21
2232.81052462314
 31
0.0
  0
LINE
  5
394
330
30C
100
AcDbEntity
  8
P-SANR-FIXT
100
AcDbLine
 10
1317.473924795714
 20
2232.81052462314
 30
0.0
 11
1317.666970104757
 21
2232.81052462314
 31
0.0
  0
LINE
  5
395
330
30C
100
AcDbEntity
  8
P-SANR-FIXT
100
AcDbLine
 10
1317.879813278781
 20
2232.81052462314
 30
0.0
 11
1319.772306373543
 21
2232.81052462314
 31
0.0
  0
LINE
  5
396
330
30C
100
AcDbEntity
  8
P-SANR-FIXT
100
AcDbLine
 10
1292.413767088208
 20
2291.982558850032
 30
0.0
 11
1319.614353943083
 21
2291.982558850032
 31
0.0
  0
LINE
  5
397
330
30C
100
AcDbEntity
  8
P-SANR-FIXT
100
AcDbLine
 10
1292.413767088208
 20
2282.482558850111
 30
0.0
 11
1319.614353943083
 21
2282.482558850111
 31
0.0
  0
ARC
  5
398
330
30C
100
AcDbEntity
  8
P-SANR-FIXT
100
AcDbCircle
 10
1292.114353943101
 20
1869.982602664831
 30
0.0
 40
36.90000000000141
100
AcDbArc
 50
90.00000000000019
 51
269.9999999999994
  0
ARC
  5
399
330
30C
100
AcDbEntity
  8
P-SANR-FIXT
100
AcDbCircle
 10
1292.114353943101
 20
1869.982602664831
 30
0.0
 40
36.90000000000123
100
AcDbArc
 50
269.9999999999997
 51
89.9999999999993
  0
SPLINE
  5
39A
330
30C
100
AcDbEntity
  8
P-SANR-FIXT
100
AcDbSpline
210
0.0
220
0.0
230
1.0
 70
     8
 71
     3
 72
    11
 73
     7
 74
     0
 42
0.000000001
 43
0.0000000001
 40
0.0
 40
0.0
 40
0.0
 40
0.0
 40
0.25
 40
0.5
 40
0.75
 40
1.0
 40
1.0
 40
1.0
 40
1.0
 10
1328.86435394312
 20
1891.777575326743
 30
0.0
 10
1328.938192451502
 20
1891.734944644052
 30
0.0
 10
1329.076471489634
 20
1891.629944305161
 30
0.0
 10
1329.24043399852
 20
1891.418067511114
 30
0.0
 10
1329.342342256535
 20
1891.170073313898
 30
0.0
 10
1329.36435394312
 20
1890.997218442824
 30
0.0
 10
1329.36435394312
 20
1890.911549922958
 30
0.0
  0
SPLINE
  5
39B
330
30C
100
AcDbEntity
  8
P-SANR-FIXT
100
AcDbSpline
210
0.0
220
0.0
230
1.0
 70
    24
 71
     3
 72
    10
 73
     6
 74
     0
 42
0.000000001
 43
0.0000000001
 40
0.0
 40
0.0
 40
0.0
 40
0.0
 40
0.3333333333333333
 40
0.6666666666666666
 40
1.0
 40
1.0
 40
1.0
 40
1.0
 10
1329.36435394312
 20
1890.911549922958
 30
0.0
 10
1329.36435394312
 20
1886.260800831241
 30
0.0
 10
1329.36435394312
 20
1876.957598659913
 30
0.0
 10
1329.36435394312
 20
1862.866576564712
 30
0.0
 10
1329.36435394312
 20
1853.643963024834
 30
0.0
 10
1329.36435394312
 20
1849.053655406703
 30
0.0
  0
SPLINE
  5
39C
330
30C
100
AcDbEntity
  8
P-SANR-FIXT
100
AcDbSpline
210
0.0
220
0.0
230
1.0
 70
     8
 71
     3
 72
    11
 73
     7
 74
     0
 42
0.000000001
 43
0.0000000001
 40
0.0
 40
0.0
 40
0.0
 40
0.0
 40
0.25
 40
0.5
 40
0.75
 40
1.0
 40
1.0
 40
1.0
 40
1.0
 10
1329.36435394312
 20
1849.053655406703
 30
0.0
 10
1329.36435394312
 20
1848.967986886838
 30
0.0
 10
1329.342342256535
 20
1848.795132015764
 30
0.0
 10
1329.24043399852
 20
1848.547137818547
 30
0.0
 10
1329.076471489634
 20
1848.3352610245
 30
0.0
 10
1328.938192451502
 20
1848.23026068561
 30
0.0
 10
1328.86435394312
 20
1848.187630002919
 30
0.0
  0
SPLINE
  5
39D
330
30C
100
AcDbEntity
  8
P-SANR-FIXT
100
AcDbSpline
210
0.0
220
0.0
230
1.0
 70
    24
 71
     3
 72
    10
 73
     6
 74
     0
 42
0.000000001
 43
0.0000000001
 40
0.0
 40
0.0
 40
0.0
 40
0.0
 40
0.3333333333333333
 40
0.6666666666666666
 40
1.0
 40
1.0
 40
1.0
 40
1.0
 10
1328.86435394312
 20
1848.187630002918
 30
0.0
 10
1324.836687083065
 20
1845.86225545706
 30
0.0
 10
1316.779877666153
 20
1841.210654371396
 30
0.0
 10
1304.576694566422
 20
1834.165143323796
 30
0.0
 10
1296.5896769516
 20
1829.553836553856
 30
0.0
 10
1292.614353943113
 20
1827.258682744791
 30
0.0
  0
SPLINE
  5
39E
330
30C
100
AcDbEntity
  8
P-SANR-FIXT
100
AcDbSpline
210
0.0
220
0.0
230
1.0
 70
     8
 71
     3
 72
     9
 73
     5
 74
     0
 42
0.000000001
 43
0.0000000001
 40
0.0
 40
0.0
 40
0.0
 40
0.0
 40
0.5
 40
1.0
 40
1.0
 40
1.0
 40
1.0
 10
1292.614353943113
 20
1827.258682744791
 30
0.0
 10
1292.539982969059
 20
1827.215744642901
 30
0.0
 10
1292.378876691847
 20
1827.14842192509
 30
0.0
 10
1292.203010664524
 20
1827.124708148574
 30
0.0
 10
1292.114353943101
 20
1827.124708148575
 30
0.0
  0
SPLINE
  5
39F
330
30C
100
AcDbEntity
  8
P-SANR-FIXT
100
AcDbSpline
210
0.0
220
0.0
230
1.0
 70
     8
 71
     3
 72
     9
 73
     5
 74
     0
 42
0.000000001
 43
0.0000000001
 40
0.0
 40
0.0
 40
0.0
 40
0.0
 40
0.5
 40
1.0
 40
1.0
 40
1.0
 40
1.0
 10
1292.114353943101
 20
1827.124708148575
 30
0.0
 10
1292.025697221683
 20
1827.124708148576
 30
0.0
 10
1291.849831194368
 20
1827.148421925094
 30
0.0
 10
1291.688724917164
 20
1827.215744642902
 30
0.0
 10
1291.614353943113
 20
1827.258682744791
 30
0.0
  0
SPLINE
  5
3A0
330
30C
100
AcDbEntity
  8
P-SANR-FIXT
100
AcDbSpline
210
0.0
220
0.0
230
1.0
 70
    24
 71
     3
 72
    10
 73
     6
 74
     0
 42
0.000000001
 43
0.0000000001
 40
0.0
 40
0.0
 40
0.0
 40
0.0
 40
0.3333333333333333
 40
0.6666666666666666
 40
1.0
 40
1.0
 40
1.0
 40
1.0
 10
1291.614353943113
 20
1827.258682744791
 30
0.0
 10
1287.586687083058
 20
1829.584057290649
 30
0.0
 10
1279.529877666146
 20
1834.235658376313
 30
0.0
 10
1267.326694566415
 20
1841.281169423913
 30
0.0
 10
1259.339676951593
 20
1845.892476193853
 30
0.0
 10
1255.364353943106
 20
1848.187630002918
 30
0.0
  0
SPLINE
  5
3A1
330
30C
100
AcDbEntity
  8
P-SANR-FIXT
100
AcDbSpline
210
0.0
220
0.0
230
1.0
 70
     8
 71
     3
 72
    11
 73
     7
 74
     0
 42
0.000000001
 43
0.0000000001
 40
0.0
 40
0.0
 40
0.0
 40
0.0
 40
0.25
 40
0.5
 40
0.75
 40
1.0
 40
1.0
 40
1.0
 40
1.0
 10
1255.364353943106
 20
1848.187630002918
 30
0.0
 10
1255.290162828598
 20
1848.230464262852
 30
0.0
 10
1255.151471962373
 20
1848.335954378151
 30
0.0
 10
1254.9876568166
 20
1848.548206617055
 30
0.0
 10
1254.886147384925
 20
1848.796140712042
 30
0.0
 10
1254.864353943107
 20
1848.968394041321
 30
0.0
 10
1254.864353943107
 20
1849.053655406703
 30
0.0
  0
SPLINE
  5
3A2
330
30C
100
AcDbEntity
  8
P-SANR-FIXT
100
AcDbSpline
210
0.0
220
0.0
230
1.0
 70
    24
 71
     3
 72
    10
 73
     6
 74
     0
 42
0.000000001
 43
0.0000000001
 40
0.0
 40
0.0
 40
0.0
 40
0.0
 40
0.3333333333333333
 40
0.6666666666666666
 40
1.0
 40
1.0
 40
1.0
 40
1.0
 10
1254.864353943107
 20
1849.053655406703
 30
0.0
 10
1254.864353943107
 20
1853.70440449842
 30
0.0
 10
1254.864353943107
 20
1863.007606669748
 30
0.0
 10
1254.864353943107
 20
1877.098628764948
 30
0.0
 10
1254.864353943107
 20
1886.321242304827
 30
0.0
 10
1254.864353943107
 20
1890.911549922958
 30
0.0
  0
SPLINE
  5
3A3
330
30C
100
AcDbEntity
  8
P-SANR-FIXT
100
AcDbSpline
210
0.0
220
0.0
230
1.0
 70
     8
 71
     3
 72
    11
 73
     7
 74
     0
 42
0.000000001
 43
0.0000000001
 40
0.0
 40
0.0
 40
0.0
 40
0.0
 40
0.25
 40
0.5
 40
0.75
 40
1.0
 40
1.0
 40
1.0
 40
1.0
 10
1254.864353943107
 20
1890.911549922958
 30
0.0
 10
1254.864353943107
 20
1890.997218442824
 30
0.0
 10
1254.886365629691
 20
1891.170073313898
 30
0.0
 10
1254.988273887706
 20
1891.418067511114
 30
0.0
 10
1255.152236396592
 20
1891.629944305161
 30
0.0
 10
1255.290515434724
 20
1891.734944644052
 30
0.0
 10
1255.364353943106
 20
1891.777575326743
 30
0.0
  0
SPLINE
  5
3A4
330
30C
100
AcDbEntity
  8
P-SANR-FIXT
100
AcDbSpline
210
0.0
220
0.0
230
1.0
 70
    24
 71
     3
 72
    10
 73
     6
 74
     0
 42
0.000000001
 43
0.0000000001
 40
0.0
 40
0.0
 40
0.0
 40
0.0
 40
0.3333333333333333
 40
0.6666666666666666
 40
1.0
 40
1.0
 40
1.0
 40
1.0
 10
1255.364353943106
 20
1891.777575326743
 30
0.0
 10
1259.392020803161
 20
1894.102949872602
 30
0.0
 10
1267.448830220074
 20
1898.754550958266
 30
0.0
 10
1279.652013319805
 20
1905.800062005866
 30
0.0
 10
1287.639030934627
 20
1910.411368775805
 30
0.0
 10
1291.614353943113
 20
1912.706522584871
 30
0.0
  0
SPLINE
  5
3A5
330
30C
100
AcDbEntity
  8
P-SANR-FIXT
100
AcDbSpline
210
0.0
220
0.0
230
1.0
 70
     8
 71
     3
 72
     9
 73
     5
 74
     0
 42
0.000000001
 43
0.0000000001
 40
0.0
 40
0.0
 40
0.0
 40
0.0
 40
0.5
 40
1.0
 40
1.0
 40
1.0
 40
1.0
 10
1291.614353943113
 20
1912.706522584871
 30
0.0
 10
1291.688724917164
 20
1912.749460686759
 30
0.0
 10
1291.849831194368
 20
1912.816783404567
 30
0.0
 10
1292.025697221683
 20
1912.840497181085
 30
0.0
 10
1292.114353943101
 20
1912.840497181086
 30
0.0
  0
SPLINE
  5
3A6
330
30C
100
AcDbEntity
  8
P-SANR-FIXT
100
AcDbSpline
210
0.0
220
0.0
230
1.0
 70
     8
 71
     3
 72
     9
 73
     5
 74
     0
 42
0.000000001
 43
0.0000000001
 40
0.0
 40
0.0
 40
0.0
 40
0.0
 40
0.5
 40
1.0
 40
1.0
 40
1.0
 40
1.0
 10
1292.114353943101
 20
1912.840497181086
 30
0.0
 10
1292.203010664524
 20
1912.840497181087
 30
0.0
 10
1292.378876691847
 20
1912.816783404571
 30
0.0
 10
1292.539982969058
 20
1912.749460686761
 30
0.0
 10
1292.614353943113
 20
1912.706522584871
 30
0.0
  0
SPLINE
  5
3A7
330
30C
100
AcDbEntity
  8
P-SANR-FIXT
100
AcDbSpline
210
0.0
220
0.0
230
1.0
 70
    24
 71
     3
 72
    10
 73
     6
 74
     0
 42
0.000000001
 43
0.0000000001
 40
0.0
 40
0.0
 40
0.0
 40
0.0
 40
0.3333333333333333
 40
0.6666666666666666
 40
1.0
 40
1.0
 40
1.0
 40
1.0
 10
1292.614353943113
 20
1912.706522584871
 30
0.0
 10
1296.642020803168
 20
1910.381148039012
 30
0.0
 10
1304.69883022008
 20
1905.729546953348
 30
0.0
 10
1316.902013319812
 20
1898.684035905748
 30
0.0
 10
1324.889030934633
 20
1894.072729135808
 30
0.0
 10
1328.86435394312
 20
1891.777575326743
 30
0.0
  0
ARC
  5
3A8
330
30C
100
AcDbEntity
  8
P-SANR-FIXT
100
AcDbCircle
 10
1292.114353943101
 20
2129.982515035175
 30
0.0
 40
29.15000000001294
100
AcDbArc
 50
359.9999999999994
 51
22.14337228275185
  0
ARC
  5
3A9
330
30C
100
AcDbEntity
  8
P-SANR-FIXT
100
AcDbCircle
 10
1292.114353943101
 20
2129.982515035175
 30
0.0
 40
29.1500000000128
100
AcDbArc
 50
337.8566277172503
 51
0.0
  0
ARC
  5
3AA
330
30C
100
AcDbEntity
  8
P-SANR-FIXT
100
AcDbCircle
 10
1292.114353943101
 20
2129.982515035175
 30
0.0
 40
29.15000000001258
100
AcDbArc
 50
157.8566277172506
 51
179.9999999999991
  0
ARC
  5
3AB
330
30C
100
AcDbEntity
  8
P-SANR-FIXT
100
AcDbCircle
 10
1292.114353943101
 20
2129.982515035175
 30
0.0
 40
29.1500000000126
100
AcDbArc
 50
180.0
 51
202.1433722827516
  0
ARC
  5
3AC
330
30C
100
AcDbEntity
  8
P-SANR-FIXT
100
AcDbCircle
 10
1292.114353943101
 20
2129.982515035175
 30
0.0
 40
29.15000000001287
100
AcDbArc
 50
97.85662771725061
 51
142.1433722827522
  0
ARC
  5
3AD
330
30C
100
AcDbEntity
  8
P-SANR-FIXT
100
AcDbCircle
 10
1292.114353943101
 20
2129.982515035175
 30
0.0
 40
29.15000000001279
100
AcDbArc
 50
37.85662771725049
 51
82.14337228275125
  0
ARC
  5
3AE
330
30C
100
AcDbEntity
  8
P-SANR-FIXT
100
AcDbCircle
 10
1292.114353943101
 20
2129.982515035175
 30
0.0
 40
29.1500000000129
100
AcDbArc
 50
277.8566277172507
 51
322.1433722827514
  0
ARC
  5
3AF
330
30C
100
AcDbEntity
  8
P-SANR-FIXT
100
AcDbCircle
 10
1292.114353943101
 20
2129.982515035175
 30
0.0
 40
29.15000000001275
100
AcDbArc
 50
217.8566277172503
 51
262.1433722827522
  0
LINE
  5
3B0
330
30C
100
AcDbEntity
  8
P-SANR-FIXT
100
AcDbLine
 10
1315.129703384943
 20
2147.871511375682
 30
0.0
 11
1296.099004501265
 21
2158.85889049904
 31
0.0
  0
ARC
  5
3B1
330
30C
100
AcDbEntity
  8
P-SANR-FIXT
100
AcDbCircle
 10
1292.114353943101
 20
2129.982515035175
 30
0.0
 40
29.15000000001327
100
AcDbArc
 50
82.14337228275358
 51
97.85662771724734
  0
LINE
  5
3B2
330
30C
100
AcDbEntity
  8
P-SANR-FIXT
100
AcDbLine
 10
1288.129703384936
 20
2158.85889049904
 30
0.0
 11
1269.099004501258
 21
2147.871511375681
 31
0.0
  0
ARC
  5
3B3
330
30C
100
AcDbEntity
  8
P-SANR-FIXT
100
AcDbCircle
 10
1292.114353943101
 20
2129.982515035175
 30
0.0
 40
29.15000000001339
100
AcDbArc
 50
142.1433722827538
 51
157.8566277172475
  0
LINE
  5
3B4
330
30C
100
AcDbEntity
  8
P-SANR-FIXT
100
AcDbLine
 10
1265.114353943094
 20
2140.969894158533
 30
0.0
 11
1265.114353943095
 21
2118.995135911816
 31
0.0
  0
ARC
  5
3B5
330
30C
100
AcDbEntity
  8
P-SANR-FIXT
100
AcDbCircle
 10
1292.114353943101
 20
2129.982515035175
 30
0.0
 40
29.15000000001319
100
AcDbArc
 50
202.143372282754
 51
217.8566277172479
  0
LINE
  5
3B6
330
30C
100
AcDbEntity
  8
P-SANR-FIXT
100
AcDbLine
 10
1269.099004501259
 20
2112.093518694668
 30
0.0
 11
1288.129703384937
 21
2101.10613957131
 31
0.0
  0
ARC
  5
3B7
330
30C
100
AcDbEntity
  8
P-SANR-FIXT
100
AcDbCircle
 10
1292.114353943101
 20
2129.982515035175
 30
0.0
 40
29.15000000001343
100
AcDbArc
 50
262.1433722827541
 51
277.8566277172478
  0
LINE
  5
3B8
330
30C
100
AcDbEntity
  8
P-SANR-FIXT
100
AcDbLine
 10
1296.099004501266
 20
2101.106139571311
 30
0.0
 11
1315.129703384944
 21
2112.093518694669
 31
0.0
  0
ARC
  5
3B9
330
30C
100
AcDbEntity
  8
P-SANR-FIXT
100
AcDbCircle
 10
1292.114353943101
 20
2129.982515035175
 30
0.0
 40
29.15000000001325
100
AcDbArc
 50
322.143372282754
 51
337.8566277172479
  0
LINE
  5
3BA
330
30C
100
AcDbEntity
  8
P-SANR-FIXT
100
AcDbLine
 10
1319.114353943108
 20
2118.995135911817
 30
0.0
 11
1319.114353943108
 21
2140.969894158534
 31
0.0
  0
ARC
  5
3BB
330
30C
100
AcDbEntity
  8
P-SANR-FIXT
100
AcDbCircle
 10
1292.114353943101
 20
2129.982515035175
 30
0.0
 40
29.15000000001336
100
AcDbArc
 50
22.14337228275273
 51
37.85662771724751
  0
ARC
  5
3BC
330
30C
100
AcDbEntity
  8
P-SANR-FIXT
100
AcDbCircle
 10
1292.114353943101
 20
2129.982515035191
 30
0.0
 40
19.05000000000041
100
AcDbArc
 50
90.0
 51
269.9999999999997
  0
ARC
  5
3BD
330
30C
100
AcDbEntity
  8
P-SANR-FIXT
100
AcDbCircle
 10
1292.114353943101
 20
2129.982515035191
 30
0.0
 40
19.05000000000029
100
AcDbArc
 50
270.0
 51
89.99999999999966
  0
ARC
  5
3BE
330
30C
100
AcDbEntity
  8
P-SANR-FIXT
100
AcDbCircle
 10
1292.114353943101
 20
2129.982515035192
 30
0.0
 40
36.90000000000134
100
AcDbArc
 50
90.00000000000019
 51
269.9999999999995
  0
ARC
  5
3BF
330
30C
100
AcDbEntity
  8
P-SANR-FIXT
100
AcDbCircle
 10
1292.114353943101
 20
2129.982515035192
 30
0.0
 40
36.90000000000123
100
AcDbArc
 50
269.9999999999997
 51
89.9999999999993
  0
SPLINE
  5
3C0
330
30C
100
AcDbEntity
  8
P-SANR-FIXT
100
AcDbSpline
210
0.0
220
0.0
230
1.0
 70
     8
 71
     3
 72
    11
 73
     7
 74
     0
 42
0.000000001
 43
0.0000000001
 40
0.0
 40
0.0
 40
0.0
 40
0.0
 40
0.25
 40
0.5
 40
0.75
 40
1.0
 40
1.0
 40
1.0
 40
1.0
 10
1328.86435394312
 20
2151.777487697104
 30
0.0
 10
1328.938192451502
 20
2151.734857014413
 30
0.0
 10
1329.076471489634
 20
2151.629856675522
 30
0.0
 10
1329.24043399852
 20
2151.417979881476
 30
0.0
 10
1329.342342256535
 20
2151.169985684259
 30
0.0
 10
1329.36435394312
 20
2150.997130813185
 30
0.0
 10
1329.36435394312
 20
2150.911462293319
 30
0.0
  0
SPLINE
  5
3C1
330
30C
100
AcDbEntity
  8
P-SANR-FIXT
100
AcDbSpline
210
0.0
220
0.0
230
1.0
 70
    24
 71
     3
 72
    10
 73
     6
 74
     0
 42
0.000000001
 43
0.0000000001
 40
0.0
 40
0.0
 40
0.0
 40
0.0
 40
0.3333333333333333
 40
0.6666666666666666
 40
1.0
 40
1.0
 40
1.0
 40
1.0
 10
1329.36435394312
 20
2150.911462293319
 30
0.0
 10
1329.36435394312
 20
2146.260713201602
 30
0.0
 10
1329.36435394312
 20
2136.957511030274
 30
0.0
 10
1329.36435394312
 20
2122.866488935074
 30
0.0
 10
1329.36435394312
 20
2113.643875395195
 30
0.0
 10
1329.36435394312
 20
2109.053567777064
 30
0.0
  0
SPLINE
  5
3C2
330
30C
100
AcDbEntity
  8
P-SANR-FIXT
100
AcDbSpline
210
0.0
220
0.0
230
1.0
 70
     8
 71
     3
 72
    11
 73
     7
 74
     0
 42
0.000000001
 43
0.0000000001
 40
0.0
 40
0.0
 40
0.0
 40
0.0
 40
0.25
 40
0.5
 40
0.75
 40
1.0
 40
1.0
 40
1.0
 40
1.0
 10
1329.36435394312
 20
2109.053567777064
 30
0.0
 10
1329.36435394312
 20
2108.967899257199
 30
0.0
 10
1329.342342256535
 20
2108.795044386125
 30
0.0
 10
1329.24043399852
 20
2108.547050188908
 30
0.0
 10
1329.076471489634
 20
2108.335173394861
 30
0.0
 10
1328.938192451502
 20
2108.230173055971
 30
0.0
 10
1328.86435394312
 20
2108.18754237328
 30
0.0
  0
SPLINE
  5
3C3
330
30C
100
AcDbEntity
  8
P-SANR-FIXT
100
AcDbSpline
210
0.0
220
0.0
230
1.0
 70
    24
 71
     3
 72
    10
 73
     6
 74
     0
 42
0.000000001
 43
0.0000000001
 40
0.0
 40
0.0
 40
0.0
 40
0.0
 40
0.3333333333333333
 40
0.6666666666666666
 40
1.0
 40
1.0
 40
1.0
 40
1.0
 10
1328.86435394312
 20
2108.18754237328
 30
0.0
 10
1324.836687083065
 20
2105.862167827421
 30
0.0
 10
1316.779877666153
 20
2101.210566741757
 30
0.0
 10
1304.576694566422
 20
2094.165055694157
 30
0.0
 10
1296.5896769516
 20
2089.553748924217
 30
0.0
 10
1292.614353943113
 20
2087.258595115152
 30
0.0
  0
SPLINE
  5
3C4
330
30C
100
AcDbEntity
  8
P-SANR-FIXT
100
AcDbSpline
210
0.0
220
0.0
230
1.0
 70
     8
 71
     3
 72
     9
 73
     5
 74
     0
 42
0.000000001
 43
0.0000000001
 40
0.0
 40
0.0
 40
0.0
 40
0.0
 40
0.5
 40
1.0
 40
1.0
 40
1.0
 40
1.0
 10
1292.614353943113
 20
2087.258595115152
 30
0.0
 10
1292.539982969059
 20
2087.215657013262
 30
0.0
 10
1292.378876691847
 20
2087.148334295451
 30
0.0
 10
1292.203010664524
 20
2087.124620518935
 30
0.0
 10
1292.114353943101
 20
2087.124620518936
 30
0.0
  0
SPLINE
  5
3C5
330
30C
100
AcDbEntity
  8
P-SANR-FIXT
100
AcDbSpline
210
0.0
220
0.0
230
1.0
 70
     8
 71
     3
 72
     9
 73
     5
 74
     0
 42
0.000000001
 43
0.0000000001
 40
0.0
 40
0.0
 40
0.0
 40
0.0
 40
0.5
 40
1.0
 40
1.0
 40
1.0
 40
1.0
 10
1292.114353943101
 20
2087.124620518936
 30
0.0
 10
1292.025697221683
 20
2087.124620518937
 30
0.0
 10
1291.849831194368
 20
2087.148334295455
 30
0.0
 10
1291.688724917164
 20
2087.215657013263
 30
0.0
 10
1291.614353943113
 20
2087.258595115152
 30
0.0
  0
SPLINE
  5
3C6
330
30C
100
AcDbEntity
  8
P-SANR-FIXT
100
AcDbSpline
210
0.0
220
0.0
230
1.0
 70
    24
 71
     3
 72
    10
 73
     6
 74
     0
 42
0.000000001
 43
0.0000000001
 40
0.0
 40
0.0
 40
0.0
 40
0.0
 40
0.3333333333333333
 40
0.6666666666666666
 40
1.0
 40
1.0
 40
1.0
 40
1.0
 10
1291.614353943113
 20
2087.258595115152
 30
0.0
 10
1287.586687083058
 20
2089.58396966101
 30
0.0
 10
1279.529877666146
 20
2094.235570746675
 30
0.0
 10
1267.326694566415
 20
2101.281081794274
 30
0.0
 10
1259.339676951593
 20
2105.892388564214
 30
0.0
 10
1255.364353943106
 20
2108.18754237328
 30
0.0
  0
SPLINE
  5
3C7
330
30C
100
AcDbEntity
  8
P-SANR-FIXT
100
AcDbSpline
210
0.0
220
0.0
230
1.0
 70
     8
 71
     3
 72
    11
 73
     7
 74
     0
 42
0.000000001
 43
0.0000000001
 40
0.0
 40
0.0
 40
0.0
 40
0.0
 40
0.25
 40
0.5
 40
0.75
 40
1.0
 40
1.0
 40
1.0
 40
1.0
 10
1255.364353943106
 20
2108.18754237328
 30
0.0
 10
1255.290162828598
 20
2108.230376633212
 30
0.0
 10
1255.151471962373
 20
2108.335866748512
 30
0.0
 10
1254.9876568166
 20
2108.548118987416
 30
0.0
 10
1254.886147384925
 20
2108.796053082404
 30
0.0
 10
1254.864353943107
 20
2108.968306411682
 30
0.0
 10
1254.864353943107
 20
2109.053567777064
 30
0.0
  0
SPLINE
  5
3C8
330
30C
100
AcDbEntity
  8
P-SANR-FIXT
100
AcDbSpline
210
0.0
220
0.0
230
1.0
 70
    24
 71
     3
 72
    10
 73
     6
 74
     0
 42
0.000000001
 43
0.0000000001
 40
0.0
 40
0.0
 40
0.0
 40
0.0
 40
0.3333333333333333
 40
0.6666666666666666
 40
1.0
 40
1.0
 40
1.0
 40
1.0
 10
1254.864353943107
 20
2109.053567777064
 30
0.0
 10
1254.864353943107
 20
2113.704316868781
 30
0.0
 10
1254.864353943107
 20
2123.007519040109
 30
0.0
 10
1254.864353943107
 20
2137.09854113531
 30
0.0
 10
1254.864353943107
 20
2146.321154675189
 30
0.0
 10
1254.864353943107
 20
2150.911462293319
 30
0.0
  0
SPLINE
  5
3C9
330
30C
100
AcDbEntity
  8
P-SANR-FIXT
100
AcDbSpline
210
0.0
220
0.0
230
1.0
 70
     8
 71
     3
 72
    11
 73
     7
 74
     0
 42
0.000000001
 43
0.0000000001
 40
0.0
 40
0.0
 40
0.0
 40
0.0
 40
0.25
 40
0.5
 40
0.75
 40
1.0
 40
1.0
 40
1.0
 40
1.0
 10
1254.864353943107
 20
2150.911462293319
 30
0.0
 10
1254.864353943107
 20
2150.997130813185
 30
0.0
 10
1254.886365629691
 20
2151.169985684259
 30
0.0
 10
1254.988273887706
 20
2151.417979881475
 30
0.0
 10
1255.152236396592
 20
2151.629856675522
 30
0.0
 10
1255.290515434724
 20
2151.734857014413
 30
0.0
 10
1255.364353943106
 20
2151.777487697104
 30
0.0
  0
SPLINE
  5
3CA
330
30C
100
AcDbEntity
  8
P-SANR-FIXT
100
AcDbSpline
210
0.0
220
0.0
230
1.0
 70
    24
 71
     3
 72
    10
 73
     6
 74
     0
 42
0.000000001
 43
0.0000000001
 40
0.0
 40
0.0
 40
0.0
 40
0.0
 40
0.3333333333333333
 40
0.6666666666666666
 40
1.0
 40
1.0
 40
1.0
 40
1.0
 10
1255.364353943106
 20
2151.777487697104
 30
0.0
 10
1259.392020803161
 20
2154.102862242963
 30
0.0
 10
1267.448830220074
 20
2158.754463328627
 30
0.0
 10
1279.652013319805
 20
2165.799974376227
 30
0.0
 10
1287.639030934627
 20
2170.411281146167
 30
0.0
 10
1291.614353943113
 20
2172.706434955232
 30
0.0
  0
SPLINE
  5
3CB
330
30C
100
AcDbEntity
  8
P-SANR-FIXT
100
AcDbSpline
210
0.0
220
0.0
230
1.0
 70
     8
 71
     3
 72
     9
 73
     5
 74
     0
 42
0.000000001
 43
0.0000000001
 40
0.0
 40
0.0
 40
0.0
 40
0.0
 40
0.5
 40
1.0
 40
1.0
 40
1.0
 40
1.0
 10
1291.614353943113
 20
2172.706434955232
 30
0.0
 10
1291.688724917164
 20
2172.74937305712
 30
0.0
 10
1291.849831194368
 20
2172.816695774928
 30
0.0
 10
1292.025697221683
 20
2172.840409551446
 30
0.0
 10
1292.114353943101
 20
2172.840409551447
 30
0.0
  0
SPLINE
  5
3CC
330
30C
100
AcDbEntity
  8
P-SANR-FIXT
100
AcDbSpline
210
0.0
220
0.0
230
1.0
 70
     8
 71
     3
 72
     9
 73
     5
 74
     0
 42
0.000000001
 43
0.0000000001
 40
0.0
 40
0.0
 40
0.0
 40
0.0
 40
0.5
 40
1.0
 40
1.0
 40
1.0
 40
1.0
 10
1292.114353943101
 20
2172.840409551447
 30
0.0
 10
1292.203010664524
 20
2172.840409551449
 30
0.0
 10
1292.378876691847
 20
2172.816695774932
 30
0.0
 10
1292.539982969058
 20
2172.749373057122
 30
0.0
 10
1292.614353943113
 20
2172.706434955232
 30
0.0
  0
SPLINE
  5
3CD
330
30C
100
AcDbEntity
  8
P-SANR-FIXT
100
AcDbSpline
210
0.0
220
0.0
230
1.0
 70
    24
 71
     3
 72
    10
 73
     6
 74
     0
 42
0.000000001
 43
0.0000000001
 40
0.0
 40
0.0
 40
0.0
 40
0.0
 40
0.3333333333333333
 40
0.6666666666666666
 40
1.0
 40
1.0
 40
1.0
 40
1.0
 10
1292.614353943113
 20
2172.706434955232
 30
0.0
 10
1296.642020803168
 20
2170.381060409373
 30
0.0
 10
1304.69883022008
 20
2165.729459323709
 30
0.0
 10
1316.902013319812
 20
2158.683948276109
 30
0.0
 10
1324.889030934633
 20
2154.07264150617
 30
0.0
 10
1328.86435394312
 20
2151.777487697104
 30
0.0
  0
LINE
  5
3CE
330
30C
100
AcDbEntity
  8
P-SANR-FIXT
100
AcDbLine
 10
1389.414353943164
 20
2135.178667457873
 30
0.0
 11
1389.414353943164
 21
2124.78636261246
 31
0.0
  0
LINE
  5
3CF
330
30C
100
AcDbEntity
  8
P-SANR-FIXT
100
AcDbLine
 10
1389.414353943164
 20
2124.78636261246
 30
0.0
 11
1389.414353943164
 21
2119.590210189753
 31
0.0
  0
LINE
  5
3D0
330
30C
100
AcDbEntity
  8
P-SANR-FIXT
100
AcDbLine
 10
1389.414353943164
 20
2140.37481988058
 30
0.0
 11
1389.414353943164
 21
2135.178667457873
 31
0.0
  0
LINE
  5
3D1
330
30C
100
AcDbEntity
  8
P-SANR-FIXT
100
AcDbLine
 10
1389.414353943164
 20
2135.178667457873
 30
0.0
 11
1385.114353943131
 21
2135.178667457873
 31
0.0
  0
LINE
  5
3D2
330
30C
100
AcDbEntity
  8
P-SANR-FIXT
100
AcDbLine
 10
1385.114353943131
 20
2124.78636261246
 30
0.0
 11
1389.414353943164
 21
2124.78636261246
 31
0.0
  0
LINE
  5
3D3
330
30C
100
AcDbEntity
  8
P-SANR-FIXT
100
AcDbLine
 10
1385.114353943131
 20
2119.590210189753
 30
0.0
 11
1389.414353943164
 21
2119.590210189753
 31
0.0
  0
LINE
  5
3D4
330
30C
100
AcDbEntity
  8
P-SANR-FIXT
100
AcDbLine
 10
1385.114353943131
 20
2140.37481988058
 30
0.0
 11
1389.414353943164
 21
2140.37481988058
 31
0.0
  0
LINE
  5
3D5
330
30C
100
AcDbEntity
  8
P-SANR-FIXT
100
AcDbLine
 10
1382.114353943104
 20
2117.482515035174
 30
0.0
 11
1385.114353943133
 21
2117.482515035174
 31
0.0
  0
LINE
  5
3D6
330
30C
100
AcDbEntity
  8
P-SANR-FIXT
100
AcDbLine
 10
1385.114353943133
 20
2142.482515035162
 30
0.0
 11
1382.114353943104
 21
2142.482515035162
 31
0.0
  0
LINE
  5
3D7
330
30C
100
AcDbEntity
  8
P-SANR-FIXT
100
AcDbLine
 10
1385.114353943131
 20
2129.982515035166
 30
0.0
 11
1385.114353943131
 21
2117.482515035172
 31
0.0
  0
LINE
  5
3D8
330
30C
100
AcDbEntity
  8
P-SANR-FIXT
100
AcDbLine
 10
1385.114353943131
 20
2142.482515035161
 30
0.0
 11
1385.114353943131
 21
2129.982515035166
 31
0.0
  0
LINE
  5
3D9
330
30C
100
AcDbEntity
  8
P-SANR-FIXT
100
AcDbLine
 10
1382.114353943102
 20
2129.982515035166
 30
0.0
 11
1382.114353943102
 21
2142.482515035161
 31
0.0
  0
LINE
  5
3DA
330
30C
100
AcDbEntity
  8
P-SANR-FIXT
100
AcDbLine
 10
1382.114353943102
 20
2117.482515035172
 30
0.0
 11
1382.114353943102
 21
2129.982515035166
 31
0.0
  0
LINE
  5
3DB
330
30C
100
AcDbEntity
  8
P-SANR-FIXT
100
AcDbLine
 10
1349.264353943104
 20
1833.682480947998
 30
0.0
 11
1349.264353943104
 21
1999.982558850011
 31
0.0
  0
LINE
  5
3DC
330
30C
100
AcDbEntity
  8
P-SANR-FIXT
100
AcDbLine
 10
1361.364353943104
 20
1819.982558850011
 30
0.0
 11
1361.364353943104
 21
1821.582480947999
 31
0.0
  0
LINE
  5
3DD
330
30C
100
AcDbEntity
  8
P-SANR-FIXT
100
AcDbLine
 10
1336.114353943104
 20
2203.482558850012
 30
0.0
 11
1336.114353943104
 21
2226.482558850012
 31
0.0
  0
LINE
  5
3DE
330
30C
100
AcDbEntity
  8
P-SANR-FIXT
100
AcDbLine
 10
1349.264353943104
 20
1999.982558850011
 30
0.0
 11
1349.264353943104
 21
2119.332515035207
 31
0.0
  0
LINE
  5
3DF
330
30C
100
AcDbEntity
  8
P-SANR-FIXT
100
AcDbLine
 10
1349.264353943104
 20
2140.632515035206
 30
0.0
 11
1349.264353943104
 21
2203.482558850012
 31
0.0
  0
LINE
  5
3E0
330
30C
100
AcDbEntity
  8
P-SANR-FIXT
100
AcDbLine
 10
1361.364353943103
 20
1784.982558850011
 30
0.0
 11
1361.364353943103
 21
1819.982558850011
 31
0.0
  0
LINE
  5
3E1
330
30C
100
AcDbEntity
  8
P-SANR-FIXT
100
AcDbLine
 10
1382.114353943104
 20
2140.632515035207
 30
0.0
 11
1349.264353943104
 21
2140.632515035206
 31
0.0
  0
LINE
  5
3E2
330
30C
100
AcDbEntity
  8
P-SANR-FIXT
100
AcDbLine
 10
1349.264353943104
 20
2119.332515035207
 30
0.0
 11
1382.114353943104
 21
2119.332515035207
 31
0.0
  0
LINE
  5
3E3
330
30C
100
AcDbEntity
  8
P-SANR-FIXT
100
AcDbLine
 10
1349.264353943104
 20
1821.582480947999
 30
0.0
 11
1349.264353943104
 21
1833.682480947998
 31
0.0
  0
LINE
  5
3E4
330
30C
100
AcDbEntity
  8
P-SANR-FIXT
100
AcDbLine
 10
1361.364353943102
 20
1821.582480947998
 30
0.0
 11
1292.413677995513
 21
1821.582480947998
 31
0.0
  0
LINE
  5
3E5
330
30C
100
AcDbEntity
  8
P-SANR-FIXT
100
AcDbLine
 10
1292.413842939968
 20
2226.482558850011
 30
0.0
 11
1336.114353943102
 21
2226.482558850011
 31
0.0
  0
LINE
  5
3E6
330
30C
100
AcDbEntity
  8
P-SANR-FIXT
100
AcDbLine
 10
1292.413743005909
 20
2203.482558850011
 30
0.0
 11
1349.264353943102
 21
2203.482558850011
 31
0.0
  0
SPLINE
  5
3E7
330
30C
100
AcDbEntity
  8
P-SANR-FIXT
100
AcDbSpline
210
0.0
220
0.0
230
1.0
 70
     8
 71
     3
 72
    23
 73
    19
 74
     0
 42
0.000000001
 43
0.0000000001
 40
0.0
 40
0.0
 40
0.0
 40
0.0
 40
0.0555555555555556
 40
0.1111111111111111
 40
0.1666666666666666
 40
0.2222222222222222
 40
0.2777777777777778
 40
0.3333333333333333
 40
0.3888888888888888
 40
0.4444444444444445
 40
0.5138888888888889
 40
0.5486111111111111
 40
0.5833333333333333
 40
0.6527777777777777
 40
0.7222222222222223
 40
0.7916666666666668
 40
0.861111111111111
 40
1.0
 40
1.0
 40
1.0
 40
1.0
 10
1349.264353943102
 20
2119.332515035205
 30
0.0
 10
1349.264353943102
 20
2119.339403584831
 30
0.0
 10
1349.24233379386
 20
2119.455296760479
 30
0.0
 10
1349.155992643471
 20
2119.92075024917
 30
0.0
 10
1349.020599223562
 20
2120.722020975007
 30
0.0
 10
1348.854087232692
 20
2121.783165841657
 30
0.0
 10
1348.678081801851
 20
2123.105344380316
 30
0.0
 10
1348.510217431094
 20
2124.622709503972
 30
0.0
 10
1348.375002778885
 20
2126.319854625942
 30
0.0
 10
1348.275722957865
 20
2128.270428665899
 30
0.0
 10
1348.255235885065
 20
2130.067006514166
 30
0.0
 10
1348.282952511955
 20
2131.617815048247
 30
0.0
 10
1348.342448293812
 20
2133.111295869337
 30
0.0
 10
1348.470466018391
 20
2134.961342452802
 30
0.0
 10
1348.677415736527
 20
2136.880313702444
 30
0.0
 10
1348.898417294224
 20
2138.492165708889
 30
0.0
 10
1349.164836033661
 20
2140.12356419386
 30
0.0
 10
1349.264353943102
 20
2140.614865405426
 30
0.0
 10
1349.264353943102
 20
2140.632515035205
 30
0.0
  0
LINE
  5
3E8
330
30C
100
AcDbEntity
  8
P-SANR-FIXT
100
AcDbLine
 10
1292.413677995513
 20
1784.98255885001
 30
0.0
 11
1361.364353943101
 21
1784.98255885001
 31
0.0
  0
ENDBLK
  5
3EA
330
30C
100
AcDbEntity
  8
0
100
AcDbBlockEnd
  0
ENDSEC
  0
SECTION
  2
ENTITIES
  0
INSERT
  5
24D
330
71
100
AcDbEntity
  8
P-SANR-FIXT
100
AcDbBlockReference
  2
Automatic flow rate regulator valve_Caleffi_121 DN15 - 1_2__-859151-Est - Idraulica
 10
0.0
 20
0.0
 30
0.0
1001
REVIT
1002
{
1070
     1
1000
863131
1002
}
1002
{
1070
     5
1000
859151
1002
}
1002
{
1070
     2
1000
-2001160
1002
}
  0
INSERT
  5
30B
330
71
100
AcDbEntity
  8
P-SANR-FIXT
100
AcDbBlockReference
  2
Automatic flow rate regulator valve_Caleffi_121 DN15 - 1_2__-V1-Est - Idraulica
 10
0.0
 20
0.0
 30
0.0
1001
REVIT
1002
{
1070
     1
1000
863152
1002
}
1002
{
1070
     5
1000
859151
1002
}
1002
{
1070
     2
1000
-2001160
1002
}
  0
INSERT
  5
3EB
330
71
100
AcDbEntity
  8
P-SANR-FIXT
100
AcDbBlockReference
  2
Automatic flow rate regulator valve_Caleffi_121 DN15 - 1_2__-V2-Est - Idraulica
 10
0.0
 20
0.0
 30
0.0
1001
REVIT
1002
{
1070
     1
1000
863172
1002
}
1002
{
1070
     5
1000
859151
1002
}
1002
{
1070
     2
1000
-2001160
1002
}
  0
ENDSEC
  0
SECTION
  2
OBJECTS
  0
DICTIONARY
  5
C
330
0
100
AcDbDictionary
281
     1
  3
ACAD_CIP_PREVIOUS_PRODUCT_INFO
350
7A
  3
ACAD_COLOR
350
63
  3
ACAD_DETAILVIEWSTYLE
350
6B
  3
ACAD_GROUP
350
D
  3
ACAD_IMAGE_VARS
350
7B
  3
ACAD_LAYOUT
350
62
  3
ACAD_MATERIAL
350
10
  3
ACAD_MLEADERSTYLE
350
66
  3
ACAD_MLINESTYLE
350
5F
  3
ACAD_PLOTSETTINGS
350
61
  3
ACAD_PLOTSTYLENAME
350
E
  3
ACAD_SCALELIST
350
42
  3
ACAD_SECTIONVIEWSTYLE
350
68
  3
ACAD_TABLESTYLE
350
64
  3
ACAD_VISUALSTYLE
350
29
  3
ACDB_RECOMPOSE_DATA
350
3F5
  3
AcDbVariableDictionary
350
7C
  3
REVIT_DICTIONARY
350
3ED
  0
DICTIONARY
  5
3F1
330
71
100
AcDbDictionary
280
     1
281
     1
  3
ACAD_SORTENTS
360
3F2
  0
XRECORD
  5
7A
102
{ACAD_REACTORS
330
C
102
}
330
C
100
AcDbXrecord
280
     1
300
RVT
300
2013
300
RVT2013
  0
DICTIONARY
  5
63
102
{ACAD_REACTORS
330
C
102
}
330
C
100
AcDbDictionary
281
     1
  0
DICTIONARY
  5
6B
102
{ACAD_REACTORS
330
C
102
}
330
C
100
AcDbDictionary
281
     1
  3
Imperial24
350
6C
  0
DICTIONARY
  5
D
102
{ACAD_REACTORS
330
C
102
}
330
C
100
AcDbDictionary
281
     1
  0
RASTERVARIABLES
  5
7B
102
{ACAD_REACTORS
330
C
102
}
330
C
100
AcDbRasterVariables
 90
        0
 70
     0
 71
     1
 72
     1
  0
DICTIONARY
  5
62
102
{ACAD_REACTORS
330
C
102
}
330
C
100
AcDbDictionary
281
     1
  3
Layout1
350
70
  3
Layout2
350
78
  3
Model
350
74
  0
DICTIONARY
  5
10
102
{ACAD_REACTORS
330
C
102
}
330
C
100
AcDbDictionary
281
     1
  3
ByBlock
350
19
  3
ByLayer
350
11
  3
Global
350
21
  0
DICTIONARY
  5
66
102
{ACAD_REACTORS
330
C
102
}
330
C
100
AcDbDictionary
281
     1
  3
Standard
350
67
  0
DICTIONARY
  5
5F
102
{ACAD_REACTORS
330
C
102
}
330
C
100
AcDbDictionary
281
     1
  3
Standard
350
60
  0
DICTIONARY
  5
61
102
{ACAD_REACTORS
330
C
102
}
330
C
100
AcDbDictionary
281
     1
  0
ACDBDICTIONARYWDFLT
  5
E
102
{ACAD_REACTORS
330
C
102
}
330
C
100
AcDbDictionary
281
     1
  3
Normal
350
F
100
AcDbDictionaryWithDefault
340
F
  0
DICTIONARY
  5
42
102
{ACAD_REACTORS
330
C
102
}
330
C
100
AcDbDictionary
281
     1
  3
A0
350
43
  3
A1
350
44
  3
A2
350
45
  3
A3
350
46
  3
A4
350
47
  3
A5
350
48
  3
A6
350
49
  3
A7
350
4A
  3
A8
350
4B
  3
A9
350
4C
  3
B0
350
4D
  3
B1
350
4E
  3
B2
350
4F
  3
B3
350
50
  3
B4
350
51
  3
B5
350
52
  3
B6
350
53
  0
DICTIONARY
  5
68
102
{ACAD_REACTORS
330
C
102
}
330
C
100
AcDbDictionary
281
     1
  3
Imperial24
350
6A
  0
DICTIONARY
  5
64
102
{ACAD_REACTORS
330
C
102
}
330
C
100
AcDbDictionary
281
     1
  3
Standard
350
65
  0
DICTIONARY
  5
29
102
{ACAD_REACTORS
330
C
102
}
330
C
100
AcDbDictionary
281
     1
  3
2dWireframe
350
2F
  3
Basic
350
2E
  3
Brighten
350
35
  3
ColorChange
350
39
  3
Conceptual
350
32
  3
Dim
350
34
  3
EdgeColorOff
350
41
  3
Facepattern
350
38
  3
Flat
350
2A
  3
FlatWithEdges
350
2B
  3
Gouraud
350
2C
  3
GouraudWithEdges
350
2D
  3
Hidden
350
31
  3
JitterOff
350
3F
  3
Linepattern
350
37
  3
OverhangOff
350
40
  3
Realistic
350
33
  3
Shaded
350
3E
  3
Shaded with edges
350
3D
  3
Shades of Gray
350
3A
  3
Sketchy
350
3B
  3
Thicken
350
36
  3
Wireframe
350
30
  3
X-Ray
350
3C
  0
XRECORD
  5
3F5
102
{ACAD_REACTORS
330
C
102
}
330
C
100
AcDbXrecord
280
     1
 90
        1
330
65
  0
DICTIONARY
  5
7C
102
{ACAD_REACTORS
330
C
102
}
330
C
100
AcDbDictionary
281
     1
  3
CANNOSCALE
350
81
  3
CMLEADERSTYLE
350
7E
  3
CTABLESTYLE
350
7D
  3
CVIEWDETAILSTYLE
350
7F
  3
CVIEWSECTIONSTYLE
350
80
  0
DICTIONARY
  5
3ED
102
{ACAD_REACTORS
330
C
102
}
330
C
100
AcDbDictionary
281
     1
  3
DRAWING_TOOL
350
3F0
  3
REVIT_CATEGORY_MAPPING
350
3EF
  3
REVIT_TYPE_MAPPING
350
3EE
  0
SORTENTSTABLE
  5
3F2
102
{ACAD_REACTORS
330
3F1
102
}
330
3F1
100
AcDbSortentsTable
330
71
  0
ACDBDETAILVIEWSTYLE
  5
6C
102
{ACAD_REACTORS
330
6B
102
}
330
6B
100
AcDbModelDocViewStyle
 70
     0
  3
Imperial24
290
     1
100
AcDbDetailViewStyle
 70
     0
 71
     0
 90
        3
 71
     1
340
55
 62
   256
 40
0.24
340
0
 62
   256
 40
0.24
300

 40
0.36
280
     3
 71
     2
340
5D
 90
       25
 62
   256
 71
     3
340
55
 62
   256
 40
0.24
 90
        1
 40
0.75
 90
        1
300
%<\AcVar ViewType \f "%tc1">% %<\AcVar ViewDetailId>%\PSCALA %<\AcVar ViewScale \f "%sn">%
 71
     4
340
5D
 90
       25
 62
   256
340
5D
 90
       25
 62
   256
280
     0
  0
LAYOUT
  5
70
102
{ACAD_REACTORS
330
62
102
}
330
62
100
AcDbPlotSettings
  1

  2

  4

  6

 40
0.0
 41
0.0
 42
0.0
 43
0.0
 44
0.0
 45
0.0
 46
0.0
 47
0.0
 48
0.0
 49
0.0
140
0.0
141
0.0
142
1.0
143
1.0
 70
   688
 72
     0
 73
     0
 74
     5
  7

 75
    16
147
1.0
 76
     0
 77
     2
 78
   300
148
0.0
149
0.0
100
AcDbLayout
  1
Layout1
 70
     1
 71
     1
 10
0.0
 20
0.0
 11
12.0
 21
9.0
 12
0.0
 22
0.0
 32
0.0
 14
0.0
 24
0.0
 34
0.0
 15
0.0
 25
0.0
 35
0.0
146
0.0
 13
0.0
 23
0.0
 33
0.0
 16
1.0
 26
0.0
 36
0.0
 17
0.0
 27
1.0
 37
0.0
 76
     0
330
6D
  0
LAYOUT
  5
78
102
{ACAD_REACTORS
330
62
102
}
330
62
100
AcDbPlotSettings
  1

  2

  4

  6

 40
0.0
 41
0.0
 42
0.0
 43
0.0
 44
0.0
 45
0.0
 46
0.0
 47
0.0
 48
0.0
 49
0.0
140
0.0
141
0.0
142
1.0
143
1.0
 70
   688
 72
     0
 73
     0
 74
     5
  7

 75
    16
147
1.0
 76
     0
 77
     2
 78
   300
148
0.0
149
0.0
100
AcDbLayout
  1
Layout2
 70
     1
 71
     2
 10
0.0
 20
0.0
 11
12.0
 21
9.0
 12
0.0
 22
0.0
 32
0.0
 14
0.0
 24
0.0
 34
0.0
 15
0.0
 25
0.0
 35
0.0
146
0.0
 13
0.0
 23
0.0
 33
0.0
 16
1.0
 26
0.0
 36
0.0
 17
0.0
 27
1.0
 37
0.0
 76
     0
330
75
  0
LAYOUT
  5
74
102
{ACAD_REACTORS
330
62
102
}
330
62
100
AcDbPlotSettings
  1

  2

  4

  6

 40
0.0
 41
0.0
 42
0.0
 43
0.0
 44
0.0
 45
0.0
 46
0.0
 47
0.0
 48
0.0
 49
0.0
140
0.0
141
0.0
142
1.0
143
1.0
 70
  1712
 72
     0
 73
     0
 74
     0
  7

 75
     0
147
1.0
 76
     0
 77
     2
 78
   300
148
0.0
149
0.0
100
AcDbLayout
  1
Model
 70
     1
 71
     0
 10
0.0
 20
0.0
 11
12.0
 21
9.0
 12
0.0
 22
0.0
 32
0.0
 14
0.0
 24
0.0
 34
0.0
 15
0.0
 25
0.0
 35
0.0
146
0.0
 13
0.0
 23
0.0
 33
0.0
 16
1.0
 26
0.0
 36
0.0
 17
0.0
 27
1.0
 37
0.0
 76
     0
330
71
  0
MATERIAL
  5
19
102
{ACAD_XDICTIONARY
360
1A
102
}
102
{ACAD_REACTORS
330
10
102
}
330
10
100
AcDbMaterial
  1
ByBlock
 72
     0
 43
0.0208333333333333
 43
0.0
 43
0.0
 43
0.0
 43
0.0
 43
0.0208333333333333
 43
0.0
 43
0.0
 43
0.0
 43
0.0
 43
1.0
 43
0.0
 43
0.0
 43
0.0
 43
0.0
 43
1.0
 77
     0
 47
0.0208333333333333
 47
0.0
 47
0.0
 47
0.0
 47
0.0
 47
0.0208333333333333
 47
0.0
 47
0.0
 47
0.0
 47
0.0
 47
1.0
 47
0.0
 47
0.0
 47
0.0
 47
0.0
 47
1.0
171
     0
 49
0.0208333333333333
 49
0.0
 49
0.0
 49
0.0
 49
0.0
 49
0.0208333333333333
 49
0.0
 49
0.0
 49
0.0
 49
0.0
 49
1.0
 49
0.0
 49
0.0
 49
0.0
 49
0.0
 49
1.0
175
     0
142
0.0208333333333333
142
0.0
142
0.0
142
0.0
142
0.0
142
0.0208333333333333
142
0.0
142
0.0
142
0.0
142
0.0
142
1.0
142
0.0
142
0.0
142
0.0
142
0.0
142
1.0
179
     0
144
0.0208333333333333
144
0.0
144
0.0
144
0.0
144
0.0
144
0.0208333333333333
144
0.0
144
0.0
144
0.0
144
0.0
144
1.0
144
0.0
144
0.0
144
0.0
144
0.0
144
1.0
147
0.0208333333333333
147
0.0
147
0.0
147
0.0
147
0.0
147
0.0208333333333333
147
0.0
147
0.0
147
0.0
147
0.0
147
1.0
147
0.0
147
0.0
147
0.0
147
0.0
147
1.0
  0
MATERIAL
  5
11
102
{ACAD_XDICTIONARY
360
12
102
}
102
{ACAD_REACTORS
330
10
102
}
330
10
100
AcDbMaterial
  1
ByLayer
 72
     0
 43
0.0208333333333333
 43
0.0
 43
0.0
 43
0.0
 43
0.0
 43
0.0208333333333333
 43
0.0
 43
0.0
 43
0.0
 43
0.0
 43
1.0
 43
0.0
 43
0.0
 43
0.0
 43
0.0
 43
1.0
 77
     0
 47
0.0208333333333333
 47
0.0
 47
0.0
 47
0.0
 47
0.0
 47
0.0208333333333333
 47
0.0
 47
0.0
 47
0.0
 47
0.0
 47
1.0
 47
0.0
 47
0.0
 47
0.0
 47
0.0
 47
1.0
171
     0
 49
0.0208333333333333
 49
0.0
 49
0.0
 49
0.0
 49
0.0
 49
0.0208333333333333
 49
0.0
 49
0.0
 49
0.0
 49
0.0
 49
1.0
 49
0.0
 49
0.0
 49
0.0
 49
0.0
 49
1.0
175
     0
142
0.0208333333333333
142
0.0
142
0.0
142
0.0
142
0.0
142
0.0208333333333333
142
0.0
142
0.0
142
0.0
142
0.0
142
1.0
142
0.0
142
0.0
142
0.0
142
0.0
142
1.0
179
     0
144
0.0208333333333333
144
0.0
144
0.0
144
0.0
144
0.0
144
0.0208333333333333
144
0.0
144
0.0
144
0.0
144
0.0
144
1.0
144
0.0
144
0.0
144
0.0
144
0.0
144
1.0
147
0.0208333333333333
147
0.0
147
0.0
147
0.0
147
0.0
147
0.0208333333333333
147
0.0
147
0.0
147
0.0
147
0.0
147
1.0
147
0.0
147
0.0
147
0.0
147
0.0
147
1.0
  0
MATERIAL
  5
21
102
{ACAD_XDICTIONARY
360
22
102
}
102
{ACAD_REACTORS
330
10
102
}
330
10
100
AcDbMaterial
  1
Global
 72
     0
 43
0.0208333333333333
 43
0.0
 43
0.0
 43
0.0
 43
0.0
 43
0.0208333333333333
 43
0.0
 43
0.0
 43
0.0
 43
0.0
 43
1.0
 43
0.0
 43
0.0
 43
0.0
 43
0.0
 43
1.0
 77
     0
 47
0.0208333333333333
 47
0.0
 47
0.0
 47
0.0
 47
0.0
 47
0.0208333333333333
 47
0.0
 47
0.0
 47
0.0
 47
0.0
 47
1.0
 47
0.0
 47
0.0
 47
0.0
 47
0.0
 47
1.0
171
     0
 49
0.0208333333333333
 49
0.0
 49
0.0
 49
0.0
 49
0.0
 49
0.0208333333333333
 49
0.0
 49
0.0
 49
0.0
 49
0.0
 49
1.0
 49
0.0
 49
0.0
 49
0.0
 49
0.0
 49
1.0
175
     0
142
0.0208333333333333
142
0.0
142
0.0
142
0.0
142
0.0
142
0.0208333333333333
142
0.0
142
0.0
142
0.0
142
0.0
142
1.0
142
0.0
142
0.0
142
0.0
142
0.0
142
1.0
179
     0
144
0.0208333333333333
144
0.0
144
0.0
144
0.0
144
0.0
144
0.0208333333333333
144
0.0
144
0.0
144
0.0
144
0.0
144
1.0
144
0.0
144
0.0
144
0.0
144
0.0
144
1.0
147
0.0208333333333333
147
0.0
147
0.0
147
0.0
147
0.0
147
0.0208333333333333
147
0.0
147
0.0
147
0.0
147
0.0
147
1.0
147
0.0
147
0.0
147
0.0
147
0.0
147
1.0
  0
MLEADERSTYLE
  5
67
102
{ACAD_REACTORS
330
66
102
}
330
66
100
AcDbMLeaderStyle
179
     2
170
     2
171
     1
172
     0
 90
        2
 40
0.0
 41
0.0
173
     1
 91
-1056964608
340
5B
 92
       -2
290
     1
 42
0.09
291
     1
 43
0.36
  3
Standard
 44
0.18
300

342
55
174
     1
178
     6
175
     1
176
     0
 93
-1056964608
 45
0.18
292
     0
297
     0
 46
0.18
 94
-1056964608
 47
1.0
 49
1.0
140
1.0
293
     1
141
0.0
294
     1
177
     0
142
1.0
295
     1
296
     0
143
0.125
271
     0
272
     9
273
     9
298
     1
  0
MLINESTYLE
  5
60
102
{ACAD_REACTORS
330
5F
102
}
330
5F
100
AcDbMlineStyle
  2
STANDARD
 70
     0
  3

 62
   256
 51
90.0
 52
90.0
 71
     2
 49
0.5
 62
   256
  6
BYLAYER
 49
-0.5
 62
   256
  6
BYLAYER
  0
ACDBPLACEHOLDER
  5
F
102
{ACAD_REACTORS
330
E
102
}
330
E
  0
SCALE
  5
43
102
{ACAD_REACTORS
330
42
102
}
330
42
100
AcDbScale
 70
     0
300
1:1
140
1.0
141
1.0
290
     1
  0
SCALE
  5
44
102
{ACAD_REACTORS
330
42
102
}
330
42
100
AcDbScale
 70
     0
300
1/128" = 1'-0"
140
0.0078125
141
12.0
290
     0
  0
SCALE
  5
45
102
{ACAD_REACTORS
330
42
102
}
330
42
100
AcDbScale
 70
     0
300
1/64" = 1'-0"
140
0.015625
141
12.0
290
     0
  0
SCALE
  5
46
102
{ACAD_REACTORS
330
42
102
}
330
42
100
AcDbScale
 70
     0
300
1/32" = 1'-0"
140
0.03125
141
12.0
290
     0
  0
SCALE
  5
47
102
{ACAD_REACTORS
330
42
102
}
330
42
100
AcDbScale
 70
     0
300
1/16" = 1'-0"
140
0.0625
141
12.0
290
     0
  0
SCALE
  5
48
102
{ACAD_REACTORS
330
42
102
}
330
42
100
AcDbScale
 70
     0
300
3/32" = 1'-0"
140
0.09375
141
12.0
290
     0
  0
SCALE
  5
49
102
{ACAD_REACTORS
330
42
102
}
330
42
100
AcDbScale
 70
     0
300
1/8" = 1'-0"
140
0.125
141
12.0
290
     0
  0
SCALE
  5
4A
102
{ACAD_REACTORS
330
42
102
}
330
42
100
AcDbScale
 70
     0
300
3/16" = 1'-0"
140
0.1875
141
12.0
290
     0
  0
SCALE
  5
4B
102
{ACAD_REACTORS
330
42
102
}
330
42
100
AcDbScale
 70
     0
300
1/4" = 1'-0"
140
0.25
141
12.0
290
     0
  0
SCALE
  5
4C
102
{ACAD_REACTORS
330
42
102
}
330
42
100
AcDbScale
 70
     0
300
3/8" = 1'-0"
140
0.375
141
12.0
290
     0
  0
SCALE
  5
4D
102
{ACAD_REACTORS
330
42
102
}
330
42
100
AcDbScale
 70
     0
300
1/2" = 1'-0"
140
0.5
141
12.0
290
     0
  0
SCALE
  5
4E
102
{ACAD_REACTORS
330
42
102
}
330
42
100
AcDbScale
 70
     0
300
3/4" = 1'-0"
140
0.75
141
12.0
290
     0
  0
SCALE
  5
4F
102
{ACAD_REACTORS
330
42
102
}
330
42
100
AcDbScale
 70
     0
300
1" = 1'-0"
140
1.0
141
12.0
290
     0
  0
SCALE
  5
50
102
{ACAD_REACTORS
330
42
102
}
330
42
100
AcDbScale
 70
     0
300
1-1/2" = 1'-0"
140
1.5
141
12.0
290
     0
  0
SCALE
  5
51
102
{ACAD_REACTORS
330
42
102
}
330
42
100
AcDbScale
 70
     0
300
3" = 1'-0"
140
3.0
141
12.0
290
     0
  0
SCALE
  5
52
102
{ACAD_REACTORS
330
42
102
}
330
42
100
AcDbScale
 70
     0
300
6" = 1'-0"
140
6.0
141
12.0
290
     0
  0
SCALE
  5
53
102
{ACAD_REACTORS
330
42
102
}
330
42
100
AcDbScale
 70
     0
300
1'-0" = 1'-0"
140
12.0
141
12.0
290
     0
  0
ACDBSECTIONVIEWSTYLE
  5
6A
102
{ACAD_REACTORS
330
68
102
}
330
68
100
AcDbModelDocViewStyle
 70
     0
  3
Imperial24
290
     1
100
AcDbSectionViewStyle
 70
     0
 71
     0
 90
       78
 71
     1
340
55
 62
   256
 40
0.24
340
0
340
0
 62
   256
 40
0.24
300
I, O, Q, S, X, Z
 40
0.48
 90
        3
 40
0.18
 90
        1
 71
     2
340
69
 90
       25
 62
   256
340
5D
 90
       50
 62
   256
 40
0.24
 40
0.0
 40
0.24
 71
     3
340
55
 62
   256
 40
0.24
 90
        1
 40
0.75
 90
        1
300
%<\AcVar ViewType \f "%tc1">% %<\AcVar ViewSectionStartId>%-%<\AcVar ViewSectionEndId>%\PSCALA %<\AcVar ViewScale \f "%sn">%
 71
     4
 62
   256
 62
   257
300
ANSI31
 40
1.0
 90
        0
290
     0
290
     0
 90
        6
 40
0.0
 40
1.570796326794896
 40
0.2617993877991494
 40
1.308996938995747
 40
-0.2617993877991494
 40
1.832595714594046
  0
TABLESTYLE
  5
65
102
{ACAD_XDICTIONARY
360
3F3
102
}
102
{ACAD_REACTORS
330
64
102
}
330
64
100
AcDbTableStyle
280
     0
  3
Standard
 70
     0
 71
     0
 40
0.06
 41
0.06
280
     0
281
     0
  7
Standard
140
0.18
170
     2
 62
     0
 63
     7
283
     0
 90
      512
 91
        0
  1

274
    -2
284
     1
 64
     0
275
    -2
285
     1
 65
     0
276
    -2
286
     1
 66
     0
277
    -2
287
     1
 67
     0
278
    -2
288
     1
 68
     0
279
    -2
289
     1
 69
     0
  7
Standard
140
0.25
170
     5
 62
     0
 63
     7
283
     0
 90
      512
 91
        0
  1

274
    -2
284
     1
 64
     0
275
    -2
285
     1
 65
     0
276
    -2
286
     1
 66
     0
277
    -2
287
     1
 67
     0
278
    -2
288
     1
 68
     0
279
    -2
289
     1
 69
     0
  7
Standard
140
0.18
170
     5
 62
     0
 63
     7
283
     0
 90
      512
 91
        0
  1

274
    -2
284
     1
 64
     0
275
    -2
285
     1
 65
     0
276
    -2
286
     1
 66
     0
277
    -2
287
     1
 67
     0
278
    -2
288
     1
 68
     0
279
    -2
289
     1
 69
     0
  0
VISUALSTYLE
  5
2F
102
{ACAD_REACTORS
330
29
102
}
330
29
100
AcDbVisualStyle
  2
2dWireframe
 70
     4
177
     3
291
     0
 70
    58
 90
        0
176
     1
 90
        2
176
     1
 90
        0
176
     1
 90
        0
176
     1
 40
0.6
176
     1
 40
30.0
176
     1
 62
     7
420
 16777215
176
     1
 90
        1
176
     1
 90
        4
176
     1
 62
     7
176
     1
 62
   257
176
     1
 90
        1
176
     1
 90
        1
176
     1
 40
1.0
176
     1
 90
        0
176
     1
 62
   257
176
     1
 40
1.0
176
     1
 90
        1
176
     1
 90
        6
176
     1
 90
        2
176
     1
 62
     7
176
     1
 90
        5
176
     1
 90
        0
176
     1
 90
        0
176
     1
290
     0
176
     1
 90
        1
176
     1
 40
0.0
176
     1
 90
        0
176
     1
290
     1
176
     1
290
     1
176
     1
290
     0
176
     1
290
     0
176
     1
290
     0
176
     1
290
     0
176
     1
290
     0
176
     1
290
     0
176
     1
290
     0
176
     1
 90
       50
176
     1
 40
0.0
176
     1
 40
1.0
176
     1
 90
        0
176
     1
 62
    18
420
        0
176
     1
 90
       50
176
     1
 90
        3
176
     1
 62
     5
420
      255
176
     1
290
     0
176
     1
 90
       50
176
     1
 90
       50
176
     1
 90
       50
176
     1
290
     0
176
     1
 90
       50
176
     1
 62
   256
176
     0
 40
1.0
176
     0
 90
        2
176
     1
  1
strokes_ogs.tif
176
     1
290
     0
176
     1
 40
1.0
176
     1
 40
1.0
176
     1
  0
VISUALSTYLE
  5
2E
102
{ACAD_REACTORS
330
29
102
}
330
29
100
AcDbVisualStyle
  2
Basic
 70
     7
177
     3
291
     1
 70
    58
 90
        1
176
     1
 90
        0
176
     1
 90
        1
176
     1
 90
        0
176
     1
 40
0.6
176
     1
 40
30.0
176
     1
 62
     7
420
 16777215
176
     1
 90
        0
176
     1
 90
        4
176
     1
 62
     7
176
     1
 62
   257
176
     1
 90
        1
176
     1
 90
        1
176
     1
 40
1.0
176
     1
 90
        8
176
     1
 62
     7
176
     1
 40
1.0
176
     1
 90
        1
176
     1
 90
        6
176
     1
 90
        2
176
     1
 62
     7
176
     1
 90
        5
176
     1
 90
        0
176
     1
 90
        0
176
     1
290
     0
176
     1
 90
        1
176
     1
 40
0.0
176
     1
 90
        0
176
     1
290
     0
176
     1
290
     1
176
     1
290
     1
176
     1
290
     0
176
     1
290
     0
176
     1
290
     0
176
     1
290
     0
176
     1
290
     0
176
     1
290
     0
176
     1
 90
       50
176
     1
 40
0.0
176
     1
 40
1.0
176
     1
 90
        0
176
     1
 62
    18
420
        0
176
     1
 90
       50
176
     1
 90
        3
176
     1
 62
     5
420
      255
176
     1
290
     0
176
     1
 90
       50
176
     1
 90
       50
176
     1
 90
       50
176
     1
290
     0
176
     1
 90
       50
176
     1
 62
   256
176
     0
 40
1.0
176
     0
 90
        2
176
     1
  1
strokes_ogs.tif
176
     1
290
     0
176
     1
 40
1.0
176
     1
 40
1.0
176
     1
  0
VISUALSTYLE
  5
35
102
{ACAD_REACTORS
330
29
102
}
330
29
100
AcDbVisualStyle
  2
Brighten
 70
    12
177
     3
291
     1
 70
    58
 90
        2
176
     1
 90
        2
176
     1
 90
        0
176
     1
 90
        0
176
     1
 40
0.6
176
     1
 40
30.0
176
     1
 62
     7
420
 16777215
176
     1
 90
        1
176
     1
 90
        4
176
     1
 62
     7
176
     1
 62
   257
176
     1
 90
        1
176
     1
 90
        1
176
     1
 40
1.0
176
     1
 90
        8
176
     1
 62
     7
176
     1
 40
1.0
176
     1
 90
        1
176
     1
 90
        6
176
     1
 90
        2
176
     1
 62
     7
176
     1
 90
        5
176
     1
 90
        0
176
     1
 90
        0
176
     1
290
     0
176
     1
 90
        1
176
     1
 40
50.0
176
     1
 90
        0
176
     1
290
     0
176
     1
290
     1
176
     1
290
     1
176
     1
290
     0
176
     1
290
     0
176
     1
290
     0
176
     1
290
     0
176
     1
290
     0
176
     1
290
     0
176
     1
 90
       50
176
     1
 40
0.0
176
     1
 40
1.0
176
     1
 90
        0
176
     1
 62
    18
420
        0
176
     1
 90
       50
176
     1
 90
        3
176
     1
 62
     5
420
      255
176
     1
290
     0
176
     1
 90
       50
176
     1
 90
       50
176
     1
 90
       50
176
     1
290
     0
176
     1
 90
       50
176
     1
 62
   256
176
     0
 40
1.0
176
     0
 90
        2
176
     1
  1
strokes_ogs.tif
176
     1
290
     0
176
     1
 40
1.0
176
     1
 40
1.0
176
     1
  0
VISUALSTYLE
  5
39
102
{ACAD_REACTORS
330
29
102
}
330
29
100
AcDbVisualStyle
  2
ColorChange
 70
    16
177
     3
291
     1
 70
    58
 90
        2
176
     1
 90
        2
176
     1
 90
        3
176
     1
 90
        0
176
     1
 40
0.6
176
     1
 40
30.0
176
     1
 62
     8
420
  8421504
176
     1
 90
        1
176
     1
 90
        4
176
     1
 62
     7
176
     1
 62
   257
176
     1
 90
        1
176
     1
 90
        1
176
     1
 40
1.0
176
     1
 90
        8
176
     1
 62
     8
420
  8421504
176
     1
 40
1.0
176
     1
 90
        1
176
     1
 90
        6
176
     1
 90
        2
176
     1
 62
     7
176
     1
 90
        5
176
     1
 90
        0
176
     1
 90
        0
176
     1
290
     0
176
     1
 90
        1
176
     1
 40
0.0
176
     1
 90
        0
176
     1
290
     0
176
     1
290
     1
176
     1
290
     1
176
     1
290
     0
176
     1
290
     0
176
     1
290
     0
176
     1
290
     0
176
     1
290
     0
176
     1
290
     0
176
     1
 90
       50
176
     1
 40
0.0
176
     1
 40
1.0
176
     1
 90
        0
176
     1
 62
    18
420
        0
176
     1
 90
       50
176
     1
 90
        3
176
     1
 62
     5
420
      255
176
     1
290
     0
176
     1
 90
       50
176
     1
 90
       50
176
     1
 90
       50
176
     1
290
     0
176
     1
 90
       50
176
     1
 62
   256
176
     0
 40
1.0
176
     0
 90
        2
176
     1
  1
strokes_ogs.tif
176
     1
290
     0
176
     1
 40
1.0
176
     1
 40
1.0
176
     1
  0
VISUALSTYLE
  5
32
102
{ACAD_REACTORS
330
29
102
}
330
29
100
AcDbVisualStyle
  2
Conceptual
 70
     9
177
     3
291
     0
 70
    58
 90
        3
176
     1
 90
        2
176
     1
 90
        0
176
     1
 90
        0
176
     1
 40
0.6
176
     1
 40
30.0
176
     1
 62
     7
420
 16777215
176
     1
 90
        2
176
     1
 90
        2
176
     1
 62
     7
176
     1
 62
   257
176
     1
 90
        1
176
     1
 90
        1
176
     1
 40
179.0
176
     1
 90
        8
176
     1
 62
     7
176
     1
 40
1.0
176
     1
 90
        1
176
     1
 90
        6
176
     1
 90
        2
176
     1
 62
     7
176
     1
 90
        3
176
     1
 90
        0
176
     1
 90
        0
176
     1
290
     0
176
     1
 90
        1
176
     1
 40
0.0
176
     1
 90
        0
176
     1
290
     0
176
     1
290
     1
176
     1
290
     1
176
     1
290
     0
176
     1
290
     0
176
     1
290
     0
176
     1
290
     0
176
     1
290
     0
176
     1
290
     0
176
     1
 90
       50
176
     1
 40
0.0
176
     1
 40
1.0
176
     1
 90
        0
176
     1
 62
    18
420
        0
176
     1
 90
       50
176
     1
 90
        3
176
     1
 62
     5
420
      255
176
     1
290
     0
176
     1
 90
       50
176
     1
 90
       50
176
     1
 90
       50
176
     1
290
     0
176
     1
 90
       50
176
     1
 62
   256
176
     0
 40
1.0
176
     0
 90
        2
176
     1
  1
strokes_ogs.tif
176
     1
290
     0
176
     1
 40
1.0
176
     1
 40
1.0
176
     1
  0
VISUALSTYLE
  5
34
102
{ACAD_REACTORS
330
29
102
}
330
29
100
AcDbVisualStyle
  2
Dim
 70
    11
177
     3
291
     1
 70
    58
 90
        2
176
     1
 90
        2
176
     1
 90
        0
176
     1
 90
        0
176
     1
 40
0.6
176
     1
 40
30.0
176
     1
 62
     7
420
 16777215
176
     1
 90
        1
176
     1
 90
        4
176
     1
 62
     7
176
     1
 62
   257
176
     1
 90
        1
176
     1
 90
        1
176
     1
 40
1.0
176
     1
 90
        8
176
     1
 62
     7
176
     1
 40
1.0
176
     1
 90
        1
176
     1
 90
        6
176
     1
 90
        2
176
     1
 62
     7
176
     1
 90
        5
176
     1
 90
        0
176
     1
 90
        0
176
     1
290
     0
176
     1
 90
        1
176
     1
 40
-50.0
176
     1
 90
        0
176
     1
290
     0
176
     1
290
     1
176
     1
290
     1
176
     1
290
     0
176
     1
290
     0
176
     1
290
     0
176
     1
290
     0
176
     1
290
     0
176
     1
290
     0
176
     1
 90
       50
176
     1
 40
0.0
176
     1
 40
1.0
176
     1
 90
        0
176
     1
 62
    18
420
        0
176
     1
 90
       50
176
     1
 90
        3
176
     1
 62
     5
420
      255
176
     1
290
     0
176
     1
 90
       50
176
     1
 90
       50
176
     1
 90
       50
176
     1
290
     0
176
     1
 90
       50
176
     1
 62
   256
176
     0
 40
1.0
176
     0
 90
        2
176
     1
  1
strokes_ogs.tif
176
     1
290
     0
176
     1
 40
1.0
176
     1
 40
1.0
176
     1
  0
VISUALSTYLE
  5
41
102
{ACAD_REACTORS
330
29
102
}
330
29
100
AcDbVisualStyle
  2
EdgeColorOff
 70
    22
177
     3
291
     1
 70
    58
 90
        2
176
     0
 90
        2
176
     0
 90
        0
176
     0
 90
        0
176
     0
 40
0.6
176
     0
 40
30.0
176
     0
 62
     7
420
 16777215
176
     0
 90
        1
176
     0
 90
        4
176
     0
 62
     7
176
     0
 62
   257
176
     0
 90
        1
176
     0
 90
        1
176
     0
 40
1.0
176
     0
 90
        8
176
     2
 62
     7
176
     0
 40
1.0
176
     0
 90
        1
176
     0
 90
        6
176
     0
 90
        2
176
     0
 62
     7
176
     0
 90
        5
176
     0
 90
        0
176
     0
 90
        0
176
     0
290
     0
176
     0
 90
        1
176
     0
 40
0.0
176
     0
 90
        0
176
     0
290
     0
176
     0
290
     1
176
     0
290
     1
176
     0
290
     0
176
     0
290
     0
176
     0
290
     0
176
     0
290
     0
176
     0
290
     0
176
     0
290
     0
176
     0
 90
       50
176
     0
 40
0.0
176
     0
 40
1.0
176
     0
 90
        0
176
     0
 62
    18
420
        0
176
     0
 90
       50
176
     0
 90
        3
176
     0
 62
     5
420
      255
176
     0
290
     0
176
     0
 90
       50
176
     0
 90
       50
176
     0
 90
       50
176
     0
290
     0
176
     0
 90
       50
176
     0
 62
   256
176
     0
 40
1.0
176
     0
 90
        2
176
     0
  1
strokes_ogs.tif
176
     0
290
     0
176
     0
 40
1.0
176
     0
 40
1.0
176
     0
  0
VISUALSTYLE
  5
38
102
{ACAD_REACTORS
330
29
102
}
330
29
100
AcDbVisualStyle
  2
Facepattern
 70
    15
177
     3
291
     1
 70
    58
 90
        2
176
     1
 90
        2
176
     1
 90
        0
176
     1
 90
        0
176
     1
 40
0.6
176
     1
 40
30.0
176
     1
 62
     7
420
 16777215
176
     1
 90
        1
176
     1
 90
        4
176
     1
 62
     7
176
     1
 62
   257
176
     1
 90
        1
176
     1
 90
        1
176
     1
 40
1.0
176
     1
 90
        8
176
     1
 62
     7
176
     1
 40
1.0
176
     1
 90
        1
176
     1
 90
        6
176
     1
 90
        2
176
     1
 62
     7
176
     1
 90
        5
176
     1
 90
        0
176
     1
 90
        0
176
     1
290
     0
176
     1
 90
        1
176
     1
 40
0.0
176
     1
 90
        0
176
     1
290
     0
176
     1
290
     1
176
     1
290
     1
176
     1
290
     0
176
     1
290
     0
176
     1
290
     0
176
     1
290
     0
176
     1
290
     0
176
     1
290
     0
176
     1
 90
       50
176
     1
 40
0.0
176
     1
 40
1.0
176
     1
 90
        0
176
     1
 62
    18
420
        0
176
     1
 90
       50
176
     1
 90
        3
176
     1
 62
     5
420
      255
176
     1
290
     0
176
     1
 90
       50
176
     1
 90
       50
176
     1
 90
       50
176
     1
290
     0
176
     1
 90
       50
176
     1
 62
   256
176
     0
 40
1.0
176
     0
 90
        2
176
     1
  1
strokes_ogs.tif
176
     1
290
     0
176
     1
 40
1.0
176
     1
 40
1.0
176
     1
  0
VISUALSTYLE
  5
2A
102
{ACAD_REACTORS
330
29
102
}
330
29
100
AcDbVisualStyle
  2
Flat
 70
     0
177
     3
291
     1
 70
    58
 90
        2
176
     1
 90
        1
176
     1
 90
        1
176
     1
 90
        2
176
     1
 40
0.6
176
     1
 40
30.0
176
     1
 62
     7
420
 16777215
176
     1
 90
        0
176
     1
 90
        0
176
     1
 62
     7
176
     1
 62
   257
176
     1
 90
        1
176
     1
 90
        1
176
     1
 40
1.0
176
     1
 90
        8
176
     1
 62
     7
176
     1
 40
1.0
176
     1
 90
        1
176
     1
 90
        6
176
     1
 90
        2
176
     1
 62
     7
176
     1
 90
        5
176
     1
 90
        0
176
     1
 90
        0
176
     1
290
     0
176
     1
 90
       13
176
     1
 40
0.0
176
     1
 90
        0
176
     1
290
     0
176
     1
290
     1
176
     1
290
     1
176
     1
290
     0
176
     1
290
     0
176
     1
290
     0
176
     1
290
     0
176
     1
290
     0
176
     1
290
     0
176
     1
 90
       50
176
     1
 40
0.0
176
     1
 40
1.0
176
     1
 90
        0
176
     1
 62
    18
420
        0
176
     1
 90
       50
176
     1
 90
        3
176
     1
 62
     5
420
      255
176
     1
290
     0
176
     1
 90
       50
176
     1
 90
       50
176
     1
 90
       50
176
     1
290
     0
176
     1
 90
       50
176
     1
 62
   256
176
     0
 40
1.0
176
     0
 90
        2
176
     1
  1
strokes_ogs.tif
176
     1
290
     0
176
     1
 40
1.0
176
     1
 40
1.0
176
     1
  0
VISUALSTYLE
  5
2B
102
{ACAD_REACTORS
330
29
102
}
330
29
100
AcDbVisualStyle
  2
FlatWithEdges
 70
     1
177
     3
291
     1
 70
    58
 90
        2
176
     1
 90
        1
176
     1
 90
        1
176
     1
 90
        2
176
     1
 40
0.6
176
     1
 40
30.0
176
     1
 62
     7
420
 16777215
176
     1
 90
        1
176
     1
 90
        0
176
     1
 62
     7
176
     1
 62
   257
176
     1
 90
        1
176
     1
 90
        1
176
     1
 40
1.0
176
     1
 90
        0
176
     1
 62
   257
176
     1
 40
1.0
176
     1
 90
        1
176
     1
 90
        6
176
     1
 90
        2
176
     1
 62
     7
176
     1
 90
        5
176
     1
 90
        0
176
     1
 90
        0
176
     1
290
     0
176
     1
 90
       13
176
     1
 40
0.0
176
     1
 90
        0
176
     1
290
     0
176
     1
290
     1
176
     1
290
     1
176
     1
290
     0
176
     1
290
     0
176
     1
290
     0
176
     1
290
     0
176
     1
290
     0
176
     1
290
     0
176
     1
 90
       50
176
     1
 40
0.0
176
     1
 40
1.0
176
     1
 90
        0
176
     1
 62
    18
420
        0
176
     1
 90
       50
176
     1
 90
        3
176
     1
 62
     5
420
      255
176
     1
290
     0
176
     1
 90
       50
176
     1
 90
       50
176
     1
 90
       50
176
     1
290
     0
176
     1
 90
       50
176
     1
 62
   256
176
     0
 40
1.0
176
     0
 90
        2
176
     1
  1
strokes_ogs.tif
176
     1
290
     0
176
     1
 40
1.0
176
     1
 40
1.0
176
     1
  0
VISUALSTYLE
  5
2C
102
{ACAD_REACTORS
330
29
102
}
330
29
100
AcDbVisualStyle
  2
Gouraud
 70
     2
177
     3
291
     1
 70
    58
 90
        2
176
     1
 90
        2
176
     1
 90
        1
176
     1
 90
        2
176
     1
 40
0.6
176
     1
 40
30.0
176
     1
 62
     7
420
 16777215
176
     1
 90
        0
176
     1
 90
        0
176
     1
 62
     7
176
     1
 62
   257
176
     1
 90
        1
176
     1
 90
        1
176
     1
 40
1.0
176
     1
 90
        0
176
     1
 62
     7
176
     1
 40
1.0
176
     1
 90
        1
176
     1
 90
        6
176
     1
 90
        2
176
     1
 62
     7
176
     1
 90
        5
176
     1
 90
        0
176
     1
 90
        0
176
     1
290
     0
176
     1
 90
       13
176
     1
 40
0.0
176
     1
 90
        0
176
     1
290
     0
176
     1
290
     1
176
     1
290
     1
176
     1
290
     0
176
     1
290
     0
176
     1
290
     0
176
     1
290
     0
176
     1
290
     0
176
     1
290
     0
176
     1
 90
       50
176
     1
 40
0.0
176
     1
 40
1.0
176
     1
 90
        0
176
     1
 62
    18
420
        0
176
     1
 90
       50
176
     1
 90
        3
176
     1
 62
     5
420
      255
176
     1
290
     0
176
     1
 90
       50
176
     1
 90
       50
176
     1
 90
       50
176
     1
290
     0
176
     1
 90
       50
176
     1
 62
   256
176
     0
 40
1.0
176
     0
 90
        2
176
     1
  1
strokes_ogs.tif
176
     1
290
     0
176
     1
 40
1.0
176
     1
 40
1.0
176
     1
  0
VISUALSTYLE
  5
2D
102
{ACAD_REACTORS
330
29
102
}
330
29
100
AcDbVisualStyle
  2
GouraudWithEdges
 70
     3
177
     3
291
     1
 70
    58
 90
        2
176
     1
 90
        2
176
     1
 90
        1
176
     1
 90
        2
176
     1
 40
0.6
176
     1
 40
30.0
176
     1
 62
     7
420
 16777215
176
     1
 90
        1
176
     1
 90
        0
176
     1
 62
     7
176
     1
 62
   257
176
     1
 90
        1
176
     1
 90
        1
176
     1
 40
1.0
176
     1
 90
        0
176
     1
 62
   257
176
     1
 40
1.0
176
     1
 90
        1
176
     1
 90
        6
176
     1
 90
        2
176
     1
 62
     7
176
     1
 90
        5
176
     1
 90
        0
176
     1
 90
        0
176
     1
290
     0
176
     1
 90
       13
176
     1
 40
0.0
176
     1
 90
        0
176
     1
290
     0
176
     1
290
     1
176
     1
290
     1
176
     1
290
     0
176
     1
290
     0
176
     1
290
     0
176
     1
290
     0
176
     1
290
     0
176
     1
290
     0
176
     1
 90
       50
176
     1
 40
0.0
176
     1
 40
1.0
176
     1
 90
        0
176
     1
 62
    18
420
        0
176
     1
 90
       50
176
     1
 90
        3
176
     1
 62
     5
420
      255
176
     1
290
     0
176
     1
 90
       50
176
     1
 90
       50
176
     1
 90
       50
176
     1
290
     0
176
     1
 90
       50
176
     1
 62
   256
176
     0
 40
1.0
176
     0
 90
        2
176
     1
  1
strokes_ogs.tif
176
     1
290
     0
176
     1
 40
1.0
176
     1
 40
1.0
176
     1
  0
VISUALSTYLE
  5
31
102
{ACAD_REACTORS
330
29
102
}
330
29
100
AcDbVisualStyle
  2
Hidden
 70
     6
177
     3
291
     0
 70
    58
 90
        1
176
     1
 90
        2
176
     1
 90
        2
176
     1
 90
        0
176
     1
 40
0.6
176
     1
 40
30.0
176
     1
 62
     7
420
 16777215
176
     1
 90
        2
176
     1
 90
        2
176
     1
 62
     7
176
     1
 62
   257
176
     1
 90
        2
176
     1
 90
        1
176
     1
 40
40.0
176
     1
 90
        0
176
     1
 62
   257
176
     1
 40
1.0
176
     1
 90
        1
176
     1
 90
        6
176
     1
 90
        2
176
     1
 62
     7
176
     1
 90
        3
176
     1
 90
        0
176
     1
 90
        0
176
     1
290
     0
176
     1
 90
        1
176
     1
 40
0.0
176
     1
 90
        0
176
     1
290
     0
176
     1
290
     1
176
     1
290
     1
176
     1
290
     0
176
     1
290
     0
176
     1
290
     0
176
     1
290
     0
176
     1
290
     0
176
     1
290
     0
176
     1
 90
       50
176
     1
 40
0.0
176
     1
 40
1.0
176
     1
 90
        0
176
     1
 62
    18
420
        0
176
     1
 90
       50
176
     1
 90
        3
176
     1
 62
     5
420
      255
176
     1
290
     0
176
     1
 90
       50
176
     1
 90
       50
176
     1
 90
       50
176
     1
290
     0
176
     1
 90
       50
176
     1
 62
   256
176
     0
 40
1.0
176
     0
 90
        2
176
     1
  1
strokes_ogs.tif
176
     1
290
     0
176
     1
 40
1.0
176
     1
 40
1.0
176
     1
  0
VISUALSTYLE
  5
3F
102
{ACAD_REACTORS
330
29
102
}
330
29
100
AcDbVisualStyle
  2
JitterOff
 70
    20
177
     3
291
     1
 70
    58
 90
        2
176
     0
 90
        2
176
     0
 90
        0
176
     0
 90
        0
176
     0
 40
0.6
176
     0
 40
30.0
176
     0
 62
     7
420
 16777215
176
     0
 90
        1
176
     0
 90
        4
176
     0
 62
     7
176
     0
 62
   257
176
     0
 90
        1
176
     0
 90
        1
176
     0
 40
1.0
176
     0
 90
       10
176
     2
 62
     7
176
     0
 40
1.0
176
     0
 90
        1
176
     0
 90
        6
176
     0
 90
        2
176
     0
 62
     7
176
     0
 90
        5
176
     0
 90
        0
176
     0
 90
        0
176
     0
290
     0
176
     0
 90
        1
176
     0
 40
0.0
176
     0
 90
        0
176
     0
290
     0
176
     0
290
     1
176
     0
290
     1
176
     0
290
     0
176
     0
290
     0
176
     0
290
     0
176
     0
290
     0
176
     0
290
     0
176
     0
290
     0
176
     0
 90
       50
176
     0
 40
0.0
176
     0
 40
1.0
176
     0
 90
        0
176
     0
 62
    18
420
        0
176
     0
 90
       50
176
     0
 90
        3
176
     0
 62
     5
420
      255
176
     0
290
     0
176
     0
 90
       50
176
     0
 90
       50
176
     0
 90
       50
176
     0
290
     0
176
     0
 90
       50
176
     0
 62
   256
176
     0
 40
1.0
176
     0
 90
        2
176
     0
  1
strokes_ogs.tif
176
     0
290
     0
176
     0
 40
1.0
176
     0
 40
1.0
176
     0
  0
VISUALSTYLE
  5
37
102
{ACAD_REACTORS
330
29
102
}
330
29
100
AcDbVisualStyle
  2
Linepattern
 70
    14
177
     3
291
     1
 70
    58
 90
        2
176
     1
 90
        2
176
     1
 90
        0
176
     1
 90
        0
176
     1
 40
0.6
176
     1
 40
30.0
176
     1
 62
     7
420
 16777215
176
     1
 90
        1
176
     1
 90
        4
176
     1
 62
     7
176
     1
 62
   257
176
     1
 90
        7
176
     1
 90
        7
176
     1
 40
1.0
176
     1
 90
        8
176
     1
 62
     7
176
     1
 40
1.0
176
     1
 90
        1
176
     1
 90
        6
176
     1
 90
        2
176
     1
 62
     7
176
     1
 90
        5
176
     1
 90
        0
176
     1
 90
        0
176
     1
290
     0
176
     1
 90
        1
176
     1
 40
0.0
176
     1
 90
        0
176
     1
290
     0
176
     1
290
     1
176
     1
290
     1
176
     1
290
     0
176
     1
290
     0
176
     1
290
     0
176
     1
290
     0
176
     1
290
     0
176
     1
290
     0
176
     1
 90
       50
176
     1
 40
0.0
176
     1
 40
1.0
176
     1
 90
        0
176
     1
 62
    18
420
        0
176
     1
 90
       50
176
     1
 90
        3
176
     1
 62
     5
420
      255
176
     1
290
     0
176
     1
 90
       50
176
     1
 90
       50
176
     1
 90
       50
176
     1
290
     0
176
     1
 90
       50
176
     1
 62
   256
176
     0
 40
1.0
176
     0
 90
        2
176
     1
  1
strokes_ogs.tif
176
     1
290
     0
176
     1
 40
1.0
176
     1
 40
1.0
176
     1
  0
VISUALSTYLE
  5
40
102
{ACAD_REACTORS
330
29
102
}
330
29
100
AcDbVisualStyle
  2
OverhangOff
 70
    21
177
     3
291
     1
 70
    58
 90
        2
176
     0
 90
        2
176
     0
 90
        0
176
     0
 90
        0
176
     0
 40
0.6
176
     0
 40
30.0
176
     0
 62
     7
420
 16777215
176
     0
 90
        1
176
     0
 90
        4
176
     0
 62
     7
176
     0
 62
   257
176
     0
 90
        1
176
     0
 90
        1
176
     0
 40
1.0
176
     0
 90
        9
176
     2
 62
     7
176
     0
 40
1.0
176
     0
 90
        1
176
     0
 90
        6
176
     0
 90
        2
176
     0
 62
     7
176
     0
 90
        5
176
     0
 90
        0
176
     0
 90
        0
176
     0
290
     0
176
     0
 90
        1
176
     0
 40
0.0
176
     0
 90
        0
176
     0
290
     0
176
     0
290
     1
176
     0
290
     1
176
     0
290
     0
176
     0
290
     0
176
     0
290
     0
176
     0
290
     0
176
     0
290
     0
176
     0
290
     0
176
     0
 90
       50
176
     0
 40
0.0
176
     0
 40
1.0
176
     0
 90
        0
176
     0
 62
    18
420
        0
176
     0
 90
       50
176
     0
 90
        3
176
     0
 62
     5
420
      255
176
     0
290
     0
176
     0
 90
       50
176
     0
 90
       50
176
     0
 90
       50
176
     0
290
     0
176
     0
 90
       50
176
     0
 62
   256
176
     0
 40
1.0
176
     0
 90
        2
176
     0
  1
strokes_ogs.tif
176
     0
290
     0
176
     0
 40
1.0
176
     0
 40
1.0
176
     0
  0
VISUALSTYLE
  5
33
102
{ACAD_REACTORS
330
29
102
}
330
29
100
AcDbVisualStyle
  2
Realistic
 70
     8
177
     3
291
     0
 70
    58
 90
        2
176
     1
 90
        3
176
     1
 90
        0
176
     1
 90
        2
176
     1
 40
0.6
176
     1
 40
30.0
176
     1
 62
     7
420
 16777215
176
     1
 90
        0
176
     1
 90
        0
176
     1
 62
     7
176
     1
 62
   257
176
     1
 90
        1
176
     1
 90
        1
176
     1
 40
1.0
176
     1
 90
        8
176
     1
 62
   257
176
     1
 40
1.0
176
     1
 90
        1
176
     1
 90
        6
176
     1
 90
        2
176
     1
 62
     7
176
     1
 90
        3
176
     1
 90
        0
176
     1
 90
        0
176
     1
290
     0
176
     1
 90
       13
176
     1
 40
0.0
176
     1
 90
        0
176
     1
290
     0
176
     1
290
     1
176
     1
290
     1
176
     1
290
     0
176
     1
290
     0
176
     1
290
     0
176
     1
290
     0
176
     1
290
     0
176
     1
290
     0
176
     1
 90
       50
176
     1
 40
0.0
176
     1
 40
1.0
176
     1
 90
        0
176
     1
 62
    18
420
        0
176
     1
 90
       50
176
     1
 90
        3
176
     1
 62
     5
420
      255
176
     1
290
     0
176
     1
 90
       50
176
     1
 90
       50
176
     1
 90
       50
176
     1
290
     0
176
     1
 90
       50
176
     1
 62
   256
176
     0
 40
1.0
176
     0
 90
        2
176
     1
  1
strokes_ogs.tif
176
     1
290
     0
176
     1
 40
1.0
176
     1
 40
1.0
176
     1
  0
VISUALSTYLE
  5
3E
102
{ACAD_REACTORS
330
29
102
}
330
29
100
AcDbVisualStyle
  2
Shaded
 70
    27
177
     3
291
     0
 70
    58
 90
        2
176
     1
 90
        2
176
     1
 90
        1
176
     1
 90
        2
176
     1
 40
0.6
176
     1
 40
30.0
176
     1
 62
     7
420
 16777215
176
     1
 90
        0
176
     1
 90
        4
176
     1
 62
     7
176
     1
 62
   257
176
     1
 90
        1
176
     1
 90
        1
176
     1
 40
1.0
176
     1
 90
        8
176
     1
 62
   257
176
     1
 40
1.0
176
     1
 90
        1
176
     1
 90
        6
176
     1
 90
        2
176
     1
 62
     8
420
  7895160
176
     1
 90
        3
176
     1
 90
        0
176
     1
 90
        0
176
     1
290
     0
176
     1
 90
        5
176
     1
 40
0.0
176
     1
 90
        0
176
     1
290
     0
176
     1
290
     1
176
     1
290
     1
176
     1
290
     0
176
     1
290
     0
176
     1
290
     0
176
     1
290
     0
176
     1
290
     0
176
     1
290
     0
176
     1
 90
       50
176
     1
 40
0.0
176
     1
 40
1.0
176
     1
 90
        0
176
     1
 62
    18
420
        0
176
     1
 90
       50
176
     1
 90
        3
176
     1
 62
     5
420
      255
176
     1
290
     0
176
     1
 90
       50
176
     1
 90
       50
176
     1
 90
       50
176
     1
290
     0
176
     1
 90
       50
176
     1
 62
   256
176
     0
 40
1.0
176
     0
 90
        2
176
     1
  1
strokes_ogs.tif
176
     1
290
     0
176
     1
 40
1.0
176
     1
 40
1.0
176
     1
  0
VISUALSTYLE
  5
3D
102
{ACAD_REACTORS
330
29
102
}
330
29
100
AcDbVisualStyle
  2
Shaded with edges
 70
    26
177
     3
291
     0
 70
    58
 90
        2
176
     1
 90
        2
176
     1
 90
        1
176
     1
 90
        2
176
     1
 40
0.6
176
     1
 40
30.0
176
     1
 62
     7
420
 16777215
176
     1
 90
        1
176
     1
 90
       10
176
     1
 62
     7
176
     1
 62
   257
176
     1
 90
        2
176
     1
 90
        1
176
     1
 40
1.0
176
     1
 90
        8
176
     1
 62
   257
176
     1
 40
1.0
176
     1
 90
        1
176
     1
 90
        6
176
     1
 90
        2
176
     1
 62
     7
176
     1
 90
        3
176
     1
 90
        0
176
     1
 90
        0
176
     1
290
     0
176
     1
 90
        5
176
     1
 40
0.0
176
     1
 90
        0
176
     1
290
     0
176
     1
290
     1
176
     1
290
     1
176
     1
290
     0
176
     1
290
     0
176
     1
290
     0
176
     1
290
     0
176
     1
290
     0
176
     1
290
     0
176
     1
 90
       50
176
     1
 40
0.0
176
     1
 40
1.0
176
     1
 90
        0
176
     1
 62
    18
420
        0
176
     1
 90
       50
176
     1
 90
        3
176
     1
 62
     5
420
      255
176
     1
290
     0
176
     1
 90
       50
176
     1
 90
       50
176
     1
 90
       50
176
     1
290
     0
176
     1
 90
       50
176
     1
 62
   256
176
     0
 40
1.0
176
     0
 90
        2
176
     1
  1
strokes_ogs.tif
176
     1
290
     0
176
     1
 40
1.0
176
     1
 40
1.0
176
     1
  0
VISUALSTYLE
  5
3A
102
{ACAD_REACTORS
330
29
102
}
330
29
100
AcDbVisualStyle
  2
Shades of Gray
 70
    23
177
     3
291
     0
 70
    58
 90
        2
176
     1
 90
        2
176
     1
 90
        3
176
     1
 90
        0
176
     1
 40
0.6
176
     1
 40
30.0
176
     1
 62
     7
420
 16777215
176
     1
 90
        2
176
     1
 90
        2
176
     1
 62
     7
176
     1
 62
     7
176
     1
 90
        1
176
     1
 90
        1
176
     1
 40
40.0
176
     1
 90
        8
176
     1
 62
     7
176
     1
 40
1.0
176
     1
 90
        1
176
     1
 90
        6
176
     1
 90
        2
176
     1
 62
     7
176
     1
 90
        3
176
     1
 90
        0
176
     1
 90
        0
176
     1
290
     0
176
     1
 90
        1
176
     1
 40
0.0
176
     1
 90
        0
176
     1
290
     0
176
     1
290
     1
176
     1
290
     1
176
     1
290
     0
176
     1
290
     0
176
     1
290
     0
176
     1
290
     0
176
     1
290
     0
176
     1
290
     0
176
     1
 90
       50
176
     1
 40
0.0
176
     1
 40
1.0
176
     1
 90
        0
176
     1
 62
    18
420
        0
176
     1
 90
       50
176
     1
 90
        3
176
     1
 62
     5
420
      255
176
     1
290
     0
176
     1
 90
       50
176
     1
 90
       50
176
     1
 90
       50
176
     1
290
     0
176
     1
 90
       50
176
     1
 62
   256
176
     0
 40
1.0
176
     0
 90
        2
176
     1
  1
strokes_ogs.tif
176
     1
290
     0
176
     1
 40
1.0
176
     1
 40
1.0
176
     1
  0
VISUALSTYLE
  5
3B
102
{ACAD_REACTORS
330
29
102
}
330
29
100
AcDbVisualStyle
  2
Sketchy
 70
    24
177
     3
291
     0
 70
    58
 90
        1
176
     1
 90
        2
176
     1
 90
        2
176
     1
 90
        0
176
     1
 40
0.6
176
     1
 40
30.0
176
     1
 62
     7
420
 16777215
176
     1
 90
        2
176
     1
 90
        2
176
     1
 62
     7
176
     1
 62
     7
176
     1
 90
        1
176
     1
 90
        1
176
     1
 40
40.0
176
     1
 90
       11
176
     1
 62
     7
176
     1
 40
1.0
176
     1
 90
        1
176
     1
 90
        6
176
     1
 90
        2
176
     1
 62
     7
176
     1
 90
        6
176
     1
 90
        0
176
     1
 90
        0
176
     1
290
     0
176
     1
 90
        1
176
     1
 40
0.0
176
     1
 90
        0
176
     1
290
     0
176
     1
290
     1
176
     1
290
     1
176
     1
290
     0
176
     1
290
     0
176
     1
290
     0
176
     1
290
     0
176
     1
290
     0
176
     1
290
     0
176
     1
 90
       50
176
     1
 40
0.0
176
     1
 40
1.0
176
     1
 90
        0
176
     1
 62
    18
420
        0
176
     1
 90
       50
176
     1
 90
        3
176
     1
 62
     5
420
      255
176
     1
290
     0
176
     1
 90
       50
176
     1
 90
       50
176
     1
 90
       50
176
     1
290
     0
176
     1
 90
       50
176
     1
 62
   256
176
     0
 40
1.0
176
     0
 90
        2
176
     1
  1
strokes_ogs.tif
176
     1
290
     0
176
     1
 40
1.0
176
     1
 40
1.0
176
     1
  0
VISUALSTYLE
  5
36
102
{ACAD_REACTORS
330
29
102
}
330
29
100
AcDbVisualStyle
  2
Thicken
 70
    13
177
     3
291
     1
 70
    58
 90
        2
176
     1
 90
        2
176
     1
 90
        0
176
     1
 90
        0
176
     1
 40
0.6
176
     1
 40
30.0
176
     1
 62
     7
420
 16777215
176
     1
 90
        1
176
     1
 90
        4
176
     1
 62
     7
176
     1
 62
   257
176
     1
 90
        1
176
     1
 90
        1
176
     1
 40
1.0
176
     1
 90
       12
176
     1
 62
     7
176
     1
 40
1.0
176
     1
 90
        1
176
     1
 90
        6
176
     1
 90
        2
176
     1
 62
     7
176
     1
 90
        5
176
     1
 90
        0
176
     1
 90
        0
176
     1
290
     0
176
     1
 90
        1
176
     1
 40
0.0
176
     1
 90
        0
176
     1
290
     0
176
     1
290
     1
176
     1
290
     1
176
     1
290
     0
176
     1
290
     0
176
     1
290
     0
176
     1
290
     0
176
     1
290
     0
176
     1
290
     0
176
     1
 90
       50
176
     1
 40
0.0
176
     1
 40
1.0
176
     1
 90
        0
176
     1
 62
    18
420
        0
176
     1
 90
       50
176
     1
 90
        3
176
     1
 62
     5
420
      255
176
     1
290
     0
176
     1
 90
       50
176
     1
 90
       50
176
     1
 90
       50
176
     1
290
     0
176
     1
 90
       50
176
     1
 62
   256
176
     0
 40
1.0
176
     0
 90
        2
176
     1
  1
strokes_ogs.tif
176
     1
290
     0
176
     1
 40
1.0
176
     1
 40
1.0
176
     1
  0
VISUALSTYLE
  5
30
102
{ACAD_REACTORS
330
29
102
}
330
29
100
AcDbVisualStyle
  2
Wireframe
 70
     5
177
     3
291
     0
 70
    58
 90
        0
176
     1
 90
        2
176
     1
 90
        0
176
     1
 90
        0
176
     1
 40
0.6
176
     1
 40
30.0
176
     1
 62
     7
420
 16777215
176
     1
 90
        1
176
     1
 90
        4
176
     1
 62
     7
176
     1
 62
   257
176
     1
 90
        1
176
     1
 90
        1
176
     1
 40
1.0
176
     1
 90
        0
176
     1
 62
   257
176
     1
 40
1.0
176
     1
 90
        1
176
     1
 90
        6
176
     1
 90
        2
176
     1
 62
     7
176
     1
 90
        3
176
     1
 90
        0
176
     1
 90
        0
176
     1
290
     0
176
     1
 90
        1
176
     1
 40
0.0
176
     1
 90
        0
176
     1
290
     0
176
     1
290
     1
176
     1
290
     1
176
     1
290
     0
176
     1
290
     0
176
     1
290
     0
176
     1
290
     0
176
     1
290
     0
176
     1
290
     0
176
     1
 90
       50
176
     1
 40
0.0
176
     1
 40
1.0
176
     1
 90
        0
176
     1
 62
    18
420
        0
176
     1
 90
       50
176
     1
 90
        3
176
     1
 62
     5
420
      255
176
     1
290
     0
176
     1
 90
       50
176
     1
 90
       50
176
     1
 90
       50
176
     1
290
     0
176
     1
 90
       50
176
     1
 62
   256
176
     0
 40
1.0
176
     0
 90
        2
176
     1
  1
strokes_ogs.tif
176
     1
290
     0
176
     1
 40
1.0
176
     1
 40
1.0
176
     1
  0
VISUALSTYLE
  5
3C
102
{ACAD_REACTORS
330
29
102
}
330
29
100
AcDbVisualStyle
  2
X-Ray
 70
    25
177
     3
291
     0
 70
    58
 90
        2
176
     1
 90
        2
176
     1
 90
        1
176
     1
 90
        1
176
     1
 40
0.5
176
     1
 40
30.0
176
     1
 62
     7
420
 16777215
176
     1
 90
        1
176
     1
 90
        0
176
     1
 62
     7
176
     1
 62
   257
176
     1
 90
        1
176
     1
 90
        1
176
     1
 40
1.0
176
     1
 90
        8
176
     1
 62
     7
176
     1
 40
1.0
176
     1
 90
        1
176
     1
 90
        6
176
     1
 90
        2
176
     1
 62
     7
176
     1
 90
        3
176
     1
 90
        0
176
     1
 90
        0
176
     1
290
     0
176
     1
 90
       13
176
     1
 40
0.0
176
     1
 90
        0
176
     1
290
     0
176
     1
290
     1
176
     1
290
     1
176
     1
290
     0
176
     1
290
     0
176
     1
290
     0
176
     1
290
     0
176
     1
290
     0
176
     1
290
     0
176
     1
 90
       50
176
     1
 40
0.0
176
     1
 40
1.0
176
     1
 90
        0
176
     1
 62
    18
420
        0
176
     1
 90
       50
176
     1
 90
        3
176
     1
 62
     5
420
      255
176
     1
290
     0
176
     1
 90
       50
176
     1
 90
       50
176
     1
 90
       50
176
     1
290
     0
176
     1
 90
       50
176
     1
 62
   256
176
     0
 40
1.0
176
     0
 90
        2
176
     1
  1
strokes_ogs.tif
176
     1
290
     0
176
     1
 40
1.0
176
     1
 40
1.0
176
     1
  0
DICTIONARYVAR
  5
81
102
{ACAD_REACTORS
330
7C
102
}
330
7C
100
DictionaryVariables
280
     0
  1
1:1
  0
DICTIONARYVAR
  5
7E
102
{ACAD_REACTORS
330
7C
102
}
330
7C
100
DictionaryVariables
280
     0
  1
STANDARD
  0
DICTIONARYVAR
  5
7D
102
{ACAD_REACTORS
330
7C
102
}
330
7C
100
DictionaryVariables
280
     0
  1
STANDARD
  0
DICTIONARYVAR
  5
7F
102
{ACAD_REACTORS
330
7C
102
}
330
7C
100
DictionaryVariables
280
     0
  1
Imperial24
  0
DICTIONARYVAR
  5
80
102
{ACAD_REACTORS
330
7C
102
}
330
7C
100
DictionaryVariables
280
     0
  1
Imperial24
  0
XRECORD
  5
3F0
102
{ACAD_REACTORS
330
3ED
102
}
330
3ED
100
AcDbXrecord
280
     1
  1
BUILDING_ID
  1
Progetto per messa in tavola DXF, DWG
  1
FLOOR_ID
  1
694395
  0
XRECORD
  5
3EF
102
{ACAD_REACTORS
330
3ED
102
}
330
3ED
100
AcDbXrecord
280
     1
  1
-2001160
  1
Apparecchi idraulici
  0
XRECORD
  5
3EE
102
{ACAD_REACTORS
330
3ED
102
}
330
3ED
100
AcDbXrecord
280
     1
  1
859151
  1
Automatic flow rate regulator valve_Caleffi_121 DN15 : 1/2''
  0
DICTIONARY
  5
1A
330
19
100
AcDbDictionary
280
     1
281
     1
  3
BUMPTILE
360
1C
  3
DIFFUSETILE
360
1B
  3
OPACITYTILE
360
1F
  3
REFLECTIONTILE
360
1E
  3
REFRACTIONTILE
360
20
  3
SPECULARTILE
360
1D
  0
DICTIONARY
  5
12
330
11
100
AcDbDictionary
280
     1
281
     1
  3
BUMPTILE
360
14
  3
DIFFUSETILE
360
13
  3
OPACITYTILE
360
17
  3
REFLECTIONTILE
360
16
  3
REFRACTIONTILE
360
18
  3
SPECULARTILE
360
15
  0
DICTIONARY
  5
22
330
21
100
AcDbDictionary
280
     1
281
     1
  3
BUMPTILE
360
24
  3
DIFFUSETILE
360
23
  3
OPACITYTILE
360
27
  3
REFLECTIONTILE
360
26
  3
REFRACTIONTILE
360
28
  3
SPECULARTILE
360
25
  0
DICTIONARY
  5
3F3
330
65
100
AcDbDictionary
280
     1
281
     1
  3
ACAD_ROUNDTRIP_2008_TABLESTYLE_CELLSTYLEMAP
360
3F4
  0
XRECORD
  5
1C
102
{ACAD_REACTORS
330
1A
102
}
330
1A
100
AcDbXrecord
280
     1
270
     1
271
     1
  0
XRECORD
  5
1B
102
{ACAD_REACTORS
330
1A
102
}
330
1A
100
AcDbXrecord
280
     1
270
     1
271
     1
  0
XRECORD
  5
1F
102
{ACAD_REACTORS
330
1A
102
}
330
1A
100
AcDbXrecord
280
     1
270
     1
271
     1
  0
XRECORD
  5
1E
102
{ACAD_REACTORS
330
1A
102
}
330
1A
100
AcDbXrecord
280
     1
270
     1
271
     1
  0
XRECORD
  5
20
102
{ACAD_REACTORS
330
1A
102
}
330
1A
100
AcDbXrecord
280
     1
270
     1
271
     1
  0
XRECORD
  5
1D
102
{ACAD_REACTORS
330
1A
102
}
330
1A
100
AcDbXrecord
280
     1
270
     1
271
     1
  0
XRECORD
  5
14
102
{ACAD_REACTORS
330
12
102
}
330
12
100
AcDbXrecord
280
     1
270
     1
271
     1
  0
XRECORD
  5
13
102
{ACAD_REACTORS
330
12
102
}
330
12
100
AcDbXrecord
280
     1
270
     1
271
     1
  0
XRECORD
  5
17
102
{ACAD_REACTORS
330
12
102
}
330
12
100
AcDbXrecord
280
     1
270
     1
271
     1
  0
XRECORD
  5
16
102
{ACAD_REACTORS
330
12
102
}
330
12
100
AcDbXrecord
280
     1
270
     1
271
     1
  0
XRECORD
  5
18
102
{ACAD_REACTORS
330
12
102
}
330
12
100
AcDbXrecord
280
     1
270
     1
271
     1
  0
XRECORD
  5
15
102
{ACAD_REACTORS
330
12
102
}
330
12
100
AcDbXrecord
280
     1
270
     1
271
     1
  0
XRECORD
  5
24
102
{ACAD_REACTORS
330
22
102
}
330
22
100
AcDbXrecord
280
     1
270
     1
271
     1
  0
XRECORD
  5
23
102
{ACAD_REACTORS
330
22
102
}
330
22
100
AcDbXrecord
280
     1
270
     1
271
     1
  0
XRECORD
  5
27
102
{ACAD_REACTORS
330
22
102
}
330
22
100
AcDbXrecord
280
     1
270
     1
271
     1
  0
XRECORD
  5
26
102
{ACAD_REACTORS
330
22
102
}
330
22
100
AcDbXrecord
280
     1
270
     1
271
     1
  0
XRECORD
  5
28
102
{ACAD_REACTORS
330
22
102
}
330
22
100
AcDbXrecord
280
     1
270
     1
271
     1
  0
XRECORD
  5
25
102
{ACAD_REACTORS
330
22
102
}
330
22
100
AcDbXrecord
280
     1
270
     1
271
     1
  0
CELLSTYLEMAP
  5
3F4
102
{ACAD_REACTORS
330
3F3
102
}
330
3F3
100
AcDbCellStyleMap
 90
        3
300
CELLSTYLE
  1
TABLEFORMAT_BEGIN
 90
        5
170
     1
 91
        0
 92
    32768
 62
   257
 93
        1
300
CONTENTFORMAT
  1
CONTENTFORMAT_BEGIN
 90
        0
 91
        0
 92
      512
 93
        0
300

 40
0.0
140
1.0
 94
        5
 62
     0
340
55
144
0.25
309
CONTENTFORMAT_END
171
     0
 94
        0
309
TABLEFORMAT_END
  1
CELLSTYLE_BEGIN
 90
        1
 91
        1
300
_TITLE
309
CELLSTYLE_END
300
CELLSTYLE
  1
TABLEFORMAT_BEGIN
 90
        5
170
     1
 91
        0
 92
        0
 62
   257
 93
        1
300
CONTENTFORMAT
  1
CONTENTFORMAT_BEGIN
 90
        0
 91
        0
 92
      512
 93
        0
300

 40
0.0
140
1.0
 94
        5
 62
     0
340
55
144
0.18
309
CONTENTFORMAT_END
171
     0
 94
        0
309
TABLEFORMAT_END
  1
CELLSTYLE_BEGIN
 90
        2
 91
        1
300
_HEADER
309
CELLSTYLE_END
300
CELLSTYLE
  1
TABLEFORMAT_BEGIN
 90
        5
170
     1
 91
        0
 92
        0
 62
   257
 93
        1
300
CONTENTFORMAT
  1
CONTENTFORMAT_BEGIN
 90
        0
 91
        0
 92
      512
 93
        0
300

 40
0.0
140
1.0
 94
        2
 62
     0
340
55
144
0.18
309
CONTENTFORMAT_END
171
     0
 94
        0
309
TABLEFORMAT_END
  1
CELLSTYLE_BEGIN
 90
        3
 91
        2
300
_DATA
309
CELLSTYLE_END
  0
ENDSEC
  0
EOF
