  0
SECTION
  2
HEADER
  9
$ACADVER
  1
AC1027
  9
$ACADMAINTVER
 70
    20
  9
$DWGCODEPAGE
  3
ANSI_1252
  9
$REQUIREDVERSIONS
160
                 0
  9
$INSBASE
 10
0.0
 20
0.0
 30
0.0
  9
$EXTMIN
 10
691.6664074431693
 20
1391.945878729987
 30
-0.00000001
  9
$EXTMAX
 10
1326.414353943164
 20
2264.000000000173
 30
0.00000001
  9
$LIMMIN
 10
0.0
 20
0.0
  9
$LIMMAX
 10
12.0
 20
9.0
  9
$ORTHOMODE
 70
     0
  9
$REGENMODE
 70
     1
  9
$FILLMODE
 70
     1
  9
$QTEXTMODE
 70
     0
  9
$MIRRTEXT
 70
     0
  9
$LTSCALE
 40
1.0
  9
$ATTMODE
 70
     1
  9
$TEXTSIZE
 40
0.2
  9
$TRACEWID
 40
0.05
  9
$TEXTSTYLE
  7
Standard
  9
$CLAYER
  8
0
  9
$CELTYPE
  6
ByLayer
  9
$CECOLOR
 62
   256
  9
$CELTSCALE
 40
1.0
  9
$DISPSILH
 70
     0
  9
$DIMSCALE
 40
1.0
  9
$DIMASZ
 40
0.18
  9
$DIMEXO
 40
0.0625
  9
$DIMDLI
 40
0.38
  9
$DIMRND
 40
0.0
  9
$DIMDLE
 40
0.0
  9
$DIMEXE
 40
0.18
  9
$DIMTP
 40
0.0
  9
$DIMTM
 40
0.0
  9
$DIMTXT
 40
0.18
  9
$DIMCEN
 40
0.09
  9
$DIMTSZ
 40
0.0
  9
$DIMTOL
 70
     0
  9
$DIMLIM
 70
     0
  9
$DIMTIH
 70
     1
  9
$DIMTOH
 70
     1
  9
$DIMSE1
 70
     0
  9
$DIMSE2
 70
     0
  9
$DIMTAD
 70
     0
  9
$DIMZIN
 70
     0
  9
$DIMBLK
  1

  9
$DIMASO
 70
     1
  9
$DIMSHO
 70
     1
  9
$DIMPOST
  1

  9
$DIMAPOST
  1

  9
$DIMALT
 70
     0
  9
$DIMALTD
 70
     2
  9
$DIMALTF
 40
25.4
  9
$DIMLFAC
 40
1.0
  9
$DIMTOFL
 70
     0
  9
$DIMTVP
 40
0.0
  9
$DIMTIX
 70
     0
  9
$DIMSOXD
 70
     0
  9
$DIMSAH
 70
     0
  9
$DIMBLK1
  1

  9
$DIMBLK2
  1

  9
$DIMSTYLE
  2
Standard
  9
$DIMCLRD
 70
     0
  9
$DIMCLRE
 70
     0
  9
$DIMCLRT
 70
     0
  9
$DIMTFAC
 40
1.0
  9
$DIMGAP
 40
0.09
  9
$DIMJUST
 70
     0
  9
$DIMSD1
 70
     0
  9
$DIMSD2
 70
     0
  9
$DIMTOLJ
 70
     1
  9
$DIMTZIN
 70
     0
  9
$DIMALTZ
 70
     0
  9
$DIMALTTZ
 70
     0
  9
$DIMUPT
 70
     0
  9
$DIMDEC
 70
     4
  9
$DIMTDEC
 70
     4
  9
$DIMALTU
 70
     2
  9
$DIMALTTD
 70
     2
  9
$DIMTXSTY
  7
Standard
  9
$DIMAUNIT
 70
     0
  9
$DIMADEC
 70
     0
  9
$DIMALTRND
 40
0.0
  9
$DIMAZIN
 70
     0
  9
$DIMDSEP
 70
    46
  9
$DIMATFIT
 70
     3
  9
$DIMFRAC
 70
     0
  9
$DIMLDRBLK
  1

  9
$DIMLUNIT
 70
     2
  9
$DIMLWD
 70
    -2
  9
$DIMLWE
 70
    -2
  9
$DIMTMOVE
 70
     0
  9
$DIMFXL
 40
1.0
  9
$DIMFXLON
 70
     0
  9
$DIMJOGANG
 40
0.7853981633974483
  9
$DIMTFILL
 70
     0
  9
$DIMTFILLCLR
 70
     0
  9
$DIMARCSYM
 70
     0
  9
$DIMLTYPE
  6

  9
$DIMLTEX1
  6

  9
$DIMLTEX2
  6

  9
$DIMTXTDIRECTION
 70
     0
  9
$LUNITS
 70
     2
  9
$LUPREC
 70
     4
  9
$SKETCHINC
 40
0.1
  9
$FILLETRAD
 40
0.0
  9
$AUNITS
 70
     0
  9
$AUPREC
 70
     0
  9
$MENU
  1
.
  9
$ELEVATION
 40
0.0
  9
$PELEVATION
 40
0.0
  9
$THICKNESS
 40
0.0
  9
$LIMCHECK
 70
     0
  9
$CHAMFERA
 40
0.0
  9
$CHAMFERB
 40
0.0
  9
$CHAMFERC
 40
0.0
  9
$CHAMFERD
 40
0.0
  9
$SKPOLY
 70
     0
  9
$TDCREATE
 40
2457549.671599850
  9
$TDUCREATE
 40
2457549.588266516
  9
$TDUPDATE
 40
2457549.671599850
  9
$TDUUPDATE
 40
2457549.588266516
  9
$TDINDWG
 40
0.0000215741
  9
$TDUSRTIMER
 40
0.0000215741
  9
$USRTIMER
 70
     1
  9
$ANGBASE
 50
0.0
  9
$ANGDIR
 70
     0
  9
$PDMODE
 70
     0
  9
$PDSIZE
 40
0.0
  9
$PLINEWID
 40
0.0
  9
$SPLFRAME
 70
     0
  9
$SPLINETYPE
 70
     6
  9
$SPLINESEGS
 70
     8
  9
$HANDSEED
  5
398
  9
$SURFTAB1
 70
     6
  9
$SURFTAB2
 70
     6
  9
$SURFTYPE
 70
     6
  9
$SURFU
 70
     6
  9
$SURFV
 70
     6
  9
$UCSBASE
  2

  9
$UCSNAME
  2

  9
$UCSORG
 10
0.0
 20
0.0
 30
0.0
  9
$UCSXDIR
 10
1.0
 20
0.0
 30
0.0
  9
$UCSYDIR
 10
0.0
 20
1.0
 30
0.0
  9
$UCSORTHOREF
  2

  9
$UCSORTHOVIEW
 70
     0
  9
$UCSORGTOP
 10
0.0
 20
0.0
 30
0.0
  9
$UCSORGBOTTOM
 10
0.0
 20
0.0
 30
0.0
  9
$UCSORGLEFT
 10
0.0
 20
0.0
 30
0.0
  9
$UCSORGRIGHT
 10
0.0
 20
0.0
 30
0.0
  9
$UCSORGFRONT
 10
0.0
 20
0.0
 30
0.0
  9
$UCSORGBACK
 10
0.0
 20
0.0
 30
0.0
  9
$PUCSBASE
  2

  9
$PUCSNAME
  2

  9
$PUCSORG
 10
0.0
 20
0.0
 30
0.0
  9
$PUCSXDIR
 10
1.0
 20
0.0
 30
0.0
  9
$PUCSYDIR
 10
0.0
 20
1.0
 30
0.0
  9
$PUCSORTHOREF
  2

  9
$PUCSORTHOVIEW
 70
     0
  9
$PUCSORGTOP
 10
0.0
 20
0.0
 30
0.0
  9
$PUCSORGBOTTOM
 10
0.0
 20
0.0
 30
0.0
  9
$PUCSORGLEFT
 10
0.0
 20
0.0
 30
0.0
  9
$PUCSORGRIGHT
 10
0.0
 20
0.0
 30
0.0
  9
$PUCSORGFRONT
 10
0.0
 20
0.0
 30
0.0
  9
$PUCSORGBACK
 10
0.0
 20
0.0
 30
0.0
  9
$USERI1
 70
     0
  9
$USERI2
 70
     0
  9
$USERI3
 70
     0
  9
$USERI4
 70
     0
  9
$USERI5
 70
     0
  9
$USERR1
 40
0.0
  9
$USERR2
 40
0.0
  9
$USERR3
 40
0.0
  9
$USERR4
 40
0.0
  9
$USERR5
 40
0.0
  9
$WORLDVIEW
 70
     1
  9
$SHADEDGE
 70
     3
  9
$SHADEDIF
 70
    70
  9
$TILEMODE
 70
     1
  9
$MAXACTVP
 70
    64
  9
$PINSBASE
 10
0.0
 20
0.0
 30
0.0
  9
$PLIMCHECK
 70
     0
  9
$PEXTMIN
 10
1.000000000000000E+20
 20
1.000000000000000E+20
 30
1.000000000000000E+20
  9
$PEXTMAX
 10
-1.000000000000000E+20
 20
-1.000000000000000E+20
 30
-1.000000000000000E+20
  9
$PLIMMIN
 10
0.0
 20
0.0
  9
$PLIMMAX
 10
12.0
 20
9.0
  9
$UNITMODE
 70
     0
  9
$VISRETAIN
 70
     1
  9
$PLINEGEN
 70
     0
  9
$PSLTSCALE
 70
     1
  9
$TREEDEPTH
 70
  3020
  9
$CMLSTYLE
  2
Standard
  9
$CMLJUST
 70
     0
  9
$CMLSCALE
 40
1.0
  9
$PROXYGRAPHICS
 70
     1
  9
$MEASUREMENT
 70
     1
  9
$CELWEIGHT
370
    -1
  9
$ENDCAPS
280
     0
  9
$JOINSTYLE
280
     0
  9
$LWDISPLAY
290
     0
  9
$INSUNITS
 70
     4
  9
$HYPERLINKBASE
  1

  9
$STYLESHEET
  1

  9
$XEDIT
290
     1
  9
$CEPSNTYPE
380
     0
  9
$PSTYLEMODE
290
     1
  9
$FINGERPRINTGUID
  2
{763C9A9B-BF5E-4D22-B09F-1CCF77008A08}
  9
$VERSIONGUID
  2
{83FD2FE2-8894-4237-890D-282EF88D5876}
  9
$EXTNAMES
290
     1
  9
$PSVPSCALE
 40
0.0
  9
$OLESTARTUP
290
     0
  9
$SORTENTS
280
   127
  9
$INDEXCTL
280
     0
  9
$HIDETEXT
280
     1
  9
$XCLIPFRAME
280
     2
  9
$HALOGAP
280
     0
  9
$OBSCOLOR
 70
   257
  9
$OBSLTYPE
280
     0
  9
$INTERSECTIONDISPLAY
280
     0
  9
$INTERSECTIONCOLOR
 70
   257
  9
$DIMASSOC
280
     2
  9
$PROJECTNAME
  1

  9
$CAMERADISPLAY
290
     0
  9
$LENSLENGTH
 40
50.0
  9
$CAMERAHEIGHT
 40
0.0
  9
$STEPSPERSEC
 40
2.0
  9
$STEPSIZE
 40
6.0
  9
$3DDWFPREC
 40
2.0
  9
$PSOLWIDTH
 40
0.25
  9
$PSOLHEIGHT
 40
4.0
  9
$LOFTANG1
 40
1.570796326794896
  9
$LOFTANG2
 40
1.570796326794896
  9
$LOFTMAG1
 40
0.0
  9
$LOFTMAG2
 40
0.0
  9
$LOFTPARAM
 70
     7
  9
$LOFTNORMALS
280
     1
  9
$LATITUDE
 40
37.795
  9
$LONGITUDE
 40
-122.394
  9
$NORTHDIRECTION
 40
0.0
  9
$TIMEZONE
 70
 -8000
  9
$LIGHTGLYPHDISPLAY
280
     1
  9
$TILEMODELIGHTSYNCH
280
     1
  9
$CMATERIAL
347
11
  9
$SOLIDHIST
280
     0
  9
$SHOWHIST
280
     1
  9
$DWFFRAME
280
     2
  9
$DGNFRAME
280
     0
  9
$REALWORLDSCALE
290
     1
  9
$INTERFERECOLOR
 62
     1
  9
$INTERFEREOBJVS
345
33
  9
$INTERFEREVPVS
346
30
  9
$CSHADOW
280
     0
  9
$SHADOWPLANELOCATION
 40
0.0
  0
ENDSEC
  0
SECTION
  2
CLASSES
  0
CLASS
  1
ACDBDICTIONARYWDFLT
  2
AcDbDictionaryWithDefault
  3
ObjectDBX Classes
 90
        0
 91
        1
280
     0
281
     0
  0
CLASS
  1
MATERIAL
  2
AcDbMaterial
  3
ObjectDBX Classes
 90
     1153
 91
        3
280
     0
281
     0
  0
CLASS
  1
VISUALSTYLE
  2
AcDbVisualStyle
  3
ObjectDBX Classes
 90
     4095
 91
       24
280
     0
281
     0
  0
CLASS
  1
SCALE
  2
AcDbScale
  3
ObjectDBX Classes
 90
     1153
 91
       17
280
     0
281
     0
  0
CLASS
  1
TABLESTYLE
  2
AcDbTableStyle
  3
ObjectDBX Classes
 90
     4095
 91
        1
280
     0
281
     0
  0
CLASS
  1
MLEADERSTYLE
  2
AcDbMLeaderStyle
  3
ACDB_MLEADERSTYLE_CLASS
 90
     4095
 91
        1
280
     0
281
     0
  0
CLASS
  1
ACDBSECTIONVIEWSTYLE
  2
AcDbSectionViewStyle
  3
ObjectDBX Classes
 90
     1025
 91
        1
280
     0
281
     0
  0
CLASS
  1
ACDBDETAILVIEWSTYLE
  2
AcDbDetailViewStyle
  3
ObjectDBX Classes
 90
     1025
 91
        1
280
     0
281
     0
  0
CLASS
  1
RASTERVARIABLES
  2
AcDbRasterVariables
  3
ISM
 90
        0
 91
        1
280
     0
281
     0
  0
CLASS
  1
DICTIONARYVAR
  2
AcDbDictionaryVar
  3
ObjectDBX Classes
 90
        0
 91
        5
280
     0
281
     0
  0
CLASS
  1
CELLSTYLEMAP
  2
AcDbCellStyleMap
  3
ObjectDBX Classes
 90
     1152
 91
        2
280
     0
281
     0
  0
CLASS
  1
SORTENTSTABLE
  2
AcDbSortentsTable
  3
ObjectDBX Classes
 90
        0
 91
        1
280
     0
281
     0
  0
ENDSEC
  0
SECTION
  2
TABLES
  0
TABLE
  2
VPORT
  5
8
330
0
100
AcDbSymbolTable
 70
     1
  0
VPORT
  5
57
330
8
100
AcDbSymbolTableRecord
100
AcDbViewportTableRecord
  2
*Active
 70
     0
 10
0.0
 20
0.0
 11
1.0
 21
1.0
 12
1009.040380693167
 22
1827.97293936508
 13
0.0
 23
0.0
 14
1.0
 24
1.0
 15
0.0
 25
0.0
 16
0.0
 26
0.0
 36
1.0
 17
0.0
 27
0.0
 37
0.0
 40
872.0541212701862
 41
0.7278767808303638
 42
50.0
 43
0.0
 44
0.0
 50
0.0
 51
0.0
 71
     0
 72
  1000
 73
     1
 74
     1
 75
     0
 76
     0
 77
     0
 78
     0
281
     0
 65
     1
110
0.0
120
0.0
130
0.0
111
1.0
121
0.0
131
0.0
112
0.0
122
1.0
132
0.0
 79
     0
146
0.0
 60
     3
 61
     5
292
     1
282
     1
141
0.0
142
0.0
 63
   250
421
  3355443
  0
ENDTAB
  0
TABLE
  2
LTYPE
  5
5
330
0
100
AcDbSymbolTable
 70
     3
  0
LTYPE
  5
5B
330
5
100
AcDbSymbolTableRecord
100
AcDbLinetypeTableRecord
  2
ByBlock
 70
     0
  3

 72
    65
 73
     0
 40
0.0
  0
LTYPE
  5
5C
330
5
100
AcDbSymbolTableRecord
100
AcDbLinetypeTableRecord
  2
ByLayer
 70
     0
  3

 72
    65
 73
     0
 40
0.0
  0
LTYPE
  5
5D
330
5
100
AcDbSymbolTableRecord
100
AcDbLinetypeTableRecord
  2
Continuous
 70
     0
  3
Solid line
 72
    65
 73
     0
 40
0.0
  0
LTYPE
  5
69
330
5
100
AcDbSymbolTableRecord
100
AcDbLinetypeTableRecord
  2
PHANTOM2
 70
     0
  3
___ _ _ ___ _ _ ___ _ _ ___ _ _
 72
    65
 73
     6
 40
1.25
 49
0.625
 74
     0
 49
-0.125
 74
     0
 49
0.125
 74
     0
 49
-0.125
 74
     0
 49
0.125
 74
     0
 49
-0.125
 74
     0
  0
LTYPE
  5
86
330
5
100
AcDbSymbolTableRecord
100
AcDbLinetypeTableRecord
  2
Nascosto 1_5 mm
 70
     0
  3

 72
    65
 73
     2
 40
2.2
 49
1.5
 74
     0
 49
-0.7000000000000001
 74
     0
  0
ENDTAB
  0
TABLE
  2
LAYER
  5
2
330
0
100
AcDbSymbolTable
 70
     3
  0
LAYER
  5
54
330
2
100
AcDbSymbolTableRecord
100
AcDbLayerTableRecord
  2
0
 70
     0
 62
     7
  6
Continuous
370
    -3
390
F
347
21
348
0
  0
LAYER
  5
85
330
2
100
AcDbSymbolTableRecord
100
AcDbLayerTableRecord
  2
P-SANR-FIXT
 70
     0
 62
     6
  6
Continuous
370
    18
390
F
347
21
348
0
  0
ENDTAB
  0
TABLE
  2
STYLE
  5
3
330
0
100
AcDbSymbolTable
 70
     2
  0
STYLE
  5
55
330
3
100
AcDbSymbolTableRecord
100
AcDbTextStyleTableRecord
  2
Standard
 70
     0
 40
0.0
 41
1.0
 50
0.0
 71
     0
 42
0.2
  3
txt
  4

  0
STYLE
  5
5A
330
3
100
AcDbSymbolTableRecord
100
AcDbTextStyleTableRecord
  2
Annotative
 70
     0
 40
0.0
 41
1.0
 50
0.0
 71
     0
 42
0.2
  3
txt
  4

1001
AcadAnnotative
1000
AnnotativeData
1002
{
1070
     1
1070
     1
1002
}
  0
ENDTAB
  0
TABLE
  2
VIEW
  5
6
330
0
100
AcDbSymbolTable
 70
     0
  0
ENDTAB
  0
TABLE
  2
UCS
  5
7
330
0
100
AcDbSymbolTable
 70
     0
  0
ENDTAB
  0
TABLE
  2
APPID
  5
9
330
0
100
AcDbSymbolTable
 70
     3
  0
APPID
  5
56
330
9
100
AcDbSymbolTableRecord
100
AcDbRegAppTableRecord
  2
ACAD
 70
     0
  0
APPID
  5
5E
330
9
100
AcDbSymbolTableRecord
100
AcDbRegAppTableRecord
  2
AcadAnnotative
 70
     0
  0
APPID
  5
79
330
9
100
AcDbSymbolTableRecord
100
AcDbRegAppTableRecord
  2
REVIT
 70
     0
  0
ENDTAB
  0
TABLE
  2
DIMSTYLE
  5
A
330
0
100
AcDbSymbolTable
 70
     2
100
AcDbDimStyleTable
 71
     0
  0
DIMSTYLE
105
58
330
A
100
AcDbSymbolTableRecord
100
AcDbDimStyleTableRecord
  2
Standard
 70
     0
340
55
  0
DIMSTYLE
105
59
330
A
100
AcDbSymbolTableRecord
100
AcDbDimStyleTableRecord
  2
Annotative
 70
     0
340
55
1001
AcadAnnotative
1000
AnnotativeData
1002
{
1070
     1
1070
     1
1002
}
  0
ENDTAB
  0
TABLE
  2
BLOCK_RECORD
  5
1
330
0
100
AcDbSymbolTable
 70
     4
  0
BLOCK_RECORD
  5
71
102
{ACAD_XDICTIONARY
360
393
102
}
330
1
100
AcDbSymbolTableRecord
100
AcDbBlockTableRecord
  2
*Model_Space
340
74
 70
     0
280
     1
281
     0
  0
BLOCK_RECORD
  5
6D
330
1
100
AcDbSymbolTableRecord
100
AcDbBlockTableRecord
  2
*Paper_Space
340
70
 70
     0
280
     1
281
     0
  0
BLOCK_RECORD
  5
75
330
1
100
AcDbSymbolTableRecord
100
AcDbBlockTableRecord
  2
*Paper_Space0
340
78
 70
     0
280
     1
281
     0
  0
BLOCK_RECORD
  5
87
330
1
100
AcDbSymbolTableRecord
100
AcDbBlockTableRecord
  2
Automatic flow rate regulator valve_Caleffi_121 DN15 - 1_2__-859151-Est - Idraulica
340
0
102
{BLKREFS
331
1F0
102
}
 70
     0
280
     1
281
     0
  0
BLOCK_RECORD
  5
1F1
330
1
100
AcDbSymbolTableRecord
100
AcDbBlockTableRecord
  2
Automatic flow rate regulator valve_Caleffi_121 DN15 - 1_2__-V1-Est - Idraulica
340
0
102
{BLKREFS
331
2B5
102
}
 70
     0
280
     1
281
     0
  0
BLOCK_RECORD
  5
2B6
330
1
100
AcDbSymbolTableRecord
100
AcDbBlockTableRecord
  2
Automatic flow rate regulator valve_Caleffi_121 DN15 - 1_2__-V2-Est - Idraulica
340
0
102
{BLKREFS
331
38D
102
}
 70
     0
280
     1
281
     0
  0
ENDTAB
  0
ENDSEC
  0
SECTION
  2
BLOCKS
  0
BLOCK
  5
72
330
71
100
AcDbEntity
  8
0
100
AcDbBlockBegin
  2
*Model_Space
 70
     0
 10
0.0
 20
0.0
 30
0.0
  3
*Model_Space
  1

  0
ENDBLK
  5
73
330
71
100
AcDbEntity
  8
0
100
AcDbBlockEnd
  0
BLOCK
  5
6E
330
6D
100
AcDbEntity
 67
     1
  8
0
100
AcDbBlockBegin
  2
*Paper_Space
 70
     0
 10
0.0
 20
0.0
 30
0.0
  3
*Paper_Space
  1

  0
ENDBLK
  5
6F
330
6D
100
AcDbEntity
 67
     1
  8
0
100
AcDbBlockEnd
  0
BLOCK
  5
76
330
75
100
AcDbEntity
 67
     1
  8
0
100
AcDbBlockBegin
  2
*Paper_Space0
 70
     0
 10
0.0
 20
0.0
 30
0.0
  3
*Paper_Space0
  1

  0
ENDBLK
  5
77
330
75
100
AcDbEntity
 67
     1
  8
0
100
AcDbBlockEnd
  0
BLOCK
  5
1EE
330
87
100
AcDbEntity
  8
0
100
AcDbBlockBegin
  2
Automatic flow rate regulator valve_Caleffi_121 DN15 - 1_2__-859151-Est - Idraulica
 70
     0
 10
0.0
 20
0.0
 30
0.0
  3
Automatic flow rate regulator valve_Caleffi_121 DN15 - 1_2__-859151-Est - Idraulica
  1

  0
LINE
  5
88
330
87
100
AcDbEntity
  8
P-SANR-FIXT
100
AcDbLine
 10
775.6728576155421
 20
2252.892458559579
 30
0.0
 11
822.1664074431988
 21
2252.892458559579
 31
0.0
  0
LINE
  5
89
330
87
100
AcDbEntity
  8
P-SANR-FIXT
100
AcDbLine
 10
833.1664074431989
 20
2252.892458559579
 30
0.0
 11
855.6599572708561
 21
2252.892458559579
 31
0.0
  0
SPLINE
  5
8A
330
87
100
AcDbEntity
  8
P-SANR-FIXT
100
AcDbSpline
210
0.0
220
0.0
230
1.0
 70
     8
 71
     3
 72
    13
 73
     9
 74
     0
 42
0.000000001
 43
0.0000000001
 40
-1.0
 40
-1.0
 40
-1.0
 40
-1.0
 40
-0.75
 40
-0.625
 40
-0.5
 40
-0.375
 40
-0.25
 40
0.0
 40
0.0
 40
0.0
 40
0.0
 10
855.6599572708561
 20
2252.892458559579
 30
0.0
 10
859.1875721903555
 20
2248.730036919392
 30
0.0
 10
863.7453937726222
 20
2242.124512594674
 30
0.0
 10
868.4346350655332
 20
2232.397795953872
 30
0.0
 10
871.1964809775018
 20
2224.802737381406
 30
0.0
 10
873.1552630472519
 20
2216.963480173133
 30
0.0
 10
874.708788706628
 20
2206.277441903491
 30
0.0
 10
874.6248573940579
 20
2198.247047874062
 30
0.0
 10
874.0284322976854
 20
2192.818523408689
 30
0.0
  0
SPLINE
  5
8B
330
87
100
AcDbEntity
  8
P-SANR-FIXT
100
AcDbSpline
210
0.0
220
0.0
230
1.0
 70
     8
 71
     3
 72
    13
 73
     9
 74
     0
 42
0.000000001
 43
0.0000000001
 40
-1.0
 40
-1.0
 40
-1.0
 40
-1.0
 40
-0.75
 40
-0.625
 40
-0.5
 40
-0.375
 40
-0.25
 40
0.0
 40
0.0
 40
0.0
 40
0.0
 10
757.3043825887128
 20
2192.818523408689
 30
0.0
 10
756.7079574923402
 20
2198.247047874062
 30
0.0
 10
756.6240261797703
 20
2206.277441903491
 30
0.0
 10
758.1775518391465
 20
2216.963480173133
 30
0.0
 10
760.1363339088966
 20
2224.802737381406
 30
0.0
 10
762.8981798208651
 20
2232.397795953871
 30
0.0
 10
767.587421113776
 20
2242.124512594674
 30
0.0
 10
772.1452426960427
 20
2248.730036919392
 30
0.0
 10
775.6728576155421
 20
2252.892458559579
 30
0.0
  0
SPLINE
  5
8C
330
87
100
AcDbEntity
  8
P-SANR-FIXT
100
AcDbSpline
210
0.0
220
0.0
230
1.0
 70
     8
 71
     3
 72
    13
 73
     9
 74
     0
 42
0.000000001
 43
0.0000000001
 40
-1.0
 40
-1.0
 40
-1.0
 40
-1.0
 40
-0.75
 40
-0.625
 40
-0.5
 40
-0.375
 40
-0.25
 40
0.0
 40
0.0
 40
0.0
 40
0.0
 10
874.0284322976854
 20
2192.818523408689
 30
0.0
 10
877.1722884832421
 20
2190.196920794998
 30
0.0
 10
881.3021437322968
 20
2185.870054125427
 30
0.0
 10
885.7394650911142
 20
2179.12685165873
 30
0.0
 10
888.4531787575468
 20
2173.734800520124
 30
0.0
 10
890.4942889551712
 20
2168.052209392761
 30
0.0
 10
892.3277989510808
 20
2160.192214546174
 30
0.0
 10
892.6218853388062
 20
2154.226802348222
 30
0.0
 10
892.3583897804205
 20
2150.149878091571
 30
0.0
  0
SPLINE
  5
8D
330
87
100
AcDbEntity
  8
P-SANR-FIXT
100
AcDbSpline
210
0.0
220
0.0
230
1.0
 70
     8
 71
     3
 72
    13
 73
     9
 74
     0
 42
0.000000001
 43
0.0000000001
 40
-1.0
 40
-1.0
 40
-1.0
 40
-1.0
 40
-0.75
 40
-0.625
 40
-0.5
 40
-0.375
 40
-0.25
 40
0.0
 40
0.0
 40
0.0
 40
0.0
 10
738.9744251059778
 20
2150.149878091572
 30
0.0
 10
738.710929547592
 20
2154.226802348222
 30
0.0
 10
739.0050159353176
 20
2160.192214546174
 30
0.0
 10
740.8385259312271
 20
2168.052209392761
 30
0.0
 10
742.8796361288513
 20
2173.734800520123
 30
0.0
 10
745.5933497952843
 20
2179.12685165873
 30
0.0
 10
750.0306711541015
 20
2185.870054125427
 30
0.0
 10
754.1605264031562
 20
2190.196920794998
 30
0.0
 10
757.3043825887128
 20
2192.818523408689
 30
0.0
  0
LINE
  5
8E
330
87
100
AcDbEntity
  8
P-SANR-FIXT
100
AcDbLine
 10
892.3583897804205
 20
2150.149878091572
 30
0.0
 11
892.3583897804205
 21
2149.999878091561
 31
0.0
  0
LINE
  5
8F
330
87
100
AcDbEntity
  8
P-SANR-FIXT
100
AcDbLine
 10
892.3583897804205
 20
2089.99987809156
 30
0.0
 11
892.3583897804205
 21
1909.999878091578
 31
0.0
  0
LINE
  5
90
330
87
100
AcDbEntity
  8
P-SANR-FIXT
100
AcDbLine
 10
892.3583897804205
 20
1849.999878091572
 30
0.0
 11
892.3583897804205
 21
1845.149878091583
 31
0.0
  0
LINE
  5
91
330
87
100
AcDbEntity
  8
P-SANR-FIXT
100
AcDbLine
 10
738.9744251059778
 20
1845.149878091583
 30
0.0
 11
738.9744251059778
 21
1849.999878091573
 31
0.0
  0
LINE
  5
92
330
87
100
AcDbEntity
  8
P-SANR-FIXT
100
AcDbLine
 10
738.9744251059778
 20
1909.999878091577
 30
0.0
 11
738.9744251059778
 21
2089.999878091561
 31
0.0
  0
LINE
  5
93
330
87
100
AcDbEntity
  8
P-SANR-FIXT
100
AcDbLine
 10
738.9744251059778
 20
2149.999878091561
 30
0.0
 11
738.9744251059778
 21
2150.149878091572
 31
0.0
  0
SPLINE
  5
94
330
87
100
AcDbEntity
  8
P-SANR-FIXT
100
AcDbSpline
210
0.0
220
0.0
230
1.0
 70
     8
 71
     3
 72
    11
 73
     7
 74
     0
 42
0.000000001
 43
0.0000000001
 40
-1.0
 40
-1.0
 40
-1.0
 40
-1.0
 40
-0.75
 40
-0.5
 40
-0.25
 40
0.0
 40
0.0
 40
0.0
 40
0.0
 10
892.3583897804205
 20
1845.149878091583
 30
0.0
 10
892.3555709516012
 20
1837.888399559916
 30
0.0
 10
891.5268906414731
 20
1823.474801196212
 30
0.0
 10
887.7991088211187
 20
1802.061768342428
 30
0.0
 10
881.6334658386828
 20
1781.218234401771
 30
0.0
 10
875.9815232089659
 20
1767.942241895947
 30
0.0
 10
872.7631961670876
 20
1761.439167269533
 30
0.0
  0
SPLINE
  5
95
330
87
100
AcDbEntity
  8
P-SANR-FIXT
100
AcDbSpline
210
0.0
220
0.0
230
1.0
 70
     8
 71
     3
 72
    11
 73
     7
 74
     0
 42
0.000000001
 43
0.0000000001
 40
-1.0
 40
-1.0
 40
-1.0
 40
-1.0
 40
-0.75
 40
-0.5
 40
-0.25
 40
0.0
 40
0.0
 40
0.0
 40
0.0
 10
758.5696187193108
 20
1761.439167269533
 30
0.0
 10
755.3512916774324
 20
1767.942241895947
 30
0.0
 10
749.6993490477156
 20
1781.218234401771
 30
0.0
 10
743.5337060652795
 20
1802.061768342427
 30
0.0
 10
739.8059242449253
 20
1823.474801196212
 30
0.0
 10
738.9772439347972
 20
1837.888399559916
 30
0.0
 10
738.9744251059778
 20
1845.149878091583
 30
0.0
  0
SPLINE
  5
96
330
87
100
AcDbEntity
  8
P-SANR-FIXT
100
AcDbSpline
210
0.0
220
0.0
230
1.0
 70
     8
 71
     3
 72
    12
 73
     8
 74
     0
 42
0.000000001
 43
0.0000000001
 40
-1.0
 40
-1.0
 40
-1.0
 40
-1.0
 40
-0.85
 40
-0.7
 40
-0.4
 40
-0.2
 40
0.0
 40
0.0
 40
0.0
 40
0.0
 10
872.7631961670876
 20
1761.439167269533
 30
0.0
 10
873.4025034455312
 20
1757.621736748612
 30
0.0
 10
874.2487484906362
 20
1749.991007457824
 30
0.0
 10
874.2068041688675
 20
1734.621214296543
 30
0.0
 10
871.3493367857733
 20
1718.12316507308
 30
0.0
 10
865.0061854907422
 20
1701.286142132884
 30
0.0
 10
860.0155301244141
 20
1692.377939996864
 30
0.0
 10
857.168121766251
 20
1688.078097214499
 30
0.0
  0
SPLINE
  5
97
330
87
100
AcDbEntity
  8
P-SANR-FIXT
100
AcDbSpline
210
0.0
220
0.0
230
1.0
 70
     8
 71
     3
 72
    12
 73
     8
 74
     0
 42
0.000000001
 43
0.0000000001
 40
-1.0
 40
-1.0
 40
-1.0
 40
-1.0
 40
-0.85
 40
-0.7
 40
-0.4
 40
-0.2
 40
0.0
 40
0.0
 40
0.0
 40
0.0
 10
774.1646931201475
 20
1688.078097214499
 30
0.0
 10
772.029136851525
 20
1691.302979301273
 30
0.0
 10
768.1540777934539
 20
1697.925572231858
 30
0.0
 10
761.9410050877998
 20
1711.978525666067
 30
0.0
 10
757.8382552136562
 20
1728.211269464419
 30
0.0
 10
756.7816385184665
 20
1746.1756562085
 30
0.0
 10
757.7172090147193
 20
1756.349259908304
 30
0.0
 10
758.5696187193108
 20
1761.439167269533
 30
0.0
  0
LINE
  5
98
330
87
100
AcDbEntity
  8
P-SANR-FIXT
100
AcDbLine
 10
857.168121766251
 20
1688.078097214499
 30
0.0
 11
823.1664074431984
 21
1688.078097214499
 31
0.0
  0
LINE
  5
99
330
87
100
AcDbEntity
  8
P-SANR-FIXT
100
AcDbLine
 10
808.1664074431998
 20
1688.078097214499
 30
0.0
 11
774.1646931201475
 21
1688.078097214499
 31
0.0
  0
LINE
  5
9A
330
87
100
AcDbEntity
  8
P-SANR-FIXT
100
AcDbLine
 10
804.1714435506083
 20
1744.999878091561
 30
0.0
 11
804.1714435506083
 21
1740.299878091519
 31
0.0
  0
LINE
  5
9B
330
87
100
AcDbEntity
  8
P-SANR-FIXT
100
AcDbLine
 10
827.1613713357934
 20
1740.299878091519
 30
0.0
 11
827.1613713357934
 21
1744.999878091561
 31
0.0
  0
LINE
  5
9C
330
87
100
AcDbEntity
  8
P-SANR-FIXT
100
AcDbLine
 10
801.0269860253991
 20
1740.299878091519
 30
0.0
 11
801.0269860253991
 21
1726.780456673716
 31
0.0
  0
LINE
  5
9D
330
87
100
AcDbEntity
  8
P-SANR-FIXT
100
AcDbLine
 10
830.3058288610026
 20
1733.449878091519
 30
0.0
 11
830.3058288610026
 21
1740.299878091519
 31
0.0
  0
LINE
  5
9E
330
87
100
AcDbEntity
  8
P-SANR-FIXT
100
AcDbLine
 10
800.2464074432015
 20
1726.780456673716
 30
0.0
 11
800.2464074432015
 21
1716.499878091519
 31
0.0
  0
LINE
  5
9F
330
87
100
AcDbEntity
  8
P-SANR-FIXT
100
AcDbLine
 10
831.0864074432
 20
1716.499878091519
 30
0.0
 11
831.0864074432
 21
1720.549878091519
 31
0.0
  0
LINE
  5
A0
330
87
100
AcDbEntity
  8
P-SANR-FIXT
100
AcDbLine
 10
801.1664074432028
 20
1716.499878091519
 30
0.0
 11
801.1664074432028
 21
1714.999878091503
 31
0.0
  0
LINE
  5
A1
330
87
100
AcDbEntity
  8
P-SANR-FIXT
100
AcDbLine
 10
830.166407443199
 20
1714.999878091503
 30
0.0
 11
830.166407443199
 21
1716.499878091519
 31
0.0
  0
LINE
  5
A2
330
87
100
AcDbEntity
  8
P-SANR-FIXT
100
AcDbLine
 10
803.9164074432015
 20
1714.999878091503
 30
0.0
 11
803.9164074432015
 21
1711.999878091503
 31
0.0
  0
LINE
  5
A3
330
87
100
AcDbEntity
  8
P-SANR-FIXT
100
AcDbLine
 10
827.4164074432004
 20
1711.999878091503
 30
0.0
 11
827.4164074432004
 21
1714.999878091503
 31
0.0
  0
LINE
  5
A4
330
87
100
AcDbEntity
  8
P-SANR-FIXT
100
AcDbLine
 10
802.2164074432016
 20
1711.999878091503
 30
0.0
 11
802.2164074432016
 21
1709.999878091531
 31
0.0
  0
LINE
  5
A5
330
87
100
AcDbEntity
  8
P-SANR-FIXT
100
AcDbLine
 10
829.1164074432002
 20
1709.999878091531
 30
0.0
 11
829.1164074432002
 21
1711.999878091503
 31
0.0
  0
LINE
  5
A6
330
87
100
AcDbEntity
  8
P-SANR-FIXT
100
AcDbLine
 10
800.8664074432147
 20
1709.999878091531
 30
0.0
 11
800.8664074432147
 21
1700.999878091532
 31
0.0
  0
LINE
  5
A7
330
87
100
AcDbEntity
  8
P-SANR-FIXT
100
AcDbLine
 10
830.4664074431871
 20
1700.999878091532
 30
0.0
 11
830.4664074431871
 21
1709.999878091531
 31
0.0
  0
LINE
  5
A8
330
87
100
AcDbEntity
  8
P-SANR-FIXT
100
AcDbLine
 10
808.1664074432017
 20
1700.999878091531
 30
0.0
 11
808.1664074432017
 21
1678.999878091531
 31
0.0
  0
LINE
  5
A9
330
87
100
AcDbEntity
  8
P-SANR-FIXT
100
AcDbLine
 10
823.1664074432002
 20
1678.999878091531
 30
0.0
 11
823.1664074432002
 21
1700.999878091531
 31
0.0
  0
LINE
  5
AA
330
87
100
AcDbEntity
  8
P-SANR-FIXT
100
AcDbLine
 10
808.1664074432017
 20
1678.999878091531
 30
0.0
 11
809.1664074432017
 21
1677.999878091531
 31
0.0
  0
LINE
  5
AB
330
87
100
AcDbEntity
  8
P-SANR-FIXT
100
AcDbLine
 10
822.1664074432
 20
1677.999878091531
 30
0.0
 11
823.1664074432002
 21
1678.999878091531
 31
0.0
  0
LINE
  5
AC
330
87
100
AcDbEntity
  8
P-SANR-FIXT
100
AcDbLine
 10
842.1664074432019
 20
1730.749878091455
 30
0.0
 11
837.6664074432019
 21
1730.749878091455
 31
0.0
  0
LINE
  5
AD
330
87
100
AcDbEntity
  8
P-SANR-FIXT
100
AcDbLine
 10
837.6664074432019
 20
1723.249878091582
 30
0.0
 11
842.1664074432017
 21
1723.249878091582
 31
0.0
  0
LINE
  5
AE
330
87
100
AcDbEntity
  8
P-SANR-FIXT
100
AcDbLine
 10
837.6664074432019
 20
1733.449878091519
 30
0.0
 11
830.3058288610026
 21
1733.449878091519
 31
0.0
  0
LINE
  5
AF
330
87
100
AcDbEntity
  8
P-SANR-FIXT
100
AcDbLine
 10
831.0864074432
 20
1720.549878091519
 30
0.0
 11
837.6664074432017
 21
1720.549878091519
 31
0.0
  0
LINE
  5
B0
330
87
100
AcDbEntity
  8
P-SANR-FIXT
100
AcDbLine
 10
801.0269860253975
 20
1740.299878091518
 30
0.0
 11
830.3058288610008
 21
1740.299878091518
 31
0.0
  0
SPLINE
  5
B1
330
87
100
AcDbEntity
  8
P-SANR-FIXT
100
AcDbSpline
210
0.0
220
0.0
230
1.0
 70
     8
 71
     3
 72
    12
 73
     8
 74
     0
 42
0.000000001
 43
0.0000000001
 40
0.0
 40
0.0
 40
0.0
 40
0.0
 40
0.1428571428571428
 40
0.2857142857142857
 40
0.5714285714285714
 40
0.7857142857142857
 40
1.0
 40
1.0
 40
1.0
 40
1.0
 10
828.8101628124451
 20
1726.780456673716
 30
0.0
 10
828.8032411716708
 20
1727.288944381246
 30
0.0
 10
828.8425956772842
 20
1728.275687397698
 30
0.0
 10
829.1346153625109
 20
1730.178238956035
 30
0.0
 10
829.6821555259434
 20
1731.945807238959
 30
0.0
 10
830.185844180103
 20
1733.184924059338
 30
0.0
 10
830.3058288610008
 20
1733.446086162531
 30
0.0
 10
830.3058288610008
 20
1733.449878091518
 30
0.0
  0
SPLINE
  5
B2
330
87
100
AcDbEntity
  8
P-SANR-FIXT
100
AcDbSpline
210
0.0
220
0.0
230
1.0
 70
     8
 71
     3
 72
    15
 73
    11
 74
     0
 42
0.000000001
 43
0.0000000001
 40
0.0
 40
0.0
 40
0.0
 40
0.0
 40
0.1428571428571428
 40
0.2857142857142857
 40
0.5714285714285714
 40
0.6785714285714287
 40
0.7857142857142857
 40
0.8392857142857142
 40
0.8928571428571427
 40
1.0
 40
1.0
 40
1.0
 40
1.0
 10
831.0864074431984
 20
1720.549878091518
 30
0.0
 10
831.0864074431984
 20
1720.551958590726
 30
0.0
 10
831.0410969214768
 20
1720.656034623911
 30
0.0
 10
830.7883006236812
 20
1721.282129090997
 30
0.0
 10
830.3892687240706
 20
1722.379695863565
 30
0.0
 10
830.0407586826406
 20
1723.725677924299
 30
0.0
 10
829.8841848373937
 20
1724.520376033601
 30
0.0
 10
829.784882081512
 20
1725.196725413773
 30
0.0
 10
829.7104539288763
 20
1725.881682096163
 30
0.0
 10
829.6811119452414
 20
1726.41594578983
 30
0.0
 10
829.6743354041277
 20
1726.780456673716
 30
0.0
  0
LINE
  5
B3
330
87
100
AcDbEntity
  8
P-SANR-FIXT
100
AcDbLine
 10
800.2464074431999
 20
1726.780456673716
 30
0.0
 11
829.6743354041277
 21
1726.780456673716
 31
0.0
  0
LINE
  5
B4
330
87
100
AcDbEntity
  8
P-SANR-FIXT
100
AcDbLine
 10
800.2464074431999
 20
1716.499878091518
 30
0.0
 11
831.0864074431984
 21
1716.499878091518
 31
0.0
  0
LINE
  5
B5
330
87
100
AcDbEntity
  8
P-SANR-FIXT
100
AcDbLine
 10
801.1664074432012
 20
1714.999878091502
 30
0.0
 11
830.1664074431972
 21
1714.999878091502
 31
0.0
  0
LINE
  5
B6
330
87
100
AcDbEntity
  8
P-SANR-FIXT
100
AcDbLine
 10
802.2164074431998
 20
1711.999878091502
 30
0.0
 11
829.1164074431986
 21
1711.999878091502
 31
0.0
  0
LINE
  5
B7
330
87
100
AcDbEntity
  8
P-SANR-FIXT
100
AcDbLine
 10
800.8664074432129
 20
1709.999878091531
 30
0.0
 11
830.4664074431853
 21
1709.999878091531
 31
0.0
  0
LINE
  5
B8
330
87
100
AcDbEntity
  8
P-SANR-FIXT
100
AcDbLine
 10
800.8664074432129
 20
1700.99987809153
 30
0.0
 11
830.4664074431853
 21
1700.99987809153
 31
0.0
  0
LINE
  5
B9
330
87
100
AcDbEntity
  8
P-SANR-FIXT
100
AcDbLine
 10
808.1664074432001
 20
1678.99987809153
 30
0.0
 11
823.1664074431982
 21
1678.99987809153
 31
0.0
  0
LINE
  5
BA
330
87
100
AcDbEntity
  8
P-SANR-FIXT
100
AcDbLine
 10
809.1664074432001
 20
1677.999878091531
 30
0.0
 11
822.1664074431982
 21
1677.999878091531
 31
0.0
  0
LINE
  5
BB
330
87
100
AcDbEntity
  8
P-SANR-FIXT
100
AcDbLine
 10
842.1664074432001
 20
1723.249878091581
 30
0.0
 11
842.1664074432001
 21
1730.749878091455
 31
0.0
  0
LINE
  5
BC
330
87
100
AcDbEntity
  8
P-SANR-FIXT
100
AcDbLine
 10
837.6664074432001
 20
1733.449878091518
 30
0.0
 11
837.6664074432
 21
1720.549878091518
 31
0.0
  0
LINE
  5
BD
330
87
100
AcDbEntity
  8
P-SANR-FIXT
100
AcDbLine
 10
828.6406540719745
 20
1744.99987809156
 30
0.0
 11
826.6399402890959
 21
1744.99987809156
 31
0.0
  0
LINE
  5
BE
330
87
100
AcDbEntity
  8
P-SANR-FIXT
100
AcDbLine
 10
826.6399402890959
 20
1744.99987809156
 30
0.0
 11
817.6671212260776
 21
1744.99987809156
 31
0.0
  0
LINE
  5
BF
330
87
100
AcDbEntity
  8
P-SANR-FIXT
100
AcDbLine
 10
817.6671212260776
 20
1744.99987809156
 30
0.0
 11
813.6656936603202
 21
1744.99987809156
 31
0.0
  0
LINE
  5
C0
330
87
100
AcDbEntity
  8
P-SANR-FIXT
100
AcDbLine
 10
813.6656936603202
 20
1744.99987809156
 30
0.0
 11
804.6928745973024
 21
1744.99987809156
 31
0.0
  0
LINE
  5
C1
330
87
100
AcDbEntity
  8
P-SANR-FIXT
100
AcDbLine
 10
804.6928745973024
 20
1744.99987809156
 30
0.0
 11
802.692160814424
 21
1744.99987809156
 31
0.0
  0
LINE
  5
C2
330
87
100
AcDbEntity
  8
P-SANR-FIXT
100
AcDbLine
 10
802.6921608144238
 20
1744.99987809156
 30
0.0
 11
802.6921608144238
 21
1757.709515558309
 31
0.0
  0
LINE
  5
C3
330
87
100
AcDbEntity
  8
P-SANR-FIXT
100
AcDbLine
 10
804.6928745973024
 20
1744.99987809156
 30
0.0
 11
804.6928745973024
 21
1757.709515558309
 31
0.0
  0
LINE
  5
C4
330
87
100
AcDbEntity
  8
P-SANR-FIXT
100
AcDbLine
 10
813.66569366032
 20
1744.99987809156
 30
0.0
 11
813.66569366032
 21
1757.709515558309
 31
0.0
  0
LINE
  5
C5
330
87
100
AcDbEntity
  8
P-SANR-FIXT
100
AcDbLine
 10
817.6671212260776
 20
1744.99987809156
 30
0.0
 11
817.6671212260776
 21
1757.709515558309
 31
0.0
  0
LINE
  5
C6
330
87
100
AcDbEntity
  8
P-SANR-FIXT
100
AcDbLine
 10
826.6399402890955
 20
1744.99987809156
 30
0.0
 11
826.6399402890955
 21
1757.709515558309
 31
0.0
  0
LINE
  5
C7
330
87
100
AcDbEntity
  8
P-SANR-FIXT
100
AcDbLine
 10
828.6406540719745
 20
1744.99987809156
 30
0.0
 11
828.6406540719745
 21
1757.709515558309
 31
0.0
  0
LWPOLYLINE
  5
C8
330
87
100
AcDbEntity
  8
P-SANR-FIXT
100
AcDbPolyline
 90
       22
 70
   128
 43
0.0
 10
847.6664074432015
 20
1783.999878091498
 10
847.3526440636218
 20
1782.512718212826
 10
846.9796611279024
 20
1781.039295092077
 10
846.5480553291747
 20
1779.581965891931
 10
846.058517144646
 20
1778.143062028226
 10
845.511829730982
 20
1776.724885440196
 10
844.9088676714247
 20
1775.329704907852
 10
844.2505955766435
 20
1773.959752422425
 10
843.5380665415669
 20
1772.617219615649
 10
842.7724204606526
 20
1771.304254253625
 10
841.9548822043008
 20
1770.022956800846
 10
841.0867596593234
 20
1768.775377059909
 10
840.1694416366023
 20
1767.563510892262
 10
839.2043956492896
 20
1766.389297025257
 10
838.1931655650998
 20
1765.254613950595
 10
837.13736913645
 20
1764.161276919142
 10
836.0386954124015
 20
1763.111035036916
 10
834.8989020365415
 20
1762.10556846689
 10
833.7198124351283
 20
1761.146485741086
 10
832.5033128999987
 20
1760.235321187273
 10
831.2513495709028
 20
1759.373532474365
 10
830.0803216792413
 20
1758.631791884459
  0
LWPOLYLINE
  5
C9
330
87
100
AcDbEntity
  8
P-SANR-FIXT
100
AcDbPolyline
 90
       22
 70
   128
 43
0.0
 10
801.2524932071604
 20
1758.631791884459
 10
799.9699314683245
 20
1759.447345285022
 10
798.7210090795626
 20
1760.313535119841
 10
797.507724050274
 20
1761.228975669959
 10
796.3320173776852
 20
1762.192202425778
 10
795.1957699416685
 20
1763.201674429968
 10
794.1007994957351
 20
1764.255776742662
 10
793.0488577590169
 20
1765.352823025025
 10
792.0416276138906
 20
1766.491058237028
 10
791.0807204137242
 20
1767.668661445144
 10
790.1676734050548
 20
1768.883748735447
 10
789.3039472683242
 20
1770.134376227478
 10
788.4909237810985
 20
1771.418543184036
 10
787.7299036075222
 20
1772.734195211931
 10
787.0221042175304
 20
1774.079227548577
 10
786.3686579391579
 20
1775.45148842916
 10
785.7706101470559
 20
1776.848782529003
 10
785.2289175901146
 20
1778.268874475622
 10
784.7444468608706
 20
1779.709492424837
 10
784.3179730091426
 20
1781.168331695246
 10
783.9501783021164
 20
1782.643058455218
 10
783.6664074432002
 20
1783.999878091498
  0
LINE
  5
CA
330
87
100
AcDbEntity
  8
P-SANR-FIXT
100
AcDbLine
 10
801.2524932071604
 20
1758.631791884459
 30
0.0
 11
801.6621952492702
 21
1757.70951555831
 31
0.0
  0
LINE
  5
CB
330
87
100
AcDbEntity
  8
P-SANR-FIXT
100
AcDbLine
 10
829.6706196371317
 20
1757.70951555831
 30
0.0
 11
830.0803216792413
 21
1758.631791884459
 31
0.0
  0
LINE
  5
CC
330
87
100
AcDbEntity
  8
P-SANR-FIXT
100
AcDbLine
 10
783.6664074432001
 20
1811.499878091498
 30
0.0
 11
783.6664074432001
 21
1783.999878091498
 31
0.0
  0
LINE
  5
CD
330
87
100
AcDbEntity
  8
P-SANR-FIXT
100
AcDbLine
 10
847.6664074432019
 20
1783.999878091498
 30
0.0
 11
847.6664074432019
 21
1811.499878091498
 31
0.0
  0
LINE
  5
CE
330
87
100
AcDbEntity
  8
P-SANR-FIXT
100
AcDbLine
 10
776.6664074431998
 20
1813.999878091561
 30
0.0
 11
776.6664074431998
 21
1811.499878091498
 31
0.0
  0
LINE
  5
CF
330
87
100
AcDbEntity
  8
P-SANR-FIXT
100
AcDbLine
 10
854.6664074432019
 20
1811.499878091498
 30
0.0
 11
854.6664074432019
 21
1813.999878091561
 31
0.0
  0
LINE
  5
D0
330
87
100
AcDbEntity
  8
P-SANR-FIXT
100
AcDbLine
 10
847.6664074431997
 20
1783.999878091497
 30
0.0
 11
783.6664074431986
 21
1783.999878091497
 31
0.0
  0
LINE
  5
D1
330
87
100
AcDbEntity
  8
P-SANR-FIXT
100
AcDbLine
 10
801.2524932071587
 20
1758.631791884458
 30
0.0
 11
830.0803216792397
 21
1758.631791884458
 31
0.0
  0
LINE
  5
D2
330
87
100
AcDbEntity
  8
P-SANR-FIXT
100
AcDbLine
 10
801.6621952492682
 20
1757.70951555831
 30
0.0
 11
829.67061963713
 21
1757.70951555831
 31
0.0
  0
LINE
  5
D3
330
87
100
AcDbEntity
  8
P-SANR-FIXT
100
AcDbLine
 10
854.6664074432001
 20
1811.499878091497
 30
0.0
 11
776.6664074431982
 21
1811.499878091497
 31
0.0
  0
LINE
  5
D4
330
87
100
AcDbEntity
  8
P-SANR-FIXT
100
AcDbLine
 10
789.9461448747931
 20
2199.00000000001
 30
0.0
 11
790.4294078050034
 21
2199.00000000001
 31
0.0
  0
LINE
  5
D5
330
87
100
AcDbEntity
  8
P-SANR-FIXT
100
AcDbLine
 10
790.4294078050034
 20
2199.00000000001
 30
0.0
 11
796.5806833765396
 21
2199.00000000001
 31
0.0
  0
LINE
  5
D6
330
87
100
AcDbEntity
  8
P-SANR-FIXT
100
AcDbLine
 10
798.7519400979468
 20
2199.00000000001
 30
0.0
 11
804.5294629293577
 21
2199.00000000001
 31
0.0
  0
LINE
  5
D7
330
87
100
AcDbEntity
  8
P-SANR-FIXT
100
AcDbLine
 10
804.5294629293573
 20
2199.00000000001
 30
0.0
 11
805.6961628496637
 21
2199.00000000001
 31
0.0
  0
LINE
  5
D8
330
87
100
AcDbEntity
  8
P-SANR-FIXT
100
AcDbLine
 10
805.6961628496638
 20
2199.00000000001
 30
0.0
 11
814.1526710932412
 21
2199.00000000001
 31
0.0
  0
LINE
  5
D9
330
87
100
AcDbEntity
  8
P-SANR-FIXT
100
AcDbLine
 10
817.6867291581897
 20
2199.00000000001
 30
0.0
 11
825.6366520367336
 21
2199.00000000001
 31
0.0
  0
LINE
  5
DA
330
87
100
AcDbEntity
  8
P-SANR-FIXT
100
AcDbLine
 10
825.6366520367333
 20
2199.00000000001
 30
0.0
 11
826.8033519570403
 21
2199.00000000001
 31
0.0
  0
LINE
  5
DB
330
87
100
AcDbEntity
  8
P-SANR-FIXT
100
AcDbLine
 10
826.8033519570405
 20
2199.00000000001
 30
0.0
 11
832.5808747884522
 21
2199.00000000001
 31
0.0
  0
LINE
  5
DC
330
87
100
AcDbEntity
  8
P-SANR-FIXT
100
AcDbLine
 10
834.7521315098516
 20
2199.00000000001
 30
0.0
 11
840.9034070813941
 21
2199.00000000001
 31
0.0
  0
LINE
  5
DD
330
87
100
AcDbEntity
  8
P-SANR-FIXT
100
AcDbLine
 10
840.9034070813941
 20
2199.00000000001
 30
0.0
 11
841.386670011605
 21
2199.00000000001
 31
0.0
  0
LINE
  5
DE
330
87
100
AcDbEntity
  8
P-SANR-FIXT
100
AcDbLine
 10
841.3866700116052
 20
2187.327965773124
 30
0.0
 11
841.1517157614063
 21
2187.327965773124
 31
0.0
  0
LINE
  5
DF
330
87
100
AcDbEntity
  8
P-SANR-FIXT
100
AcDbLine
 10
841.1450012489932
 20
2187.327965773124
 30
0.0
 11
840.9034070813941
 21
2187.327965773124
 31
0.0
  0
LINE
  5
E0
330
87
100
AcDbEntity
  8
P-SANR-FIXT
100
AcDbLine
 10
826.8033519570405
 20
2187.327965773124
 30
0.0
 11
826.2227677898604
 21
2187.327965773124
 31
0.0
  0
LINE
  5
E1
330
87
100
AcDbEntity
  8
P-SANR-FIXT
100
AcDbLine
 10
826.2199252930775
 20
2187.327965773124
 30
0.0
 11
825.6366520367336
 21
2187.327965773124
 31
0.0
  0
LINE
  5
E2
330
87
100
AcDbEntity
  8
P-SANR-FIXT
100
AcDbLine
 10
805.6961628496638
 20
2187.327965773124
 30
0.0
 11
805.1128895933208
 21
2187.327965773124
 31
0.0
  0
LINE
  5
E3
330
87
100
AcDbEntity
  8
P-SANR-FIXT
100
AcDbLine
 10
805.1100470965375
 20
2187.327965773124
 30
0.0
 11
804.5294629293577
 21
2187.327965773124
 31
0.0
  0
LINE
  5
E4
330
87
100
AcDbEntity
  8
P-SANR-FIXT
100
AcDbLine
 10
790.4813714045521
 20
2187.327965773124
 30
0.0
 11
790.4294078050034
 21
2187.327965773124
 31
0.0
  0
LINE
  5
E5
330
87
100
AcDbEntity
  8
P-SANR-FIXT
100
AcDbLine
 10
790.4294078050034
 20
2187.327965773124
 30
0.0
 11
790.1878136374048
 21
2187.327965773124
 31
0.0
  0
LINE
  5
E6
330
87
100
AcDbEntity
  8
P-SANR-FIXT
100
AcDbLine
 10
790.1810991249914
 20
2187.327965773124
 30
0.0
 11
789.9461448747932
 21
2187.327965773124
 31
0.0
  0
LINE
  5
E7
330
87
100
AcDbEntity
  8
P-SANR-FIXT
100
AcDbLine
 10
789.9461448747931
 20
2187.327965773124
 30
0.0
 11
789.9461448747931
 21
2199.00000000001
 31
0.0
  0
LINE
  5
E8
330
87
100
AcDbEntity
  8
P-SANR-FIXT
100
AcDbLine
 10
790.4294078050034
 20
2187.327965773124
 30
0.0
 11
790.4294078050034
 21
2199.00000000001
 31
0.0
  0
LINE
  5
E9
330
87
100
AcDbEntity
  8
P-SANR-FIXT
100
AcDbLine
 10
804.5294629293573
 20
2187.327965773124
 30
0.0
 11
804.5294629293573
 21
2199.00000000001
 31
0.0
  0
LINE
  5
EA
330
87
100
AcDbEntity
  8
P-SANR-FIXT
100
AcDbLine
 10
805.6961628496638
 20
2187.327965773124
 30
0.0
 11
805.6961628496638
 21
2199.00000000001
 31
0.0
  0
LINE
  5
EB
330
87
100
AcDbEntity
  8
P-SANR-FIXT
100
AcDbLine
 10
825.6366520367333
 20
2187.327965773124
 30
0.0
 11
825.6366520367333
 21
2199.00000000001
 31
0.0
  0
LINE
  5
EC
330
87
100
AcDbEntity
  8
P-SANR-FIXT
100
AcDbLine
 10
826.8033519570405
 20
2187.327965773124
 30
0.0
 11
826.8033519570405
 21
2199.00000000001
 31
0.0
  0
LINE
  5
ED
330
87
100
AcDbEntity
  8
P-SANR-FIXT
100
AcDbLine
 10
840.9034070813941
 20
2187.327965773124
 30
0.0
 11
840.9034070813941
 21
2199.00000000001
 31
0.0
  0
LINE
  5
EE
330
87
100
AcDbEntity
  8
P-SANR-FIXT
100
AcDbLine
 10
841.3866700116052
 20
2187.327965773124
 30
0.0
 11
841.3866700116052
 21
2199.00000000001
 31
0.0
  0
LINE
  5
EF
330
87
100
AcDbEntity
  8
P-SANR-FIXT
100
AcDbLine
 10
789.9164074432181
 20
2236.500000000095
 30
0.0
 11
789.9164074432181
 21
2199.000000000012
 31
0.0
  0
LINE
  5
F0
330
87
100
AcDbEntity
  8
P-SANR-FIXT
100
AcDbLine
 10
841.4164074431838
 20
2199.000000000012
 30
0.0
 11
841.4164074431838
 21
2236.500000000095
 31
0.0
  0
LINE
  5
F1
330
87
100
AcDbEntity
  8
P-SANR-FIXT
100
AcDbLine
 10
787.4139262412327
 20
2186.32791371873
 30
0.0
 11
777.4075883981169
 21
2183.646723574474
 31
0.0
  0
LINE
  5
F2
330
87
100
AcDbEntity
  8
P-SANR-FIXT
100
AcDbLine
 10
853.9252264882849
 20
2183.646723574474
 30
0.0
 11
843.918888645169
 21
2186.32791371873
 31
0.0
  0
LWPOLYLINE
  5
F3
330
87
100
AcDbEntity
  8
P-SANR-FIXT
100
AcDbPolyline
 90
       34
 70
   128
 43
0.0
 10
853.9252264882849
 20
2183.646723574474
 10
853.9636461913216
 20
2183.635600935551
 10
854.0015903757689
 20
2183.622950815209
 10
854.0389983390259
 20
2183.608793450941
 10
854.0758102363314
 20
2183.593151491511
 10
854.1119671765025
 20
2183.576049960717
 10
854.1474113161481
 20
2183.557516217359
 10
854.1820859522054
 20
2183.537579911475
 10
854.2159356126539
 20
2183.516272936899
 10
854.2489061452577
 20
2183.493629380247
 10
854.2809448041978
 20
2183.469685466378
 10
854.3120003344547
 20
2183.444479500447
 10
854.3420230538046
 20
2183.418051806623
 10
854.3709649323014
 20
2183.390444663578
 10
854.3987796691132
 20
2183.361702236851
 10
854.4254227665943
 20
2183.331870508194
 10
854.4508516014728
 20
2183.300997202009
 10
854.475025493037
 20
2183.269131709001
 10
854.4979057682176
 20
2183.236325007159
 10
854.519455823455
 20
2183.20262958021
 10
854.5396411832577
 20
2183.168099333647
 10
854.5584295553563
 20
2183.1327895085
 10
854.5757908823633
 20
2183.096756592956
 10
854.5916973898592
 20
2183.060058231994
 10
854.6061236308249
 20
2183.022753135162
 10
854.6190465263526
 20
2182.984900982657
 10
854.630445402566
 20
2182.946562329849
 10
854.6403020236949
 20
2182.907798510404
 10
854.6486006212479
 20
2182.868671538164
 10
854.6553279192398
 20
2182.829244007937
 10
854.660473155428
 20
2182.789578995362
 10
854.6640280985329
 20
2182.749739955997
 10
854.6659870614034
 20
2182.709790623805
 10
854.6664074431824
 20
2182.680797748185
  0
LWPOLYLINE
  5
F4
330
87
100
AcDbEntity
  8
P-SANR-FIXT
100
AcDbPolyline
 90
       34
 70
   128
 43
0.0
 10
776.6664074432195
 20
2182.680797748185
 10
776.6672073365584
 20
2182.720787082372
 10
776.6696057369168
 20
2182.760712442155
 10
776.6735988073657
 20
2182.800509955474
 10
776.6791801598438
 20
2182.8401159548
 10
776.6863408653784
 20
2182.87946707898
 10
776.6950694683673
 20
2182.918500374612
 10
776.7053520049088
 20
2182.957153396749
 10
776.717172025137
 20
2182.995364308801
 10
776.7305106195417
 20
2183.03307198146
 10
776.7453464492166
 20
2183.070216090493
 10
776.7616557799996
 20
2183.106737213251
 10
776.7794125204402
 20
2183.142576923727
 10
776.798588263542
 20
2183.177677886028
 10
776.8191523322061
 20
2183.211983946106
 10
776.8410718283099
 20
2183.24544022158
 10
776.8643116853352
 20
2183.277993189548
 10
776.8888347244686
 20
2183.309590772203
 10
776.9146017140786
 20
2183.340182420157
 10
776.9415714324787
 20
2183.369719193295
 10
776.9697007338724
 20
2183.398153839084
 10
776.9989446173782
 20
2183.425440868156
 10
777.0292562990209
 20
2183.451536627084
 10
777.0605872865761
 20
2183.476399368221
 10
777.0928874571471
 20
2183.499989316486
 10
777.1261051373514
 20
2183.522268732993
 10
777.1601871859868
 20
2183.543201975428
 10
777.1950790790458
 20
2183.56275555507
 10
777.2307249969428
 20
2183.580898190362
 10
777.2670679138132
 20
2183.597600856957
 10
777.3040496887428
 20
2183.612836834152
 10
777.3416111587809
 20
2183.626581747635
 10
777.3796922335876
 20
2183.638813608475
 10
777.4075883981169
 20
2183.646723574474
  0
LINE
  5
F5
330
87
100
AcDbEntity
  8
P-SANR-FIXT
100
AcDbLine
 10
776.6664074432196
 20
2182.680797748185
 30
0.0
 11
776.6664074432196
 21
2181.000000000032
 31
0.0
  0
LINE
  5
F6
330
87
100
AcDbEntity
  8
P-SANR-FIXT
100
AcDbLine
 10
854.666407443182
 20
2181.000000000032
 30
0.0
 11
854.666407443182
 21
2182.680797748185
 31
0.0
  0
LWPOLYLINE
  5
F7
330
87
100
AcDbEntity
  8
P-SANR-FIXT
100
AcDbPolyline
 90
       37
 70
   128
 43
0.0
 10
843.2440441940935
 20
2187.327965773125
 10
843.2403074268096
 20
2187.291371095259
 10
843.2380370453437
 20
2187.254656258397
 10
843.2372366818219
 20
2187.217879998445
 10
843.2379076166546
 20
2187.181101149574
 10
843.2400487764896
 20
2187.144378550097
 10
843.2436567359278
 20
2187.107770948339
 10
843.2487257230038
 20
2187.071336908653
 10
843.2552476284197
 20
2187.03513471773
 10
843.2632120185179
 20
2186.999222291355
 10
843.2726061519732
 20
2186.963657081747
 10
843.2834150001761
 20
2186.928495985656
 10
843.2956212712751
 20
2186.893795253334
 10
843.3092054378409
 20
2186.859610398551
 10
843.3241457681042
 20
2186.825996109782
 10
843.340418360724
 20
2186.793006162718
 10
843.3579971830232
 20
2186.760693334238
 10
843.3768541126362
 20
2186.729109317974
 10
843.3969589824979
 20
2186.698304641613
 10
843.4182796291059
 20
2186.668328586069
 10
843.4407819439734
 20
2186.639229106633
 10
843.4644299281968
 20
2186.611052756266
 10
843.4891857500463
 20
2186.583844611119
 10
843.5150098054876
 20
2186.557648198419
 10
843.5418607815408
 20
2186.532505426837
 10
843.5696957223726
 20
2186.508456519446
 10
843.5984700980149
 20
2186.485539949366
 10
843.6281378756051
 20
2186.463792378222
 10
843.6586515930279
 20
2186.443248597488
 10
843.6899624348448
 20
2186.42394147283
 10
843.7220203103878
 20
2186.40590189153
 10
843.7547739338949
 20
2186.389158713069
 10
843.7881709065555
 20
2186.373738722961
 10
843.8221578003377
 20
2186.359666589902
 10
843.8566802434618
 20
2186.346964826301
 10
843.891683007383
 20
2186.335653752272
 10
843.918888645169
 20
2186.32791371873
  0
LWPOLYLINE
  5
F8
330
87
100
AcDbEntity
  8
P-SANR-FIXT
100
AcDbPolyline
 90
       37
 70
   128
 43
0.0
 10
787.4139262412327
 20
2186.32791371873
 10
787.4492602855501
 20
2186.33814304862
 10
787.4841570023094
 20
2186.349777181043
 10
787.5185605642078
 20
2186.362797503869
 10
787.5524159328858
 20
2186.377183187361
 10
787.5856689469748
 20
2186.392911217492
 10
787.6182664087468
 20
2186.40995643277
 10
787.6501561692159
 20
2186.428291564485
 10
787.6812872115686
 20
2186.447887280339
 10
787.7116097327779
 20
2186.468712231368
 10
787.7410752232783
 20
2186.49073310209
 10
787.7696365445711
 20
2186.513914663811
 10
787.7972480046342
 20
2186.538219830978
 10
787.8238654310222
 20
2186.563609720507
 10
787.8494462415308
 20
2186.590043713992
 10
787.8739495123201
 20
2186.617479522681
 10
787.8973360433839
 20
2186.645873255134
 10
787.9195684212614
 20
2186.675179487436
 10
787.9406110788908
 20
2186.705351335866
 10
787.9604303525085
 20
2186.736340531904
 10
787.9789945355047
 20
2186.768097499447
 10
787.9962739291469
 20
2186.800571434121
 10
788.012240890091
 20
2186.833710384557
 10
788.0268698746059
 20
2186.867461335505
 10
788.040137479437
 20
2186.901770292642
 10
788.0520224792468
 20
2186.936582368957
 10
788.0625058605709
 20
2186.971841872553
 10
788.0715708522354
 20
2187.007492395746
 10
788.0792029521877
 20
2187.043476905304
 10
788.0853899506961
 20
2187.079737833688
 10
788.0901219498822
 20
2187.116217171148
 10
788.0933913795573
 20
2187.152856558526
 10
788.0951930093309
 20
2187.189597380617
 10
788.0955239569799
 20
2187.226380859946
 10
788.0943836930589
 20
2187.263148150789
 10
788.0917740417466
 20
2187.299840433327
 10
788.0887706923084
 20
2187.327965773125
  0
LINE
  5
F9
330
87
100
AcDbEntity
  8
P-SANR-FIXT
100
AcDbLine
 10
843.2440441940917
 20
2187.327965773124
 30
0.0
 11
841.4040786052348
 21
2187.327965773124
 31
0.0
  0
LINE
  5
FA
330
87
100
AcDbEntity
  8
P-SANR-FIXT
100
AcDbLine
 10
841.1448215923796
 20
2187.327965773124
 30
0.0
 11
840.918539327594
 21
2187.327965773124
 31
0.0
  0
LINE
  5
FB
330
87
100
AcDbEntity
  8
P-SANR-FIXT
100
AcDbLine
 10
840.8938092983877
 20
2187.327965773124
 30
0.0
 11
790.4390055880099
 21
2187.327965773124
 31
0.0
  0
LINE
  5
FC
330
87
100
AcDbEntity
  8
P-SANR-FIXT
100
AcDbLine
 10
790.4142755588036
 20
2187.327965773124
 30
0.0
 11
790.0742366442512
 21
2187.327965773124
 31
0.0
  0
LINE
  5
FD
330
87
100
AcDbEntity
  8
P-SANR-FIXT
100
AcDbLine
 10
789.9287362811636
 20
2187.327965773124
 30
0.0
 11
788.0887706923066
 21
2187.327965773124
 31
0.0
  0
LINE
  5
FE
330
87
100
AcDbEntity
  8
P-SANR-FIXT
100
AcDbLine
 10
789.9164074432161
 20
2199.00000000001
 30
0.0
 11
789.927552828685
 21
2199.00000000001
 31
0.0
  0
LINE
  5
FF
330
87
100
AcDbEntity
  8
P-SANR-FIXT
100
AcDbLine
 10
796.0859538290113
 20
2199.00000000001
 30
0.0
 11
798.9431201987078
 21
2199.00000000001
 31
0.0
  0
LINE
  5
100
330
87
100
AcDbEntity
  8
P-SANR-FIXT
100
AcDbLine
 10
813.6460857282084
 20
2199.00000000001
 30
0.0
 11
817.6867291581896
 21
2199.00000000001
 31
0.0
  0
LINE
  5
101
330
87
100
AcDbEntity
  8
P-SANR-FIXT
100
AcDbLine
 10
832.3896946876903
 20
2199.00000000001
 30
0.0
 11
835.2468610573868
 21
2199.00000000001
 31
0.0
  0
LINE
  5
102
330
87
100
AcDbEntity
  8
P-SANR-FIXT
100
AcDbLine
 10
841.4052620577132
 20
2199.00000000001
 30
0.0
 11
841.4164074431822
 21
2199.00000000001
 31
0.0
  0
LINE
  5
103
330
87
100
AcDbEntity
  8
P-SANR-FIXT
100
AcDbLine
 10
822.1664074432007
 20
2264.000000000173
 30
0.0
 11
822.1664074432005
 21
2252.500000000173
 31
0.0
  0
LINE
  5
104
330
87
100
AcDbEntity
  8
P-SANR-FIXT
100
AcDbLine
 10
833.1664074432005
 20
2252.500000000173
 30
0.0
 11
833.1664074432005
 21
2264.000000000173
 31
0.0
  0
LINE
  5
105
330
87
100
AcDbEntity
  8
P-SANR-FIXT
100
AcDbLine
 10
824.6664074432006
 20
2252.500000000173
 30
0.0
 11
824.6664074432006
 21
2249.00000000008
 31
0.0
  0
LINE
  5
106
330
87
100
AcDbEntity
  8
P-SANR-FIXT
100
AcDbLine
 10
830.6664074432005
 20
2249.00000000008
 30
0.0
 11
830.6664074432005
 21
2252.500000000173
 31
0.0
  0
LINE
  5
107
330
87
100
AcDbEntity
  8
P-SANR-FIXT
100
AcDbLine
 10
820.4164074432007
 20
2249.00000000008
 30
0.0
 11
820.4164074432007
 21
2246.000000000017
 31
0.0
  0
LINE
  5
108
330
87
100
AcDbEntity
  8
P-SANR-FIXT
100
AcDbLine
 10
834.9164074432007
 20
2246.000000000017
 30
0.0
 11
834.9164074432007
 21
2249.00000000008
 31
0.0
  0
LINE
  5
109
330
87
100
AcDbEntity
  8
P-SANR-FIXT
100
AcDbLine
 10
822.1664074431989
 20
2264.000000000172
 30
0.0
 11
833.1664074431989
 21
2264.000000000172
 31
0.0
  0
LINE
  5
10A
330
87
100
AcDbEntity
  8
P-SANR-FIXT
100
AcDbLine
 10
822.1664074431989
 20
2252.500000000172
 30
0.0
 11
833.1664074431989
 21
2252.500000000172
 31
0.0
  0
LINE
  5
10B
330
87
100
AcDbEntity
  8
P-SANR-FIXT
100
AcDbLine
 10
820.4164074431988
 20
2249.000000000079
 30
0.0
 11
834.9164074431989
 21
2249.000000000079
 31
0.0
  0
LWPOLYLINE
  5
10C
330
87
100
AcDbEntity
  8
P-SANR-FIXT
100
AcDbPolyline
 90
       41
 70
   128
 43
0.0
 10
841.1664074431815
 20
2246.000000000012
 10
841.2463861115547
 20
2245.998400213334
 10
841.3262368311196
 20
2245.993603412618
 10
841.4058318577593
 20
2245.98561727172
 10
841.48504385641
 20
2245.974454566763
 10
841.5637461047715
 20
2245.960133155694
 10
841.6418126960357
 20
2245.942675949716
 10
841.7191187403096
 20
2245.922110876633
 10
841.7955405644137
 20
2245.898470836177
 10
841.8709559097315
 20
2245.871793647367
 10
841.9452441277988
 20
2245.842121988018
 10
842.0182863733135
 20
2245.809503326452
 10
842.0899657942646
 20
2245.77398984557
 10
842.1601677188689
 20
2245.735638359367
 10
842.2287798390232
 20
2245.694510222039
 10
842.2956923899715
 20
2245.650671229831
 10
842.3607983259062
 20
2245.604191515781
 10
842.4239934912185
 20
2245.555145437513
 10
842.4851767871244
 20
2245.503611458294
 10
842.5442503334025
 20
2245.449672021493
 10
842.6011196249804
 20
2245.393413418706
 10
842.6556936831229
 20
2245.334925651695
 10
842.7078852009794
 20
2245.274302288409
 10
842.7576106832541
 20
2245.211640313299
 10
842.8047905797834
 20
2245.147039972156
 10
842.8493494127973
 20
2245.080604611748
 10
842.8912158976681
 20
2245.012440514477
 10
842.9303230569512
 20
2244.942656728359
 10
842.9666083275344
 20
2244.871364892565
 10
843.0000136607249
 20
2244.798679058824
 10
843.0304856151158
 20
2244.724715508965
 10
843.0579754420804
 20
2244.649592568889
 10
843.0824391637598
 20
2244.573430419276
 10
843.103837643418
 20
2244.496350903316
 10
843.1221366480521
 20
2244.418477331795
 10
843.1373069031584
 20
2244.339934285812
 10
843.1493241395649
 20
2244.260847417488
 10
843.1581691322568
 20
2244.181343248941
 10
843.1638277311327
 20
2244.101548969879
 10
843.1662908836413
 20
2244.021592234128
 10
843.1664074431816
 20
2244.000000000012
  0
LWPOLYLINE
  5
10D
330
87
100
AcDbEntity
  8
P-SANR-FIXT
100
AcDbPolyline
 90
       41
 70
   128
 43
0.0
 10
788.1664074432203
 20
2244.000000000012
 10
788.1680072298985
 20
2244.079978668385
 10
788.1728040306152
 20
2244.15982938795
 10
788.1807901715126
 20
2244.23942441459
 10
788.1919528764692
 20
2244.31863641324
 10
788.2062742875379
 20
2244.397338661602
 10
788.2237314935163
 20
2244.475405252866
 10
788.2442965665988
 20
2244.55271129714
 10
788.2679366070553
 20
2244.629133121244
 10
788.2946137958644
 20
2244.704548466562
 10
788.3242854552146
 20
2244.778836684629
 10
788.3569041167804
 20
2244.851878930144
 10
788.3924175976617
 20
2244.923558351095
 10
788.4307690838651
 20
2244.993760275699
 10
788.4718972211934
 20
2245.062372395853
 10
788.5157362134012
 20
2245.129284946802
 10
788.5622159274516
 20
2245.194390882737
 10
788.6112620057184
 20
2245.257586048049
 10
788.6627959849386
 20
2245.318769343954
 10
788.7167354217386
 20
2245.377842890233
 10
788.7729940245261
 20
2245.434712181811
 10
788.8314817915378
 20
2245.489286239953
 10
788.8921051548232
 20
2245.54147775781
 10
788.9547671299334
 20
2245.591203240084
 10
789.0193674710754
 20
2245.638383136614
 10
789.085802831484
 20
2245.682941969628
 10
789.1539669287547
 20
2245.724808454498
 10
789.2237507148729
 20
2245.763915613782
 10
789.295042550667
 20
2245.800200884365
 10
789.367728384408
 20
2245.833606217555
 10
789.441691934267
 20
2245.864078171946
 10
789.5168148743428
 20
2245.891567998911
 10
789.5929770239566
 20
2245.91603172059
 10
789.6700565399156
 20
2245.937430200248
 10
789.7479301114376
 20
2245.955729204882
 10
789.8264731574198
 20
2245.970899459988
 10
789.905560025744
 20
2245.982916696395
 10
789.9850641942918
 20
2245.991761689087
 10
790.0648584733533
 20
2245.997420287963
 10
790.1448152091037
 20
2245.999883440472
 10
790.1664074432204
 20
2246.000000000012
  0
LWPOLYLINE
  5
10E
330
87
100
AcDbEntity
  8
P-SANR-FIXT
100
AcDbPolyline
 90
        3
 70
   128
 43
0.0
 10
790.1664074432204
 20
2246.000000000012
 10
790.1868047233654
 20
2246.000000000012
 10
790.2358069018885
 20
2246.000000000012
  0
LWPOLYLINE
  5
10F
330
87
100
AcDbEntity
  8
P-SANR-FIXT
100
AcDbPolyline
 90
        4
 70
   128
 43
0.0
 10
841.0767041490267
 20
2246.000000000012
 10
841.1180536316077
 20
2246.000000000012
 10
841.160463079861
 20
2246.000000000012
 10
841.1664074431815
 20
2246.000000000012
  0
LWPOLYLINE
  5
110
330
87
100
AcDbEntity
  8
P-SANR-FIXT
100
AcDbPolyline
 90
       80
 70
   128
 43
0.0
 10
841.1664074431815
 20
2246.000000000012
 10
841.1460101630364
 20
2246.000000000012
 10
841.0848509538983
 20
2246.000000000012
 10
840.9830276574551
 20
2246.000000000012
 10
840.84070316926
 20
2246.000000000012
 10
840.6581051781335
 20
2246.000000000012
 10
840.4355258019085
 20
2246.000000000012
 10
840.1733211201069
 20
2246.000000000012
 10
839.8719106042847
 20
2246.000000000012
 10
839.5317764469702
 20
2246.000000000012
 10
839.1534627902565
 20
2246.000000000012
 10
838.7375748552923
 20
2246.000000000012
 10
838.2847779740554
 20
2246.000000000012
 10
837.795796524964
 20
2246.000000000012
 10
837.2714127740264
 20
2246.000000000012
 10
836.7124656233816
 20
2246.000000000012
 10
836.1198492692349
 20
2246.000000000012
 10
835.4945117713343
 20
2246.000000000012
 10
834.837453536279
 20
2246.000000000012
 10
834.1497257170797
 20
2246.000000000012
 10
833.43242853154
 20
2246.000000000012
 10
832.6867095021411
 20
2246.000000000012
 10
831.9137616202523
 20
2246.000000000012
 10
831.1148214375974
 20
2246.000000000012
 10
830.2911670880373
 20
2246.000000000012
 10
829.4441162428279
 20
2246.000000000012
 10
828.5750240026269
 20
2246.000000000012
 10
827.685280729622
 20
2246.000000000012
 10
826.7763098232485
 20
2246.000000000012
 10
825.8495654430531
 20
2246.000000000012
 10
824.9065301823488
 20
2246.000000000012
 10
823.9487126963833
 20
2246.000000000012
 10
822.9776452888101
 20
2246.000000000012
 10
821.9948814603313
 20
2246.000000000012
 10
821.0019934234278
 20
2246.000000000012
 10
820.0005695871537
 20
2246.000000000012
 10
818.9922120160211
 20
2246.000000000012
 10
817.9785338670388
 20
2246.000000000012
 10
816.961156809006
 20
2246.000000000012
 10
815.9417084281866
 20
2246.000000000012
 10
814.9218196245184
 20
2246.000000000012
 10
813.9031220025234
 20
2246.000000000012
 10
812.8872452610861
 20
2246.000000000012
 10
811.8758145862837
 20
2246.000000000012
 10
810.870448051436
 20
2246.000000000012
 10
809.8727540285317
 20
2246.000000000012
 10
808.8843286151771
 20
2246.000000000012
 10
807.906753081181
 20
2246.000000000012
 10
806.9415913388596
 20
2246.000000000012
 10
805.9903874411103
 20
2246.000000000012
 10
805.0546631112569
 20
2246.000000000012
 10
804.1359153086165
 20
2246.000000000012
 10
803.2356138336842
 20
2246.000000000012
 10
802.3551989767659
 20
2246.000000000012
 10
801.4960792138209
 20
2246.000000000012
 10
800.659628953201
 20
2246.000000000012
 10
799.8471863368895
 20
2246.000000000012
 10
799.0600510997611
 20
2246.000000000012
 10
798.2994824902817
 20
2246.000000000012
 10
797.5666972559807
 20
2246.000000000012
 10
796.8628676969135
 20
2246.000000000012
 10
796.1891197902324
 20
2246.000000000012
 10
795.5465313888631
 20
2246.000000000012
 10
794.9361304971696
 20
2246.000000000012
 10
794.3588936263662
 20
2246.000000000012
 10
793.8157442323094
 20
2246.000000000012
 10
793.3075512381638
 20
2246.000000000012
 10
792.8351276443111
 20
2246.000000000012
 10
792.3992292277234
 20
2246.000000000012
 10
792.0005533328808
 20
2246.000000000012
 10
791.6397377561684
 20
2246.000000000012
 10
791.3173597255389
 20
2246.000000000012
 10
791.0339349770713
 20
2246.000000000012
 10
790.7899169299022
 20
2246.000000000012
 10
790.5856959608529
 20
2246.000000000012
 10
790.4215987799089
 20
2246.000000000012
 10
790.2978879075541
 20
2246.000000000012
 10
790.2147612547941
 20
2246.000000000012
 10
790.1723518065407
 20
2246.000000000012
 10
790.1664074432204
 20
2246.000000000012
  0
LINE
  5
111
330
87
100
AcDbEntity
  8
P-SANR-FIXT
100
AcDbLine
 10
788.1664074432205
 20
2244.000000000012
 30
0.0
 11
788.1664074432205
 21
2236.500000000095
 31
0.0
  0
LINE
  5
112
330
87
100
AcDbEntity
  8
P-SANR-FIXT
100
AcDbLine
 10
843.1664074431813
 20
2236.500000000095
 30
0.0
 11
843.1664074431813
 21
2244.000000000012
 31
0.0
  0
LINE
  5
113
330
87
100
AcDbEntity
  8
P-SANR-FIXT
100
AcDbLine
 10
843.1664074431797
 20
2236.500000000094
 30
0.0
 11
788.1664074432188
 21
2236.500000000094
 31
0.0
  0
ARC
  5
114
330
87
100
AcDbEntity
  8
P-SANR-FIXT
100
AcDbCircle
 10
815.6664074431777
 20
2119.999878091561
 30
0.0
 40
12.49999999999386
100
AcDbArc
 50
180.0
 51
0.0
  0
ARC
  5
115
330
87
100
AcDbEntity
  8
P-SANR-FIXT
100
AcDbCircle
 10
815.6664074431777
 20
2119.999878091561
 30
0.0
 40
12.49999999999387
100
AcDbArc
 50
359.9999999999994
 51
179.9999999999997
  0
LINE
  5
116
330
87
100
AcDbEntity
  8
P-SANR-FIXT
100
AcDbLine
 10
805.2741025977642
 20
2119.999878091559
 30
0.0
 11
810.4702550204711
 21
2110.999878091559
 31
0.0
  0
LINE
  5
117
330
87
100
AcDbEntity
  8
P-SANR-FIXT
100
AcDbLine
 10
810.4702550204711
 20
2110.999878091559
 30
0.0
 11
820.8625598658851
 21
2110.999878091559
 31
0.0
  0
LINE
  5
118
330
87
100
AcDbEntity
  8
P-SANR-FIXT
100
AcDbLine
 10
820.8625598658851
 20
2110.999878091559
 30
0.0
 11
826.0587122885922
 21
2119.999878091559
 31
0.0
  0
LINE
  5
119
330
87
100
AcDbEntity
  8
P-SANR-FIXT
100
AcDbLine
 10
826.0587122885922
 20
2119.999878091559
 30
0.0
 11
820.8625598658853
 21
2128.99987809156
 31
0.0
  0
LINE
  5
11A
330
87
100
AcDbEntity
  8
P-SANR-FIXT
100
AcDbLine
 10
820.8625598658853
 20
2128.99987809156
 30
0.0
 11
810.4702550204711
 21
2128.99987809156
 31
0.0
  0
LINE
  5
11B
330
87
100
AcDbEntity
  8
P-SANR-FIXT
100
AcDbLine
 10
810.4702550204711
 20
2128.99987809156
 30
0.0
 11
805.2741025977642
 21
2119.999878091559
 31
0.0
  0
LINE
  5
11C
330
87
100
AcDbEntity
  8
P-SANR-FIXT
100
AcDbLine
 10
920.5664074432313
 20
1905.349878091585
 30
0.0
 11
917.86175363184
 21
1905.349878091585
 31
0.0
  0
LINE
  5
11D
330
87
100
AcDbEntity
  8
P-SANR-FIXT
100
AcDbLine
 10
917.86175363184
 20
1854.649878091566
 30
0.0
 11
920.5664074432311
 21
1854.649878091566
 31
0.0
  0
LINE
  5
11E
330
87
100
AcDbEntity
  8
P-SANR-FIXT
100
AcDbLine
 10
939.6664074432287
 20
1885.050460473999
 30
0.0
 11
939.6664074432287
 21
1874.949295709233
 31
0.0
  0
LINE
  5
11F
330
87
100
AcDbEntity
  8
P-SANR-FIXT
100
AcDbLine
 10
939.6664074432287
 20
1874.949295709233
 30
0.0
 11
939.6664074432287
 21
1861.024707102694
 31
0.0
  0
LINE
  5
120
330
87
100
AcDbEntity
  8
P-SANR-FIXT
100
AcDbLine
 10
939.6664074432287
 20
1861.024707102694
 30
0.0
 11
939.6664074432289
 21
1855.99987809164
 31
0.0
  0
LINE
  5
121
330
87
100
AcDbEntity
  8
P-SANR-FIXT
100
AcDbLine
 10
939.6664074432289
 20
1903.999878091554
 30
0.0
 11
939.6664074432287
 21
1898.975049080355
 31
0.0
  0
LINE
  5
122
330
87
100
AcDbEntity
  8
P-SANR-FIXT
100
AcDbLine
 10
939.6664074432287
 20
1898.975049080355
 30
0.0
 11
939.6664074432287
 21
1885.050460473999
 31
0.0
  0
LINE
  5
123
330
87
100
AcDbEntity
  8
P-SANR-FIXT
100
AcDbLine
 10
939.6664074432287
 20
1885.050460473999
 30
0.0
 11
920.566407443229
 21
1885.050460473999
 31
0.0
  0
LINE
  5
124
330
87
100
AcDbEntity
  8
P-SANR-FIXT
100
AcDbLine
 10
920.566407443229
 20
1874.949295709233
 30
0.0
 11
939.6664074432287
 21
1874.949295709233
 31
0.0
  0
LINE
  5
125
330
87
100
AcDbEntity
  8
P-SANR-FIXT
100
AcDbLine
 10
920.566407443229
 20
1861.024707102694
 30
0.0
 11
939.6664074432287
 21
1861.024707102694
 31
0.0
  0
LINE
  5
126
330
87
100
AcDbEntity
  8
P-SANR-FIXT
100
AcDbLine
 10
920.5664074432291
 20
1855.99987809164
 30
0.0
 11
939.6664074432289
 21
1855.99987809164
 31
0.0
  0
LINE
  5
127
330
87
100
AcDbEntity
  8
P-SANR-FIXT
100
AcDbLine
 10
920.5664074432291
 20
1903.999878091554
 30
0.0
 11
939.6664074432289
 21
1903.999878091554
 31
0.0
  0
LINE
  5
128
330
87
100
AcDbEntity
  8
P-SANR-FIXT
100
AcDbLine
 10
920.566407443229
 20
1898.975049080355
 30
0.0
 11
939.6664074432287
 21
1898.975049080355
 31
0.0
  0
LINE
  5
129
330
87
100
AcDbEntity
  8
P-SANR-FIXT
100
AcDbLine
 10
920.5664074432291
 20
1854.649878091565
 30
0.0
 11
920.5664074432291
 21
1855.976762544632
 31
0.0
  0
LINE
  5
12A
330
87
100
AcDbEntity
  8
P-SANR-FIXT
100
AcDbLine
 10
920.566407443229
 20
1860.99879049288
 30
0.0
 11
920.5664074432291
 21
1874.940509842035
 31
0.0
  0
LINE
  5
12B
330
87
100
AcDbEntity
  8
P-SANR-FIXT
100
AcDbLine
 10
920.566407443229
 20
1885.059246341199
 30
0.0
 11
920.5664074432291
 21
1899.000965690183
 31
0.0
  0
LINE
  5
12C
330
87
100
AcDbEntity
  8
P-SANR-FIXT
100
AcDbLine
 10
920.5664074432291
 20
1904.022993638586
 30
0.0
 11
920.5664074432291
 21
1905.349878091585
 31
0.0
  0
LINE
  5
12D
330
87
100
AcDbEntity
  8
P-SANR-FIXT
100
AcDbLine
 10
914.8696543163339
 20
1841.317410055928
 30
0.0
 11
917.86175363184
 21
1846.499878091677
 31
0.0
  0
LINE
  5
12E
330
87
100
AcDbEntity
  8
P-SANR-FIXT
100
AcDbLine
 10
917.86175363184
 20
1913.499878091474
 30
0.0
 11
914.8696543163085
 21
1918.682346127267
 31
0.0
  0
LINE
  5
12F
330
87
100
AcDbEntity
  8
P-SANR-FIXT
100
AcDbLine
 10
893.8617536318398
 20
1846.747387899403
 30
0.0
 11
896.8716394996649
 21
1841.31741005593
 31
0.0
  0
LINE
  5
130
330
87
100
AcDbEntity
  8
P-SANR-FIXT
100
AcDbLine
 10
896.8716394996887
 20
1918.682346127264
 30
0.0
 11
893.8617536318401
 21
1913.252368283749
 31
0.0
  0
LINE
  5
131
330
87
100
AcDbEntity
  8
P-SANR-FIXT
100
AcDbLine
 10
917.8617536318382
 20
1913.499878091474
 30
0.0
 11
917.861753631838
 21
1909.011729118266
 31
0.0
  0
LINE
  5
132
330
87
100
AcDbEntity
  8
P-SANR-FIXT
100
AcDbLine
 10
917.861753631838
 20
1909.011729118266
 30
0.0
 11
917.8617536318379
 21
1879.999878091575
 31
0.0
  0
LINE
  5
133
330
87
100
AcDbEntity
  8
P-SANR-FIXT
100
AcDbLine
 10
917.8617536318379
 20
1879.999878091575
 30
0.0
 11
917.8617536318379
 21
1850.988027064883
 31
0.0
  0
LINE
  5
134
330
87
100
AcDbEntity
  8
P-SANR-FIXT
100
AcDbLine
 10
917.8617536318379
 20
1850.988027064883
 30
0.0
 11
917.8617536318379
 21
1846.499878091676
 31
0.0
  0
LINE
  5
135
330
87
100
AcDbEntity
  8
P-SANR-FIXT
100
AcDbLine
 10
893.8617536318378
 20
1846.747387899402
 30
0.0
 11
893.8617536318382
 21
1913.252368283747
 31
0.0
  0
SPLINE
  5
136
330
87
100
AcDbEntity
  8
P-SANR-FIXT
100
AcDbSpline
210
0.0
220
0.0
230
1.0
 70
     8
 71
     3
 72
     9
 73
     5
 74
     0
 42
0.000000001
 43
0.0000000001
 40
0.0
 40
0.0
 40
0.0
 40
0.0
 40
0.5
 40
1.0
 40
1.0
 40
1.0
 40
1.0
 10
914.8696543163156
 20
1860.65864407378
 30
0.0
 10
915.8302834700744
 20
1863.826738617614
 30
0.0
 10
917.2895958430869
 20
1870.218372164413
 30
0.0
 10
917.8250163470893
 20
1876.720894629477
 30
0.0
 10
917.8617536318379
 20
1879.999878091575
 30
0.0
  0
SPLINE
  5
137
330
87
100
AcDbEntity
  8
P-SANR-FIXT
100
AcDbSpline
210
0.0
220
0.0
230
1.0
 70
     8
 71
     3
 72
     9
 73
     5
 74
     0
 42
0.000000001
 43
0.0000000001
 40
0.0
 40
0.0
 40
0.0
 40
0.0
 40
0.5
 40
1.0
 40
1.0
 40
1.0
 40
1.0
 10
917.8617536318379
 20
1879.999878091575
 30
0.0
 10
917.825016347089
 20
1883.278861553681
 30
0.0
 10
917.2895958430842
 20
1889.781384018759
 30
0.0
 10
915.8302834700657
 20
1896.173017565573
 30
0.0
 10
914.869654316303
 20
1899.341112109413
 30
0.0
  0
LINE
  5
138
330
87
100
AcDbEntity
  8
P-SANR-FIXT
100
AcDbLine
 10
914.869654316303
 20
1899.341112109413
 30
0.0
 11
896.8716394996915
 21
1899.341112109413
 31
0.0
  0
SPLINE
  5
139
330
87
100
AcDbEntity
  8
P-SANR-FIXT
100
AcDbSpline
210
0.0
220
0.0
230
1.0
 70
     8
 71
     3
 72
    10
 73
     6
 74
     0
 42
0.000000001
 43
0.0000000001
 40
0.0
 40
0.0
 40
0.0
 40
0.0
 40
0.3333333333333333
 40
0.6666666666666666
 40
1.0
 40
1.0
 40
1.0
 40
1.0
 10
896.8716394996915
 20
1899.341112109413
 30
0.0
 10
895.6008365204965
 20
1895.02075171095
 30
0.0
 10
893.9067195415187
 20
1886.394451645344
 30
0.0
 10
893.9312574671989
 20
1873.461689674669
 30
0.0
 10
895.6115987685942
 20
1864.917455245166
 30
0.0
 10
896.8716394996791
 20
1860.65864407378
 30
0.0
  0
SPLINE
  5
13A
330
87
100
AcDbEntity
  8
P-SANR-FIXT
100
AcDbSpline
210
0.0
220
0.0
230
1.0
 70
     8
 71
     3
 72
     9
 73
     5
 74
     0
 42
0.000000001
 43
0.0000000001
 40
0.0
 40
0.0
 40
0.0
 40
0.0
 40
0.5
 40
1.0
 40
1.0
 40
1.0
 40
1.0
 10
914.8696543163531
 20
1841.317410055964
 30
0.0
 10
915.8302834701139
 20
1842.901457327877
 30
0.0
 10
917.2895958431222
 20
1846.097274101269
 30
0.0
 10
917.8250163471039
 20
1849.348535333794
 30
0.0
 10
917.861753631838
 20
1850.98802706484
 30
0.0
  0
SPLINE
  5
13B
330
87
100
AcDbEntity
  8
P-SANR-FIXT
100
AcDbSpline
210
0.0
220
0.0
230
1.0
 70
     8
 71
     3
 72
     9
 73
     5
 74
     0
 42
0.000000001
 43
0.0000000001
 40
0.0
 40
0.0
 40
0.0
 40
0.0
 40
0.5
 40
1.0
 40
1.0
 40
1.0
 40
1.0
 10
917.861753631838
 20
1850.98802706484
 30
0.0
 10
917.8250163471027
 20
1852.627518795897
 30
0.0
 10
917.2895958431139
 20
1855.878780028444
 30
0.0
 10
915.8302834700878
 20
1859.074596801858
 30
0.0
 10
914.8696543163156
 20
1860.65864407378
 30
0.0
  0
LINE
  5
13C
330
87
100
AcDbEntity
  8
P-SANR-FIXT
100
AcDbLine
 10
896.8716394996791
 20
1860.65864407378
 30
0.0
 11
914.8696543163156
 21
1860.65864407378
 31
0.0
  0
SPLINE
  5
13D
330
87
100
AcDbEntity
  8
P-SANR-FIXT
100
AcDbSpline
210
0.0
220
0.0
230
1.0
 70
     8
 71
     3
 72
    10
 73
     6
 74
     0
 42
0.000000001
 43
0.0000000001
 40
0.0
 40
0.0
 40
0.0
 40
0.0
 40
0.3333333333333333
 40
0.6666666666666666
 40
1.0
 40
1.0
 40
1.0
 40
1.0
 10
896.8716394996791
 20
1860.65864407378
 30
0.0
 10
895.6008365204807
 20
1858.498463874549
 30
0.0
 10
893.9067195414962
 20
1854.185313841746
 30
0.0
 10
893.931257467166
 20
1847.718932856409
 30
0.0
 10
895.611598768559
 20
1843.446815641657
 30
0.0
 10
896.8716394996437
 20
1841.317410055964
 30
0.0
  0
LINE
  5
13E
330
87
100
AcDbEntity
  8
P-SANR-FIXT
100
AcDbLine
 10
896.8716394996437
 20
1841.317410055964
 30
0.0
 11
914.8696543163531
 21
1841.317410055964
 31
0.0
  0
SPLINE
  5
13F
330
87
100
AcDbEntity
  8
P-SANR-FIXT
100
AcDbSpline
210
0.0
220
0.0
230
1.0
 70
     8
 71
     3
 72
     9
 73
     5
 74
     0
 42
0.000000001
 43
0.0000000001
 40
0.0
 40
0.0
 40
0.0
 40
0.0
 40
0.5
 40
1.0
 40
1.0
 40
1.0
 40
1.0
 10
914.869654316303
 20
1899.341112109413
 30
0.0
 10
915.8302834700689
 20
1900.925159381335
 30
0.0
 10
917.2895958430908
 20
1904.120976154744
 30
0.0
 10
917.8250163470922
 20
1907.372237387287
 30
0.0
 10
917.861753631838
 20
1909.011729118343
 30
0.0
  0
SPLINE
  5
140
330
87
100
AcDbEntity
  8
P-SANR-FIXT
100
AcDbSpline
210
0.0
220
0.0
230
1.0
 70
     8
 71
     3
 72
     9
 73
     5
 74
     0
 42
0.000000001
 43
0.0000000001
 40
0.0
 40
0.0
 40
0.0
 40
0.0
 40
0.5
 40
1.0
 40
1.0
 40
1.0
 40
1.0
 10
917.861753631838
 20
1909.011729118343
 30
0.0
 10
917.8250163470929
 20
1910.65122084939
 30
0.0
 10
917.2895958430963
 20
1913.902482081918
 30
0.0
 10
915.8302834700862
 20
1917.098298855315
 30
0.0
 10
914.8696543163278
 20
1918.68234612723
 30
0.0
  0
LINE
  5
141
330
87
100
AcDbEntity
  8
P-SANR-FIXT
100
AcDbLine
 10
896.8716394996684
 20
1918.68234612723
 30
0.0
 11
914.8696543163278
 21
1918.68234612723
 31
0.0
  0
SPLINE
  5
142
330
87
100
AcDbEntity
  8
P-SANR-FIXT
100
AcDbSpline
210
0.0
220
0.0
230
1.0
 70
     8
 71
     3
 72
    10
 73
     6
 74
     0
 42
0.000000001
 43
0.0000000001
 40
0.0
 40
0.0
 40
0.0
 40
0.0
 40
0.3333333333333333
 40
0.6666666666666666
 40
1.0
 40
1.0
 40
1.0
 40
1.0
 10
896.8716394996684
 20
1918.68234612723
 30
0.0
 10
895.6115987685841
 20
1916.552940541536
 30
0.0
 10
893.93125746719
 20
1912.280823326785
 30
0.0
 10
893.9067195415148
 20
1905.814442341447
 30
0.0
 10
895.6008365204954
 20
1901.501292308645
 30
0.0
 10
896.8716394996915
 20
1899.341112109413
 30
0.0
  0
LINE
  5
143
330
87
100
AcDbEntity
  8
P-SANR-FIXT
100
AcDbLine
 10
713.4710612545618
 20
1905.349878091585
 30
0.0
 11
710.7664074431706
 21
1905.349878091585
 31
0.0
  0
LINE
  5
144
330
87
100
AcDbEntity
  8
P-SANR-FIXT
100
AcDbLine
 10
710.7664074431706
 20
1854.649878091566
 30
0.0
 11
713.4710612545619
 21
1854.649878091566
 31
0.0
  0
LINE
  5
145
330
87
100
AcDbEntity
  8
P-SANR-FIXT
100
AcDbLine
 10
691.6664074431693
 20
1885.050460473999
 30
0.0
 11
691.6664074431693
 21
1898.975049080355
 31
0.0
  0
LINE
  5
146
330
87
100
AcDbEntity
  8
P-SANR-FIXT
100
AcDbLine
 10
691.6664074431693
 20
1898.975049080355
 30
0.0
 11
691.6664074431694
 21
1903.999878091554
 31
0.0
  0
LINE
  5
147
330
87
100
AcDbEntity
  8
P-SANR-FIXT
100
AcDbLine
 10
691.6664074431694
 20
1855.99987809164
 30
0.0
 11
691.6664074431693
 21
1861.024707102694
 31
0.0
  0
LINE
  5
148
330
87
100
AcDbEntity
  8
P-SANR-FIXT
100
AcDbLine
 10
691.6664074431693
 20
1861.024707102694
 30
0.0
 11
691.6664074431693
 21
1874.949295709233
 31
0.0
  0
LINE
  5
149
330
87
100
AcDbEntity
  8
P-SANR-FIXT
100
AcDbLine
 10
691.6664074431693
 20
1874.949295709233
 30
0.0
 11
691.6664074431693
 21
1885.050460473999
 31
0.0
  0
LINE
  5
14A
330
87
100
AcDbEntity
  8
P-SANR-FIXT
100
AcDbLine
 10
691.6664074431693
 20
1874.949295709233
 30
0.0
 11
710.7664074431689
 21
1874.949295709233
 31
0.0
  0
LINE
  5
14B
330
87
100
AcDbEntity
  8
P-SANR-FIXT
100
AcDbLine
 10
691.6664074431693
 20
1861.024707102694
 30
0.0
 11
710.7664074431689
 21
1861.024707102694
 31
0.0
  0
LINE
  5
14C
330
87
100
AcDbEntity
  8
P-SANR-FIXT
100
AcDbLine
 10
691.6664074431694
 20
1855.99987809164
 30
0.0
 11
710.7664074431692
 21
1855.99987809164
 31
0.0
  0
LINE
  5
14D
330
87
100
AcDbEntity
  8
P-SANR-FIXT
100
AcDbLine
 10
691.6664074431694
 20
1903.999878091554
 30
0.0
 11
710.7664074431692
 21
1903.999878091554
 31
0.0
  0
LINE
  5
14E
330
87
100
AcDbEntity
  8
P-SANR-FIXT
100
AcDbLine
 10
691.6664074431693
 20
1898.975049080355
 30
0.0
 11
710.7664074431689
 21
1898.975049080355
 31
0.0
  0
LINE
  5
14F
330
87
100
AcDbEntity
  8
P-SANR-FIXT
100
AcDbLine
 10
710.7664074431689
 20
1885.050460473999
 30
0.0
 11
691.6664074431693
 21
1885.050460473999
 31
0.0
  0
LWPOLYLINE
  5
150
330
87
100
AcDbEntity
  8
P-SANR-FIXT
100
AcDbPolyline
 90
        3
 70
   128
 43
0.0
 10
710.7664074431689
 20
1905.349878091585
 10
710.7664074431689
 20
1904.991560538201
 10
710.7664074431689
 20
1903.999878091554
  0
LWPOLYLINE
  5
151
330
87
100
AcDbEntity
  8
P-SANR-FIXT
100
AcDbPolyline
 90
        3
 70
   128
 43
0.0
 10
710.7664074431689
 20
1898.975049080355
 10
710.7664074431689
 20
1892.753098583975
 10
710.7664074431689
 20
1885.050460473999
  0
LWPOLYLINE
  5
152
330
87
100
AcDbEntity
  8
P-SANR-FIXT
100
AcDbPolyline
 90
        3
 70
   128
 43
0.0
 10
710.7664074431689
 20
1874.949295709233
 10
710.7664074431689
 20
1867.297347666847
 10
710.7664074431689
 20
1861.024707102694
  0
LWPOLYLINE
  5
153
330
87
100
AcDbEntity
  8
P-SANR-FIXT
100
AcDbPolyline
 90
        3
 70
   128
 43
0.0
 10
710.7664074431692
 20
1855.99987809164
 10
710.7664074431692
 20
1855.006914137996
 10
710.7664074431692
 20
1854.649878091565
  0
LINE
  5
154
330
87
100
AcDbEntity
  8
P-SANR-FIXT
100
AcDbLine
 10
713.471061254562
 20
1846.499878091677
 30
0.0
 11
716.4631605700675
 21
1841.317410055929
 31
0.0
  0
LINE
  5
155
330
87
100
AcDbEntity
  8
P-SANR-FIXT
100
AcDbLine
 10
716.463160570093
 20
1918.682346127267
 30
0.0
 11
713.4710612545618
 21
1913.499878091475
 31
0.0
  0
LINE
  5
156
330
87
100
AcDbEntity
  8
P-SANR-FIXT
100
AcDbLine
 10
737.4710612545619
 20
1913.252368283749
 30
0.0
 11
734.4611753867119
 21
1918.682346127266
 31
0.0
  0
LINE
  5
157
330
87
100
AcDbEntity
  8
P-SANR-FIXT
100
AcDbLine
 10
734.4611753867357
 20
1841.317410055929
 30
0.0
 11
737.4710612545615
 21
1846.747387899404
 31
0.0
  0
LINE
  5
158
330
87
100
AcDbEntity
  8
P-SANR-FIXT
100
AcDbLine
 10
713.4710612545604
 20
1846.499878091676
 30
0.0
 11
713.4710612545603
 21
1850.988027064883
 31
0.0
  0
LINE
  5
159
330
87
100
AcDbEntity
  8
P-SANR-FIXT
100
AcDbLine
 10
713.4710612545603
 20
1850.988027064883
 30
0.0
 11
713.47106125456
 21
1879.999878091575
 31
0.0
  0
LINE
  5
15A
330
87
100
AcDbEntity
  8
P-SANR-FIXT
100
AcDbLine
 10
713.47106125456
 20
1879.999878091575
 30
0.0
 11
713.47106125456
 21
1909.011729118266
 31
0.0
  0
LINE
  5
15B
330
87
100
AcDbEntity
  8
P-SANR-FIXT
100
AcDbLine
 10
713.47106125456
 20
1909.011729118266
 30
0.0
 11
713.4710612545602
 21
1913.499878091474
 31
0.0
  0
LINE
  5
15C
330
87
100
AcDbEntity
  8
P-SANR-FIXT
100
AcDbLine
 10
737.4710612545601
 20
1913.252368283747
 30
0.0
 11
737.4710612545599
 21
1846.747387899403
 31
0.0
  0
SPLINE
  5
15D
330
87
100
AcDbEntity
  8
P-SANR-FIXT
100
AcDbSpline
210
0.0
220
0.0
230
1.0
 70
     8
 71
     3
 72
     9
 73
     5
 74
     0
 42
0.000000001
 43
0.0000000001
 40
0.0
 40
0.0
 40
0.0
 40
0.0
 40
0.5
 40
1.0
 40
1.0
 40
1.0
 40
1.0
 10
716.4631605700948
 20
1899.341112109413
 30
0.0
 10
715.5025314163321
 20
1896.173017565573
 30
0.0
 10
714.0432190433135
 20
1889.781384018759
 30
0.0
 10
713.5077985393088
 20
1883.278861553681
 30
0.0
 10
713.4710612545599
 20
1879.999878091575
 30
0.0
  0
SPLINE
  5
15E
330
87
100
AcDbEntity
  8
P-SANR-FIXT
100
AcDbSpline
210
0.0
220
0.0
230
1.0
 70
     8
 71
     3
 72
     9
 73
     5
 74
     0
 42
0.000000001
 43
0.0000000001
 40
0.0
 40
0.0
 40
0.0
 40
0.0
 40
0.5
 40
1.0
 40
1.0
 40
1.0
 40
1.0
 10
713.4710612545599
 20
1879.999878091575
 30
0.0
 10
713.5077985393085
 20
1876.720894629477
 30
0.0
 10
714.0432190433108
 20
1870.218372164413
 30
0.0
 10
715.5025314163233
 20
1863.826738617614
 30
0.0
 10
716.4631605700821
 20
1860.65864407378
 30
0.0
  0
LINE
  5
15F
330
87
100
AcDbEntity
  8
P-SANR-FIXT
100
AcDbLine
 10
716.4631605700821
 20
1860.65864407378
 30
0.0
 11
734.4611753867178
 21
1860.65864407378
 31
0.0
  0
SPLINE
  5
160
330
87
100
AcDbEntity
  8
P-SANR-FIXT
100
AcDbSpline
210
0.0
220
0.0
230
1.0
 70
     8
 71
     3
 72
    10
 73
     6
 74
     0
 42
0.000000001
 43
0.0000000001
 40
0.0
 40
0.0
 40
0.0
 40
0.0
 40
0.3333333333333333
 40
0.6666666666666666
 40
1.0
 40
1.0
 40
1.0
 40
1.0
 10
734.4611753867178
 20
1860.65864407378
 30
0.0
 10
735.7319783659105
 20
1864.979004472244
 30
0.0
 10
737.4260953448837
 20
1873.60530453785
 30
0.0
 10
737.401557419193
 20
1886.538066508526
 30
0.0
 10
735.7212161177932
 20
1895.082300938028
 30
0.0
 10
734.461175386706
 20
1899.341112109413
 30
0.0
  0
SPLINE
  5
161
330
87
100
AcDbEntity
  8
P-SANR-FIXT
100
AcDbSpline
210
0.0
220
0.0
230
1.0
 70
     8
 71
     3
 72
     9
 73
     5
 74
     0
 42
0.000000001
 43
0.0000000001
 40
0.0
 40
0.0
 40
0.0
 40
0.0
 40
0.5
 40
1.0
 40
1.0
 40
1.0
 40
1.0
 10
716.4631605700821
 20
1860.65864407378
 30
0.0
 10
715.50253141631
 20
1859.074596801858
 30
0.0
 10
714.0432190432843
 20
1855.878780028445
 30
0.0
 10
713.5077985392953
 20
1852.627518795897
 30
0.0
 10
713.47106125456
 20
1850.98802706484
 30
0.0
  0
SPLINE
  5
162
330
87
100
AcDbEntity
  8
P-SANR-FIXT
100
AcDbSpline
210
0.0
220
0.0
230
1.0
 70
     8
 71
     3
 72
     9
 73
     5
 74
     0
 42
0.000000001
 43
0.0000000001
 40
0.0
 40
0.0
 40
0.0
 40
0.0
 40
0.5
 40
1.0
 40
1.0
 40
1.0
 40
1.0
 10
713.47106125456
 20
1850.98802706484
 30
0.0
 10
713.5077985392943
 20
1849.348535333794
 30
0.0
 10
714.0432190432761
 20
1846.097274101269
 30
0.0
 10
715.5025314162846
 20
1842.901457327877
 30
0.0
 10
716.4631605700454
 20
1841.317410055964
 30
0.0
  0
LINE
  5
163
330
87
100
AcDbEntity
  8
P-SANR-FIXT
100
AcDbLine
 10
716.4631605700454
 20
1841.317410055964
 30
0.0
 11
734.4611753867535
 21
1841.317410055964
 31
0.0
  0
SPLINE
  5
164
330
87
100
AcDbEntity
  8
P-SANR-FIXT
100
AcDbSpline
210
0.0
220
0.0
230
1.0
 70
     8
 71
     3
 72
    10
 73
     6
 74
     0
 42
0.000000001
 43
0.0000000001
 40
0.0
 40
0.0
 40
0.0
 40
0.0
 40
0.3333333333333333
 40
0.6666666666666666
 40
1.0
 40
1.0
 40
1.0
 40
1.0
 10
734.4611753867535
 20
1841.317410055964
 30
0.0
 10
735.7212161178381
 20
1843.446815641657
 30
0.0
 10
737.4015574192309
 20
1847.718932856409
 30
0.0
 10
737.426095344901
 20
1854.185313841746
 30
0.0
 10
735.7319783659164
 20
1858.498463874549
 30
0.0
 10
734.4611753867178
 20
1860.65864407378
 30
0.0
  0
LINE
  5
165
330
87
100
AcDbEntity
  8
P-SANR-FIXT
100
AcDbLine
 10
716.4631605700706
 20
1918.68234612723
 30
0.0
 11
734.46117538673
 21
1918.68234612723
 31
0.0
  0
SPLINE
  5
166
330
87
100
AcDbEntity
  8
P-SANR-FIXT
100
AcDbSpline
210
0.0
220
0.0
230
1.0
 70
     8
 71
     3
 72
     9
 73
     5
 74
     0
 42
0.000000001
 43
0.0000000001
 40
0.0
 40
0.0
 40
0.0
 40
0.0
 40
0.5
 40
1.0
 40
1.0
 40
1.0
 40
1.0
 10
716.4631605700706
 20
1918.68234612723
 30
0.0
 10
715.5025314163122
 20
1917.098298855315
 30
0.0
 10
714.043219043302
 20
1913.902482081918
 30
0.0
 10
713.5077985393051
 20
1910.65122084939
 30
0.0
 10
713.47106125456
 20
1909.011729118343
 30
0.0
  0
SPLINE
  5
167
330
87
100
AcDbEntity
  8
P-SANR-FIXT
100
AcDbSpline
210
0.0
220
0.0
230
1.0
 70
     8
 71
     3
 72
     9
 73
     5
 74
     0
 42
0.000000001
 43
0.0000000001
 40
0.0
 40
0.0
 40
0.0
 40
0.0
 40
0.5
 40
1.0
 40
1.0
 40
1.0
 40
1.0
 10
713.47106125456
 20
1909.011729118343
 30
0.0
 10
713.5077985393057
 20
1907.372237387287
 30
0.0
 10
714.0432190433073
 20
1904.120976154745
 30
0.0
 10
715.5025314163288
 20
1900.925159381335
 30
0.0
 10
716.4631605700948
 20
1899.341112109413
 30
0.0
  0
LINE
  5
168
330
87
100
AcDbEntity
  8
P-SANR-FIXT
100
AcDbLine
 10
734.461175386706
 20
1899.341112109413
 30
0.0
 11
716.4631605700948
 21
1899.341112109413
 31
0.0
  0
SPLINE
  5
169
330
87
100
AcDbEntity
  8
P-SANR-FIXT
100
AcDbSpline
210
0.0
220
0.0
230
1.0
 70
     8
 71
     3
 72
    10
 73
     6
 74
     0
 42
0.000000001
 43
0.0000000001
 40
0.0
 40
0.0
 40
0.0
 40
0.0
 40
0.3333333333333333
 40
0.6666666666666666
 40
1.0
 40
1.0
 40
1.0
 40
1.0
 10
734.461175386706
 20
1899.341112109413
 30
0.0
 10
735.7212161177947
 20
1901.470517695106
 30
0.0
 10
737.4015574191973
 20
1905.742634909856
 30
0.0
 10
737.4260953448932
 20
1912.209015895195
 30
0.0
 10
735.731978365922
 20
1916.522165927998
 30
0.0
 10
734.46117538673
 20
1918.68234612723
 30
0.0
  0
LINE
  5
16A
330
87
100
AcDbEntity
  8
P-SANR-FIXT
100
AcDbLine
 10
713.471061254562
 20
2145.349878091586
 30
0.0
 11
710.7664074431709
 21
2145.349878091586
 31
0.0
  0
LINE
  5
16B
330
87
100
AcDbEntity
  8
P-SANR-FIXT
100
AcDbLine
 10
710.7664074431711
 20
2094.649878091566
 30
0.0
 11
713.4710612545624
 21
2094.649878091566
 31
0.0
  0
LINE
  5
16C
330
87
100
AcDbEntity
  8
P-SANR-FIXT
100
AcDbLine
 10
691.6664074431695
 20
2125.050460474
 30
0.0
 11
691.6664074431695
 21
2138.975049080356
 31
0.0
  0
LINE
  5
16D
330
87
100
AcDbEntity
  8
P-SANR-FIXT
100
AcDbLine
 10
691.6664074431695
 20
2138.975049080355
 30
0.0
 11
691.6664074431698
 21
2143.999878091554
 31
0.0
  0
LINE
  5
16E
330
87
100
AcDbEntity
  8
P-SANR-FIXT
100
AcDbLine
 10
691.6664074431698
 20
2095.99987809164
 30
0.0
 11
691.6664074431695
 21
2101.024707102693
 31
0.0
  0
LINE
  5
16F
330
87
100
AcDbEntity
  8
P-SANR-FIXT
100
AcDbLine
 10
691.6664074431695
 20
2101.024707102694
 30
0.0
 11
691.6664074431695
 21
2114.949295709233
 31
0.0
  0
LINE
  5
170
330
87
100
AcDbEntity
  8
P-SANR-FIXT
100
AcDbLine
 10
691.6664074431695
 20
2114.949295709233
 30
0.0
 11
691.6664074431695
 21
2125.050460474
 31
0.0
  0
LINE
  5
171
330
87
100
AcDbEntity
  8
P-SANR-FIXT
100
AcDbLine
 10
691.6664074431695
 20
2114.949295709233
 30
0.0
 11
710.7664074431693
 21
2114.949295709233
 31
0.0
  0
LINE
  5
172
330
87
100
AcDbEntity
  8
P-SANR-FIXT
100
AcDbLine
 10
691.6664074431695
 20
2101.024707102694
 30
0.0
 11
710.7664074431693
 21
2101.024707102694
 31
0.0
  0
LINE
  5
173
330
87
100
AcDbEntity
  8
P-SANR-FIXT
100
AcDbLine
 10
691.6664074431698
 20
2095.99987809164
 30
0.0
 11
710.7664074431694
 21
2095.99987809164
 31
0.0
  0
LINE
  5
174
330
87
100
AcDbEntity
  8
P-SANR-FIXT
100
AcDbLine
 10
691.6664074431698
 20
2143.999878091554
 30
0.0
 11
710.7664074431694
 21
2143.999878091554
 31
0.0
  0
LINE
  5
175
330
87
100
AcDbEntity
  8
P-SANR-FIXT
100
AcDbLine
 10
691.6664074431695
 20
2138.975049080355
 30
0.0
 11
710.7664074431693
 21
2138.975049080355
 31
0.0
  0
LINE
  5
176
330
87
100
AcDbEntity
  8
P-SANR-FIXT
100
AcDbLine
 10
710.7664074431693
 20
2125.050460474
 30
0.0
 11
691.6664074431695
 21
2125.050460474
 31
0.0
  0
LWPOLYLINE
  5
177
330
87
100
AcDbEntity
  8
P-SANR-FIXT
100
AcDbPolyline
 90
        3
 70
   128
 43
0.0
 10
710.7664074431694
 20
2145.349878091585
 10
710.7664074431694
 20
2144.991560538201
 10
710.7664074431694
 20
2143.999878091554
  0
LWPOLYLINE
  5
178
330
87
100
AcDbEntity
  8
P-SANR-FIXT
100
AcDbPolyline
 90
        3
 70
   128
 43
0.0
 10
710.7664074431693
 20
2138.975049080355
 10
710.7664074431693
 20
2132.753098583974
 10
710.7664074431693
 20
2125.050460474
  0
LWPOLYLINE
  5
179
330
87
100
AcDbEntity
  8
P-SANR-FIXT
100
AcDbPolyline
 90
        3
 70
   128
 43
0.0
 10
710.7664074431694
 20
2114.949295709233
 10
710.7664074431694
 20
2107.297347666847
 10
710.7664074431694
 20
2101.024707102694
  0
LWPOLYLINE
  5
17A
330
87
100
AcDbEntity
  8
P-SANR-FIXT
100
AcDbPolyline
 90
        3
 70
   128
 43
0.0
 10
710.7664074431696
 20
2095.99987809164
 10
710.7664074431696
 20
2095.006914137997
 10
710.7664074431696
 20
2094.649878091565
  0
LINE
  5
17B
330
87
100
AcDbEntity
  8
P-SANR-FIXT
100
AcDbLine
 10
713.4710612545624
 20
2086.499878091677
 30
0.0
 11
716.4631605700681
 21
2081.317410055929
 31
0.0
  0
LINE
  5
17C
330
87
100
AcDbEntity
  8
P-SANR-FIXT
100
AcDbLine
 10
716.4631605700935
 20
2158.682346127267
 30
0.0
 11
713.471061254562
 21
2153.499878091475
 31
0.0
  0
LINE
  5
17D
330
87
100
AcDbEntity
  8
P-SANR-FIXT
100
AcDbLine
 10
734.4789619390554
 20
2081.317410055929
 30
0.0
 11
737.471061254562
 21
2086.499878091678
 31
0.0
  0
LINE
  5
17E
330
87
100
AcDbEntity
  8
P-SANR-FIXT
100
AcDbLine
 10
737.4710612545621
 20
2153.499878091475
 30
0.0
 11
734.4789619390305
 21
2158.682346127268
 31
0.0
  0
LINE
  5
17F
330
87
100
AcDbEntity
  8
P-SANR-FIXT
100
AcDbLine
 10
713.4710612545608
 20
2086.499878091676
 30
0.0
 11
713.4710612545607
 21
2090.988027064884
 31
0.0
  0
LINE
  5
180
330
87
100
AcDbEntity
  8
P-SANR-FIXT
100
AcDbLine
 10
713.4710612545607
 20
2090.988027064883
 30
0.0
 11
713.4710612545604
 21
2119.999878091575
 31
0.0
  0
LINE
  5
181
330
87
100
AcDbEntity
  8
P-SANR-FIXT
100
AcDbLine
 10
713.4710612545604
 20
2119.999878091575
 30
0.0
 11
713.4710612545604
 21
2149.011729118266
 31
0.0
  0
LINE
  5
182
330
87
100
AcDbEntity
  8
P-SANR-FIXT
100
AcDbLine
 10
713.4710612545604
 20
2149.011729118265
 30
0.0
 11
713.4710612545606
 21
2153.499878091474
 31
0.0
  0
LINE
  5
183
330
87
100
AcDbEntity
  8
P-SANR-FIXT
100
AcDbLine
 10
737.4710612545605
 20
2153.499878091474
 30
0.0
 11
737.4710612545603
 21
2149.011729118266
 31
0.0
  0
LINE
  5
184
330
87
100
AcDbEntity
  8
P-SANR-FIXT
100
AcDbLine
 10
737.4710612545603
 20
2149.011729118266
 30
0.0
 11
737.4710612545601
 21
2119.999878091575
 31
0.0
  0
LINE
  5
185
330
87
100
AcDbEntity
  8
P-SANR-FIXT
100
AcDbLine
 10
737.4710612545601
 20
2119.999878091575
 30
0.0
 11
737.4710612545601
 21
2090.988027064884
 31
0.0
  0
LINE
  5
186
330
87
100
AcDbEntity
  8
P-SANR-FIXT
100
AcDbLine
 10
737.4710612545601
 20
2090.988027064884
 30
0.0
 11
737.4710612545603
 21
2086.499878091677
 31
0.0
  0
SPLINE
  5
187
330
87
100
AcDbEntity
  8
P-SANR-FIXT
100
AcDbSpline
210
0.0
220
0.0
230
1.0
 70
     8
 71
     3
 72
     9
 73
     5
 74
     0
 42
0.000000001
 43
0.0000000001
 40
0.0
 40
0.0
 40
0.0
 40
0.0
 40
0.5
 40
1.0
 40
1.0
 40
1.0
 40
1.0
 10
716.4631605700951
 20
2139.341112109413
 30
0.0
 10
715.5025314163324
 20
2136.173017565573
 30
0.0
 10
714.0432190433139
 20
2129.781384018759
 30
0.0
 10
713.5077985393092
 20
2123.27886155368
 30
0.0
 10
713.4710612545603
 20
2119.999878091575
 30
0.0
  0
SPLINE
  5
188
330
87
100
AcDbEntity
  8
P-SANR-FIXT
100
AcDbSpline
210
0.0
220
0.0
230
1.0
 70
     8
 71
     3
 72
     9
 73
     5
 74
     0
 42
0.000000001
 43
0.0000000001
 40
0.0
 40
0.0
 40
0.0
 40
0.0
 40
0.5
 40
1.0
 40
1.0
 40
1.0
 40
1.0
 10
713.4710612545603
 20
2119.999878091575
 30
0.0
 10
713.5077985393088
 20
2116.720894629477
 30
0.0
 10
714.0432190433111
 20
2110.218372164414
 30
0.0
 10
715.5025314163237
 20
2103.826738617614
 30
0.0
 10
716.4631605700825
 20
2100.65864407378
 30
0.0
  0
LINE
  5
189
330
87
100
AcDbEntity
  8
P-SANR-FIXT
100
AcDbLine
 10
716.4631605700825
 20
2100.65864407378
 30
0.0
 11
734.4789619390375
 21
2100.65864407378
 31
0.0
  0
SPLINE
  5
18A
330
87
100
AcDbEntity
  8
P-SANR-FIXT
100
AcDbSpline
210
0.0
220
0.0
230
1.0
 70
     8
 71
     3
 72
     9
 73
     5
 74
     0
 42
0.000000001
 43
0.0000000001
 40
0.0
 40
0.0
 40
0.0
 40
0.0
 40
0.5
 40
1.0
 40
1.0
 40
1.0
 40
1.0
 10
734.4789619390375
 20
2100.65864407378
 30
0.0
 10
735.4395910927963
 20
2103.826738617614
 30
0.0
 10
736.8989034658089
 20
2110.218372164414
 30
0.0
 10
737.4343239698114
 20
2116.720894629478
 30
0.0
 10
737.4710612545603
 20
2119.999878091575
 30
0.0
  0
SPLINE
  5
18B
330
87
100
AcDbEntity
  8
P-SANR-FIXT
100
AcDbSpline
210
0.0
220
0.0
230
1.0
 70
     8
 71
     3
 72
     9
 73
     5
 74
     0
 42
0.000000001
 43
0.0000000001
 40
0.0
 40
0.0
 40
0.0
 40
0.0
 40
0.5
 40
1.0
 40
1.0
 40
1.0
 40
1.0
 10
737.4710612545603
 20
2119.999878091575
 30
0.0
 10
737.4343239698112
 20
2123.278861553681
 30
0.0
 10
736.8989034658063
 20
2129.78138401876
 30
0.0
 10
735.4395910927878
 20
2136.173017565573
 30
0.0
 10
734.4789619390253
 20
2139.341112109413
 30
0.0
  0
SPLINE
  5
18C
330
87
100
AcDbEntity
  8
P-SANR-FIXT
100
AcDbSpline
210
0.0
220
0.0
230
1.0
 70
     8
 71
     3
 72
     9
 73
     5
 74
     0
 42
0.000000001
 43
0.0000000001
 40
0.0
 40
0.0
 40
0.0
 40
0.0
 40
0.5
 40
1.0
 40
1.0
 40
1.0
 40
1.0
 10
716.4631605700825
 20
2100.65864407378
 30
0.0
 10
715.5025314163103
 20
2099.074596801858
 30
0.0
 10
714.0432190432846
 20
2095.878780028445
 30
0.0
 10
713.5077985392956
 20
2092.627518795897
 30
0.0
 10
713.4710612545604
 20
2090.98802706484
 30
0.0
  0
SPLINE
  5
18D
330
87
100
AcDbEntity
  8
P-SANR-FIXT
100
AcDbSpline
210
0.0
220
0.0
230
1.0
 70
     8
 71
     3
 72
     9
 73
     5
 74
     0
 42
0.000000001
 43
0.0000000001
 40
0.0
 40
0.0
 40
0.0
 40
0.0
 40
0.5
 40
1.0
 40
1.0
 40
1.0
 40
1.0
 10
713.4710612545604
 20
2090.98802706484
 30
0.0
 10
713.5077985392946
 20
2089.348535333794
 30
0.0
 10
714.0432190432766
 20
2086.097274101269
 30
0.0
 10
715.502531416285
 20
2082.901457327877
 30
0.0
 10
716.4631605700458
 20
2081.317410055964
 30
0.0
  0
LINE
  5
18E
330
87
100
AcDbEntity
  8
P-SANR-FIXT
100
AcDbLine
 10
716.4631605700458
 20
2081.317410055964
 30
0.0
 11
734.4789619390747
 21
2081.317410055964
 31
0.0
  0
SPLINE
  5
18F
330
87
100
AcDbEntity
  8
P-SANR-FIXT
100
AcDbSpline
210
0.0
220
0.0
230
1.0
 70
     8
 71
     3
 72
     9
 73
     5
 74
     0
 42
0.000000001
 43
0.0000000001
 40
0.0
 40
0.0
 40
0.0
 40
0.0
 40
0.5
 40
1.0
 40
1.0
 40
1.0
 40
1.0
 10
734.4789619390747
 20
2081.317410055964
 30
0.0
 10
735.4395910928355
 20
2082.901457327877
 30
0.0
 10
736.8989034658438
 20
2086.097274101269
 30
0.0
 10
737.4343239698259
 20
2089.348535333794
 30
0.0
 10
737.4710612545604
 20
2090.98802706484
 30
0.0
  0
SPLINE
  5
190
330
87
100
AcDbEntity
  8
P-SANR-FIXT
100
AcDbSpline
210
0.0
220
0.0
230
1.0
 70
     8
 71
     3
 72
     9
 73
     5
 74
     0
 42
0.000000001
 43
0.0000000001
 40
0.0
 40
0.0
 40
0.0
 40
0.0
 40
0.5
 40
1.0
 40
1.0
 40
1.0
 40
1.0
 10
737.4710612545604
 20
2090.98802706484
 30
0.0
 10
737.4343239698248
 20
2092.627518795897
 30
0.0
 10
736.8989034658355
 20
2095.878780028445
 30
0.0
 10
735.4395910928095
 20
2099.074596801858
 30
0.0
 10
734.4789619390375
 20
2100.65864407378
 30
0.0
  0
LINE
  5
191
330
87
100
AcDbEntity
  8
P-SANR-FIXT
100
AcDbLine
 10
716.463160570071
 20
2158.68234612723
 30
0.0
 11
734.4789619390502
 21
2158.68234612723
 31
0.0
  0
SPLINE
  5
192
330
87
100
AcDbEntity
  8
P-SANR-FIXT
100
AcDbSpline
210
0.0
220
0.0
230
1.0
 70
     8
 71
     3
 72
     9
 73
     5
 74
     0
 42
0.000000001
 43
0.0000000001
 40
0.0
 40
0.0
 40
0.0
 40
0.0
 40
0.5
 40
1.0
 40
1.0
 40
1.0
 40
1.0
 10
716.463160570071
 20
2158.68234612723
 30
0.0
 10
715.5025314163125
 20
2157.098298855315
 30
0.0
 10
714.0432190433024
 20
2153.902482081918
 30
0.0
 10
713.5077985393055
 20
2150.65122084939
 30
0.0
 10
713.4710612545604
 20
2149.011729118343
 30
0.0
  0
SPLINE
  5
193
330
87
100
AcDbEntity
  8
P-SANR-FIXT
100
AcDbSpline
210
0.0
220
0.0
230
1.0
 70
     8
 71
     3
 72
     9
 73
     5
 74
     0
 42
0.000000001
 43
0.0000000001
 40
0.0
 40
0.0
 40
0.0
 40
0.0
 40
0.5
 40
1.0
 40
1.0
 40
1.0
 40
1.0
 10
713.4710612545604
 20
2149.011729118343
 30
0.0
 10
713.5077985393061
 20
2147.372237387288
 30
0.0
 10
714.0432190433076
 20
2144.120976154745
 30
0.0
 10
715.5025314163292
 20
2140.925159381335
 30
0.0
 10
716.4631605700951
 20
2139.341112109413
 30
0.0
  0
LINE
  5
194
330
87
100
AcDbEntity
  8
P-SANR-FIXT
100
AcDbLine
 10
734.4789619390253
 20
2139.341112109413
 30
0.0
 11
716.4631605700951
 21
2139.341112109413
 31
0.0
  0
SPLINE
  5
195
330
87
100
AcDbEntity
  8
P-SANR-FIXT
100
AcDbSpline
210
0.0
220
0.0
230
1.0
 70
     8
 71
     3
 72
     9
 73
     5
 74
     0
 42
0.000000001
 43
0.0000000001
 40
0.0
 40
0.0
 40
0.0
 40
0.0
 40
0.5
 40
1.0
 40
1.0
 40
1.0
 40
1.0
 10
734.4789619390253
 20
2139.341112109413
 30
0.0
 10
735.4395910927912
 20
2140.925159381335
 30
0.0
 10
736.8989034658132
 20
2144.120976154745
 30
0.0
 10
737.4343239698147
 20
2147.372237387288
 30
0.0
 10
737.4710612545604
 20
2149.011729118343
 30
0.0
  0
SPLINE
  5
196
330
87
100
AcDbEntity
  8
P-SANR-FIXT
100
AcDbSpline
210
0.0
220
0.0
230
1.0
 70
     8
 71
     3
 72
     9
 73
     5
 74
     0
 42
0.000000001
 43
0.0000000001
 40
0.0
 40
0.0
 40
0.0
 40
0.0
 40
0.5
 40
1.0
 40
1.0
 40
1.0
 40
1.0
 10
737.4710612545604
 20
2149.011729118343
 30
0.0
 10
737.4343239698154
 20
2150.65122084939
 30
0.0
 10
736.8989034658187
 20
2153.902482081919
 30
0.0
 10
735.4395910928085
 20
2157.098298855315
 30
0.0
 10
734.4789619390502
 20
2158.68234612723
 30
0.0
  0
LINE
  5
197
330
87
100
AcDbEntity
  8
P-SANR-FIXT
100
AcDbLine
 10
920.5664074432306
 20
2145.349878091586
 30
0.0
 11
917.8617536318395
 21
2145.349878091586
 31
0.0
  0
LINE
  5
198
330
87
100
AcDbEntity
  8
P-SANR-FIXT
100
AcDbLine
 10
917.8617536318395
 20
2094.649878091566
 30
0.0
 11
920.5664074432306
 21
2094.649878091566
 31
0.0
  0
LINE
  5
199
330
87
100
AcDbEntity
  8
P-SANR-FIXT
100
AcDbLine
 10
939.6664074432285
 20
2125.050460474
 30
0.0
 11
939.6664074432285
 21
2114.949295709233
 31
0.0
  0
LINE
  5
19A
330
87
100
AcDbEntity
  8
P-SANR-FIXT
100
AcDbLine
 10
939.6664074432285
 20
2114.949295709233
 30
0.0
 11
939.6664074432285
 21
2101.024707102694
 31
0.0
  0
LINE
  5
19B
330
87
100
AcDbEntity
  8
P-SANR-FIXT
100
AcDbLine
 10
939.6664074432285
 20
2101.024707102694
 30
0.0
 11
939.6664074432287
 21
2095.99987809164
 31
0.0
  0
LINE
  5
19C
330
87
100
AcDbEntity
  8
P-SANR-FIXT
100
AcDbLine
 10
939.6664074432287
 20
2143.999878091554
 30
0.0
 11
939.6664074432285
 21
2138.975049080356
 31
0.0
  0
LINE
  5
19D
330
87
100
AcDbEntity
  8
P-SANR-FIXT
100
AcDbLine
 10
939.6664074432285
 20
2138.975049080356
 30
0.0
 11
939.6664074432285
 21
2125.050460474
 31
0.0
  0
LINE
  5
19E
330
87
100
AcDbEntity
  8
P-SANR-FIXT
100
AcDbLine
 10
939.6664074432285
 20
2125.050460474
 30
0.0
 11
920.5664074432288
 21
2125.050460474
 31
0.0
  0
LINE
  5
19F
330
87
100
AcDbEntity
  8
P-SANR-FIXT
100
AcDbLine
 10
920.5664074432288
 20
2114.949295709233
 30
0.0
 11
939.6664074432285
 21
2114.949295709233
 31
0.0
  0
LINE
  5
1A0
330
87
100
AcDbEntity
  8
P-SANR-FIXT
100
AcDbLine
 10
920.5664074432288
 20
2101.024707102694
 30
0.0
 11
939.6664074432285
 21
2101.024707102694
 31
0.0
  0
LINE
  5
1A1
330
87
100
AcDbEntity
  8
P-SANR-FIXT
100
AcDbLine
 10
920.566407443229
 20
2095.99987809164
 30
0.0
 11
939.6664074432287
 21
2095.99987809164
 31
0.0
  0
LINE
  5
1A2
330
87
100
AcDbEntity
  8
P-SANR-FIXT
100
AcDbLine
 10
920.566407443229
 20
2143.999878091554
 30
0.0
 11
939.6664074432287
 21
2143.999878091554
 31
0.0
  0
LINE
  5
1A3
330
87
100
AcDbEntity
  8
P-SANR-FIXT
100
AcDbLine
 10
920.5664074432288
 20
2138.975049080356
 30
0.0
 11
939.6664074432285
 21
2138.975049080356
 31
0.0
  0
LINE
  5
1A4
330
87
100
AcDbEntity
  8
P-SANR-FIXT
100
AcDbLine
 10
920.5664074432288
 20
2094.649878091565
 30
0.0
 11
920.5664074432288
 21
2095.976762544632
 31
0.0
  0
LINE
  5
1A5
330
87
100
AcDbEntity
  8
P-SANR-FIXT
100
AcDbLine
 10
920.5664074432288
 20
2100.99879049288
 30
0.0
 11
920.5664074432288
 21
2114.940509842035
 31
0.0
  0
LINE
  5
1A6
330
87
100
AcDbEntity
  8
P-SANR-FIXT
100
AcDbLine
 10
920.5664074432288
 20
2125.059246341199
 30
0.0
 11
920.5664074432288
 21
2139.000965690184
 31
0.0
  0
LINE
  5
1A7
330
87
100
AcDbEntity
  8
P-SANR-FIXT
100
AcDbLine
 10
920.566407443229
 20
2144.022993638586
 30
0.0
 11
920.566407443229
 21
2145.349878091585
 31
0.0
  0
LINE
  5
1A8
330
87
100
AcDbEntity
  8
P-SANR-FIXT
100
AcDbLine
 10
914.8696543163335
 20
2081.317410055929
 30
0.0
 11
917.8617536318395
 21
2086.499878091677
 31
0.0
  0
LINE
  5
1A9
330
87
100
AcDbEntity
  8
P-SANR-FIXT
100
AcDbLine
 10
917.8617536318396
 20
2153.499878091475
 30
0.0
 11
914.869654316308
 21
2158.682346127268
 31
0.0
  0
LINE
  5
1AA
330
87
100
AcDbEntity
  8
P-SANR-FIXT
100
AcDbLine
 10
893.8617536318394
 20
2086.499878091677
 30
0.0
 11
896.8538529473448
 21
2081.317410055929
 31
0.0
  0
LINE
  5
1AB
330
87
100
AcDbEntity
  8
P-SANR-FIXT
100
AcDbLine
 10
896.8538529473709
 20
2158.682346127267
 30
0.0
 11
893.8617536318398
 21
2153.499878091475
 31
0.0
  0
LINE
  5
1AC
330
87
100
AcDbEntity
  8
P-SANR-FIXT
100
AcDbLine
 10
917.8617536318379
 20
2153.499878091473
 30
0.0
 11
917.8617536318375
 21
2149.011729118265
 31
0.0
  0
LINE
  5
1AD
330
87
100
AcDbEntity
  8
P-SANR-FIXT
100
AcDbLine
 10
917.8617536318379
 20
2149.011729118265
 30
0.0
 11
917.8617536318375
 21
2119.999878091575
 31
0.0
  0
LINE
  5
1AE
330
87
100
AcDbEntity
  8
P-SANR-FIXT
100
AcDbLine
 10
917.8617536318375
 20
2119.999878091575
 30
0.0
 11
917.8617536318375
 21
2090.988027064884
 31
0.0
  0
LINE
  5
1AF
330
87
100
AcDbEntity
  8
P-SANR-FIXT
100
AcDbLine
 10
917.8617536318375
 20
2090.988027064884
 30
0.0
 11
917.8617536318375
 21
2086.499878091676
 31
0.0
  0
LINE
  5
1B0
330
87
100
AcDbEntity
  8
P-SANR-FIXT
100
AcDbLine
 10
893.8617536318377
 20
2086.499878091676
 30
0.0
 11
893.8617536318375
 21
2090.988027064884
 31
0.0
  0
LINE
  5
1B1
330
87
100
AcDbEntity
  8
P-SANR-FIXT
100
AcDbLine
 10
893.8617536318375
 20
2090.988027064883
 30
0.0
 11
893.8617536318375
 21
2119.999878091574
 31
0.0
  0
LINE
  5
1B2
330
87
100
AcDbEntity
  8
P-SANR-FIXT
100
AcDbLine
 10
893.8617536318375
 20
2119.999878091574
 30
0.0
 11
893.8617536318378
 21
2149.011729118265
 31
0.0
  0
LINE
  5
1B3
330
87
100
AcDbEntity
  8
P-SANR-FIXT
100
AcDbLine
 10
893.8617536318378
 20
2149.011729118265
 30
0.0
 11
893.8617536318378
 21
2153.499878091474
 31
0.0
  0
SPLINE
  5
1B4
330
87
100
AcDbEntity
  8
P-SANR-FIXT
100
AcDbSpline
210
0.0
220
0.0
230
1.0
 70
     8
 71
     3
 72
     9
 73
     5
 74
     0
 42
0.000000001
 43
0.0000000001
 40
0.0
 40
0.0
 40
0.0
 40
0.0
 40
0.5
 40
1.0
 40
1.0
 40
1.0
 40
1.0
 10
914.8696543163152
 20
2100.65864407378
 30
0.0
 10
915.8302834700741
 20
2103.826738617614
 30
0.0
 10
917.2895958430865
 20
2110.218372164414
 30
0.0
 10
917.825016347089
 20
2116.720894629477
 30
0.0
 10
917.8617536318375
 20
2119.999878091575
 30
0.0
  0
SPLINE
  5
1B5
330
87
100
AcDbEntity
  8
P-SANR-FIXT
100
AcDbSpline
210
0.0
220
0.0
230
1.0
 70
     8
 71
     3
 72
     9
 73
     5
 74
     0
 42
0.000000001
 43
0.0000000001
 40
0.0
 40
0.0
 40
0.0
 40
0.0
 40
0.5
 40
1.0
 40
1.0
 40
1.0
 40
1.0
 10
917.8617536318375
 20
2119.999878091575
 30
0.0
 10
917.8250163470886
 20
2123.27886155368
 30
0.0
 10
917.2895958430839
 20
2129.781384018759
 30
0.0
 10
915.8302834700652
 20
2136.173017565573
 30
0.0
 10
914.8696543163026
 20
2139.341112109413
 30
0.0
  0
LINE
  5
1B6
330
87
100
AcDbEntity
  8
P-SANR-FIXT
100
AcDbLine
 10
914.8696543163026
 20
2139.341112109413
 30
0.0
 11
896.8538529473724
 21
2139.341112109413
 31
0.0
  0
SPLINE
  5
1B7
330
87
100
AcDbEntity
  8
P-SANR-FIXT
100
AcDbSpline
210
0.0
220
0.0
230
1.0
 70
     8
 71
     3
 72
     9
 73
     5
 74
     0
 42
0.000000001
 43
0.0000000001
 40
0.0
 40
0.0
 40
0.0
 40
0.0
 40
0.5
 40
1.0
 40
1.0
 40
1.0
 40
1.0
 10
896.8538529473724
 20
2139.341112109413
 30
0.0
 10
895.8932237936094
 20
2136.173017565573
 30
0.0
 10
894.4339114205909
 20
2129.781384018759
 30
0.0
 10
893.8984909165863
 20
2123.27886155368
 30
0.0
 10
893.8617536318375
 20
2119.999878091575
 30
0.0
  0
SPLINE
  5
1B8
330
87
100
AcDbEntity
  8
P-SANR-FIXT
100
AcDbSpline
210
0.0
220
0.0
230
1.0
 70
     8
 71
     3
 72
     9
 73
     5
 74
     0
 42
0.000000001
 43
0.0000000001
 40
0.0
 40
0.0
 40
0.0
 40
0.0
 40
0.5
 40
1.0
 40
1.0
 40
1.0
 40
1.0
 10
893.8617536318375
 20
2119.999878091575
 30
0.0
 10
893.898490916586
 20
2116.720894629477
 30
0.0
 10
894.4339114205881
 20
2110.218372164414
 30
0.0
 10
895.8932237936007
 20
2103.826738617614
 30
0.0
 10
896.8538529473596
 20
2100.65864407378
 30
0.0
  0
SPLINE
  5
1B9
330
87
100
AcDbEntity
  8
P-SANR-FIXT
100
AcDbSpline
210
0.0
220
0.0
230
1.0
 70
     8
 71
     3
 72
     9
 73
     5
 74
     0
 42
0.000000001
 43
0.0000000001
 40
0.0
 40
0.0
 40
0.0
 40
0.0
 40
0.5
 40
1.0
 40
1.0
 40
1.0
 40
1.0
 10
914.8696543163525
 20
2081.317410055964
 30
0.0
 10
915.8302834701133
 20
2082.901457327877
 30
0.0
 10
917.2895958431217
 20
2086.097274101269
 30
0.0
 10
917.8250163471034
 20
2089.348535333794
 30
0.0
 10
917.8617536318375
 20
2090.98802706484
 30
0.0
  0
SPLINE
  5
1BA
330
87
100
AcDbEntity
  8
P-SANR-FIXT
100
AcDbSpline
210
0.0
220
0.0
230
1.0
 70
     8
 71
     3
 72
     9
 73
     5
 74
     0
 42
0.000000001
 43
0.0000000001
 40
0.0
 40
0.0
 40
0.0
 40
0.0
 40
0.5
 40
1.0
 40
1.0
 40
1.0
 40
1.0
 10
917.8617536318375
 20
2090.98802706484
 30
0.0
 10
917.8250163471023
 20
2092.627518795897
 30
0.0
 10
917.2895958431134
 20
2095.878780028445
 30
0.0
 10
915.8302834700874
 20
2099.074596801858
 30
0.0
 10
914.8696543163152
 20
2100.65864407378
 30
0.0
  0
LINE
  5
1BB
330
87
100
AcDbEntity
  8
P-SANR-FIXT
100
AcDbLine
 10
896.8538529473596
 20
2100.65864407378
 30
0.0
 11
914.8696543163152
 21
2100.65864407378
 31
0.0
  0
SPLINE
  5
1BC
330
87
100
AcDbEntity
  8
P-SANR-FIXT
100
AcDbSpline
210
0.0
220
0.0
230
1.0
 70
     8
 71
     3
 72
     9
 73
     5
 74
     0
 42
0.000000001
 43
0.0000000001
 40
0.0
 40
0.0
 40
0.0
 40
0.0
 40
0.5
 40
1.0
 40
1.0
 40
1.0
 40
1.0
 10
896.8538529473596
 20
2100.65864407378
 30
0.0
 10
895.8932237935872
 20
2099.074596801858
 30
0.0
 10
894.4339114205613
 20
2095.878780028445
 30
0.0
 10
893.8984909165727
 20
2092.627518795897
 30
0.0
 10
893.8617536318377
 20
2090.98802706484
 30
0.0
  0
SPLINE
  5
1BD
330
87
100
AcDbEntity
  8
P-SANR-FIXT
100
AcDbSpline
210
0.0
220
0.0
230
1.0
 70
     8
 71
     3
 72
     9
 73
     5
 74
     0
 42
0.000000001
 43
0.0000000001
 40
0.0
 40
0.0
 40
0.0
 40
0.0
 40
0.5
 40
1.0
 40
1.0
 40
1.0
 40
1.0
 10
893.8617536318377
 20
2090.98802706484
 30
0.0
 10
893.8984909165718
 20
2089.348535333794
 30
0.0
 10
894.4339114205533
 20
2086.097274101269
 30
0.0
 10
895.8932237935616
 20
2082.901457327877
 30
0.0
 10
896.8538529473226
 20
2081.317410055964
 30
0.0
  0
LINE
  5
1BE
330
87
100
AcDbEntity
  8
P-SANR-FIXT
100
AcDbLine
 10
896.8538529473226
 20
2081.317410055964
 30
0.0
 11
914.8696543163525
 21
2081.317410055964
 31
0.0
  0
SPLINE
  5
1BF
330
87
100
AcDbEntity
  8
P-SANR-FIXT
100
AcDbSpline
210
0.0
220
0.0
230
1.0
 70
     8
 71
     3
 72
     9
 73
     5
 74
     0
 42
0.000000001
 43
0.0000000001
 40
0.0
 40
0.0
 40
0.0
 40
0.0
 40
0.5
 40
1.0
 40
1.0
 40
1.0
 40
1.0
 10
914.8696543163026
 20
2139.341112109413
 30
0.0
 10
915.8302834700686
 20
2140.925159381335
 30
0.0
 10
917.2895958430904
 20
2144.120976154745
 30
0.0
 10
917.8250163470918
 20
2147.372237387288
 30
0.0
 10
917.8617536318375
 20
2149.011729118343
 30
0.0
  0
SPLINE
  5
1C0
330
87
100
AcDbEntity
  8
P-SANR-FIXT
100
AcDbSpline
210
0.0
220
0.0
230
1.0
 70
     8
 71
     3
 72
     9
 73
     5
 74
     0
 42
0.000000001
 43
0.0000000001
 40
0.0
 40
0.0
 40
0.0
 40
0.0
 40
0.5
 40
1.0
 40
1.0
 40
1.0
 40
1.0
 10
917.8617536318375
 20
2149.011729118343
 30
0.0
 10
917.8250163470925
 20
2150.65122084939
 30
0.0
 10
917.2895958430959
 20
2153.902482081918
 30
0.0
 10
915.8302834700858
 20
2157.098298855315
 30
0.0
 10
914.8696543163275
 20
2158.68234612723
 30
0.0
  0
LINE
  5
1C1
330
87
100
AcDbEntity
  8
P-SANR-FIXT
100
AcDbLine
 10
896.8538529473482
 20
2158.68234612723
 30
0.0
 11
914.8696543163275
 21
2158.68234612723
 31
0.0
  0
SPLINE
  5
1C2
330
87
100
AcDbEntity
  8
P-SANR-FIXT
100
AcDbSpline
210
0.0
220
0.0
230
1.0
 70
     8
 71
     3
 72
     9
 73
     5
 74
     0
 42
0.000000001
 43
0.0000000001
 40
0.0
 40
0.0
 40
0.0
 40
0.0
 40
0.5
 40
1.0
 40
1.0
 40
1.0
 40
1.0
 10
896.8538529473482
 20
2158.68234612723
 30
0.0
 10
895.8932237935897
 20
2157.098298855315
 30
0.0
 10
894.4339114205796
 20
2153.902482081918
 30
0.0
 10
893.8984909165826
 20
2150.65122084939
 30
0.0
 10
893.8617536318377
 20
2149.011729118343
 30
0.0
  0
SPLINE
  5
1C3
330
87
100
AcDbEntity
  8
P-SANR-FIXT
100
AcDbSpline
210
0.0
220
0.0
230
1.0
 70
     8
 71
     3
 72
     9
 73
     5
 74
     0
 42
0.000000001
 43
0.0000000001
 40
0.0
 40
0.0
 40
0.0
 40
0.0
 40
0.5
 40
1.0
 40
1.0
 40
1.0
 40
1.0
 10
893.8617536318377
 20
2149.011729118343
 30
0.0
 10
893.8984909165833
 20
2147.372237387287
 30
0.0
 10
894.4339114205849
 20
2144.120976154745
 30
0.0
 10
895.8932237936064
 20
2140.925159381335
 30
0.0
 10
896.8538529473724
 20
2139.341112109413
 30
0.0
  0
LINE
  5
1C4
330
87
100
AcDbEntity
  8
P-SANR-FIXT
100
AcDbLine
 10
771.2164074432012
 20
2180.999999999996
 30
0.0
 11
771.2164074432012
 21
2150.999999999996
 31
0.0
  0
LINE
  5
1C5
330
87
100
AcDbEntity
  8
P-SANR-FIXT
100
AcDbLine
 10
860.1164074432007
 20
2150.999999999996
 30
0.0
 11
860.1164074432007
 21
2180.999999999996
 31
0.0
  0
LINE
  5
1C6
330
87
100
AcDbEntity
  8
P-SANR-FIXT
100
AcDbLine
 10
771.2164074432012
 20
2150.999999999996
 30
0.0
 11
771.2164074432012
 21
2141.199878091576
 31
0.0
  0
LINE
  5
1C7
330
87
100
AcDbEntity
  8
P-SANR-FIXT
100
AcDbLine
 10
771.2164074432012
 20
2098.799878091548
 30
0.0
 11
771.2164074432012
 21
1999.999999999996
 31
0.0
  0
LINE
  5
1C8
330
87
100
AcDbEntity
  8
P-SANR-FIXT
100
AcDbLine
 10
860.1164074432007
 20
1999.999999999996
 30
0.0
 11
860.1164074432007
 21
2098.799878091548
 31
0.0
  0
LINE
  5
1C9
330
87
100
AcDbEntity
  8
P-SANR-FIXT
100
AcDbLine
 10
860.1164074432007
 20
2141.199878091576
 30
0.0
 11
860.1164074432007
 21
2150.999999999996
 31
0.0
  0
LINE
  5
1CA
330
87
100
AcDbEntity
  8
P-SANR-FIXT
100
AcDbLine
 10
771.2164074432002
 20
1999.999999999996
 30
0.0
 11
771.2164074432002
 21
1901.200121908415
 31
0.0
  0
LINE
  5
1CB
330
87
100
AcDbEntity
  8
P-SANR-FIXT
100
AcDbLine
 10
771.2164074432002
 20
1858.799634274737
 30
0.0
 11
771.2164074432002
 21
1848.999999999996
 31
0.0
  0
LINE
  5
1CC
330
87
100
AcDbEntity
  8
P-SANR-FIXT
100
AcDbLine
 10
860.1164074432016
 20
1848.999999999996
 30
0.0
 11
860.1164074432016
 21
1858.799634274737
 31
0.0
  0
LINE
  5
1CD
330
87
100
AcDbEntity
  8
P-SANR-FIXT
100
AcDbLine
 10
860.1164074432016
 20
1901.200121908415
 30
0.0
 11
860.1164074432016
 21
1999.999999999996
 31
0.0
  0
LINE
  5
1CE
330
87
100
AcDbEntity
  8
P-SANR-FIXT
100
AcDbLine
 10
771.2164074432002
 20
1848.999999999996
 30
0.0
 11
771.2164074432002
 21
1813.999878091576
 31
0.0
  0
LINE
  5
1CF
330
87
100
AcDbEntity
  8
P-SANR-FIXT
100
AcDbLine
 10
860.1164074432016
 20
1813.999878091576
 30
0.0
 11
860.1164074432016
 21
1848.999999999996
 31
0.0
  0
LINE
  5
1D0
330
87
100
AcDbEntity
  8
P-SANR-FIXT
100
AcDbLine
 10
893.8617536318398
 20
2149.999878091562
 30
0.0
 11
885.7786840914268
 21
2149.999878091562
 31
0.0
  0
LINE
  5
1D1
330
87
100
AcDbEntity
  8
P-SANR-FIXT
100
AcDbLine
 10
885.7786840914267
 20
2089.999878091562
 30
0.0
 11
893.8617536318393
 21
2089.999878091562
 31
0.0
  0
LINE
  5
1D2
330
87
100
AcDbEntity
  8
P-SANR-FIXT
100
AcDbLine
 10
885.7786840914267
 20
2141.199878091576
 30
0.0
 11
883.7629215971569
 21
2141.199878091576
 31
0.0
  0
LINE
  5
1D3
330
87
100
AcDbEntity
  8
P-SANR-FIXT
100
AcDbLine
 10
883.7629215971569
 20
2098.799878091547
 30
0.0
 11
885.7786840914267
 21
2098.799878091547
 31
0.0
  0
LINE
  5
1D4
330
87
100
AcDbEntity
  8
P-SANR-FIXT
100
AcDbLine
 10
883.7629215971569
 20
2141.199878091576
 30
0.0
 11
860.1164074432007
 21
2141.199878091576
 31
0.0
  0
LINE
  5
1D5
330
87
100
AcDbEntity
  8
P-SANR-FIXT
100
AcDbLine
 10
860.1164074432006
 20
2098.799878091548
 30
0.0
 11
883.7629215971569
 21
2098.799878091548
 31
0.0
  0
LINE
  5
1D6
330
87
100
AcDbEntity
  8
P-SANR-FIXT
100
AcDbLine
 10
771.2164074432012
 20
2141.199878091576
 30
0.0
 11
747.5698932892449
 21
2141.199878091576
 31
0.0
  0
LINE
  5
1D7
330
87
100
AcDbEntity
  8
P-SANR-FIXT
100
AcDbLine
 10
747.5698932892449
 20
2098.799878091548
 30
0.0
 11
771.2164074432012
 21
2098.799878091548
 31
0.0
  0
LINE
  5
1D8
330
87
100
AcDbEntity
  8
P-SANR-FIXT
100
AcDbLine
 10
747.5698932892449
 20
2141.199878091577
 30
0.0
 11
745.5541307949748
 21
2141.199878091577
 31
0.0
  0
LINE
  5
1D9
330
87
100
AcDbEntity
  8
P-SANR-FIXT
100
AcDbLine
 10
745.5541307949748
 20
2098.799878091548
 30
0.0
 11
747.5698932892449
 21
2098.799878091548
 31
0.0
  0
LINE
  5
1DA
330
87
100
AcDbEntity
  8
P-SANR-FIXT
100
AcDbLine
 10
745.5541307949748
 20
2149.999878091562
 30
0.0
 11
737.4710612545621
 21
2149.999878091562
 31
0.0
  0
LINE
  5
1DB
330
87
100
AcDbEntity
  8
P-SANR-FIXT
100
AcDbLine
 10
737.471061254562
 20
2089.999878091562
 30
0.0
 11
745.5541307949747
 21
2089.999878091562
 31
0.0
  0
LINE
  5
1DC
330
87
100
AcDbEntity
  8
P-SANR-FIXT
100
AcDbLine
 10
893.86175363184
 20
1909.999878091579
 30
0.0
 11
886.0007257670851
 21
1909.999878091579
 31
0.0
  0
LINE
  5
1DD
330
87
100
AcDbEntity
  8
P-SANR-FIXT
100
AcDbLine
 10
886.0007257670849
 20
1849.999878091572
 30
0.0
 11
893.8617536318398
 21
1849.999878091572
 31
0.0
  0
LINE
  5
1DE
330
87
100
AcDbEntity
  8
P-SANR-FIXT
100
AcDbLine
 10
886.0007257670849
 20
1901.200121908415
 30
0.0
 11
860.1164074432016
 21
1901.200121908415
 31
0.0
  0
LINE
  5
1DF
330
87
100
AcDbEntity
  8
P-SANR-FIXT
100
AcDbLine
 10
860.1164074432015
 20
1858.799634274737
 30
0.0
 11
886.0007257670849
 21
1858.799634274737
 31
0.0
  0
LINE
  5
1E0
330
87
100
AcDbEntity
  8
P-SANR-FIXT
100
AcDbLine
 10
771.2164074432002
 20
1901.200121908415
 30
0.0
 11
745.3320891193165
 21
1901.200121908415
 31
0.0
  0
LINE
  5
1E1
330
87
100
AcDbEntity
  8
P-SANR-FIXT
100
AcDbLine
 10
745.3320891193165
 20
1858.799634274737
 30
0.0
 11
771.2164074432
 21
1858.799634274737
 31
0.0
  0
LINE
  5
1E2
330
87
100
AcDbEntity
  8
P-SANR-FIXT
100
AcDbLine
 10
745.3320891193166
 20
1909.999878091578
 30
0.0
 11
737.4710612545619
 21
1909.999878091578
 31
0.0
  0
LINE
  5
1E3
330
87
100
AcDbEntity
  8
P-SANR-FIXT
100
AcDbLine
 10
737.4710612545616
 20
1849.999878091574
 30
0.0
 11
745.3320891193164
 21
1849.999878091574
 31
0.0
  0
LINE
  5
1E4
330
87
100
AcDbEntity
  8
P-SANR-FIXT
100
AcDbLine
 10
771.2164074431995
 20
2180.999999999995
 30
0.0
 11
860.1164074431988
 21
2180.999999999995
 31
0.0
  0
SPLINE
  5
1E5
330
87
100
AcDbEntity
  8
P-SANR-FIXT
100
AcDbSpline
210
0.0
220
0.0
230
1.0
 70
     8
 71
     3
 72
    28
 73
    24
 74
     0
 42
0.000000001
 43
0.0000000001
 40
0.0207979002324069
 40
0.0207979002324069
 40
0.0207979002324069
 40
0.0207979002324069
 40
0.0555555555555556
 40
0.1111111111111111
 40
0.1666666666666666
 40
0.2222222222222222
 40
0.3333333333333333
 40
0.3611111111111111
 40
0.3888888888888888
 40
0.4166666666666666
 40
0.4444444444444445
 40
0.4791666666666666
 40
0.5138888888888889
 40
0.5486111111111111
 40
0.5833333333333333
 40
0.6180555555555555
 40
0.6527777777777777
 40
0.6875
 40
0.7222222222222223
 40
0.7569444444444445
 40
0.7916666666666668
 40
0.861111111111111
 40
0.9792000726782507
 40
0.9792000726782507
 40
0.9792000726782507
 40
0.9792000726782507
 10
771.239965591738
 20
2141.134965394356
 30
0.0
 10
771.2658980279536
 20
2141.075556619946
 30
0.0
 10
771.3875353972235
 20
2140.820894780039
 30
0.0
 10
771.7829447283605
 20
2140.002467496685
 30
0.0
 10
772.4888884541135
 20
2138.402027959264
 30
0.0
 10
773.6437928201592
 20
2135.587859223525
 30
0.0
 10
774.7872931655723
 20
2132.286163709692
 30
0.0
 10
775.5673271421679
 20
2129.052005172002
 30
0.0
 10
775.9241064939391
 20
2127.32242543472
 30
0.0
 10
776.2208638635963
 20
2125.532472232816
 30
0.0
 10
776.4527900513569
 20
2123.588705902029
 30
0.0
 10
776.5850580237817
 20
2121.432645090523
 30
0.0
 10
776.5983691444501
 20
2119.038159402379
 30
0.0
 10
776.4810596406809
 20
2116.69908213474
 30
0.0
 10
776.2284661374255
 20
2114.462805009106
 30
0.0
 10
775.8441611443982
 20
2112.227431743629
 30
0.0
 10
775.3770588506556
 20
2110.107789021894
 30
0.0
 10
774.86417005706
 20
2108.172763567306
 30
0.0
 10
774.2874418785362
 20
2106.333378579146
 30
0.0
 10
773.6991939011852
 20
2104.651831224677
 30
0.0
 10
772.9571613291931
 20
2102.708402614556
 30
0.0
 10
771.817940827207
 20
2100.036368757558
 30
0.0
 10
771.402818982749
 20
2099.200491950276
 30
0.0
 10
771.2731371117952
 20
2098.924266664468
 30
0.0
  0
SPLINE
  5
1E6
330
87
100
AcDbEntity
  8
P-SANR-FIXT
100
AcDbSpline
210
0.0
220
0.0
230
1.0
 70
     8
 71
     3
 72
    28
 73
    24
 74
     0
 42
0.000000001
 43
0.0000000001
 40
0.0207979002324406
 40
0.0207979002324406
 40
0.0207979002324406
 40
0.0207979002324406
 40
0.0555555555555556
 40
0.1111111111111111
 40
0.1666666666666666
 40
0.2222222222222222
 40
0.3333333333333333
 40
0.3611111111111111
 40
0.3888888888888888
 40
0.4166666666666666
 40
0.4444444444444445
 40
0.4791666666666666
 40
0.5138888888888889
 40
0.5486111111111111
 40
0.5833333333333333
 40
0.6180555555555555
 40
0.6527777777777777
 40
0.6875
 40
0.7222222222222223
 40
0.7569444444444445
 40
0.7916666666666668
 40
0.861111111111111
 40
0.9792000726782305
 40
0.9792000726782305
 40
0.9792000726782305
 40
0.9792000726782305
 10
860.0928492946604
 20
2098.864790788766
 30
0.0
 10
860.0669168584447
 20
2098.924199563175
 30
0.0
 10
859.9452794891748
 20
2099.178861403082
 30
0.0
 10
859.5498701580378
 20
2099.997288686436
 30
0.0
 10
858.8439264322845
 20
2101.597728223857
 30
0.0
 10
857.6890220662388
 20
2104.411896959597
 30
0.0
 10
856.5455217208258
 20
2107.71359247343
 30
0.0
 10
855.7654877442303
 20
2110.947751011119
 30
0.0
 10
855.4087083924589
 20
2112.677330748402
 30
0.0
 10
855.1119510228017
 20
2114.467283950306
 30
0.0
 10
854.8800248350412
 20
2116.411050281092
 30
0.0
 10
854.7477568626165
 20
2118.567111092598
 30
0.0
 10
854.734445741948
 20
2120.961596780742
 30
0.0
 10
854.8517552457173
 20
2123.300674048381
 30
0.0
 10
855.1043487489726
 20
2125.536951174016
 30
0.0
 10
855.4886537419999
 20
2127.772324439493
 30
0.0
 10
855.9557560357426
 20
2129.891967161227
 30
0.0
 10
856.4686448293381
 20
2131.826992615816
 30
0.0
 10
857.045373007862
 20
2133.666377603975
 30
0.0
 10
857.6336209852131
 20
2135.347924958444
 30
0.0
 10
858.3756535572049
 20
2137.291353568565
 30
0.0
 10
859.5148740591913
 20
2139.963387425563
 30
0.0
 10
859.9299959036491
 20
2140.799264232845
 30
0.0
 10
860.059677774603
 20
2141.075489518653
 30
0.0
  0
SPLINE
  5
1E7
330
87
100
AcDbEntity
  8
P-SANR-FIXT
100
AcDbSpline
210
0.0
220
0.0
230
1.0
 70
     8
 71
     3
 72
    28
 73
    24
 74
     0
 42
0.000000001
 43
0.0000000001
 40
0.0207978850563782
 40
0.0207978850563782
 40
0.0207978850563782
 40
0.0207978850563782
 40
0.0555555555555556
 40
0.1111111111111111
 40
0.1666666666666666
 40
0.2222222222222222
 40
0.3333333333333333
 40
0.3611111111111111
 40
0.3888888888888888
 40
0.4166666666666666
 40
0.4444444444444445
 40
0.4791666666666666
 40
0.5138888888888889
 40
0.5486111111111111
 40
0.5833333333333333
 40
0.6180555555555555
 40
0.6527777777777777
 40
0.6875
 40
0.7222222222222223
 40
0.7569444444444445
 40
0.7916666666666668
 40
0.861111111111111
 40
0.9792000877287076
 40
0.9792000877287076
 40
0.9792000877287076
 40
0.9792000877287076
 10
771.2399661160187
 20
1901.135208337273
 30
0.0
 10
771.265899160141
 20
1901.075798779942
 30
0.0
 10
771.3875394149951
 20
1900.82113376278
 30
0.0
 10
771.782958201664
 20
1900.002696740312
 30
0.0
 10
772.4889186306037
 20
1898.402238553249
 30
0.0
 10
773.6438503700589
 20
1895.588037422795
 30
0.0
 10
774.7873785392431
 20
1892.286306002833
 30
0.0
 10
775.5674322279427
 20
1889.052110681641
 30
0.0
 10
775.9242208863797
 20
1887.322511225219
 30
0.0
 10
776.2209861243055
 20
1885.532537434066
 30
0.0
 10
776.4529184249894
 20
1883.588748581691
 30
0.0
 10
776.5851897969612
 20
1881.432662249997
 30
0.0
 10
776.5985012657564
 20
1879.038147870053
 30
0.0
 10
776.4811887370186
 20
1876.69904278938
 30
0.0
 10
776.2285886053672
 20
1874.462739727738
 30
0.0
 10
775.8442734133279
 20
1872.227340786431
 30
0.0
 10
775.3771590422569
 20
1870.107673944824
 30
0.0
 10
774.8642575246398
 20
1868.172626617778
 30
0.0
 10
774.2875151853321
 20
1866.333221290645
 30
0.0
 10
773.699252932805
 20
1864.651655394007
 30
0.0
 10
772.9572025527848
 20
1862.708204898762
 30
0.0
 10
771.8179551036404
 20
1860.036139883226
 30
0.0
 10
771.4028233085886
 20
1859.20025300065
 30
0.0
 10
771.2731383918941
 20
1858.924024304623
 30
0.0
  0
SPLINE
  5
1E8
330
87
100
AcDbEntity
  8
P-SANR-FIXT
100
AcDbSpline
210
0.0
220
0.0
230
1.0
 70
     8
 71
     3
 72
    28
 73
    24
 74
     0
 42
0.000000001
 43
0.0000000001
 40
0.0207978850563984
 40
0.0207978850563984
 40
0.0207978850563984
 40
0.0207978850563984
 40
0.0555555555555556
 40
0.1111111111111111
 40
0.1666666666666666
 40
0.2222222222222222
 40
0.3333333333333333
 40
0.3611111111111111
 40
0.3888888888888888
 40
0.4166666666666666
 40
0.4444444444444445
 40
0.4791666666666666
 40
0.5138888888888889
 40
0.5486111111111111
 40
0.5833333333333333
 40
0.6180555555555555
 40
0.6527777777777777
 40
0.6875
 40
0.7222222222222223
 40
0.7569444444444445
 40
0.7916666666666668
 40
0.861111111111111
 40
0.9792000877286874
 40
0.9792000877286874
 40
0.9792000877286874
 40
0.9792000877286874
 10
860.0928487703797
 20
1858.864547845877
 30
0.0
 10
860.0669157262574
 20
1858.923957403208
 30
0.0
 10
859.9452754714032
 20
1859.178622420371
 30
0.0
 10
859.5498566847345
 20
1859.997059442838
 30
0.0
 10
858.8438962557944
 20
1861.597517629902
 30
0.0
 10
857.6889645163392
 20
1864.411718760355
 30
0.0
 10
856.5454363471552
 20
1867.713450180317
 30
0.0
 10
855.7653826584553
 20
1870.947645501509
 30
0.0
 10
855.4085940000184
 20
1872.67724495793
 30
0.0
 10
855.1118287620928
 20
1874.467218749084
 30
0.0
 10
854.8798964614087
 20
1876.411007601459
 30
0.0
 10
854.7476250894369
 20
1878.567093933153
 30
0.0
 10
854.7343136206418
 20
1880.961608313097
 30
0.0
 10
854.8516261493796
 20
1883.30071339377
 30
0.0
 10
855.1042262810309
 20
1885.537016455413
 30
0.0
 10
855.4885414730703
 20
1887.772415396719
 30
0.0
 10
855.9556558441412
 20
1889.892082238326
 30
0.0
 10
856.4685573617582
 20
1891.827129565372
 30
0.0
 10
857.0452997010661
 20
1893.666534892505
 30
0.0
 10
857.633561953593
 20
1895.348100789144
 30
0.0
 10
858.3756123336135
 20
1897.291551284388
 30
0.0
 10
859.5148597827581
 20
1899.963616299923
 30
0.0
 10
859.9299915778097
 20
1900.7995031825
 30
0.0
 10
860.0596764945041
 20
1901.075731878527
 30
0.0
  0
LINE
  5
1E9
330
87
100
AcDbEntity
  8
P-SANR-FIXT
100
AcDbLine
 10
771.2164074431986
 20
1813.999878091575
 30
0.0
 11
860.1164074431999
 21
1813.999878091575
 31
0.0
  0
LINE
  5
1EA
330
87
100
AcDbEntity
  8
P-SANR-FIXT
100
AcDbLine
 10
885.7786840914251
 20
2149.999878091561
 30
0.0
 11
885.7786840914247
 21
2089.99987809156
 31
0.0
  0
LINE
  5
1EB
330
87
100
AcDbEntity
  8
P-SANR-FIXT
100
AcDbLine
 10
745.5541307949732
 20
2149.999878091561
 30
0.0
 11
745.5541307949731
 21
2089.99987809156
 31
0.0
  0
LINE
  5
1EC
330
87
100
AcDbEntity
  8
P-SANR-FIXT
100
AcDbLine
 10
886.0007257670833
 20
1909.999878091578
 30
0.0
 11
886.0007257670831
 21
1849.999878091572
 31
0.0
  0
LINE
  5
1ED
330
87
100
AcDbEntity
  8
P-SANR-FIXT
100
AcDbLine
 10
745.332089119315
 20
1909.999878091577
 30
0.0
 11
745.3320891193148
 21
1849.999878091573
 31
0.0
  0
ENDBLK
  5
1EF
330
87
100
AcDbEntity
  8
0
100
AcDbBlockEnd
  0
BLOCK
  5
2B3
330
1F1
100
AcDbEntity
  8
0
100
AcDbBlockBegin
  2
Automatic flow rate regulator valve_Caleffi_121 DN15 - 1_2__-V1-Est - Idraulica
 70
     0
 10
0.0
 20
0.0
 30
0.0
  3
Automatic flow rate regulator valve_Caleffi_121 DN15 - 1_2__-V1-Est - Idraulica
  1

  0
LWPOLYLINE
  5
1F2
330
1F1
100
AcDbEntity
  8
P-SANR-FIXT
100
AcDbPolyline
 90
       79
 70
   128
 43
0.0
 10
874.5208015117173
 20
1476.963938736784
 10
874.4450095323541
 20
1479.316912398125
 10
874.2751843284152
 20
1481.664973060717
 10
874.0115975839986
 20
1484.004364328391
 10
873.6546709816664
 20
1486.331343674163
 10
873.2049755278428
 20
1488.642188427476
 10
872.6632306393238
 20
1490.933201729677
 10
872.0303029923648
 20
1493.200718448208
 10
871.3072051361834
 20
1495.441111040029
 10
870.495093873097
 20
1497.650795354919
 10
869.5952684078854
 20
1499.826236369348
 10
868.6091682693403
 20
1501.963953841762
 10
867.5383710073267
 20
1504.060527880227
 10
866.3845896690395
 20
1506.112604413528
 10
865.1496700584923
 20
1508.116900556962
 10
863.8355877836273
 20
1510.070209864263
 10
862.4444450957616
 20
1511.969407457222
 10
860.9784675264341
 20
1513.81145502483
 10
859.4400003270306
 20
1515.593405683928
 10
857.8315047168812
 20
1517.312408693592
 10
856.1555539458353
 20
1518.965714015706
 10
854.4148291776091
 20
1520.550676714443
 10
852.612115200497
 20
1522.06476118759
 10
850.7502959723037
 20
1523.505545222979
 10
848.8323500066275
 20
1524.870723873504
 10
846.861345607874
 20
1526.158113144547
 10
844.840435962622
 20
1527.365653487901
 10
842.7728540951994
 20
1528.491413096614
 10
840.6619076955342
 20
1529.533590995459
 10
838.5109738275541
 20
1530.490519922119
 10
836.3234935266067
 20
1531.360668994445
 10
834.1029662945359
 20
1532.142646159542
 10
831.8529445012254
 20
1532.83520042076
 10
829.5770277015662
 20
1533.437223839017
 10
827.2788568769342
 20
1533.94775330527
 10
824.9621086103987
 20
1534.365972081279
 10
822.6304892049729
 20
1534.691211106218
 10
820.2877287543195
 20
1534.922950067028
 10
817.9375751753978
 20
1535.060818230807
 10
815.5837882125947
 20
1535.104595037902
 10
813.2301334229358
 20
1535.054210454761
 10
810.8803761519988
 20
1534.909745085968
 10
808.5382755101621
 20
1534.671430045297
 10
806.2075783588312
 20
1534.339646585975
 10
803.8920133162593
 20
1533.914925490759
 10
801.5952847925539
 20
1533.3979462228
 10
799.3210670634101
 20
1532.789535838644
 10
797.0729983920538
 20
1532.090667665117
 10
794.8546752087971
 20
1531.302459742214
 10
792.6696463575161
 20
1530.426173034468
 10
790.5214074182578
 20
1529.463209413682
 10
788.4133951150592
 20
1528.415109416227
 10
786.3489818179195
 20
1527.283549778517
 10
784.3314701477297
 20
1526.070340754585
 10
782.3640876927825
 20
1524.777423220066
 10
780.4499818453201
 20
1523.406865567206
 10
778.5922147663774
 20
1521.960860395881
 10
776.7937584869785
 20
1520.4417210059
 10
775.0574901535198
 20
1518.851877696221
 10
773.3861874249512
 20
1517.193873876991
 10
771.7825240291126
 20
1515.470362000632
 10
770.2490654853404
 20
1513.684099318485
 10
768.7882650001848
 20
1511.837943469789
 10
767.4024595428009
 20
1509.93484791008
 10
766.0938661062978
 20
1507.977857186278
 10
764.8645781610223
 20
1505.970102066075
 10
763.7165623054528
 20
1503.914794529364
 10
762.651655120061
 20
1501.81522262976
 10
761.6715602291758
 20
1499.674745234421
 10
760.7778455755465
 20
1497.496786650565
 10
759.97194091197
 20
1495.284831147322
 10
759.255135513991
 20
1493.042417381637
 10
758.6285761173359
 20
1490.773132737181
 10
758.0932650833804
 20
1488.480607585296
 10
757.6500587955851
 20
1486.168509477178
 10
757.2996662894652
 20
1483.84053727658
 10
757.0426481182839
 20
1481.500415242415
 10
756.8794154562875
 20
1479.151887070738
 10
756.8120133746837
 20
1476.963938736785
  0
LWPOLYLINE
  5
1F3
330
1F1
100
AcDbEntity
  8
P-SANR-FIXT
100
AcDbPolyline
 90
       80
 70
   128
 43
0.0
 10
892.4743296953733
 20
1476.964039711873
 10
892.3841727704777
 20
1480.03496293081
 10
892.1712837866422
 20
1483.099824423321
 10
891.8360033208271
 20
1486.153721064821
 10
891.378867750255
 20
1489.191767272144
 10
890.8006083943215
 20
1492.209102819443
 10
890.1021503446413
 20
1495.200900613505
 10
889.2846109850967
 20
1498.162374416075
 10
888.3492982042644
 20
1501.088786500817
 10
887.2977083030706
 20
1503.975455232665
 10
886.1315236010304
 20
1506.817762557435
 10
884.8526097448941
 20
1509.611161389736
 10
883.463012724011
 20
1512.351182887328
 10
881.964955597183
 20
1515.033443600322
 10
880.3608349362448
 20
1517.653652483764
 10
878.6532169920594
 20
1520.207617762387
 10
876.8448335890651
 20
1522.691253636563
 10
874.9385777549393
 20
1525.100586818706
 10
872.9374990923698
 20
1527.431762889689
 10
870.8447989003429
 20
1529.68105246509
 10
868.6638250527471
 20
1531.84485716141
 10
866.3980666424887
 20
1533.919715352723
 10
864.0511483996879
 20
1535.902307708536
 10
861.6268248928847
 20
1537.789462504009
 10
859.128974522528
 20
1539.578160694041
 10
856.5615933163641
 20
1541.265540743097
 10
853.9287885366443
 20
1542.848903203054
 10
851.2347721093812
 20
1544.325715031741
 10
848.483853886165
 20
1545.69361364527
 10
845.6804347493219
 20
1546.950410697661
 10
842.8289995714401
 20
1548.094095581733
 10
839.9341100405305
 20
1549.122838645644
 10
837.0003973622988
 20
1550.034994119946
 10
834.0325548512051
 20
1550.829102750462
 10
831.035330422161
 20
1551.503894132785
 10
828.0135189948792
 20
1552.058288744651
 10
824.9719548230251
 20
1552.491399672945
 10
821.9155037604403
 20
1552.802534032573
 10
818.8490554768177
 20
1552.991194074933
 10
815.77751563527
 20
1553.057077984203
 10
812.7057980443167
 20
1553.00008036018
 10
809.6388167968388
 20
1552.820292386907
 10
806.5814784085775
 20
1552.518001686785
 10
803.5386739687568
 20
1552.093691860452
 10
800.5152713153833
 20
1551.548041713113
 10
797.5161072477444
 20
1550.881924168607
 10
794.5459797885608
 20
1550.096404872906
 10
791.6096405081735
 20
1549.192740489315
 10
788.7117869230459
 20
1548.172376688076
 10
785.857054980738
 20
1547.036945833606
 10
783.0500116433807
 20
1545.788264373059
 10
780.2951475815096
 20
1544.428329930401
 10
777.5968699899513
 20
1542.959318110636
 10
774.9594955372495
 20
1541.383579019304
 10
772.3872434599194
 20
1539.703633502811
 10
769.8842288125668
 20
1537.922169115613
 10
767.4544558846791
 20
1536.042035820705
 10
765.1018117946173
 20
1534.066241430286
 10
762.8300602710547
 20
1531.997946793899
 10
760.6428356318149
 20
1529.84046074175
 10
758.5436369697372
 20
1527.597234791283
 10
756.5358225548756
 20
1525.27185762549
 10
754.6226044619837
 20
1522.868049351783
 10
752.8070434318781
 20
1520.389655550612
 10
751.0920439749082
 20
1517.840641123366
 10
749.4803497243582
 20
1515.225083949367
 10
747.974539047219
 20
1512.547168362137
 10
746.5770209193514
 20
1509.811178455358
 10
745.290031071639
 20
1507.021491229234
 10
744.115628413295
 20
1504.182569588224
 10
743.0556917380465
 20
1501.298955201352
 10
742.1119167184667
 20
1498.375261236496
 10
741.2858131932583
 20
1495.416164980313
 10
740.578702751836
 20
1492.426400355573
 10
739.991716620064
 20
1489.410750347893
 10
739.5257938505358
 20
1486.37403935398
 10
739.1816798202913
 20
1483.321125463628
 10
738.9599250383719
 20
1480.256892687808
 10
738.8608842651231
 20
1477.186243145292
 10
738.8584851910277
 20
1476.964039711874
  0
LINE
  5
1F4
330
1F1
100
AcDbEntity
  8
P-SANR-FIXT
100
AcDbLine
 10
775.6728576155421
 20
1476.964190767195
 30
0.0
 11
822.2292516033235
 21
1476.964190767195
 31
0.0
  0
LINE
  5
1F5
330
1F1
100
AcDbEntity
  8
P-SANR-FIXT
100
AcDbLine
 10
833.1035632830744
 20
1476.964190767195
 30
0.0
 11
855.6599572708561
 21
1476.964190767194
 31
0.0
  0
ARC
  5
1F6
330
1F1
100
AcDbEntity
  8
P-SANR-FIXT
100
AcDbCircle
 10
815.6664074431992
 20
1476.245878730049
 30
0.0
 40
39.99999999999993
100
AcDbArc
 50
1.028961511300733
 51
178.9710384886973
  0
SPLINE
  5
1F7
330
1F1
100
AcDbEntity
  8
P-SANR-FIXT
100
AcDbSpline
210
0.0
220
0.0
230
1.0
 70
    24
 71
     3
 72
    13
 73
     9
 74
     0
 42
0.000000001
 43
0.0000000001
 40
-1.0
 40
-1.0
 40
-1.0
 40
-1.0
 40
-0.75
 40
-0.625
 40
-0.5
 40
-0.375
 40
-0.25
 40
-0.1196388794201634
 40
-0.1196388794201634
 40
-0.1196388794201634
 40
-0.1196388794201634
 10
855.6599572708561
 20
1476.964190767194
 30
0.0
 10
859.1875721903555
 20
1476.964190767194
 30
0.0
 10
863.7453937726222
 20
1476.964190767194
 30
0.0
 10
868.4346350655332
 20
1476.964190767194
 30
0.0
 10
871.1964809775018
 20
1476.964190767194
 30
0.0
 10
873.1552630472519
 20
1476.964190767194
 30
0.0
 10
874.3370645685516
 20
1476.964190767194
 30
0.0
 10
874.5512751098253
 20
1476.964190767194
 30
0.0
 10
874.5117632182131
 20
1476.964190767194
 30
0.0
  0
SPLINE
  5
1F8
330
1F1
100
AcDbEntity
  8
P-SANR-FIXT
100
AcDbSpline
210
0.0
220
0.0
230
1.0
 70
    24
 71
     3
 72
    13
 73
     9
 74
     0
 42
0.000000001
 43
0.0000000001
 40
-0.872877972211471
 40
-0.872877972211471
 40
-0.872877972211471
 40
-0.872877972211471
 40
-0.75
 40
-0.625
 40
-0.5
 40
-0.375
 40
-0.25
 40
0.0
 40
0.0
 40
0.0
 40
0.0
 10
756.8157193280858
 20
1476.964190767195
 30
0.0
 10
756.7945916928257
 20
1476.964190767195
 30
0.0
 10
757.019000843853
 20
1476.964190767195
 30
0.0
 10
758.1775518391465
 20
1476.964190767195
 30
0.0
 10
760.1363339088966
 20
1476.964190767195
 30
0.0
 10
762.8981798208651
 20
1476.964190767195
 30
0.0
 10
767.587421113776
 20
1476.964190767195
 30
0.0
 10
772.1452426960427
 20
1476.964190767195
 30
0.0
 10
775.6728576155421
 20
1476.964190767195
 30
0.0
  0
SPLINE
  5
1F9
330
1F1
100
AcDbEntity
  8
P-SANR-FIXT
100
AcDbSpline
210
0.0
220
0.0
230
1.0
 70
    24
 71
     3
 72
    13
 73
     9
 74
     0
 42
0.000000001
 43
0.0000000001
 40
-0.9869479843244858
 40
-0.9869479843244858
 40
-0.9869479843244858
 40
-0.9869479843244858
 40
-0.75
 40
-0.625
 40
-0.5
 40
-0.375
 40
-0.25
 40
-0.0713950119137029
 40
-0.0713950119137029
 40
-0.0713950119137029
 40
-0.0713950119137029
 10
874.5176469798394
 20
1476.964190767194
 30
0.0
 10
877.4587994159677
 20
1476.964190767194
 30
0.0
 10
881.4184241818454
 20
1476.964190767194
 30
0.0
 10
885.7386736183533
 20
1476.964190767194
 30
0.0
 10
888.456181235138
 20
1476.964190767194
 30
0.0
 10
890.4830705175671
 20
1476.964190767194
 30
0.0
 10
892.1154522833555
 20
1476.964190767194
 30
0.0
 10
892.3161530266664
 20
1476.964190767194
 30
0.0
 10
892.3472393408612
 20
1476.964190767194
 30
0.0
  0
SPLINE
  5
1FA
330
1F1
100
AcDbEntity
  8
P-SANR-FIXT
100
AcDbSpline
210
0.0
220
0.0
230
1.0
 70
    24
 71
     3
 72
    13
 73
     9
 74
     0
 42
0.000000001
 43
0.0000000001
 40
-0.9286049880862282
 40
-0.9286049880862282
 40
-0.9286049880862282
 40
-0.9286049880862282
 40
-0.75
 40
-0.625
 40
-0.5
 40
-0.375
 40
-0.25
 40
-0.0130520156755142
 40
-0.0130520156755142
 40
-0.0130520156755142
 40
-0.0130520156755142
 10
738.8616028349453
 20
1476.964190767195
 30
0.0
 10
738.8620946013773
 20
1476.964190767195
 30
0.0
 10
739.2667713027432
 20
1476.964190767195
 30
0.0
 10
740.8386490643419
 20
1476.964190767195
 30
0.0
 10
742.8791733152897
 20
1476.964190767195
 30
0.0
 10
745.5950779164162
 20
1476.964190767195
 30
0.0
 10
749.9059482076923
 20
1476.964190767195
 30
0.0
 10
753.9113079986956
 20
1476.964190767195
 30
0.0
 10
756.820951099521
 20
1476.964190767195
 30
0.0
  0
LINE
  5
1FB
330
1F1
100
AcDbEntity
  8
P-SANR-FIXT
100
AcDbLine
 10
789.9461448747932
 20
1466.572067720726
 30
0.0
 11
789.9461448747932
 21
1466.305371568108
 31
0.0
  0
ARC
  5
1FC
330
1F1
100
AcDbEntity
  8
P-SANR-FIXT
100
AcDbCircle
 10
815.6664074431992
 20
1476.275616161643
 30
0.0
 40
27.58509894567456
100
AcDbArc
 50
201.1884047233252
 51
203.8115952766727
  0
LINE
  5
1FD
330
1F1
100
AcDbEntity
  8
P-SANR-FIXT
100
AcDbLine
 10
790.4294078050035
 20
1465.138671647802
 30
0.0
 11
790.6135833006326
 21
1464.954496152173
 31
0.0
  0
LINE
  5
1FE
330
1F1
100
AcDbEntity
  8
P-SANR-FIXT
100
AcDbLine
 10
804.375024865323
 20
1451.193054587482
 30
0.0
 11
804.5294629293577
 21
1451.038616523447
 31
0.0
  0
ARC
  5
1FF
330
1F1
100
AcDbEntity
  8
P-SANR-FIXT
100
AcDbCircle
 10
815.6664074431992
 20
1476.275616161643
 30
0.0
 40
27.58509894567473
100
AcDbArc
 50
246.1884047233247
 51
248.8115952766728
  0
LINE
  5
200
330
1F1
100
AcDbEntity
  8
P-SANR-FIXT
100
AcDbLine
 10
805.6961628496638
 20
1450.555353593237
 30
0.0
 11
805.9119895984036
 21
1450.555353593237
 31
0.0
  0
LINE
  5
201
330
1F1
100
AcDbEntity
  8
P-SANR-FIXT
100
AcDbLine
 10
825.4208252879937
 20
1450.555353593237
 30
0.0
 11
825.6366520367336
 21
1450.555353593237
 31
0.0
  0
ARC
  5
202
330
1F1
100
AcDbEntity
  8
P-SANR-FIXT
100
AcDbCircle
 10
815.6664074431992
 20
1476.275616161643
 30
0.0
 40
27.5850989456745
100
AcDbArc
 50
291.1884047233241
 51
293.8115952766733
  0
LINE
  5
203
330
1F1
100
AcDbEntity
  8
P-SANR-FIXT
100
AcDbLine
 10
826.8033519570405
 20
1451.038616523447
 30
0.0
 11
826.9577900210753
 21
1451.193054587482
 31
0.0
  0
LINE
  5
204
330
1F1
100
AcDbEntity
  8
P-SANR-FIXT
100
AcDbLine
 10
840.7192315857656
 20
1464.954496152172
 30
0.0
 11
840.9034070813943
 21
1465.138671647801
 31
0.0
  0
ARC
  5
205
330
1F1
100
AcDbEntity
  8
P-SANR-FIXT
100
AcDbCircle
 10
815.6664074431992
 20
1476.275616161643
 30
0.0
 40
27.5850989456747
100
AcDbArc
 50
336.1884047233235
 51
338.8115952766735
  0
LINE
  5
206
330
1F1
100
AcDbEntity
  8
P-SANR-FIXT
100
AcDbLine
 10
841.3866700116052
 20
1466.305371568108
 30
0.0
 11
841.3866700116052
 21
1466.572067720726
 31
0.0
  0
LINE
  5
207
330
1F1
100
AcDbEntity
  8
P-SANR-FIXT
100
AcDbLine
 10
854.6664074431818
 20
1476.245878730049
 30
0.0
 11
854.6520392866336
 21
1476.964190767195
 31
0.0
  0
LINE
  5
208
330
1F1
100
AcDbEntity
  8
P-SANR-FIXT
100
AcDbLine
 10
776.6741628760414
 20
1476.964190767196
 30
0.0
 11
776.6664074432191
 21
1476.24587873005
 31
0.0
  0
LWPOLYLINE
  5
209
330
1F1
100
AcDbEntity
  8
P-SANR-FIXT
100
AcDbPolyline
 90
       80
 70
   128
 43
0.0
 10
776.6664074432191
 20
1476.245878730049
 10
776.697603283441
 20
1474.686294696771
 10
776.7911408974169
 20
1473.129205665253
 10
776.9468706449182
 20
1471.577102645783
 10
777.1645433915694
 20
1470.032468672096
 10
777.4438109074103
 20
1468.497774829045
 10
777.7842264239897
 20
1466.975476299395
 10
778.1852453490986
 20
1465.468008436054
 10
778.6462261380031
 20
1463.977782866026
 10
779.1664313197786
 20
1462.507183632327
 10
779.7450286771052
 20
1461.058563380019
 10
780.3810925776387
 20
1459.634239592483
 10
781.0736054548249
 20
1458.23649088394
 10
781.8214594357884
 20
1456.867553354152
 10
782.6234581136932
 20
1455.529617011144
 10
783.4783184617385
 20
1454.224822267653
 10
784.3846728857281
 20
1452.955256516927
 10
785.341071411929
 20
1451.72295079334
 10
786.3459840067197
 20
1450.529876523173
 10
787.3978030243188
 20
1449.37794237075
 10
788.494845778674
 20
1448.268991184981
 10
789.635357235402
 20
1447.204797051199
 10
790.8175128194678
 20
1446.187062453003
 10
792.0394213341169
 20
1445.217415548645
 10
793.2991279863854
 20
1444.297407566325
 10
794.5946175143533
 20
1443.428510322556
 10
795.9238174111317
 20
1442.612113867575
 10
797.2846012404334
 20
1441.849524261552
 10
798.674792038417
 20
1441.141961485182
 10
800.0921657963635
 20
1440.490557487967
 10
801.5344550186169
 20
1439.896354377344
 10
802.9993523500943
 20
1439.360302751534
 10
804.4845142675598
 20
1438.883260178787
 10
805.9875648287627
 20
1438.465989825454
 10
807.5060994734393
 20
1438.10915923509
 10
809.0376888700943
 20
1437.813339260517
 10
810.5798828024154
 20
1437.579003150591
 10
812.1302140890943
 20
1437.4065257931
 10
813.6862025307918
 20
1437.29618311502
 10
815.2453588779284
 20
1437.248151641099
 10
816.8051888129504
 20
1437.262508211449
 10
818.3631969407077
 20
1437.33922985862
 10
819.9168907805537
 20
1437.478193844343
 10
821.4637847537812
 20
1437.679177855884
 10
823.0014041600194
 20
1437.9418603617
 10
824.5272891362269
 20
1438.265821125817
 10
826.0389985919458
 20
1438.650541880122
 10
827.5341141145284
 20
1439.095407153475
 10
829.0102438380793
 20
1439.599705256339
 10
830.4650262699317
 20
1440.162629419328
 10
831.8961340685314
 20
1440.783279083864
 10
833.3012777666878
 20
1441.460661342884
 10
834.6782094342316
 20
1442.193692529272
 10
836.0247262742245
 20
1442.981199949503
 10
837.3386741469643
 20
1443.821923759696
 10
838.6179510161481
 20
1444.7145189811
 10
839.8605103116837
 20
1445.657557651771
 10
841.0643642037626
 20
1446.649531111007
 10
842.227586782967
 20
1447.688852412883
 10
843.3483171413101
 20
1448.773858865026
 10
844.4247623492955
 20
1449.902814688567
 10
845.4552003242195
 20
1451.073913795021
 10
846.4379825851377
 20
1452.285282675638
 10
847.3715368900812
 20
1453.534983398621
 10
848.2543697513101
 20
1454.821016709401
 10
849.0850688245735
 20
1456.141325229022
 10
849.8623051685612
 20
1457.493796745501
 10
850.5848353709241
 20
1458.876267592924
 10
851.2515035374701
 20
1460.286526112848
 10
851.8612431413473
 20
1461.722316192479
 10
852.4130787292609
 20
1463.181340873975
 10
852.9061274819884
 20
1464.661266029088
 10
853.3396006267036
 20
1466.159724093271
 10
853.7128046988447
 20
1467.674317853273
 10
854.0251426515084
 20
1469.202624282177
 10
854.2761148105995
 20
1470.742198415717
 10
854.4653196742009
 20
1472.290577263703
 10
854.5924545548926
 20
1473.845283750284
 10
854.6573160639862
 20
1475.403830676732
 10
854.6664074431818
 20
1476.245878730049
  0
ARC
  5
20A
330
1F1
100
AcDbEntity
  8
P-SANR-FIXT
100
AcDbCircle
 10
815.6664074431992
 20
1476.245878730049
 30
0.0
 40
27.57763675089258
100
AcDbArc
 50
178.5060869785271
 51
179.9999999999998
  0
ARC
  5
20B
330
1F1
100
AcDbEntity
  8
P-SANR-FIXT
100
AcDbCircle
 10
815.6664074431992
 20
1476.245878730049
 30
0.0
 40
27.57763675089243
100
AcDbArc
 50
0.0
 51
1.493913021472245
  0
ARC
  5
20C
330
1F1
100
AcDbEntity
  8
P-SANR-FIXT
100
AcDbCircle
 10
815.6664074431992
 20
1476.245878730049
 30
0.0
 40
27.57763675089246
100
AcDbArc
 50
338.8578272436116
 51
0.0
  0
ARC
  5
20D
330
1F1
100
AcDbEntity
  8
P-SANR-FIXT
100
AcDbCircle
 10
815.6664074431992
 20
1476.245878730049
 30
0.0
 40
27.5776367508924
100
AcDbArc
 50
293.8351158812866
 51
336.2329338394456
  0
ARC
  5
20E
330
1F1
100
AcDbEntity
  8
P-SANR-FIXT
100
AcDbCircle
 10
815.6664074431992
 20
1476.245878730049
 30
0.0
 40
27.57763675089246
100
AcDbArc
 50
248.7919570026488
 51
291.2080429973488
  0
ARC
  5
20F
330
1F1
100
AcDbEntity
  8
P-SANR-FIXT
100
AcDbCircle
 10
815.6664074431992
 20
1476.245878730049
 30
0.0
 40
27.57763675089254
100
AcDbArc
 50
203.7670661605512
 51
246.1648841187124
  0
ARC
  5
210
330
1F1
100
AcDbEntity
  8
P-SANR-FIXT
100
AcDbCircle
 10
815.6664074431992
 20
1476.245878730049
 30
0.0
 40
27.5776367508925
100
AcDbArc
 50
180.0000000000001
 51
201.1421727563876
  0
ARC
  5
211
330
1F1
100
AcDbEntity
  8
P-SANR-FIXT
100
AcDbCircle
 10
827.6664074431987
 20
1476.245878730049
 30
0.0
 40
5.5
100
AcDbArc
 50
0.0
 51
180.0
  0
ARC
  5
212
330
1F1
100
AcDbEntity
  8
P-SANR-FIXT
100
AcDbCircle
 10
827.6664074431987
 20
1476.245878730049
 30
0.0
 40
5.499999999999886
100
AcDbArc
 50
180.0
 51
0.0
  0
ARC
  5
213
330
1F1
100
AcDbEntity
  8
P-SANR-FIXT
100
AcDbCircle
 10
827.6664074431987
 20
1476.245878730049
 30
0.0
 40
7.25
100
AcDbArc
 50
0.0
 51
5.705647113383525
  0
ARC
  5
214
330
1F1
100
AcDbEntity
  8
P-SANR-FIXT
100
AcDbCircle
 10
827.6664074431987
 20
1476.245878730049
 30
0.0
 40
7.249999999999925
100
AcDbArc
 50
174.2943528866148
 51
180.0
  0
ARC
  5
215
330
1F1
100
AcDbEntity
  8
P-SANR-FIXT
100
AcDbCircle
 10
827.6664074431987
 20
1476.245878730049
 30
0.0
 40
7.25
100
AcDbArc
 50
180.0
 51
0.0
  0
LINE
  5
216
330
1F1
100
AcDbEntity
  8
P-SANR-FIXT
100
AcDbLine
 10
843.1664074431811
 20
1476.245878730049
 30
0.0
 11
843.1520392866328
 21
1476.964190767195
 31
0.0
  0
LWPOLYLINE
  5
217
330
1F1
100
AcDbEntity
  8
P-SANR-FIXT
100
AcDbPolyline
 90
        3
 70
   128
 43
0.0
 10
788.1780018101276
 20
1476.964190767195
 10
788.1728180311145
 20
1476.839630562516
 10
788.1664074432198
 20
1476.245878730049
  0
LWPOLYLINE
  5
218
330
1F1
100
AcDbEntity
  8
P-SANR-FIXT
100
AcDbPolyline
 90
       80
 70
   128
 43
0.0
 10
788.1664074432198
 20
1476.245878730049
 10
788.1884045100431
 20
1475.146172039917
 10
788.2543605198979
 20
1474.048224645898
 10
788.3641699572385
 20
1472.953793029606
 10
788.51765715039
 20
1471.86462804816
 10
788.7145765525855
 20
1470.782472133188
 10
788.9546131347885
 20
1469.709056503307
 10
789.237382889673
 20
1468.646098394541
 10
789.5624334459521
 20
1467.595298313112
 10
789.9292447920755
 20
1466.558337314991
 10
790.3372301081393
 20
1465.536874316568
 10
790.7857367046692
 20
1464.532543440742
 10
791.2740470667877
 20
1463.546951402667
 10
791.8013800020823
 20
1462.581674939356
 10
792.3668918903482
 20
1461.638258287235
 10
792.9696780332006
 20
1460.718210711696
 10
793.6087741013984
 20
1459.823004092594
 10
794.2831576775653
 20
1458.954070569553
 10
794.9917498918408
 20
1458.112800250846
 10
795.7334171478398
 20
1457.300538989522
 10
796.506972936167
 20
1456.518586230326
 10
797.3111797325777
 20
1455.768192930865
 10
798.1447509777519
 20
1455.050559560342
 10
799.006353135517
 20
1454.366834179064
 10
799.8946078262193
 20
1453.718110601788
 10
800.8080940318373
 20
1453.105426647848
 10
801.745350369309
 20
1452.529762480874
 10
802.7048774284319
 20
1451.99203904073
 10
803.6851401705995
 20
1451.493116570213
 10
804.684570384536
 20
1451.033793238843
 10
805.7015691950992
 20
1450.614803865968
 10
806.7345096211406
 20
1450.236818745205
 10
807.7817391783275
 20
1449.900442572114
 10
808.8415825227652
 20
1449.606213476815
 10
809.9123441311906
 20
1449.354602163097
 10
810.9923110134474
 20
1449.146011155385
 10
812.0797554529042
 20
1448.980774154797
 10
813.1729377704338
 20
1448.859155505283
 10
814.2701091075283
 20
1448.78134977074
 10
815.3695142240986
 20
1448.747481423744
 10
816.4693943064854
 20
1448.757604646427
 10
817.5679897811859
 20
1448.811703243791
 10
818.6635431297949
 20
1448.909690669621
 10
819.7543017006601
 20
1449.051410164939
 10
820.8385205127511
 20
1449.236635008784
 10
821.9144650472561
 20
1449.465068880918
 10
822.9804140224423
 20
1449.736346335875
 10
824.0346621473401
 20
1450.050033387599
 10
825.0755228498436
 20
1450.405628203721
 10
826.1013309748674
 20
1450.802561908392
 10
827.1104454482388
 20
1451.24019949236
 10
828.1012519020668
 20
1451.717840828848
 10
829.0721652573861
 20
1452.234721793609
 10
830.021632259945
 20
1452.790015487362
 10
830.9481339650815
 20
1453.382833558652
 10
831.8501881677111
 20
1454.012227625026
 10
832.7263517735371
 20
1454.677190790243
 10
833.5752231076956
 20
1455.376659255088
 10
834.3954441571339
 20
1456.109514019232
 10
835.1857027431451
 20
1456.874582671383
 10
835.9447346205707
 20
1457.670641264906
 10
836.6713255003244
 20
1458.496416275866
 10
837.3643129919974
 20
1459.350586640404
 10
838.0225884634318
 20
1460.231785868148
 10
838.6450988142982
 20
1461.138604228314
 10
839.2308481608301
 20
1462.069591004969
 10
839.7788994290264
 20
1463.023256817871
 10
840.2883758537694
 20
1463.998076005156
 10
840.7584623814617
 20
1464.992489064077
 10
841.1884069739395
 20
1466.004905145867
 10
841.5775218115705
 20
1467.033704600768
 10
841.9251843936217
 20
1468.077241569117
 10
842.2308385341262
 20
1469.133846614374
 10
842.4939952516613
 20
1470.201829393863
 10
842.7142335516165
 20
1471.279481362961
 10
842.8912010996935
 20
1472.365078508406
 10
843.0246147855664
 20
1473.456884106345
 10
843.1142611757977
 20
1474.553151500728
 10
843.1599968552864
 20
1475.652126897582
 10
843.1664074431811
 20
1476.245878730049
  0
LINE
  5
219
330
1F1
100
AcDbEntity
  8
P-SANR-FIXT
100
AcDbLine
 10
803.1664074431857
 20
1399.245878730049
 30
0.0
 11
803.1664074431857
 21
1396.24587873002
 31
0.0
  0
LINE
  5
21A
330
1F1
100
AcDbEntity
  8
P-SANR-FIXT
100
AcDbLine
 10
828.1664074431731
 20
1396.24587873002
 30
0.0
 11
828.1664074431731
 21
1399.245878730049
 31
0.0
  0
LINE
  5
21B
330
1F1
100
AcDbEntity
  8
P-SANR-FIXT
100
AcDbLine
 10
828.1664074431718
 20
1396.24587873002
 30
0.0
 11
803.1664074431841
 21
1396.24587873002
 31
0.0
  0
LINE
  5
21C
330
1F1
100
AcDbEntity
  8
P-SANR-FIXT
100
AcDbLine
 10
803.1664074431841
 20
1399.245878730048
 30
0.0
 11
828.1664074431718
 21
1399.245878730048
 31
0.0
  0
LINE
  5
21D
330
1F1
100
AcDbEntity
  8
P-SANR-FIXT
100
AcDbLine
 10
826.0587122885922
 20
1391.945878729987
 30
0.0
 11
820.8625598658855
 21
1391.945878729987
 31
0.0
  0
LINE
  5
21E
330
1F1
100
AcDbEntity
  8
P-SANR-FIXT
100
AcDbLine
 10
820.8625598658855
 20
1391.945878729987
 30
0.0
 11
810.4702550204713
 21
1391.945878729987
 31
0.0
  0
LINE
  5
21F
330
1F1
100
AcDbEntity
  8
P-SANR-FIXT
100
AcDbLine
 10
810.4702550204713
 20
1391.945878729987
 30
0.0
 11
805.2741025977644
 21
1391.945878729987
 31
0.0
  0
LINE
  5
220
330
1F1
100
AcDbEntity
  8
P-SANR-FIXT
100
AcDbLine
 10
805.2741025977644
 20
1391.945878729987
 30
0.0
 11
805.2741025977644
 21
1396.24587873002
 31
0.0
  0
LINE
  5
221
330
1F1
100
AcDbEntity
  8
P-SANR-FIXT
100
AcDbLine
 10
826.0587122885924
 20
1396.24587873002
 30
0.0
 11
826.0587122885922
 21
1391.945878729987
 31
0.0
  0
LINE
  5
222
330
1F1
100
AcDbEntity
  8
P-SANR-FIXT
100
AcDbLine
 10
820.8625598658855
 20
1396.24587873002
 30
0.0
 11
820.8625598658855
 21
1391.945878729987
 31
0.0
  0
LINE
  5
223
330
1F1
100
AcDbEntity
  8
P-SANR-FIXT
100
AcDbLine
 10
810.4702550204715
 20
1396.24587873002
 30
0.0
 11
810.4702550204713
 21
1391.945878729987
 31
0.0
  0
LINE
  5
224
330
1F1
100
AcDbEntity
  8
P-SANR-FIXT
100
AcDbLine
 10
894.0243828032967
 20
1509.79175971393
 30
0.0
 11
893.998950558578
 21
1509.745878729933
 31
0.0
  0
LINE
  5
225
330
1F1
100
AcDbEntity
  8
P-SANR-FIXT
100
AcDbLine
 10
893.9989505586392
 20
1442.745878730052
 30
0.0
 11
894.0243828033644
 21
1442.699997746044
 31
0.0
  0
SPLINE
  5
226
330
1F1
100
AcDbEntity
  8
P-SANR-FIXT
100
AcDbSpline
210
0.0
220
0.0
230
1.0
 70
    24
 71
     3
 72
     8
 73
     4
 74
     0
 42
0.000000001
 43
0.0000000001
 40
0.9134179659591675
 40
0.9134179659591675
 40
0.9134179659591675
 40
0.9134179659591675
 40
0.9307343727771469
 40
0.9307343727771469
 40
0.9307343727771469
 40
0.9307343727771469
 10
917.8218911750304
 20
1442.745878730048
 30
0.0
 10
917.8259338537381
 20
1442.745878730048
 30
0.0
 10
917.829256238021
 20
1442.745878730048
 30
0.0
 10
917.8321242827436
 20
1442.745878730048
 30
0.0
  0
SPLINE
  5
227
330
1F1
100
AcDbEntity
  8
P-SANR-FIXT
100
AcDbSpline
210
0.0
220
0.0
230
1.0
 70
    24
 71
     3
 72
     8
 73
     4
 74
     0
 42
0.000000001
 43
0.0000000001
 40
0.0692656272225756
 40
0.0692656272225756
 40
0.0692656272225756
 40
0.0692656272225756
 40
0.0865820340410865
 40
0.0865820340410865
 40
0.0865820340410865
 40
0.0865820340410865
 10
917.8331881022019
 20
1442.745878730048
 30
0.0
 10
917.8296994961286
 20
1442.745878730048
 30
0.0
 10
917.8262057357667
 20
1442.745878730048
 30
0.0
 10
917.8226740304674
 20
1442.745878730048
 30
0.0
  0
SPLINE
  5
228
330
1F1
100
AcDbEntity
  8
P-SANR-FIXT
100
AcDbSpline
210
0.0
220
0.0
230
1.0
 70
    24
 71
     3
 72
     8
 73
     4
 74
     0
 42
0.000000001
 43
0.0000000001
 40
0.9134179658156055
 40
0.9134179658156055
 40
0.9134179658156055
 40
0.9134179658156055
 40
0.9307343726524843
 40
0.9307343726524843
 40
0.9307343726524843
 40
0.9307343726524843
 10
917.8218911749468
 20
1509.745878729923
 30
0.0
 10
917.8259338536626
 20
1509.745878729923
 30
0.0
 10
917.8292562379516
 20
1509.745878729923
 30
0.0
 10
917.8321242826795
 20
1509.745878729923
 30
0.0
  0
SPLINE
  5
229
330
1F1
100
AcDbEntity
  8
P-SANR-FIXT
100
AcDbSpline
210
0.0
220
0.0
230
1.0
 70
    24
 71
     3
 72
     8
 73
     4
 74
     0
 42
0.000000001
 43
0.0000000001
 40
0.0692656273478485
 40
0.0692656273478485
 40
0.0692656273478485
 40
0.0692656273478485
 40
0.0865820341842099
 40
0.0865820341842099
 40
0.0865820341842099
 40
0.0865820341842099
 10
917.8331881021405
 20
1509.745878729923
 30
0.0
 10
917.8296994960605
 20
1509.745878729923
 30
0.0
 10
917.8262057356921
 20
1509.745878729923
 30
0.0
 10
917.8226740303864
 20
1509.745878729923
 30
0.0
  0
LINE
  5
22A
330
1F1
100
AcDbEntity
  8
P-SANR-FIXT
100
AcDbLine
 10
737.3338643278263
 20
1509.745878729927
 30
0.0
 11
737.3084320831041
 21
1509.79175971393
 31
0.0
  0
LINE
  5
22B
330
1F1
100
AcDbEntity
  8
P-SANR-FIXT
100
AcDbLine
 10
737.3084320830358
 20
1442.699997746044
 30
0.0
 11
737.3338643277658
 21
1442.745878730061
 31
0.0
  0
SPLINE
  5
22C
330
1F1
100
AcDbEntity
  8
P-SANR-FIXT
100
AcDbSpline
210
0.0
220
0.0
230
1.0
 70
    24
 71
     3
 72
     8
 73
     4
 74
     0
 42
0.000000001
 43
0.0000000001
 40
0.9134179659253385
 40
0.9134179659253385
 40
0.9134179659253385
 40
0.9134179659253385
 40
0.9307343727402306
 40
0.9307343727402306
 40
0.9307343727402306
 40
0.9307343727402306
 10
713.5109237113916
 20
1442.745878730049
 30
0.0
 10
713.5068810326834
 20
1442.745878730049
 30
0.0
 10
713.5035586484
 20
1442.745878730049
 30
0.0
 10
713.5006906036768
 20
1442.745878730049
 30
0.0
  0
SPLINE
  5
22D
330
1F1
100
AcDbEntity
  8
P-SANR-FIXT
100
AcDbSpline
210
0.0
220
0.0
230
1.0
 70
    24
 71
     3
 72
     8
 73
     4
 74
     0
 42
0.000000001
 43
0.0000000001
 40
0.0692656272601022
 40
0.0692656272601022
 40
0.0692656272601022
 40
0.0692656272601022
 40
0.0865820340746772
 40
0.0865820340746772
 40
0.0865820340746772
 40
0.0865820340746772
 10
713.4996267842187
 20
1442.745878730049
 30
0.0
 10
713.5031153902924
 20
1442.745878730049
 30
0.0
 10
713.5066091506547
 20
1442.745878730049
 30
0.0
 10
713.5101408559543
 20
1442.745878730049
 30
0.0
  0
SPLINE
  5
22E
330
1F1
100
AcDbEntity
  8
P-SANR-FIXT
100
AcDbSpline
210
0.0
220
0.0
230
1.0
 70
    24
 71
     3
 72
     8
 73
     4
 74
     0
 42
0.000000001
 43
0.0000000001
 40
0.9134179658079798
 40
0.9134179658079798
 40
0.9134179658079798
 40
0.9134179658079798
 40
0.93073437264354
 40
0.93073437264354
 40
0.93073437264354
 40
0.93073437264354
 10
713.510923711457
 20
1509.745878729924
 30
0.0
 10
713.5068810327412
 20
1509.745878729924
 30
0.0
 10
713.5035586484519
 20
1509.745878729924
 30
0.0
 10
713.5006906037244
 20
1509.745878729924
 30
0.0
  0
SPLINE
  5
22F
330
1F1
100
AcDbEntity
  8
P-SANR-FIXT
100
AcDbSpline
210
0.0
220
0.0
230
1.0
 70
    24
 71
     3
 72
     8
 73
     4
 74
     0
 42
0.000000001
 43
0.0000000001
 40
0.069265627356127
 40
0.069265627356127
 40
0.069265627356127
 40
0.069265627356127
 40
0.0865820341920046
 40
0.0865820341920046
 40
0.0865820341920046
 40
0.0865820341920046
 10
713.4996267842634
 20
1509.745878729924
 30
0.0
 10
713.5031153903435
 20
1509.745878729924
 30
0.0
 10
713.5066091507122
 20
1509.745878729924
 30
0.0
 10
713.510140856018
 20
1509.745878729924
 30
0.0
  0
LINE
  5
230
330
1F1
100
AcDbEntity
  8
P-SANR-FIXT
100
AcDbLine
 10
691.6664074431708
 20
1450.940497959024
 30
0.0
 11
710.7664074431705
 21
1450.940497959024
 31
0.0
  0
LINE
  5
231
330
1F1
100
AcDbEntity
  8
P-SANR-FIXT
100
AcDbLine
 10
710.7664074431709
 20
1501.610734364263
 30
0.0
 11
691.666407443171
 21
1501.610734364263
 31
0.0
  0
LINE
  5
232
330
1F1
100
AcDbEntity
  8
P-SANR-FIXT
100
AcDbLine
 10
713.471061254562
 20
1501.59587873006
 30
0.0
 11
710.7664074431708
 21
1501.59587873006
 31
0.0
  0
LINE
  5
233
330
1F1
100
AcDbEntity
  8
P-SANR-FIXT
100
AcDbLine
 10
710.7664074431705
 20
1450.89587873004
 30
0.0
 11
713.4710612545617
 21
1450.89587873004
 31
0.0
  0
LINE
  5
234
330
1F1
100
AcDbEntity
  8
P-SANR-FIXT
100
AcDbLine
 10
691.6664074431695
 20
1451.44902090698
 30
0.0
 11
691.6664074431695
 21
1459.488385887214
 31
0.0
  0
LINE
  5
235
330
1F1
100
AcDbEntity
  8
P-SANR-FIXT
100
AcDbLine
 10
691.6664074431695
 20
1459.488385887213
 30
0.0
 11
691.6664074431698
 21
1468.159692656518
 31
0.0
  0
LINE
  5
236
330
1F1
100
AcDbEntity
  8
P-SANR-FIXT
100
AcDbLine
 10
691.6664074431698
 20
1468.159692656518
 30
0.0
 11
691.6664074431698
 21
1484.391539666769
 31
0.0
  0
LINE
  5
237
330
1F1
100
AcDbEntity
  8
P-SANR-FIXT
100
AcDbLine
 10
691.6664074431698
 20
1484.391539666768
 30
0.0
 11
691.6664074431698
 21
1492.942079980022
 31
0.0
  0
LINE
  5
238
330
1F1
100
AcDbEntity
  8
P-SANR-FIXT
100
AcDbLine
 10
691.6664074431698
 20
1492.942079980022
 30
0.0
 11
691.6664074431698
 21
1501.13376557739
 31
0.0
  0
LINE
  5
239
330
1F1
100
AcDbEntity
  8
P-SANR-FIXT
100
AcDbLine
 10
691.6664074431698
 20
1501.13376557739
 30
0.0
 11
691.6664074431698
 21
1501.610734364262
 31
0.0
  0
LINE
  5
23A
330
1F1
100
AcDbEntity
  8
P-SANR-FIXT
100
AcDbLine
 10
691.6664074431695
 20
1450.940497959024
 30
0.0
 11
691.6664074431695
 21
1451.449020906979
 31
0.0
  0
LINE
  5
23B
330
1F1
100
AcDbEntity
  8
P-SANR-FIXT
100
AcDbLine
 10
691.6664074431698
 20
1501.13376557739
 30
0.0
 11
710.7664074431696
 21
1501.13376557739
 31
0.0
  0
LINE
  5
23C
330
1F1
100
AcDbEntity
  8
P-SANR-FIXT
100
AcDbLine
 10
691.6664074431698
 20
1492.942079980022
 30
0.0
 11
710.7664074431696
 21
1492.942079980022
 31
0.0
  0
LINE
  5
23D
330
1F1
100
AcDbEntity
  8
P-SANR-FIXT
100
AcDbLine
 10
691.6664074431698
 20
1484.391539666768
 30
0.0
 11
710.7664074431694
 21
1484.391539666768
 31
0.0
  0
LINE
  5
23E
330
1F1
100
AcDbEntity
  8
P-SANR-FIXT
100
AcDbLine
 10
691.6664074431698
 20
1468.159692656518
 30
0.0
 11
710.7664074431694
 21
1468.159692656518
 31
0.0
  0
LINE
  5
23F
330
1F1
100
AcDbEntity
  8
P-SANR-FIXT
100
AcDbLine
 10
691.6664074431695
 20
1459.488385887213
 30
0.0
 11
710.7664074431693
 21
1459.488385887213
 31
0.0
  0
LINE
  5
240
330
1F1
100
AcDbEntity
  8
P-SANR-FIXT
100
AcDbLine
 10
710.7664074431693
 20
1451.449020906979
 30
0.0
 11
691.6664074431695
 21
1451.449020906979
 31
0.0
  0
LWPOLYLINE
  5
241
330
1F1
100
AcDbEntity
  8
P-SANR-FIXT
100
AcDbPolyline
 90
        3
 70
   128
 43
0.0
 10
710.7664074431696
 20
1501.13376557739
 10
710.7664074431696
 20
1498.255132025538
 10
710.7664074431696
 20
1492.949358062537
  0
LWPOLYLINE
  5
242
330
1F1
100
AcDbEntity
  8
P-SANR-FIXT
100
AcDbPolyline
 90
        3
 70
   128
 43
0.0
 10
710.7664074431694
 20
1484.391539666769
 10
710.7664074431694
 20
1480.489064343851
 10
710.7664074431694
 20
1476.245878730049
  0
LWPOLYLINE
  5
243
330
1F1
100
AcDbEntity
  8
P-SANR-FIXT
100
AcDbPolyline
 90
        3
 70
   128
 43
0.0
 10
710.7664074431694
 20
1476.245878730049
 10
710.7664074431694
 20
1471.99872574393
 10
710.7664074431694
 20
1468.159692656518
  0
LWPOLYLINE
  5
244
330
1F1
100
AcDbEntity
  8
P-SANR-FIXT
100
AcDbPolyline
 90
        3
 70
   128
 43
0.0
 10
710.7664074431693
 20
1459.488385887214
 10
710.7664074431693
 20
1454.337481548312
 10
710.7664074431693
 20
1451.449020906979
  0
LINE
  5
245
330
1F1
100
AcDbEntity
  8
P-SANR-FIXT
100
AcDbLine
 10
713.4710612545606
 20
1476.245878730049
 30
0.0
 11
713.4710612545607
 21
1492.995878729999
 31
0.0
  0
LINE
  5
246
330
1F1
100
AcDbEntity
  8
P-SANR-FIXT
100
AcDbLine
 10
713.4710612545607
 20
1492.995878729998
 30
0.0
 11
713.4710612545608
 21
1509.745878729948
 31
0.0
  0
LINE
  5
247
330
1F1
100
AcDbEntity
  8
P-SANR-FIXT
100
AcDbLine
 10
713.4710612545606
 20
1442.74587873015
 30
0.0
 11
713.4710612545604
 21
1459.495878730099
 31
0.0
  0
LINE
  5
248
330
1F1
100
AcDbEntity
  8
P-SANR-FIXT
100
AcDbLine
 10
713.4710612545604
 20
1459.495878730099
 30
0.0
 11
713.4710612545606
 21
1476.245878730049
 31
0.0
  0
LINE
  5
249
330
1F1
100
AcDbEntity
  8
P-SANR-FIXT
100
AcDbLine
 10
737.4710612545605
 20
1509.745878729947
 30
0.0
 11
737.4710612545605
 21
1492.995878729998
 31
0.0
  0
LINE
  5
24A
330
1F1
100
AcDbEntity
  8
P-SANR-FIXT
100
AcDbLine
 10
737.4710612545605
 20
1492.995878729998
 30
0.0
 11
737.4710612545605
 21
1476.245878730049
 31
0.0
  0
LINE
  5
24B
330
1F1
100
AcDbEntity
  8
P-SANR-FIXT
100
AcDbLine
 10
737.4710612545605
 20
1476.245878730049
 30
0.0
 11
737.4710612545603
 21
1459.495878730099
 31
0.0
  0
LINE
  5
24C
330
1F1
100
AcDbEntity
  8
P-SANR-FIXT
100
AcDbLine
 10
737.4710612545603
 20
1459.495878730099
 30
0.0
 11
737.4710612545603
 21
1442.74587873015
 31
0.0
  0
SPLINE
  5
24D
330
1F1
100
AcDbEntity
  8
P-SANR-FIXT
100
AcDbSpline
210
0.0
220
0.0
230
1.0
 70
    24
 71
     3
 72
     9
 73
     5
 74
     0
 42
0.000000001
 43
0.0000000001
 40
0.0
 40
0.0
 40
0.0
 40
0.0
 40
0.5
 40
1.0
 40
1.0
 40
1.0
 40
1.0
 10
716.4631605700953
 20
1442.74587873005
 30
0.0
 10
715.5025314163326
 20
1442.74587873005
 30
0.0
 10
714.043219043314
 20
1442.74587873005
 30
0.0
 10
713.5077985393093
 20
1442.74587873005
 30
0.0
 10
713.4710612545604
 20
1442.74587873005
 30
0.0
  0
SPLINE
  5
24E
330
1F1
100
AcDbEntity
  8
P-SANR-FIXT
100
AcDbSpline
210
0.0
220
0.0
230
1.0
 70
    24
 71
     3
 72
     8
 73
     4
 74
     0
 42
0.000000001
 43
0.0000000001
 40
0.0692656272597017
 40
0.0692656272597017
 40
0.0692656272597017
 40
0.0692656272597017
 40
0.0865820340746772
 40
0.0865820340746772
 40
0.0865820340746772
 40
0.0865820340746772
 10
713.4996267842189
 20
1442.74587873005
 30
0.0
 10
713.5031153902925
 20
1442.74587873005
 30
0.0
 10
713.506609150655
 20
1442.74587873005
 30
0.0
 10
713.5101408559545
 20
1442.74587873005
 30
0.0
  0
SPLINE
  5
24F
330
1F1
100
AcDbEntity
  8
P-SANR-FIXT
100
AcDbSpline
210
0.0
220
0.0
230
1.0
 70
    24
 71
     3
 72
     8
 73
     4
 74
     0
 42
0.000000001
 43
0.0000000001
 40
0.9134179659597682
 40
0.9134179659597682
 40
0.9134179659597682
 40
0.9134179659597682
 40
0.9307343727781482
 40
0.9307343727781482
 40
0.9307343727781482
 40
0.9307343727781482
 10
737.431198797753
 20
1442.74587873005
 30
0.0
 10
737.435241476461
 20
1442.74587873005
 30
0.0
 10
737.4385638607439
 20
1442.74587873005
 30
0.0
 10
737.4414319054665
 20
1442.74587873005
 30
0.0
  0
SPLINE
  5
250
330
1F1
100
AcDbEntity
  8
P-SANR-FIXT
100
AcDbSpline
210
0.0
220
0.0
230
1.0
 70
    24
 71
     3
 72
     9
 73
     5
 74
     0
 42
0.000000001
 43
0.0000000001
 40
0.0
 40
0.0
 40
0.0
 40
0.0
 40
0.5
 40
1.0
 40
1.0
 40
1.0
 40
1.0
 10
737.4710612545604
 20
1442.745878730049
 30
0.0
 10
737.4343239698113
 20
1442.745878730049
 30
0.0
 10
736.8989034658063
 20
1442.745878730049
 30
0.0
 10
735.439591092788
 20
1442.745878730049
 30
0.0
 10
734.4789619390255
 20
1442.745878730049
 30
0.0
  0
SPLINE
  5
251
330
1F1
100
AcDbEntity
  8
P-SANR-FIXT
100
AcDbSpline
210
0.0
220
0.0
230
1.0
 70
    24
 71
     3
 72
     8
 73
     4
 74
     0
 42
0.000000001
 43
0.0000000001
 40
0.9134179658080492
 40
0.9134179658080492
 40
0.9134179658080492
 40
0.9134179658080492
 40
0.9307343726439961
 40
0.9307343726439961
 40
0.9307343726439961
 40
0.9307343726439961
 10
713.5109237114573
 20
1509.745878729925
 30
0.0
 10
713.5068810327415
 20
1509.745878729925
 30
0.0
 10
713.5035586484522
 20
1509.745878729925
 30
0.0
 10
713.5006906037244
 20
1509.745878729925
 30
0.0
  0
SPLINE
  5
252
330
1F1
100
AcDbEntity
  8
P-SANR-FIXT
100
AcDbSpline
210
0.0
220
0.0
230
1.0
 70
    24
 71
     3
 72
     9
 73
     5
 74
     0
 42
0.000000001
 43
0.0000000001
 40
0.0
 40
0.0
 40
0.0
 40
0.0
 40
0.5
 40
1.0
 40
1.0
 40
1.0
 40
1.0
 10
713.4710612545607
 20
1509.745878729925
 30
0.0
 10
713.5077985392748
 20
1509.745878729925
 30
0.0
 10
714.0432190432346
 20
1509.745878729925
 30
0.0
 10
715.502531416257
 20
1509.745878729925
 30
0.0
 10
716.4631605700338
 20
1509.745878729925
 30
0.0
  0
LINE
  5
253
330
1F1
100
AcDbEntity
  8
P-SANR-FIXT
100
AcDbLine
 10
716.4631605700338
 20
1509.745878729925
 30
0.0
 11
734.4789619390873
 21
1509.745878729925
 31
0.0
  0
SPLINE
  5
254
330
1F1
100
AcDbEntity
  8
P-SANR-FIXT
100
AcDbSpline
210
0.0
220
0.0
230
1.0
 70
    24
 71
     3
 72
     9
 73
     5
 74
     0
 42
0.000000001
 43
0.0000000001
 40
0.0
 40
0.0
 40
0.0
 40
0.0
 40
0.5
 40
1.0
 40
1.0
 40
1.0
 40
1.0
 10
734.4789619390873
 20
1509.745878729925
 30
0.0
 10
735.439591092864
 20
1509.745878729925
 30
0.0
 10
736.8989034658864
 20
1509.745878729925
 30
0.0
 10
737.4343239698462
 20
1509.745878729925
 30
0.0
 10
737.4710612545607
 20
1509.745878729925
 30
0.0
  0
SPLINE
  5
255
330
1F1
100
AcDbEntity
  8
P-SANR-FIXT
100
AcDbSpline
210
0.0
220
0.0
230
1.0
 70
    24
 71
     3
 72
     8
 73
     4
 74
     0
 42
0.000000001
 43
0.0000000001
 40
0.0692656273566047
 40
0.0692656273566047
 40
0.0692656273566047
 40
0.0692656273566047
 40
0.0865820341957559
 40
0.0865820341957559
 40
0.0865820341957559
 40
0.0865820341957559
 10
737.4424957248574
 20
1509.745878729925
 30
0.0
 10
737.4390071187767
 20
1509.745878729925
 30
0.0
 10
737.4355133584074
 20
1509.745878729925
 30
0.0
 10
737.4319816531007
 20
1509.745878729925
 30
0.0
  0
SPLINE
  5
256
330
1F1
100
AcDbEntity
  8
P-SANR-FIXT
100
AcDbSpline
210
0.0
220
0.0
230
1.0
 70
     8
 71
     3
 72
     9
 73
     5
 74
     0
 42
0.000000001
 43
0.0000000001
 40
0.0
 40
0.0
 40
0.0
 40
0.0
 40
0.5
 40
1.0
 40
1.0
 40
1.0
 40
1.0
 10
716.4631605700338
 20
1509.745878729925
 30
0.0
 10
715.5025314162704
 20
1507.002228373382
 30
0.0
 10
714.0432190432612
 20
1501.466911350186
 30
0.0
 10
713.5077985392881
 20
1495.835561706773
 30
0.0
 10
713.4710612545607
 20
1492.995878730012
 30
0.0
  0
SPLINE
  5
257
330
1F1
100
AcDbEntity
  8
P-SANR-FIXT
100
AcDbSpline
210
0.0
220
0.0
230
1.0
 70
     8
 71
     3
 72
     9
 73
     5
 74
     0
 42
0.000000001
 43
0.0000000001
 40
0.0
 40
0.0
 40
0.0
 40
0.0
 40
0.5
 40
1.0
 40
1.0
 40
1.0
 40
1.0
 10
713.4710612545607
 20
1492.995878730012
 30
0.0
 10
713.507798539289
 20
1490.156195753231
 30
0.0
 10
714.0432190432695
 20
1484.524846109779
 30
0.0
 10
715.502531416296
 20
1478.989529086548
 30
0.0
 10
716.463160570071
 20
1476.245878729987
 30
0.0
  0
LINE
  5
258
330
1F1
100
AcDbEntity
  8
P-SANR-FIXT
100
AcDbLine
 10
716.463160570071
 20
1476.245878729987
 30
0.0
 11
734.4789619390502
 21
1476.245878729987
 31
0.0
  0
SPLINE
  5
259
330
1F1
100
AcDbEntity
  8
P-SANR-FIXT
100
AcDbSpline
210
0.0
220
0.0
230
1.0
 70
     8
 71
     3
 72
     9
 73
     5
 74
     0
 42
0.000000001
 43
0.0000000001
 40
0.0
 40
0.0
 40
0.0
 40
0.0
 40
0.5
 40
1.0
 40
1.0
 40
1.0
 40
1.0
 10
734.4789619390502
 20
1476.245878729987
 30
0.0
 10
735.4395910928251
 20
1478.989529086548
 30
0.0
 10
736.8989034658517
 20
1484.524846109779
 30
0.0
 10
737.434323969832
 20
1490.15619575323
 30
0.0
 10
737.4710612545607
 20
1492.995878730011
 30
0.0
  0
SPLINE
  5
25A
330
1F1
100
AcDbEntity
  8
P-SANR-FIXT
100
AcDbSpline
210
0.0
220
0.0
230
1.0
 70
     8
 71
     3
 72
     9
 73
     5
 74
     0
 42
0.000000001
 43
0.0000000001
 40
0.0
 40
0.0
 40
0.0
 40
0.0
 40
0.5
 40
1.0
 40
1.0
 40
1.0
 40
1.0
 10
737.4710612545607
 20
1492.995878730011
 30
0.0
 10
737.4343239698331
 20
1495.835561706772
 30
0.0
 10
736.89890346586
 20
1501.466911350186
 30
0.0
 10
735.4395910928509
 20
1507.002228373381
 30
0.0
 10
734.4789619390873
 20
1509.745878729925
 30
0.0
  0
SPLINE
  5
25B
330
1F1
100
AcDbEntity
  8
P-SANR-FIXT
100
AcDbSpline
210
0.0
220
0.0
230
1.0
 70
     8
 71
     3
 72
     9
 73
     5
 74
     0
 42
0.000000001
 43
0.0000000001
 40
0.0
 40
0.0
 40
0.0
 40
0.0
 40
0.5
 40
1.0
 40
1.0
 40
1.0
 40
1.0
 10
716.463160570071
 20
1476.245878729987
 30
0.0
 10
715.5025314163125
 20
1473.502228373439
 30
0.0
 10
714.0432190433024
 20
1467.966911350236
 30
0.0
 10
713.5077985393056
 20
1462.335561706818
 30
0.0
 10
713.4710612545604
 20
1459.495878730055
 30
0.0
  0
SPLINE
  5
25C
330
1F1
100
AcDbEntity
  8
P-SANR-FIXT
100
AcDbSpline
210
0.0
220
0.0
230
1.0
 70
     8
 71
     3
 72
     9
 73
     5
 74
     0
 42
0.000000001
 43
0.0000000001
 40
0.0
 40
0.0
 40
0.0
 40
0.0
 40
0.5
 40
1.0
 40
1.0
 40
1.0
 40
1.0
 10
713.4710612545604
 20
1459.495878730055
 30
0.0
 10
713.5077985393061
 20
1456.656195753279
 30
0.0
 10
714.0432190433076
 20
1451.024846109835
 30
0.0
 10
715.5025314163293
 20
1445.489529086609
 30
0.0
 10
716.4631605700953
 20
1442.74587873005
 30
0.0
  0
LINE
  5
25D
330
1F1
100
AcDbEntity
  8
P-SANR-FIXT
100
AcDbLine
 10
734.4789619390255
 20
1442.745878730049
 30
0.0
 11
716.4631605700953
 21
1442.74587873005
 31
0.0
  0
SPLINE
  5
25E
330
1F1
100
AcDbEntity
  8
P-SANR-FIXT
100
AcDbSpline
210
0.0
220
0.0
230
1.0
 70
     8
 71
     3
 72
     9
 73
     5
 74
     0
 42
0.000000001
 43
0.0000000001
 40
0.0
 40
0.0
 40
0.0
 40
0.0
 40
0.5
 40
1.0
 40
1.0
 40
1.0
 40
1.0
 10
734.4789619390255
 20
1442.745878730049
 30
0.0
 10
735.4395910927913
 20
1445.489529086608
 30
0.0
 10
736.8989034658132
 20
1451.024846109835
 30
0.0
 10
737.4343239698147
 20
1456.656195753279
 30
0.0
 10
737.4710612545604
 20
1459.495878730055
 30
0.0
  0
SPLINE
  5
25F
330
1F1
100
AcDbEntity
  8
P-SANR-FIXT
100
AcDbSpline
210
0.0
220
0.0
230
1.0
 70
     8
 71
     3
 72
     9
 73
     5
 74
     0
 42
0.000000001
 43
0.0000000001
 40
0.0
 40
0.0
 40
0.0
 40
0.0
 40
0.5
 40
1.0
 40
1.0
 40
1.0
 40
1.0
 10
737.4710612545604
 20
1459.495878730055
 30
0.0
 10
737.4343239698155
 20
1462.335561706818
 30
0.0
 10
736.8989034658187
 20
1467.966911350236
 30
0.0
 10
735.4395910928085
 20
1473.502228373439
 30
0.0
 10
734.4789619390502
 20
1476.245878729987
 30
0.0
  0
LINE
  5
260
330
1F1
100
AcDbEntity
  8
P-SANR-FIXT
100
AcDbLine
 10
920.56640744323
 20
1450.940497959023
 30
0.0
 11
939.6664074432299
 21
1450.940497959023
 31
0.0
  0
LINE
  5
261
330
1F1
100
AcDbEntity
  8
P-SANR-FIXT
100
AcDbLine
 10
939.6664074432301
 20
1501.610734364262
 30
0.0
 11
920.5664074432304
 21
1501.610734364262
 31
0.0
  0
LINE
  5
262
330
1F1
100
AcDbEntity
  8
P-SANR-FIXT
100
AcDbLine
 10
920.5664074432304
 20
1501.595878730058
 30
0.0
 11
917.8617536318395
 21
1501.595878730058
 31
0.0
  0
LINE
  5
263
330
1F1
100
AcDbEntity
  8
P-SANR-FIXT
100
AcDbLine
 10
917.8617536318391
 20
1450.895878730039
 30
0.0
 11
920.5664074432304
 21
1450.895878730039
 31
0.0
  0
LINE
  5
264
330
1F1
100
AcDbEntity
  8
P-SANR-FIXT
100
AcDbLine
 10
939.6664074432285
 20
1451.449020906978
 30
0.0
 11
939.6664074432285
 21
1450.940497959023
 31
0.0
  0
LINE
  5
265
330
1F1
100
AcDbEntity
  8
P-SANR-FIXT
100
AcDbLine
 10
939.6664074432287
 20
1501.610734364262
 30
0.0
 11
939.6664074432287
 21
1501.133765577389
 31
0.0
  0
LINE
  5
266
330
1F1
100
AcDbEntity
  8
P-SANR-FIXT
100
AcDbLine
 10
939.6664074432287
 20
1501.133765577389
 30
0.0
 11
939.6664074432287
 21
1492.942079980021
 31
0.0
  0
LINE
  5
267
330
1F1
100
AcDbEntity
  8
P-SANR-FIXT
100
AcDbLine
 10
939.6664074432287
 20
1492.942079980021
 30
0.0
 11
939.6664074432287
 21
1484.391539666767
 31
0.0
  0
LINE
  5
268
330
1F1
100
AcDbEntity
  8
P-SANR-FIXT
100
AcDbLine
 10
939.6664074432287
 20
1484.391539666767
 30
0.0
 11
939.6664074432287
 21
1468.159692656517
 31
0.0
  0
LINE
  5
269
330
1F1
100
AcDbEntity
  8
P-SANR-FIXT
100
AcDbLine
 10
939.6664074432287
 20
1468.159692656517
 30
0.0
 11
939.6664074432285
 21
1459.488385887213
 31
0.0
  0
LINE
  5
26A
330
1F1
100
AcDbEntity
  8
P-SANR-FIXT
100
AcDbLine
 10
939.6664074432285
 20
1459.488385887213
 30
0.0
 11
939.6664074432285
 21
1451.449020906978
 31
0.0
  0
LINE
  5
26B
330
1F1
100
AcDbEntity
  8
P-SANR-FIXT
100
AcDbLine
 10
939.6664074432285
 20
1451.449020906978
 30
0.0
 11
920.5664074432288
 21
1451.449020906978
 31
0.0
  0
LINE
  5
26C
330
1F1
100
AcDbEntity
  8
P-SANR-FIXT
100
AcDbLine
 10
920.566407443229
 20
1501.133765577389
 30
0.0
 11
939.6664074432287
 21
1501.133765577389
 31
0.0
  0
LINE
  5
26D
330
1F1
100
AcDbEntity
  8
P-SANR-FIXT
100
AcDbLine
 10
920.566407443229
 20
1492.942079980021
 30
0.0
 11
939.6664074432287
 21
1492.942079980021
 31
0.0
  0
LINE
  5
26E
330
1F1
100
AcDbEntity
  8
P-SANR-FIXT
100
AcDbLine
 10
920.566407443229
 20
1484.391539666767
 30
0.0
 11
939.6664074432287
 21
1484.391539666767
 31
0.0
  0
LINE
  5
26F
330
1F1
100
AcDbEntity
  8
P-SANR-FIXT
100
AcDbLine
 10
920.566407443229
 20
1468.159692656517
 30
0.0
 11
939.6664074432287
 21
1468.159692656517
 31
0.0
  0
LINE
  5
270
330
1F1
100
AcDbEntity
  8
P-SANR-FIXT
100
AcDbLine
 10
920.5664074432288
 20
1459.488385887213
 30
0.0
 11
939.6664074432285
 21
1459.488385887213
 31
0.0
  0
LINE
  5
271
330
1F1
100
AcDbEntity
  8
P-SANR-FIXT
100
AcDbLine
 10
920.566407443229
 20
1476.245878730048
 30
0.0
 11
920.566407443229
 21
1484.39325590899
 31
0.0
  0
LINE
  5
272
330
1F1
100
AcDbEntity
  8
P-SANR-FIXT
100
AcDbLine
 10
920.566407443229
 20
1492.942164512171
 30
0.0
 11
920.566407443229
 21
1501.111618779065
 31
0.0
  0
LINE
  5
273
330
1F1
100
AcDbEntity
  8
P-SANR-FIXT
100
AcDbLine
 10
920.5664074432288
 20
1451.405884911305
 30
0.0
 11
920.5664074432288
 21
1459.465498219747
 31
0.0
  0
LINE
  5
274
330
1F1
100
AcDbEntity
  8
P-SANR-FIXT
100
AcDbLine
 10
920.566407443229
 20
1468.151904464247
 30
0.0
 11
920.566407443229
 21
1476.245878730048
 31
0.0
  0
LINE
  5
275
330
1F1
100
AcDbEntity
  8
P-SANR-FIXT
100
AcDbLine
 10
917.8617536318379
 20
1509.745878729947
 30
0.0
 11
917.8617536318379
 21
1492.995878729997
 31
0.0
  0
LINE
  5
276
330
1F1
100
AcDbEntity
  8
P-SANR-FIXT
100
AcDbLine
 10
917.8617536318379
 20
1492.995878729997
 30
0.0
 11
917.8617536318379
 21
1476.245878730049
 31
0.0
  0
LINE
  5
277
330
1F1
100
AcDbEntity
  8
P-SANR-FIXT
100
AcDbLine
 10
917.8617536318379
 20
1476.245878730048
 30
0.0
 11
917.8617536318375
 21
1459.495878730098
 31
0.0
  0
LINE
  5
278
330
1F1
100
AcDbEntity
  8
P-SANR-FIXT
100
AcDbLine
 10
917.8617536318379
 20
1459.495878730098
 30
0.0
 11
917.8617536318375
 21
1442.745878730149
 31
0.0
  0
LINE
  5
279
330
1F1
100
AcDbEntity
  8
P-SANR-FIXT
100
AcDbLine
 10
893.8617536318378
 20
1476.245878730049
 30
0.0
 11
893.861753631838
 21
1492.995878729998
 31
0.0
  0
LINE
  5
27A
330
1F1
100
AcDbEntity
  8
P-SANR-FIXT
100
AcDbLine
 10
893.861753631838
 20
1492.995878729998
 30
0.0
 11
893.8617536318378
 21
1509.745878729947
 31
0.0
  0
LINE
  5
27B
330
1F1
100
AcDbEntity
  8
P-SANR-FIXT
100
AcDbLine
 10
893.8617536318377
 20
1442.745878730149
 30
0.0
 11
893.8617536318378
 21
1459.495878730098
 31
0.0
  0
LINE
  5
27C
330
1F1
100
AcDbEntity
  8
P-SANR-FIXT
100
AcDbLine
 10
893.8617536318378
 20
1459.495878730098
 30
0.0
 11
893.8617536318378
 21
1476.245878730048
 31
0.0
  0
SPLINE
  5
27D
330
1F1
100
AcDbEntity
  8
P-SANR-FIXT
100
AcDbSpline
210
0.0
220
0.0
230
1.0
 70
    24
 71
     3
 72
     8
 73
     4
 74
     0
 42
0.000000001
 43
0.0000000001
 40
0.9134179659589673
 40
0.9134179659589673
 40
0.9134179659589673
 40
0.9134179659589673
 40
0.9307343727775474
 40
0.9307343727775474
 40
0.9307343727775474
 40
0.9307343727775474
 10
917.8218911750299
 20
1442.745878730049
 30
0.0
 10
917.8259338537378
 20
1442.745878730049
 30
0.0
 10
917.8292562380208
 20
1442.745878730049
 30
0.0
 10
917.8321242827435
 20
1442.745878730049
 30
0.0
  0
SPLINE
  5
27E
330
1F1
100
AcDbEntity
  8
P-SANR-FIXT
100
AcDbSpline
210
0.0
220
0.0
230
1.0
 70
    24
 71
     3
 72
     9
 73
     5
 74
     0
 42
0.000000001
 43
0.0000000001
 40
0.0
 40
0.0
 40
0.0
 40
0.0
 40
0.5
 40
1.0
 40
1.0
 40
1.0
 40
1.0
 10
917.8617536318375
 20
1442.745878730048
 30
0.0
 10
917.8250163470888
 20
1442.745878730048
 30
0.0
 10
917.289595843084
 20
1442.745878730048
 30
0.0
 10
915.8302834700656
 20
1442.745878730048
 30
0.0
 10
914.8696543163028
 20
1442.745878730048
 30
0.0
  0
LINE
  5
27F
330
1F1
100
AcDbEntity
  8
P-SANR-FIXT
100
AcDbLine
 10
914.8696543163028
 20
1442.745878730048
 30
0.0
 11
896.8538529473725
 21
1442.745878730049
 31
0.0
  0
SPLINE
  5
280
330
1F1
100
AcDbEntity
  8
P-SANR-FIXT
100
AcDbSpline
210
0.0
220
0.0
230
1.0
 70
    24
 71
     3
 72
     9
 73
     5
 74
     0
 42
0.000000001
 43
0.0000000001
 40
0.0
 40
0.0
 40
0.0
 40
0.0
 40
0.5
 40
1.0
 40
1.0
 40
1.0
 40
1.0
 10
896.8538529473725
 20
1442.745878730049
 30
0.0
 10
895.8932237936096
 20
1442.745878730049
 30
0.0
 10
894.4339114205911
 20
1442.745878730049
 30
0.0
 10
893.8984909165865
 20
1442.745878730049
 30
0.0
 10
893.8617536318377
 20
1442.745878730049
 30
0.0
  0
SPLINE
  5
281
330
1F1
100
AcDbEntity
  8
P-SANR-FIXT
100
AcDbSpline
210
0.0
220
0.0
230
1.0
 70
    24
 71
     3
 72
     8
 73
     4
 74
     0
 42
0.000000001
 43
0.0000000001
 40
0.0692656272595569
 40
0.0692656272595569
 40
0.0692656272595569
 40
0.0692656272595569
 40
0.0865820340745463
 40
0.0865820340745463
 40
0.0865820340745463
 40
0.0865820340745463
 10
893.890319161496
 20
1442.745878730049
 30
0.0
 10
893.8938077675699
 20
1442.745878730049
 30
0.0
 10
893.8973015279321
 20
1442.745878730049
 30
0.0
 10
893.9008332332317
 20
1442.745878730049
 30
0.0
  0
SPLINE
  5
282
330
1F1
100
AcDbEntity
  8
P-SANR-FIXT
100
AcDbSpline
210
0.0
220
0.0
230
1.0
 70
    24
 71
     3
 72
     9
 73
     5
 74
     0
 42
0.000000001
 43
0.0000000001
 40
0.0
 40
0.0
 40
0.0
 40
0.0
 40
0.5
 40
1.0
 40
1.0
 40
1.0
 40
1.0
 10
914.8696543163648
 20
1509.745878729924
 30
0.0
 10
915.8302834701416
 20
1509.745878729924
 30
0.0
 10
917.289595843164
 20
1509.745878729924
 30
0.0
 10
917.8250163471238
 20
1509.745878729924
 30
0.0
 10
917.8617536318379
 20
1509.745878729924
 30
0.0
  0
SPLINE
  5
283
330
1F1
100
AcDbEntity
  8
P-SANR-FIXT
100
AcDbSpline
210
0.0
220
0.0
230
1.0
 70
    24
 71
     3
 72
     8
 73
     4
 74
     0
 42
0.000000001
 43
0.0000000001
 40
0.0692656273472477
 40
0.0692656273472477
 40
0.0692656273472477
 40
0.0692656273472477
 40
0.0865820341842099
 40
0.0865820341842099
 40
0.0865820341842099
 40
0.0865820341842099
 10
917.8331881021405
 20
1509.745878729924
 30
0.0
 10
917.8296994960604
 20
1509.745878729924
 30
0.0
 10
917.8262057356919
 20
1509.745878729924
 30
0.0
 10
917.8226740303859
 20
1509.745878729924
 30
0.0
  0
SPLINE
  5
284
330
1F1
100
AcDbEntity
  8
P-SANR-FIXT
100
AcDbSpline
210
0.0
220
0.0
230
1.0
 70
    24
 71
     3
 72
     8
 73
     4
 74
     0
 42
0.000000001
 43
0.0000000001
 40
0.9134179658081801
 40
0.9134179658081801
 40
0.9134179658081801
 40
0.9134179658081801
 40
0.9307343726441409
 40
0.9307343726441409
 40
0.9307343726441409
 40
0.9307343726441409
 10
893.9016160887344
 20
1509.745878729924
 30
0.0
 10
893.8975734100186
 20
1509.745878729924
 30
0.0
 10
893.8942510257293
 20
1509.745878729924
 30
0.0
 10
893.8913829810015
 20
1509.745878729924
 30
0.0
  0
SPLINE
  5
285
330
1F1
100
AcDbEntity
  8
P-SANR-FIXT
100
AcDbSpline
210
0.0
220
0.0
230
1.0
 70
    24
 71
     3
 72
     9
 73
     5
 74
     0
 42
0.000000001
 43
0.0000000001
 40
0.0
 40
0.0
 40
0.0
 40
0.0
 40
0.5
 40
1.0
 40
1.0
 40
1.0
 40
1.0
 10
893.8617536318378
 20
1509.745878729924
 30
0.0
 10
893.8984909165521
 20
1509.745878729924
 30
0.0
 10
894.4339114205117
 20
1509.745878729924
 30
0.0
 10
895.8932237935341
 20
1509.745878729924
 30
0.0
 10
896.8538529473111
 20
1509.745878729924
 30
0.0
  0
SPLINE
  5
286
330
1F1
100
AcDbEntity
  8
P-SANR-FIXT
100
AcDbSpline
210
0.0
220
0.0
230
1.0
 70
     8
 71
     3
 72
     9
 73
     5
 74
     0
 42
0.000000001
 43
0.0000000001
 40
0.0
 40
0.0
 40
0.0
 40
0.0
 40
0.5
 40
1.0
 40
1.0
 40
1.0
 40
1.0
 10
914.8696543163275
 20
1476.245878729986
 30
0.0
 10
915.8302834701022
 20
1478.989529086547
 30
0.0
 10
917.289595843129
 20
1484.524846109778
 30
0.0
 10
917.8250163471092
 20
1490.15619575323
 30
0.0
 10
917.8617536318379
 20
1492.995878730011
 30
0.0
  0
SPLINE
  5
287
330
1F1
100
AcDbEntity
  8
P-SANR-FIXT
100
AcDbSpline
210
0.0
220
0.0
230
1.0
 70
     8
 71
     3
 72
     9
 73
     5
 74
     0
 42
0.000000001
 43
0.0000000001
 40
0.0
 40
0.0
 40
0.0
 40
0.0
 40
0.5
 40
1.0
 40
1.0
 40
1.0
 40
1.0
 10
917.8617536318379
 20
1492.995878730011
 30
0.0
 10
917.8250163471105
 20
1495.835561706772
 30
0.0
 10
917.2895958431373
 20
1501.466911350185
 30
0.0
 10
915.8302834701283
 20
1507.00222837338
 30
0.0
 10
914.8696543163648
 20
1509.745878729924
 30
0.0
  0
LINE
  5
288
330
1F1
100
AcDbEntity
  8
P-SANR-FIXT
100
AcDbLine
 10
896.8538529473111
 20
1509.745878729924
 30
0.0
 11
914.8696543163648
 21
1509.745878729924
 31
0.0
  0
SPLINE
  5
289
330
1F1
100
AcDbEntity
  8
P-SANR-FIXT
100
AcDbSpline
210
0.0
220
0.0
230
1.0
 70
     8
 71
     3
 72
     9
 73
     5
 74
     0
 42
0.000000001
 43
0.0000000001
 40
0.0
 40
0.0
 40
0.0
 40
0.0
 40
0.5
 40
1.0
 40
1.0
 40
1.0
 40
1.0
 10
896.8538529473111
 20
1509.745878729924
 30
0.0
 10
895.8932237935476
 20
1507.002228373381
 30
0.0
 10
894.4339114205385
 20
1501.466911350185
 30
0.0
 10
893.8984909165654
 20
1495.835561706772
 30
0.0
 10
893.8617536318378
 20
1492.995878730011
 30
0.0
  0
SPLINE
  5
28A
330
1F1
100
AcDbEntity
  8
P-SANR-FIXT
100
AcDbSpline
210
0.0
220
0.0
230
1.0
 70
     8
 71
     3
 72
     9
 73
     5
 74
     0
 42
0.000000001
 43
0.0000000001
 40
0.0
 40
0.0
 40
0.0
 40
0.0
 40
0.5
 40
1.0
 40
1.0
 40
1.0
 40
1.0
 10
893.8617536318378
 20
1492.995878730011
 30
0.0
 10
893.8984909165663
 20
1490.15619575323
 30
0.0
 10
894.4339114205465
 20
1484.524846109778
 30
0.0
 10
895.8932237935732
 20
1478.989529086547
 30
0.0
 10
896.8538529473482
 20
1476.245878729986
 30
0.0
  0
SPLINE
  5
28B
330
1F1
100
AcDbEntity
  8
P-SANR-FIXT
100
AcDbSpline
210
0.0
220
0.0
230
1.0
 70
     8
 71
     3
 72
     9
 73
     5
 74
     0
 42
0.000000001
 43
0.0000000001
 40
0.0
 40
0.0
 40
0.0
 40
0.0
 40
0.5
 40
1.0
 40
1.0
 40
1.0
 40
1.0
 10
914.8696543163028
 20
1442.745878730048
 30
0.0
 10
915.8302834700688
 20
1445.489529086607
 30
0.0
 10
917.2895958430904
 20
1451.024846109834
 30
0.0
 10
917.8250163470918
 20
1456.656195753278
 30
0.0
 10
917.8617536318375
 20
1459.495878730054
 30
0.0
  0
SPLINE
  5
28C
330
1F1
100
AcDbEntity
  8
P-SANR-FIXT
100
AcDbSpline
210
0.0
220
0.0
230
1.0
 70
     8
 71
     3
 72
     9
 73
     5
 74
     0
 42
0.000000001
 43
0.0000000001
 40
0.0
 40
0.0
 40
0.0
 40
0.0
 40
0.5
 40
1.0
 40
1.0
 40
1.0
 40
1.0
 10
917.8617536318375
 20
1459.495878730054
 30
0.0
 10
917.8250163470927
 20
1462.335561706817
 30
0.0
 10
917.2895958430959
 20
1467.966911350235
 30
0.0
 10
915.8302834700858
 20
1473.502228373438
 30
0.0
 10
914.8696543163275
 20
1476.245878729986
 30
0.0
  0
LINE
  5
28D
330
1F1
100
AcDbEntity
  8
P-SANR-FIXT
100
AcDbLine
 10
896.8538529473482
 20
1476.245878729986
 30
0.0
 11
914.8696543163275
 21
1476.245878729986
 31
0.0
  0
SPLINE
  5
28E
330
1F1
100
AcDbEntity
  8
P-SANR-FIXT
100
AcDbSpline
210
0.0
220
0.0
230
1.0
 70
     8
 71
     3
 72
     9
 73
     5
 74
     0
 42
0.000000001
 43
0.0000000001
 40
0.0
 40
0.0
 40
0.0
 40
0.0
 40
0.5
 40
1.0
 40
1.0
 40
1.0
 40
1.0
 10
896.8538529473482
 20
1476.245878729986
 30
0.0
 10
895.8932237935897
 20
1473.502228373439
 30
0.0
 10
894.4339114205796
 20
1467.966911350235
 30
0.0
 10
893.8984909165828
 20
1462.335561706817
 30
0.0
 10
893.8617536318377
 20
1459.495878730054
 30
0.0
  0
SPLINE
  5
28F
330
1F1
100
AcDbEntity
  8
P-SANR-FIXT
100
AcDbSpline
210
0.0
220
0.0
230
1.0
 70
     8
 71
     3
 72
     9
 73
     5
 74
     0
 42
0.000000001
 43
0.0000000001
 40
0.0
 40
0.0
 40
0.0
 40
0.0
 40
0.5
 40
1.0
 40
1.0
 40
1.0
 40
1.0
 10
893.8617536318377
 20
1459.495878730054
 30
0.0
 10
893.8984909165833
 20
1456.656195753278
 30
0.0
 10
894.4339114205849
 20
1451.024846109834
 30
0.0
 10
895.8932237936066
 20
1445.489529086608
 30
0.0
 10
896.8538529473725
 20
1442.745878730049
 30
0.0
  0
LINE
  5
290
330
1F1
100
AcDbEntity
  8
P-SANR-FIXT
100
AcDbLine
 10
805.0164074432004
 20
1433.121036209106
 30
0.0
 11
805.0164074432002
 21
1399.245878730049
 31
0.0
  0
LINE
  5
291
330
1F1
100
AcDbEntity
  8
P-SANR-FIXT
100
AcDbLine
 10
826.3164074432005
 20
1399.245878730049
 30
0.0
 11
826.3164074432005
 21
1433.121036209106
 31
0.0
  0
LINE
  5
292
330
1F1
100
AcDbEntity
  8
P-SANR-FIXT
100
AcDbLine
 10
893.8617536318393
 20
1506.245878730049
 30
0.0
 11
886.3178155093585
 21
1506.245878730049
 31
0.0
  0
LINE
  5
293
330
1F1
100
AcDbEntity
  8
P-SANR-FIXT
100
AcDbLine
 10
885.7786840914261
 20
1446.245878730049
 30
0.0
 11
893.8617536318391
 21
1446.245878730049
 31
0.0
  0
LINE
  5
294
330
1F1
100
AcDbEntity
  8
P-SANR-FIXT
100
AcDbLine
 10
883.7629215971563
 20
1455.045878730034
 30
0.0
 11
885.7786840914265
 21
1455.045878730034
 31
0.0
  0
LINE
  5
295
330
1F1
100
AcDbEntity
  8
P-SANR-FIXT
100
AcDbLine
 10
860.1164074432002
 20
1455.045878730035
 30
0.0
 11
883.7629215971563
 21
1455.045878730035
 31
0.0
  0
LINE
  5
296
330
1F1
100
AcDbEntity
  8
P-SANR-FIXT
100
AcDbLine
 10
854.7569006998305
 20
1455.045878730035
 30
0.0
 11
860.1164074432002
 21
1455.045878730035
 31
0.0
  0
LINE
  5
297
330
1F1
100
AcDbEntity
  8
P-SANR-FIXT
100
AcDbLine
 10
771.2164074432005
 20
1455.045878730035
 30
0.0
 11
776.5759141865702
 21
1455.045878730035
 31
0.0
  0
LINE
  5
298
330
1F1
100
AcDbEntity
  8
P-SANR-FIXT
100
AcDbLine
 10
747.5698932892445
 20
1455.045878730035
 30
0.0
 11
771.2164074432005
 21
1455.045878730035
 31
0.0
  0
LINE
  5
299
330
1F1
100
AcDbEntity
  8
P-SANR-FIXT
100
AcDbLine
 10
745.5541307949745
 20
1455.045878730035
 30
0.0
 11
747.5698932892445
 21
1455.045878730035
 31
0.0
  0
LINE
  5
29A
330
1F1
100
AcDbEntity
  8
P-SANR-FIXT
100
AcDbLine
 10
744.993981277618
 20
1506.245878730049
 30
0.0
 11
737.4710612545617
 21
1506.245878730049
 31
0.0
  0
LINE
  5
29B
330
1F1
100
AcDbEntity
  8
P-SANR-FIXT
100
AcDbLine
 10
737.4710612545616
 20
1446.245878730049
 30
0.0
 11
745.5541307949743
 21
1446.245878730049
 31
0.0
  0
ARC
  5
29C
330
1F1
100
AcDbEntity
  8
P-SANR-FIXT
100
AcDbCircle
 10
815.6664074431992
 20
1476.245878730049
 30
0.0
 40
44.44999999999942
100
AcDbArc
 50
359.999999999999
 51
0.9270760781917383
  0
ARC
  5
29D
330
1F1
100
AcDbEntity
  8
P-SANR-FIXT
100
AcDbCircle
 10
815.6664074431992
 20
1476.245878730049
 30
0.0
 40
44.44999999999965
100
AcDbArc
 50
179.0729239218067
 51
179.9999999999994
  0
ARC
  5
29E
330
1F1
100
AcDbEntity
  8
P-SANR-FIXT
100
AcDbCircle
 10
815.6664074431992
 20
1476.245878730049
 30
0.0
 40
44.44999999999973
100
AcDbArc
 50
179.9999999999996
 51
359.9999999999988
  0
SPLINE
  5
29F
330
1F1
100
AcDbEntity
  8
P-SANR-FIXT
100
AcDbSpline
210
0.0
220
0.0
230
1.0
 70
     8
 71
     3
 72
     8
 73
     4
 74
     0
 42
0.000000001
 43
0.0000000001
 40
0.0
 40
0.0
 40
0.0
 40
0.0
 40
0.0103830782695513
 40
0.0103830782695513
 40
0.0103830782695513
 40
0.0103830782695513
 10
860.1164074431988
 20
1476.245878730049
 30
0.0
 10
860.1164074431988
 20
1476.488488942983
 30
0.0
 10
860.1144036493595
 20
1476.729936583325
 30
0.0
 10
860.1104664076453
 20
1476.970150632425
 30
0.0
  0
SPLINE
  5
2A0
330
1F1
100
AcDbEntity
  8
P-SANR-FIXT
100
AcDbSpline
210
0.0
220
0.0
230
1.0
 70
     8
 71
     3
 72
     8
 73
     4
 74
     0
 42
0.000000001
 43
0.0000000001
 40
0.9896174266486534
 40
0.9896174266486534
 40
0.9896174266486534
 40
0.9896174266486534
 40
1.0
 40
1.0
 40
1.0
 40
1.0
 10
771.2221538825271
 20
1476.969547925548
 30
0.0
 10
771.2183382645033
 20
1476.729697180189
 30
0.0
 10
771.2164074431995
 20
1476.488478761909
 30
0.0
 10
771.2164074431995
 20
1476.245878730049
 30
0.0
  0
SPLINE
  5
2A1
330
1F1
100
AcDbEntity
  8
P-SANR-FIXT
100
AcDbSpline
210
0.0
220
0.0
230
1.0
 70
     8
 71
     3
 72
    10
 73
     6
 74
     0
 42
0.000000001
 43
0.0000000001
 40
0.0
 40
0.0
 40
0.0
 40
0.0
 40
0.0555555555555556
 40
0.1111111111111111
 40
0.1388888888888889
 40
0.1388888888888889
 40
0.1388888888888889
 40
0.1388888888888889
 10
771.2164074431995
 20
1476.245878730049
 30
0.0
 10
771.2164074431995
 20
1474.947763215554
 30
0.0
 10
771.3311581204355
 20
1472.417734892336
 30
0.0
 10
771.7076469603735
 20
1469.475733900553
 30
0.0
 10
772.0288491835208
 20
1467.769960936155
 30
0.0
 10
772.1445497509578
 20
1467.212459497175
 30
0.0
  0
SPLINE
  5
2A2
330
1F1
100
AcDbEntity
  8
P-SANR-FIXT
100
AcDbSpline
210
0.0
220
0.0
230
1.0
 70
     8
 71
     3
 72
     9
 73
     5
 74
     0
 42
0.000000001
 43
0.0000000001
 40
0.1666666666666666
 40
0.1666666666666666
 40
0.1666666666666666
 40
0.1666666666666666
 40
0.2222222222222222
 40
0.2777777777777779
 40
0.2777777777777779
 40
0.2777777777777779
 40
0.2777777777777779
 10
772.5155942122438
 20
1465.577710306782
 30
0.0
 10
772.7776145456259
 20
1464.516038583601
 30
0.0
 10
773.3550667286997
 20
1462.5173033628
 30
0.0
 10
773.9831699687562
 20
1460.788661330784
 30
0.0
 10
774.2902123592044
 20
1460.006162557562
 30
0.0
  0
SPLINE
  5
2A3
330
1F1
100
AcDbEntity
  8
P-SANR-FIXT
100
AcDbSpline
210
0.0
220
0.0
230
1.0
 70
     8
 71
     3
 72
    11
 73
     7
 74
     0
 42
0.000000001
 43
0.0000000001
 40
0.3055555555555556
 40
0.3055555555555556
 40
0.3055555555555556
 40
0.3055555555555556
 40
0.3333333333333333
 40
0.3611111111111111
 40
0.3888888888888888
 40
0.4166666666666666
 40
0.4166666666666666
 40
0.4166666666666666
 40
0.4166666666666666
 10
774.7430600235863
 20
1458.895568447184
 30
0.0
 10
774.8906176047754
 20
1458.547017550276
 30
0.0
 10
775.1773101538211
 20
1457.894401614962
 30
0.0
 10
775.5673271423606
 20
1457.059659493266
 30
0.0
 10
775.9241064932177
 20
1456.332708683183
 30
0.0
 10
776.1219447419323
 20
1455.946317991187
 30
0.0
 10
776.20708525395
 20
1455.782145141942
 30
0.0
  0
SPLINE
  5
2A4
330
1F1
100
AcDbEntity
  8
P-SANR-FIXT
100
AcDbSpline
210
0.0
220
0.0
230
1.0
 70
     8
 71
     3
 72
     8
 73
     4
 74
     0
 42
0.000000001
 43
0.0000000001
 40
0.4444444444444445
 40
0.4444444444444445
 40
0.4444444444444445
 40
0.4444444444444445
 40
0.4722222222222224
 40
0.4722222222222224
 40
0.4722222222222224
 40
0.4722222222222224
 10
776.4200291066368
 20
1455.37666007042
 30
0.0
 10
776.4764705429375
 20
1455.270498245433
 30
0.0
 10
776.5179915171643
 20
1455.193324860501
 30
0.0
 10
776.5455711967078
 20
1455.142237885762
 30
0.0
  0
SPLINE
  5
2A5
330
1F1
100
AcDbEntity
  8
P-SANR-FIXT
100
AcDbSpline
210
0.0
220
0.0
230
1.0
 70
     8
 71
     3
 72
     8
 73
     4
 74
     0
 42
0.000000001
 43
0.0000000001
 40
0.970684333532229
 40
0.970684333532229
 40
0.970684333532229
 40
0.970684333532229
 40
0.9759568069819438
 40
0.9759568069819438
 40
0.9759568069819438
 40
0.9759568069819438
 10
771.2615642364518
 20
1474.223716051558
 30
0.0
 10
771.2562126412032
 20
1474.342997347043
 30
0.0
 10
771.2521197446432
 20
1474.463204767189
 30
0.0
 10
771.2488630236419
 20
1474.584027701458
 30
0.0
  0
SPLINE
  5
2A6
330
1F1
100
AcDbEntity
  8
P-SANR-FIXT
100
AcDbSpline
210
0.0
220
0.0
230
1.0
 70
     8
 71
     3
 72
     8
 73
     4
 74
     0
 42
0.000000001
 43
0.0000000001
 40
0.0240420238227933
 40
0.0240420238227933
 40
0.0240420238227933
 40
0.0240420238227933
 40
0.0293140262474904
 40
0.0293140262474904
 40
0.0293140262474904
 40
0.0293140262474904
 10
860.0850444830236
 20
1474.580064657511
 30
0.0
 10
860.0805233508811
 20
1474.459792958857
 30
0.0
 10
860.0755274919904
 20
1474.339862235932
 30
0.0
 10
860.070066105932
 20
1474.220281893661
 30
0.0
  0
SPLINE
  5
2A7
330
1F1
100
AcDbEntity
  8
P-SANR-FIXT
100
AcDbSpline
210
0.0
220
0.0
230
1.0
 70
     8
 71
     3
 72
    10
 73
     6
 74
     0
 42
0.000000001
 43
0.0000000001
 40
0.5
 40
0.5
 40
0.5
 40
0.5
 40
0.5138888888888889
 40
0.5486111111111111
 40
0.5555555555555556
 40
0.5555555555555556
 40
0.5555555555555556
 40
0.5555555555555556
 10
854.7458421924616
 20
1455.065674897629
 30
0.0
 10
854.7458326229799
 20
1455.065660869586
 30
0.0
 10
854.7579076008135
 20
1455.087985061388
 30
0.0
 10
854.8204728753855
 20
1455.203472623402
 30
0.0
 10
854.899864606777
 20
1455.352343924176
 30
0.0
 10
854.9139936910398
 20
1455.378908003956
 30
0.0
  0
SPLINE
  5
2A8
330
1F1
100
AcDbEntity
  8
P-SANR-FIXT
100
AcDbSpline
210
0.0
220
0.0
230
1.0
 70
     8
 71
     3
 72
    11
 73
     7
 74
     0
 42
0.000000001
 43
0.0000000001
 40
0.5833333333333333
 40
0.5833333333333333
 40
0.5833333333333333
 40
0.5833333333333333
 40
0.6180555555555555
 40
0.6527777777777777
 40
0.6875
 40
0.6944444444444446
 40
0.6944444444444446
 40
0.6944444444444446
 40
0.6944444444444446
 10
855.1263006639345
 20
1455.783246274567
 30
0.0
 10
855.2324501096228
 20
1455.987992525285
 30
0.0
 10
855.4886672321304
 20
1456.489666701503
 30
0.0
 10
855.9557092758241
 20
1457.457388625236
 30
0.0
 10
856.3319892847326
 20
1458.290258401716
 30
0.0
 10
856.552304466996
 20
1458.80614595462
 30
0.0
 10
856.5893791264121
 20
1458.893736105828
 30
0.0
  0
SPLINE
  5
2A9
330
1F1
100
AcDbEntity
  8
P-SANR-FIXT
100
AcDbSpline
210
0.0
220
0.0
230
1.0
 70
     8
 71
     3
 72
    10
 73
     6
 74
     0
 42
0.000000001
 43
0.0000000001
 40
0.7222222222222223
 40
0.7222222222222223
 40
0.7222222222222223
 40
0.7222222222222223
 40
0.7569444444444445
 40
0.7916666666666668
 40
0.8333333333333335
 40
0.8333333333333335
 40
0.8333333333333335
 40
0.8333333333333335
 10
857.0472929743331
 20
1460.015511739152
 30
0.0
 10
857.2413967520567
 20
1460.510523416242
 30
0.0
 10
857.6359018414299
 20
1461.56126961551
 30
0.0
 10
858.2186740530586
 20
1463.381706063104
 30
0.0
 10
858.6453887971599
 20
1464.760084070665
 30
0.0
 10
858.8455903414056
 20
1465.558771337126
 30
0.0
  0
SPLINE
  5
2AA
330
1F1
100
AcDbEntity
  8
P-SANR-FIXT
100
AcDbSpline
210
0.0
220
0.0
230
1.0
 70
     8
 71
     3
 72
     8
 73
     4
 74
     0
 42
0.000000001
 43
0.0000000001
 40
0.861111111111111
 40
0.861111111111111
 40
0.861111111111111
 40
0.861111111111111
 40
1.0
 40
1.0
 40
1.0
 40
1.0
 10
859.1906486047655
 20
1467.221304983339
 30
0.0
 10
859.7707149157189
 20
1470.002982894079
 30
0.0
 10
860.116407443199
 20
1473.000611572001
 30
0.0
 10
860.1164074431988
 20
1476.245878730049
 30
0.0
  0
SPLINE
  5
2AB
330
1F1
100
AcDbEntity
  8
P-SANR-FIXT
100
AcDbSpline
210
0.0
220
0.0
230
1.0
 70
     8
 71
     3
 72
     8
 73
     4
 74
     0
 42
0.000000001
 43
0.0000000001
 40
0.0240417385701834
 40
0.0240417385701834
 40
0.0240417385701834
 40
0.0240417385701834
 40
0.0293136684663748
 40
0.0293136684663748
 40
0.0293136684663748
 40
0.0293136684663748
 10
771.2477704127978
 20
1474.58006443732
 30
0.0
 10
771.2522915385819
 20
1474.459792930892
 30
0.0
 10
771.2572873898282
 20
1474.339862394416
 30
0.0
 10
771.2627487671269
 20
1474.220282232598
 30
0.0
  0
SPLINE
  5
2AC
330
1F1
100
AcDbEntity
  8
P-SANR-FIXT
100
AcDbSpline
210
0.0
220
0.0
230
1.0
 70
     8
 71
     3
 72
     8
 73
     4
 74
     0
 42
0.000000001
 43
0.0000000001
 40
0.9706846912808769
 40
0.9706846912808769
 40
0.9706846912808769
 40
0.9706846912808769
 40
0.975956815662615
 40
0.975956815662615
 40
0.975956815662615
 40
0.975956815662615
 10
771.2615642244189
 20
1474.22371636341
 30
0.0
 10
771.2562129188932
 20
1474.342991222782
 30
0.0
 10
771.2521201852154
 20
1474.463192102044
 30
0.0
 10
771.2488635637939
 20
1474.584008441194
 30
0.0
  0
SPLINE
  5
2AD
330
1F1
100
AcDbEntity
  8
P-SANR-FIXT
100
AcDbSpline
210
0.0
220
0.0
230
1.0
 70
     8
 71
     3
 72
     8
 73
     4
 74
     0
 42
0.000000001
 43
0.0000000001
 40
0.0240420150692712
 40
0.0240420150692712
 40
0.0240420150692712
 40
0.0240420150692712
 40
0.0293136684663822
 40
0.0293136684663822
 40
0.0293136684663822
 40
0.0293136684663822
 10
860.0850437622325
 20
1474.580045513535
 30
0.0
 10
860.0805228237762
 20
1474.459780350799
 30
0.0
 10
860.075527210135
 20
1474.339856122746
 30
0.0
 10
860.0700661192714
 20
1474.220282232598
 30
0.0
  0
SPLINE
  5
2AE
330
1F1
100
AcDbEntity
  8
P-SANR-FIXT
100
AcDbSpline
210
0.0
220
0.0
230
1.0
 70
     8
 71
     3
 72
     8
 73
     4
 74
     0
 42
0.000000001
 43
0.0000000001
 40
0.9706846912808696
 40
0.9706846912808696
 40
0.9706846912808696
 40
0.9706846912808696
 40
0.9759570921751357
 40
0.9759570921751357
 40
0.9759570921751357
 40
0.9759570921751357
 10
860.0712506619792
 20
1474.223716363409
 30
0.0
 10
860.0766022481707
 20
1474.342997478512
 30
0.0
 10
860.0806951393652
 20
1474.463204704061
 30
0.0
 10
860.0839518568418
 20
1474.584027434737
 30
0.0
  0
LINE
  5
2AF
330
1F1
100
AcDbEntity
  8
P-SANR-FIXT
100
AcDbLine
 10
885.7786840914251
 20
1476.964860938874
 30
0.0
 11
885.7786840914251
 21
1476.245878730049
 31
0.0
  0
LINE
  5
2B0
330
1F1
100
AcDbEntity
  8
P-SANR-FIXT
100
AcDbLine
 10
885.7786840914251
 20
1476.245878730048
 30
0.0
 11
885.7786840914247
 21
1446.245878730048
 31
0.0
  0
LINE
  5
2B1
330
1F1
100
AcDbEntity
  8
P-SANR-FIXT
100
AcDbLine
 10
745.5541307949732
 20
1476.964860938875
 30
0.0
 11
745.5541307949732
 21
1476.245878730049
 31
0.0
  0
LINE
  5
2B2
330
1F1
100
AcDbEntity
  8
P-SANR-FIXT
100
AcDbLine
 10
745.5541307949732
 20
1476.245878730049
 30
0.0
 11
745.5541307949731
 21
1446.245878730049
 31
0.0
  0
ENDBLK
  5
2B4
330
1F1
100
AcDbEntity
  8
0
100
AcDbBlockEnd
  0
BLOCK
  5
38B
330
2B6
100
AcDbEntity
  8
0
100
AcDbBlockBegin
  2
Automatic flow rate regulator valve_Caleffi_121 DN15 - 1_2__-V2-Est - Idraulica
 70
     0
 10
0.0
 20
0.0
 30
0.0
  3
Automatic flow rate regulator valve_Caleffi_121 DN15 - 1_2__-V2-Est - Idraulica
  1

  0
LWPOLYLINE
  5
2B7
330
2B6
100
AcDbEntity
  8
P-SANR-FIXT
100
AcDbPolyline
 90
       22
 70
   128
 43
0.0
 10
1183.747908811519
 20
2192.801082258707
 10
1183.458416245484
 20
2195.951620659311
 10
1183.295143175594
 20
2199.111215580201
 10
1183.258350803931
 20
2202.274812343516
 10
1183.34809799044
 20
2205.437349869297
 10
1183.56424115877
 20
2208.593768772145
 10
1183.906434525958
 20
2211.739019455146
 10
1184.374130655614
 20
2214.86807018816
 10
1184.9665813337
 20
2217.975915157508
 10
1185.682838765515
 20
2221.057582474212
 10
1186.521757091961
 20
2224.108142127951
 10
1187.481994222675
 20
2227.122713874031
 10
1188.562013983088
 20
2230.096475040733
 10
1189.760088571975
 20
2233.024668244559
 10
1191.07430132557
 20
2235.90260900103
 10
1192.502549783817
 20
2238.725693218864
 10
1194.042549053859
 20
2241.489404565538
 10
1195.691835465382
 20
2244.189321692458
 10
1197.447770511953
 20
2246.821125308173
 10
1199.30754507208
 20
2249.380605088318
 10
1201.268183903196
 20
2251.863666411239
 10
1202.114353943105
 20
2252.875017409596
  0
LWPOLYLINE
  5
2B8
330
2B6
100
AcDbEntity
  8
P-SANR-FIXT
100
AcDbPolyline
 90
       25
 70
   128
 43
0.0
 10
1165.419007754464
 20
2150.132436941593
 10
1165.322301366791
 20
2152.167955928195
 10
1165.30707138291
 20
2154.205713940772
 10
1165.373342167549
 20
2156.242451001204
 10
1165.521007701588
 20
2158.274908764674
 10
1165.749831751675
 20
2160.299835732328
 10
1166.059448248141
 20
2162.313992452981
 10
1166.44936187064
 20
2164.314156705541
 10
1166.918948840553
 20
2166.297128653886
 10
1167.467457918902
 20
2168.259735965908
 10
1168.094011608171
 20
2170.198838888575
 10
1168.797607556114
 20
2172.111335270864
 10
1169.577120159306
 20
2173.994165526542
 10
1170.431302363871
 20
2175.844317528849
 10
1171.358787660496
 20
2177.658831429257
 10
1172.35809227056
 20
2179.434804392603
 10
1173.427617519861
 20
2181.169395241
 10
1174.565652396152
 20
2182.859828999115
 10
1175.770376286401
 20
2184.503401333544
 10
1177.039861889375
 20
2186.097482879159
 10
1178.37207829892
 20
2187.639523445543
 10
1179.764894252971
 20
2189.127056096739
 10
1181.21608154312
 20
2190.557701097828
 10
1182.723318579273
 20
2191.929169721998
 10
1183.74790881152
 20
2192.801082258706
  0
LINE
  5
2B9
330
2B6
100
AcDbEntity
  8
P-SANR-FIXT
100
AcDbLine
 10
1165.419007754465
 20
2150.132436941588
 30
0.0
 11
1165.419007754465
 21
1845.132436941599
 31
0.0
  0
LWPOLYLINE
  5
2BA
330
2B6
100
AcDbEntity
  8
P-SANR-FIXT
100
AcDbPolyline
 90
       13
 70
   128
 43
0.0
 10
1185.013046998665
 20
1761.42172611955
 10
1181.800709129829
 20
1768.247670478724
 10
1178.863905758775
 20
1775.19661406303
 10
1176.207335144412
 20
1782.257440045096
 10
1173.835247233019
 20
1789.418852609578
 10
1171.751436859235
 20
1796.669395024061
 10
1169.959237675136
 20
1803.997467967381
 10
1168.461516817101
 20
1811.391348086067
 10
1167.260670319007
 20
1818.839206749207
 10
1166.358619279082
 20
1826.329128971733
 10
1165.756806786564
 20
1833.849132475851
 10
1165.456195613061
 20
1841.387186860138
 10
1165.419007754464
 20
1845.132436941601
  0
LWPOLYLINE
  5
2BB
330
2B6
100
AcDbEntity
  8
P-SANR-FIXT
100
AcDbPolyline
 90
       20
 70
   128
 43
0.0
 10
1200.606423809998
 20
1688.060656064515
 10
1198.418417669431
 20
1691.506930109145
 10
1196.369975904871
 20
1695.037944410881
 10
1194.464375586164
 20
1698.648050100081
 10
1192.704665267313
 20
1702.331471777758
 10
1191.093660109443
 20
1706.082316754983
 10
1189.633937377146
 20
1709.894584479929
 10
1188.3278323154
 20
1713.762176137477
 10
1187.177434413684
 20
1717.678904406017
 10
1186.184584063236
 20
1721.638503355844
 10
1185.350869612819
 20
1725.634638473306
 10
1184.677624827705
 20
1729.660916794681
 10
1184.165926755933
 20
1733.710897133547
 10
1183.81659400526
 20
1737.77810038531
 10
1183.630185433567
 20
1741.856019892394
 10
1183.606999254803
 20
1745.938131853495
 10
1183.747072561909
 20
1750.017905760281
 10
1184.050181267475
 20
1754.088814844805
 10
1184.51584046223
 20
1758.144346520948
 10
1185.013046998665
 20
1761.421726119549
  0
LINE
  5
2BC
330
2B6
100
AcDbEntity
  8
P-SANR-FIXT
100
AcDbLine
 10
1202.114353943103
 20
2252.875017409595
 30
0.0
 11
1241.396041905956
 21
2252.875017409595
 31
0.0
  0
SPLINE
  5
2BD
330
2B6
100
AcDbEntity
  8
P-SANR-FIXT
100
AcDbSpline
210
0.0
220
0.0
230
1.0
 70
    24
 71
     3
 72
    13
 73
     9
 74
     0
 42
0.000000001
 43
0.0000000001
 40
-1.0
 40
-1.0
 40
-1.0
 40
-1.0
 40
-0.75
 40
-0.625
 40
-0.5
 40
-0.375
 40
-0.25
 40
0.0
 40
0.0
 40
0.0
 40
0.0
 10
1241.396041905956
 20
2192.801082258705
 30
0.0
 10
1241.396041905956
 20
2198.229606724078
 30
0.0
 10
1241.396041905956
 20
2206.260000753507
 30
0.0
 10
1241.396041905956
 20
2216.946039023149
 30
0.0
 10
1241.396041905956
 20
2224.785296231422
 30
0.0
 10
1241.396041905956
 20
2232.380354803887
 30
0.0
 10
1241.396041905956
 20
2242.10707144469
 30
0.0
 10
1241.396041905956
 20
2248.712595769408
 30
0.0
 10
1241.396041905956
 20
2252.875017409595
 30
0.0
  0
LINE
  5
2BE
330
2B6
100
AcDbEntity
  8
P-SANR-FIXT
100
AcDbLine
 10
1183.747908811517
 20
2192.801082258705
 30
0.0
 11
1241.396041905955
 21
2192.801082258705
 31
0.0
  0
SPLINE
  5
2BF
330
2B6
100
AcDbEntity
  8
P-SANR-FIXT
100
AcDbSpline
210
0.0
220
0.0
230
1.0
 70
    24
 71
     3
 72
    13
 73
     9
 74
     0
 42
0.000000001
 43
0.0000000001
 40
-0.8312490893520102
 40
-0.8312490893520102
 40
-0.8312490893520102
 40
-0.8312490893520102
 40
-0.75
 40
-0.625
 40
-0.5
 40
-0.375
 40
-0.25
 40
0.0
 40
0.0
 40
0.0
 40
0.0
 10
1241.396041905956
 20
2158.272712401505
 30
0.0
 10
1241.396041905956
 20
2159.564001742486
 30
0.0
 10
1241.396041905956
 20
2162.82753597229
 30
0.0
 10
1241.396041905956
 20
2168.034768242777
 30
0.0
 10
1241.396041905956
 20
2173.717359370139
 30
0.0
 10
1241.396041905956
 20
2179.109410508746
 30
0.0
 10
1241.396041905956
 20
2185.852612975443
 30
0.0
 10
1241.396041905956
 20
2190.179479645014
 30
0.0
 10
1241.396041905956
 20
2192.801082258705
 30
0.0
  0
LINE
  5
2C0
330
2B6
100
AcDbEntity
  8
P-SANR-FIXT
100
AcDbLine
 10
1165.419007754462
 20
2150.132436941587
 30
0.0
 11
1227.331741717077
 21
2150.132436941587
 31
0.0
  0
LINE
  5
2C1
330
2B6
100
AcDbEntity
  8
P-SANR-FIXT
100
AcDbLine
 10
1241.396041905956
 20
1918.250187329201
 30
0.0
 11
1241.396041905956
 21
2081.714686554024
 31
0.0
  0
SPLINE
  5
2C2
330
2B6
100
AcDbEntity
  8
P-SANR-FIXT
100
AcDbSpline
210
0.0
220
0.0
230
1.0
 70
    24
 71
     3
 72
    11
 73
     7
 74
     0
 42
0.000000001
 43
0.0000000001
 40
-1.0
 40
-1.0
 40
-1.0
 40
-1.0
 40
-0.75
 40
-0.5
 40
-0.25
 40
-0.03941705612253
 40
-0.03941705612253
 40
-0.03941705612253
 40
-0.03941705612253
 10
1241.396041905956
 20
1761.421726119548
 30
0.0
 10
1241.396041905956
 20
1767.924800745962
 30
0.0
 10
1241.396041905956
 20
1781.200793251786
 30
0.0
 10
1241.396041905956
 20
1802.044327192443
 30
0.0
 10
1241.396041905956
 20
1822.331975089226
 30
0.0
 10
1241.396041905956
 20
1835.599251103189
 30
0.0
 10
1241.396041905956
 20
1841.70172267075
 30
0.0
  0
LINE
  5
2C3
330
2B6
100
AcDbEntity
  8
P-SANR-FIXT
100
AcDbLine
 10
1185.013046998664
 20
1761.421726119548
 30
0.0
 11
1241.396041905956
 21
1761.421726119548
 31
0.0
  0
SPLINE
  5
2C4
330
2B6
100
AcDbEntity
  8
P-SANR-FIXT
100
AcDbSpline
210
0.0
220
0.0
230
1.0
 70
    24
 71
     3
 72
    12
 73
     8
 74
     0
 42
0.000000001
 43
0.0000000001
 40
-1.0
 40
-1.0
 40
-1.0
 40
-1.0
 40
-0.85
 40
-0.7
 40
-0.4
 40
-0.2
 40
0.0
 40
0.0
 40
0.0
 40
0.0
 10
1241.396041905956
 20
1688.060656064514
 30
0.0
 10
1241.396041905956
 20
1691.285538151289
 30
0.0
 10
1241.396041905956
 20
1697.908131081874
 30
0.0
 10
1241.396041905956
 20
1711.961084516083
 30
0.0
 10
1241.396041905956
 20
1728.193828314435
 30
0.0
 10
1241.396041905956
 20
1746.158215058515
 30
0.0
 10
1241.396041905956
 20
1756.331818758321
 30
0.0
 10
1241.396041905956
 20
1761.421726119548
 30
0.0
  0
LINE
  5
2C5
330
2B6
100
AcDbEntity
  8
P-SANR-FIXT
100
AcDbLine
 10
1200.606423809996
 20
1688.060656064514
 30
0.0
 11
1241.396041905956
 21
1688.060656064514
 31
0.0
  0
LINE
  5
2C6
330
2B6
100
AcDbEntity
  8
P-SANR-FIXT
100
AcDbLine
 10
1253.609317835698
 20
1740.282436941535
 30
0.0
 11
1253.609317835698
 21
1744.982436941576
 31
0.0
  0
LINE
  5
2C7
330
2B6
100
AcDbEntity
  8
P-SANR-FIXT
100
AcDbLine
 10
1256.753775360907
 20
1726.763015523732
 30
0.0
 11
1256.753775360907
 21
1740.282436941535
 31
0.0
  0
LINE
  5
2C8
330
2B6
100
AcDbEntity
  8
P-SANR-FIXT
100
AcDbLine
 10
1257.534353943104
 20
1716.482436941535
 30
0.0
 11
1257.534353943104
 21
1726.763015523732
 31
0.0
  0
LINE
  5
2C9
330
2B6
100
AcDbEntity
  8
P-SANR-FIXT
100
AcDbLine
 10
1256.614353943103
 20
1714.982436941518
 30
0.0
 11
1256.614353943103
 21
1716.482436941535
 31
0.0
  0
LINE
  5
2CA
330
2B6
100
AcDbEntity
  8
P-SANR-FIXT
100
AcDbLine
 10
1253.864353943104
 20
1711.982436941518
 30
0.0
 11
1253.864353943104
 21
1714.982436941518
 31
0.0
  0
LINE
  5
2CB
330
2B6
100
AcDbEntity
  8
P-SANR-FIXT
100
AcDbLine
 10
1255.564353943104
 20
1709.982436941547
 30
0.0
 11
1255.564353943104
 21
1711.982436941518
 31
0.0
  0
LINE
  5
2CC
330
2B6
100
AcDbEntity
  8
P-SANR-FIXT
100
AcDbLine
 10
1256.914353943092
 20
1700.982436941547
 30
0.0
 11
1256.914353943092
 21
1709.982436941547
 31
0.0
  0
LINE
  5
2CD
330
2B6
100
AcDbEntity
  8
P-SANR-FIXT
100
AcDbLine
 10
1234.614353943106
 20
1688.060656064515
 30
0.0
 11
1234.614353943106
 21
1678.982436941547
 31
0.0
  0
LINE
  5
2CE
330
2B6
100
AcDbEntity
  8
P-SANR-FIXT
100
AcDbLine
 10
1249.614353943104
 20
1678.982436941547
 30
0.0
 11
1249.614353943104
 21
1700.982436941547
 31
0.0
  0
LINE
  5
2CF
330
2B6
100
AcDbEntity
  8
P-SANR-FIXT
100
AcDbLine
 10
1234.614353943106
 20
1678.982436941547
 30
0.0
 11
1235.614353943106
 21
1677.982436941547
 31
0.0
  0
LINE
  5
2D0
330
2B6
100
AcDbEntity
  8
P-SANR-FIXT
100
AcDbLine
 10
1248.614353943104
 20
1677.982436941547
 30
0.0
 11
1249.614353943104
 21
1678.982436941547
 31
0.0
  0
LINE
  5
2D1
330
2B6
100
AcDbEntity
  8
P-SANR-FIXT
100
AcDbLine
 10
1241.39517631301
 20
1740.282436941534
 30
0.0
 11
1242.114353943103
 21
1740.282436941534
 31
0.0
  0
LINE
  5
2D2
330
2B6
100
AcDbEntity
  8
P-SANR-FIXT
100
AcDbLine
 10
1242.114353943103
 20
1740.282436941534
 30
0.0
 11
1256.753775360905
 21
1740.282436941534
 31
0.0
  0
LINE
  5
2D3
330
2B6
100
AcDbEntity
  8
P-SANR-FIXT
100
AcDbLine
 10
1241.403195264983
 20
1726.763015523731
 30
0.0
 11
1242.114353943103
 21
1726.763015523731
 31
0.0
  0
LINE
  5
2D4
330
2B6
100
AcDbEntity
  8
P-SANR-FIXT
100
AcDbLine
 10
1242.114353943103
 20
1726.763015523731
 30
0.0
 11
1257.533549952364
 21
1726.763015523731
 31
0.0
  0
LINE
  5
2D5
330
2B6
100
AcDbEntity
  8
P-SANR-FIXT
100
AcDbLine
 10
1241.395147739557
 20
1716.482436941534
 30
0.0
 11
1242.114353943103
 21
1716.482436941534
 31
0.0
  0
LINE
  5
2D6
330
2B6
100
AcDbEntity
  8
P-SANR-FIXT
100
AcDbLine
 10
1242.114353943103
 20
1716.482436941534
 30
0.0
 11
1257.534353943102
 21
1716.482436941534
 31
0.0
  0
LINE
  5
2D7
330
2B6
100
AcDbEntity
  8
P-SANR-FIXT
100
AcDbLine
 10
1241.395181908041
 20
1714.982436941518
 30
0.0
 11
1242.114353943103
 21
1714.982436941518
 31
0.0
  0
LINE
  5
2D8
330
2B6
100
AcDbEntity
  8
P-SANR-FIXT
100
AcDbLine
 10
1242.114353943103
 20
1714.982436941518
 30
0.0
 11
1256.614353943101
 21
1714.982436941518
 31
0.0
  0
LINE
  5
2D9
330
2B6
100
AcDbEntity
  8
P-SANR-FIXT
100
AcDbLine
 10
1241.395229788325
 20
1711.982436941517
 30
0.0
 11
1242.114353943103
 21
1711.982436941517
 31
0.0
  0
LINE
  5
2DA
330
2B6
100
AcDbEntity
  8
P-SANR-FIXT
100
AcDbLine
 10
1242.114353943103
 20
1711.982436941517
 30
0.0
 11
1255.564353943102
 21
1711.982436941517
 31
0.0
  0
LINE
  5
2DB
330
2B6
100
AcDbEntity
  8
P-SANR-FIXT
100
AcDbLine
 10
1241.395170063822
 20
1709.982436941546
 30
0.0
 11
1242.114353943103
 21
1709.982436941546
 31
0.0
  0
LINE
  5
2DC
330
2B6
100
AcDbEntity
  8
P-SANR-FIXT
100
AcDbLine
 10
1242.114353943103
 20
1709.982436941546
 30
0.0
 11
1256.914353943089
 21
1709.982436941546
 31
0.0
  0
LINE
  5
2DD
330
2B6
100
AcDbEntity
  8
P-SANR-FIXT
100
AcDbLine
 10
1241.395170063822
 20
1700.982436941546
 30
0.0
 11
1242.114353943103
 21
1700.982436941546
 31
0.0
  0
LINE
  5
2DE
330
2B6
100
AcDbEntity
  8
P-SANR-FIXT
100
AcDbLine
 10
1242.114353943103
 20
1700.982436941546
 30
0.0
 11
1256.914353943089
 21
1700.982436941546
 31
0.0
  0
LINE
  5
2DF
330
2B6
100
AcDbEntity
  8
P-SANR-FIXT
100
AcDbLine
 10
1234.614353943104
 20
1678.982436941546
 30
0.0
 11
1242.114353943103
 21
1678.982436941546
 31
0.0
  0
LINE
  5
2E0
330
2B6
100
AcDbEntity
  8
P-SANR-FIXT
100
AcDbLine
 10
1242.114353943103
 20
1678.982436941546
 30
0.0
 11
1249.614353943102
 21
1678.982436941546
 31
0.0
  0
LINE
  5
2E1
330
2B6
100
AcDbEntity
  8
P-SANR-FIXT
100
AcDbLine
 10
1235.614353943104
 20
1677.982436941546
 30
0.0
 11
1242.114353943103
 21
1677.982436941546
 31
0.0
  0
LINE
  5
2E2
330
2B6
100
AcDbEntity
  8
P-SANR-FIXT
100
AcDbLine
 10
1242.114353943103
 20
1677.982436941546
 30
0.0
 11
1248.614353943102
 21
1677.982436941546
 31
0.0
  0
LINE
  5
2E3
330
2B6
100
AcDbEntity
  8
P-SANR-FIXT
100
AcDbLine
 10
1256.054879079916
 20
1744.982436941576
 30
0.0
 11
1256.054879079916
 21
1757.692074408326
 31
0.0
  0
LINE
  5
2E4
330
2B6
100
AcDbEntity
  8
P-SANR-FIXT
100
AcDbLine
 10
1256.054879079913
 20
1744.982436941576
 30
0.0
 11
1255.910873437704
 21
1744.982436941576
 31
0.0
  0
LINE
  5
2E5
330
2B6
100
AcDbEntity
  8
P-SANR-FIXT
100
AcDbLine
 10
1255.910873437704
 20
1744.982436941576
 30
0.0
 11
1250.730413936281
 21
1744.982436941576
 31
0.0
  0
LINE
  5
2E6
330
2B6
100
AcDbEntity
  8
P-SANR-FIXT
100
AcDbLine
 10
1250.730413936281
 20
1744.982436941576
 30
0.0
 11
1247.265076012931
 21
1744.982436941576
 31
0.0
  0
LINE
  5
2E7
330
2B6
100
AcDbEntity
  8
P-SANR-FIXT
100
AcDbLine
 10
1247.265076012931
 20
1744.982436941576
 30
0.0
 11
1241.396041905956
 21
1744.982436941576
 31
0.0
  0
LINE
  5
2E8
330
2B6
100
AcDbEntity
  8
P-SANR-FIXT
100
AcDbLine
 10
1247.265076012931
 20
1744.982436941576
 30
0.0
 11
1247.265076012931
 21
1757.692074408325
 31
0.0
  0
LINE
  5
2E9
330
2B6
100
AcDbEntity
  8
P-SANR-FIXT
100
AcDbLine
 10
1250.730413936281
 20
1744.982436941576
 30
0.0
 11
1250.730413936281
 21
1757.692074408325
 31
0.0
  0
LINE
  5
2EA
330
2B6
100
AcDbEntity
  8
P-SANR-FIXT
100
AcDbLine
 10
1255.910873437704
 20
1744.982436941576
 30
0.0
 11
1255.910873437704
 21
1757.692074408325
 31
0.0
  0
LWPOLYLINE
  5
2EB
330
2B6
100
AcDbEntity
  8
P-SANR-FIXT
100
AcDbPolyline
 90
       22
 70
   128
 43
0.0
 10
1274.114353943106
 20
1783.982436941514
 10
1273.800590563526
 20
1782.495277062842
 10
1273.427607627806
 20
1781.021853942093
 10
1272.996001829079
 20
1779.564524741946
 10
1272.50646364455
 20
1778.125620878242
 10
1271.959776230886
 20
1776.707444290211
 10
1271.356814171329
 20
1775.312263757868
 10
1270.698542076548
 20
1773.942311272441
 10
1269.986013041471
 20
1772.599778465665
 10
1269.220366960557
 20
1771.286813103641
 10
1268.402828704205
 20
1770.005515650862
 10
1267.534706159227
 20
1768.757935909924
 10
1266.617388136506
 20
1767.546069742278
 10
1265.652342149193
 20
1766.371855875273
 10
1264.641112065004
 20
1765.23717280061
 10
1263.585315636354
 20
1764.143835769157
 10
1262.486641912305
 20
1763.093593886932
 10
1261.346848536446
 20
1762.088127316905
 10
1260.167758935032
 20
1761.129044591101
 10
1258.951259399903
 20
1760.217880037289
 10
1257.699296070807
 20
1759.356091324381
 10
1256.528268179145
 20
1758.614350734475
  0
LINE
  5
2EC
330
2B6
100
AcDbEntity
  8
P-SANR-FIXT
100
AcDbLine
 10
1256.118566137036
 20
1757.692074408326
 30
0.0
 11
1256.528268179145
 21
1758.614350734475
 31
0.0
  0
LINE
  5
2ED
330
2B6
100
AcDbEntity
  8
P-SANR-FIXT
100
AcDbLine
 10
1274.114353943106
 20
1783.982436941514
 30
0.0
 11
1274.114353943106
 21
1811.482436941514
 31
0.0
  0
LINE
  5
2EE
330
2B6
100
AcDbEntity
  8
P-SANR-FIXT
100
AcDbLine
 10
1281.114353943106
 20
1811.482436941514
 30
0.0
 11
1281.114353943106
 21
1813.982436941577
 31
0.0
  0
LINE
  5
2EF
330
2B6
100
AcDbEntity
  8
P-SANR-FIXT
100
AcDbLine
 10
1242.114353943103
 20
1783.982436941513
 30
0.0
 11
1241.395363397777
 21
1783.982436941513
 31
0.0
  0
LINE
  5
2F0
330
2B6
100
AcDbEntity
  8
P-SANR-FIXT
100
AcDbLine
 10
1274.114353943103
 20
1783.982436941513
 30
0.0
 11
1242.114353943103
 21
1783.982436941513
 31
0.0
  0
LINE
  5
2F1
330
2B6
100
AcDbEntity
  8
P-SANR-FIXT
100
AcDbLine
 10
1241.395185444044
 20
1758.614350734474
 30
0.0
 11
1242.114353943103
 21
1758.614350734474
 31
0.0
  0
LINE
  5
2F2
330
2B6
100
AcDbEntity
  8
P-SANR-FIXT
100
AcDbLine
 10
1242.114353943103
 20
1758.614350734474
 30
0.0
 11
1256.528268179143
 21
1758.614350734474
 31
0.0
  0
LINE
  5
2F3
330
2B6
100
AcDbEntity
  8
P-SANR-FIXT
100
AcDbLine
 10
1241.395203175838
 20
1757.692074408326
 30
0.0
 11
1242.114353943103
 21
1757.692074408326
 31
0.0
  0
LINE
  5
2F4
330
2B6
100
AcDbEntity
  8
P-SANR-FIXT
100
AcDbLine
 10
1242.114353943103
 20
1757.692074408326
 30
0.0
 11
1256.118566137033
 21
1757.692074408326
 31
0.0
  0
LINE
  5
2F5
330
2B6
100
AcDbEntity
  8
P-SANR-FIXT
100
AcDbLine
 10
1242.114353943103
 20
1811.482436941513
 30
0.0
 11
1241.395170152161
 21
1811.482436941513
 31
0.0
  0
LINE
  5
2F6
330
2B6
100
AcDbEntity
  8
P-SANR-FIXT
100
AcDbLine
 10
1281.114353943104
 20
1811.482436941513
 30
0.0
 11
1242.114353943103
 21
1811.482436941513
 31
0.0
  0
LINE
  5
2F7
330
2B6
100
AcDbEntity
  8
P-SANR-FIXT
100
AcDbLine
 10
1242.114353943103
 20
2198.982558850026
 30
0.0
 11
1252.054861105043
 21
2198.982558850026
 31
0.0
  0
LINE
  5
2F8
330
2B6
100
AcDbEntity
  8
P-SANR-FIXT
100
AcDbLine
 10
1252.054861105043
 20
2198.982558850026
 30
0.0
 11
1253.221561025349
 21
2198.982558850026
 31
0.0
  0
LINE
  5
2F9
330
2B6
100
AcDbEntity
  8
P-SANR-FIXT
100
AcDbLine
 10
1253.221561025349
 20
2198.982558850026
 30
0.0
 11
1259.028821288355
 21
2198.982558850026
 31
0.0
  0
LINE
  5
2FA
330
2B6
100
AcDbEntity
  8
P-SANR-FIXT
100
AcDbLine
 10
1261.200078009756
 20
2198.982558850026
 30
0.0
 11
1267.321616149704
 21
2198.982558850026
 31
0.0
  0
LINE
  5
2FB
330
2B6
100
AcDbEntity
  8
P-SANR-FIXT
100
AcDbLine
 10
1267.321616149704
 20
2198.982558850026
 30
0.0
 11
1267.804879079914
 21
2198.982558850026
 31
0.0
  0
LINE
  5
2FC
330
2B6
100
AcDbEntity
  8
P-SANR-FIXT
100
AcDbLine
 10
1267.569924829716
 20
2187.310524623139
 30
0.0
 11
1267.321616149704
 21
2187.310524623139
 31
0.0
  0
LINE
  5
2FD
330
2B6
100
AcDbEntity
  8
P-SANR-FIXT
100
AcDbLine
 10
1253.221561025349
 20
2187.310524623139
 30
0.0
 11
1252.054861105043
 21
2187.310524623139
 31
0.0
  0
LINE
  5
2FE
330
2B6
100
AcDbEntity
  8
P-SANR-FIXT
100
AcDbLine
 10
1252.054861105043
 20
2187.310524623139
 30
0.0
 11
1251.92002309782
 21
2187.310524623139
 31
0.0
  0
LINE
  5
2FF
330
2B6
100
AcDbEntity
  8
P-SANR-FIXT
100
AcDbLine
 10
1252.054861105043
 20
2187.310524623139
 30
0.0
 11
1252.054861105043
 21
2198.982558850026
 31
0.0
  0
LINE
  5
300
330
2B6
100
AcDbEntity
  8
P-SANR-FIXT
100
AcDbLine
 10
1253.221561025349
 20
2187.310524623139
 30
0.0
 11
1253.221561025349
 21
2198.982558850026
 31
0.0
  0
LINE
  5
301
330
2B6
100
AcDbEntity
  8
P-SANR-FIXT
100
AcDbLine
 10
1267.321616149704
 20
2187.310524623139
 30
0.0
 11
1267.321616149704
 21
2198.982558850026
 31
0.0
  0
LINE
  5
302
330
2B6
100
AcDbEntity
  8
P-SANR-FIXT
100
AcDbLine
 10
1267.804879079914
 20
2187.310524623139
 30
0.0
 11
1267.804879079914
 21
2198.982558850026
 31
0.0
  0
LINE
  5
303
330
2B6
100
AcDbEntity
  8
P-SANR-FIXT
100
AcDbLine
 10
1267.864353943088
 20
2198.982558850027
 30
0.0
 11
1267.864353943088
 21
2236.482558850111
 31
0.0
  0
LINE
  5
304
330
2B6
100
AcDbEntity
  8
P-SANR-FIXT
100
AcDbLine
 10
1280.373172988189
 20
2183.62928242449
 30
0.0
 11
1270.366835145073
 21
2186.310472568745
 31
0.0
  0
LWPOLYLINE
  5
305
330
2B6
100
AcDbEntity
  8
P-SANR-FIXT
100
AcDbPolyline
 90
       34
 70
   128
 43
0.0
 10
1280.373172988189
 20
2183.62928242449
 10
1280.411592691226
 20
2183.618159785567
 10
1280.449536875673
 20
2183.605509665225
 10
1280.48694483893
 20
2183.591352300957
 10
1280.523756736235
 20
2183.575710341527
 10
1280.559913676406
 20
2183.558608810733
 10
1280.595357816052
 20
2183.540075067375
 10
1280.63003245211
 20
2183.52013876149
 10
1280.663882112558
 20
2183.498831786915
 10
1280.696852645162
 20
2183.476188230262
 10
1280.728891304102
 20
2183.452244316394
 10
1280.759946834359
 20
2183.427038350463
 10
1280.789969553709
 20
2183.400610656638
 10
1280.818911432205
 20
2183.373003513593
 10
1280.846726169017
 20
2183.344261086867
 10
1280.873369266498
 20
2183.31442935821
 10
1280.898798101377
 20
2183.283556052025
 10
1280.922971992941
 20
2183.251690559016
 10
1280.945852268122
 20
2183.218883857175
 10
1280.967402323359
 20
2183.185188430226
 10
1280.987587683162
 20
2183.150658183663
 10
1281.00637605526
 20
2183.115348358516
 10
1281.023737382267
 20
2183.079315442972
 10
1281.039643889763
 20
2183.042617082009
 10
1281.054070130729
 20
2183.005311985177
 10
1281.066993026257
 20
2182.967459832673
 10
1281.07839190247
 20
2182.929121179865
 10
1281.088248523599
 20
2182.89035736042
 10
1281.096547121152
 20
2182.851230388179
 10
1281.103274419144
 20
2182.811802857953
 10
1281.108419655332
 20
2182.772137845378
 10
1281.111974598437
 20
2182.732298806012
 10
1281.113933561307
 20
2182.692349473821
 10
1281.114353943086
 20
2182.663356598201
  0
LINE
  5
306
330
2B6
100
AcDbEntity
  8
P-SANR-FIXT
100
AcDbLine
 10
1281.114353943086
 20
2180.982558850048
 30
0.0
 11
1281.114353943086
 21
2182.663356598201
 31
0.0
  0
LWPOLYLINE
  5
307
330
2B6
100
AcDbEntity
  8
P-SANR-FIXT
100
AcDbPolyline
 90
       37
 70
   128
 43
0.0
 10
1269.691990693998
 20
2187.310524623141
 10
1269.688253926714
 20
2187.273929945275
 10
1269.685983545248
 20
2187.237215108413
 10
1269.685183181726
 20
2187.200438848461
 10
1269.685854116558
 20
2187.16365999959
 10
1269.687995276394
 20
2187.126937400113
 10
1269.691603235832
 20
2187.090329798354
 10
1269.696672222908
 20
2187.053895758668
 10
1269.703194128324
 20
2187.017693567746
 10
1269.711158518421
 20
2186.98178114137
 10
1269.720552651877
 20
2186.946215931763
 10
1269.73136150008
 20
2186.911054835671
 10
1269.743567771179
 20
2186.87635410335
 10
1269.757151937745
 20
2186.842169248567
 10
1269.772092268008
 20
2186.808554959798
 10
1269.788364860628
 20
2186.775565012734
 10
1269.805943682927
 20
2186.743252184254
 10
1269.82480061254
 20
2186.71166816799
 10
1269.844905482402
 20
2186.680863491629
 10
1269.86622612901
 20
2186.650887436084
 10
1269.888728443878
 20
2186.621787956649
 10
1269.912376428101
 20
2186.593611606282
 10
1269.93713224995
 20
2186.566403461135
 10
1269.962956305392
 20
2186.540207048434
 10
1269.989807281445
 20
2186.515064276852
 10
1270.017642222277
 20
2186.491015369461
 10
1270.046416597919
 20
2186.468098799382
 10
1270.076084375509
 20
2186.446351228237
 10
1270.106598092932
 20
2186.425807447503
 10
1270.137908934749
 20
2186.406500322846
 10
1270.169966810292
 20
2186.388460741545
 10
1270.202720433799
 20
2186.371717563085
 10
1270.23611740646
 20
2186.356297572977
 10
1270.270104300242
 20
2186.342225439918
 10
1270.304626743366
 20
2186.329523676317
 10
1270.339629507287
 20
2186.318212602287
 10
1270.366835145073
 20
2186.310472568745
  0
LINE
  5
308
330
2B6
100
AcDbEntity
  8
P-SANR-FIXT
100
AcDbLine
 10
1242.114353943103
 20
2187.310524623139
 30
0.0
 11
1241.395384359445
 21
2187.310524623139
 31
0.0
  0
LINE
  5
309
330
2B6
100
AcDbEntity
  8
P-SANR-FIXT
100
AcDbLine
 10
1269.691990693995
 20
2187.310524623139
 30
0.0
 11
1267.821035215064
 21
2187.310524623139
 31
0.0
  0
LINE
  5
30A
330
2B6
100
AcDbEntity
  8
P-SANR-FIXT
100
AcDbLine
 10
1267.740296604448
 20
2187.310524623139
 30
0.0
 11
1267.341755798292
 21
2187.310524623139
 31
0.0
  0
LINE
  5
30B
330
2B6
100
AcDbEntity
  8
P-SANR-FIXT
100
AcDbLine
 10
1267.337846223496
 20
2187.310524623139
 30
0.0
 11
1253.25456239721
 21
2187.310524623139
 31
0.0
  0
LINE
  5
30C
330
2B6
100
AcDbEntity
  8
P-SANR-FIXT
100
AcDbLine
 10
1253.228674003405
 20
2187.310524623139
 30
0.0
 11
1252.061150122281
 21
2187.310524623139
 31
0.0
  0
LINE
  5
30D
330
2B6
100
AcDbEntity
  8
P-SANR-FIXT
100
AcDbLine
 10
1252.01881414642
 20
2187.310524623139
 30
0.0
 11
1242.114353943103
 21
2187.310524623139
 31
0.0
  0
LINE
  5
30E
330
2B6
100
AcDbEntity
  8
P-SANR-FIXT
100
AcDbLine
 10
1258.837641187594
 20
2198.982558850026
 30
0.0
 11
1261.694807557291
 21
2198.982558850026
 31
0.0
  0
LINE
  5
30F
330
2B6
100
AcDbEntity
  8
P-SANR-FIXT
100
AcDbLine
 10
1267.81978204931
 20
2198.982558850026
 30
0.0
 11
1267.864353943086
 21
2198.982558850026
 31
0.0
  0
LINE
  5
310
330
2B6
100
AcDbEntity
  8
P-SANR-FIXT
100
AcDbLine
 10
1236.614353943105
 20
2263.982558850189
 30
0.0
 11
1236.614353943105
 21
2252.875017409596
 31
0.0
  0
LINE
  5
311
330
2B6
100
AcDbEntity
  8
P-SANR-FIXT
100
AcDbLine
 10
1247.614353943105
 20
2252.482558850189
 30
0.0
 11
1247.614353943105
 21
2263.982558850189
 31
0.0
  0
LINE
  5
312
330
2B6
100
AcDbEntity
  8
P-SANR-FIXT
100
AcDbLine
 10
1245.114353943105
 20
2248.982558850096
 30
0.0
 11
1245.114353943105
 21
2252.482558850189
 31
0.0
  0
LINE
  5
313
330
2B6
100
AcDbEntity
  8
P-SANR-FIXT
100
AcDbLine
 10
1249.364353943105
 20
2245.982558850033
 30
0.0
 11
1249.364353943105
 21
2248.982558850096
 31
0.0
  0
LINE
  5
314
330
2B6
100
AcDbEntity
  8
P-SANR-FIXT
100
AcDbLine
 10
1236.614353943103
 20
2263.982558850187
 30
0.0
 11
1242.114353943103
 21
2263.982558850187
 31
0.0
  0
LINE
  5
315
330
2B6
100
AcDbEntity
  8
P-SANR-FIXT
100
AcDbLine
 10
1242.114353943103
 20
2263.982558850187
 30
0.0
 11
1247.614353943103
 21
2263.982558850187
 31
0.0
  0
LINE
  5
316
330
2B6
100
AcDbEntity
  8
P-SANR-FIXT
100
AcDbLine
 10
1241.394453684209
 20
2252.482558850187
 30
0.0
 11
1242.114353943103
 21
2252.482558850187
 31
0.0
  0
LINE
  5
317
330
2B6
100
AcDbEntity
  8
P-SANR-FIXT
100
AcDbLine
 10
1242.114353943103
 20
2252.482558850187
 30
0.0
 11
1247.614353943103
 21
2252.482558850187
 31
0.0
  0
LINE
  5
318
330
2B6
100
AcDbEntity
  8
P-SANR-FIXT
100
AcDbLine
 10
1241.393574728844
 20
2248.982558850094
 30
0.0
 11
1242.114353943103
 21
2248.982558850094
 31
0.0
  0
LINE
  5
319
330
2B6
100
AcDbEntity
  8
P-SANR-FIXT
100
AcDbLine
 10
1242.114353943103
 20
2248.982558850094
 30
0.0
 11
1249.364353943103
 21
2248.982558850094
 31
0.0
  0
LINE
  5
31A
330
2B6
100
AcDbEntity
  8
P-SANR-FIXT
100
AcDbLine
 10
1242.114353943105
 20
2245.982558850027
 30
0.0
 11
1241.396041905958
 21
2245.982558850027
 31
0.0
  0
LWPOLYLINE
  5
31B
330
2B6
100
AcDbEntity
  8
P-SANR-FIXT
100
AcDbPolyline
 90
       41
 70
   128
 43
0.0
 10
1267.614353943085
 20
2245.982558850027
 10
1267.694332611459
 20
2245.980959063349
 10
1267.774183331024
 20
2245.976162262632
 10
1267.853778357663
 20
2245.968176121735
 10
1267.932990356314
 20
2245.957013416779
 10
1268.011692604675
 20
2245.94269200571
 10
1268.08975919594
 20
2245.925234799731
 10
1268.167065240214
 20
2245.904669726649
 10
1268.243487064317
 20
2245.881029686192
 10
1268.318902409635
 20
2245.854352497383
 10
1268.393190627703
 20
2245.824680838033
 10
1268.466232873217
 20
2245.792062176468
 10
1268.537912294168
 20
2245.756548695586
 10
1268.608114218773
 20
2245.718197209383
 10
1268.676726338927
 20
2245.677069072054
 10
1268.743638889876
 20
2245.633230079847
 10
1268.80874482581
 20
2245.586750365796
 10
1268.871939991123
 20
2245.53770428753
 10
1268.933123287028
 20
2245.486170308309
 10
1268.992196833307
 20
2245.432230871509
 10
1269.049066124885
 20
2245.375972268722
 10
1269.103640183027
 20
2245.31748450171
 10
1269.155831700883
 20
2245.256861138424
 10
1269.205557183158
 20
2245.194199163314
 10
1269.252737079687
 20
2245.129598822172
 10
1269.297295912701
 20
2245.063163461764
 10
1269.339162397572
 20
2244.994999364493
 10
1269.378269556855
 20
2244.925215578374
 10
1269.414554827438
 20
2244.853923742581
 10
1269.447960160629
 20
2244.78123790884
 10
1269.47843211502
 20
2244.707274358981
 10
1269.505921941985
 20
2244.632151418905
 10
1269.530385663664
 20
2244.555989269291
 10
1269.551784143322
 20
2244.478909753332
 10
1269.570083147956
 20
2244.40103618181
 10
1269.585253403063
 20
2244.322493135828
 10
1269.597270639469
 20
2244.243406267504
 10
1269.606115632161
 20
2244.163902098956
 10
1269.611774231037
 20
2244.084107819894
 10
1269.614237383545
 20
2244.004151084144
 10
1269.614353943085
 20
2243.982558850027
  0
LWPOLYLINE
  5
31C
330
2B6
100
AcDbEntity
  8
P-SANR-FIXT
100
AcDbPolyline
 90
       34
 70
   128
 43
0.0
 10
1249.364353943106
 20
2245.982558850027
 10
1250.13580123881
 20
2245.982558850027
 10
1251.097346891613
 20
2245.982558850027
 10
1252.044521671968
 20
2245.982558850027
 10
1252.97581030228
 20
2245.982558850027
 10
1253.889722919404
 20
2245.982558850027
 10
1254.784797458111
 20
2245.982558850027
 10
1255.659601990078
 20
2245.982558850027
 10
1256.512737014668
 20
2245.982558850027
 10
1257.342837697835
 20
2245.982558850027
 10
1258.148576055564
 20
2245.982558850027
 10
1258.928663078365
 20
2245.982558850027
 10
1259.681850793411
 20
2245.982558850027
 10
1260.406934261029
 20
2245.982558850027
 10
1261.102753502348
 20
2245.982558850027
 10
1261.768195355014
 20
2245.982558850027
 10
1262.402195254017
 20
2245.982558850027
 10
1263.003738934765
 20
2245.982558850027
 10
1263.57186405569
 20
2245.982558850027
 10
1264.105661737793
 20
2245.982558850027
 10
1264.604278018654
 20
2245.982558850027
 10
1265.066915218588
 20
2245.982558850027
 10
1265.492833216767
 20
2245.982558850027
 10
1265.881350635251
 20
2245.982558850027
 10
1266.23184592905
 20
2245.982558850027
 10
1266.543758380462
 20
2245.982558850027
 10
1266.816588996102
 20
2245.982558850027
 10
1267.049901305186
 20
2245.982558850027
 10
1267.243322057792
 20
2245.982558850027
 10
1267.396541821973
 20
2245.982558850027
 10
1267.509315478795
 20
2245.982558850027
 10
1267.581462614463
 20
2245.982558850027
 10
1267.61286780895
 20
2245.982558850027
 10
1267.614353943085
 20
2245.982558850027
  0
LWPOLYLINE
  5
31D
330
2B6
100
AcDbEntity
  8
P-SANR-FIXT
100
AcDbPolyline
 90
       41
 70
   128
 43
0.0
 10
1267.614353943085
 20
2245.982558850027
 10
1267.59395666294
 20
2245.982558850027
 10
1267.532797453802
 20
2245.982558850027
 10
1267.430974157359
 20
2245.982558850027
 10
1267.288649669164
 20
2245.982558850027
 10
1267.106051678037
 20
2245.982558850027
 10
1266.883472301813
 20
2245.982558850027
 10
1266.621267620011
 20
2245.982558850027
 10
1266.319857104189
 20
2245.982558850027
 10
1265.979722946874
 20
2245.982558850027
 10
1265.601409290161
 20
2245.982558850027
 10
1265.185521355197
 20
2245.982558850027
 10
1264.73272447396
 20
2245.982558850027
 10
1264.243743024868
 20
2245.982558850027
 10
1263.719359273931
 20
2245.982558850027
 10
1263.160412123286
 20
2245.982558850027
 10
1262.567795769139
 20
2245.982558850027
 10
1261.942458271239
 20
2245.982558850027
 10
1261.285400036183
 20
2245.982558850027
 10
1260.597672216984
 20
2245.982558850027
 10
1259.880375031444
 20
2245.982558850027
 10
1259.134656002045
 20
2245.982558850027
 10
1258.361708120157
 20
2245.982558850027
 10
1257.562767937502
 20
2245.982558850027
 10
1256.739113587941
 20
2245.982558850027
 10
1255.892062742732
 20
2245.982558850027
 10
1255.022970502531
 20
2245.982558850027
 10
1254.133227229526
 20
2245.982558850027
 10
1253.224256323153
 20
2245.982558850027
 10
1252.297511942957
 20
2245.982558850027
 10
1251.354476682253
 20
2245.982558850027
 10
1250.396659196288
 20
2245.982558850027
 10
1249.425591788714
 20
2245.982558850027
 10
1248.442827960236
 20
2245.982558850027
 10
1247.449939923332
 20
2245.982558850027
 10
1246.448516087058
 20
2245.982558850027
 10
1245.440158515925
 20
2245.982558850027
 10
1244.426480366943
 20
2245.982558850027
 10
1243.40910330891
 20
2245.982558850027
 10
1242.389654928091
 20
2245.982558850027
 10
1242.114353943105
 20
2245.982558850027
  0
LINE
  5
31E
330
2B6
100
AcDbEntity
  8
P-SANR-FIXT
100
AcDbLine
 10
1269.614353943085
 20
2236.482558850111
 30
0.0
 11
1269.614353943085
 21
2243.982558850027
 31
0.0
  0
LINE
  5
31F
330
2B6
100
AcDbEntity
  8
P-SANR-FIXT
100
AcDbLine
 10
1242.114353943103
 20
2236.482558850109
 30
0.0
 11
1241.395384820085
 21
2236.482558850109
 31
0.0
  0
LINE
  5
320
330
2B6
100
AcDbEntity
  8
P-SANR-FIXT
100
AcDbLine
 10
1269.614353943083
 20
2236.482558850109
 30
0.0
 11
1242.114353943103
 21
2236.482558850109
 31
0.0
  0
LINE
  5
321
330
2B6
100
AcDbEntity
  8
P-SANR-FIXT
100
AcDbLine
 10
1319.114353943105
 20
2107.482436941584
 30
0.0
 11
1322.114353943134
 21
2107.482436941584
 31
0.0
  0
LINE
  5
322
330
2B6
100
AcDbEntity
  8
P-SANR-FIXT
100
AcDbLine
 10
1322.114353943134
 20
2132.482436941572
 30
0.0
 11
1319.114353943105
 21
2132.482436941572
 31
0.0
  0
LINE
  5
323
330
2B6
100
AcDbEntity
  8
P-SANR-FIXT
100
AcDbLine
 10
1322.114353943132
 20
2119.982436941576
 30
0.0
 11
1322.114353943132
 21
2107.482436941582
 31
0.0
  0
LINE
  5
324
330
2B6
100
AcDbEntity
  8
P-SANR-FIXT
100
AcDbLine
 10
1322.114353943132
 20
2132.48243694157
 30
0.0
 11
1322.114353943132
 21
2119.982436941576
 31
0.0
  0
LINE
  5
325
330
2B6
100
AcDbEntity
  8
P-SANR-FIXT
100
AcDbLine
 10
1319.114353943103
 20
2119.982436941576
 30
0.0
 11
1319.114353943103
 21
2132.48243694157
 31
0.0
  0
LINE
  5
326
330
2B6
100
AcDbEntity
  8
P-SANR-FIXT
100
AcDbLine
 10
1319.114353943103
 20
2107.482436941582
 30
0.0
 11
1319.114353943103
 21
2119.982436941576
 31
0.0
  0
LINE
  5
327
330
2B6
100
AcDbEntity
  8
P-SANR-FIXT
100
AcDbLine
 10
1326.414353943164
 20
2119.982436941575
 30
0.0
 11
1326.414353943164
 21
2110.982436941575
 31
0.0
  0
LINE
  5
328
330
2B6
100
AcDbEntity
  8
P-SANR-FIXT
100
AcDbLine
 10
1326.414353943164
 20
2128.982436941576
 30
0.0
 11
1326.414353943164
 21
2119.982436941575
 31
0.0
  0
LINE
  5
329
330
2B6
100
AcDbEntity
  8
P-SANR-FIXT
100
AcDbLine
 10
1326.414353943164
 20
2119.982436941575
 30
0.0
 11
1322.114353943132
 21
2119.982436941575
 31
0.0
  0
LINE
  5
32A
330
2B6
100
AcDbEntity
  8
P-SANR-FIXT
100
AcDbLine
 10
1322.114353943132
 20
2110.982436941575
 30
0.0
 11
1326.414353943164
 21
2110.982436941575
 31
0.0
  0
LINE
  5
32B
330
2B6
100
AcDbEntity
  8
P-SANR-FIXT
100
AcDbLine
 10
1322.114353943132
 20
2128.982436941576
 30
0.0
 11
1326.414353943164
 21
2128.982436941576
 31
0.0
  0
LINE
  5
32C
330
2B6
100
AcDbEntity
  8
P-SANR-FIXT
100
AcDbLine
 10
1266.911211766172
 20
1885.033019324015
 30
0.0
 11
1258.871846785937
 21
1898.957607930371
 31
0.0
  0
ARC
  5
32D
330
2B6
100
AcDbEntity
  8
P-SANR-FIXT
100
AcDbCircle
 10
1242.084616511508
 20
1879.982436941577
 30
0.0
 40
25.33511820261937
100
AcDbArc
 50
48.50098729939468
 51
71.31634084900548
  0
LINE
  5
32E
330
2B6
100
AcDbEntity
  8
P-SANR-FIXT
100
AcDbLine
 10
1250.200540016633
 20
1903.98243694157
 30
0.0
 11
1233.968693006383
 21
1903.98243694157
 31
0.0
  0
ARC
  5
32F
330
2B6
100
AcDbEntity
  8
P-SANR-FIXT
100
AcDbCircle
 10
1242.084616511508
 20
1879.982436941577
 30
0.0
 40
25.33511820261908
100
AcDbArc
 50
108.6836591509936
 51
131.1353752339526
  0
LINE
  5
330
330
2B6
100
AcDbEntity
  8
P-SANR-FIXT
100
AcDbLine
 10
1225.418152693128
 20
1899.063768083071
 30
0.0
 11
1217.226467095761
 21
1884.875352428801
 31
0.0
  0
ARC
  5
331
330
2B6
100
AcDbEntity
  8
P-SANR-FIXT
100
AcDbCircle
 10
1242.084616511508
 20
1879.982436941577
 30
0.0
 40
25.33511820261916
100
AcDbArc
 50
168.8646247660464
 51
191.1353752337047
  0
LINE
  5
332
330
2B6
100
AcDbEntity
  8
P-SANR-FIXT
100
AcDbLine
 10
1217.22646709574
 20
1875.089521454461
 30
0.0
 11
1225.418152693211
 21
1860.901105800011
 31
0.0
  0
ARC
  5
333
330
2B6
100
AcDbEntity
  8
P-SANR-FIXT
100
AcDbCircle
 10
1242.084616511508
 20
1879.982436941577
 30
0.0
 40
25.33511820261922
100
AcDbArc
 50
228.8646247662947
 51
251.3163408485049
  0
LINE
  5
334
330
2B6
100
AcDbEntity
  8
P-SANR-FIXT
100
AcDbLine
 10
1233.968693006173
 20
1855.982436941655
 30
0.0
 11
1250.200540016843
 21
1855.982436941655
 31
0.0
  0
ARC
  5
335
330
2B6
100
AcDbEntity
  8
P-SANR-FIXT
100
AcDbCircle
 10
1242.084616511508
 20
1879.982436941577
 30
0.0
 40
25.33511820261946
100
AcDbArc
 50
288.6836591514951
 51
311.4990127003516
  0
LINE
  5
336
330
2B6
100
AcDbEntity
  8
P-SANR-FIXT
100
AcDbLine
 10
1258.871846785854
 20
1861.007265952709
 30
0.0
 11
1266.911211766194
 21
1874.931854559249
 31
0.0
  0
ARC
  5
337
330
2B6
100
AcDbEntity
  8
P-SANR-FIXT
100
AcDbCircle
 10
1242.084616511508
 20
1879.982436941577
 30
0.0
 40
25.33511820261944
100
AcDbArc
 50
348.5009872996486
 51
11.49901270060398
  0
ARC
  5
338
330
2B6
100
AcDbEntity
  8
P-SANR-FIXT
100
AcDbCircle
 10
1242.114353943102
 20
1879.982436941591
 30
0.0
 40
15.89999999999986
100
AcDbArc
 50
90.0
 51
269.9999999999997
  0
ARC
  5
339
330
2B6
100
AcDbEntity
  8
P-SANR-FIXT
100
AcDbCircle
 10
1242.114353943102
 20
1879.982436941591
 30
0.0
 40
15.89999999999986
100
AcDbArc
 50
269.9999999999997
 51
89.9999999999992
  0
LWPOLYLINE
  5
33A
330
2B6
100
AcDbEntity
  8
P-SANR-FIXT
100
AcDbPolyline
 90
        3
 70
   128
 43
0.0
 10
1242.114353943102
 20
1854.632436941581
 10
1237.825664570023
 20
1854.997848822877
 10
1233.968693006173
 20
1855.982436941655
  0
LWPOLYLINE
  5
33B
330
2B6
100
AcDbEntity
  8
P-SANR-FIXT
100
AcDbPolyline
 90
        3
 70
   128
 43
0.0
 10
1225.418152693211
 20
1860.901105800011
 10
1220.137594171579
 20
1867.347385301598
 10
1217.248613894072
 20
1875.051162074526
  0
LWPOLYLINE
  5
33C
330
2B6
100
AcDbEntity
  8
P-SANR-FIXT
100
AcDbPolyline
 90
        3
 70
   128
 43
0.0
 10
1217.226467095761
 20
1884.875352428801
 10
1220.105100647613
 20
1892.560802072859
 10
1225.410874610613
 20
1899.051162074373
  0
LWPOLYLINE
  5
33D
330
2B6
100
AcDbEntity
  8
P-SANR-FIXT
100
AcDbPolyline
 90
        3
 70
   128
 43
0.0
 10
1233.968693006383
 20
1903.98243694157
 10
1237.8711683293
 20
1904.974793290028
 10
1242.114353943102
 20
1905.3324369416
  0
LWPOLYLINE
  5
33E
330
2B6
100
AcDbEntity
  8
P-SANR-FIXT
100
AcDbPolyline
 90
        3
 70
   128
 43
0.0
 10
1242.114353943102
 20
1905.3324369416
 10
1246.361506929221
 20
1904.974119388216
 10
1250.200540016633
 20
1903.98243694157
  0
LWPOLYLINE
  5
33F
330
2B6
100
AcDbEntity
  8
P-SANR-FIXT
100
AcDbPolyline
 90
        3
 70
   128
 43
0.0
 10
1258.871846785937
 20
1898.957607930371
 10
1264.022751124839
 20
1892.73565743399
 10
1266.911211766172
 20
1885.033019324015
  0
LWPOLYLINE
  5
340
330
2B6
100
AcDbEntity
  8
P-SANR-FIXT
100
AcDbPolyline
 90
        3
 70
   128
 43
0.0
 10
1266.911211766194
 20
1874.931854559249
 10
1264.052180198439
 20
1867.279906516863
 10
1258.871846785854
 20
1861.007265952709
  0
LWPOLYLINE
  5
341
330
2B6
100
AcDbEntity
  8
P-SANR-FIXT
100
AcDbPolyline
 90
        3
 70
   128
 43
0.0
 10
1250.200540016843
 20
1855.982436941655
 10
1246.353959209589
 20
1854.989472988012
 10
1242.114353943102
 20
1854.632436941581
  0
ARC
  5
342
330
2B6
100
AcDbEntity
  8
P-SANR-FIXT
100
AcDbCircle
 10
1242.114353943102
 20
1879.98243694159
 30
0.0
 40
33.49999999989877
100
AcDbArc
 50
90.00000000000019
 51
120.0
  0
ARC
  5
343
330
2B6
100
AcDbEntity
  8
P-SANR-FIXT
100
AcDbCircle
 10
1242.114353943102
 20
1879.98243694159
 30
0.0
 40
33.49999999989883
100
AcDbArc
 50
119.9999999999997
 51
179.9999999999992
  0
ARC
  5
344
330
2B6
100
AcDbEntity
  8
P-SANR-FIXT
100
AcDbCircle
 10
1242.114353943102
 20
1879.98243694159
 30
0.0
 40
33.49999999989871
100
AcDbArc
 50
179.9999999999994
 51
239.9999999999992
  0
ARC
  5
345
330
2B6
100
AcDbEntity
  8
P-SANR-FIXT
100
AcDbCircle
 10
1242.114353943102
 20
1879.98243694159
 30
0.0
 40
33.49999999989895
100
AcDbArc
 50
239.9999999999995
 51
269.9999999999997
  0
ARC
  5
346
330
2B6
100
AcDbEntity
  8
P-SANR-FIXT
100
AcDbCircle
 10
1242.114353943102
 20
1879.98243694159
 30
0.0
 40
33.49999999989905
100
AcDbArc
 50
269.9999999999997
 51
299.9999999999998
  0
ARC
  5
347
330
2B6
100
AcDbEntity
  8
P-SANR-FIXT
100
AcDbCircle
 10
1242.114353943102
 20
1879.98243694159
 30
0.0
 40
33.49999999989891
100
AcDbArc
 50
299.999999999999
 51
359.9999999999992
  0
ARC
  5
348
330
2B6
100
AcDbEntity
  8
P-SANR-FIXT
100
AcDbCircle
 10
1242.114353943102
 20
1879.98243694159
 30
0.0
 40
33.49999999989905
100
AcDbArc
 50
0.0
 51
59.99999999999956
  0
ARC
  5
349
330
2B6
100
AcDbEntity
  8
P-SANR-FIXT
100
AcDbCircle
 10
1242.114353943102
 20
1879.98243694159
 30
0.0
 40
33.49999999989897
100
AcDbArc
 50
59.99999999999907
 51
89.99999999999884
  0
SPLINE
  5
34A
330
2B6
100
AcDbEntity
  8
P-SANR-FIXT
100
AcDbSpline
210
0.0
220
0.0
230
1.0
 70
    24
 71
     3
 72
     9
 73
     5
 74
     0
 42
0.000000001
 43
0.0000000001
 40
0.0
 40
0.0
 40
0.0
 40
0.0
 40
0.5
 40
1.0
 40
1.0
 40
1.0
 40
1.0
 10
1275.614353943101
 20
1899.323670959429
 30
0.0
 10
1275.614353943101
 20
1896.155576415588
 30
0.0
 10
1275.614353943101
 20
1889.763942868775
 30
0.0
 10
1275.614353943101
 20
1883.261420403696
 30
0.0
 10
1275.614353943101
 20
1879.982436941591
 30
0.0
  0
SPLINE
  5
34B
330
2B6
100
AcDbEntity
  8
P-SANR-FIXT
100
AcDbSpline
210
0.0
220
0.0
230
1.0
 70
    24
 71
     3
 72
     9
 73
     5
 74
     0
 42
0.000000001
 43
0.0000000001
 40
0.0
 40
0.0
 40
0.0
 40
0.0
 40
0.5
 40
1.0
 40
1.0
 40
1.0
 40
1.0
 10
1275.614353943101
 20
1879.982436941591
 30
0.0
 10
1275.614353943101
 20
1876.703453479493
 30
0.0
 10
1275.614353943101
 20
1870.200931014429
 30
0.0
 10
1275.614353943101
 20
1863.80929746763
 30
0.0
 10
1275.614353943101
 20
1860.641202923796
 30
0.0
  0
SPLINE
  5
34C
330
2B6
100
AcDbEntity
  8
P-SANR-FIXT
100
AcDbSpline
210
0.0
220
0.0
230
1.0
 70
    24
 71
     3
 72
     9
 73
     5
 74
     0
 42
0.000000001
 43
0.0000000001
 40
0.0
 40
0.0
 40
0.0
 40
0.0
 40
0.5
 40
1.0
 40
1.0
 40
1.0
 40
1.0
 10
1275.614353943101
 20
1860.641202923796
 30
0.0
 10
1272.87070358654
 20
1859.057155651873
 30
0.0
 10
1267.335386563308
 20
1855.861338878461
 30
0.0
 10
1261.704036919857
 20
1852.610077645913
 30
0.0
 10
1258.864353943077
 20
1850.970585914856
 30
0.0
  0
SPLINE
  5
34D
330
2B6
100
AcDbEntity
  8
P-SANR-FIXT
100
AcDbSpline
210
0.0
220
0.0
230
1.0
 70
    24
 71
     3
 72
     9
 73
     5
 74
     0
 42
0.000000001
 43
0.0000000001
 40
0.0
 40
0.0
 40
0.0
 40
0.0
 40
0.5
 40
1.0
 40
1.0
 40
1.0
 40
1.0
 10
1258.864353943077
 20
1850.970585914856
 30
0.0
 10
1256.024670966316
 20
1849.33109418381
 30
0.0
 10
1250.393321322904
 20
1846.079832951284
 30
0.0
 10
1244.858004299707
 20
1842.884016177892
 30
0.0
 10
1242.114353943164
 20
1841.299968905979
 30
0.0
  0
SPLINE
  5
34E
330
2B6
100
AcDbEntity
  8
P-SANR-FIXT
100
AcDbSpline
210
0.0
220
0.0
230
1.0
 70
    24
 71
     3
 72
     9
 73
     5
 74
     0
 42
0.000000001
 43
0.0000000001
 40
0.0
 40
0.0
 40
0.0
 40
0.0
 40
0.5
 40
1.0
 40
1.0
 40
1.0
 40
1.0
 10
1242.114353943164
 20
1841.299968905979
 30
0.0
 10
1239.370703586607
 20
1842.8840161779
 30
0.0
 10
1233.835386563383
 20
1846.079832951308
 30
0.0
 10
1228.204036919936
 20
1849.331094183853
 30
0.0
 10
1225.364353943158
 20
1850.970585914909
 30
0.0
  0
SPLINE
  5
34F
330
2B6
100
AcDbEntity
  8
P-SANR-FIXT
100
AcDbSpline
210
0.0
220
0.0
230
1.0
 70
    24
 71
     3
 72
     9
 73
     5
 74
     0
 42
0.000000001
 43
0.0000000001
 40
0.0
 40
0.0
 40
0.0
 40
0.0
 40
0.5
 40
1.0
 40
1.0
 40
1.0
 40
1.0
 10
1225.364353943158
 20
1850.970585914909
 30
0.0
 10
1222.524670966393
 20
1852.610077645958
 30
0.0
 10
1216.893321322972
 20
1855.861338878488
 30
0.0
 10
1211.358004299771
 20
1859.057155651882
 30
0.0
 10
1208.614353943226
 20
1860.641202923796
 30
0.0
  0
SPLINE
  5
350
330
2B6
100
AcDbEntity
  8
P-SANR-FIXT
100
AcDbSpline
210
0.0
220
0.0
230
1.0
 70
    24
 71
     3
 72
     9
 73
     5
 74
     0
 42
0.000000001
 43
0.0000000001
 40
0.0
 40
0.0
 40
0.0
 40
0.0
 40
0.5
 40
1.0
 40
1.0
 40
1.0
 40
1.0
 10
1208.614353943226
 20
1860.641202923796
 30
0.0
 10
1208.614353943226
 20
1863.809297467626
 30
0.0
 10
1208.614353943226
 20
1870.200931014422
 30
0.0
 10
1208.614353943226
 20
1876.703453479489
 30
0.0
 10
1208.614353943226
 20
1879.982436941591
 30
0.0
  0
SPLINE
  5
351
330
2B6
100
AcDbEntity
  8
P-SANR-FIXT
100
AcDbSpline
210
0.0
220
0.0
230
1.0
 70
    24
 71
     3
 72
     9
 73
     5
 74
     0
 42
0.000000001
 43
0.0000000001
 40
0.0
 40
0.0
 40
0.0
 40
0.0
 40
0.5
 40
1.0
 40
1.0
 40
1.0
 40
1.0
 10
1208.614353943226
 20
1879.982436941591
 30
0.0
 10
1208.614353943226
 20
1883.2614204037
 30
0.0
 10
1208.614353943226
 20
1889.763942868782
 30
0.0
 10
1208.614353943226
 20
1896.155576415592
 30
0.0
 10
1208.614353943226
 20
1899.323670959429
 30
0.0
  0
SPLINE
  5
352
330
2B6
100
AcDbEntity
  8
P-SANR-FIXT
100
AcDbSpline
210
0.0
220
0.0
230
1.0
 70
    24
 71
     3
 72
     9
 73
     5
 74
     0
 42
0.000000001
 43
0.0000000001
 40
0.0
 40
0.0
 40
0.0
 40
0.0
 40
0.5
 40
1.0
 40
1.0
 40
1.0
 40
1.0
 10
1208.614353943226
 20
1899.323670959429
 30
0.0
 10
1211.358004299769
 20
1900.907718231341
 30
0.0
 10
1216.893321322965
 20
1904.103535004733
 30
0.0
 10
1222.524670966378
 20
1907.354796237259
 30
0.0
 10
1225.364353943139
 20
1908.994287968305
 30
0.0
  0
SPLINE
  5
353
330
2B6
100
AcDbEntity
  8
P-SANR-FIXT
100
AcDbSpline
210
0.0
220
0.0
230
1.0
 70
    24
 71
     3
 72
     9
 73
     5
 74
     0
 42
0.000000001
 43
0.0000000001
 40
0.0
 40
0.0
 40
0.0
 40
0.0
 40
0.5
 40
1.0
 40
1.0
 40
1.0
 40
1.0
 10
1225.364353943139
 20
1908.994287968305
 30
0.0
 10
1228.20403691992
 20
1910.633779699363
 30
0.0
 10
1233.835386563372
 20
1913.88504093191
 30
0.0
 10
1239.370703586603
 20
1917.080857705323
 30
0.0
 10
1242.114353943164
 20
1918.664904977245
 30
0.0
  0
SPLINE
  5
354
330
2B6
100
AcDbEntity
  8
P-SANR-FIXT
100
AcDbSpline
210
0.0
220
0.0
230
1.0
 70
    24
 71
     3
 72
     9
 73
     5
 74
     0
 42
0.000000001
 43
0.0000000001
 40
0.0
 40
0.0
 40
0.0
 40
0.0
 40
0.5
 40
1.0
 40
1.0
 40
1.0
 40
1.0
 10
1242.114353943164
 20
1918.664904977245
 30
0.0
 10
1244.858004299711
 20
1917.080857705331
 30
0.0
 10
1250.393321322915
 20
1913.885040931934
 30
0.0
 10
1256.024670966333
 20
1910.633779699405
 30
0.0
 10
1258.864353943096
 20
1908.994287968358
 30
0.0
  0
SPLINE
  5
355
330
2B6
100
AcDbEntity
  8
P-SANR-FIXT
100
AcDbSpline
210
0.0
220
0.0
230
1.0
 70
    24
 71
     3
 72
     9
 73
     5
 74
     0
 42
0.000000001
 43
0.0000000001
 40
0.0
 40
0.0
 40
0.0
 40
0.0
 40
0.5
 40
1.0
 40
1.0
 40
1.0
 40
1.0
 10
1258.864353943096
 20
1908.994287968358
 30
0.0
 10
1261.704036919872
 20
1907.354796237304
 30
0.0
 10
1267.335386563316
 20
1904.10353500476
 30
0.0
 10
1272.870703586542
 20
1900.907718231351
 30
0.0
 10
1275.614353943101
 20
1899.323670959429
 30
0.0
  0
LINE
  5
356
330
2B6
100
AcDbEntity
  8
P-SANR-FIXT
100
AcDbLine
 10
1266.911211766172
 20
2125.033019324015
 30
0.0
 11
1258.871846785937
 21
2138.957607930371
 31
0.0
  0
ARC
  5
357
330
2B6
100
AcDbEntity
  8
P-SANR-FIXT
100
AcDbCircle
 10
1242.084616511508
 20
2119.982436941577
 30
0.0
 40
25.33511820261937
100
AcDbArc
 50
48.50098729939468
 51
71.31634084900548
  0
LINE
  5
358
330
2B6
100
AcDbEntity
  8
P-SANR-FIXT
100
AcDbLine
 10
1250.200540016633
 20
2143.98243694157
 30
0.0
 11
1233.968693006383
 21
2143.98243694157
 31
0.0
  0
ARC
  5
359
330
2B6
100
AcDbEntity
  8
P-SANR-FIXT
100
AcDbCircle
 10
1242.084616511508
 20
2119.982436941577
 30
0.0
 40
25.33511820261908
100
AcDbArc
 50
108.6836591509936
 51
131.1353752339526
  0
LINE
  5
35A
330
2B6
100
AcDbEntity
  8
P-SANR-FIXT
100
AcDbLine
 10
1225.418152693128
 20
2139.063768083071
 30
0.0
 11
1217.226467095761
 21
2124.875352428801
 31
0.0
  0
ARC
  5
35B
330
2B6
100
AcDbEntity
  8
P-SANR-FIXT
100
AcDbCircle
 10
1242.084616511508
 20
2119.982436941577
 30
0.0
 40
25.33511820261916
100
AcDbArc
 50
168.8646247660463
 51
191.1353752337038
  0
LINE
  5
35C
330
2B6
100
AcDbEntity
  8
P-SANR-FIXT
100
AcDbLine
 10
1217.22646709574
 20
2115.089521454461
 30
0.0
 11
1225.418152693211
 21
2100.901105800011
 31
0.0
  0
ARC
  5
35D
330
2B6
100
AcDbEntity
  8
P-SANR-FIXT
100
AcDbCircle
 10
1242.084616511508
 20
2119.982436941577
 30
0.0
 40
25.33511820261922
100
AcDbArc
 50
228.864624766295
 51
251.3163408485052
  0
LINE
  5
35E
330
2B6
100
AcDbEntity
  8
P-SANR-FIXT
100
AcDbLine
 10
1233.968693006173
 20
2095.982436941655
 30
0.0
 11
1250.200540016843
 21
2095.982436941655
 31
0.0
  0
ARC
  5
35F
330
2B6
100
AcDbEntity
  8
P-SANR-FIXT
100
AcDbCircle
 10
1242.084616511508
 20
2119.982436941577
 30
0.0
 40
25.33511820261946
100
AcDbArc
 50
288.6836591514951
 51
311.4990127003517
  0
LINE
  5
360
330
2B6
100
AcDbEntity
  8
P-SANR-FIXT
100
AcDbLine
 10
1258.871846785854
 20
2101.007265952709
 30
0.0
 11
1266.911211766194
 21
2114.931854559248
 31
0.0
  0
ARC
  5
361
330
2B6
100
AcDbEntity
  8
P-SANR-FIXT
100
AcDbCircle
 10
1242.084616511508
 20
2119.982436941577
 30
0.0
 40
25.33511820261944
100
AcDbArc
 50
348.5009872996482
 51
11.49901270060335
  0
ARC
  5
362
330
2B6
100
AcDbEntity
  8
P-SANR-FIXT
100
AcDbCircle
 10
1242.114353943102
 20
2119.982436941591
 30
0.0
 40
15.89999999999986
100
AcDbArc
 50
90.0
 51
269.9999999999997
  0
ARC
  5
363
330
2B6
100
AcDbEntity
  8
P-SANR-FIXT
100
AcDbCircle
 10
1242.114353943102
 20
2119.982436941591
 30
0.0
 40
15.90000000000014
100
AcDbArc
 50
270.0000000000001
 51
89.99999999999959
  0
LWPOLYLINE
  5
364
330
2B6
100
AcDbEntity
  8
P-SANR-FIXT
100
AcDbPolyline
 90
        3
 70
   128
 43
0.0
 10
1242.114353943102
 20
2094.63243694158
 10
1237.825664570023
 20
2094.997848822877
 10
1233.968693006173
 20
2095.982436941655
  0
LWPOLYLINE
  5
365
330
2B6
100
AcDbEntity
  8
P-SANR-FIXT
100
AcDbPolyline
 90
        3
 70
   128
 43
0.0
 10
1225.418152693211
 20
2100.901105800011
 10
1220.137594171579
 20
2107.347385301598
 10
1217.248613894072
 20
2115.051162074526
  0
LWPOLYLINE
  5
366
330
2B6
100
AcDbEntity
  8
P-SANR-FIXT
100
AcDbPolyline
 90
        3
 70
   128
 43
0.0
 10
1217.226467095761
 20
2124.875352428801
 10
1220.105100647613
 20
2132.560802072859
 10
1225.410874610613
 20
2139.051162074373
  0
LWPOLYLINE
  5
367
330
2B6
100
AcDbEntity
  8
P-SANR-FIXT
100
AcDbPolyline
 90
        3
 70
   128
 43
0.0
 10
1233.968693006383
 20
2143.98243694157
 10
1237.8711683293
 20
2144.974793290029
 10
1242.114353943102
 20
2145.3324369416
  0
LWPOLYLINE
  5
368
330
2B6
100
AcDbEntity
  8
P-SANR-FIXT
100
AcDbPolyline
 90
        3
 70
   128
 43
0.0
 10
1242.114353943102
 20
2145.3324369416
 10
1246.361506929221
 20
2144.974119388217
 10
1250.200540016633
 20
2143.98243694157
  0
LWPOLYLINE
  5
369
330
2B6
100
AcDbEntity
  8
P-SANR-FIXT
100
AcDbPolyline
 90
        3
 70
   128
 43
0.0
 10
1258.871846785937
 20
2138.95760793037
 10
1264.022751124839
 20
2132.73565743399
 10
1266.911211766172
 20
2125.033019324015
  0
LWPOLYLINE
  5
36A
330
2B6
100
AcDbEntity
  8
P-SANR-FIXT
100
AcDbPolyline
 90
        3
 70
   128
 43
0.0
 10
1266.911211766194
 20
2114.931854559248
 10
1264.052180198439
 20
2107.279906516863
 10
1258.871846785854
 20
2101.007265952709
  0
LWPOLYLINE
  5
36B
330
2B6
100
AcDbEntity
  8
P-SANR-FIXT
100
AcDbPolyline
 90
        3
 70
   128
 43
0.0
 10
1250.200540016843
 20
2095.982436941655
 10
1246.353959209589
 20
2094.989472988012
 10
1242.114353943102
 20
2094.63243694158
  0
ARC
  5
36C
330
2B6
100
AcDbEntity
  8
P-SANR-FIXT
100
AcDbCircle
 10
1242.114353943102
 20
2119.982436941591
 30
0.0
 40
33.4999999998991
100
AcDbArc
 50
90.00000000000058
 51
120.0000000000003
  0
ARC
  5
36D
330
2B6
100
AcDbEntity
  8
P-SANR-FIXT
100
AcDbCircle
 10
1242.114353943102
 20
2119.982436941591
 30
0.0
 40
33.49999999989883
100
AcDbArc
 50
119.9999999999998
 51
180.0
  0
ARC
  5
36E
330
2B6
100
AcDbEntity
  8
P-SANR-FIXT
100
AcDbCircle
 10
1242.114353943102
 20
2119.982436941591
 30
0.0
 40
33.4999999998991
100
AcDbArc
 50
179.9999999999998
 51
240.0000000000002
  0
ARC
  5
36F
330
2B6
100
AcDbEntity
  8
P-SANR-FIXT
100
AcDbCircle
 10
1242.114353943102
 20
2119.982436941591
 30
0.0
 40
33.49999999989895
100
AcDbArc
 50
239.9999999999995
 51
269.9999999999997
  0
ARC
  5
370
330
2B6
100
AcDbEntity
  8
P-SANR-FIXT
100
AcDbCircle
 10
1242.114353943102
 20
2119.982436941591
 30
0.0
 40
33.49999999989882
100
AcDbArc
 50
269.9999999999993
 51
299.9999999999992
  0
ARC
  5
371
330
2B6
100
AcDbEntity
  8
P-SANR-FIXT
100
AcDbCircle
 10
1242.114353943102
 20
2119.982436941591
 30
0.0
 40
33.49999999989891
100
AcDbArc
 50
299.9999999999989
 51
359.9999999999988
  0
ARC
  5
372
330
2B6
100
AcDbEntity
  8
P-SANR-FIXT
100
AcDbCircle
 10
1242.114353943102
 20
2119.982436941591
 30
0.0
 40
33.49999999989882
100
AcDbArc
 50
359.9999999999992
 51
59.99999999999937
  0
ARC
  5
373
330
2B6
100
AcDbEntity
  8
P-SANR-FIXT
100
AcDbCircle
 10
1242.114353943102
 20
2119.982436941591
 30
0.0
 40
33.49999999989897
100
AcDbArc
 50
59.99999999999897
 51
89.99999999999884
  0
SPLINE
  5
374
330
2B6
100
AcDbEntity
  8
P-SANR-FIXT
100
AcDbSpline
210
0.0
220
0.0
230
1.0
 70
    24
 71
     3
 72
     9
 73
     5
 74
     0
 42
0.000000001
 43
0.0000000001
 40
0.0
 40
0.0
 40
0.0
 40
0.0
 40
0.5
 40
1.0
 40
1.0
 40
1.0
 40
1.0
 10
1275.614353943101
 20
2139.323670959429
 30
0.0
 10
1275.614353943101
 20
2136.155576415589
 30
0.0
 10
1275.614353943101
 20
2129.763942868775
 30
0.0
 10
1275.614353943101
 20
2123.261420403697
 30
0.0
 10
1275.614353943101
 20
2119.982436941591
 30
0.0
  0
SPLINE
  5
375
330
2B6
100
AcDbEntity
  8
P-SANR-FIXT
100
AcDbSpline
210
0.0
220
0.0
230
1.0
 70
    24
 71
     3
 72
     9
 73
     5
 74
     0
 42
0.000000001
 43
0.0000000001
 40
0.0
 40
0.0
 40
0.0
 40
0.0
 40
0.5
 40
1.0
 40
1.0
 40
1.0
 40
1.0
 10
1275.614353943101
 20
2119.982436941591
 30
0.0
 10
1275.614353943101
 20
2116.703453479493
 30
0.0
 10
1275.614353943101
 20
2110.200931014429
 30
0.0
 10
1275.614353943101
 20
2103.80929746763
 30
0.0
 10
1275.614353943101
 20
2100.641202923796
 30
0.0
  0
SPLINE
  5
376
330
2B6
100
AcDbEntity
  8
P-SANR-FIXT
100
AcDbSpline
210
0.0
220
0.0
230
1.0
 70
    24
 71
     3
 72
     9
 73
     5
 74
     0
 42
0.000000001
 43
0.0000000001
 40
0.0
 40
0.0
 40
0.0
 40
0.0
 40
0.5
 40
1.0
 40
1.0
 40
1.0
 40
1.0
 10
1275.614353943101
 20
2100.641202923796
 30
0.0
 10
1272.87070358654
 20
2099.057155651873
 30
0.0
 10
1267.335386563308
 20
2095.861338878461
 30
0.0
 10
1261.704036919857
 20
2092.610077645913
 30
0.0
 10
1258.864353943077
 20
2090.970585914856
 30
0.0
  0
SPLINE
  5
377
330
2B6
100
AcDbEntity
  8
P-SANR-FIXT
100
AcDbSpline
210
0.0
220
0.0
230
1.0
 70
    24
 71
     3
 72
     9
 73
     5
 74
     0
 42
0.000000001
 43
0.0000000001
 40
0.0
 40
0.0
 40
0.0
 40
0.0
 40
0.5
 40
1.0
 40
1.0
 40
1.0
 40
1.0
 10
1258.864353943077
 20
2090.970585914856
 30
0.0
 10
1256.024670966316
 20
2089.33109418381
 30
0.0
 10
1250.393321322904
 20
2086.079832951285
 30
0.0
 10
1244.858004299707
 20
2082.884016177893
 30
0.0
 10
1242.114353943164
 20
2081.29996890598
 30
0.0
  0
SPLINE
  5
378
330
2B6
100
AcDbEntity
  8
P-SANR-FIXT
100
AcDbSpline
210
0.0
220
0.0
230
1.0
 70
    24
 71
     3
 72
     9
 73
     5
 74
     0
 42
0.000000001
 43
0.0000000001
 40
0.0
 40
0.0
 40
0.0
 40
0.0
 40
0.5
 40
1.0
 40
1.0
 40
1.0
 40
1.0
 10
1242.114353943164
 20
2081.29996890598
 30
0.0
 10
1239.370703586607
 20
2082.8840161779
 30
0.0
 10
1233.835386563383
 20
2086.079832951308
 30
0.0
 10
1228.204036919936
 20
2089.331094183853
 30
0.0
 10
1225.364353943158
 20
2090.970585914909
 30
0.0
  0
SPLINE
  5
379
330
2B6
100
AcDbEntity
  8
P-SANR-FIXT
100
AcDbSpline
210
0.0
220
0.0
230
1.0
 70
    24
 71
     3
 72
     9
 73
     5
 74
     0
 42
0.000000001
 43
0.0000000001
 40
0.0
 40
0.0
 40
0.0
 40
0.0
 40
0.5
 40
1.0
 40
1.0
 40
1.0
 40
1.0
 10
1225.364353943158
 20
2090.970585914909
 30
0.0
 10
1222.524670966393
 20
2092.610077645957
 30
0.0
 10
1216.893321322972
 20
2095.861338878488
 30
0.0
 10
1211.358004299771
 20
2099.057155651883
 30
0.0
 10
1208.614353943226
 20
2100.641202923796
 30
0.0
  0
SPLINE
  5
37A
330
2B6
100
AcDbEntity
  8
P-SANR-FIXT
100
AcDbSpline
210
0.0
220
0.0
230
1.0
 70
    24
 71
     3
 72
     9
 73
     5
 74
     0
 42
0.000000001
 43
0.0000000001
 40
0.0
 40
0.0
 40
0.0
 40
0.0
 40
0.5
 40
1.0
 40
1.0
 40
1.0
 40
1.0
 10
1208.614353943226
 20
2100.641202923796
 30
0.0
 10
1208.614353943226
 20
2103.809297467626
 30
0.0
 10
1208.614353943226
 20
2110.200931014422
 30
0.0
 10
1208.614353943226
 20
2116.703453479489
 30
0.0
 10
1208.614353943226
 20
2119.982436941591
 30
0.0
  0
SPLINE
  5
37B
330
2B6
100
AcDbEntity
  8
P-SANR-FIXT
100
AcDbSpline
210
0.0
220
0.0
230
1.0
 70
    24
 71
     3
 72
     9
 73
     5
 74
     0
 42
0.000000001
 43
0.0000000001
 40
0.0
 40
0.0
 40
0.0
 40
0.0
 40
0.5
 40
1.0
 40
1.0
 40
1.0
 40
1.0
 10
1208.614353943226
 20
2119.982436941591
 30
0.0
 10
1208.614353943226
 20
2123.2614204037
 30
0.0
 10
1208.614353943226
 20
2129.763942868782
 30
0.0
 10
1208.614353943226
 20
2136.155576415592
 30
0.0
 10
1208.614353943226
 20
2139.323670959429
 30
0.0
  0
SPLINE
  5
37C
330
2B6
100
AcDbEntity
  8
P-SANR-FIXT
100
AcDbSpline
210
0.0
220
0.0
230
1.0
 70
    24
 71
     3
 72
     9
 73
     5
 74
     0
 42
0.000000001
 43
0.0000000001
 40
0.0
 40
0.0
 40
0.0
 40
0.0
 40
0.5
 40
1.0
 40
1.0
 40
1.0
 40
1.0
 10
1208.614353943226
 20
2139.323670959429
 30
0.0
 10
1211.358004299769
 20
2140.907718231341
 30
0.0
 10
1216.893321322965
 20
2144.103535004733
 30
0.0
 10
1222.524670966378
 20
2147.354796237259
 30
0.0
 10
1225.364353943139
 20
2148.994287968305
 30
0.0
  0
SPLINE
  5
37D
330
2B6
100
AcDbEntity
  8
P-SANR-FIXT
100
AcDbSpline
210
0.0
220
0.0
230
1.0
 70
    24
 71
     3
 72
     9
 73
     5
 74
     0
 42
0.000000001
 43
0.0000000001
 40
0.0
 40
0.0
 40
0.0
 40
0.0
 40
0.5
 40
1.0
 40
1.0
 40
1.0
 40
1.0
 10
1225.364353943139
 20
2148.994287968305
 30
0.0
 10
1228.20403691992
 20
2150.633779699363
 30
0.0
 10
1233.835386563372
 20
2153.885040931911
 30
0.0
 10
1239.370703586603
 20
2157.080857705323
 30
0.0
 10
1242.114353943164
 20
2158.664904977245
 30
0.0
  0
SPLINE
  5
37E
330
2B6
100
AcDbEntity
  8
P-SANR-FIXT
100
AcDbSpline
210
0.0
220
0.0
230
1.0
 70
    24
 71
     3
 72
     9
 73
     5
 74
     0
 42
0.000000001
 43
0.0000000001
 40
0.0
 40
0.0
 40
0.0
 40
0.0
 40
0.5
 40
1.0
 40
1.0
 40
1.0
 40
1.0
 10
1242.114353943164
 20
2158.664904977245
 30
0.0
 10
1244.858004299711
 20
2157.08085770533
 30
0.0
 10
1250.393321322915
 20
2153.885040931934
 30
0.0
 10
1256.024670966333
 20
2150.633779699405
 30
0.0
 10
1258.864353943096
 20
2148.994287968358
 30
0.0
  0
SPLINE
  5
37F
330
2B6
100
AcDbEntity
  8
P-SANR-FIXT
100
AcDbSpline
210
0.0
220
0.0
230
1.0
 70
    24
 71
     3
 72
     9
 73
     5
 74
     0
 42
0.000000001
 43
0.0000000001
 40
0.0
 40
0.0
 40
0.0
 40
0.0
 40
0.5
 40
1.0
 40
1.0
 40
1.0
 40
1.0
 10
1258.864353943096
 20
2148.994287968358
 30
0.0
 10
1261.704036919872
 20
2147.354796237304
 30
0.0
 10
1267.335386563316
 20
2144.103535004761
 30
0.0
 10
1272.870703586542
 20
2140.90771823135
 30
0.0
 10
1275.614353943101
 20
2139.323670959429
 30
0.0
  0
LINE
  5
380
330
2B6
100
AcDbEntity
  8
P-SANR-FIXT
100
AcDbLine
 10
1286.531912862766
 20
2109.332436941578
 30
0.0
 11
1319.114353943105
 21
2109.332436941578
 31
0.0
  0
LINE
  5
381
330
2B6
100
AcDbEntity
  8
P-SANR-FIXT
100
AcDbLine
 10
1319.114353943105
 20
2130.632436941578
 30
0.0
 11
1286.531912862766
 21
2130.632436941578
 31
0.0
  0
LINE
  5
382
330
2B6
100
AcDbEntity
  8
P-SANR-FIXT
100
AcDbLine
 10
1286.564353943105
 20
2150.982558850012
 30
0.0
 11
1286.564353943105
 21
2180.982558850012
 31
0.0
  0
LINE
  5
383
330
2B6
100
AcDbEntity
  8
P-SANR-FIXT
100
AcDbLine
 10
1286.564353943105
 20
1999.982558850011
 30
0.0
 11
1286.564353943105
 21
2109.448983375739
 31
0.0
  0
LINE
  5
384
330
2B6
100
AcDbEntity
  8
P-SANR-FIXT
100
AcDbLine
 10
1286.564353943105
 20
2130.515890507418
 30
0.0
 11
1286.564353943105
 21
2150.982558850012
 31
0.0
  0
LINE
  5
385
330
2B6
100
AcDbEntity
  8
P-SANR-FIXT
100
AcDbLine
 10
1286.564353943106
 20
1848.982558850011
 30
0.0
 11
1286.564353943106
 21
1999.982558850011
 31
0.0
  0
LINE
  5
386
330
2B6
100
AcDbEntity
  8
P-SANR-FIXT
100
AcDbLine
 10
1286.564353943106
 20
1813.982436941591
 30
0.0
 11
1286.564353943106
 21
1848.982558850011
 31
0.0
  0
LINE
  5
387
330
2B6
100
AcDbEntity
  8
P-SANR-FIXT
100
AcDbLine
 10
1241.395160768348
 20
2180.982558850011
 30
0.0
 11
1242.114353943102
 21
2180.982558850011
 31
0.0
  0
LINE
  5
388
330
2B6
100
AcDbEntity
  8
P-SANR-FIXT
100
AcDbLine
 10
1242.114353943103
 20
2180.982558850011
 30
0.0
 11
1286.564353943102
 21
2180.982558850011
 31
0.0
  0
LINE
  5
389
330
2B6
100
AcDbEntity
  8
P-SANR-FIXT
100
AcDbLine
 10
1241.395160768348
 20
1813.982436941591
 30
0.0
 11
1242.114353943102
 21
1813.982436941591
 31
0.0
  0
LINE
  5
38A
330
2B6
100
AcDbEntity
  8
P-SANR-FIXT
100
AcDbLine
 10
1242.114353943103
 20
1813.982436941591
 30
0.0
 11
1286.564353943103
 21
1813.982436941591
 31
0.0
  0
ENDBLK
  5
38C
330
2B6
100
AcDbEntity
  8
0
100
AcDbBlockEnd
  0
ENDSEC
  0
SECTION
  2
ENTITIES
  0
INSERT
  5
1F0
330
71
100
AcDbEntity
  8
P-SANR-FIXT
100
AcDbBlockReference
  2
Automatic flow rate regulator valve_Caleffi_121 DN15 - 1_2__-859151-Est - Idraulica
 10
0.0
 20
0.0
 30
0.0
1001
REVIT
1002
{
1070
     1
1000
863131
1002
}
1002
{
1070
     5
1000
859151
1002
}
1002
{
1070
     2
1000
-2001160
1002
}
  0
INSERT
  5
2B5
330
71
100
AcDbEntity
  8
P-SANR-FIXT
100
AcDbBlockReference
  2
Automatic flow rate regulator valve_Caleffi_121 DN15 - 1_2__-V1-Est - Idraulica
 10
0.0
 20
0.0
 30
0.0
1001
REVIT
1002
{
1070
     1
1000
863152
1002
}
1002
{
1070
     5
1000
859151
1002
}
1002
{
1070
     2
1000
-2001160
1002
}
  0
INSERT
  5
38D
330
71
100
AcDbEntity
  8
P-SANR-FIXT
100
AcDbBlockReference
  2
Automatic flow rate regulator valve_Caleffi_121 DN15 - 1_2__-V2-Est - Idraulica
 10
0.0
 20
0.0
 30
0.0
1001
REVIT
1002
{
1070
     1
1000
863172
1002
}
1002
{
1070
     5
1000
859151
1002
}
1002
{
1070
     2
1000
-2001160
1002
}
  0
ENDSEC
  0
SECTION
  2
OBJECTS
  0
DICTIONARY
  5
C
330
0
100
AcDbDictionary
281
     1
  3
ACAD_CIP_PREVIOUS_PRODUCT_INFO
350
7A
  3
ACAD_COLOR
350
63
  3
ACAD_DETAILVIEWSTYLE
350
6B
  3
ACAD_GROUP
350
D
  3
ACAD_IMAGE_VARS
350
7B
  3
ACAD_LAYOUT
350
62
  3
ACAD_MATERIAL
350
10
  3
ACAD_MLEADERSTYLE
350
66
  3
ACAD_MLINESTYLE
350
5F
  3
ACAD_PLOTSETTINGS
350
61
  3
ACAD_PLOTSTYLENAME
350
E
  3
ACAD_SCALELIST
350
42
  3
ACAD_SECTIONVIEWSTYLE
350
68
  3
ACAD_TABLESTYLE
350
64
  3
ACAD_VISUALSTYLE
350
29
  3
ACDB_RECOMPOSE_DATA
350
397
  3
AcDbVariableDictionary
350
7C
  3
REVIT_DICTIONARY
350
38F
  0
DICTIONARY
  5
393
330
71
100
AcDbDictionary
280
     1
281
     1
  3
ACAD_SORTENTS
360
394
  0
XRECORD
  5
7A
102
{ACAD_REACTORS
330
C
102
}
330
C
100
AcDbXrecord
280
     1
300
RVT
300
2013
300
RVT2013
  0
DICTIONARY
  5
63
102
{ACAD_REACTORS
330
C
102
}
330
C
100
AcDbDictionary
281
     1
  0
DICTIONARY
  5
6B
102
{ACAD_REACTORS
330
C
102
}
330
C
100
AcDbDictionary
281
     1
  3
Imperial24
350
6C
  0
DICTIONARY
  5
D
102
{ACAD_REACTORS
330
C
102
}
330
C
100
AcDbDictionary
281
     1
  0
RASTERVARIABLES
  5
7B
102
{ACAD_REACTORS
330
C
102
}
330
C
100
AcDbRasterVariables
 90
        0
 70
     0
 71
     1
 72
     1
  0
DICTIONARY
  5
62
102
{ACAD_REACTORS
330
C
102
}
330
C
100
AcDbDictionary
281
     1
  3
Layout1
350
70
  3
Layout2
350
78
  3
Model
350
74
  0
DICTIONARY
  5
10
102
{ACAD_REACTORS
330
C
102
}
330
C
100
AcDbDictionary
281
     1
  3
ByBlock
350
19
  3
ByLayer
350
11
  3
Global
350
21
  0
DICTIONARY
  5
66
102
{ACAD_REACTORS
330
C
102
}
330
C
100
AcDbDictionary
281
     1
  3
Standard
350
67
  0
DICTIONARY
  5
5F
102
{ACAD_REACTORS
330
C
102
}
330
C
100
AcDbDictionary
281
     1
  3
Standard
350
60
  0
DICTIONARY
  5
61
102
{ACAD_REACTORS
330
C
102
}
330
C
100
AcDbDictionary
281
     1
  0
ACDBDICTIONARYWDFLT
  5
E
102
{ACAD_REACTORS
330
C
102
}
330
C
100
AcDbDictionary
281
     1
  3
Normal
350
F
100
AcDbDictionaryWithDefault
340
F
  0
DICTIONARY
  5
42
102
{ACAD_REACTORS
330
C
102
}
330
C
100
AcDbDictionary
281
     1
  3
A0
350
43
  3
A1
350
44
  3
A2
350
45
  3
A3
350
46
  3
A4
350
47
  3
A5
350
48
  3
A6
350
49
  3
A7
350
4A
  3
A8
350
4B
  3
A9
350
4C
  3
B0
350
4D
  3
B1
350
4E
  3
B2
350
4F
  3
B3
350
50
  3
B4
350
51
  3
B5
350
52
  3
B6
350
53
  0
DICTIONARY
  5
68
102
{ACAD_REACTORS
330
C
102
}
330
C
100
AcDbDictionary
281
     1
  3
Imperial24
350
6A
  0
DICTIONARY
  5
64
102
{ACAD_REACTORS
330
C
102
}
330
C
100
AcDbDictionary
281
     1
  3
Standard
350
65
  0
DICTIONARY
  5
29
102
{ACAD_REACTORS
330
C
102
}
330
C
100
AcDbDictionary
281
     1
  3
2dWireframe
350
2F
  3
Basic
350
2E
  3
Brighten
350
35
  3
ColorChange
350
39
  3
Conceptual
350
32
  3
Dim
350
34
  3
EdgeColorOff
350
41
  3
Facepattern
350
38
  3
Flat
350
2A
  3
FlatWithEdges
350
2B
  3
Gouraud
350
2C
  3
GouraudWithEdges
350
2D
  3
Hidden
350
31
  3
JitterOff
350
3F
  3
Linepattern
350
37
  3
OverhangOff
350
40
  3
Realistic
350
33
  3
Shaded
350
3E
  3
Shaded with edges
350
3D
  3
Shades of Gray
350
3A
  3
Sketchy
350
3B
  3
Thicken
350
36
  3
Wireframe
350
30
  3
X-Ray
350
3C
  0
XRECORD
  5
397
102
{ACAD_REACTORS
330
C
102
}
330
C
100
AcDbXrecord
280
     1
 90
        1
330
65
  0
DICTIONARY
  5
7C
102
{ACAD_REACTORS
330
C
102
}
330
C
100
AcDbDictionary
281
     1
  3
CANNOSCALE
350
81
  3
CMLEADERSTYLE
350
7E
  3
CTABLESTYLE
350
7D
  3
CVIEWDETAILSTYLE
350
7F
  3
CVIEWSECTIONSTYLE
350
80
  0
DICTIONARY
  5
38F
102
{ACAD_REACTORS
330
C
102
}
330
C
100
AcDbDictionary
281
     1
  3
DRAWING_TOOL
350
392
  3
REVIT_CATEGORY_MAPPING
350
391
  3
REVIT_TYPE_MAPPING
350
390
  0
SORTENTSTABLE
  5
394
102
{ACAD_REACTORS
330
393
102
}
330
393
100
AcDbSortentsTable
330
71
  0
ACDBDETAILVIEWSTYLE
  5
6C
102
{ACAD_REACTORS
330
6B
102
}
330
6B
100
AcDbModelDocViewStyle
 70
     0
  3
Imperial24
290
     1
100
AcDbDetailViewStyle
 70
     0
 71
     0
 90
        3
 71
     1
340
55
 62
   256
 40
0.24
340
0
 62
   256
 40
0.24
300

 40
0.36
280
     3
 71
     2
340
5D
 90
       25
 62
   256
 71
     3
340
55
 62
   256
 40
0.24
 90
        1
 40
0.75
 90
        1
300
%<\AcVar ViewType \f "%tc1">% %<\AcVar ViewDetailId>%\PSCALA %<\AcVar ViewScale \f "%sn">%
 71
     4
340
5D
 90
       25
 62
   256
340
5D
 90
       25
 62
   256
280
     0
  0
LAYOUT
  5
70
102
{ACAD_REACTORS
330
62
102
}
330
62
100
AcDbPlotSettings
  1

  2

  4

  6

 40
0.0
 41
0.0
 42
0.0
 43
0.0
 44
0.0
 45
0.0
 46
0.0
 47
0.0
 48
0.0
 49
0.0
140
0.0
141
0.0
142
1.0
143
1.0
 70
   688
 72
     0
 73
     0
 74
     5
  7

 75
    16
147
1.0
 76
     0
 77
     2
 78
   300
148
0.0
149
0.0
100
AcDbLayout
  1
Layout1
 70
     1
 71
     1
 10
0.0
 20
0.0
 11
12.0
 21
9.0
 12
0.0
 22
0.0
 32
0.0
 14
0.0
 24
0.0
 34
0.0
 15
0.0
 25
0.0
 35
0.0
146
0.0
 13
0.0
 23
0.0
 33
0.0
 16
1.0
 26
0.0
 36
0.0
 17
0.0
 27
1.0
 37
0.0
 76
     0
330
6D
  0
LAYOUT
  5
78
102
{ACAD_REACTORS
330
62
102
}
330
62
100
AcDbPlotSettings
  1

  2

  4

  6

 40
0.0
 41
0.0
 42
0.0
 43
0.0
 44
0.0
 45
0.0
 46
0.0
 47
0.0
 48
0.0
 49
0.0
140
0.0
141
0.0
142
1.0
143
1.0
 70
   688
 72
     0
 73
     0
 74
     5
  7

 75
    16
147
1.0
 76
     0
 77
     2
 78
   300
148
0.0
149
0.0
100
AcDbLayout
  1
Layout2
 70
     1
 71
     2
 10
0.0
 20
0.0
 11
12.0
 21
9.0
 12
0.0
 22
0.0
 32
0.0
 14
0.0
 24
0.0
 34
0.0
 15
0.0
 25
0.0
 35
0.0
146
0.0
 13
0.0
 23
0.0
 33
0.0
 16
1.0
 26
0.0
 36
0.0
 17
0.0
 27
1.0
 37
0.0
 76
     0
330
75
  0
LAYOUT
  5
74
102
{ACAD_REACTORS
330
62
102
}
330
62
100
AcDbPlotSettings
  1

  2

  4

  6

 40
0.0
 41
0.0
 42
0.0
 43
0.0
 44
0.0
 45
0.0
 46
0.0
 47
0.0
 48
0.0
 49
0.0
140
0.0
141
0.0
142
1.0
143
1.0
 70
  1712
 72
     0
 73
     0
 74
     0
  7

 75
     0
147
1.0
 76
     0
 77
     2
 78
   300
148
0.0
149
0.0
100
AcDbLayout
  1
Model
 70
     1
 71
     0
 10
0.0
 20
0.0
 11
12.0
 21
9.0
 12
0.0
 22
0.0
 32
0.0
 14
0.0
 24
0.0
 34
0.0
 15
0.0
 25
0.0
 35
0.0
146
0.0
 13
0.0
 23
0.0
 33
0.0
 16
1.0
 26
0.0
 36
0.0
 17
0.0
 27
1.0
 37
0.0
 76
     0
330
71
  0
MATERIAL
  5
19
102
{ACAD_XDICTIONARY
360
1A
102
}
102
{ACAD_REACTORS
330
10
102
}
330
10
100
AcDbMaterial
  1
ByBlock
 72
     0
 43
0.0208333333333333
 43
0.0
 43
0.0
 43
0.0
 43
0.0
 43
0.0208333333333333
 43
0.0
 43
0.0
 43
0.0
 43
0.0
 43
1.0
 43
0.0
 43
0.0
 43
0.0
 43
0.0
 43
1.0
 77
     0
 47
0.0208333333333333
 47
0.0
 47
0.0
 47
0.0
 47
0.0
 47
0.0208333333333333
 47
0.0
 47
0.0
 47
0.0
 47
0.0
 47
1.0
 47
0.0
 47
0.0
 47
0.0
 47
0.0
 47
1.0
171
     0
 49
0.0208333333333333
 49
0.0
 49
0.0
 49
0.0
 49
0.0
 49
0.0208333333333333
 49
0.0
 49
0.0
 49
0.0
 49
0.0
 49
1.0
 49
0.0
 49
0.0
 49
0.0
 49
0.0
 49
1.0
175
     0
142
0.0208333333333333
142
0.0
142
0.0
142
0.0
142
0.0
142
0.0208333333333333
142
0.0
142
0.0
142
0.0
142
0.0
142
1.0
142
0.0
142
0.0
142
0.0
142
0.0
142
1.0
179
     0
144
0.0208333333333333
144
0.0
144
0.0
144
0.0
144
0.0
144
0.0208333333333333
144
0.0
144
0.0
144
0.0
144
0.0
144
1.0
144
0.0
144
0.0
144
0.0
144
0.0
144
1.0
147
0.0208333333333333
147
0.0
147
0.0
147
0.0
147
0.0
147
0.0208333333333333
147
0.0
147
0.0
147
0.0
147
0.0
147
1.0
147
0.0
147
0.0
147
0.0
147
0.0
147
1.0
  0
MATERIAL
  5
11
102
{ACAD_XDICTIONARY
360
12
102
}
102
{ACAD_REACTORS
330
10
102
}
330
10
100
AcDbMaterial
  1
ByLayer
 72
     0
 43
0.0208333333333333
 43
0.0
 43
0.0
 43
0.0
 43
0.0
 43
0.0208333333333333
 43
0.0
 43
0.0
 43
0.0
 43
0.0
 43
1.0
 43
0.0
 43
0.0
 43
0.0
 43
0.0
 43
1.0
 77
     0
 47
0.0208333333333333
 47
0.0
 47
0.0
 47
0.0
 47
0.0
 47
0.0208333333333333
 47
0.0
 47
0.0
 47
0.0
 47
0.0
 47
1.0
 47
0.0
 47
0.0
 47
0.0
 47
0.0
 47
1.0
171
     0
 49
0.0208333333333333
 49
0.0
 49
0.0
 49
0.0
 49
0.0
 49
0.0208333333333333
 49
0.0
 49
0.0
 49
0.0
 49
0.0
 49
1.0
 49
0.0
 49
0.0
 49
0.0
 49
0.0
 49
1.0
175
     0
142
0.0208333333333333
142
0.0
142
0.0
142
0.0
142
0.0
142
0.0208333333333333
142
0.0
142
0.0
142
0.0
142
0.0
142
1.0
142
0.0
142
0.0
142
0.0
142
0.0
142
1.0
179
     0
144
0.0208333333333333
144
0.0
144
0.0
144
0.0
144
0.0
144
0.0208333333333333
144
0.0
144
0.0
144
0.0
144
0.0
144
1.0
144
0.0
144
0.0
144
0.0
144
0.0
144
1.0
147
0.0208333333333333
147
0.0
147
0.0
147
0.0
147
0.0
147
0.0208333333333333
147
0.0
147
0.0
147
0.0
147
0.0
147
1.0
147
0.0
147
0.0
147
0.0
147
0.0
147
1.0
  0
MATERIAL
  5
21
102
{ACAD_XDICTIONARY
360
22
102
}
102
{ACAD_REACTORS
330
10
102
}
330
10
100
AcDbMaterial
  1
Global
 72
     0
 43
0.0208333333333333
 43
0.0
 43
0.0
 43
0.0
 43
0.0
 43
0.0208333333333333
 43
0.0
 43
0.0
 43
0.0
 43
0.0
 43
1.0
 43
0.0
 43
0.0
 43
0.0
 43
0.0
 43
1.0
 77
     0
 47
0.0208333333333333
 47
0.0
 47
0.0
 47
0.0
 47
0.0
 47
0.0208333333333333
 47
0.0
 47
0.0
 47
0.0
 47
0.0
 47
1.0
 47
0.0
 47
0.0
 47
0.0
 47
0.0
 47
1.0
171
     0
 49
0.0208333333333333
 49
0.0
 49
0.0
 49
0.0
 49
0.0
 49
0.0208333333333333
 49
0.0
 49
0.0
 49
0.0
 49
0.0
 49
1.0
 49
0.0
 49
0.0
 49
0.0
 49
0.0
 49
1.0
175
     0
142
0.0208333333333333
142
0.0
142
0.0
142
0.0
142
0.0
142
0.0208333333333333
142
0.0
142
0.0
142
0.0
142
0.0
142
1.0
142
0.0
142
0.0
142
0.0
142
0.0
142
1.0
179
     0
144
0.0208333333333333
144
0.0
144
0.0
144
0.0
144
0.0
144
0.0208333333333333
144
0.0
144
0.0
144
0.0
144
0.0
144
1.0
144
0.0
144
0.0
144
0.0
144
0.0
144
1.0
147
0.0208333333333333
147
0.0
147
0.0
147
0.0
147
0.0
147
0.0208333333333333
147
0.0
147
0.0
147
0.0
147
0.0
147
1.0
147
0.0
147
0.0
147
0.0
147
0.0
147
1.0
  0
MLEADERSTYLE
  5
67
102
{ACAD_REACTORS
330
66
102
}
330
66
100
AcDbMLeaderStyle
179
     2
170
     2
171
     1
172
     0
 90
        2
 40
0.0
 41
0.0
173
     1
 91
-1056964608
340
5B
 92
       -2
290
     1
 42
0.09
291
     1
 43
0.36
  3
Standard
 44
0.18
300

342
55
174
     1
178
     6
175
     1
176
     0
 93
-1056964608
 45
0.18
292
     0
297
     0
 46
0.18
 94
-1056964608
 47
1.0
 49
1.0
140
1.0
293
     1
141
0.0
294
     1
177
     0
142
1.0
295
     1
296
     0
143
0.125
271
     0
272
     9
273
     9
298
     1
  0
MLINESTYLE
  5
60
102
{ACAD_REACTORS
330
5F
102
}
330
5F
100
AcDbMlineStyle
  2
STANDARD
 70
     0
  3

 62
   256
 51
90.0
 52
90.0
 71
     2
 49
0.5
 62
   256
  6
BYLAYER
 49
-0.5
 62
   256
  6
BYLAYER
  0
ACDBPLACEHOLDER
  5
F
102
{ACAD_REACTORS
330
E
102
}
330
E
  0
SCALE
  5
43
102
{ACAD_REACTORS
330
42
102
}
330
42
100
AcDbScale
 70
     0
300
1:1
140
1.0
141
1.0
290
     1
  0
SCALE
  5
44
102
{ACAD_REACTORS
330
42
102
}
330
42
100
AcDbScale
 70
     0
300
1/128" = 1'-0"
140
0.0078125
141
12.0
290
     0
  0
SCALE
  5
45
102
{ACAD_REACTORS
330
42
102
}
330
42
100
AcDbScale
 70
     0
300
1/64" = 1'-0"
140
0.015625
141
12.0
290
     0
  0
SCALE
  5
46
102
{ACAD_REACTORS
330
42
102
}
330
42
100
AcDbScale
 70
     0
300
1/32" = 1'-0"
140
0.03125
141
12.0
290
     0
  0
SCALE
  5
47
102
{ACAD_REACTORS
330
42
102
}
330
42
100
AcDbScale
 70
     0
300
1/16" = 1'-0"
140
0.0625
141
12.0
290
     0
  0
SCALE
  5
48
102
{ACAD_REACTORS
330
42
102
}
330
42
100
AcDbScale
 70
     0
300
3/32" = 1'-0"
140
0.09375
141
12.0
290
     0
  0
SCALE
  5
49
102
{ACAD_REACTORS
330
42
102
}
330
42
100
AcDbScale
 70
     0
300
1/8" = 1'-0"
140
0.125
141
12.0
290
     0
  0
SCALE
  5
4A
102
{ACAD_REACTORS
330
42
102
}
330
42
100
AcDbScale
 70
     0
300
3/16" = 1'-0"
140
0.1875
141
12.0
290
     0
  0
SCALE
  5
4B
102
{ACAD_REACTORS
330
42
102
}
330
42
100
AcDbScale
 70
     0
300
1/4" = 1'-0"
140
0.25
141
12.0
290
     0
  0
SCALE
  5
4C
102
{ACAD_REACTORS
330
42
102
}
330
42
100
AcDbScale
 70
     0
300
3/8" = 1'-0"
140
0.375
141
12.0
290
     0
  0
SCALE
  5
4D
102
{ACAD_REACTORS
330
42
102
}
330
42
100
AcDbScale
 70
     0
300
1/2" = 1'-0"
140
0.5
141
12.0
290
     0
  0
SCALE
  5
4E
102
{ACAD_REACTORS
330
42
102
}
330
42
100
AcDbScale
 70
     0
300
3/4" = 1'-0"
140
0.75
141
12.0
290
     0
  0
SCALE
  5
4F
102
{ACAD_REACTORS
330
42
102
}
330
42
100
AcDbScale
 70
     0
300
1" = 1'-0"
140
1.0
141
12.0
290
     0
  0
SCALE
  5
50
102
{ACAD_REACTORS
330
42
102
}
330
42
100
AcDbScale
 70
     0
300
1-1/2" = 1'-0"
140
1.5
141
12.0
290
     0
  0
SCALE
  5
51
102
{ACAD_REACTORS
330
42
102
}
330
42
100
AcDbScale
 70
     0
300
3" = 1'-0"
140
3.0
141
12.0
290
     0
  0
SCALE
  5
52
102
{ACAD_REACTORS
330
42
102
}
330
42
100
AcDbScale
 70
     0
300
6" = 1'-0"
140
6.0
141
12.0
290
     0
  0
SCALE
  5
53
102
{ACAD_REACTORS
330
42
102
}
330
42
100
AcDbScale
 70
     0
300
1'-0" = 1'-0"
140
12.0
141
12.0
290
     0
  0
ACDBSECTIONVIEWSTYLE
  5
6A
102
{ACAD_REACTORS
330
68
102
}
330
68
100
AcDbModelDocViewStyle
 70
     0
  3
Imperial24
290
     1
100
AcDbSectionViewStyle
 70
     0
 71
     0
 90
       78
 71
     1
340
55
 62
   256
 40
0.24
340
0
340
0
 62
   256
 40
0.24
300
I, O, Q, S, X, Z
 40
0.48
 90
        3
 40
0.18
 90
        1
 71
     2
340
69
 90
       25
 62
   256
340
5D
 90
       50
 62
   256
 40
0.24
 40
0.0
 40
0.24
 71
     3
340
55
 62
   256
 40
0.24
 90
        1
 40
0.75
 90
        1
300
%<\AcVar ViewType \f "%tc1">% %<\AcVar ViewSectionStartId>%-%<\AcVar ViewSectionEndId>%\PSCALA %<\AcVar ViewScale \f "%sn">%
 71
     4
 62
   256
 62
   257
300
ANSI31
 40
1.0
 90
        0
290
     0
290
     0
 90
        6
 40
0.0
 40
1.570796326794896
 40
0.2617993877991494
 40
1.308996938995747
 40
-0.2617993877991494
 40
1.832595714594046
  0
TABLESTYLE
  5
65
102
{ACAD_XDICTIONARY
360
395
102
}
102
{ACAD_REACTORS
330
64
102
}
330
64
100
AcDbTableStyle
280
     0
  3
Standard
 70
     0
 71
     0
 40
0.06
 41
0.06
280
     0
281
     0
  7
Standard
140
0.18
170
     2
 62
     0
 63
     7
283
     0
 90
      512
 91
        0
  1

274
    -2
284
     1
 64
     0
275
    -2
285
     1
 65
     0
276
    -2
286
     1
 66
     0
277
    -2
287
     1
 67
     0
278
    -2
288
     1
 68
     0
279
    -2
289
     1
 69
     0
  7
Standard
140
0.25
170
     5
 62
     0
 63
     7
283
     0
 90
      512
 91
        0
  1

274
    -2
284
     1
 64
     0
275
    -2
285
     1
 65
     0
276
    -2
286
     1
 66
     0
277
    -2
287
     1
 67
     0
278
    -2
288
     1
 68
     0
279
    -2
289
     1
 69
     0
  7
Standard
140
0.18
170
     5
 62
     0
 63
     7
283
     0
 90
      512
 91
        0
  1

274
    -2
284
     1
 64
     0
275
    -2
285
     1
 65
     0
276
    -2
286
     1
 66
     0
277
    -2
287
     1
 67
     0
278
    -2
288
     1
 68
     0
279
    -2
289
     1
 69
     0
  0
VISUALSTYLE
  5
2F
102
{ACAD_REACTORS
330
29
102
}
330
29
100
AcDbVisualStyle
  2
2dWireframe
 70
     4
177
     3
291
     0
 70
    58
 90
        0
176
     1
 90
        2
176
     1
 90
        0
176
     1
 90
        0
176
     1
 40
0.6
176
     1
 40
30.0
176
     1
 62
     7
420
 16777215
176
     1
 90
        1
176
     1
 90
        4
176
     1
 62
     7
176
     1
 62
   257
176
     1
 90
        1
176
     1
 90
        1
176
     1
 40
1.0
176
     1
 90
        0
176
     1
 62
   257
176
     1
 40
1.0
176
     1
 90
        1
176
     1
 90
        6
176
     1
 90
        2
176
     1
 62
     7
176
     1
 90
        5
176
     1
 90
        0
176
     1
 90
        0
176
     1
290
     0
176
     1
 90
        1
176
     1
 40
0.0
176
     1
 90
        0
176
     1
290
     1
176
     1
290
     1
176
     1
290
     0
176
     1
290
     0
176
     1
290
     0
176
     1
290
     0
176
     1
290
     0
176
     1
290
     0
176
     1
290
     0
176
     1
 90
       50
176
     1
 40
0.0
176
     1
 40
1.0
176
     1
 90
        0
176
     1
 62
    18
420
        0
176
     1
 90
       50
176
     1
 90
        3
176
     1
 62
     5
420
      255
176
     1
290
     0
176
     1
 90
       50
176
     1
 90
       50
176
     1
 90
       50
176
     1
290
     0
176
     1
 90
       50
176
     1
 62
   256
176
     0
 40
1.0
176
     0
 90
        2
176
     1
  1
strokes_ogs.tif
176
     1
290
     0
176
     1
 40
1.0
176
     1
 40
1.0
176
     1
  0
VISUALSTYLE
  5
2E
102
{ACAD_REACTORS
330
29
102
}
330
29
100
AcDbVisualStyle
  2
Basic
 70
     7
177
     3
291
     1
 70
    58
 90
        1
176
     1
 90
        0
176
     1
 90
        1
176
     1
 90
        0
176
     1
 40
0.6
176
     1
 40
30.0
176
     1
 62
     7
420
 16777215
176
     1
 90
        0
176
     1
 90
        4
176
     1
 62
     7
176
     1
 62
   257
176
     1
 90
        1
176
     1
 90
        1
176
     1
 40
1.0
176
     1
 90
        8
176
     1
 62
     7
176
     1
 40
1.0
176
     1
 90
        1
176
     1
 90
        6
176
     1
 90
        2
176
     1
 62
     7
176
     1
 90
        5
176
     1
 90
        0
176
     1
 90
        0
176
     1
290
     0
176
     1
 90
        1
176
     1
 40
0.0
176
     1
 90
        0
176
     1
290
     0
176
     1
290
     1
176
     1
290
     1
176
     1
290
     0
176
     1
290
     0
176
     1
290
     0
176
     1
290
     0
176
     1
290
     0
176
     1
290
     0
176
     1
 90
       50
176
     1
 40
0.0
176
     1
 40
1.0
176
     1
 90
        0
176
     1
 62
    18
420
        0
176
     1
 90
       50
176
     1
 90
        3
176
     1
 62
     5
420
      255
176
     1
290
     0
176
     1
 90
       50
176
     1
 90
       50
176
     1
 90
       50
176
     1
290
     0
176
     1
 90
       50
176
     1
 62
   256
176
     0
 40
1.0
176
     0
 90
        2
176
     1
  1
strokes_ogs.tif
176
     1
290
     0
176
     1
 40
1.0
176
     1
 40
1.0
176
     1
  0
VISUALSTYLE
  5
35
102
{ACAD_REACTORS
330
29
102
}
330
29
100
AcDbVisualStyle
  2
Brighten
 70
    12
177
     3
291
     1
 70
    58
 90
        2
176
     1
 90
        2
176
     1
 90
        0
176
     1
 90
        0
176
     1
 40
0.6
176
     1
 40
30.0
176
     1
 62
     7
420
 16777215
176
     1
 90
        1
176
     1
 90
        4
176
     1
 62
     7
176
     1
 62
   257
176
     1
 90
        1
176
     1
 90
        1
176
     1
 40
1.0
176
     1
 90
        8
176
     1
 62
     7
176
     1
 40
1.0
176
     1
 90
        1
176
     1
 90
        6
176
     1
 90
        2
176
     1
 62
     7
176
     1
 90
        5
176
     1
 90
        0
176
     1
 90
        0
176
     1
290
     0
176
     1
 90
        1
176
     1
 40
50.0
176
     1
 90
        0
176
     1
290
     0
176
     1
290
     1
176
     1
290
     1
176
     1
290
     0
176
     1
290
     0
176
     1
290
     0
176
     1
290
     0
176
     1
290
     0
176
     1
290
     0
176
     1
 90
       50
176
     1
 40
0.0
176
     1
 40
1.0
176
     1
 90
        0
176
     1
 62
    18
420
        0
176
     1
 90
       50
176
     1
 90
        3
176
     1
 62
     5
420
      255
176
     1
290
     0
176
     1
 90
       50
176
     1
 90
       50
176
     1
 90
       50
176
     1
290
     0
176
     1
 90
       50
176
     1
 62
   256
176
     0
 40
1.0
176
     0
 90
        2
176
     1
  1
strokes_ogs.tif
176
     1
290
     0
176
     1
 40
1.0
176
     1
 40
1.0
176
     1
  0
VISUALSTYLE
  5
39
102
{ACAD_REACTORS
330
29
102
}
330
29
100
AcDbVisualStyle
  2
ColorChange
 70
    16
177
     3
291
     1
 70
    58
 90
        2
176
     1
 90
        2
176
     1
 90
        3
176
     1
 90
        0
176
     1
 40
0.6
176
     1
 40
30.0
176
     1
 62
     8
420
  8421504
176
     1
 90
        1
176
     1
 90
        4
176
     1
 62
     7
176
     1
 62
   257
176
     1
 90
        1
176
     1
 90
        1
176
     1
 40
1.0
176
     1
 90
        8
176
     1
 62
     8
420
  8421504
176
     1
 40
1.0
176
     1
 90
        1
176
     1
 90
        6
176
     1
 90
        2
176
     1
 62
     7
176
     1
 90
        5
176
     1
 90
        0
176
     1
 90
        0
176
     1
290
     0
176
     1
 90
        1
176
     1
 40
0.0
176
     1
 90
        0
176
     1
290
     0
176
     1
290
     1
176
     1
290
     1
176
     1
290
     0
176
     1
290
     0
176
     1
290
     0
176
     1
290
     0
176
     1
290
     0
176
     1
290
     0
176
     1
 90
       50
176
     1
 40
0.0
176
     1
 40
1.0
176
     1
 90
        0
176
     1
 62
    18
420
        0
176
     1
 90
       50
176
     1
 90
        3
176
     1
 62
     5
420
      255
176
     1
290
     0
176
     1
 90
       50
176
     1
 90
       50
176
     1
 90
       50
176
     1
290
     0
176
     1
 90
       50
176
     1
 62
   256
176
     0
 40
1.0
176
     0
 90
        2
176
     1
  1
strokes_ogs.tif
176
     1
290
     0
176
     1
 40
1.0
176
     1
 40
1.0
176
     1
  0
VISUALSTYLE
  5
32
102
{ACAD_REACTORS
330
29
102
}
330
29
100
AcDbVisualStyle
  2
Conceptual
 70
     9
177
     3
291
     0
 70
    58
 90
        3
176
     1
 90
        2
176
     1
 90
        0
176
     1
 90
        0
176
     1
 40
0.6
176
     1
 40
30.0
176
     1
 62
     7
420
 16777215
176
     1
 90
        2
176
     1
 90
        2
176
     1
 62
     7
176
     1
 62
   257
176
     1
 90
        1
176
     1
 90
        1
176
     1
 40
179.0
176
     1
 90
        8
176
     1
 62
     7
176
     1
 40
1.0
176
     1
 90
        1
176
     1
 90
        6
176
     1
 90
        2
176
     1
 62
     7
176
     1
 90
        3
176
     1
 90
        0
176
     1
 90
        0
176
     1
290
     0
176
     1
 90
        1
176
     1
 40
0.0
176
     1
 90
        0
176
     1
290
     0
176
     1
290
     1
176
     1
290
     1
176
     1
290
     0
176
     1
290
     0
176
     1
290
     0
176
     1
290
     0
176
     1
290
     0
176
     1
290
     0
176
     1
 90
       50
176
     1
 40
0.0
176
     1
 40
1.0
176
     1
 90
        0
176
     1
 62
    18
420
        0
176
     1
 90
       50
176
     1
 90
        3
176
     1
 62
     5
420
      255
176
     1
290
     0
176
     1
 90
       50
176
     1
 90
       50
176
     1
 90
       50
176
     1
290
     0
176
     1
 90
       50
176
     1
 62
   256
176
     0
 40
1.0
176
     0
 90
        2
176
     1
  1
strokes_ogs.tif
176
     1
290
     0
176
     1
 40
1.0
176
     1
 40
1.0
176
     1
  0
VISUALSTYLE
  5
34
102
{ACAD_REACTORS
330
29
102
}
330
29
100
AcDbVisualStyle
  2
Dim
 70
    11
177
     3
291
     1
 70
    58
 90
        2
176
     1
 90
        2
176
     1
 90
        0
176
     1
 90
        0
176
     1
 40
0.6
176
     1
 40
30.0
176
     1
 62
     7
420
 16777215
176
     1
 90
        1
176
     1
 90
        4
176
     1
 62
     7
176
     1
 62
   257
176
     1
 90
        1
176
     1
 90
        1
176
     1
 40
1.0
176
     1
 90
        8
176
     1
 62
     7
176
     1
 40
1.0
176
     1
 90
        1
176
     1
 90
        6
176
     1
 90
        2
176
     1
 62
     7
176
     1
 90
        5
176
     1
 90
        0
176
     1
 90
        0
176
     1
290
     0
176
     1
 90
        1
176
     1
 40
-50.0
176
     1
 90
        0
176
     1
290
     0
176
     1
290
     1
176
     1
290
     1
176
     1
290
     0
176
     1
290
     0
176
     1
290
     0
176
     1
290
     0
176
     1
290
     0
176
     1
290
     0
176
     1
 90
       50
176
     1
 40
0.0
176
     1
 40
1.0
176
     1
 90
        0
176
     1
 62
    18
420
        0
176
     1
 90
       50
176
     1
 90
        3
176
     1
 62
     5
420
      255
176
     1
290
     0
176
     1
 90
       50
176
     1
 90
       50
176
     1
 90
       50
176
     1
290
     0
176
     1
 90
       50
176
     1
 62
   256
176
     0
 40
1.0
176
     0
 90
        2
176
     1
  1
strokes_ogs.tif
176
     1
290
     0
176
     1
 40
1.0
176
     1
 40
1.0
176
     1
  0
VISUALSTYLE
  5
41
102
{ACAD_REACTORS
330
29
102
}
330
29
100
AcDbVisualStyle
  2
EdgeColorOff
 70
    22
177
     3
291
     1
 70
    58
 90
        2
176
     0
 90
        2
176
     0
 90
        0
176
     0
 90
        0
176
     0
 40
0.6
176
     0
 40
30.0
176
     0
 62
     7
420
 16777215
176
     0
 90
        1
176
     0
 90
        4
176
     0
 62
     7
176
     0
 62
   257
176
     0
 90
        1
176
     0
 90
        1
176
     0
 40
1.0
176
     0
 90
        8
176
     2
 62
     7
176
     0
 40
1.0
176
     0
 90
        1
176
     0
 90
        6
176
     0
 90
        2
176
     0
 62
     7
176
     0
 90
        5
176
     0
 90
        0
176
     0
 90
        0
176
     0
290
     0
176
     0
 90
        1
176
     0
 40
0.0
176
     0
 90
        0
176
     0
290
     0
176
     0
290
     1
176
     0
290
     1
176
     0
290
     0
176
     0
290
     0
176
     0
290
     0
176
     0
290
     0
176
     0
290
     0
176
     0
290
     0
176
     0
 90
       50
176
     0
 40
0.0
176
     0
 40
1.0
176
     0
 90
        0
176
     0
 62
    18
420
        0
176
     0
 90
       50
176
     0
 90
        3
176
     0
 62
     5
420
      255
176
     0
290
     0
176
     0
 90
       50
176
     0
 90
       50
176
     0
 90
       50
176
     0
290
     0
176
     0
 90
       50
176
     0
 62
   256
176
     0
 40
1.0
176
     0
 90
        2
176
     0
  1
strokes_ogs.tif
176
     0
290
     0
176
     0
 40
1.0
176
     0
 40
1.0
176
     0
  0
VISUALSTYLE
  5
38
102
{ACAD_REACTORS
330
29
102
}
330
29
100
AcDbVisualStyle
  2
Facepattern
 70
    15
177
     3
291
     1
 70
    58
 90
        2
176
     1
 90
        2
176
     1
 90
        0
176
     1
 90
        0
176
     1
 40
0.6
176
     1
 40
30.0
176
     1
 62
     7
420
 16777215
176
     1
 90
        1
176
     1
 90
        4
176
     1
 62
     7
176
     1
 62
   257
176
     1
 90
        1
176
     1
 90
        1
176
     1
 40
1.0
176
     1
 90
        8
176
     1
 62
     7
176
     1
 40
1.0
176
     1
 90
        1
176
     1
 90
        6
176
     1
 90
        2
176
     1
 62
     7
176
     1
 90
        5
176
     1
 90
        0
176
     1
 90
        0
176
     1
290
     0
176
     1
 90
        1
176
     1
 40
0.0
176
     1
 90
        0
176
     1
290
     0
176
     1
290
     1
176
     1
290
     1
176
     1
290
     0
176
     1
290
     0
176
     1
290
     0
176
     1
290
     0
176
     1
290
     0
176
     1
290
     0
176
     1
 90
       50
176
     1
 40
0.0
176
     1
 40
1.0
176
     1
 90
        0
176
     1
 62
    18
420
        0
176
     1
 90
       50
176
     1
 90
        3
176
     1
 62
     5
420
      255
176
     1
290
     0
176
     1
 90
       50
176
     1
 90
       50
176
     1
 90
       50
176
     1
290
     0
176
     1
 90
       50
176
     1
 62
   256
176
     0
 40
1.0
176
     0
 90
        2
176
     1
  1
strokes_ogs.tif
176
     1
290
     0
176
     1
 40
1.0
176
     1
 40
1.0
176
     1
  0
VISUALSTYLE
  5
2A
102
{ACAD_REACTORS
330
29
102
}
330
29
100
AcDbVisualStyle
  2
Flat
 70
     0
177
     3
291
     1
 70
    58
 90
        2
176
     1
 90
        1
176
     1
 90
        1
176
     1
 90
        2
176
     1
 40
0.6
176
     1
 40
30.0
176
     1
 62
     7
420
 16777215
176
     1
 90
        0
176
     1
 90
        0
176
     1
 62
     7
176
     1
 62
   257
176
     1
 90
        1
176
     1
 90
        1
176
     1
 40
1.0
176
     1
 90
        8
176
     1
 62
     7
176
     1
 40
1.0
176
     1
 90
        1
176
     1
 90
        6
176
     1
 90
        2
176
     1
 62
     7
176
     1
 90
        5
176
     1
 90
        0
176
     1
 90
        0
176
     1
290
     0
176
     1
 90
       13
176
     1
 40
0.0
176
     1
 90
        0
176
     1
290
     0
176
     1
290
     1
176
     1
290
     1
176
     1
290
     0
176
     1
290
     0
176
     1
290
     0
176
     1
290
     0
176
     1
290
     0
176
     1
290
     0
176
     1
 90
       50
176
     1
 40
0.0
176
     1
 40
1.0
176
     1
 90
        0
176
     1
 62
    18
420
        0
176
     1
 90
       50
176
     1
 90
        3
176
     1
 62
     5
420
      255
176
     1
290
     0
176
     1
 90
       50
176
     1
 90
       50
176
     1
 90
       50
176
     1
290
     0
176
     1
 90
       50
176
     1
 62
   256
176
     0
 40
1.0
176
     0
 90
        2
176
     1
  1
strokes_ogs.tif
176
     1
290
     0
176
     1
 40
1.0
176
     1
 40
1.0
176
     1
  0
VISUALSTYLE
  5
2B
102
{ACAD_REACTORS
330
29
102
}
330
29
100
AcDbVisualStyle
  2
FlatWithEdges
 70
     1
177
     3
291
     1
 70
    58
 90
        2
176
     1
 90
        1
176
     1
 90
        1
176
     1
 90
        2
176
     1
 40
0.6
176
     1
 40
30.0
176
     1
 62
     7
420
 16777215
176
     1
 90
        1
176
     1
 90
        0
176
     1
 62
     7
176
     1
 62
   257
176
     1
 90
        1
176
     1
 90
        1
176
     1
 40
1.0
176
     1
 90
        0
176
     1
 62
   257
176
     1
 40
1.0
176
     1
 90
        1
176
     1
 90
        6
176
     1
 90
        2
176
     1
 62
     7
176
     1
 90
        5
176
     1
 90
        0
176
     1
 90
        0
176
     1
290
     0
176
     1
 90
       13
176
     1
 40
0.0
176
     1
 90
        0
176
     1
290
     0
176
     1
290
     1
176
     1
290
     1
176
     1
290
     0
176
     1
290
     0
176
     1
290
     0
176
     1
290
     0
176
     1
290
     0
176
     1
290
     0
176
     1
 90
       50
176
     1
 40
0.0
176
     1
 40
1.0
176
     1
 90
        0
176
     1
 62
    18
420
        0
176
     1
 90
       50
176
     1
 90
        3
176
     1
 62
     5
420
      255
176
     1
290
     0
176
     1
 90
       50
176
     1
 90
       50
176
     1
 90
       50
176
     1
290
     0
176
     1
 90
       50
176
     1
 62
   256
176
     0
 40
1.0
176
     0
 90
        2
176
     1
  1
strokes_ogs.tif
176
     1
290
     0
176
     1
 40
1.0
176
     1
 40
1.0
176
     1
  0
VISUALSTYLE
  5
2C
102
{ACAD_REACTORS
330
29
102
}
330
29
100
AcDbVisualStyle
  2
Gouraud
 70
     2
177
     3
291
     1
 70
    58
 90
        2
176
     1
 90
        2
176
     1
 90
        1
176
     1
 90
        2
176
     1
 40
0.6
176
     1
 40
30.0
176
     1
 62
     7
420
 16777215
176
     1
 90
        0
176
     1
 90
        0
176
     1
 62
     7
176
     1
 62
   257
176
     1
 90
        1
176
     1
 90
        1
176
     1
 40
1.0
176
     1
 90
        0
176
     1
 62
     7
176
     1
 40
1.0
176
     1
 90
        1
176
     1
 90
        6
176
     1
 90
        2
176
     1
 62
     7
176
     1
 90
        5
176
     1
 90
        0
176
     1
 90
        0
176
     1
290
     0
176
     1
 90
       13
176
     1
 40
0.0
176
     1
 90
        0
176
     1
290
     0
176
     1
290
     1
176
     1
290
     1
176
     1
290
     0
176
     1
290
     0
176
     1
290
     0
176
     1
290
     0
176
     1
290
     0
176
     1
290
     0
176
     1
 90
       50
176
     1
 40
0.0
176
     1
 40
1.0
176
     1
 90
        0
176
     1
 62
    18
420
        0
176
     1
 90
       50
176
     1
 90
        3
176
     1
 62
     5
420
      255
176
     1
290
     0
176
     1
 90
       50
176
     1
 90
       50
176
     1
 90
       50
176
     1
290
     0
176
     1
 90
       50
176
     1
 62
   256
176
     0
 40
1.0
176
     0
 90
        2
176
     1
  1
strokes_ogs.tif
176
     1
290
     0
176
     1
 40
1.0
176
     1
 40
1.0
176
     1
  0
VISUALSTYLE
  5
2D
102
{ACAD_REACTORS
330
29
102
}
330
29
100
AcDbVisualStyle
  2
GouraudWithEdges
 70
     3
177
     3
291
     1
 70
    58
 90
        2
176
     1
 90
        2
176
     1
 90
        1
176
     1
 90
        2
176
     1
 40
0.6
176
     1
 40
30.0
176
     1
 62
     7
420
 16777215
176
     1
 90
        1
176
     1
 90
        0
176
     1
 62
     7
176
     1
 62
   257
176
     1
 90
        1
176
     1
 90
        1
176
     1
 40
1.0
176
     1
 90
        0
176
     1
 62
   257
176
     1
 40
1.0
176
     1
 90
        1
176
     1
 90
        6
176
     1
 90
        2
176
     1
 62
     7
176
     1
 90
        5
176
     1
 90
        0
176
     1
 90
        0
176
     1
290
     0
176
     1
 90
       13
176
     1
 40
0.0
176
     1
 90
        0
176
     1
290
     0
176
     1
290
     1
176
     1
290
     1
176
     1
290
     0
176
     1
290
     0
176
     1
290
     0
176
     1
290
     0
176
     1
290
     0
176
     1
290
     0
176
     1
 90
       50
176
     1
 40
0.0
176
     1
 40
1.0
176
     1
 90
        0
176
     1
 62
    18
420
        0
176
     1
 90
       50
176
     1
 90
        3
176
     1
 62
     5
420
      255
176
     1
290
     0
176
     1
 90
       50
176
     1
 90
       50
176
     1
 90
       50
176
     1
290
     0
176
     1
 90
       50
176
     1
 62
   256
176
     0
 40
1.0
176
     0
 90
        2
176
     1
  1
strokes_ogs.tif
176
     1
290
     0
176
     1
 40
1.0
176
     1
 40
1.0
176
     1
  0
VISUALSTYLE
  5
31
102
{ACAD_REACTORS
330
29
102
}
330
29
100
AcDbVisualStyle
  2
Hidden
 70
     6
177
     3
291
     0
 70
    58
 90
        1
176
     1
 90
        2
176
     1
 90
        2
176
     1
 90
        0
176
     1
 40
0.6
176
     1
 40
30.0
176
     1
 62
     7
420
 16777215
176
     1
 90
        2
176
     1
 90
        2
176
     1
 62
     7
176
     1
 62
   257
176
     1
 90
        2
176
     1
 90
        1
176
     1
 40
40.0
176
     1
 90
        0
176
     1
 62
   257
176
     1
 40
1.0
176
     1
 90
        1
176
     1
 90
        6
176
     1
 90
        2
176
     1
 62
     7
176
     1
 90
        3
176
     1
 90
        0
176
     1
 90
        0
176
     1
290
     0
176
     1
 90
        1
176
     1
 40
0.0
176
     1
 90
        0
176
     1
290
     0
176
     1
290
     1
176
     1
290
     1
176
     1
290
     0
176
     1
290
     0
176
     1
290
     0
176
     1
290
     0
176
     1
290
     0
176
     1
290
     0
176
     1
 90
       50
176
     1
 40
0.0
176
     1
 40
1.0
176
     1
 90
        0
176
     1
 62
    18
420
        0
176
     1
 90
       50
176
     1
 90
        3
176
     1
 62
     5
420
      255
176
     1
290
     0
176
     1
 90
       50
176
     1
 90
       50
176
     1
 90
       50
176
     1
290
     0
176
     1
 90
       50
176
     1
 62
   256
176
     0
 40
1.0
176
     0
 90
        2
176
     1
  1
strokes_ogs.tif
176
     1
290
     0
176
     1
 40
1.0
176
     1
 40
1.0
176
     1
  0
VISUALSTYLE
  5
3F
102
{ACAD_REACTORS
330
29
102
}
330
29
100
AcDbVisualStyle
  2
JitterOff
 70
    20
177
     3
291
     1
 70
    58
 90
        2
176
     0
 90
        2
176
     0
 90
        0
176
     0
 90
        0
176
     0
 40
0.6
176
     0
 40
30.0
176
     0
 62
     7
420
 16777215
176
     0
 90
        1
176
     0
 90
        4
176
     0
 62
     7
176
     0
 62
   257
176
     0
 90
        1
176
     0
 90
        1
176
     0
 40
1.0
176
     0
 90
       10
176
     2
 62
     7
176
     0
 40
1.0
176
     0
 90
        1
176
     0
 90
        6
176
     0
 90
        2
176
     0
 62
     7
176
     0
 90
        5
176
     0
 90
        0
176
     0
 90
        0
176
     0
290
     0
176
     0
 90
        1
176
     0
 40
0.0
176
     0
 90
        0
176
     0
290
     0
176
     0
290
     1
176
     0
290
     1
176
     0
290
     0
176
     0
290
     0
176
     0
290
     0
176
     0
290
     0
176
     0
290
     0
176
     0
290
     0
176
     0
 90
       50
176
     0
 40
0.0
176
     0
 40
1.0
176
     0
 90
        0
176
     0
 62
    18
420
        0
176
     0
 90
       50
176
     0
 90
        3
176
     0
 62
     5
420
      255
176
     0
290
     0
176
     0
 90
       50
176
     0
 90
       50
176
     0
 90
       50
176
     0
290
     0
176
     0
 90
       50
176
     0
 62
   256
176
     0
 40
1.0
176
     0
 90
        2
176
     0
  1
strokes_ogs.tif
176
     0
290
     0
176
     0
 40
1.0
176
     0
 40
1.0
176
     0
  0
VISUALSTYLE
  5
37
102
{ACAD_REACTORS
330
29
102
}
330
29
100
AcDbVisualStyle
  2
Linepattern
 70
    14
177
     3
291
     1
 70
    58
 90
        2
176
     1
 90
        2
176
     1
 90
        0
176
     1
 90
        0
176
     1
 40
0.6
176
     1
 40
30.0
176
     1
 62
     7
420
 16777215
176
     1
 90
        1
176
     1
 90
        4
176
     1
 62
     7
176
     1
 62
   257
176
     1
 90
        7
176
     1
 90
        7
176
     1
 40
1.0
176
     1
 90
        8
176
     1
 62
     7
176
     1
 40
1.0
176
     1
 90
        1
176
     1
 90
        6
176
     1
 90
        2
176
     1
 62
     7
176
     1
 90
        5
176
     1
 90
        0
176
     1
 90
        0
176
     1
290
     0
176
     1
 90
        1
176
     1
 40
0.0
176
     1
 90
        0
176
     1
290
     0
176
     1
290
     1
176
     1
290
     1
176
     1
290
     0
176
     1
290
     0
176
     1
290
     0
176
     1
290
     0
176
     1
290
     0
176
     1
290
     0
176
     1
 90
       50
176
     1
 40
0.0
176
     1
 40
1.0
176
     1
 90
        0
176
     1
 62
    18
420
        0
176
     1
 90
       50
176
     1
 90
        3
176
     1
 62
     5
420
      255
176
     1
290
     0
176
     1
 90
       50
176
     1
 90
       50
176
     1
 90
       50
176
     1
290
     0
176
     1
 90
       50
176
     1
 62
   256
176
     0
 40
1.0
176
     0
 90
        2
176
     1
  1
strokes_ogs.tif
176
     1
290
     0
176
     1
 40
1.0
176
     1
 40
1.0
176
     1
  0
VISUALSTYLE
  5
40
102
{ACAD_REACTORS
330
29
102
}
330
29
100
AcDbVisualStyle
  2
OverhangOff
 70
    21
177
     3
291
     1
 70
    58
 90
        2
176
     0
 90
        2
176
     0
 90
        0
176
     0
 90
        0
176
     0
 40
0.6
176
     0
 40
30.0
176
     0
 62
     7
420
 16777215
176
     0
 90
        1
176
     0
 90
        4
176
     0
 62
     7
176
     0
 62
   257
176
     0
 90
        1
176
     0
 90
        1
176
     0
 40
1.0
176
     0
 90
        9
176
     2
 62
     7
176
     0
 40
1.0
176
     0
 90
        1
176
     0
 90
        6
176
     0
 90
        2
176
     0
 62
     7
176
     0
 90
        5
176
     0
 90
        0
176
     0
 90
        0
176
     0
290
     0
176
     0
 90
        1
176
     0
 40
0.0
176
     0
 90
        0
176
     0
290
     0
176
     0
290
     1
176
     0
290
     1
176
     0
290
     0
176
     0
290
     0
176
     0
290
     0
176
     0
290
     0
176
     0
290
     0
176
     0
290
     0
176
     0
 90
       50
176
     0
 40
0.0
176
     0
 40
1.0
176
     0
 90
        0
176
     0
 62
    18
420
        0
176
     0
 90
       50
176
     0
 90
        3
176
     0
 62
     5
420
      255
176
     0
290
     0
176
     0
 90
       50
176
     0
 90
       50
176
     0
 90
       50
176
     0
290
     0
176
     0
 90
       50
176
     0
 62
   256
176
     0
 40
1.0
176
     0
 90
        2
176
     0
  1
strokes_ogs.tif
176
     0
290
     0
176
     0
 40
1.0
176
     0
 40
1.0
176
     0
  0
VISUALSTYLE
  5
33
102
{ACAD_REACTORS
330
29
102
}
330
29
100
AcDbVisualStyle
  2
Realistic
 70
     8
177
     3
291
     0
 70
    58
 90
        2
176
     1
 90
        3
176
     1
 90
        0
176
     1
 90
        2
176
     1
 40
0.6
176
     1
 40
30.0
176
     1
 62
     7
420
 16777215
176
     1
 90
        0
176
     1
 90
        0
176
     1
 62
     7
176
     1
 62
   257
176
     1
 90
        1
176
     1
 90
        1
176
     1
 40
1.0
176
     1
 90
        8
176
     1
 62
   257
176
     1
 40
1.0
176
     1
 90
        1
176
     1
 90
        6
176
     1
 90
        2
176
     1
 62
     7
176
     1
 90
        3
176
     1
 90
        0
176
     1
 90
        0
176
     1
290
     0
176
     1
 90
       13
176
     1
 40
0.0
176
     1
 90
        0
176
     1
290
     0
176
     1
290
     1
176
     1
290
     1
176
     1
290
     0
176
     1
290
     0
176
     1
290
     0
176
     1
290
     0
176
     1
290
     0
176
     1
290
     0
176
     1
 90
       50
176
     1
 40
0.0
176
     1
 40
1.0
176
     1
 90
        0
176
     1
 62
    18
420
        0
176
     1
 90
       50
176
     1
 90
        3
176
     1
 62
     5
420
      255
176
     1
290
     0
176
     1
 90
       50
176
     1
 90
       50
176
     1
 90
       50
176
     1
290
     0
176
     1
 90
       50
176
     1
 62
   256
176
     0
 40
1.0
176
     0
 90
        2
176
     1
  1
strokes_ogs.tif
176
     1
290
     0
176
     1
 40
1.0
176
     1
 40
1.0
176
     1
  0
VISUALSTYLE
  5
3E
102
{ACAD_REACTORS
330
29
102
}
330
29
100
AcDbVisualStyle
  2
Shaded
 70
    27
177
     3
291
     0
 70
    58
 90
        2
176
     1
 90
        2
176
     1
 90
        1
176
     1
 90
        2
176
     1
 40
0.6
176
     1
 40
30.0
176
     1
 62
     7
420
 16777215
176
     1
 90
        0
176
     1
 90
        4
176
     1
 62
     7
176
     1
 62
   257
176
     1
 90
        1
176
     1
 90
        1
176
     1
 40
1.0
176
     1
 90
        8
176
     1
 62
   257
176
     1
 40
1.0
176
     1
 90
        1
176
     1
 90
        6
176
     1
 90
        2
176
     1
 62
     8
420
  7895160
176
     1
 90
        3
176
     1
 90
        0
176
     1
 90
        0
176
     1
290
     0
176
     1
 90
        5
176
     1
 40
0.0
176
     1
 90
        0
176
     1
290
     0
176
     1
290
     1
176
     1
290
     1
176
     1
290
     0
176
     1
290
     0
176
     1
290
     0
176
     1
290
     0
176
     1
290
     0
176
     1
290
     0
176
     1
 90
       50
176
     1
 40
0.0
176
     1
 40
1.0
176
     1
 90
        0
176
     1
 62
    18
420
        0
176
     1
 90
       50
176
     1
 90
        3
176
     1
 62
     5
420
      255
176
     1
290
     0
176
     1
 90
       50
176
     1
 90
       50
176
     1
 90
       50
176
     1
290
     0
176
     1
 90
       50
176
     1
 62
   256
176
     0
 40
1.0
176
     0
 90
        2
176
     1
  1
strokes_ogs.tif
176
     1
290
     0
176
     1
 40
1.0
176
     1
 40
1.0
176
     1
  0
VISUALSTYLE
  5
3D
102
{ACAD_REACTORS
330
29
102
}
330
29
100
AcDbVisualStyle
  2
Shaded with edges
 70
    26
177
     3
291
     0
 70
    58
 90
        2
176
     1
 90
        2
176
     1
 90
        1
176
     1
 90
        2
176
     1
 40
0.6
176
     1
 40
30.0
176
     1
 62
     7
420
 16777215
176
     1
 90
        1
176
     1
 90
       10
176
     1
 62
     7
176
     1
 62
   257
176
     1
 90
        2
176
     1
 90
        1
176
     1
 40
1.0
176
     1
 90
        8
176
     1
 62
   257
176
     1
 40
1.0
176
     1
 90
        1
176
     1
 90
        6
176
     1
 90
        2
176
     1
 62
     7
176
     1
 90
        3
176
     1
 90
        0
176
     1
 90
        0
176
     1
290
     0
176
     1
 90
        5
176
     1
 40
0.0
176
     1
 90
        0
176
     1
290
     0
176
     1
290
     1
176
     1
290
     1
176
     1
290
     0
176
     1
290
     0
176
     1
290
     0
176
     1
290
     0
176
     1
290
     0
176
     1
290
     0
176
     1
 90
       50
176
     1
 40
0.0
176
     1
 40
1.0
176
     1
 90
        0
176
     1
 62
    18
420
        0
176
     1
 90
       50
176
     1
 90
        3
176
     1
 62
     5
420
      255
176
     1
290
     0
176
     1
 90
       50
176
     1
 90
       50
176
     1
 90
       50
176
     1
290
     0
176
     1
 90
       50
176
     1
 62
   256
176
     0
 40
1.0
176
     0
 90
        2
176
     1
  1
strokes_ogs.tif
176
     1
290
     0
176
     1
 40
1.0
176
     1
 40
1.0
176
     1
  0
VISUALSTYLE
  5
3A
102
{ACAD_REACTORS
330
29
102
}
330
29
100
AcDbVisualStyle
  2
Shades of Gray
 70
    23
177
     3
291
     0
 70
    58
 90
        2
176
     1
 90
        2
176
     1
 90
        3
176
     1
 90
        0
176
     1
 40
0.6
176
     1
 40
30.0
176
     1
 62
     7
420
 16777215
176
     1
 90
        2
176
     1
 90
        2
176
     1
 62
     7
176
     1
 62
     7
176
     1
 90
        1
176
     1
 90
        1
176
     1
 40
40.0
176
     1
 90
        8
176
     1
 62
     7
176
     1
 40
1.0
176
     1
 90
        1
176
     1
 90
        6
176
     1
 90
        2
176
     1
 62
     7
176
     1
 90
        3
176
     1
 90
        0
176
     1
 90
        0
176
     1
290
     0
176
     1
 90
        1
176
     1
 40
0.0
176
     1
 90
        0
176
     1
290
     0
176
     1
290
     1
176
     1
290
     1
176
     1
290
     0
176
     1
290
     0
176
     1
290
     0
176
     1
290
     0
176
     1
290
     0
176
     1
290
     0
176
     1
 90
       50
176
     1
 40
0.0
176
     1
 40
1.0
176
     1
 90
        0
176
     1
 62
    18
420
        0
176
     1
 90
       50
176
     1
 90
        3
176
     1
 62
     5
420
      255
176
     1
290
     0
176
     1
 90
       50
176
     1
 90
       50
176
     1
 90
       50
176
     1
290
     0
176
     1
 90
       50
176
     1
 62
   256
176
     0
 40
1.0
176
     0
 90
        2
176
     1
  1
strokes_ogs.tif
176
     1
290
     0
176
     1
 40
1.0
176
     1
 40
1.0
176
     1
  0
VISUALSTYLE
  5
3B
102
{ACAD_REACTORS
330
29
102
}
330
29
100
AcDbVisualStyle
  2
Sketchy
 70
    24
177
     3
291
     0
 70
    58
 90
        1
176
     1
 90
        2
176
     1
 90
        2
176
     1
 90
        0
176
     1
 40
0.6
176
     1
 40
30.0
176
     1
 62
     7
420
 16777215
176
     1
 90
        2
176
     1
 90
        2
176
     1
 62
     7
176
     1
 62
     7
176
     1
 90
        1
176
     1
 90
        1
176
     1
 40
40.0
176
     1
 90
       11
176
     1
 62
     7
176
     1
 40
1.0
176
     1
 90
        1
176
     1
 90
        6
176
     1
 90
        2
176
     1
 62
     7
176
     1
 90
        6
176
     1
 90
        0
176
     1
 90
        0
176
     1
290
     0
176
     1
 90
        1
176
     1
 40
0.0
176
     1
 90
        0
176
     1
290
     0
176
     1
290
     1
176
     1
290
     1
176
     1
290
     0
176
     1
290
     0
176
     1
290
     0
176
     1
290
     0
176
     1
290
     0
176
     1
290
     0
176
     1
 90
       50
176
     1
 40
0.0
176
     1
 40
1.0
176
     1
 90
        0
176
     1
 62
    18
420
        0
176
     1
 90
       50
176
     1
 90
        3
176
     1
 62
     5
420
      255
176
     1
290
     0
176
     1
 90
       50
176
     1
 90
       50
176
     1
 90
       50
176
     1
290
     0
176
     1
 90
       50
176
     1
 62
   256
176
     0
 40
1.0
176
     0
 90
        2
176
     1
  1
strokes_ogs.tif
176
     1
290
     0
176
     1
 40
1.0
176
     1
 40
1.0
176
     1
  0
VISUALSTYLE
  5
36
102
{ACAD_REACTORS
330
29
102
}
330
29
100
AcDbVisualStyle
  2
Thicken
 70
    13
177
     3
291
     1
 70
    58
 90
        2
176
     1
 90
        2
176
     1
 90
        0
176
     1
 90
        0
176
     1
 40
0.6
176
     1
 40
30.0
176
     1
 62
     7
420
 16777215
176
     1
 90
        1
176
     1
 90
        4
176
     1
 62
     7
176
     1
 62
   257
176
     1
 90
        1
176
     1
 90
        1
176
     1
 40
1.0
176
     1
 90
       12
176
     1
 62
     7
176
     1
 40
1.0
176
     1
 90
        1
176
     1
 90
        6
176
     1
 90
        2
176
     1
 62
     7
176
     1
 90
        5
176
     1
 90
        0
176
     1
 90
        0
176
     1
290
     0
176
     1
 90
        1
176
     1
 40
0.0
176
     1
 90
        0
176
     1
290
     0
176
     1
290
     1
176
     1
290
     1
176
     1
290
     0
176
     1
290
     0
176
     1
290
     0
176
     1
290
     0
176
     1
290
     0
176
     1
290
     0
176
     1
 90
       50
176
     1
 40
0.0
176
     1
 40
1.0
176
     1
 90
        0
176
     1
 62
    18
420
        0
176
     1
 90
       50
176
     1
 90
        3
176
     1
 62
     5
420
      255
176
     1
290
     0
176
     1
 90
       50
176
     1
 90
       50
176
     1
 90
       50
176
     1
290
     0
176
     1
 90
       50
176
     1
 62
   256
176
     0
 40
1.0
176
     0
 90
        2
176
     1
  1
strokes_ogs.tif
176
     1
290
     0
176
     1
 40
1.0
176
     1
 40
1.0
176
     1
  0
VISUALSTYLE
  5
30
102
{ACAD_REACTORS
330
29
102
}
330
29
100
AcDbVisualStyle
  2
Wireframe
 70
     5
177
     3
291
     0
 70
    58
 90
        0
176
     1
 90
        2
176
     1
 90
        0
176
     1
 90
        0
176
     1
 40
0.6
176
     1
 40
30.0
176
     1
 62
     7
420
 16777215
176
     1
 90
        1
176
     1
 90
        4
176
     1
 62
     7
176
     1
 62
   257
176
     1
 90
        1
176
     1
 90
        1
176
     1
 40
1.0
176
     1
 90
        0
176
     1
 62
   257
176
     1
 40
1.0
176
     1
 90
        1
176
     1
 90
        6
176
     1
 90
        2
176
     1
 62
     7
176
     1
 90
        3
176
     1
 90
        0
176
     1
 90
        0
176
     1
290
     0
176
     1
 90
        1
176
     1
 40
0.0
176
     1
 90
        0
176
     1
290
     0
176
     1
290
     1
176
     1
290
     1
176
     1
290
     0
176
     1
290
     0
176
     1
290
     0
176
     1
290
     0
176
     1
290
     0
176
     1
290
     0
176
     1
 90
       50
176
     1
 40
0.0
176
     1
 40
1.0
176
     1
 90
        0
176
     1
 62
    18
420
        0
176
     1
 90
       50
176
     1
 90
        3
176
     1
 62
     5
420
      255
176
     1
290
     0
176
     1
 90
       50
176
     1
 90
       50
176
     1
 90
       50
176
     1
290
     0
176
     1
 90
       50
176
     1
 62
   256
176
     0
 40
1.0
176
     0
 90
        2
176
     1
  1
strokes_ogs.tif
176
     1
290
     0
176
     1
 40
1.0
176
     1
 40
1.0
176
     1
  0
VISUALSTYLE
  5
3C
102
{ACAD_REACTORS
330
29
102
}
330
29
100
AcDbVisualStyle
  2
X-Ray
 70
    25
177
     3
291
     0
 70
    58
 90
        2
176
     1
 90
        2
176
     1
 90
        1
176
     1
 90
        1
176
     1
 40
0.5
176
     1
 40
30.0
176
     1
 62
     7
420
 16777215
176
     1
 90
        1
176
     1
 90
        0
176
     1
 62
     7
176
     1
 62
   257
176
     1
 90
        1
176
     1
 90
        1
176
     1
 40
1.0
176
     1
 90
        8
176
     1
 62
     7
176
     1
 40
1.0
176
     1
 90
        1
176
     1
 90
        6
176
     1
 90
        2
176
     1
 62
     7
176
     1
 90
        3
176
     1
 90
        0
176
     1
 90
        0
176
     1
290
     0
176
     1
 90
       13
176
     1
 40
0.0
176
     1
 90
        0
176
     1
290
     0
176
     1
290
     1
176
     1
290
     1
176
     1
290
     0
176
     1
290
     0
176
     1
290
     0
176
     1
290
     0
176
     1
290
     0
176
     1
290
     0
176
     1
 90
       50
176
     1
 40
0.0
176
     1
 40
1.0
176
     1
 90
        0
176
     1
 62
    18
420
        0
176
     1
 90
       50
176
     1
 90
        3
176
     1
 62
     5
420
      255
176
     1
290
     0
176
     1
 90
       50
176
     1
 90
       50
176
     1
 90
       50
176
     1
290
     0
176
     1
 90
       50
176
     1
 62
   256
176
     0
 40
1.0
176
     0
 90
        2
176
     1
  1
strokes_ogs.tif
176
     1
290
     0
176
     1
 40
1.0
176
     1
 40
1.0
176
     1
  0
DICTIONARYVAR
  5
81
102
{ACAD_REACTORS
330
7C
102
}
330
7C
100
DictionaryVariables
280
     0
  1
1:1
  0
DICTIONARYVAR
  5
7E
102
{ACAD_REACTORS
330
7C
102
}
330
7C
100
DictionaryVariables
280
     0
  1
STANDARD
  0
DICTIONARYVAR
  5
7D
102
{ACAD_REACTORS
330
7C
102
}
330
7C
100
DictionaryVariables
280
     0
  1
STANDARD
  0
DICTIONARYVAR
  5
7F
102
{ACAD_REACTORS
330
7C
102
}
330
7C
100
DictionaryVariables
280
     0
  1
Imperial24
  0
DICTIONARYVAR
  5
80
102
{ACAD_REACTORS
330
7C
102
}
330
7C
100
DictionaryVariables
280
     0
  1
Imperial24
  0
XRECORD
  5
392
102
{ACAD_REACTORS
330
38F
102
}
330
38F
100
AcDbXrecord
280
     1
  1
BUILDING_ID
  1
Progetto per messa in tavola DXF, DWG
  1
FLOOR_ID
  1
694395
  0
XRECORD
  5
391
102
{ACAD_REACTORS
330
38F
102
}
330
38F
100
AcDbXrecord
280
     1
  1
-2001160
  1
Apparecchi idraulici
  0
XRECORD
  5
390
102
{ACAD_REACTORS
330
38F
102
}
330
38F
100
AcDbXrecord
280
     1
  1
859151
  1
Automatic flow rate regulator valve_Caleffi_121 DN15 : 1/2''
  0
DICTIONARY
  5
1A
330
19
100
AcDbDictionary
280
     1
281
     1
  3
BUMPTILE
360
1C
  3
DIFFUSETILE
360
1B
  3
OPACITYTILE
360
1F
  3
REFLECTIONTILE
360
1E
  3
REFRACTIONTILE
360
20
  3
SPECULARTILE
360
1D
  0
DICTIONARY
  5
12
330
11
100
AcDbDictionary
280
     1
281
     1
  3
BUMPTILE
360
14
  3
DIFFUSETILE
360
13
  3
OPACITYTILE
360
17
  3
REFLECTIONTILE
360
16
  3
REFRACTIONTILE
360
18
  3
SPECULARTILE
360
15
  0
DICTIONARY
  5
22
330
21
100
AcDbDictionary
280
     1
281
     1
  3
BUMPTILE
360
24
  3
DIFFUSETILE
360
23
  3
OPACITYTILE
360
27
  3
REFLECTIONTILE
360
26
  3
REFRACTIONTILE
360
28
  3
SPECULARTILE
360
25
  0
DICTIONARY
  5
395
330
65
100
AcDbDictionary
280
     1
281
     1
  3
ACAD_ROUNDTRIP_2008_TABLESTYLE_CELLSTYLEMAP
360
396
  0
XRECORD
  5
1C
102
{ACAD_REACTORS
330
1A
102
}
330
1A
100
AcDbXrecord
280
     1
270
     1
271
     1
  0
XRECORD
  5
1B
102
{ACAD_REACTORS
330
1A
102
}
330
1A
100
AcDbXrecord
280
     1
270
     1
271
     1
  0
XRECORD
  5
1F
102
{ACAD_REACTORS
330
1A
102
}
330
1A
100
AcDbXrecord
280
     1
270
     1
271
     1
  0
XRECORD
  5
1E
102
{ACAD_REACTORS
330
1A
102
}
330
1A
100
AcDbXrecord
280
     1
270
     1
271
     1
  0
XRECORD
  5
20
102
{ACAD_REACTORS
330
1A
102
}
330
1A
100
AcDbXrecord
280
     1
270
     1
271
     1
  0
XRECORD
  5
1D
102
{ACAD_REACTORS
330
1A
102
}
330
1A
100
AcDbXrecord
280
     1
270
     1
271
     1
  0
XRECORD
  5
14
102
{ACAD_REACTORS
330
12
102
}
330
12
100
AcDbXrecord
280
     1
270
     1
271
     1
  0
XRECORD
  5
13
102
{ACAD_REACTORS
330
12
102
}
330
12
100
AcDbXrecord
280
     1
270
     1
271
     1
  0
XRECORD
  5
17
102
{ACAD_REACTORS
330
12
102
}
330
12
100
AcDbXrecord
280
     1
270
     1
271
     1
  0
XRECORD
  5
16
102
{ACAD_REACTORS
330
12
102
}
330
12
100
AcDbXrecord
280
     1
270
     1
271
     1
  0
XRECORD
  5
18
102
{ACAD_REACTORS
330
12
102
}
330
12
100
AcDbXrecord
280
     1
270
     1
271
     1
  0
XRECORD
  5
15
102
{ACAD_REACTORS
330
12
102
}
330
12
100
AcDbXrecord
280
     1
270
     1
271
     1
  0
XRECORD
  5
24
102
{ACAD_REACTORS
330
22
102
}
330
22
100
AcDbXrecord
280
     1
270
     1
271
     1
  0
XRECORD
  5
23
102
{ACAD_REACTORS
330
22
102
}
330
22
100
AcDbXrecord
280
     1
270
     1
271
     1
  0
XRECORD
  5
27
102
{ACAD_REACTORS
330
22
102
}
330
22
100
AcDbXrecord
280
     1
270
     1
271
     1
  0
XRECORD
  5
26
102
{ACAD_REACTORS
330
22
102
}
330
22
100
AcDbXrecord
280
     1
270
     1
271
     1
  0
XRECORD
  5
28
102
{ACAD_REACTORS
330
22
102
}
330
22
100
AcDbXrecord
280
     1
270
     1
271
     1
  0
XRECORD
  5
25
102
{ACAD_REACTORS
330
22
102
}
330
22
100
AcDbXrecord
280
     1
270
     1
271
     1
  0
CELLSTYLEMAP
  5
396
102
{ACAD_REACTORS
330
395
102
}
330
395
100
AcDbCellStyleMap
 90
        3
300
CELLSTYLE
  1
TABLEFORMAT_BEGIN
 90
        5
170
     1
 91
        0
 92
    32768
 62
   257
 93
        1
300
CONTENTFORMAT
  1
CONTENTFORMAT_BEGIN
 90
        0
 91
        0
 92
      512
 93
        0
300

 40
0.0
140
1.0
 94
        5
 62
     0
340
55
144
0.25
309
CONTENTFORMAT_END
171
     0
 94
        0
309
TABLEFORMAT_END
  1
CELLSTYLE_BEGIN
 90
        1
 91
        1
300
_TITLE
309
CELLSTYLE_END
300
CELLSTYLE
  1
TABLEFORMAT_BEGIN
 90
        5
170
     1
 91
        0
 92
        0
 62
   257
 93
        1
300
CONTENTFORMAT
  1
CONTENTFORMAT_BEGIN
 90
        0
 91
        0
 92
      512
 93
        0
300

 40
0.0
140
1.0
 94
        5
 62
     0
340
55
144
0.18
309
CONTENTFORMAT_END
171
     0
 94
        0
309
TABLEFORMAT_END
  1
CELLSTYLE_BEGIN
 90
        2
 91
        1
300
_HEADER
309
CELLSTYLE_END
300
CELLSTYLE
  1
TABLEFORMAT_BEGIN
 90
        5
170
     1
 91
        0
 92
        0
 62
   257
 93
        1
300
CONTENTFORMAT
  1
CONTENTFORMAT_BEGIN
 90
        0
 91
        0
 92
      512
 93
        0
300

 40
0.0
140
1.0
 94
        2
 62
     0
340
55
144
0.18
309
CONTENTFORMAT_END
171
     0
 94
        0
309
TABLEFORMAT_END
  1
CELLSTYLE_BEGIN
 90
        3
 91
        2
300
_DATA
309
CELLSTYLE_END
  0
ENDSEC
  0
EOF
