  0
SECTION
  2
HEADER
  9
$ACADVER
  1
AC1027
  9
$ACADMAINTVER
 70
    20
  9
$DWGCODEPAGE
  3
ANSI_1252
  9
$REQUIREDVERSIONS
160
                 0
  9
$INSBASE
 10
0.0
 20
0.0
 30
0.0
  9
$EXTMIN
 10
1200.666407443186
 20
208.5956499162879
 30
-0.00000001
  9
$EXTMAX
 10
3109.774353943096
 20
2499.001484375054
 30
0.00000001
  9
$LIMMIN
 10
0.0
 20
0.0
  9
$LIMMAX
 10
12.0
 20
9.0
  9
$ORTHOMODE
 70
     0
  9
$REGENMODE
 70
     1
  9
$FILLMODE
 70
     1
  9
$QTEXTMODE
 70
     0
  9
$MIRRTEXT
 70
     0
  9
$LTSCALE
 40
1.0
  9
$ATTMODE
 70
     1
  9
$TEXTSIZE
 40
0.2
  9
$TRACEWID
 40
0.05
  9
$TEXTSTYLE
  7
Standard
  9
$CLAYER
  8
0
  9
$CELTYPE
  6
ByLayer
  9
$CECOLOR
 62
   256
  9
$CELTSCALE
 40
1.0
  9
$DISPSILH
 70
     0
  9
$DIMSCALE
 40
1.0
  9
$DIMASZ
 40
0.18
  9
$DIMEXO
 40
0.0625
  9
$DIMDLI
 40
0.38
  9
$DIMRND
 40
0.0
  9
$DIMDLE
 40
0.0
  9
$DIMEXE
 40
0.18
  9
$DIMTP
 40
0.0
  9
$DIMTM
 40
0.0
  9
$DIMTXT
 40
0.18
  9
$DIMCEN
 40
0.09
  9
$DIMTSZ
 40
0.0
  9
$DIMTOL
 70
     0
  9
$DIMLIM
 70
     0
  9
$DIMTIH
 70
     1
  9
$DIMTOH
 70
     1
  9
$DIMSE1
 70
     0
  9
$DIMSE2
 70
     0
  9
$DIMTAD
 70
     0
  9
$DIMZIN
 70
     0
  9
$DIMBLK
  1

  9
$DIMASO
 70
     1
  9
$DIMSHO
 70
     1
  9
$DIMPOST
  1

  9
$DIMAPOST
  1

  9
$DIMALT
 70
     0
  9
$DIMALTD
 70
     2
  9
$DIMALTF
 40
25.4
  9
$DIMLFAC
 40
1.0
  9
$DIMTOFL
 70
     0
  9
$DIMTVP
 40
0.0
  9
$DIMTIX
 70
     0
  9
$DIMSOXD
 70
     0
  9
$DIMSAH
 70
     0
  9
$DIMBLK1
  1

  9
$DIMBLK2
  1

  9
$DIMSTYLE
  2
Standard
  9
$DIMCLRD
 70
     0
  9
$DIMCLRE
 70
     0
  9
$DIMCLRT
 70
     0
  9
$DIMTFAC
 40
1.0
  9
$DIMGAP
 40
0.09
  9
$DIMJUST
 70
     0
  9
$DIMSD1
 70
     0
  9
$DIMSD2
 70
     0
  9
$DIMTOLJ
 70
     1
  9
$DIMTZIN
 70
     0
  9
$DIMALTZ
 70
     0
  9
$DIMALTTZ
 70
     0
  9
$DIMUPT
 70
     0
  9
$DIMDEC
 70
     4
  9
$DIMTDEC
 70
     4
  9
$DIMALTU
 70
     2
  9
$DIMALTTD
 70
     2
  9
$DIMTXSTY
  7
Standard
  9
$DIMAUNIT
 70
     0
  9
$DIMADEC
 70
     0
  9
$DIMALTRND
 40
0.0
  9
$DIMAZIN
 70
     0
  9
$DIMDSEP
 70
    46
  9
$DIMATFIT
 70
     3
  9
$DIMFRAC
 70
     0
  9
$DIMLDRBLK
  1

  9
$DIMLUNIT
 70
     2
  9
$DIMLWD
 70
    -2
  9
$DIMLWE
 70
    -2
  9
$DIMTMOVE
 70
     0
  9
$DIMFXL
 40
1.0
  9
$DIMFXLON
 70
     0
  9
$DIMJOGANG
 40
0.7853981633974483
  9
$DIMTFILL
 70
     0
  9
$DIMTFILLCLR
 70
     0
  9
$DIMARCSYM
 70
     0
  9
$DIMLTYPE
  6

  9
$DIMLTEX1
  6

  9
$DIMLTEX2
  6

  9
$DIMTXTDIRECTION
 70
     0
  9
$LUNITS
 70
     2
  9
$LUPREC
 70
     4
  9
$SKETCHINC
 40
0.1
  9
$FILLETRAD
 40
0.0
  9
$AUNITS
 70
     0
  9
$AUPREC
 70
     0
  9
$MENU
  1
.
  9
$ELEVATION
 40
0.0
  9
$PELEVATION
 40
0.0
  9
$THICKNESS
 40
0.0
  9
$LIMCHECK
 70
     0
  9
$CHAMFERA
 40
0.0
  9
$CHAMFERB
 40
0.0
  9
$CHAMFERC
 40
0.0
  9
$CHAMFERD
 40
0.0
  9
$SKPOLY
 70
     0
  9
$TDCREATE
 40
2457549.362230567
  9
$TDUCREATE
 40
2457549.278897234
  9
$TDUPDATE
 40
2457549.362230567
  9
$TDUUPDATE
 40
2457549.278897234
  9
$TDINDWG
 40
0.0000466551
  9
$TDUSRTIMER
 40
0.0000466551
  9
$USRTIMER
 70
     1
  9
$ANGBASE
 50
0.0
  9
$ANGDIR
 70
     0
  9
$PDMODE
 70
     0
  9
$PDSIZE
 40
0.0
  9
$PLINEWID
 40
0.0
  9
$SPLFRAME
 70
     0
  9
$SPLINETYPE
 70
     6
  9
$SPLINESEGS
 70
     8
  9
$HANDSEED
  5
304
  9
$SURFTAB1
 70
     6
  9
$SURFTAB2
 70
     6
  9
$SURFTYPE
 70
     6
  9
$SURFU
 70
     6
  9
$SURFV
 70
     6
  9
$UCSBASE
  2

  9
$UCSNAME
  2

  9
$UCSORG
 10
0.0
 20
0.0
 30
0.0
  9
$UCSXDIR
 10
1.0
 20
0.0
 30
0.0
  9
$UCSYDIR
 10
0.0
 20
1.0
 30
0.0
  9
$UCSORTHOREF
  2

  9
$UCSORTHOVIEW
 70
     0
  9
$UCSORGTOP
 10
0.0
 20
0.0
 30
0.0
  9
$UCSORGBOTTOM
 10
0.0
 20
0.0
 30
0.0
  9
$UCSORGLEFT
 10
0.0
 20
0.0
 30
0.0
  9
$UCSORGRIGHT
 10
0.0
 20
0.0
 30
0.0
  9
$UCSORGFRONT
 10
0.0
 20
0.0
 30
0.0
  9
$UCSORGBACK
 10
0.0
 20
0.0
 30
0.0
  9
$PUCSBASE
  2

  9
$PUCSNAME
  2

  9
$PUCSORG
 10
0.0
 20
0.0
 30
0.0
  9
$PUCSXDIR
 10
1.0
 20
0.0
 30
0.0
  9
$PUCSYDIR
 10
0.0
 20
1.0
 30
0.0
  9
$PUCSORTHOREF
  2

  9
$PUCSORTHOVIEW
 70
     0
  9
$PUCSORGTOP
 10
0.0
 20
0.0
 30
0.0
  9
$PUCSORGBOTTOM
 10
0.0
 20
0.0
 30
0.0
  9
$PUCSORGLEFT
 10
0.0
 20
0.0
 30
0.0
  9
$PUCSORGRIGHT
 10
0.0
 20
0.0
 30
0.0
  9
$PUCSORGFRONT
 10
0.0
 20
0.0
 30
0.0
  9
$PUCSORGBACK
 10
0.0
 20
0.0
 30
0.0
  9
$USERI1
 70
     0
  9
$USERI2
 70
     0
  9
$USERI3
 70
     0
  9
$USERI4
 70
     0
  9
$USERI5
 70
     0
  9
$USERR1
 40
0.0
  9
$USERR2
 40
0.0
  9
$USERR3
 40
0.0
  9
$USERR4
 40
0.0
  9
$USERR5
 40
0.0
  9
$WORLDVIEW
 70
     1
  9
$SHADEDGE
 70
     3
  9
$SHADEDIF
 70
    70
  9
$TILEMODE
 70
     1
  9
$MAXACTVP
 70
    64
  9
$PINSBASE
 10
0.0
 20
0.0
 30
0.0
  9
$PLIMCHECK
 70
     0
  9
$PEXTMIN
 10
1.000000000000000E+20
 20
1.000000000000000E+20
 30
1.000000000000000E+20
  9
$PEXTMAX
 10
-1.000000000000000E+20
 20
-1.000000000000000E+20
 30
-1.000000000000000E+20
  9
$PLIMMIN
 10
0.0
 20
0.0
  9
$PLIMMAX
 10
12.0
 20
9.0
  9
$UNITMODE
 70
     0
  9
$VISRETAIN
 70
     1
  9
$PLINEGEN
 70
     0
  9
$PSLTSCALE
 70
     1
  9
$TREEDEPTH
 70
  3020
  9
$CMLSTYLE
  2
Standard
  9
$CMLJUST
 70
     0
  9
$CMLSCALE
 40
1.0
  9
$PROXYGRAPHICS
 70
     1
  9
$MEASUREMENT
 70
     1
  9
$CELWEIGHT
370
    -1
  9
$ENDCAPS
280
     0
  9
$JOINSTYLE
280
     0
  9
$LWDISPLAY
290
     0
  9
$INSUNITS
 70
     4
  9
$HYPERLINKBASE
  1

  9
$STYLESHEET
  1

  9
$XEDIT
290
     1
  9
$CEPSNTYPE
380
     0
  9
$PSTYLEMODE
290
     1
  9
$FINGERPRINTGUID
  2
{124D3A41-49D7-4CD8-AE30-03C031860267}
  9
$VERSIONGUID
  2
{5A572707-BFAE-46E1-95F9-CC1E867462E4}
  9
$EXTNAMES
290
     1
  9
$PSVPSCALE
 40
0.0
  9
$OLESTARTUP
290
     0
  9
$SORTENTS
280
   127
  9
$INDEXCTL
280
     0
  9
$HIDETEXT
280
     1
  9
$XCLIPFRAME
280
     2
  9
$HALOGAP
280
     0
  9
$OBSCOLOR
 70
   257
  9
$OBSLTYPE
280
     0
  9
$INTERSECTIONDISPLAY
280
     0
  9
$INTERSECTIONCOLOR
 70
   257
  9
$DIMASSOC
280
     2
  9
$PROJECTNAME
  1

  9
$CAMERADISPLAY
290
     0
  9
$LENSLENGTH
 40
50.0
  9
$CAMERAHEIGHT
 40
0.0
  9
$STEPSPERSEC
 40
2.0
  9
$STEPSIZE
 40
6.0
  9
$3DDWFPREC
 40
2.0
  9
$PSOLWIDTH
 40
0.25
  9
$PSOLHEIGHT
 40
4.0
  9
$LOFTANG1
 40
1.570796326794896
  9
$LOFTANG2
 40
1.570796326794896
  9
$LOFTMAG1
 40
0.0
  9
$LOFTMAG2
 40
0.0
  9
$LOFTPARAM
 70
     7
  9
$LOFTNORMALS
280
     1
  9
$LATITUDE
 40
37.795
  9
$LONGITUDE
 40
-122.394
  9
$NORTHDIRECTION
 40
0.0
  9
$TIMEZONE
 70
 -8000
  9
$LIGHTGLYPHDISPLAY
280
     1
  9
$TILEMODELIGHTSYNCH
280
     1
  9
$CMATERIAL
347
11
  9
$SOLIDHIST
280
     0
  9
$SHOWHIST
280
     1
  9
$DWFFRAME
280
     2
  9
$DGNFRAME
280
     0
  9
$REALWORLDSCALE
290
     1
  9
$INTERFERECOLOR
 62
     1
  9
$INTERFEREOBJVS
345
33
  9
$INTERFEREVPVS
346
30
  9
$CSHADOW
280
     0
  9
$SHADOWPLANELOCATION
 40
0.0
  0
ENDSEC
  0
SECTION
  2
CLASSES
  0
CLASS
  1
ACDBDICTIONARYWDFLT
  2
AcDbDictionaryWithDefault
  3
ObjectDBX Classes
 90
        0
 91
        1
280
     0
281
     0
  0
CLASS
  1
MATERIAL
  2
AcDbMaterial
  3
ObjectDBX Classes
 90
     1153
 91
        3
280
     0
281
     0
  0
CLASS
  1
VISUALSTYLE
  2
AcDbVisualStyle
  3
ObjectDBX Classes
 90
     4095
 91
       24
280
     0
281
     0
  0
CLASS
  1
SCALE
  2
AcDbScale
  3
ObjectDBX Classes
 90
     1153
 91
       17
280
     0
281
     0
  0
CLASS
  1
TABLESTYLE
  2
AcDbTableStyle
  3
ObjectDBX Classes
 90
     4095
 91
        1
280
     0
281
     0
  0
CLASS
  1
MLEADERSTYLE
  2
AcDbMLeaderStyle
  3
ACDB_MLEADERSTYLE_CLASS
 90
     4095
 91
        1
280
     0
281
     0
  0
CLASS
  1
ACDBSECTIONVIEWSTYLE
  2
AcDbSectionViewStyle
  3
ObjectDBX Classes
 90
     1025
 91
        1
280
     0
281
     0
  0
CLASS
  1
ACDBDETAILVIEWSTYLE
  2
AcDbDetailViewStyle
  3
ObjectDBX Classes
 90
     1025
 91
        1
280
     0
281
     0
  0
CLASS
  1
RASTERVARIABLES
  2
AcDbRasterVariables
  3
ISM
 90
        0
 91
        1
280
     0
281
     0
  0
CLASS
  1
DICTIONARYVAR
  2
AcDbDictionaryVar
  3
ObjectDBX Classes
 90
        0
 91
        5
280
     0
281
     0
  0
CLASS
  1
CELLSTYLEMAP
  2
AcDbCellStyleMap
  3
ObjectDBX Classes
 90
     1152
 91
        2
280
     0
281
     0
  0
CLASS
  1
SORTENTSTABLE
  2
AcDbSortentsTable
  3
ObjectDBX Classes
 90
        0
 91
        1
280
     0
281
     0
  0
ENDSEC
  0
SECTION
  2
TABLES
  0
TABLE
  2
VPORT
  5
8
330
0
100
AcDbSymbolTable
 70
     1
  0
VPORT
  5
57
330
8
100
AcDbSymbolTableRecord
100
AcDbViewportTableRecord
  2
*Active
 70
     0
 10
0.0
 20
0.0
 11
1.0
 21
1.0
 12
2155.220380693141
 22
1353.798567145671
 13
0.0
 23
0.0
 14
1.0
 24
1.0
 15
0.0
 25
0.0
 16
0.0
 26
0.0
 36
1.0
 17
0.0
 27
0.0
 37
0.0
 40
2290.405834458766
 41
0.8335238750171281
 42
50.0
 43
0.0
 44
0.0
 50
0.0
 51
0.0
 71
     0
 72
  1000
 73
     1
 74
     1
 75
     0
 76
     0
 77
     0
 78
     0
281
     0
 65
     1
110
0.0
120
0.0
130
0.0
111
1.0
121
0.0
131
0.0
112
0.0
122
1.0
132
0.0
 79
     0
146
0.0
 60
     3
 61
     5
292
     1
282
     1
141
0.0
142
0.0
 63
   250
421
  3355443
  0
ENDTAB
  0
TABLE
  2
LTYPE
  5
5
330
0
100
AcDbSymbolTable
 70
     3
  0
LTYPE
  5
5B
330
5
100
AcDbSymbolTableRecord
100
AcDbLinetypeTableRecord
  2
ByBlock
 70
     0
  3

 72
    65
 73
     0
 40
0.0
  0
LTYPE
  5
5C
330
5
100
AcDbSymbolTableRecord
100
AcDbLinetypeTableRecord
  2
ByLayer
 70
     0
  3

 72
    65
 73
     0
 40
0.0
  0
LTYPE
  5
5D
330
5
100
AcDbSymbolTableRecord
100
AcDbLinetypeTableRecord
  2
Continuous
 70
     0
  3
Solid line
 72
    65
 73
     0
 40
0.0
  0
LTYPE
  5
69
330
5
100
AcDbSymbolTableRecord
100
AcDbLinetypeTableRecord
  2
PHANTOM2
 70
     0
  3
___ _ _ ___ _ _ ___ _ _ ___ _ _
 72
    65
 73
     6
 40
1.25
 49
0.625
 74
     0
 49
-0.125
 74
     0
 49
0.125
 74
     0
 49
-0.125
 74
     0
 49
0.125
 74
     0
 49
-0.125
 74
     0
  0
LTYPE
  5
86
330
5
100
AcDbSymbolTableRecord
100
AcDbLinetypeTableRecord
  2
Nascosto 1_5 mm
 70
     0
  3

 72
    65
 73
     2
 40
2.2
 49
1.5
 74
     0
 49
-0.7000000000000001
 74
     0
  0
ENDTAB
  0
TABLE
  2
LAYER
  5
2
330
0
100
AcDbSymbolTable
 70
     4
  0
LAYER
  5
54
330
2
100
AcDbSymbolTableRecord
100
AcDbLayerTableRecord
  2
0
 70
     0
 62
     7
  6
Continuous
370
    -3
390
F
347
21
348
0
  0
LAYER
  5
85
330
2
100
AcDbSymbolTableRecord
100
AcDbLayerTableRecord
  2
P-SANR-FIXT
 70
     0
 62
     6
  6
Continuous
370
    18
390
F
347
21
348
0
  0
LAYER
  5
88
330
2
100
AcDbSymbolTableRecord
100
AcDbLayerTableRecord
  2
M-PIPE
 70
     0
 62
     3
  6
Continuous
370
    18
390
F
347
21
348
0
  0
ENDTAB
  0
TABLE
  2
STYLE
  5
3
330
0
100
AcDbSymbolTable
 70
     2
  0
STYLE
  5
55
330
3
100
AcDbSymbolTableRecord
100
AcDbTextStyleTableRecord
  2
Standard
 70
     0
 40
0.0
 41
1.0
 50
0.0
 71
     0
 42
0.2
  3
txt
  4

  0
STYLE
  5
5A
330
3
100
AcDbSymbolTableRecord
100
AcDbTextStyleTableRecord
  2
Annotative
 70
     0
 40
0.0
 41
1.0
 50
0.0
 71
     0
 42
0.2
  3
txt
  4

1001
AcadAnnotative
1000
AnnotativeData
1002
{
1070
     1
1070
     1
1002
}
  0
ENDTAB
  0
TABLE
  2
VIEW
  5
6
330
0
100
AcDbSymbolTable
 70
     0
  0
ENDTAB
  0
TABLE
  2
UCS
  5
7
330
0
100
AcDbSymbolTable
 70
     0
  0
ENDTAB
  0
TABLE
  2
APPID
  5
9
330
0
100
AcDbSymbolTable
 70
     3
  0
APPID
  5
56
330
9
100
AcDbSymbolTableRecord
100
AcDbRegAppTableRecord
  2
ACAD
 70
     0
  0
APPID
  5
5E
330
9
100
AcDbSymbolTableRecord
100
AcDbRegAppTableRecord
  2
AcadAnnotative
 70
     0
  0
APPID
  5
79
330
9
100
AcDbSymbolTableRecord
100
AcDbRegAppTableRecord
  2
REVIT
 70
     0
  0
ENDTAB
  0
TABLE
  2
DIMSTYLE
  5
A
330
0
100
AcDbSymbolTable
 70
     2
100
AcDbDimStyleTable
 71
     0
  0
DIMSTYLE
105
58
330
A
100
AcDbSymbolTableRecord
100
AcDbDimStyleTableRecord
  2
Standard
 70
     0
340
55
  0
DIMSTYLE
105
59
330
A
100
AcDbSymbolTableRecord
100
AcDbDimStyleTableRecord
  2
Annotative
 70
     0
340
55
1001
AcadAnnotative
1000
AnnotativeData
1002
{
1070
     1
1070
     1
1002
}
  0
ENDTAB
  0
TABLE
  2
BLOCK_RECORD
  5
1
330
0
100
AcDbSymbolTable
 70
     4
  0
BLOCK_RECORD
  5
71
102
{ACAD_XDICTIONARY
360
2FF
102
}
330
1
100
AcDbSymbolTableRecord
100
AcDbBlockTableRecord
  2
*Model_Space
340
74
 70
     0
280
     1
281
     0
  0
BLOCK_RECORD
  5
6D
330
1
100
AcDbSymbolTableRecord
100
AcDbBlockTableRecord
  2
*Paper_Space
340
70
 70
     0
280
     1
281
     0
  0
BLOCK_RECORD
  5
75
330
1
100
AcDbSymbolTableRecord
100
AcDbBlockTableRecord
  2
*Paper_Space0
340
78
 70
     0
280
     1
281
     0
  0
BLOCK_RECORD
  5
87
330
1
100
AcDbSymbolTableRecord
100
AcDbBlockTableRecord
  2
Automatic flow rate regulator valve_Caleffi_121 DN15 - 1_2__-859151-Est - Idraulica
340
0
102
{BLKREFS
331
1A6
102
}
 70
     0
280
     1
281
     0
  0
BLOCK_RECORD
  5
1A7
330
1
100
AcDbSymbolTableRecord
100
AcDbBlockTableRecord
  2
Automatic flow rate regulator valve_Caleffi_121 DN15 - 1_2__-V1-Est - Idraulica
340
0
102
{BLKREFS
331
259
102
}
 70
     0
280
     1
281
     0
  0
BLOCK_RECORD
  5
25A
330
1
100
AcDbSymbolTableRecord
100
AcDbBlockTableRecord
  2
Automatic flow rate regulator valve_Caleffi_121 DN15 - 1_2__-V2-Est - Idraulica
340
0
102
{BLKREFS
331
2F8
102
}
 70
     0
280
     1
281
     0
  0
ENDTAB
  0
ENDSEC
  0
SECTION
  2
BLOCKS
  0
BLOCK
  5
72
330
71
100
AcDbEntity
  8
0
100
AcDbBlockBegin
  2
*Model_Space
 70
     0
 10
0.0
 20
0.0
 30
0.0
  3
*Model_Space
  1

  0
ENDBLK
  5
73
330
71
100
AcDbEntity
  8
0
100
AcDbBlockEnd
  0
BLOCK
  5
6E
330
6D
100
AcDbEntity
 67
     1
  8
0
100
AcDbBlockBegin
  2
*Paper_Space
 70
     0
 10
0.0
 20
0.0
 30
0.0
  3
*Paper_Space
  1

  0
ENDBLK
  5
6F
330
6D
100
AcDbEntity
 67
     1
  8
0
100
AcDbBlockEnd
  0
BLOCK
  5
76
330
75
100
AcDbEntity
 67
     1
  8
0
100
AcDbBlockBegin
  2
*Paper_Space0
 70
     0
 10
0.0
 20
0.0
 30
0.0
  3
*Paper_Space0
  1

  0
ENDBLK
  5
77
330
75
100
AcDbEntity
 67
     1
  8
0
100
AcDbBlockEnd
  0
BLOCK
  5
1A4
330
87
100
AcDbEntity
  8
0
100
AcDbBlockBegin
  2
Automatic flow rate regulator valve_Caleffi_121 DN15 - 1_2__-859151-Est - Idraulica
 70
     0
 10
0.0
 20
0.0
 30
0.0
  3
Automatic flow rate regulator valve_Caleffi_121 DN15 - 1_2__-859151-Est - Idraulica
  1

  0
LINE
  5
89
330
87
100
AcDbEntity
  8
M-PIPE
100
AcDbLine
 10
1535.666407443206
 20
2489.001484374988
 30
0.0
 11
1551.166407443206
 21
2489.001484374988
 31
0.0
1001
REVIT
1002
{
1070
     3
1000
790271
1002
}
  0
LINE
  5
8A
330
87
100
AcDbEntity
  8
M-PIPE
100
AcDbLine
 10
1520.166407443206
 20
2489.001484374988
 30
0.0
 11
1535.666407443206
 21
2489.001484374988
 31
0.0
1001
REVIT
1002
{
1070
     3
1000
790271
1002
}
  0
LINE
  5
8B
330
87
100
AcDbEntity
  8
M-PIPE
100
AcDbLine
 10
1535.666407443206
 20
2489.001484374988
 30
0.0
 11
1535.666407443206
 21
2478.501484374988
 31
0.0
1001
REVIT
1002
{
1070
     3
1000
790271
1002
}
  0
LINE
  5
8C
330
87
100
AcDbEntity
  8
M-PIPE
100
AcDbLine
 10
1551.166407443206
 20
2478.501484374988
 30
0.0
 11
1551.166407443206
 21
2489.001484374988
 31
0.0
1001
REVIT
1002
{
1070
     3
1000
790271
1002
}
  0
LINE
  5
8D
330
87
100
AcDbEntity
  8
M-PIPE
100
AcDbLine
 10
1520.166407443206
 20
2478.501484374988
 30
0.0
 11
1520.166407443206
 21
2489.001484374988
 31
0.0
1001
REVIT
1002
{
1070
     3
1000
790271
1002
}
  0
LINE
  5
8E
330
87
100
AcDbEntity
  8
M-PIPE
100
AcDbLine
 10
1487.133855110968
 20
2455.001484374988
 30
0.0
 11
1490.41640744319
 21
2361.001484374989
 31
0.0
1001
REVIT
1002
{
1070
     3
1000
790271
1002
}
  0
LINE
  5
8F
330
87
100
AcDbEntity
  8
M-PIPE
100
AcDbLine
 10
1580.91640744319
 20
2361.001484374988
 30
0.0
 11
1584.198959775415
 21
2455.001484374988
 31
0.0
1001
REVIT
1002
{
1070
     3
1000
790271
1002
}
  0
LINE
  5
90
330
87
100
AcDbEntity
  8
M-PIPE
100
AcDbLine
 10
1496.916407443207
 20
2469.001484374989
 30
0.0
 11
1496.916407443207
 21
2455.001484374988
 31
0.0
1001
REVIT
1002
{
1070
     3
1000
790271
1002
}
  0
LINE
  5
91
330
87
100
AcDbEntity
  8
M-PIPE
100
AcDbLine
 10
1574.416407443207
 20
2455.001484374988
 30
0.0
 11
1574.416407443207
 21
2469.001484374989
 31
0.0
1001
REVIT
1002
{
1070
     3
1000
790271
1002
}
  0
LINE
  5
92
330
87
100
AcDbEntity
  8
M-PIPE
100
AcDbLine
 10
1603.166407443207
 20
2455.001484374988
 30
0.0
 11
1603.166407443207
 21
2469.001484374989
 31
0.0
1001
REVIT
1002
{
1070
     3
1000
790271
1002
}
  0
LINE
  5
93
330
87
100
AcDbEntity
  8
M-PIPE
100
AcDbLine
 10
1468.166407443207
 20
2469.001484374989
 30
0.0
 11
1468.166407443207
 21
2455.001484374988
 31
0.0
1001
REVIT
1002
{
1070
     3
1000
790271
1002
}
  0
LINE
  5
94
330
87
100
AcDbEntity
  8
M-PIPE
100
AcDbLine
 10
1509.166407443192
 20
2478.501484374989
 30
0.0
 11
1509.166407443192
 21
2469.001484374989
 31
0.0
1001
REVIT
1002
{
1070
     3
1000
790271
1002
}
  0
LINE
  5
95
330
87
100
AcDbEntity
  8
M-PIPE
100
AcDbLine
 10
1562.166407443192
 20
2469.001484374989
 30
0.0
 11
1562.166407443192
 21
2478.501484374988
 31
0.0
1001
REVIT
1002
{
1070
     3
1000
790271
1002
}
  0
LINE
  5
96
330
87
100
AcDbEntity
  8
M-PIPE
100
AcDbLine
 10
1524.816407443193
 20
2499.001484375054
 30
0.0
 11
1524.816407443192
 21
2489.001484374989
 31
0.0
1001
REVIT
1002
{
1070
     3
1000
790271
1002
}
  0
LINE
  5
97
330
87
100
AcDbEntity
  8
M-PIPE
100
AcDbLine
 10
1546.516407443192
 20
2489.001484374989
 30
0.0
 11
1546.516407443192
 21
2499.001484375054
 31
0.0
1001
REVIT
1002
{
1070
     3
1000
790271
1002
}
  0
LINE
  5
98
330
87
100
AcDbEntity
  8
M-PIPE
100
AcDbLine
 10
1535.666407443206
 20
2341.001484374987
 30
0.0
 11
1515.666407443205
 21
2341.001484374987
 31
0.0
1001
REVIT
1002
{
1070
     3
1000
790271
1002
}
  0
LINE
  5
99
330
87
100
AcDbEntity
  8
M-PIPE
100
AcDbLine
 10
1555.666407443206
 20
2341.001484374987
 30
0.0
 11
1535.666407443206
 21
2341.001484374987
 31
0.0
1001
REVIT
1002
{
1070
     3
1000
790271
1002
}
  0
LINE
  5
9A
330
87
100
AcDbEntity
  8
M-PIPE
100
AcDbLine
 10
1535.666407443206
 20
2361.001484374987
 30
0.0
 11
1535.666407443206
 21
2341.001484374987
 31
0.0
1001
REVIT
1002
{
1070
     3
1000
790271
1002
}
  0
LINE
  5
9B
330
87
100
AcDbEntity
  8
M-PIPE
100
AcDbLine
 10
1555.666407443206
 20
2341.001484374987
 30
0.0
 11
1555.666407443206
 21
2361.001484374987
 31
0.0
1001
REVIT
1002
{
1070
     3
1000
790271
1002
}
  0
LINE
  5
9C
330
87
100
AcDbEntity
  8
M-PIPE
100
AcDbLine
 10
1515.666407443205
 20
2341.001484374987
 30
0.0
 11
1515.666407443205
 21
2361.001484374987
 31
0.0
1001
REVIT
1002
{
1070
     3
1000
790271
1002
}
  0
LINE
  5
9D
330
87
100
AcDbEntity
  8
M-PIPE
100
AcDbLine
 10
1490.416407443189
 20
2361.001484374988
 30
0.0
 11
1535.66640744319
 21
2361.001484374988
 31
0.0
1001
REVIT
1002
{
1070
     3
1000
790271
1002
}
  0
LINE
  5
9E
330
87
100
AcDbEntity
  8
M-PIPE
100
AcDbLine
 10
1535.66640744319
 20
2361.001484374988
 30
0.0
 11
1580.916407443189
 21
2361.001484374987
 31
0.0
1001
REVIT
1002
{
1070
     3
1000
790271
1002
}
  0
LINE
  5
9F
330
87
100
AcDbEntity
  8
M-PIPE
100
AcDbLine
 10
1479.035972660597
 20
2469.001484374988
 30
0.0
 11
1496.89113333836
 21
2469.001484374988
 31
0.0
1001
REVIT
1002
{
1070
     3
1000
790271
1002
}
  0
LINE
  5
A0
330
87
100
AcDbEntity
  8
M-PIPE
100
AcDbLine
 10
1496.916407443205
 20
2469.001484374988
 30
0.0
 11
1515.978639979286
 21
2469.001484374988
 31
0.0
1001
REVIT
1002
{
1070
     3
1000
790271
1002
}
  0
LINE
  5
A1
330
87
100
AcDbEntity
  8
M-PIPE
100
AcDbLine
 10
1515.978639979286
 20
2469.001484374988
 30
0.0
 11
1555.354174907125
 21
2469.001484374988
 31
0.0
1001
REVIT
1002
{
1070
     3
1000
790271
1002
}
  0
LINE
  5
A2
330
87
100
AcDbEntity
  8
M-PIPE
100
AcDbLine
 10
1555.354174907126
 20
2469.001484374988
 30
0.0
 11
1574.416407443206
 21
2469.001484374988
 31
0.0
1001
REVIT
1002
{
1070
     3
1000
790271
1002
}
  0
LINE
  5
A3
330
87
100
AcDbEntity
  8
M-PIPE
100
AcDbLine
 10
1574.441681548051
 20
2469.001484374988
 30
0.0
 11
1592.296842225814
 21
2469.001484374988
 31
0.0
1001
REVIT
1002
{
1070
     3
1000
790271
1002
}
  0
LINE
  5
A4
330
87
100
AcDbEntity
  8
M-PIPE
100
AcDbLine
 10
1592.296842225814
 20
2469.001484374988
 30
0.0
 11
1603.166407443205
 21
2469.001484374988
 31
0.0
1001
REVIT
1002
{
1070
     3
1000
790271
1002
}
  0
LINE
  5
A5
330
87
100
AcDbEntity
  8
M-PIPE
100
AcDbLine
 10
1468.166407443205
 20
2469.001484374988
 30
0.0
 11
1479.035972660596
 21
2469.001484374988
 31
0.0
1001
REVIT
1002
{
1070
     3
1000
790271
1002
}
  0
LINE
  5
A6
330
87
100
AcDbEntity
  8
M-PIPE
100
AcDbLine
 10
1479.035972660597
 20
2455.001484374988
 30
0.0
 11
1468.166407443205
 21
2455.001484374988
 31
0.0
1001
REVIT
1002
{
1070
     3
1000
790271
1002
}
  0
LINE
  5
A7
330
87
100
AcDbEntity
  8
M-PIPE
100
AcDbLine
 10
1603.166407443205
 20
2455.001484374988
 30
0.0
 11
1592.296842225814
 21
2455.001484374988
 31
0.0
1001
REVIT
1002
{
1070
     3
1000
790271
1002
}
  0
LINE
  5
A8
330
87
100
AcDbEntity
  8
M-PIPE
100
AcDbLine
 10
1592.296842225814
 20
2455.001484374988
 30
0.0
 11
1574.441681548052
 21
2455.001484374988
 31
0.0
1001
REVIT
1002
{
1070
     3
1000
790271
1002
}
  0
LINE
  5
A9
330
87
100
AcDbEntity
  8
M-PIPE
100
AcDbLine
 10
1574.416407443206
 20
2455.001484374988
 30
0.0
 11
1555.354174907126
 21
2455.001484374988
 31
0.0
1001
REVIT
1002
{
1070
     3
1000
790271
1002
}
  0
LINE
  5
AA
330
87
100
AcDbEntity
  8
M-PIPE
100
AcDbLine
 10
1555.354174907125
 20
2455.001484374988
 30
0.0
 11
1515.978639979286
 21
2455.001484374988
 31
0.0
1001
REVIT
1002
{
1070
     3
1000
790271
1002
}
  0
LINE
  5
AB
330
87
100
AcDbEntity
  8
M-PIPE
100
AcDbLine
 10
1515.978639979286
 20
2455.001484374988
 30
0.0
 11
1496.916407443205
 21
2455.001484374988
 31
0.0
1001
REVIT
1002
{
1070
     3
1000
790271
1002
}
  0
LINE
  5
AC
330
87
100
AcDbEntity
  8
M-PIPE
100
AcDbLine
 10
1496.89113333836
 20
2455.001484374988
 30
0.0
 11
1479.035972660597
 21
2455.001484374988
 31
0.0
1001
REVIT
1002
{
1070
     3
1000
790271
1002
}
  0
LINE
  5
AD
330
87
100
AcDbEntity
  8
M-PIPE
100
AcDbLine
 10
1479.035972660597
 20
2469.001484374988
 30
0.0
 11
1479.035972660597
 21
2455.001484374988
 31
0.0
1001
REVIT
1002
{
1070
     3
1000
790271
1002
}
  0
LINE
  5
AE
330
87
100
AcDbEntity
  8
M-PIPE
100
AcDbLine
 10
1515.978639979286
 20
2455.001484374988
 30
0.0
 11
1515.978639979286
 21
2469.001484374988
 31
0.0
1001
REVIT
1002
{
1070
     3
1000
790271
1002
}
  0
LINE
  5
AF
330
87
100
AcDbEntity
  8
M-PIPE
100
AcDbLine
 10
1555.354174907126
 20
2455.001484374988
 30
0.0
 11
1555.354174907126
 21
2469.001484374988
 31
0.0
1001
REVIT
1002
{
1070
     3
1000
790271
1002
}
  0
LINE
  5
B0
330
87
100
AcDbEntity
  8
M-PIPE
100
AcDbLine
 10
1592.296842225814
 20
2455.001484374988
 30
0.0
 11
1592.296842225814
 21
2469.001484374988
 31
0.0
1001
REVIT
1002
{
1070
     3
1000
790271
1002
}
  0
LINE
  5
B1
330
87
100
AcDbEntity
  8
M-PIPE
100
AcDbLine
 10
1535.666407443191
 20
2478.501484374988
 30
0.0
 11
1509.16640744319
 21
2478.501484374988
 31
0.0
1001
REVIT
1002
{
1070
     3
1000
790271
1002
}
  0
LINE
  5
B2
330
87
100
AcDbEntity
  8
M-PIPE
100
AcDbLine
 10
1562.166407443191
 20
2478.501484374988
 30
0.0
 11
1535.666407443191
 21
2478.501484374988
 31
0.0
1001
REVIT
1002
{
1070
     3
1000
790271
1002
}
  0
LINE
  5
B3
330
87
100
AcDbEntity
  8
M-PIPE
100
AcDbLine
 10
1535.666407443191
 20
2499.001484375053
 30
0.0
 11
1524.816407443191
 21
2499.001484375054
 31
0.0
1001
REVIT
1002
{
1070
     3
1000
790271
1002
}
  0
LINE
  5
B4
330
87
100
AcDbEntity
  8
M-PIPE
100
AcDbLine
 10
1546.516407443191
 20
2499.001484375053
 30
0.0
 11
1535.666407443191
 21
2499.001484375053
 31
0.0
1001
REVIT
1002
{
1070
     3
1000
790271
1002
}
  0
LINE
  5
B5
330
87
100
AcDbEntity
  8
M-PIPE
100
AcDbLine
 10
1554.319532443147
 20
2297.906249999997
 30
0.0
 11
1554.319532443147
 21
2332.136718749997
 31
0.0
1001
REVIT
1002
{
1070
     3
1000
790271
1002
}
  0
LINE
  5
B6
330
87
100
AcDbEntity
  8
M-PIPE
100
AcDbLine
 10
1517.013282443113
 20
2332.136718749997
 30
0.0
 11
1517.013282443113
 21
2326.133984374989
 31
0.0
1001
REVIT
1002
{
1070
     3
1000
790271
1002
}
  0
LINE
  5
B7
330
87
100
AcDbEntity
  8
M-PIPE
100
AcDbLine
 10
1517.013282443113
 20
2303.908984374989
 30
0.0
 11
1517.013282443113
 21
2297.906249999997
 31
0.0
1001
REVIT
1002
{
1070
     3
1000
790271
1002
}
  0
LINE
  5
B8
330
87
100
AcDbEntity
  8
M-PIPE
100
AcDbLine
 10
1508.678907442997
 20
2303.908984374989
 30
0.0
 11
1517.013282443113
 21
2303.908984374989
 31
0.0
1001
REVIT
1002
{
1070
     3
1000
790271
1002
}
  0
LINE
  5
B9
330
87
100
AcDbEntity
  8
M-PIPE
100
AcDbLine
 10
1517.013282443113
 20
2326.133984374989
 30
0.0
 11
1508.678907442997
 21
2326.133984374989
 31
0.0
1001
REVIT
1002
{
1070
     3
1000
790271
1002
}
  0
LINE
  5
BA
330
87
100
AcDbEntity
  8
M-PIPE
100
AcDbLine
 10
1554.319532443146
 20
2297.906249999996
 30
0.0
 11
1535.666407443129
 21
2297.906249999996
 31
0.0
1001
REVIT
1002
{
1070
     3
1000
790271
1002
}
  0
LINE
  5
BB
330
87
100
AcDbEntity
  8
M-PIPE
100
AcDbLine
 10
1535.666407443129
 20
2297.906249999996
 30
0.0
 11
1517.013282443112
 21
2297.906249999996
 31
0.0
1001
REVIT
1002
{
1070
     3
1000
790271
1002
}
  0
SPLINE
  5
BC
330
87
100
AcDbEntity
  8
M-PIPE
100
AcDbSpline
210
0.0
220
0.0
230
1.0
 70
     8
 71
     3
 72
    27
 73
    23
 74
     0
 42
0.000000001
 43
0.0000000001
 40
0.0
 40
0.0
 40
0.0
 40
0.0
 40
0.0555555555555556
 40
0.1111111111111111
 40
0.2222222222222222
 40
0.2777777777777778
 40
0.3333333333333333
 40
0.3472222222222222
 40
0.3611111111111111
 40
0.3888888888888888
 40
0.4444444444444445
 40
0.4722222222222223
 40
0.5
 40
0.5277777777777778
 40
0.5555555555555556
 40
0.6111111111111112
 40
0.6388888888888889
 40
0.6666666666666666
 40
0.7777777777777777
 40
0.8888888888888889
 40
0.9444444444444444
 40
1.0
 40
1.0
 40
1.0
 40
1.0
 10
1517.013282443112
 20
2326.133984374989
 30
0.0
 10
1517.013282443112
 20
2326.120611252038
 30
0.0
 10
1517.089686001684
 20
2325.989723239828
 30
0.0
 10
1517.492663282917
 20
2325.328403129211
 30
0.0
 10
1518.228842740478
 20
2323.991163483624
 30
0.0
 10
1519.070240689395
 20
2322.207814520085
 30
0.0
 10
1519.536725421601
 20
2321.036838559448
 30
0.0
 10
1519.810552538633
 20
2320.208731597533
 30
0.0
 10
1519.990186305709
 20
2319.63333950648
 30
0.0
 10
1520.284540677764
 20
2318.579478402117
 30
0.0
 10
1520.537486484171
 20
2317.324283392156
 30
0.0
 10
1520.652723856378
 20
2316.033183396288
 30
0.0
 10
1520.683544824335
 20
2315.023274389343
 30
0.0
 10
1520.653011370506
 20
2314.01331140218
 30
0.0
 10
1520.537926118282
 20
2312.72185778935
 30
0.0
 10
1520.285454123692
 20
2311.466506329834
 30
0.0
 10
1519.947483812413
 20
2310.25912031621
 30
0.0
 10
1519.406097301162
 20
2308.570975013419
 30
0.0
 10
1518.412192463247
 20
2306.386022019482
 30
0.0
 10
1517.493109155738
 20
2304.715295681494
 30
0.0
 10
1517.089656260917
 20
2304.053060346756
 30
0.0
 10
1517.013282443112
 20
2303.922263901364
 30
0.0
 10
1517.013282443112
 20
2303.908984374988
 30
0.0
1001
REVIT
1002
{
1070
     3
1000
790271
1002
}
  0
LINE
  5
BD
330
87
100
AcDbEntity
  8
M-PIPE
100
AcDbLine
 10
1554.319532443146
 20
2332.136718749996
 30
0.0
 11
1535.666407443129
 21
2332.136718749996
 31
0.0
1001
REVIT
1002
{
1070
     3
1000
790271
1002
}
  0
LINE
  5
BE
330
87
100
AcDbEntity
  8
M-PIPE
100
AcDbLine
 10
1535.666407443129
 20
2332.136718749996
 30
0.0
 11
1517.013282443112
 21
2332.136718749996
 31
0.0
1001
REVIT
1002
{
1070
     3
1000
790271
1002
}
  0
LINE
  5
BF
330
87
100
AcDbEntity
  8
M-PIPE
100
AcDbLine
 10
1520.783594943159
 20
2332.136718749996
 30
0.0
 11
1520.783594943159
 21
2341.001484374989
 31
0.0
1001
REVIT
1002
{
1070
     3
1000
790271
1002
}
  0
LINE
  5
C0
330
87
100
AcDbEntity
  8
M-PIPE
100
AcDbLine
 10
1550.54921994316
 20
2341.001484374989
 30
0.0
 11
1550.54921994316
 21
2332.136718749996
 31
0.0
1001
REVIT
1002
{
1070
     3
1000
790271
1002
}
  0
LINE
  5
C1
330
87
100
AcDbEntity
  8
M-PIPE
100
AcDbLine
 10
1541.831070226916
 20
2341.001484374989
 30
0.0
 11
1541.831070226916
 21
2332.136718749996
 31
0.0
1001
REVIT
1002
{
1070
     3
1000
790271
1002
}
  0
LINE
  5
C2
330
87
100
AcDbEntity
  8
M-PIPE
100
AcDbLine
 10
1529.501744659404
 20
2341.001484374989
 30
0.0
 11
1529.501744659404
 21
2332.136718749996
 31
0.0
1001
REVIT
1002
{
1070
     3
1000
790271
1002
}
  0
LINE
  5
C3
330
87
100
AcDbEntity
  8
M-PIPE
100
AcDbLine
 10
1552.037501193129
 20
2285.999999999996
 30
0.0
 11
1542.44753650526
 21
2285.999999999996
 31
0.0
1001
REVIT
1002
{
1070
     3
1000
790271
1002
}
  0
LINE
  5
C4
330
87
100
AcDbEntity
  8
M-PIPE
100
AcDbLine
 10
1542.44753650526
 20
2285.999999999996
 30
0.0
 11
1528.885278380997
 21
2285.999999999996
 31
0.0
1001
REVIT
1002
{
1070
     3
1000
790271
1002
}
  0
LINE
  5
C5
330
87
100
AcDbEntity
  8
M-PIPE
100
AcDbLine
 10
1528.885278380997
 20
2285.999999999996
 30
0.0
 11
1519.295313693129
 21
2285.999999999996
 31
0.0
1001
REVIT
1002
{
1070
     3
1000
790271
1002
}
  0
LINE
  5
C6
330
87
100
AcDbEntity
  8
M-PIPE
100
AcDbLine
 10
1552.037501193129
 20
2297.906249999996
 30
0.0
 11
1552.037501193129
 21
2285.999999999996
 31
0.0
1001
REVIT
1002
{
1070
     3
1000
790271
1002
}
  0
LINE
  5
C7
330
87
100
AcDbEntity
  8
M-PIPE
100
AcDbLine
 10
1542.44753650526
 20
2297.906249999996
 30
0.0
 11
1542.44753650526
 21
2285.999999999996
 31
0.0
1001
REVIT
1002
{
1070
     3
1000
790271
1002
}
  0
LINE
  5
C8
330
87
100
AcDbEntity
  8
M-PIPE
100
AcDbLine
 10
1528.885278380997
 20
2297.906249999996
 30
0.0
 11
1528.885278380997
 21
2285.999999999996
 31
0.0
1001
REVIT
1002
{
1070
     3
1000
790271
1002
}
  0
LINE
  5
C9
330
87
100
AcDbEntity
  8
M-PIPE
100
AcDbLine
 10
1519.295313693129
 20
2297.906249999996
 30
0.0
 11
1519.295313693129
 21
2285.999999999996
 31
0.0
1001
REVIT
1002
{
1070
     3
1000
790271
1002
}
  0
LINE
  5
CA
330
87
100
AcDbEntity
  8
M-PIPE
100
AcDbLine
 10
1497.486538242757
 20
2299.940234374997
 30
0.0
 11
1508.678907442997
 21
2299.940234374997
 31
0.0
1001
REVIT
1002
{
1070
     3
1000
790271
1002
}
  0
LINE
  5
CB
330
87
100
AcDbEntity
  8
M-PIPE
100
AcDbLine
 10
1508.678907442997
 20
2330.102734374982
 30
0.0
 11
1497.486538242758
 21
2330.102734374982
 31
0.0
1001
REVIT
1002
{
1070
     3
1000
790271
1002
}
  0
LINE
  5
CC
330
87
100
AcDbEntity
  8
M-PIPE
100
AcDbLine
 10
1508.678907442995
 20
2330.10273437498
 30
0.0
 11
1508.678907442995
 21
2299.940234374996
 31
0.0
1001
REVIT
1002
{
1070
     3
1000
790271
1002
}
  0
LINE
  5
CD
330
87
100
AcDbEntity
  8
M-PIPE
100
AcDbLine
 10
1498.46823635208
 20
2328.700724177049
 30
0.0
 11
1480.103907443123
 21
2328.700724177048
 31
0.0
1001
REVIT
1002
{
1070
     3
1000
790271
1002
}
  0
LINE
  5
CE
330
87
100
AcDbEntity
  8
M-PIPE
100
AcDbLine
 10
1480.103907443123
 20
2328.700724177049
 30
0.0
 11
1480.103907443123
 21
2324.765203903425
 31
0.0
1001
REVIT
1002
{
1070
     3
1000
790271
1002
}
  0
LWPOLYLINE
  5
CF
330
87
100
AcDbEntity
  8
M-PIPE
100
AcDbPolyline
 90
       11
 70
   128
 43
0.0
 10
1480.103907443123
 20
2324.765203903425
 10
1482.095947492194
 20
2321.920275877994
 10
1484.336539853837
 20
2318.720378362792
 10
1486.710397390145
 20
2315.330158454024
 10
1489.095375954845
 20
2311.924056070726
 10
1491.368759181765
 20
2308.677328346638
 10
1493.413572716229
 20
2305.757031973235
 10
1495.124602997761
 20
2303.313427487189
 10
1496.413810904474
 20
2301.472247784941
 10
1497.214861706195
 20
2300.328228679163
 10
1497.486538242756
 20
2299.940234374996
1001
REVIT
1002
{
1070
     3
1000
790271
1002
}
  0
LWPOLYLINE
  5
D0
330
87
100
AcDbEntity
  8
M-PIPE
100
AcDbPolyline
 90
        6
 70
   128
 43
0.0
 10
1486.925118541048
 20
2315.021710189038
 10
1486.603145464318
 20
2314.559638671863
 10
1484.712941963137
 20
2311.860148309315
 10
1482.939263934608
 20
2309.327073568269
 10
1481.375479412162
 20
2307.093757819564
 10
1480.103907443123
 20
2305.277764846551
1001
REVIT
1002
{
1070
     3
1000
790271
1002
}
  0
LINE
  5
D1
330
87
100
AcDbEntity
  8
M-PIPE
100
AcDbLine
 10
1480.103907443123
 20
2303.115234374996
 30
0.0
 11
1495.26337930894
 21
2303.115234374996
 31
0.0
1001
REVIT
1002
{
1070
     3
1000
790271
1002
}
  0
LINE
  5
D2
330
87
100
AcDbEntity
  8
M-PIPE
100
AcDbLine
 10
1480.103907443123
 20
2305.277764846551
 30
0.0
 11
1480.103907443123
 21
2303.115234374996
 31
0.0
1001
REVIT
1002
{
1070
     3
1000
790271
1002
}
  0
LINE
  5
D3
330
87
100
AcDbEntity
  8
M-PIPE
100
AcDbLine
 10
1480.103907443186
 20
2281.683984374989
 30
0.0
 11
1480.103907443123
 21
2303.115234374996
 31
0.0
1001
REVIT
1002
{
1070
     3
1000
790271
1002
}
  0
LINE
  5
D4
330
87
100
AcDbEntity
  8
M-PIPE
100
AcDbLine
 10
1480.103907443186
 20
2281.683984374989
 30
0.0
 11
1495.093084482044
 21
2281.683984374989
 31
0.0
1001
REVIT
1002
{
1070
     3
1000
790271
1002
}
  0
LINE
  5
D5
330
87
100
AcDbEntity
  8
M-PIPE
100
AcDbLine
 10
1495.093084482044
 20
2281.683984374989
 30
0.0
 11
1495.093084482044
 21
2296.522028159017
 31
0.0
1001
REVIT
1002
{
1070
     3
1000
790271
1002
}
  0
LINE
  5
D6
330
87
100
AcDbEntity
  8
M-PIPE
100
AcDbLine
 10
1495.093084482044
 20
2296.522028159017
 30
0.0
 11
1497.486538242756
 21
2299.940234374996
 31
0.0
1001
REVIT
1002
{
1070
     3
1000
790271
1002
}
  0
LINE
  5
D7
330
87
100
AcDbEntity
  8
M-PIPE
100
AcDbLine
 10
1495.093084482971
 20
2348.358984375005
 30
0.0
 11
1480.103907443186
 21
2348.358984375004
 31
0.0
1001
REVIT
1002
{
1070
     3
1000
790271
1002
}
  0
LINE
  5
D8
330
87
100
AcDbEntity
  8
M-PIPE
100
AcDbLine
 10
1480.103907443123
 20
2328.700724177049
 30
0.0
 11
1480.103907443186
 21
2348.358984375004
 31
0.0
1001
REVIT
1002
{
1070
     3
1000
790271
1002
}
  0
LINE
  5
D9
330
87
100
AcDbEntity
  8
M-PIPE
100
AcDbLine
 10
1498.46823635208
 20
2328.700724177049
 30
0.0
 11
1495.093084482971
 21
2333.520940590954
 31
0.0
1001
REVIT
1002
{
1070
     3
1000
790271
1002
}
  0
LINE
  5
DA
330
87
100
AcDbEntity
  8
M-PIPE
100
AcDbLine
 10
1495.093084482971
 20
2333.520940590954
 30
0.0
 11
1495.093084482971
 21
2348.358984375005
 31
0.0
1001
REVIT
1002
{
1070
     3
1000
790271
1002
}
  0
ARC
  5
DB
330
87
100
AcDbEntity
  8
M-PIPE
100
AcDbCircle
 10
1535.666407443171
 20
1106.999999999996
 30
0.0
 40
14.00000000000005
100
AcDbArc
 50
269.9999999999997
 51
319.9947991151396
1001
REVIT
1002
{
1070
     3
1000
790271
1002
}
  0
LINE
  5
DC
330
87
100
AcDbEntity
  8
M-PIPE
100
AcDbLine
 10
1648.666407443171
 20
1097.999999999996
 30
0.0
 11
1648.666407443171
 21
1115.999999999996
 31
0.0
1001
REVIT
1002
{
1070
     3
1000
790271
1002
}
  0
ARC
  5
DD
330
87
100
AcDbEntity
  8
M-PIPE
100
AcDbCircle
 10
1535.666407443171
 20
1106.999999999996
 30
0.0
 40
14.0
100
AcDbArc
 50
40.00520088486076
 51
89.99999999999907
1001
REVIT
1002
{
1070
     3
1000
790271
1002
}
  0
ARC
  5
DE
330
87
100
AcDbEntity
  8
M-PIPE
100
AcDbCircle
 10
1535.666407443171
 20
1106.999999999996
 30
0.0
 40
14.00000000000023
100
AcDbArc
 50
89.99999999999907
 51
269.9999999999988
1001
REVIT
1002
{
1070
     3
1000
790271
1002
}
  0
LINE
  5
DF
330
87
100
AcDbEntity
  8
M-PIPE
100
AcDbLine
 10
1546.390212737935
 20
1097.999999999996
 30
0.0
 11
1648.666407443171
 21
1097.999999999996
 31
0.0
1001
REVIT
1002
{
1070
     3
1000
790271
1002
}
  0
LINE
  5
E0
330
87
100
AcDbEntity
  8
M-PIPE
100
AcDbLine
 10
1648.666407443171
 20
1115.999999999996
 30
0.0
 11
1546.390212737935
 21
1115.999999999996
 31
0.0
1001
REVIT
1002
{
1070
     3
1000
790271
1002
}
  0
LINE
  5
E1
330
87
100
AcDbEntity
  8
M-PIPE
100
AcDbLine
 10
1553.344076972818
 20
1065.999999999996
 30
0.0
 11
1535.666407443155
 21
1065.999999999996
 31
0.0
1001
REVIT
1002
{
1070
     3
1000
790271
1002
}
  0
LINE
  5
E2
330
87
100
AcDbEntity
  8
M-PIPE
100
AcDbLine
 10
1535.666407443155
 20
1065.999999999996
 30
0.0
 11
1517.988737913491
 21
1065.999999999996
 31
0.0
1001
REVIT
1002
{
1070
     3
1000
790271
1002
}
  0
LINE
  5
E3
330
87
100
AcDbEntity
  8
M-PIPE
100
AcDbLine
 10
1517.988737913491
 20
1065.999999999996
 30
0.0
 11
1510.666407443155
 21
1065.999999999996
 31
0.0
1001
REVIT
1002
{
1070
     3
1000
790271
1002
}
  0
LINE
  5
E4
330
87
100
AcDbEntity
  8
M-PIPE
100
AcDbLine
 10
1560.666407443155
 20
1065.999999999996
 30
0.0
 11
1553.344076972818
 21
1065.999999999996
 31
0.0
1001
REVIT
1002
{
1070
     3
1000
790271
1002
}
  0
LINE
  5
E5
330
87
100
AcDbEntity
  8
M-PIPE
100
AcDbLine
 10
1553.344076972818
 20
1065.999999999996
 30
0.0
 11
1553.344076972818
 21
1083.999999999996
 31
0.0
1001
REVIT
1002
{
1070
     3
1000
790271
1002
}
  0
LINE
  5
E6
330
87
100
AcDbEntity
  8
M-PIPE
100
AcDbLine
 10
1535.666407443155
 20
1083.999999999996
 30
0.0
 11
1535.666407443155
 21
1065.999999999996
 31
0.0
1001
REVIT
1002
{
1070
     3
1000
790271
1002
}
  0
LINE
  5
E7
330
87
100
AcDbEntity
  8
M-PIPE
100
AcDbLine
 10
1517.988737913491
 20
1083.999999999996
 30
0.0
 11
1517.988737913491
 21
1065.999999999996
 31
0.0
1001
REVIT
1002
{
1070
     3
1000
790271
1002
}
  0
LINE
  5
E8
330
87
100
AcDbEntity
  8
M-PIPE
100
AcDbLine
 10
1510.666407443155
 20
1083.999999999996
 30
0.0
 11
1510.666407443155
 21
1065.999999999996
 31
0.0
1001
REVIT
1002
{
1070
     3
1000
790271
1002
}
  0
LINE
  5
E9
330
87
100
AcDbEntity
  8
M-PIPE
100
AcDbLine
 10
1560.666407443155
 20
1083.999999999996
 30
0.0
 11
1560.666407443155
 21
1065.999999999996
 31
0.0
1001
REVIT
1002
{
1070
     3
1000
790271
1002
}
  0
LINE
  5
EA
330
87
100
AcDbEntity
  8
M-PIPE
100
AcDbLine
 10
1563.666407443185
 20
1083.999999999996
 30
0.0
 11
1563.666407443185
 21
1097.999999999996
 31
0.0
1001
REVIT
1002
{
1070
     3
1000
790271
1002
}
  0
LINE
  5
EB
330
87
100
AcDbEntity
  8
M-PIPE
100
AcDbLine
 10
1563.666407443185
 20
1115.999999999996
 30
0.0
 11
1563.666407443185
 21
1129.999999999995
 31
0.0
1001
REVIT
1002
{
1070
     3
1000
790271
1002
}
  0
LINE
  5
EC
330
87
100
AcDbEntity
  8
M-PIPE
100
AcDbLine
 10
1507.666407443161
 20
1129.999999999997
 30
0.0
 11
1507.66640744316
 21
1083.999999999996
 31
0.0
1001
REVIT
1002
{
1070
     3
1000
790271
1002
}
  0
LINE
  5
ED
330
87
100
AcDbEntity
  8
M-PIPE
100
AcDbLine
 10
1563.666407443184
 20
1129.999999999996
 30
0.0
 11
1535.666407443172
 21
1129.999999999996
 31
0.0
1001
REVIT
1002
{
1070
     3
1000
790271
1002
}
  0
LINE
  5
EE
330
87
100
AcDbEntity
  8
M-PIPE
100
AcDbLine
 10
1535.666407443172
 20
1129.999999999996
 30
0.0
 11
1507.666407443159
 21
1129.999999999997
 31
0.0
1001
REVIT
1002
{
1070
     3
1000
790271
1002
}
  0
LINE
  5
EF
330
87
100
AcDbEntity
  8
M-PIPE
100
AcDbLine
 10
1535.66640744317
 20
1083.999999999996
 30
0.0
 11
1563.666407443183
 21
1083.999999999996
 31
0.0
1001
REVIT
1002
{
1070
     3
1000
790271
1002
}
  0
LINE
  5
F0
330
87
100
AcDbEntity
  8
M-PIPE
100
AcDbLine
 10
1507.666407443158
 20
1083.999999999996
 30
0.0
 11
1535.66640744317
 21
1083.999999999996
 31
0.0
1001
REVIT
1002
{
1070
     3
1000
790271
1002
}
  0
LINE
  5
F1
330
87
100
AcDbEntity
  8
M-PIPE
100
AcDbLine
 10
1553.344076972818
 20
1147.999999999997
 30
0.0
 11
1560.666407443155
 21
1147.999999999997
 31
0.0
1001
REVIT
1002
{
1070
     3
1000
790271
1002
}
  0
LINE
  5
F2
330
87
100
AcDbEntity
  8
M-PIPE
100
AcDbLine
 10
1510.666407443155
 20
1147.999999999997
 30
0.0
 11
1517.988737913491
 21
1147.999999999997
 31
0.0
1001
REVIT
1002
{
1070
     3
1000
790271
1002
}
  0
LINE
  5
F3
330
87
100
AcDbEntity
  8
M-PIPE
100
AcDbLine
 10
1517.988737913491
 20
1147.999999999997
 30
0.0
 11
1535.666407443155
 21
1147.999999999997
 31
0.0
1001
REVIT
1002
{
1070
     3
1000
790271
1002
}
  0
LINE
  5
F4
330
87
100
AcDbEntity
  8
M-PIPE
100
AcDbLine
 10
1535.666407443155
 20
1147.999999999997
 30
0.0
 11
1553.344076972818
 21
1147.999999999997
 31
0.0
1001
REVIT
1002
{
1070
     3
1000
790271
1002
}
  0
LINE
  5
F5
330
87
100
AcDbEntity
  8
M-PIPE
100
AcDbLine
 10
1553.344076972818
 20
1129.999999999997
 30
0.0
 11
1553.344076972818
 21
1147.999999999997
 31
0.0
1001
REVIT
1002
{
1070
     3
1000
790271
1002
}
  0
LINE
  5
F6
330
87
100
AcDbEntity
  8
M-PIPE
100
AcDbLine
 10
1535.666407443155
 20
1147.999999999997
 30
0.0
 11
1535.666407443155
 21
1129.999999999997
 31
0.0
1001
REVIT
1002
{
1070
     3
1000
790271
1002
}
  0
LINE
  5
F7
330
87
100
AcDbEntity
  8
M-PIPE
100
AcDbLine
 10
1517.988737913491
 20
1147.999999999997
 30
0.0
 11
1517.988737913491
 21
1129.999999999997
 31
0.0
1001
REVIT
1002
{
1070
     3
1000
790271
1002
}
  0
LINE
  5
F8
330
87
100
AcDbEntity
  8
M-PIPE
100
AcDbLine
 10
1510.666407443155
 20
1147.999999999997
 30
0.0
 11
1510.666407443155
 21
1129.999999999997
 31
0.0
1001
REVIT
1002
{
1070
     3
1000
790271
1002
}
  0
LINE
  5
F9
330
87
100
AcDbEntity
  8
M-PIPE
100
AcDbLine
 10
1560.666407443155
 20
1147.999999999997
 30
0.0
 11
1560.666407443155
 21
1129.999999999997
 31
0.0
1001
REVIT
1002
{
1070
     3
1000
790271
1002
}
  0
LWPOLYLINE
  5
FA
330
87
100
AcDbEntity
  8
P-SANR-FIXT
100
AcDbPolyline
 90
       40
 70
   128
 43
0.0
 10
1304.672821368757
 20
1346.070794216102
 10
1304.68623942245
 20
1346.470542416398
 10
1304.715632407504
 20
1346.869434281737
 10
1304.760953301412
 20
1347.266831670228
 10
1304.822129600412
 20
1347.662098830823
 10
1304.899063435477
 20
1348.054603420385
 10
1304.99163172888
 20
1348.443717515299
 10
1305.099686391101
 20
1348.82881861602
 10
1305.223054557729
 20
1349.209290642938
 10
1305.361538866017
 20
1349.584524921973
 10
1305.51491777061
 20
1349.953921158324
 10
1305.682945897983
 20
1350.316888396812
 10
1305.865354438974
 20
1350.672845967286
 10
1306.06185157883
 20
1351.021224413567
 10
1306.272122964045
 20
1351.361466404456
 10
1306.495832205257
 20
1351.69302762535
 10
1306.732621415404
 20
1352.015377649024
 10
1306.982111782259
 20
1352.328000784206
 10
1307.24390417446
 20
1352.630396900567
 10
1307.517579780024
 20
1352.922082228829
 10
1307.802700776362
 20
1353.202590134692
 10
1308.098811030705
 20
1353.471471865342
 10
1308.405436829811
 20
1353.72829726737
 10
1308.722087637812
 20
1353.972655474919
 10
1309.048256880965
 20
1354.204155566983
 10
1309.383422758057
 20
1354.422427192801
 10
1309.727049075186
 20
1354.627121164332
 10
1310.078586103546
 20
1354.817910014887
 10
1310.437471458883
 20
1354.994488523006
 10
1310.803131001186
 20
1355.156574200742
 10
1311.17497975319
 20
1355.30390774559
 10
1311.552422836216
 20
1355.436253455305
 10
1311.934856421848
 20
1355.553399604985
 10
1312.321668697931
 20
1355.65515878578
 10
1312.712240847338
 20
1355.741368204709
 10
1313.105948037948
 20
1355.811889945091
 10
1313.502160422242
 20
1355.866611187185
 10
1313.900244144927
 20
1355.905444388678
 10
1314.299562356964
 20
1355.928327424732
 10
1314.604722761411
 20
1355.934010574289
  0
LWPOLYLINE
  5
FB
330
87
100
AcDbEntity
  8
P-SANR-FIXT
100
AcDbPolyline
 90
       40
 70
   128
 43
0.0
 10
1756.735548036665
 20
1355.933768782417
 10
1757.060805354793
 20
1355.927262768563
 10
1757.460058952619
 20
1355.903278764979
 10
1757.858034085816
 20
1355.863348060492
 10
1758.25409407907
 20
1355.807534535709
 10
1758.647605320878
 20
1355.735927480366
 10
1759.037938277199
 20
1355.648641450474
 10
1759.424468498568
 20
1355.545816085061
 10
1759.806577619088
 20
1355.427615882778
 10
1760.183654345678
 20
1355.294229938733
 10
1760.555095436014
 20
1355.145871641983
 10
1760.920306663587
 20
1354.982778334153
 10
1761.278703768342
 20
1354.805210929747
 10
1761.629713391365
 20
1354.61345349873
 10
1761.972773992136
 20
1354.407812812088
 10
1762.307336746878
 20
1354.18861785105
 10
1762.632866426551
 20
1353.956219280797
 10
1762.948842253112
 20
1353.710988889463
 10
1763.254758732642
 20
1353.453318993363
 10
1763.550126464033
 20
1353.183621809363
 10
1763.834472921923
 20
1352.902328795426
 10
1764.107343212636
 20
1352.609889960367
 10
1764.368300801917
 20
1352.30677314394
 10
1764.616928213292
 20
1351.993463268389
 10
1764.852827695938
 20
1351.670461562679
 10
1765.075621861007
 20
1351.338284760636
 10
1765.284954285361
 20
1350.997464274282
 10
1765.480490081777
 20
1350.648545343692
 10
1765.661916434693
 20
1350.292086164722
 10
1765.828943100646
 20
1349.928656996017
 10
1765.9813028726
 20
1349.558839246721
 10
1766.118752007423
 20
1349.183224546343
 10
1766.24107061582
 20
1348.802413798274
 10
1766.348063014111
 20
1348.417016218478
 10
1766.439558037282
 20
1348.027648360869
 10
1766.515409312813
 20
1347.634933130957
 10
1766.575495494846
 20
1347.239498789336
 10
1766.619720458305
 20
1346.841977946598
 10
1766.648013452685
 20
1346.44300655129
 10
1766.659993517627
 20
1346.070794216102
  0
LWPOLYLINE
  5
FC
330
87
100
AcDbEntity
  8
P-SANR-FIXT
100
AcDbPolyline
 90
        3
 70
   128
 43
0.0
 10
1314.733561339991
 20
1355.935261701953
 10
1314.848674905621
 20
1355.935261701953
 10
1315.026156473326
 20
1355.935261701953
  0
LWPOLYLINE
  5
FD
330
87
100
AcDbEntity
  8
P-SANR-FIXT
100
AcDbPolyline
 90
        3
 70
   128
 43
0.0
 10
1756.303432760988
 20
1355.935261701953
 10
1756.609395478538
 20
1355.935261701953
 10
1756.660912012929
 20
1355.935261701953
  0
LINE
  5
FE
330
87
100
AcDbEntity
  8
P-SANR-FIXT
100
AcDbLine
 10
1314.674641640773
 20
1355.935261701953
 30
0.0
 11
1314.671902873455
 21
1355.935261701953
 31
0.0
  0
LINE
  5
FF
330
87
100
AcDbEntity
  8
P-SANR-FIXT
100
AcDbLine
 10
1756.660912012929
 20
1355.935261701953
 30
0.0
 11
1756.658173245611
 21
1355.935261701953
 31
0.0
  0
LWPOLYLINE
  5
100
330
87
100
AcDbEntity
  8
P-SANR-FIXT
100
AcDbPolyline
 90
       12
 70
   128
 43
0.0
 10
1334.433340918377
 20
1190.65548327651
 10
1328.72179185466
 20
1205.296268764505
 10
1323.60028668463
 20
1220.153744229941
 10
1319.077018724027
 20
1235.204140881502
 10
1315.159224236677
 20
1250.423381295123
 10
1311.853170858009
 20
1265.787117932742
 10
1309.164147568174
 20
1281.27077209316
 10
1307.096456230808
 20
1296.849573232725
 10
1305.653404710968
 20
1312.498598592912
 10
1304.837301583249
 20
1328.192813071428
 10
1304.649452438565
 20
1343.907109273026
 10
1304.672821368757
 20
1346.070794216099
  0
LWPOLYLINE
  5
101
330
87
100
AcDbEntity
  8
P-SANR-FIXT
100
AcDbPolyline
 90
       12
 70
   128
 43
0.0
 10
1766.659993517627
 20
1346.070794216099
 10
1766.558687385858
 20
1330.355701805287
 10
1765.829026205998
 20
1314.657230956974
 10
1764.472177280284
 20
1299.000495875691
 10
1762.49031127755
 20
1283.41054399764
 10
1759.886598760625
 20
1267.91231592015
 10
1756.665205114108
 20
1252.53060550203
 10
1752.83128388064
 20
1237.290020198694
 10
1748.390968516333
 20
1222.214941695475
 10
1743.351362578555
 20
1207.329486902133
 10
1737.720528361746
 20
1192.657469370944
 10
1736.899473968007
 20
1190.65548327651
  0
LWPOLYLINE
  5
102
330
87
100
AcDbEntity
  8
P-SANR-FIXT
100
AcDbPolyline
 90
       31
 70
   128
 43
0.0
 10
1371.399925441016
 20
1165.935261701951
 10
1369.800352073551
 20
1165.967257435512
 10
1368.203337682249
 20
1166.063193449846
 10
1366.611437149459
 20
1166.222916267797
 10
1365.027197176446
 20
1166.446170366926
 10
1363.453152209213
 20
1166.732598588302
 10
1361.89182038393
 20
1167.08174270787
 10
1360.345699498451
 20
1167.493044169521
 10
1358.817263016371
 20
1167.965844978653
 10
1357.308956110012
 20
1168.499388754834
 10
1355.82319174867
 20
1169.092821941836
 10
1354.362346838376
 20
1169.745195173152
 10
1352.928758419356
 20
1170.45546479078
 10
1351.524719927266
 20
1171.222494514846
 10
1350.15247752418
 20
1172.045057261414
 10
1348.814226505214
 20
1172.921837105564
 10
1347.51210778652
 20
1173.851431386579
 10
1346.248204480277
 20
1174.832352951914
 10
1345.024538562157
 20
1175.863032536315
 10
1343.843067636594
 20
1176.941821272315
 10
1342.705681805035
 20
1178.066993328064
 10
1341.614200642181
 20
1179.236748668299
 10
1340.570370285057
 20
1180.449215934008
 10
1339.575860639561
 20
1181.702455436213
 10
1338.632262708976
 20
1182.994462259053
 10
1337.7410860487
 20
1184.323169467226
 10
1336.903756351282
 20
1185.68645141264
 10
1336.121613165618
 20
1187.082127135001
 10
1335.395907753955
 20
1188.507963850883
 10
1334.727801090145
 20
1189.9616805257
 10
1334.433340918375
 20
1190.655483276513
  0
LWPOLYLINE
  5
103
330
87
100
AcDbEntity
  8
P-SANR-FIXT
100
AcDbPolyline
 90
       31
 70
   128
 43
0.0
 10
1736.899473968009
 20
1190.655483276513
 10
1736.25887647753
 20
1189.189436367283
 10
1735.56016515693
 20
1187.750179206336
 10
1734.804457795273
 20
1186.340014298105
 10
1733.992963363126
 20
1184.961197605622
 10
1733.126980078473
 20
1183.615934941467
 10
1732.207893329835
 20
1182.306378438926
 10
1731.237173459948
 20
1181.034623109045
 10
1730.21637341353
 20
1179.802703489061
 10
1729.147126252895
 20
1178.612590387569
 10
1728.031142545405
 20
1177.466187731654
 10
1726.87020762693
 20
1176.365329521012
 10
1725.666178745686
 20
1175.311776893945
 10
1724.420982091037
 20
1174.307215309909
 10
1723.136609712003
 20
1173.353251853143
 10
1721.815116330405
 20
1172.451412661678
 10
1720.45861605375
 20
1171.603140485837
 10
1719.06927899311
 20
1170.809792380146
 10
1717.649327791406
 20
1170.072637532336
 10
1716.201034067654
 20
1169.392855232912
 10
1714.726714782857
 20
1168.771532988542
 10
1713.228728533369
 20
1168.209664782274
 10
1711.709471777635
 20
1167.708149483378
 10
1710.171375002373
 20
1167.267789409351
 10
1708.616898834313
 20
1166.88928904237
 10
1707.04853010372
 20
1166.573253902282
 10
1705.468777865997
 20
1166.320189577892
 10
1703.880169387727
 20
1166.130500918137
 10
1702.285246103591
 20
1166.004491384406
 10
1700.686559550611
 20
1165.942362565074
 10
1699.932889445368
 20
1165.935261701951
  0
LWPOLYLINE
  5
104
330
87
100
AcDbEntity
  8
P-SANR-FIXT
100
AcDbPolyline
 90
        4
 70
   128
 43
0.0
 10
1699.932889445369
 20
1165.935261701951
 10
1699.80149378059
 20
1165.935261701951
 10
1699.40751699129
 20
1165.935261701951
 10
1699.209002354264
 20
1165.935261701951
  0
LWPOLYLINE
  5
105
330
87
100
AcDbEntity
  8
P-SANR-FIXT
100
AcDbPolyline
 90
        4
 70
   128
 43
0.0
 10
1372.125770094325
 20
1165.935261701951
 10
1371.71141212802
 20
1165.935261701951
 10
1371.438217976324
 20
1165.935261701951
 10
1371.399925441015
 20
1165.935261701951
  0
LINE
  5
106
330
87
100
AcDbEntity
  8
P-SANR-FIXT
100
AcDbLine
 10
1371.399925441015
 20
1165.935261701951
 30
0.0
 11
1371.40361003666
 21
1165.935261701951
 31
0.0
  0
LINE
  5
107
330
87
100
AcDbEntity
  8
P-SANR-FIXT
100
AcDbLine
 10
1699.929204849724
 20
1165.935261701951
 30
0.0
 11
1699.932889445369
 21
1165.935261701951
 31
0.0
  0
LWPOLYLINE
  5
108
330
87
100
AcDbEntity
  8
P-SANR-FIXT
100
AcDbPolyline
 90
        8
 70
   128
 43
0.0
 10
1766.657373305442
 20
1346.070794216102
 10
1766.380786461198
 20
1348.274713880951
 10
1765.62478130555
 20
1350.362659918655
 10
1764.426919584717
 20
1352.231929504827
 10
1762.846378713987
 20
1353.790644338606
 10
1760.961044838875
 20
1354.962207264394
 10
1758.863709134717
 20
1355.689016405538
 10
1757.767735615961
 20
1355.873516178936
  0
LWPOLYLINE
  5
109
330
87
100
AcDbEntity
  8
P-SANR-FIXT
100
AcDbPolyline
 90
        8
 70
   128
 43
0.0
 10
1313.565079270421
 20
1355.873516178936
 10
1312.469105751664
 20
1355.689016405538
 10
1310.371770047506
 20
1354.962207264394
 10
1308.486436172394
 20
1353.790644338606
 10
1306.905895301664
 20
1352.231929504827
 10
1305.708033580831
 20
1350.362659918655
 10
1304.952028425183
 20
1348.274713880951
 10
1304.67544158094
 20
1346.070794216102
  0
LWPOLYLINE
  5
10A
330
87
100
AcDbEntity
  8
P-SANR-FIXT
100
AcDbPolyline
 90
        3
 70
   128
 43
0.0
 10
1736.896466245122
 20
1190.65548327651
 10
1747.860795998699
 20
1220.561099248331
 10
1750.220458097353
 20
1228.169543973651
  0
LWPOLYLINE
  5
10B
330
87
100
AcDbEntity
  8
P-SANR-FIXT
100
AcDbPolyline
 90
        5
 70
   128
 43
0.0
 10
1750.221234589662
 20
1228.172140456554
 10
1756.367801374627
 20
1251.261305977707
 10
1762.359787648703
 20
1282.55034786461
 10
1765.797247060944
 20
1314.222822852515
 10
1766.657373305442
 20
1346.070794216099
  0
LWPOLYLINE
  5
10C
330
87
100
AcDbEntity
  8
P-SANR-FIXT
100
AcDbPolyline
 90
        5
 70
   128
 43
0.0
 10
1304.67544158094
 20
1346.070794216099
 10
1305.535567825438
 20
1314.222822852515
 10
1308.973027237678
 20
1282.55034786461
 10
1314.965013511754
 20
1251.261305977707
 10
1321.111580296719
 20
1228.172140456554
  0
LWPOLYLINE
  5
10D
330
87
100
AcDbEntity
  8
P-SANR-FIXT
100
AcDbPolyline
 90
        3
 70
   128
 43
0.0
 10
1321.112356789038
 20
1228.169543973618
 10
1323.472018887682
 20
1220.561099248331
 10
1334.43634864126
 20
1190.65548327651
  0
LWPOLYLINE
  5
10E
330
87
100
AcDbEntity
  8
P-SANR-FIXT
100
AcDbPolyline
 90
        5
 70
   128
 43
0.0
 10
1699.929204849722
 20
1165.935261701951
 10
1709.262029729408
 20
1167.039219780671
 10
1718.091519514868
 20
1170.296186925346
 10
1725.916056426709
 20
1175.52622188949
 10
1730.007288666067
 20
1179.565901141033
  0
LWPOLYLINE
  5
10F
330
87
100
AcDbEntity
  8
P-SANR-FIXT
100
AcDbPolyline
 90
        3
 70
   128
 43
0.0
 10
1730.187644839335
 20
1179.773046728519
 10
1732.302322419598
 20
1182.440144471903
 10
1736.896466245123
 20
1190.655483276513
  0
LWPOLYLINE
  5
110
330
87
100
AcDbEntity
  8
P-SANR-FIXT
100
AcDbPolyline
 90
        3
 70
   128
 43
0.0
 10
1334.436348641258
 20
1190.655483276513
 10
1339.030492466783
 20
1182.440144471903
 10
1341.145170047042
 20
1179.773046728523
  0
LWPOLYLINE
  5
111
330
87
100
AcDbEntity
  8
P-SANR-FIXT
100
AcDbPolyline
 90
        5
 70
   128
 43
0.0
 10
1341.325526220314
 20
1179.565901141033
 10
1345.416758459672
 20
1175.52622188949
 10
1353.241295371513
 20
1170.296186925346
 10
1362.070785156973
 20
1167.039219780671
 10
1371.403610036659
 20
1165.935261701951
  0
LINE
  5
112
330
87
100
AcDbEntity
  8
P-SANR-FIXT
100
AcDbLine
 10
1556.623179440545
 20
1165.935261701951
 30
0.0
 11
1699.929204849722
 21
1165.935261701951
 31
0.0
  0
LINE
  5
113
330
87
100
AcDbEntity
  8
P-SANR-FIXT
100
AcDbLine
 10
1371.403610036659
 20
1165.935261701951
 30
0.0
 11
1514.709635445829
 21
1165.935261701951
 31
0.0
  0
LWPOLYLINE
  5
114
330
87
100
AcDbEntity
  8
P-SANR-FIXT
100
AcDbPolyline
 90
        8
 70
   128
 43
0.0
 10
1753.192585796499
 20
2084.15947636311
 10
1753.566300785061
 20
2084.152001066606
 10
1753.965554382886
 20
2084.128017063022
 10
1754.363529516084
 20
2084.088086358535
 10
1754.759589509338
 20
2084.032272833752
 10
1755.153100751146
 20
2083.960665778409
 10
1755.543433707466
 20
2083.873379748517
 10
1755.562473288813
 20
2083.868314809733
  0
LWPOLYLINE
  5
115
330
87
100
AcDbEntity
  8
P-SANR-FIXT
100
AcDbPolyline
 90
        8
 70
   128
 43
0.0
 10
1315.734694288131
 20
2083.858909895595
 10
1316.074020784278
 20
2083.93864602435
 10
1316.46673601419
 20
2084.014497299881
 10
1316.86217035581
 20
2084.074583481914
 10
1317.259691198549
 20
2084.118808445374
 10
1317.658662593856
 20
2084.147101439753
 10
1318.058446272609
 20
2084.159417202297
 10
1318.166407443192
 20
2084.159999999997
  0
LWPOLYLINE
  5
116
330
87
100
AcDbEntity
  8
P-SANR-FIXT
100
AcDbPolyline
 90
        3
 70
   128
 43
0.0
 10
1318.186974296182
 20
2084.159999999997
 10
1318.340384244429
 20
2084.159999999997
 10
1318.582539826476
 20
2084.159999999997
  0
LWPOLYLINE
  5
117
330
87
100
AcDbEntity
  8
P-SANR-FIXT
100
AcDbPolyline
 90
        3
 70
   128
 43
0.0
 10
1752.787253846832
 20
2084.159999999997
 10
1753.115705520756
 20
2084.159999999997
 10
1753.166407443195
 20
2084.159999999997
  0
LINE
  5
118
330
87
100
AcDbEntity
  8
P-SANR-FIXT
100
AcDbLine
 10
1753.166407443195
 20
2084.159999999997
 30
0.0
 11
1753.1636246724
 21
2084.159999999997
 31
0.0
  0
LINE
  5
119
330
87
100
AcDbEntity
  8
P-SANR-FIXT
100
AcDbLine
 10
1318.169190213987
 20
2084.159999999997
 30
0.0
 11
1318.166407443192
 21
2084.159999999997
 31
0.0
  0
LINE
  5
11A
330
87
100
AcDbEntity
  8
P-SANR-FIXT
100
AcDbLine
 10
1763.166407443194
 20
1524.088507834843
 30
0.0
 11
1763.166407443194
 21
1915.948688370893
 31
0.0
  0
LINE
  5
11B
330
87
100
AcDbEntity
  8
P-SANR-FIXT
100
AcDbLine
 10
1308.166407443192
 20
1915.948688370888
 30
0.0
 11
1308.166407443191
 21
1524.051311629092
 31
0.0
  0
LWPOLYLINE
  5
11C
330
87
100
AcDbEntity
  8
P-SANR-FIXT
100
AcDbPolyline
 90
        8
 70
   128
 43
0.0
 10
1755.342214089593
 20
1356.176224575111
 10
1755.258794102108
 20
1356.156622254224
 10
1754.866078872196
 20
1356.080770978692
 10
1754.470644530575
 20
1356.02068479666
 10
1754.073123687837
 20
1355.9764598332
 10
1753.674152292529
 20
1355.948166838821
 10
1753.274368613776
 20
1355.935851076277
 10
1753.166407443194
 20
1355.935268278577
  0
LWPOLYLINE
  5
11D
330
87
100
AcDbEntity
  8
P-SANR-FIXT
100
AcDbPolyline
 90
        7
 70
   128
 43
0.0
 10
1318.088613185684
 20
1355.936824371212
 10
1317.766514101324
 20
1355.943267211968
 10
1317.367260503499
 20
1355.967251215551
 10
1316.969285370301
 20
1356.007181920039
 10
1316.573225377048
 20
1356.062995444821
 10
1316.17971413524
 20
1356.134602500165
 10
1315.990413015711
 20
1356.176933907007
  0
LWPOLYLINE
  5
11E
330
87
100
AcDbEntity
  8
P-SANR-FIXT
100
AcDbPolyline
 90
        3
 70
   128
 43
0.0
 10
1753.105927217971
 20
1355.935268278577
 10
1752.992430641956
 20
1355.935268278577
 10
1752.813371000093
 20
1355.935268278577
  0
LWPOLYLINE
  5
11F
330
87
100
AcDbEntity
  8
P-SANR-FIXT
100
AcDbPolyline
 90
        3
 70
   128
 43
0.0
 10
1318.520068317102
 20
1355.935268278577
 10
1318.217109365628
 20
1355.935268278577
 10
1318.166407443191
 20
1355.935268278577
  0
LINE
  5
120
330
87
100
AcDbEntity
  8
P-SANR-FIXT
100
AcDbLine
 10
1753.163624672399
 20
1355.935268278577
 30
0.0
 11
1753.166407443194
 21
1355.935268278577
 31
0.0
  0
LINE
  5
121
330
87
100
AcDbEntity
  8
P-SANR-FIXT
100
AcDbLine
 10
1318.166407443191
 20
1355.935268278577
 30
0.0
 11
1318.169190213986
 21
1355.935268278577
 31
0.0
  0
SPLINE
  5
122
330
87
100
AcDbEntity
  8
P-SANR-FIXT
100
AcDbSpline
210
0.0
220
0.0
230
1.0
 70
     8
 71
     3
 72
     8
 73
     4
 74
     0
 42
0.000000001
 43
0.0000000001
 40
-0.037189365622894
 40
-0.037189365622894
 40
-0.037189365622894
 40
-0.037189365622894
 40
0.0
 40
0.0
 40
0.0
 40
0.0
 10
1317.577557609325
 20
2084.141385900816
 30
0.0
 10
1317.773856870866
 20
2084.153220298645
 30
0.0
 10
1317.971130378484
 20
2084.159443505668
 30
0.0
 10
1318.169190213986
 20
2084.159999999997
 30
0.0
  0
SPLINE
  5
123
330
87
100
AcDbEntity
  8
P-SANR-FIXT
100
AcDbSpline
210
0.0
220
0.0
230
1.0
 70
     8
 71
     3
 72
     8
 73
     4
 74
     0
 42
0.000000001
 43
0.0000000001
 40
-1.0
 40
-1.0
 40
-1.0
 40
-1.0
 40
-0.9887924619465124
 40
-0.9887924619465124
 40
-0.9887924619465124
 40
-0.9887924619465124
 10
1753.163624672398
 20
2084.159999999996
 30
0.0
 10
1753.223312787698
 20
2084.159832292608
 30
0.0
 10
1753.282911539023
 20
2084.159156586826
 30
0.0
 10
1753.342417831539
 20
2084.157973530481
 30
0.0
  0
LINE
  5
124
330
87
100
AcDbEntity
  8
P-SANR-FIXT
100
AcDbLine
 10
1763.163746993456
 20
1915.8727741348
 30
0.0
 11
1763.163746993456
 21
1524.15801244415
 31
0.0
  0
LINE
  5
125
330
87
100
AcDbEntity
  8
P-SANR-FIXT
100
AcDbLine
 10
1308.169067892926
 20
1524.127225865184
 30
0.0
 11
1308.169067892927
 21
1915.872774134797
 31
0.0
  0
LINE
  5
126
330
87
100
AcDbEntity
  8
P-SANR-FIXT
100
AcDbLine
 10
1318.169190213986
 20
2084.159999999997
 30
0.0
 11
1368.022848103683
 21
2084.159999999997
 31
0.0
  0
LINE
  5
127
330
87
100
AcDbEntity
  8
P-SANR-FIXT
100
AcDbLine
 10
1703.309966782692
 20
2084.159999999995
 30
0.0
 11
1753.163624672398
 21
2084.159999999995
 31
0.0
  0
LWPOLYLINE
  5
128
330
87
100
AcDbEntity
  8
P-SANR-FIXT
100
AcDbPolyline
 90
       40
 70
   128
 43
0.0
 10
1314.645931942268
 20
2084.160519487896
 10
1314.272009531591
 20
2084.167998933396
 10
1313.872755933765
 20
2084.19198293698
 10
1313.474780800568
 20
2084.231913641467
 10
1313.078720807315
 20
2084.287727166249
 10
1312.685209565506
 20
2084.359334221593
 10
1312.294876609186
 20
2084.446620251485
 10
1311.908346387816
 20
2084.549445616898
 10
1311.526237267296
 20
2084.667645819181
 10
1311.149160540706
 20
2084.801031763225
 10
1310.77771945037
 20
2084.949390059977
 10
1310.412508222797
 20
2085.112483367805
 10
1310.054111118042
 20
2085.290050772213
 10
1309.703101495019
 20
2085.481808203228
 10
1309.360040894248
 20
2085.687448889871
 10
1309.025478139506
 20
2085.906643850908
 10
1308.699948459833
 20
2086.139042421162
 10
1308.383972633272
 20
2086.384272812495
 10
1308.078056153742
 20
2086.641942708596
 10
1307.782688422351
 20
2086.911639892596
 10
1307.498341964461
 20
2087.192932906533
 10
1307.225471673748
 20
2087.485371741592
 10
1306.964514084467
 20
2087.788488558019
 10
1306.715886673093
 20
2088.10179843357
 10
1306.479987190446
 20
2088.42480013928
 10
1306.257193025377
 20
2088.756976941323
 10
1306.047860601023
 20
2089.097797427676
 10
1305.852324804607
 20
2089.446716358267
 10
1305.670898451691
 20
2089.803175537237
 10
1305.503871785738
 20
2090.166604705942
 10
1305.351512013784
 20
2090.536422455238
 10
1305.214062878961
 20
2090.912037155616
 10
1305.091744270564
 20
2091.292847903685
 10
1304.984751872273
 20
2091.67824548348
 10
1304.893256849102
 20
2092.06761334109
 10
1304.817405573571
 20
2092.460328571002
 10
1304.757319391539
 20
2092.855762912623
 10
1304.713094428079
 20
2093.253283755361
 10
1304.6848014337
 20
2093.652255150669
 10
1304.672821368757
 20
2094.024467485857
  0
LWPOLYLINE
  5
129
330
87
100
AcDbEntity
  8
P-SANR-FIXT
100
AcDbPolyline
 90
       40
 70
   128
 43
0.0
 10
1766.659993517627
 20
2094.024467485857
 10
1766.646575463934
 20
2093.624719285561
 10
1766.61718247888
 20
2093.225827420222
 10
1766.571861584972
 20
2092.828430031731
 10
1766.510685285972
 20
2092.433162871135
 10
1766.433751450908
 20
2092.040658281574
 10
1766.341183157504
 20
2091.65154418666
 10
1766.233128495283
 20
2091.266443085939
 10
1766.109760328654
 20
2090.88597105902
 10
1765.971276020368
 20
2090.510736779986
 10
1765.817897115774
 20
2090.141340543635
 10
1765.649868988401
 20
2089.778373305147
 10
1765.46746044741
 20
2089.422415734672
 10
1765.270963307554
 20
2089.074037288392
 10
1765.060691922339
 20
2088.733795297503
 10
1764.836982681127
 20
2088.402234076609
 10
1764.600193470981
 20
2088.079884052934
 10
1764.350703104125
 20
2087.767260917753
 10
1764.088910711924
 20
2087.464864801392
 10
1763.815235106361
 20
2087.17317947313
 10
1763.530114110022
 20
2086.892671567268
 10
1763.234003855679
 20
2086.623789836617
 10
1762.927378056573
 20
2086.366964434589
 10
1762.610727248571
 20
2086.12260622704
 10
1762.28455800542
 20
2085.891106134976
 10
1761.949392128326
 20
2085.672834509158
 10
1761.605765811198
 20
2085.468140537627
 10
1761.254228782838
 20
2085.277351687072
 10
1760.895343427501
 20
2085.100773178953
 10
1760.529683885199
 20
2084.938687501217
 10
1760.157835133194
 20
2084.791353956369
 10
1759.780392050168
 20
2084.659008246654
 10
1759.397958464536
 20
2084.541862096974
 10
1759.011146188453
 20
2084.440102916179
 10
1758.620574039046
 20
2084.35389349725
 10
1758.226866848437
 20
2084.283371756868
 10
1757.830654464142
 20
2084.228650514774
 10
1757.432570741458
 20
2084.18981731328
 10
1757.03325252942
 20
2084.166934277227
 10
1756.684247062057
 20
2084.160434579893
  0
LWPOLYLINE
  5
12A
330
87
100
AcDbEntity
  8
P-SANR-FIXT
100
AcDbPolyline
 90
        3
 70
   128
 43
0.0
 10
1756.639696163494
 20
2084.160000000006
 10
1756.484139980763
 20
2084.160000000006
 10
1756.244177178378
 20
2084.160000000006
  0
LWPOLYLINE
  5
12B
330
87
100
AcDbEntity
  8
P-SANR-FIXT
100
AcDbPolyline
 90
        3
 70
   128
 43
0.0
 10
1315.054709484098
 20
2084.160000000006
 10
1314.723419407846
 20
2084.160000000006
 10
1314.671902873455
 20
2084.160000000006
  0
LINE
  5
12C
330
87
100
AcDbEntity
  8
P-SANR-FIXT
100
AcDbLine
 10
1314.671902873455
 20
2084.160000000006
 30
0.0
 11
1314.674641640773
 21
2084.160000000006
 31
0.0
  0
LINE
  5
12D
330
87
100
AcDbEntity
  8
P-SANR-FIXT
100
AcDbLine
 10
1756.658173245611
 20
2084.160000000006
 30
0.0
 11
1756.660912012929
 21
2084.160000000006
 31
0.0
  0
LWPOLYLINE
  5
12E
330
87
100
AcDbEntity
  8
P-SANR-FIXT
100
AcDbPolyline
 90
       12
 70
   128
 43
0.0
 10
1304.672821368757
 20
2094.024467485857
 10
1304.774127500526
 20
2109.73955989667
 10
1305.503788680386
 20
2125.438030744982
 10
1306.8606376061
 20
2141.094765826266
 10
1308.842503608834
 20
2156.684717704316
 10
1311.446216125758
 20
2172.182945781807
 10
1314.667609772275
 20
2187.564656199926
 10
1318.501531005743
 20
2202.805241503263
 10
1322.94184637005
 20
2217.880320006482
 10
1327.981452307829
 20
2232.765774799823
 10
1333.612286524637
 20
2247.437792331013
 10
1334.433340918375
 20
2249.439778425446
  0
LWPOLYLINE
  5
12F
330
87
100
AcDbEntity
  8
P-SANR-FIXT
100
AcDbPolyline
 90
       12
 70
   128
 43
0.0
 10
1736.899473968009
 20
2249.439778425446
 10
1742.611023031725
 20
2234.79899293745
 10
1747.732528201756
 20
2219.941517472014
 10
1752.255796162358
 20
2204.891120820454
 10
1756.173590649707
 20
2189.671880406832
 10
1759.479644028375
 20
2174.308143769213
 10
1762.168667318211
 20
2158.824489608795
 10
1764.236358655576
 20
2143.245688469231
 10
1765.679410175417
 20
2127.596663109043
 10
1766.495513303135
 20
2111.902448630528
 10
1766.68336244782
 20
2096.188152428929
 10
1766.659993517627
 20
2094.024467485857
  0
LWPOLYLINE
  5
130
330
87
100
AcDbEntity
  8
P-SANR-FIXT
100
AcDbPolyline
 90
       31
 70
   128
 43
0.0
 10
1334.433340918375
 20
2249.439778425445
 10
1335.073938408854
 20
2250.905825334675
 10
1335.772649729453
 20
2252.345082495622
 10
1336.528357091111
 20
2253.755247403853
 10
1337.339851523258
 20
2255.134064096335
 10
1338.205834807911
 20
2256.479326760491
 10
1339.124921556549
 20
2257.788883263032
 10
1340.095641426435
 20
2259.060638592913
 10
1341.116441472854
 20
2260.292558212896
 10
1342.185688633489
 20
2261.482671314389
 10
1343.301672340978
 20
2262.629073970304
 10
1344.462607259454
 20
2263.729932180945
 10
1345.666636140698
 20
2264.783484808012
 10
1346.911832795347
 20
2265.788046392049
 10
1348.196205174381
 20
2266.742009848814
 10
1349.517698555979
 20
2267.64384904028
 10
1350.874198832634
 20
2268.492121216121
 10
1352.263535893274
 20
2269.285469321812
 10
1353.683487094978
 20
2270.022624169622
 10
1355.13178081873
 20
2270.702406469045
 10
1356.606100103526
 20
2271.323728713416
 10
1358.104086353014
 20
2271.885596919684
 10
1359.623343108749
 20
2272.387112218579
 10
1361.161439884012
 20
2272.827472292607
 10
1362.715916052072
 20
2273.205972659587
 10
1364.284284782663
 20
2273.522007799675
 10
1365.864037020387
 20
2273.775072124065
 10
1367.452645498657
 20
2273.964760783821
 10
1369.047568782793
 20
2274.090770317551
 10
1370.646255335773
 20
2274.152899136884
 10
1371.399925441015
 20
2274.160000000007
  0
LWPOLYLINE
  5
131
330
87
100
AcDbEntity
  8
P-SANR-FIXT
100
AcDbPolyline
 90
       31
 70
   128
 43
0.0
 10
1699.932889445369
 20
2274.160000000007
 10
1701.532462812834
 20
2274.128004266446
 10
1703.129477204136
 20
2274.032068252112
 10
1704.721377736926
 20
2273.872345434162
 10
1706.305617709938
 20
2273.649091335032
 10
1707.879662677171
 20
2273.362663113656
 10
1709.440994502454
 20
2273.013518994088
 10
1710.987115387933
 20
2272.602217532437
 10
1712.515551870013
 20
2272.129416723304
 10
1714.023858776372
 20
2271.595872947124
 10
1715.509623137714
 20
2271.002439760122
 10
1716.970468048009
 20
2270.350066528806
 10
1718.404056467028
 20
2269.639796911178
 10
1719.808094959119
 20
2268.872767187113
 10
1721.180337362204
 20
2268.050204440544
 10
1722.51858838117
 20
2267.173424596394
 10
1723.820707099864
 20
2266.243830315378
 10
1725.084610406107
 20
2265.262908750043
 10
1726.308276324228
 20
2264.232229165642
 10
1727.489747249791
 20
2263.153440429643
 10
1728.62713308135
 20
2262.028268373893
 10
1729.718614244203
 20
2260.858513033659
 10
1730.762444601327
 20
2259.646045767949
 10
1731.756954246824
 20
2258.392806265745
 10
1732.700552177409
 20
2257.100799442905
 10
1733.591728837685
 20
2255.772092234732
 10
1734.429058535102
 20
2254.408810289318
 10
1735.211201720767
 20
2253.013134566957
 10
1735.936907132429
 20
2251.587297851076
 10
1736.605013796239
 20
2250.133581176257
 10
1736.899473968009
 20
2249.439778425445
  0
LWPOLYLINE
  5
132
330
87
100
AcDbEntity
  8
P-SANR-FIXT
100
AcDbPolyline
 90
        4
 70
   128
 43
0.0
 10
1371.399925441015
 20
2274.160000000007
 10
1371.531321105793
 20
2274.160000000007
 10
1371.925297895094
 20
2274.160000000007
 10
1372.12381253212
 20
2274.160000000007
  0
LWPOLYLINE
  5
133
330
87
100
AcDbEntity
  8
P-SANR-FIXT
100
AcDbPolyline
 90
        4
 70
   128
 43
0.0
 10
1699.207044792058
 20
2274.160000000007
 10
1699.621402758364
 20
2274.160000000007
 10
1699.89459691006
 20
2274.160000000007
 10
1699.932889445369
 20
2274.160000000007
  0
LINE
  5
134
330
87
100
AcDbEntity
  8
P-SANR-FIXT
100
AcDbLine
 10
1371.40361003666
 20
2274.160000000007
 30
0.0
 11
1371.399925441015
 21
2274.160000000007
 31
0.0
  0
LINE
  5
135
330
87
100
AcDbEntity
  8
P-SANR-FIXT
100
AcDbLine
 10
1699.932889445369
 20
2274.160000000007
 30
0.0
 11
1699.929204849724
 21
2274.160000000007
 31
0.0
  0
SPLINE
  5
136
330
87
100
AcDbEntity
  8
P-SANR-FIXT
100
AcDbSpline
210
0.0
220
0.0
230
1.0
 70
     8
 71
     3
 72
    12
 73
     8
 74
     0
 42
0.000000001
 43
0.0000000001
 40
-1.0
 40
-1.0
 40
-1.0
 40
-1.0
 40
-0.7857142857142857
 40
-0.5714285714285714
 40
-0.4285714285714286
 40
-0.2857142857142857
 40
-0.089285714285725
 40
-0.089285714285725
 40
-0.089285714285725
 40
-0.089285714285725
 10
1766.657373305442
 20
2094.024467485857
 30
0.0
 10
1766.639078203296
 20
2092.89479233882
 30
0.0
 10
1766.238568836581
 20
2090.703039148046
 30
0.0
 10
1764.758647215583
 20
2088.074012094458
 30
0.0
 10
1762.901241487763
 20
2086.24238675054
 30
0.0
 10
1760.757543392641
 20
2084.910177556886
 30
0.0
 10
1759.06804576574
 20
2084.401922220263
 30
0.0
 10
1758.056242498364
 20
2084.259452629389
 30
0.0
  0
SPLINE
  5
137
330
87
100
AcDbEntity
  8
P-SANR-FIXT
100
AcDbSpline
210
0.0
220
0.0
230
1.0
 70
     8
 71
     3
 72
     8
 73
     4
 74
     0
 42
0.000000001
 43
0.0000000001
 40
-0.0890985257116985
 40
-0.0890985257116985
 40
-0.0890985257116985
 40
-0.0890985257116985
 40
0.0
 40
0.0
 40
0.0
 40
0.0
 10
1758.053349782483
 20
2084.259045739445
 30
0.0
 10
1757.59437431484
 20
2084.194553824094
 30
0.0
 10
1757.128476034972
 20
2084.161292331438
 30
0.0
 10
1756.658173245608
 20
2084.160000000006
 30
0.0
  0
SPLINE
  5
138
330
87
100
AcDbEntity
  8
P-SANR-FIXT
100
AcDbSpline
210
0.0
220
0.0
230
1.0
 70
     8
 71
     3
 72
     8
 73
     4
 74
     0
 42
0.000000001
 43
0.0000000001
 40
-1.0
 40
-1.0
 40
-1.0
 40
-1.0
 40
-0.9109014742878656
 40
-0.9109014742878656
 40
-0.9109014742878656
 40
-0.9109014742878656
 10
1314.674641640773
 20
2084.160000000006
 30
0.0
 10
1314.204338851407
 20
2084.161292331438
 30
0.0
 10
1313.73954657501
 20
2084.194147001137
 30
0.0
 10
1313.281779295888
 20
2084.258248939122
 30
0.0
  0
SPLINE
  5
139
330
87
100
AcDbEntity
  8
P-SANR-FIXT
100
AcDbSpline
210
0.0
220
0.0
230
1.0
 70
     8
 71
     3
 72
    12
 73
     8
 74
     0
 42
0.000000001
 43
0.0000000001
 40
-0.9107142857142806
 40
-0.9107142857142806
 40
-0.9107142857142806
 40
-0.9107142857142806
 40
-0.7857142857142857
 40
-0.5714285714285714
 40
-0.4285714285714286
 40
-0.2857142857142857
 40
0.0
 40
0.0
 40
0.0
 40
0.0
 10
1313.278894196268
 20
2084.258653371362
 30
0.0
 10
1312.636715003469
 20
2084.348768824861
 30
0.0
 10
1310.931204378357
 20
2084.760299071346
 30
0.0
 10
1308.696191770906
 20
2085.979874037747
 30
0.0
 10
1306.840151384961
 20
2087.81290714122
 30
0.0
 10
1305.228104288155
 20
2090.331948392196
 30
0.0
 10
1304.699835050467
 20
2092.518233956475
 30
0.0
 10
1304.67544158094
 20
2094.024467485857
 30
0.0
  0
SPLINE
  5
13A
330
87
100
AcDbEntity
  8
P-SANR-FIXT
100
AcDbSpline
210
0.0
220
0.0
230
1.0
 70
     8
 71
     3
 72
    10
 73
     6
 74
     0
 42
0.000000001
 43
0.0000000001
 40
-1.0
 40
-1.0
 40
-1.0
 40
-1.0
 40
-0.7
 40
-0.4
 40
-0.2500170097816644
 40
-0.2500170097816644
 40
-0.2500170097816644
 40
-0.2500170097816644
 10
1304.67544158094
 20
2094.024467485857
 30
0.0
 10
1304.461171411253
 20
2109.992327261569
 30
0.0
 10
1305.968856530099
 20
2141.83378471055
 30
0.0
 10
1312.676809538836
 20
2181.183837679468
 30
0.0
 10
1318.830828819038
 20
2204.296382159501
 30
0.0
 10
1321.112558666577
 20
2211.926194732885
 30
0.0
  0
SPLINE
  5
13B
330
87
100
AcDbEntity
  8
P-SANR-FIXT
100
AcDbSpline
210
0.0
220
0.0
230
1.0
 70
     8
 71
     3
 72
     9
 73
     5
 74
     0
 42
0.000000001
 43
0.0000000001
 40
-0.250000000000128
 40
-0.250000000000128
 40
-0.250000000000128
 40
-0.250000000000128
 40
-0.2
 40
0.0
 40
0.0
 40
0.0
 40
0.0
 10
1321.113334998032
 20
2211.928790653313
 30
0.0
 10
1321.874015304862
 20
2214.472344367505
 30
0.0
 10
1325.805526165044
 20
2227.149109987395
 30
0.0
 10
1330.372017993791
 20
2239.603671561097
 30
0.0
 10
1334.436348641258
 20
2249.439778425445
 30
0.0
  0
SPLINE
  5
13C
330
87
100
AcDbEntity
  8
P-SANR-FIXT
100
AcDbSpline
210
0.0
220
0.0
230
1.0
 70
     8
 71
     3
 72
     8
 73
     4
 74
     0
 42
0.000000001
 43
0.0000000001
 40
-1.0
 40
-1.0
 40
-1.0
 40
-1.0
 40
-0.7500000000009183
 40
-0.7500000000009183
 40
-0.7500000000009183
 40
-0.7500000000009183
 10
1736.896466245123
 20
2249.439778425445
 30
0.0
 10
1741.976879554439
 20
2237.144644845055
 30
0.0
 10
1746.4212968208
 20
2224.629790113686
 30
0.0
 10
1750.22197435265
 20
2211.919763447187
 30
0.0
  0
SPLINE
  5
13D
330
87
100
AcDbEntity
  8
P-SANR-FIXT
100
AcDbSpline
210
0.0
220
0.0
230
1.0
 70
     8
 71
     3
 72
    11
 73
     7
 74
     0
 42
0.000000001
 43
0.0000000001
 40
-0.7499829902183344
 40
-0.7499829902183344
 40
-0.7499829902183344
 40
-0.7499829902183344
 40
-0.7
 40
-0.4
 40
-0.2
 40
0.0
 40
0.0
 40
0.0
 40
0.0
 10
1750.222750128092
 20
2211.917169106993
 30
0.0
 10
1750.982609525841
 20
2209.376023242896
 30
0.0
 10
1756.122999646074
 20
2191.52818708038
 30
0.0
 10
1762.213567868592
 20
2162.895131077624
 30
0.0
 10
1766.227476802084
 20
2125.891753654089
 30
0.0
 10
1766.800220085233
 20
2104.669707336331
 30
0.0
 10
1766.657373305442
 20
2094.024467485856
 30
0.0
  0
SPLINE
  5
13E
330
87
100
AcDbEntity
  8
P-SANR-FIXT
100
AcDbSpline
210
0.0
220
0.0
230
1.0
 70
     8
 71
     3
 72
     9
 73
     5
 74
     0
 42
0.000000001
 43
0.0000000001
 40
-1.0
 40
-1.0
 40
-1.0
 40
-1.0
 40
-0.85
 40
-0.7278204105333051
 40
-0.7278204105333051
 40
-0.7278204105333051
 40
-0.7278204105333051
 10
1334.436348641258
 20
2249.439778425445
 30
0.0
 10
1335.360869326719
 20
2251.656290154372
 30
0.0
 10
1337.334004018134
 20
2255.446011845442
 30
0.0
 10
1339.894064101475
 20
2258.873286162061
 30
0.0
 10
1341.148554683504
 20
2260.322648220157
 30
0.0
  0
SPLINE
  5
13F
330
87
100
AcDbEntity
  8
P-SANR-FIXT
100
AcDbSpline
210
0.0
220
0.0
230
1.0
 70
     8
 71
     3
 72
    11
 73
     7
 74
     0
 42
0.000000001
 43
0.0000000001
 40
-0.7219976277537707
 40
-0.7219976277537707
 40
-0.7219976277537707
 40
-0.7219976277537707
 40
-0.7
 40
-0.4
 40
-0.2
 40
0.0
 40
0.0
 40
0.0
 40
0.0
 10
1341.32862867554
 20
2260.529258487492
 30
0.0
 10
1341.556293095094
 20
2260.788670624278
 30
0.0
 10
1344.938476545706
 20
2264.543252600375
 30
0.0
 10
1351.573755763981
 20
2269.585216132636
 30
0.0
 10
1362.013265102663
 20
2273.42190397287
 30
0.0
 10
1368.208779227726
 20
2274.150848818091
 30
0.0
 10
1371.403610036659
 20
2274.160000000006
 30
0.0
  0
SPLINE
  5
140
330
87
100
AcDbEntity
  8
P-SANR-FIXT
100
AcDbSpline
210
0.0
220
0.0
230
1.0
 70
     8
 71
     3
 72
    11
 73
     7
 74
     0
 42
0.000000001
 43
0.0000000001
 40
-1.0
 40
-1.0
 40
-1.0
 40
-1.0
 40
-0.85
 40
-0.7
 40
-0.4
 40
-0.2780023722462293
 40
-0.2780023722462293
 40
-0.2780023722462293
 40
-0.2780023722462293
 10
1699.929204849722
 20
2274.160000000006
 30
0.0
 10
1702.325327956422
 20
2274.15313661357
 30
0.0
 10
1707.007789163135
 20
2273.740572734285
 30
0.0
 10
1716.118487668046
 20
2271.261871428625
 30
0.0
 10
1724.005813907483
 20
2266.655379562464
 30
0.0
 10
1728.74787923523
 20
2261.965149341961
 30
0.0
 10
1730.012211249529
 20
2260.522639256905
 30
0.0
  0
SPLINE
  5
141
330
87
100
AcDbEntity
  8
P-SANR-FIXT
100
AcDbSpline
210
0.0
220
0.0
230
1.0
 70
     8
 71
     3
 72
     9
 73
     5
 74
     0
 42
0.000000001
 43
0.0000000001
 40
-0.2721795894667297
 40
-0.2721795894667297
 40
-0.2721795894667297
 40
-0.2721795894667297
 40
-0.2
 40
0.0
 40
0.0
 40
0.0
 40
0.0
 10
1730.192515688805
 20
2260.315502647224
 30
0.0
 10
1730.934512997238
 20
2259.457183896119
 30
0.0
 10
1733.590760885581
 20
2256.107633999339
 30
0.0
 10
1735.663771997842
 20
2252.395127397348
 30
0.0
 10
1736.896466245123
 20
2249.439778425445
 30
0.0
  0
LINE
  5
142
330
87
100
AcDbEntity
  8
P-SANR-FIXT
100
AcDbLine
 10
1371.403610036659
 20
2274.160000000006
 30
0.0
 11
1522.729005996448
 21
2274.160000000006
 31
0.0
  0
LINE
  5
143
330
87
100
AcDbEntity
  8
P-SANR-FIXT
100
AcDbLine
 10
1548.603808889926
 20
2274.160000000006
 30
0.0
 11
1699.929204849722
 21
2274.160000000006
 31
0.0
  0
LINE
  5
144
330
87
100
AcDbEntity
  8
P-SANR-FIXT
100
AcDbLine
 10
1756.658173245608
 20
2084.160000000006
 30
0.0
 11
1703.318307807755
 21
2084.160000000006
 31
0.0
  0
LINE
  5
145
330
87
100
AcDbEntity
  8
P-SANR-FIXT
100
AcDbLine
 10
1368.014507078627
 20
2084.160000000006
 30
0.0
 11
1314.674641640773
 21
2084.160000000006
 31
0.0
  0
LINE
  5
146
330
87
100
AcDbEntity
  8
P-SANR-FIXT
100
AcDbLine
 10
1773.166407443184
 20
1558.660000000016
 30
0.0
 11
1773.166407443184
 21
1554.160000000016
 31
0.0
  0
LINE
  5
147
330
87
100
AcDbEntity
  8
P-SANR-FIXT
100
AcDbLine
 10
1798.166407443192
 20
1554.160000000016
 30
0.0
 11
1798.166407443192
 21
1558.660000000016
 31
0.0
  0
LINE
  5
148
330
87
100
AcDbEntity
  8
P-SANR-FIXT
100
AcDbLine
 10
1798.16640744319
 20
1558.660000000016
 30
0.0
 11
1773.166407443182
 21
1558.660000000016
 31
0.0
  0
LINE
  5
149
330
87
100
AcDbEntity
  8
P-SANR-FIXT
100
AcDbLine
 10
1776.666407443196
 20
1562.960000000016
 30
0.0
 11
1777.391490225534
 21
1562.960000000016
 31
0.0
  0
LINE
  5
14A
330
87
100
AcDbEntity
  8
P-SANR-FIXT
100
AcDbLine
 10
1777.391490225534
 20
1562.960000000016
 30
0.0
 11
1784.941324660848
 21
1562.960000000016
 31
0.0
  0
LINE
  5
14B
330
87
100
AcDbEntity
  8
P-SANR-FIXT
100
AcDbLine
 10
1784.941324660848
 20
1562.960000000016
 30
0.0
 11
1786.391490225524
 21
1562.960000000016
 31
0.0
  0
LINE
  5
14C
330
87
100
AcDbEntity
  8
P-SANR-FIXT
100
AcDbLine
 10
1786.391490225524
 20
1562.960000000016
 30
0.0
 11
1793.941324660839
 21
1562.960000000016
 31
0.0
  0
LINE
  5
14D
330
87
100
AcDbEntity
  8
P-SANR-FIXT
100
AcDbLine
 10
1793.941324660839
 20
1562.960000000016
 30
0.0
 11
1794.666407443177
 21
1562.960000000016
 31
0.0
  0
LINE
  5
14E
330
87
100
AcDbEntity
  8
P-SANR-FIXT
100
AcDbLine
 10
1776.666407443196
 20
1558.660000000015
 30
0.0
 11
1776.666407443196
 21
1562.960000000016
 31
0.0
  0
LINE
  5
14F
330
87
100
AcDbEntity
  8
P-SANR-FIXT
100
AcDbLine
 10
1777.391490225534
 20
1558.660000000015
 30
0.0
 11
1777.391490225534
 21
1562.960000000016
 31
0.0
  0
LINE
  5
150
330
87
100
AcDbEntity
  8
P-SANR-FIXT
100
AcDbLine
 10
1784.941324660848
 20
1558.660000000015
 30
0.0
 11
1784.941324660848
 21
1562.960000000016
 31
0.0
  0
LINE
  5
151
330
87
100
AcDbEntity
  8
P-SANR-FIXT
100
AcDbLine
 10
1786.391490225524
 20
1558.660000000015
 30
0.0
 11
1786.391490225524
 21
1562.960000000016
 31
0.0
  0
LINE
  5
152
330
87
100
AcDbEntity
  8
P-SANR-FIXT
100
AcDbLine
 10
1793.941324660839
 20
1558.660000000015
 30
0.0
 11
1793.941324660839
 21
1562.960000000016
 31
0.0
  0
LINE
  5
153
330
87
100
AcDbEntity
  8
P-SANR-FIXT
100
AcDbLine
 10
1794.666407443177
 20
1558.660000000015
 30
0.0
 11
1794.666407443177
 21
1562.960000000016
 31
0.0
  0
LINE
  5
154
330
87
100
AcDbEntity
  8
P-SANR-FIXT
100
AcDbLine
 10
1773.166407443184
 20
2118.660000000021
 30
0.0
 11
1773.166407443184
 21
2114.16000000002
 31
0.0
  0
LINE
  5
155
330
87
100
AcDbEntity
  8
P-SANR-FIXT
100
AcDbLine
 10
1798.166407443192
 20
2114.16000000002
 30
0.0
 11
1798.166407443192
 21
2118.660000000021
 31
0.0
  0
LINE
  5
156
330
87
100
AcDbEntity
  8
P-SANR-FIXT
100
AcDbLine
 10
1798.166407443191
 20
2118.660000000019
 30
0.0
 11
1773.166407443183
 21
2118.660000000019
 31
0.0
  0
LINE
  5
157
330
87
100
AcDbEntity
  8
P-SANR-FIXT
100
AcDbLine
 10
1776.666407443196
 20
2122.960000000017
 30
0.0
 11
1777.391490225534
 21
2122.960000000017
 31
0.0
  0
LINE
  5
158
330
87
100
AcDbEntity
  8
P-SANR-FIXT
100
AcDbLine
 10
1777.391490225534
 20
2122.960000000017
 30
0.0
 11
1784.941324660848
 21
2122.960000000017
 31
0.0
  0
LINE
  5
159
330
87
100
AcDbEntity
  8
P-SANR-FIXT
100
AcDbLine
 10
1784.941324660848
 20
2122.960000000017
 30
0.0
 11
1786.391490225524
 21
2122.960000000017
 31
0.0
  0
LINE
  5
15A
330
87
100
AcDbEntity
  8
P-SANR-FIXT
100
AcDbLine
 10
1786.391490225524
 20
2122.960000000017
 30
0.0
 11
1793.941324660839
 21
2122.960000000017
 31
0.0
  0
LINE
  5
15B
330
87
100
AcDbEntity
  8
P-SANR-FIXT
100
AcDbLine
 10
1793.941324660839
 20
2122.960000000017
 30
0.0
 11
1794.666407443177
 21
2122.960000000017
 31
0.0
  0
LINE
  5
15C
330
87
100
AcDbEntity
  8
P-SANR-FIXT
100
AcDbLine
 10
1776.666407443196
 20
2118.660000000017
 30
0.0
 11
1776.666407443196
 21
2122.960000000017
 31
0.0
  0
LINE
  5
15D
330
87
100
AcDbEntity
  8
P-SANR-FIXT
100
AcDbLine
 10
1777.391490225534
 20
2118.660000000017
 30
0.0
 11
1777.391490225534
 21
2122.960000000017
 31
0.0
  0
LINE
  5
15E
330
87
100
AcDbEntity
  8
P-SANR-FIXT
100
AcDbLine
 10
1784.941324660848
 20
2118.660000000017
 30
0.0
 11
1784.941324660848
 21
2122.960000000017
 31
0.0
  0
LINE
  5
15F
330
87
100
AcDbEntity
  8
P-SANR-FIXT
100
AcDbLine
 10
1786.391490225524
 20
2118.660000000017
 30
0.0
 11
1786.391490225524
 21
2122.960000000017
 31
0.0
  0
LINE
  5
160
330
87
100
AcDbEntity
  8
P-SANR-FIXT
100
AcDbLine
 10
1793.941324660839
 20
2118.660000000017
 30
0.0
 11
1793.941324660839
 21
2122.960000000017
 31
0.0
  0
LINE
  5
161
330
87
100
AcDbEntity
  8
P-SANR-FIXT
100
AcDbLine
 10
1794.666407443177
 20
2118.660000000017
 30
0.0
 11
1794.666407443177
 21
2122.960000000017
 31
0.0
  0
LINE
  5
162
330
87
100
AcDbEntity
  8
P-SANR-FIXT
100
AcDbLine
 10
1548.666407443189
 20
2274.160000000007
 30
0.0
 11
1548.666407443189
 21
2285.999999999996
 31
0.0
  0
LINE
  5
163
330
87
100
AcDbEntity
  8
P-SANR-FIXT
100
AcDbLine
 10
1522.666407443189
 20
2285.999999999996
 30
0.0
 11
1522.666407443189
 21
2274.160000000007
 31
0.0
  0
LINE
  5
164
330
87
100
AcDbEntity
  8
P-SANR-FIXT
100
AcDbLine
 10
1556.666407443193
 20
1147.999999999997
 30
0.0
 11
1556.666407443193
 21
1165.935261701951
 31
0.0
  0
LINE
  5
165
330
87
100
AcDbEntity
  8
P-SANR-FIXT
100
AcDbLine
 10
1514.666407443185
 20
1165.935261701951
 30
0.0
 11
1514.666407443185
 21
1147.999999999997
 31
0.0
  0
LWPOLYLINE
  5
166
330
87
100
AcDbEntity
  8
P-SANR-FIXT
100
AcDbPolyline
 90
       41
 70
   128
 43
0.0
 10
1437.736525451022
 20
1207.205398359641
 10
1435.207154050126
 20
1207.255992533729
 10
1432.412378865349
 20
1207.423880558813
 10
1429.626552932966
 20
1207.703395490226
 10
1426.854132980193
 20
1208.094090163703
 10
1424.099554287536
 20
1208.59533955111
 10
1421.367223593291
 20
1209.206341760355
 10
1418.661512043703
 20
1209.926119318243
 10
1415.986748200062
 20
1210.753520734226
 10
1413.347211113934
 20
1211.687222342541
 10
1410.747123481585
 20
1212.725730419795
 10
1408.190644888571
 20
1213.867383574599
 10
1405.681865155287
 20
1215.110355405447
 10
1403.224797794129
 20
1216.452657422561
 10
1400.823373588728
 20
1217.892142229057
 10
1398.481434305538
 20
1219.426506956319
 10
1396.202726547823
 20
1221.053296948096
 10
1393.990895761898
 20
1222.769909687431
 10
1391.849480405187
 20
1224.573598960134
 10
1389.781906285452
 20
1226.461479248133
 10
1387.791481080224
 20
1228.430530345695
 10
1385.881389045231
 20
1230.477602191105
 10
1384.054685920263
 20
1232.599419906096
 10
1382.314294040645
 20
1234.792589034954
 10
1380.662997662121
 20
1237.053600974924
 10
1379.103438506638
 20
1239.378838589227
 10
1377.638111536157
 20
1241.764581993702
 10
1376.269360961244
 20
1244.207014507834
 10
1374.999376490835
 20
1246.702228760626
 10
1373.830189829167
 20
1249.246232941557
 10
1372.763671425484
 20
1251.834957186629
 10
1371.801527481723
 20
1254.464260089283
 10
1370.945297222945
 20
1257.12993532576
 10
1370.196350434912
 20
1259.82771838433
 10
1369.555885272718
 20
1262.553293387597
 10
1369.024926343998
 20
1265.302299996979
 10
1368.604323069772
 20
1268.070340388326
 10
1368.294748325555
 20
1270.852986287495
 10
1368.096697364899
 20
1273.645786054646
 10
1368.010487027093
 20
1276.444271805918
 10
1368.00640744319
 20
1277.199999999996
  0
LWPOLYLINE
  5
167
330
87
100
AcDbEntity
  8
P-SANR-FIXT
100
AcDbPolyline
 90
       38
 70
   128
 43
0.0
 10
1703.326407443188
 20
1277.199999999996
 10
1703.270414909456
 20
1274.400746606932
 10
1703.10252688437
 20
1271.605971422155
 10
1702.823011952958
 20
1268.820145489772
 10
1702.432317279481
 20
1266.047725536999
 10
1701.931067892074
 20
1263.293146844342
 10
1701.320065682829
 20
1260.560816150097
 10
1700.600288124941
 20
1257.855104600509
 10
1699.772886708958
 20
1255.180340756868
 10
1698.839185100643
 20
1252.54080367074
 10
1697.800677023389
 20
1249.940716038391
 10
1696.659023868584
 20
1247.384237445376
 10
1695.416052037737
 20
1244.875457712093
 10
1694.073750020623
 20
1242.418390350935
 10
1692.634265214126
 20
1240.016966145535
 10
1691.099900486864
 20
1237.675026862344
 10
1689.473110495088
 20
1235.396319104629
 10
1687.756497755752
 20
1233.184488318704
 10
1685.952808483049
 20
1231.043072961993
 10
1684.064928195051
 20
1228.975498842258
 10
1682.095877097489
 20
1226.98507363703
 10
1680.048805252079
 20
1225.074981602036
 10
1677.926987537088
 20
1223.248278477069
 10
1675.73381840823
 20
1221.507886597451
 10
1673.472806468259
 20
1219.856590218927
 10
1671.147568853957
 20
1218.297031063444
 10
1668.761825449481
 20
1216.831704092963
 10
1666.319392935348
 20
1215.46295351805
 10
1663.824178682556
 20
1214.192969047642
 10
1661.280174501626
 20
1213.023782385973
 10
1658.691450256554
 20
1211.957263982291
 10
1656.062147353901
 20
1210.995120038529
 10
1653.396472117423
 20
1210.138889779751
 10
1650.698689058853
 20
1209.389942991718
 10
1647.973114055586
 20
1208.749477829525
 10
1645.224107446203
 20
1208.218518900805
 10
1642.456067054857
 20
1207.797915626579
 10
1641.360700199149
 20
1207.676053942963
  0
LINE
  5
168
330
87
100
AcDbEntity
  8
P-SANR-FIXT
100
AcDbLine
 10
1640.898972050682
 20
1207.624685792419
 30
0.0
 11
1640.045899082769
 21
1207.529779772965
 31
0.0
  0
LINE
  5
169
330
87
100
AcDbEntity
  8
P-SANR-FIXT
100
AcDbLine
 10
1639.673421155688
 20
1207.488340882362
 30
0.0
 11
1639.480481573719
 21
1207.474658601947
 31
0.0
  0
LINE
  5
16A
330
87
100
AcDbEntity
  8
P-SANR-FIXT
100
AcDbLine
 10
1639.268374020616
 20
1207.459617027844
 30
0.0
 11
1638.001214466956
 21
1207.369756605389
 31
0.0
  0
LWPOLYLINE
  5
16B
330
87
100
AcDbEntity
  8
P-SANR-FIXT
100
AcDbPolyline
 90
        4
 70
   128
 43
0.0
 10
1637.904626489296
 20
1207.362907083991
 10
1636.880621388537
 20
1207.290289921706
 10
1634.082135637265
 20
1207.204079583899
 10
1633.364656590287
 20
1207.200206477148
  0
LWPOLYLINE
  5
16C
330
87
100
AcDbEntity
  8
P-SANR-FIXT
100
AcDbPolyline
 90
        4
 70
   128
 43
0.0
 10
1633.326407443187
 20
1207.199999999997
 10
1633.248289859698
 20
1207.199999999997
 10
1633.014062080701
 20
1207.199999999997
 10
1632.803650789439
 20
1207.199999999997
  0
LWPOLYLINE
  5
16D
330
87
100
AcDbEntity
  8
P-SANR-FIXT
100
AcDbPolyline
 90
        4
 70
   128
 43
0.0
 10
1438.509951841105
 20
1207.199999999997
 10
1438.191593060378
 20
1207.199999999997
 10
1438.029173189145
 20
1207.199999999997
 10
1438.00640744319
 20
1207.199999999997
  0
LWPOLYLINE
  5
16E
330
87
100
AcDbEntity
  8
P-SANR-FIXT
100
AcDbPolyline
 90
       80
 70
   128
 43
0.0
 10
1438.00640744319
 20
1207.199999999997
 10
1438.084525026679
 20
1207.199999999997
 10
1438.318752805676
 20
1207.199999999997
 10
1438.708716065701
 20
1207.199999999997
 10
1439.253790948726
 20
1207.199999999997
 10
1439.953105451214
 20
1207.199999999997
 10
1440.805540819141
 20
1207.199999999997
 10
1441.80973333776
 20
1207.199999999997
 10
1442.964076513258
 20
1207.199999999997
 10
1444.266723642803
 20
1207.199999999997
 10
1445.715590768868
 20
1207.199999999997
 10
1447.308360013128
 20
1207.199999999997
 10
1449.042483284565
 20
1207.199999999997
 10
1450.915186355871
 20
1207.199999999997
 10
1452.923473301619
 20
1207.199999999997
 10
1455.06413129111
 20
1207.199999999997
 10
1457.33373572821
 20
1207.199999999997
 10
1459.728655729974
 20
1207.199999999997
 10
1462.24505993529
 20
1207.199999999997
 10
1464.878922634233
 20
1207.199999999997
 10
1467.626030208345
 20
1207.199999999997
 10
1470.481987871528
 20
1207.199999999997
 10
1473.442226700756
 20
1207.199999999997
 10
1476.502010945389
 20
1207.199999999997
 10
1479.656445603353
 20
1207.199999999997
 10
1482.900484252107
 20
1207.199999999997
 10
1486.228937121836
 20
1207.199999999997
 10
1489.636479397982
 20
1207.199999999997
 10
1493.117659739805
 20
1207.199999999997
 10
1496.666909001373
 20
1207.199999999997
 10
1500.278549140997
 20
1207.199999999997
 10
1503.946802304899
 20
1207.199999999997
 10
1507.665800070532
 20
1207.199999999997
 10
1511.429592834818
 20
1207.199999999997
 10
1515.232159332233
 20
1207.199999999997
 10
1519.067416267551
 20
1207.199999999997
 10
1522.929228047822
 20
1207.199999999997
 10
1526.811416598004
 20
1207.199999999997
 10
1530.707771244576
 20
1207.199999999997
 10
1534.612058651278
 20
1207.199999999997
 10
1538.518032791132
 20
1207.199999999997
 10
1542.419444938744
 20
1207.199999999997
 10
1546.310053666934
 20
1207.199999999997
 10
1550.18363483169
 20
1207.199999999997
 10
1554.033991529468
 20
1207.199999999997
 10
1557.854964010916
 20
1207.199999999997
 10
1561.640439535161
 20
1207.199999999997
 10
1565.384362148892
 20
1207.199999999997
 10
1569.080742374585
 20
1207.199999999997
 10
1572.7236667924
 20
1207.199999999997
 10
1576.307307500382
 20
1207.199999999997
 10
1579.82593143787
 20
1207.199999999997
 10
1583.273909557162
 20
1207.199999999997
 10
1586.645725828797
 20
1207.199999999997
 10
1589.935986066023
 20
1207.199999999997
 10
1593.139426554345
 20
1207.199999999997
 10
1596.250922472346
 20
1207.199999999997
 10
1599.265496090308
 20
1207.199999999997
 10
1602.178324733516
 20
1207.199999999997
 10
1604.984748497513
 20
1207.199999999997
 10
1607.680277702946
 20
1207.199999999997
 10
1610.260600078104
 20
1207.199999999997
 10
1612.721587657624
 20
1207.199999999997
 10
1615.059303386363
 20
1207.199999999997
 10
1617.270007417841
 20
1207.199999999997
 10
1619.350163097199
 20
1207.199999999997
 10
1621.296442619093
 20
1207.199999999997
 10
1623.105732351472
 20
1207.199999999997
 10
1624.775137816726
 20
1207.199999999997
 10
1626.301988322231
 20
1207.199999999997
 10
1627.683841232889
 20
1207.199999999997
 10
1628.918485878822
 20
1207.199999999997
 10
1630.003947091974
 20
1207.199999999997
 10
1630.938488365956
 20
1207.199999999997
 10
1631.720614634088
 20
1207.199999999997
 10
1632.349074661187
 20
1207.199999999997
 10
1632.822863045272
 20
1207.199999999997
 10
1633.141221825999
 20
1207.199999999997
 10
1633.303641697232
 20
1207.199999999997
 10
1633.326407443187
 20
1207.199999999997
  0
LINE
  5
16F
330
87
100
AcDbEntity
  8
P-SANR-FIXT
100
AcDbLine
 10
1703.326407443189
 20
1277.199999999996
 30
0.0
 11
1703.326407443189
 21
1355.839999999987
 31
0.0
  0
LINE
  5
170
330
87
100
AcDbEntity
  8
P-SANR-FIXT
100
AcDbLine
 10
1368.006407443189
 20
1355.839999999984
 30
0.0
 11
1368.006407443189
 21
1277.199999999996
 31
0.0
  0
LINE
  5
171
330
87
100
AcDbEntity
  8
P-SANR-FIXT
100
AcDbLine
 10
1368.006407443189
 20
1915.839999999994
 30
0.0
 11
1368.006407443189
 21
1524.159999999988
 31
0.0
  0
LINE
  5
172
330
87
100
AcDbEntity
  8
P-SANR-FIXT
100
AcDbLine
 10
1703.326407443189
 20
1524.159999999995
 30
0.0
 11
1703.326407443189
 21
1915.839999999997
 31
0.0
  0
LINE
  5
173
330
87
100
AcDbEntity
  8
P-SANR-FIXT
100
AcDbLine
 10
1703.326407443189
 20
2084.160000000006
 30
0.0
 11
1703.326407443189
 21
2149.999999999997
 31
0.0
  0
LINE
  5
174
330
87
100
AcDbEntity
  8
P-SANR-FIXT
100
AcDbLine
 10
1368.006407443189
 20
2149.999999999997
 30
0.0
 11
1368.006407443189
 21
2084.159999999998
 31
0.0
  0
LWPOLYLINE
  5
175
330
87
100
AcDbEntity
  8
P-SANR-FIXT
100
AcDbPolyline
 90
       41
 70
   128
 43
0.0
 10
1368.006407443189
 20
2149.999999999997
 10
1368.06239997692
 20
2152.799253393062
 10
1368.230288002006
 20
2155.594028577839
 10
1368.509802933418
 20
2158.379854510222
 10
1368.900497606894
 20
2161.152274462995
 10
1369.401746994302
 20
2163.906853155652
 10
1370.012749203546
 20
2166.639183849897
 10
1370.732526761434
 20
2169.344895399486
 10
1371.559928177418
 20
2172.019659243126
 10
1372.493629785733
 20
2174.659196329254
 10
1373.532137862987
 20
2177.259283961603
 10
1374.673791017791
 20
2179.815762554618
 10
1375.916762848638
 20
2182.324542287901
 10
1377.259064865753
 20
2184.781609649059
 10
1378.698549672249
 20
2187.18303385446
 10
1380.232914399511
 20
2189.52497313765
 10
1381.859704391288
 20
2191.803680895365
 10
1383.576317130623
 20
2194.015511681291
 10
1385.380006403326
 20
2196.156927038001
 10
1387.267886691325
 20
2198.224501157737
 10
1389.236937788887
 20
2200.214926362964
 10
1391.284009634297
 20
2202.125018397958
 10
1393.405827349287
 20
2203.951721522926
 10
1395.598996478146
 20
2205.692113402543
 10
1397.860008418116
 20
2207.343409781068
 10
1400.185246032418
 20
2208.902968936551
 10
1402.570989436894
 20
2210.368295907032
 10
1405.013421951026
 20
2211.737046481944
 10
1407.508636203818
 20
2213.007030952354
 10
1410.052640384749
 20
2214.176217614022
 10
1412.641364629821
 20
2215.242736017704
 10
1415.270667532474
 20
2216.204879961466
 10
1417.936342768951
 20
2217.061110220244
 10
1420.634125827522
 20
2217.810057008277
 10
1423.359700830789
 20
2218.450522170471
 10
1426.108707440171
 20
2218.98148109919
 10
1428.876747831518
 20
2219.402084373416
 10
1431.659393730687
 20
2219.711659117633
 10
1434.452193497838
 20
2219.909710078289
 10
1437.250679249109
 20
2219.995920416096
 10
1437.968158296088
 20
2219.999793522847
  0
LWPOLYLINE
  5
176
330
87
100
AcDbEntity
  8
P-SANR-FIXT
100
AcDbPolyline
 90
       41
 70
   128
 43
0.0
 10
1635.280307165777
 20
2219.960916794314
 10
1636.125660836254
 20
2219.944007466267
 10
1638.920436021032
 20
2219.776119441181
 10
1641.706261953414
 20
2219.496604509769
 10
1644.478681906187
 20
2219.105909836292
 10
1647.233260598844
 20
2218.604660448885
 10
1649.965591293089
 20
2217.99365823964
 10
1652.671302842677
 20
2217.273880681752
 10
1655.346066686318
 20
2216.446479265769
 10
1657.985603772446
 20
2215.512777657453
 10
1660.585691404795
 20
2214.4742695802
 10
1663.142169997809
 20
2213.332616425395
 10
1665.650949731093
 20
2212.089644594548
 10
1668.108017092251
 20
2210.747342577434
 10
1670.509441297651
 20
2209.307857770937
 10
1672.851380580842
 20
2207.773493043675
 10
1675.130088338557
 20
2206.146703051898
 10
1677.341919124482
 20
2204.430090312563
 10
1679.483334481193
 20
2202.626401039861
 10
1681.550908600928
 20
2200.738520751861
 10
1683.541333806156
 20
2198.769469654299
 10
1685.451425841149
 20
2196.722397808889
 10
1687.278128966117
 20
2194.600580093899
 10
1689.018520845735
 20
2192.40741096504
 10
1690.669817224259
 20
2190.14639902507
 10
1692.229376379742
 20
2187.821161410767
 10
1693.694703350223
 20
2185.435418006292
 10
1695.063453925136
 20
2182.992985492159
 10
1696.333438395545
 20
2180.497771239368
 10
1697.502625057213
 20
2177.953767058437
 10
1698.569143460895
 20
2175.365042813365
 10
1699.531287404657
 20
2172.735739910712
 10
1700.387517663435
 20
2170.070064674234
 10
1701.136464451468
 20
2167.372281615664
 10
1701.776929613661
 20
2164.646706612396
 10
1702.307888542381
 20
2161.897700003015
 10
1702.728491816607
 20
2159.129659611668
 10
1703.038066560823
 20
2156.347013712499
 10
1703.23611752148
 20
2153.554213945348
 10
1703.322327859287
 20
2150.755728194076
 10
1703.326407443189
 20
2149.999999999997
  0
LWPOLYLINE
  5
177
330
87
100
AcDbEntity
  8
P-SANR-FIXT
100
AcDbPolyline
 90
        4
 70
   128
 43
0.0
 10
1438.006407443189
 20
2219.999999999998
 10
1438.084525026677
 20
2219.999999999998
 10
1438.318752805675
 20
2219.999999999998
 10
1438.529164096938
 20
2219.999999999998
  0
LWPOLYLINE
  5
178
330
87
100
AcDbEntity
  8
P-SANR-FIXT
100
AcDbPolyline
 90
        4
 70
   128
 43
0.0
 10
1632.822863045274
 20
2219.999999999998
 10
1633.141221826001
 20
2219.999999999998
 10
1633.303641697233
 20
2219.999999999998
 10
1633.326407443189
 20
2219.999999999998
  0
LWPOLYLINE
  5
179
330
87
100
AcDbEntity
  8
P-SANR-FIXT
100
AcDbPolyline
 90
       80
 70
   128
 43
0.0
 10
1633.326407443189
 20
2219.999999999998
 10
1633.2482898597
 20
2219.999999999998
 10
1633.014062080702
 20
2219.999999999998
 10
1632.624098820677
 20
2219.999999999998
 10
1632.079023937652
 20
2219.999999999998
 10
1631.379709435164
 20
2219.999999999998
 10
1630.527274067238
 20
2219.999999999998
 10
1629.523081548618
 20
2219.999999999998
 10
1628.36873837312
 20
2219.999999999998
 10
1627.066091243576
 20
2219.999999999998
 10
1625.617224117511
 20
2219.999999999998
 10
1624.024454873251
 20
2219.999999999998
 10
1622.290331601814
 20
2219.999999999998
 10
1620.417628530508
 20
2219.999999999998
 10
1618.409341584759
 20
2219.999999999998
 10
1616.268683595268
 20
2219.999999999998
 10
1613.999079158169
 20
2219.999999999998
 10
1611.604159156404
 20
2219.999999999998
 10
1609.087754951089
 20
2219.999999999998
 10
1606.453892252145
 20
2219.999999999998
 10
1603.706784678033
 20
2219.999999999998
 10
1600.850827014851
 20
2219.999999999998
 10
1597.890588185622
 20
2219.999999999998
 10
1594.830803940989
 20
2219.999999999998
 10
1591.676369283025
 20
2219.999999999998
 10
1588.432330634271
 20
2219.999999999998
 10
1585.103877764542
 20
2219.999999999998
 10
1581.696335488396
 20
2219.999999999998
 10
1578.215155146572
 20
2219.999999999998
 10
1574.665905885005
 20
2219.999999999998
 10
1571.05426574538
 20
2219.999999999998
 10
1567.386012581479
 20
2219.999999999998
 10
1563.667014815845
 20
2219.999999999998
 10
1559.903222051559
 20
2219.999999999998
 10
1556.100655554144
 20
2219.999999999998
 10
1552.265398618826
 20
2219.999999999998
 10
1548.403586838555
 20
2219.999999999998
 10
1544.521398288372
 20
2219.999999999998
 10
1540.625043641801
 20
2219.999999999998
 10
1536.720756235098
 20
2219.999999999998
 10
1532.814782095244
 20
2219.999999999998
 10
1528.913369947632
 20
2219.999999999998
 10
1525.022761219442
 20
2219.999999999998
 10
1521.149180054687
 20
2219.999999999998
 10
1517.29882335691
 20
2219.999999999998
 10
1513.477850875461
 20
2219.999999999998
 10
1509.692375351215
 20
2219.999999999998
 10
1505.948452737485
 20
2219.999999999998
 10
1502.252072511792
 20
2219.999999999998
 10
1498.609148093977
 20
2219.999999999998
 10
1495.025507385994
 20
2219.999999999998
 10
1491.506883448507
 20
2219.999999999998
 10
1488.058905329214
 20
2219.999999999998
 10
1484.68708905758
 20
2219.999999999998
 10
1481.396828820353
 20
2219.999999999998
 10
1478.193388332031
 20
2219.999999999998
 10
1475.08189241403
 20
2219.999999999998
 10
1472.067318796068
 20
2219.999999999998
 10
1469.15449015286
 20
2219.999999999998
 10
1466.348066388863
 20
2219.999999999998
 10
1463.65253718343
 20
2219.999999999998
 10
1461.072214808273
 20
2219.999999999998
 10
1458.611227228752
 20
2219.999999999998
 10
1456.273511500013
 20
2219.999999999998
 10
1454.062807468535
 20
2219.999999999998
 10
1451.982651789177
 20
2219.999999999998
 10
1450.036372267283
 20
2219.999999999998
 10
1448.227082534904
 20
2219.999999999998
 10
1446.55767706965
 20
2219.999999999998
 10
1445.030826564145
 20
2219.999999999998
 10
1443.648973653487
 20
2219.999999999998
 10
1442.414329007554
 20
2219.999999999998
 10
1441.328867794402
 20
2219.999999999998
 10
1440.39432652042
 20
2219.999999999998
 10
1439.612200252287
 20
2219.999999999998
 10
1438.983740225189
 20
2219.999999999998
 10
1438.509951841103
 20
2219.999999999998
 10
1438.191593060377
 20
2219.999999999998
 10
1438.029173189144
 20
2219.999999999998
 10
1438.006407443189
 20
2219.999999999998
  0
LINE
  5
17A
330
87
100
AcDbEntity
  8
P-SANR-FIXT
100
AcDbLine
 10
1368.006407443189
 20
2084.159999999998
 30
0.0
 11
1220.66640744319
 21
2084.159999999997
 31
0.0
  0
LINE
  5
17B
330
87
100
AcDbEntity
  8
P-SANR-FIXT
100
AcDbLine
 10
1220.666407443192
 20
1915.839999999992
 30
0.0
 11
1368.006407443189
 21
1915.839999999994
 31
0.0
  0
LINE
  5
17C
330
87
100
AcDbEntity
  8
P-SANR-FIXT
100
AcDbLine
 10
1220.666407443188
 20
2142.499999999996
 30
0.0
 11
1200.666407443188
 21
2142.499999999996
 31
0.0
  0
LINE
  5
17D
330
87
100
AcDbEntity
  8
P-SANR-FIXT
100
AcDbLine
 10
1200.666407443193
 20
1857.499999999992
 30
0.0
 11
1220.666407443193
 21
1857.499999999992
 31
0.0
  0
LINE
  5
17E
330
87
100
AcDbEntity
  8
P-SANR-FIXT
100
AcDbLine
 10
1798.666407443188
 20
1524.159999999997
 30
0.0
 11
1798.666407443188
 21
1554.159999999994
 31
0.0
  0
LINE
  5
17F
330
87
100
AcDbEntity
  8
P-SANR-FIXT
100
AcDbLine
 10
1772.666407443188
 20
1554.159999999994
 30
0.0
 11
1772.666407443188
 21
1524.159999999996
 31
0.0
  0
LINE
  5
180
330
87
100
AcDbEntity
  8
P-SANR-FIXT
100
AcDbLine
 10
1798.666407443189
 20
2084.160000000008
 30
0.0
 11
1798.666407443189
 21
2114.159999999996
 31
0.0
  0
LINE
  5
181
330
87
100
AcDbEntity
  8
P-SANR-FIXT
100
AcDbLine
 10
1772.666407443189
 20
2114.159999999996
 30
0.0
 11
1772.666407443189
 21
2084.160000000007
 31
0.0
  0
LINE
  5
182
330
87
100
AcDbEntity
  8
P-SANR-FIXT
100
AcDbLine
 10
1870.666407443189
 20
2142.500000000009
 30
0.0
 11
1850.666407443189
 21
2142.500000000008
 31
0.0
  0
LINE
  5
183
330
87
100
AcDbEntity
  8
P-SANR-FIXT
100
AcDbLine
 10
1850.666407443193
 20
1857.499999999999
 30
0.0
 11
1870.666407443193
 21
1857.499999999999
 31
0.0
  0
LINE
  5
184
330
87
100
AcDbEntity
  8
P-SANR-FIXT
100
AcDbLine
 10
1850.666407443189
 20
2084.160000000008
 30
0.0
 11
1798.666407443189
 21
2084.160000000008
 31
0.0
  0
LINE
  5
185
330
87
100
AcDbEntity
  8
P-SANR-FIXT
100
AcDbLine
 10
1772.666407443189
 20
2084.160000000007
 30
0.0
 11
1703.326407443189
 21
2084.160000000006
 31
0.0
  0
LINE
  5
186
330
87
100
AcDbEntity
  8
P-SANR-FIXT
100
AcDbLine
 10
1703.326407443189
 20
1915.839999999997
 30
0.0
 11
1850.666407443191
 21
1915.84
 31
0.0
  0
LINE
  5
187
330
87
100
AcDbEntity
  8
P-SANR-FIXT
100
AcDbLine
 10
1368.006407443189
 20
1524.159999999988
 30
0.0
 11
1220.666407443189
 21
1524.159999999986
 31
0.0
  0
LINE
  5
188
330
87
100
AcDbEntity
  8
P-SANR-FIXT
100
AcDbLine
 10
1220.666407443191
 20
1355.839999999981
 30
0.0
 11
1368.006407443189
 21
1355.839999999984
 31
0.0
  0
LINE
  5
189
330
87
100
AcDbEntity
  8
P-SANR-FIXT
100
AcDbLine
 10
1220.666407443188
 20
1582.499999999986
 30
0.0
 11
1200.666407443188
 21
1582.499999999985
 31
0.0
  0
LINE
  5
18A
330
87
100
AcDbEntity
  8
P-SANR-FIXT
100
AcDbLine
 10
1200.666407443192
 20
1297.499999999981
 30
0.0
 11
1220.666407443192
 21
1297.499999999982
 31
0.0
  0
LINE
  5
18B
330
87
100
AcDbEntity
  8
P-SANR-FIXT
100
AcDbLine
 10
1870.666407443188
 20
1582.499999999998
 30
0.0
 11
1850.666407443188
 21
1582.499999999998
 31
0.0
  0
LINE
  5
18C
330
87
100
AcDbEntity
  8
P-SANR-FIXT
100
AcDbLine
 10
1850.666407443193
 20
1297.499999999989
 30
0.0
 11
1870.666407443193
 21
1297.499999999989
 31
0.0
  0
LINE
  5
18D
330
87
100
AcDbEntity
  8
P-SANR-FIXT
100
AcDbLine
 10
1850.666407443188
 20
1524.159999999998
 30
0.0
 11
1798.666407443188
 21
1524.159999999997
 31
0.0
  0
LINE
  5
18E
330
87
100
AcDbEntity
  8
P-SANR-FIXT
100
AcDbLine
 10
1772.666407443188
 20
1524.159999999996
 30
0.0
 11
1703.326407443189
 21
1524.159999999995
 31
0.0
  0
LINE
  5
18F
330
87
100
AcDbEntity
  8
P-SANR-FIXT
100
AcDbLine
 10
1703.326407443189
 20
1355.839999999987
 30
0.0
 11
1850.66640744319
 21
1355.839999999989
 31
0.0
  0
SPLINE
  5
190
330
87
100
AcDbEntity
  8
P-SANR-FIXT
100
AcDbSpline
210
0.0
220
0.0
230
1.0
 70
     8
 71
     3
 72
    16
 73
    12
 74
     0
 42
0.000000001
 43
0.0000000001
 40
0.0081342664960869
 40
0.0081342664960869
 40
0.0081342664960869
 40
0.0081342664960869
 40
0.1111111111111111
 40
0.2222222222222222
 40
0.3333333333333333
 40
0.4444444444444445
 40
0.5833333333333333
 40
0.7222222222222223
 40
0.7916666666666668
 40
0.861111111111111
 40
1.0
 40
1.0
 40
1.0
 40
1.0
 10
1703.322797729885
 20
1355.849670972366
 30
0.0
 10
1703.292357383889
 20
1355.919210679062
 30
0.0
 10
1702.829465663917
 20
1356.820556130897
 30
0.0
 10
1700.942529442187
 20
1360.655937828626
 30
0.0
 10
1697.99076287561
 20
1366.94823278882
 30
0.0
 10
1694.05326831794
 20
1376.051286446762
 30
0.0
 10
1689.430780212076
 20
1388.261100085717
 30
0.0
 10
1685.59319737754
 20
1401.239534186599
 30
0.0
 10
1683.169362445765
 20
1412.547389592045
 30
0.0
 10
1681.281715543293
 20
1424.480483361222
 30
0.0
 10
1680.688066106226
 20
1433.693953782025
 30
0.0
 10
1680.673200387516
 20
1440.000000000005
 30
0.0
  0
SPLINE
  5
191
330
87
100
AcDbEntity
  8
P-SANR-FIXT
100
AcDbSpline
210
0.0
220
0.0
230
1.0
 70
     8
 71
     3
 72
    16
 73
    12
 74
     0
 42
0.000000001
 43
0.0000000001
 40
0.0
 40
0.0
 40
0.0
 40
0.0
 40
0.1111111111111111
 40
0.2222222222222222
 40
0.3333333333333333
 40
0.4444444444444445
 40
0.5833333333333333
 40
0.7222222222222223
 40
0.7916666666666668
 40
0.861111111111111
 40
0.991865733503902
 40
0.991865733503902
 40
0.991865733503902
 40
0.991865733503902
 10
1390.659614498857
 20
1440.000000000001
 30
0.0
 10
1390.647721923889
 20
1434.955163025617
 30
0.0
 10
1390.143245467132
 20
1425.086120084766
 30
0.0
 10
1387.938689200605
 20
1410.708694860629
 30
0.0
 10
1384.710382036845
 20
1397.464670333471
 30
0.0
 10
1380.587053156042
 20
1384.604584105934
 30
0.0
 10
1375.989410419819
 20
1372.895216499124
 30
0.0
 10
1372.394181792481
 20
1364.90373688259
 30
0.0
 10
1370.196134556628
 20
1360.28039203487
 30
0.0
 10
1368.583512292804
 20
1356.976648989198
 30
0.0
 10
1368.048767923066
 20
1355.938364213108
 30
0.0
 10
1368.010026010892
 20
1355.849705800611
 30
0.0
  0
SPLINE
  5
192
330
87
100
AcDbEntity
  8
P-SANR-FIXT
100
AcDbSpline
210
0.0
220
0.0
230
1.0
 70
     8
 71
     3
 72
    16
 73
    12
 74
     0
 42
0.000000001
 43
0.0000000001
 40
0.0
 40
0.0
 40
0.0
 40
0.0
 40
0.1111111111111111
 40
0.2222222222222222
 40
0.3333333333333333
 40
0.4444444444444445
 40
0.5833333333333333
 40
0.7222222222222223
 40
0.7916666666666668
 40
0.861111111111111
 40
0.991865733503894
 40
0.991865733503894
 40
0.991865733503894
 40
0.991865733503894
 10
1390.659614498857
 20
2000.000000000001
 30
0.0
 10
1390.647721923889
 20
1994.955163025617
 30
0.0
 10
1390.143245467132
 20
1985.086120084767
 30
0.0
 10
1387.938689200604
 20
1970.708694860632
 30
0.0
 10
1384.710382036844
 20
1957.464670333475
 30
0.0
 10
1380.587053156041
 20
1944.60458410594
 30
0.0
 10
1375.989410419818
 20
1932.895216499131
 30
0.0
 10
1372.394181792481
 20
1924.903736882599
 30
0.0
 10
1370.196134556628
 20
1920.280392034879
 30
0.0
 10
1368.583512292804
 20
1916.976648989208
 30
0.0
 10
1368.048767923066
 20
1915.938364213118
 30
0.0
 10
1368.010026010892
 20
1915.84970580062
 30
0.0
  0
SPLINE
  5
193
330
87
100
AcDbEntity
  8
P-SANR-FIXT
100
AcDbSpline
210
0.0
220
0.0
230
1.0
 70
     8
 71
     3
 72
    16
 73
    12
 74
     0
 42
0.000000001
 43
0.0000000001
 40
0.0081342664961026
 40
0.0081342664961026
 40
0.0081342664961026
 40
0.0081342664961026
 40
0.1111111111111111
 40
0.2222222222222222
 40
0.3333333333333333
 40
0.4444444444444445
 40
0.5833333333333333
 40
0.7222222222222223
 40
0.7916666666666668
 40
0.861111111111111
 40
1.0
 40
1.0
 40
1.0
 40
1.0
 10
1368.01001715649
 20
1524.150329027608
 30
0.0
 10
1368.040457502486
 20
1524.080789320913
 30
0.0
 10
1368.503349222457
 20
1523.179443869078
 30
0.0
 10
1370.390285444186
 20
1519.34406217135
 30
0.0
 10
1373.342052010762
 20
1513.05176721116
 30
0.0
 10
1377.279546568431
 20
1503.948713553221
 30
0.0
 10
1381.902034674294
 20
1491.738899914271
 30
0.0
 10
1385.739617508829
 20
1478.760465813394
 30
0.0
 10
1388.163452440605
 20
1467.452610407953
 30
0.0
 10
1390.051099343078
 20
1455.51951663878
 30
0.0
 10
1390.644748780145
 20
1446.306046217979
 30
0.0
 10
1390.659614498857
 20
1440.000000000001
 30
0.0
  0
SPLINE
  5
194
330
87
100
AcDbEntity
  8
P-SANR-FIXT
100
AcDbSpline
210
0.0
220
0.0
230
1.0
 70
     8
 71
     3
 72
    16
 73
    12
 74
     0
 42
0.000000001
 43
0.0000000001
 40
0.0
 40
0.0
 40
0.0
 40
0.0
 40
0.1111111111111111
 40
0.2222222222222222
 40
0.3333333333333333
 40
0.4444444444444445
 40
0.5833333333333333
 40
0.7222222222222223
 40
0.7916666666666668
 40
0.861111111111111
 40
0.9918657335039091
 40
0.9918657335039091
 40
0.9918657335039091
 40
0.9918657335039091
 10
1680.673200387516
 20
1440.000000000005
 30
0.0
 10
1680.685092962485
 20
1445.044836974388
 30
0.0
 10
1681.189569419245
 20
1454.913879915236
 30
0.0
 10
1683.394125685773
 20
1469.291305139369
 30
0.0
 10
1686.622432849534
 20
1482.535329666523
 30
0.0
 10
1690.745761730336
 20
1495.395415894055
 30
0.0
 10
1695.343404466558
 20
1507.104783500861
 30
0.0
 10
1698.938633093895
 20
1515.096263117392
 30
0.0
 10
1701.136680329747
 20
1519.71960796511
 30
0.0
 10
1702.74930259357
 20
1523.023351010782
 30
0.0
 10
1703.284046963308
 20
1524.061635786871
 30
0.0
 10
1703.322788875482
 20
1524.150294199368
 30
0.0
  0
SPLINE
  5
195
330
87
100
AcDbEntity
  8
P-SANR-FIXT
100
AcDbSpline
210
0.0
220
0.0
230
1.0
 70
     8
 71
     3
 72
    16
 73
    12
 74
     0
 42
0.000000001
 43
0.0000000001
 40
0.0081342664960947
 40
0.0081342664960947
 40
0.0081342664960947
 40
0.0081342664960947
 40
0.1111111111111111
 40
0.2222222222222222
 40
0.3333333333333333
 40
0.4444444444444445
 40
0.5833333333333333
 40
0.7222222222222223
 40
0.7916666666666668
 40
0.861111111111111
 40
1.0
 40
1.0
 40
1.0
 40
1.0
 10
1703.322797729885
 20
1915.849670972376
 30
0.0
 10
1703.292357383889
 20
1915.919210679071
 30
0.0
 10
1702.829465663916
 20
1916.820556130907
 30
0.0
 10
1700.942529442187
 20
1920.655937828636
 30
0.0
 10
1697.990762875611
 20
1926.948232788828
 30
0.0
 10
1694.053268317941
 20
1936.051286446769
 30
0.0
 10
1689.430780212077
 20
1948.261100085723
 30
0.0
 10
1685.593197377541
 20
1961.239534186603
 30
0.0
 10
1683.169362445766
 20
1972.547389592047
 30
0.0
 10
1681.281715543294
 20
1984.480483361223
 30
0.0
 10
1680.688066106226
 20
1993.693953782026
 30
0.0
 10
1680.673200387515
 20
2000.000000000005
 30
0.0
  0
SPLINE
  5
196
330
87
100
AcDbEntity
  8
P-SANR-FIXT
100
AcDbSpline
210
0.0
220
0.0
230
1.0
 70
     8
 71
     3
 72
    16
 73
    12
 74
     0
 42
0.000000001
 43
0.0000000001
 40
0.008134266496108
 40
0.008134266496108
 40
0.008134266496108
 40
0.008134266496108
 40
0.1111111111111111
 40
0.2222222222222222
 40
0.3333333333333333
 40
0.4444444444444445
 40
0.5833333333333333
 40
0.7222222222222223
 40
0.7916666666666668
 40
0.861111111111111
 40
1.0
 40
1.0
 40
1.0
 40
1.0
 10
1368.01001715649
 20
2084.150329027618
 30
0.0
 10
1368.040457502486
 20
2084.080789320923
 30
0.0
 10
1368.503349222458
 20
2083.179443869088
 30
0.0
 10
1370.390285444187
 20
2079.34406217136
 30
0.0
 10
1373.342052010762
 20
2073.051767211168
 30
0.0
 10
1377.279546568432
 20
2063.948713553228
 30
0.0
 10
1381.902034674296
 20
2051.738899914278
 30
0.0
 10
1385.739617508831
 20
2038.760465813399
 30
0.0
 10
1388.163452440607
 20
2027.452610407956
 30
0.0
 10
1390.051099343079
 20
2015.519516638781
 30
0.0
 10
1390.644748780146
 20
2006.30604621798
 30
0.0
 10
1390.659614498857
 20
2000.000000000001
 30
0.0
  0
SPLINE
  5
197
330
87
100
AcDbEntity
  8
P-SANR-FIXT
100
AcDbSpline
210
0.0
220
0.0
230
1.0
 70
     8
 71
     3
 72
    16
 73
    12
 74
     0
 42
0.000000001
 43
0.0000000001
 40
0.0
 40
0.0
 40
0.0
 40
0.0
 40
0.1111111111111111
 40
0.2222222222222222
 40
0.3333333333333333
 40
0.4444444444444445
 40
0.5833333333333333
 40
0.7222222222222223
 40
0.7916666666666668
 40
0.861111111111111
 40
0.9918657335039034
 40
0.9918657335039034
 40
0.9918657335039034
 40
0.9918657335039034
 10
1680.673200387515
 20
2000.000000000005
 30
0.0
 10
1680.685092962485
 20
2005.044836974388
 30
0.0
 10
1681.189569419243
 20
2014.913879915237
 30
0.0
 10
1683.394125685772
 20
2029.291305139372
 30
0.0
 10
1686.622432849532
 20
2042.535329666528
 30
0.0
 10
1690.745761730334
 20
2055.395415894061
 30
0.0
 10
1695.343404466557
 20
2067.104783500869
 30
0.0
 10
1698.938633093894
 20
2075.096263117401
 30
0.0
 10
1701.136680329747
 20
2079.71960796512
 30
0.0
 10
1702.74930259357
 20
2083.023351010791
 30
0.0
 10
1703.284046963308
 20
2084.061635786881
 30
0.0
 10
1703.322788875482
 20
2084.150294199378
 30
0.0
  0
LINE
  5
198
330
87
100
AcDbEntity
  8
P-SANR-FIXT
100
AcDbLine
 10
1220.666407443187
 20
2142.499999999996
 30
0.0
 11
1220.666407443192
 21
1857.499999999992
 31
0.0
  0
LINE
  5
199
330
87
100
AcDbEntity
  8
P-SANR-FIXT
100
AcDbLine
 10
1200.666407443187
 20
2142.499999999995
 30
0.0
 11
1200.666407443192
 21
1857.499999999991
 31
0.0
  0
LINE
  5
19A
330
87
100
AcDbEntity
  8
P-SANR-FIXT
100
AcDbLine
 10
1772.666407443187
 20
1554.159999999993
 30
0.0
 11
1798.666407443187
 21
1554.159999999993
 31
0.0
  0
SPLINE
  5
19B
330
87
100
AcDbEntity
  8
P-SANR-FIXT
100
AcDbSpline
210
0.0
220
0.0
230
1.0
 70
     8
 71
     3
 72
    27
 73
    23
 74
     0
 42
0.000000001
 43
0.0000000001
 40
0.0
 40
0.0
 40
0.0
 40
0.0
 40
0.1111111111111111
 40
0.1666666666666666
 40
0.1944444444444444
 40
0.2222222222222222
 40
0.25
 40
0.2777777777777778
 40
0.3333333333333333
 40
0.3888888888888888
 40
0.4444444444444445
 40
0.5555555555555556
 40
0.6111111111111112
 40
0.6666666666666666
 40
0.6944444444444445
 40
0.7222222222222223
 40
0.75
 40
0.7777777777777778
 40
0.8055555555555555
 40
0.8333333333333332
 40
0.8888888888888889
 40
1.0
 40
1.0
 40
1.0
 40
1.0
 10
1772.666407443186
 20
1524.159999999996
 30
0.0
 10
1772.666407443186
 20
1524.150810104018
 30
0.0
 10
1773.068554249893
 20
1524.097906083263
 30
0.0
 10
1774.191556984246
 20
1523.936461867366
 30
0.0
 10
1775.003728465769
 20
1523.825567208653
 30
0.0
 10
1775.694011945753
 20
1523.744803192395
 30
0.0
 10
1776.46018939284
 20
1523.66081826155
 30
0.0
 10
1777.574835389195
 20
1523.537692773843
 30
0.0
 10
1779.127732038967
 20
1523.398477090498
 30
0.0
 10
1781.192044871781
 20
1523.264413461145
 30
0.0
 10
1784.127087430462
 20
1523.138739971507
 30
0.0
 10
1787.201711529708
 20
1523.13890984014
 30
0.0
 10
1790.138989430391
 20
1523.263892078296
 30
0.0
 10
1791.860458716778
 20
1523.377432335331
 30
0.0
 10
1793.135274787583
 20
1523.479543598809
 30
0.0
 10
1794.033809275286
 20
1523.568808805683
 30
0.0
 10
1794.86887367848
 20
1523.660246933966
 30
0.0
 10
1795.634927696817
 20
1523.744387307233
 30
0.0
 10
1796.326100249434
 20
1523.825157671526
 30
0.0
 10
1797.139881866459
 20
1523.936246023101
 30
0.0
 10
1798.264722080215
 20
1524.097975113109
 30
0.0
 10
1798.666407443186
 20
1524.150855478382
 30
0.0
 10
1798.666407443187
 20
1524.159999999997
 30
0.0
  0
LINE
  5
19C
330
87
100
AcDbEntity
  8
P-SANR-FIXT
100
AcDbLine
 10
1772.666407443187
 20
2114.159999999995
 30
0.0
 11
1798.666407443187
 21
2114.159999999995
 31
0.0
  0
LINE
  5
19D
330
87
100
AcDbEntity
  8
P-SANR-FIXT
100
AcDbLine
 10
1870.666407443187
 20
2142.500000000008
 30
0.0
 11
1870.666407443192
 21
1857.499999999999
 31
0.0
  0
LINE
  5
19E
330
87
100
AcDbEntity
  8
P-SANR-FIXT
100
AcDbLine
 10
1850.666407443187
 20
2142.500000000008
 30
0.0
 11
1850.666407443191
 21
1857.499999999998
 31
0.0
  0
SPLINE
  5
19F
330
87
100
AcDbEntity
  8
P-SANR-FIXT
100
AcDbSpline
210
0.0
220
0.0
230
1.0
 70
     8
 71
     3
 72
    24
 73
    20
 74
     0
 42
0.000000001
 43
0.0000000001
 40
-1.0
 40
-1.0
 40
-1.0
 40
-1.0
 40
-0.861111111111111
 40
-0.7916666666666668
 40
-0.7222222222222223
 40
-0.6875
 40
-0.6527777777777777
 40
-0.5833333333333333
 40
-0.5486111111111111
 40
-0.5138888888888889
 40
-0.4444444444444445
 40
-0.3888888888888888
 40
-0.3333333333333333
 40
-0.2777777777777778
 40
-0.2222222222222222
 40
-0.1666666666666666
 40
-0.1111111111111111
 40
-0.0555555555555556
 40
0.0
 40
0.0
 40
0.0
 40
0.0
 10
1772.666407443187
 20
2084.160000000006
 30
0.0
 10
1772.687416626004
 20
2084.160000000006
 30
0.0
 10
1773.284361488214
 20
2084.059692632803
 30
0.0
 10
1775.282178244891
 20
2083.789782266205
 30
0.0
 10
1776.90662595639
 20
2083.605371621902
 30
0.0
 10
1778.440541067666
 20
2083.460665253767
 30
0.0
 10
1780.030139556745
 20
2083.333665307964
 30
0.0
 10
1781.851138310086
 20
2083.229335881651
 30
0.0
 10
1783.671350210331
 20
2083.169708750133
 30
0.0
 10
1785.563633417496
 20
2083.141742787594
 30
0.0
 10
1787.754567136033
 20
2083.162431956972
 30
0.0
 10
1790.135345941165
 20
2083.262222657285
 30
0.0
 10
1792.206996686223
 20
2083.398363832495
 30
0.0
 10
1794.060464041671
 20
2083.567722448924
 30
0.0
 10
1795.675757189511
 20
2083.745389654293
 30
0.0
 10
1796.971191915471
 20
2083.913672768391
 30
0.0
 10
1797.949191114089
 20
2084.05050498176
 30
0.0
 10
1798.517103005723
 20
2084.137745068685
 30
0.0
 10
1798.658216037877
 20
2084.160000000007
 30
0.0
 10
1798.666407443187
 20
2084.160000000007
 30
0.0
  0
LINE
  5
1A0
330
87
100
AcDbEntity
  8
P-SANR-FIXT
100
AcDbLine
 10
1220.666407443186
 20
1582.499999999986
 30
0.0
 11
1220.666407443191
 21
1297.499999999982
 31
0.0
  0
LINE
  5
1A1
330
87
100
AcDbEntity
  8
P-SANR-FIXT
100
AcDbLine
 10
1200.666407443186
 20
1582.499999999985
 30
0.0
 11
1200.666407443191
 21
1297.499999999982
 31
0.0
  0
LINE
  5
1A2
330
87
100
AcDbEntity
  8
P-SANR-FIXT
100
AcDbLine
 10
1870.666407443186
 20
1582.499999999998
 30
0.0
 11
1870.666407443191
 21
1297.499999999989
 31
0.0
  0
LINE
  5
1A3
330
87
100
AcDbEntity
  8
P-SANR-FIXT
100
AcDbLine
 10
1850.666407443186
 20
1582.499999999998
 30
0.0
 11
1850.66640744319
 21
1297.499999999989
 31
0.0
  0
ENDBLK
  5
1A5
330
87
100
AcDbEntity
  8
0
100
AcDbBlockEnd
  0
BLOCK
  5
257
330
1A7
100
AcDbEntity
  8
0
100
AcDbBlockBegin
  2
Automatic flow rate regulator valve_Caleffi_121 DN15 - 1_2__-V1-Est - Idraulica
 70
     0
 10
0.0
 20
0.0
 30
0.0
  3
Automatic flow rate regulator valve_Caleffi_121 DN15 - 1_2__-V1-Est - Idraulica
  1

  0
LINE
  5
1A8
330
1A7
100
AcDbEntity
  8
M-PIPE
100
AcDbLine
 10
1535.666407443206
 20
341.3480203851858
 30
0.0
 11
1551.166407443206
 21
350.2969495576254
 31
0.0
1001
REVIT
1002
{
1070
     3
1000
790271
1002
}
  0
LINE
  5
1A9
330
1A7
100
AcDbEntity
  8
M-PIPE
100
AcDbLine
 10
1551.166407443206
 20
350.2969495576254
 30
0.0
 11
1551.166407443206
 21
368.1948079025038
 31
0.0
1001
REVIT
1002
{
1070
     3
1000
790271
1002
}
  0
LINE
  5
1AA
330
1A7
100
AcDbEntity
  8
M-PIPE
100
AcDbLine
 10
1551.166407443206
 20
368.1948079025038
 30
0.0
 11
1535.666407443206
 21
377.1437370749426
 31
0.0
1001
REVIT
1002
{
1070
     3
1000
790271
1002
}
  0
LINE
  5
1AB
330
1A7
100
AcDbEntity
  8
M-PIPE
100
AcDbLine
 10
1535.666407443206
 20
377.1437370749426
 30
0.0
 11
1520.166407443206
 21
368.1948079025031
 31
0.0
1001
REVIT
1002
{
1070
     3
1000
790271
1002
}
  0
LINE
  5
1AC
330
1A7
100
AcDbEntity
  8
M-PIPE
100
AcDbLine
 10
1520.166407443206
 20
368.1948079025031
 30
0.0
 11
1520.166407443206
 21
350.2969495576246
 31
0.0
1001
REVIT
1002
{
1070
     3
1000
790271
1002
}
  0
LINE
  5
1AD
330
1A7
100
AcDbEntity
  8
M-PIPE
100
AcDbLine
 10
1520.166407443206
 20
350.2969495576246
 30
0.0
 11
1535.666407443206
 21
341.3480203851858
 31
0.0
1001
REVIT
1002
{
1070
     3
1000
790271
1002
}
  0
ARC
  5
1AE
330
1A7
100
AcDbEntity
  8
M-PIPE
100
AcDbCircle
 10
1535.666407443205
 20
376.2458787300734
 30
0.0
 40
57.49999999999988
100
AcDbArc
 50
189.9770839511122
 51
230.0229160488877
1001
REVIT
1002
{
1070
     3
1000
790271
1002
}
  0
ARC
  5
1AF
330
1A7
100
AcDbEntity
  8
M-PIPE
100
AcDbCircle
 10
1506.916407443206
 20
326.449418012468
 30
0.0
 40
9.999999999999939
100
AcDbArc
 50
145.0114580244434
 51
334.9885419755549
1001
REVIT
1002
{
1070
     3
1000
790271
1002
}
  0
ARC
  5
1B0
330
1A7
100
AcDbEntity
  8
M-PIPE
100
AcDbCircle
 10
1535.666407443205
 20
376.2458787300734
 30
0.0
 40
57.4999999999998
100
AcDbArc
 50
249.9770839511118
 51
290.022916048887
1001
REVIT
1002
{
1070
     3
1000
790271
1002
}
  0
ARC
  5
1B1
330
1A7
100
AcDbEntity
  8
M-PIPE
100
AcDbCircle
 10
1564.416407443206
 20
326.4494180124685
 30
0.0
 40
10.0
100
AcDbArc
 50
205.0114580244433
 51
34.98854197555561
1001
REVIT
1002
{
1070
     3
1000
790271
1002
}
  0
ARC
  5
1B2
330
1A7
100
AcDbEntity
  8
M-PIPE
100
AcDbCircle
 10
1535.666407443205
 20
376.2458787300734
 30
0.0
 40
57.50000000000027
100
AcDbArc
 50
309.9770839511113
 51
350.0229160488872
1001
REVIT
1002
{
1070
     3
1000
790271
1002
}
  0
ARC
  5
1B3
330
1A7
100
AcDbEntity
  8
M-PIPE
100
AcDbCircle
 10
1593.166407443206
 20
376.2458787300741
 30
0.0
 40
9.999999999999868
100
AcDbArc
 50
265.0114580244425
 51
94.98854197555713
1001
REVIT
1002
{
1070
     3
1000
790271
1002
}
  0
ARC
  5
1B4
330
1A7
100
AcDbEntity
  8
M-PIPE
100
AcDbCircle
 10
1535.666407443205
 20
376.2458787300734
 30
0.0
 40
57.50000000000006
100
AcDbArc
 50
9.977083951112208
 51
50.02291604890309
1001
REVIT
1002
{
1070
     3
1000
790271
1002
}
  0
ARC
  5
1B5
330
1A7
100
AcDbEntity
  8
M-PIPE
100
AcDbCircle
 10
1564.416407443205
 20
426.0423394476788
 30
0.0
 40
9.999999999984515
100
AcDbArc
 50
325.0114580244507
 51
154.9885419755151
1001
REVIT
1002
{
1070
     3
1000
790271
1002
}
  0
ARC
  5
1B6
330
1A7
100
AcDbEntity
  8
M-PIPE
100
AcDbCircle
 10
1535.666407443214
 20
376.2458787300122
 30
0.0
 40
57.50000000006007
100
AcDbArc
 50
69.97708395112532
 51
110.022916048876
1001
REVIT
1002
{
1070
     3
1000
790271
1002
}
  0
ARC
  5
1B7
330
1A7
100
AcDbEntity
  8
M-PIPE
100
AcDbCircle
 10
1506.916407443205
 20
426.0423394476782
 30
0.0
 40
9.999999999999291
100
AcDbArc
 50
25.01145802444395
 51
214.988541975554
1001
REVIT
1002
{
1070
     3
1000
790271
1002
}
  0
ARC
  5
1B8
330
1A7
100
AcDbEntity
  8
M-PIPE
100
AcDbCircle
 10
1535.666407443205
 20
376.2458787300734
 30
0.0
 40
57.49999999999977
100
AcDbArc
 50
129.9770839511118
 51
170.0229160488883
1001
REVIT
1002
{
1070
     3
1000
790271
1002
}
  0
ARC
  5
1B9
330
1A7
100
AcDbEntity
  8
M-PIPE
100
AcDbCircle
 10
1478.166407443205
 20
376.2458787300724
 30
0.0
 40
9.999999999999868
100
AcDbArc
 50
85.01145802444286
 51
274.9885419755555
1001
REVIT
1002
{
1070
     3
1000
790271
1002
}
  0
ARC
  5
1BA
330
1A7
100
AcDbEntity
  8
M-PIPE
100
AcDbCircle
 10
1535.666407443191
 20
359.2458787300623
 30
0.0
 40
26.49999999999991
100
AcDbArc
 50
265.0000000000013
 51
265.4989141705231
1001
REVIT
1002
{
1070
     3
1000
790271
1002
}
  0
ARC
  5
1BB
330
1A7
100
AcDbEntity
  8
M-PIPE
100
AcDbCircle
 10
1535.666407443191
 20
359.2458787300623
 30
0.0
 40
26.50000000000002
100
AcDbArc
 50
260.0000000000015
 51
260.995099319542
1001
REVIT
1002
{
1070
     3
1000
790271
1002
}
  0
ARC
  5
1BC
330
1A7
100
AcDbEntity
  8
M-PIPE
100
AcDbCircle
 10
1535.666407443191
 20
359.2458787300623
 30
0.0
 40
26.49999999999975
100
AcDbArc
 50
255.000000000001
 51
256.4895751335293
1001
REVIT
1002
{
1070
     3
1000
790271
1002
}
  0
ARC
  5
1BD
330
1A7
100
AcDbEntity
  8
M-PIPE
100
AcDbCircle
 10
1535.666407443191
 20
359.2458787300623
 30
0.0
 40
26.4999999999998
100
AcDbArc
 50
242.9728913627074
 51
251.9833361371161
1001
REVIT
1002
{
1070
     3
1000
790271
1002
}
  0
ARC
  5
1BE
330
1A7
100
AcDbEntity
  8
M-PIPE
100
AcDbCircle
 10
1535.666407443191
 20
359.2458787300623
 30
0.0
 40
26.49999999999987
100
AcDbArc
 50
238.4710753991547
 51
240.0000000000012
1001
REVIT
1002
{
1070
     3
1000
790271
1002
}
  0
ARC
  5
1BF
330
1A7
100
AcDbEntity
  8
M-PIPE
100
AcDbCircle
 10
1535.666407443191
 20
359.2458787300623
 30
0.0
 40
26.49999999999973
100
AcDbArc
 50
233.9735171897369
 51
235.0000000000012
1001
REVIT
1002
{
1070
     3
1000
790271
1002
}
  0
ARC
  5
1C0
330
1A7
100
AcDbEntity
  8
M-PIPE
100
AcDbCircle
 10
1535.666407443191
 20
359.2458787300623
 30
0.0
 40
26.49999999999975
100
AcDbArc
 50
229.4822353515839
 51
230.0000000000012
1001
REVIT
1002
{
1070
     3
1000
790271
1002
}
  0
ARC
  5
1C1
330
1A7
100
AcDbEntity
  8
M-PIPE
100
AcDbCircle
 10
1535.666407443191
 20
359.2458787300623
 30
0.0
 40
26.49999999999977
100
AcDbArc
 50
220.0000000000006
 51
220.5177646484177
1001
REVIT
1002
{
1070
     3
1000
790271
1002
}
  0
ARC
  5
1C2
330
1A7
100
AcDbEntity
  8
M-PIPE
100
AcDbCircle
 10
1535.666407443191
 20
359.2458787300623
 30
0.0
 40
26.49999999999983
100
AcDbArc
 50
215.0000000000007
 51
216.0264828102653
1001
REVIT
1002
{
1070
     3
1000
790271
1002
}
  0
ARC
  5
1C3
330
1A7
100
AcDbEntity
  8
M-PIPE
100
AcDbCircle
 10
1535.666407443191
 20
359.2458787300623
 30
0.0
 40
26.49999999999986
100
AcDbArc
 50
210.0000000000008
 51
211.5289246008476
1001
REVIT
1002
{
1070
     3
1000
790271
1002
}
  0
ARC
  5
1C4
330
1A7
100
AcDbEntity
  8
M-PIPE
100
AcDbCircle
 10
1535.666407443191
 20
359.2458787300623
 30
0.0
 40
26.49999999999998
100
AcDbArc
 50
198.0166638628857
 51
207.0271086372941
1001
REVIT
1002
{
1070
     3
1000
790271
1002
}
  0
ARC
  5
1C5
330
1A7
100
AcDbEntity
  8
M-PIPE
100
AcDbCircle
 10
1535.666407443191
 20
359.2458787300623
 30
0.0
 40
26.49999999999986
100
AcDbArc
 50
193.5104248664723
 51
195.0000000000008
1001
REVIT
1002
{
1070
     3
1000
790271
1002
}
  0
ARC
  5
1C6
330
1A7
100
AcDbEntity
  8
M-PIPE
100
AcDbCircle
 10
1535.666407443191
 20
359.2458787300623
 30
0.0
 40
26.49999999999982
100
AcDbArc
 50
189.0049006804613
 51
190.0000000000008
1001
REVIT
1002
{
1070
     3
1000
790271
1002
}
  0
ARC
  5
1C7
330
1A7
100
AcDbEntity
  8
M-PIPE
100
AcDbCircle
 10
1535.666407443191
 20
359.2458787300623
 30
0.0
 40
26.49999999999966
100
AcDbArc
 50
184.5010858294801
 51
185.0000000000009
1001
REVIT
1002
{
1070
     3
1000
790271
1002
}
  0
ARC
  5
1C8
330
1A7
100
AcDbEntity
  8
M-PIPE
100
AcDbCircle
 10
1535.666407443191
 20
359.2458787300623
 30
0.0
 40
26.49999999999998
100
AcDbArc
 50
175.0000000000013
 51
175.4989141705218
1001
REVIT
1002
{
1070
     3
1000
790271
1002
}
  0
ARC
  5
1C9
330
1A7
100
AcDbEntity
  8
M-PIPE
100
AcDbCircle
 10
1535.666407443191
 20
359.2458787300623
 30
0.0
 40
26.49999999999971
100
AcDbArc
 50
170.0000000000013
 51
170.9950993195405
1001
REVIT
1002
{
1070
     3
1000
790271
1002
}
  0
ARC
  5
1CA
330
1A7
100
AcDbEntity
  8
M-PIPE
100
AcDbCircle
 10
1535.666407443191
 20
359.2458787300623
 30
0.0
 40
26.49999999999981
100
AcDbArc
 50
165.0000000000013
 51
166.4895751335295
1001
REVIT
1002
{
1070
     3
1000
790271
1002
}
  0
ARC
  5
1CB
330
1A7
100
AcDbEntity
  8
M-PIPE
100
AcDbCircle
 10
1535.666407443191
 20
359.2458787300623
 30
0.0
 40
26.49999999999987
100
AcDbArc
 50
152.9728913627073
 51
161.9833361371164
1001
REVIT
1002
{
1070
     3
1000
790271
1002
}
  0
ARC
  5
1CC
330
1A7
100
AcDbEntity
  8
M-PIPE
100
AcDbCircle
 10
1535.666407443191
 20
359.2458787300623
 30
0.0
 40
26.49999999999978
100
AcDbArc
 50
148.4710753991544
 51
150.0000000000011
1001
REVIT
1002
{
1070
     3
1000
790271
1002
}
  0
ARC
  5
1CD
330
1A7
100
AcDbEntity
  8
M-PIPE
100
AcDbCircle
 10
1535.666407443191
 20
359.2458787300623
 30
0.0
 40
26.49999999999999
100
AcDbArc
 50
143.9735171897362
 51
145.0000000000011
1001
REVIT
1002
{
1070
     3
1000
790271
1002
}
  0
ARC
  5
1CE
330
1A7
100
AcDbEntity
  8
M-PIPE
100
AcDbCircle
 10
1535.666407443191
 20
359.2458787300623
 30
0.0
 40
26.50000000000004
100
AcDbArc
 50
139.4822353515833
 51
140.000000000001
1001
REVIT
1002
{
1070
     3
1000
790271
1002
}
  0
ARC
  5
1CF
330
1A7
100
AcDbEntity
  8
M-PIPE
100
AcDbCircle
 10
1535.666407443191
 20
359.2458787300623
 30
0.0
 40
26.49999999999977
100
AcDbArc
 50
130.0000000000014
 51
130.517764648418
1001
REVIT
1002
{
1070
     3
1000
790271
1002
}
  0
ARC
  5
1D0
330
1A7
100
AcDbEntity
  8
M-PIPE
100
AcDbCircle
 10
1535.666407443191
 20
359.2458787300623
 30
0.0
 40
26.49999999999983
100
AcDbArc
 50
125.0000000000012
 51
126.0264828102655
1001
REVIT
1002
{
1070
     3
1000
790271
1002
}
  0
ARC
  5
1D1
330
1A7
100
AcDbEntity
  8
M-PIPE
100
AcDbCircle
 10
1535.666407443191
 20
359.2458787300623
 30
0.0
 40
26.50000000000006
100
AcDbArc
 50
120.0000000000011
 51
121.5289246008475
1001
REVIT
1002
{
1070
     3
1000
790271
1002
}
  0
ARC
  5
1D2
330
1A7
100
AcDbEntity
  8
M-PIPE
100
AcDbCircle
 10
1535.666407443191
 20
359.2458787300623
 30
0.0
 40
26.50000000000008
100
AcDbArc
 50
108.0166638628853
 51
117.0271086372947
1001
REVIT
1002
{
1070
     3
1000
790271
1002
}
  0
ARC
  5
1D3
330
1A7
100
AcDbEntity
  8
M-PIPE
100
AcDbCircle
 10
1535.666407443191
 20
359.2458787300623
 30
0.0
 40
26.49999999999986
100
AcDbArc
 50
103.5104248664727
 51
105.0000000000007
1001
REVIT
1002
{
1070
     3
1000
790271
1002
}
  0
ARC
  5
1D4
330
1A7
100
AcDbEntity
  8
M-PIPE
100
AcDbCircle
 10
1535.666407443191
 20
359.2458787300623
 30
0.0
 40
26.50000000000004
100
AcDbArc
 50
99.00490068046057
 51
100.0000000000007
1001
REVIT
1002
{
1070
     3
1000
790271
1002
}
  0
ARC
  5
1D5
330
1A7
100
AcDbEntity
  8
M-PIPE
100
AcDbCircle
 10
1535.666407443191
 20
359.2458787300623
 30
0.0
 40
26.49999999999988
100
AcDbArc
 50
94.50108582948008
 51
95.00000000000079
1001
REVIT
1002
{
1070
     3
1000
790271
1002
}
  0
ARC
  5
1D6
330
1A7
100
AcDbEntity
  8
M-PIPE
100
AcDbCircle
 10
1535.666407443191
 20
359.2458787300623
 30
0.0
 40
26.50000000000022
100
AcDbArc
 50
85.00000000000072
 51
85.49891417052098
1001
REVIT
1002
{
1070
     3
1000
790271
1002
}
  0
ARC
  5
1D7
330
1A7
100
AcDbEntity
  8
M-PIPE
100
AcDbCircle
 10
1535.666407443191
 20
359.2458787300623
 30
0.0
 40
26.5
100
AcDbArc
 50
80.00000000000133
 51
80.99509931953944
1001
REVIT
1002
{
1070
     3
1000
790271
1002
}
  0
ARC
  5
1D8
330
1A7
100
AcDbEntity
  8
M-PIPE
100
AcDbCircle
 10
1535.666407443191
 20
359.2458787300623
 30
0.0
 40
26.50000000000008
100
AcDbArc
 50
75.00000000000103
 51
76.4895751335289
1001
REVIT
1002
{
1070
     3
1000
790271
1002
}
  0
ARC
  5
1D9
330
1A7
100
AcDbEntity
  8
M-PIPE
100
AcDbCircle
 10
1535.666407443191
 20
359.2458787300623
 30
0.0
 40
26.50000000000023
100
AcDbArc
 50
62.97289136270769
 51
71.98333613711536
1001
REVIT
1002
{
1070
     3
1000
790271
1002
}
  0
ARC
  5
1DA
330
1A7
100
AcDbEntity
  8
M-PIPE
100
AcDbCircle
 10
1535.666407443191
 20
359.2458787300623
 30
0.0
 40
26.50000000000018
100
AcDbArc
 50
58.47107539915464
 51
60.00000000000137
1001
REVIT
1002
{
1070
     3
1000
790271
1002
}
  0
ARC
  5
1DB
330
1A7
100
AcDbEntity
  8
M-PIPE
100
AcDbCircle
 10
1535.666407443191
 20
359.2458787300623
 30
0.0
 40
26.50000000000018
100
AcDbArc
 50
53.97351718973535
 51
55.00000000000122
1001
REVIT
1002
{
1070
     3
1000
790271
1002
}
  0
ARC
  5
1DC
330
1A7
100
AcDbEntity
  8
M-PIPE
100
AcDbCircle
 10
1535.666407443191
 20
359.2458787300623
 30
0.0
 40
26.50000000000021
100
AcDbArc
 50
49.4822353515825
 51
50.00000000000127
1001
REVIT
1002
{
1070
     3
1000
790271
1002
}
  0
ARC
  5
1DD
330
1A7
100
AcDbEntity
  8
M-PIPE
100
AcDbCircle
 10
1535.666407443191
 20
359.2458787300623
 30
0.0
 40
26.50000000000034
100
AcDbArc
 50
40.00000000000172
 51
40.5177646484196
1001
REVIT
1002
{
1070
     3
1000
790271
1002
}
  0
ARC
  5
1DE
330
1A7
100
AcDbEntity
  8
M-PIPE
100
AcDbCircle
 10
1535.666407443191
 20
359.2458787300623
 30
0.0
 40
26.50000000000023
100
AcDbArc
 50
35.00000000000138
 51
36.02648281026629
1001
REVIT
1002
{
1070
     3
1000
790271
1002
}
  0
ARC
  5
1DF
330
1A7
100
AcDbEntity
  8
M-PIPE
100
AcDbCircle
 10
1535.666407443191
 20
359.2458787300623
 30
0.0
 40
26.50000000000037
100
AcDbArc
 50
30.00000000000142
 51
31.52892460084729
1001
REVIT
1002
{
1070
     3
1000
790271
1002
}
  0
ARC
  5
1E0
330
1A7
100
AcDbEntity
  8
M-PIPE
100
AcDbCircle
 10
1535.666407443191
 20
359.2458787300623
 30
0.0
 40
26.50000000000029
100
AcDbArc
 50
18.01666386288623
 51
27.02710863729531
1001
REVIT
1002
{
1070
     3
1000
790271
1002
}
  0
ARC
  5
1E1
330
1A7
100
AcDbEntity
  8
M-PIPE
100
AcDbCircle
 10
1535.666407443191
 20
359.2458787300623
 30
0.0
 40
26.50000000000009
100
AcDbArc
 50
13.51042486647269
 51
15.00000000000128
1001
REVIT
1002
{
1070
     3
1000
790271
1002
}
  0
ARC
  5
1E2
330
1A7
100
AcDbEntity
  8
M-PIPE
100
AcDbCircle
 10
1535.666407443191
 20
359.2458787300623
 30
0.0
 40
26.50000000000016
100
AcDbArc
 50
9.00490068046135
 51
10.00000000000129
1001
REVIT
1002
{
1070
     3
1000
790271
1002
}
  0
ARC
  5
1E3
330
1A7
100
AcDbEntity
  8
M-PIPE
100
AcDbCircle
 10
1535.666407443191
 20
359.2458787300623
 30
0.0
 40
26.49999999999994
100
AcDbArc
 50
4.501085829480476
 51
5.000000000001399
1001
REVIT
1002
{
1070
     3
1000
790271
1002
}
  0
ARC
  5
1E4
330
1A7
100
AcDbEntity
  8
M-PIPE
100
AcDbCircle
 10
1535.666407443191
 20
359.2458787300623
 30
0.0
 40
26.50000000000018
100
AcDbArc
 50
355.000000000001
 51
355.498914170521
1001
REVIT
1002
{
1070
     3
1000
790271
1002
}
  0
ARC
  5
1E5
330
1A7
100
AcDbEntity
  8
M-PIPE
100
AcDbCircle
 10
1535.666407443191
 20
359.2458787300623
 30
0.0
 40
26.49999999999983
100
AcDbArc
 50
350.0000000000011
 51
350.9950993195404
1001
REVIT
1002
{
1070
     3
1000
790271
1002
}
  0
ARC
  5
1E6
330
1A7
100
AcDbEntity
  8
M-PIPE
100
AcDbCircle
 10
1535.666407443191
 20
359.2458787300623
 30
0.0
 40
26.49999999999997
100
AcDbArc
 50
345.0000000000011
 51
346.4895751335288
1001
REVIT
1002
{
1070
     3
1000
790271
1002
}
  0
ARC
  5
1E7
330
1A7
100
AcDbEntity
  8
M-PIPE
100
AcDbCircle
 10
1535.666407443191
 20
359.2458787300623
 30
0.0
 40
26.50000000000002
100
AcDbArc
 50
332.9728913627072
 51
341.9833361371154
1001
REVIT
1002
{
1070
     3
1000
790271
1002
}
  0
ARC
  5
1E8
330
1A7
100
AcDbEntity
  8
M-PIPE
100
AcDbCircle
 10
1535.666407443191
 20
359.2458787300623
 30
0.0
 40
26.49999999999995
100
AcDbArc
 50
328.4710753991543
 51
330.0000000000013
1001
REVIT
1002
{
1070
     3
1000
790271
1002
}
  0
ARC
  5
1E9
330
1A7
100
AcDbEntity
  8
M-PIPE
100
AcDbCircle
 10
1535.666407443191
 20
359.2458787300623
 30
0.0
 40
26.49999999999991
100
AcDbArc
 50
323.9735171897356
 51
325.0000000000012
1001
REVIT
1002
{
1070
     3
1000
790271
1002
}
  0
ARC
  5
1EA
330
1A7
100
AcDbEntity
  8
M-PIPE
100
AcDbCircle
 10
1535.666407443191
 20
359.2458787300623
 30
0.0
 40
26.49999999999992
100
AcDbArc
 50
319.4822353515834
 51
320.0000000000013
1001
REVIT
1002
{
1070
     3
1000
790271
1002
}
  0
ARC
  5
1EB
330
1A7
100
AcDbEntity
  8
M-PIPE
100
AcDbCircle
 10
1535.666407443191
 20
359.2458787300623
 30
0.0
 40
26.50000000000017
100
AcDbArc
 50
310.0000000000015
 51
310.5177646484196
1001
REVIT
1002
{
1070
     3
1000
790271
1002
}
  0
ARC
  5
1EC
330
1A7
100
AcDbEntity
  8
M-PIPE
100
AcDbCircle
 10
1535.666407443191
 20
359.2458787300623
 30
0.0
 40
26.50000000000004
100
AcDbArc
 50
305.0000000000016
 51
306.0264828102662
1001
REVIT
1002
{
1070
     3
1000
790271
1002
}
  0
ARC
  5
1ED
330
1A7
100
AcDbEntity
  8
M-PIPE
100
AcDbCircle
 10
1535.666407443191
 20
359.2458787300623
 30
0.0
 40
26.50000000000022
100
AcDbArc
 50
300.0000000000015
 51
301.5289246008483
1001
REVIT
1002
{
1070
     3
1000
790271
1002
}
  0
ARC
  5
1EE
330
1A7
100
AcDbEntity
  8
M-PIPE
100
AcDbCircle
 10
1535.666407443191
 20
359.2458787300623
 30
0.0
 40
26.50000000000009
100
AcDbArc
 50
288.0166638628865
 51
297.0271086372953
1001
REVIT
1002
{
1070
     3
1000
790271
1002
}
  0
ARC
  5
1EF
330
1A7
100
AcDbEntity
  8
M-PIPE
100
AcDbCircle
 10
1535.666407443191
 20
359.2458787300623
 30
0.0
 40
26.49999999999998
100
AcDbArc
 50
283.5104248664738
 51
285.0000000000012
1001
REVIT
1002
{
1070
     3
1000
790271
1002
}
  0
ARC
  5
1F0
330
1A7
100
AcDbEntity
  8
M-PIPE
100
AcDbCircle
 10
1535.666407443191
 20
359.2458787300623
 30
0.0
 40
26.4999999999999
100
AcDbArc
 50
279.0049006804612
 51
280.0000000000013
1001
REVIT
1002
{
1070
     3
1000
790271
1002
}
  0
ARC
  5
1F1
330
1A7
100
AcDbEntity
  8
M-PIPE
100
AcDbCircle
 10
1535.666407443191
 20
359.2458787300623
 30
0.0
 40
26.49999999999972
100
AcDbArc
 50
274.5010858294808
 51
275.0000000000019
1001
REVIT
1002
{
1070
     3
1000
790271
1002
}
  0
ARC
  5
1F2
330
1A7
100
AcDbEntity
  8
M-PIPE
100
AcDbCircle
 10
1535.666407443191
 20
359.2458787300623
 30
0.0
 40
26.49999999999968
100
AcDbArc
 50
90.00000000000062
 51
270.0000000000012
1001
REVIT
1002
{
1070
     3
1000
790271
1002
}
  0
ARC
  5
1F3
330
1A7
100
AcDbEntity
  8
M-PIPE
100
AcDbCircle
 10
1535.666407443191
 20
359.2458787300623
 30
0.0
 40
26.50000000000028
100
AcDbArc
 50
270.0000000000018
 51
90.00000000000072
1001
REVIT
1002
{
1070
     3
1000
790271
1002
}
  0
ARC
  5
1F4
330
1A7
100
AcDbEntity
  8
M-PIPE
100
AcDbCircle
 10
1535.666407443191
 20
359.2458787300624
 30
0.0
 40
10.84999999999975
100
AcDbArc
 50
90.00000000000017
 51
270.0000000000009
1001
REVIT
1002
{
1070
     3
1000
790271
1002
}
  0
ARC
  5
1F5
330
1A7
100
AcDbEntity
  8
M-PIPE
100
AcDbCircle
 10
1535.666407443191
 20
359.2458787300624
 30
0.0
 40
10.84999999999998
100
AcDbArc
 50
270.0000000000014
 51
90.00000000000058
1001
REVIT
1002
{
1070
     3
1000
790271
1002
}
  0
LWPOLYLINE
  5
1F6
330
1A7
100
AcDbEntity
  8
P-SANR-FIXT
100
AcDbPolyline
 90
       62
 70
   128
 43
0.0
 10
1750.778296141132
 20
460.4058787300483
 10
1748.45882938299
 20
466.2130717250614
 10
1744.690889995575
 20
474.6505348399883
 10
1740.588556025587
 20
482.9305714970125
 10
1736.158390332261
 20
491.0399354037969
 10
1731.407480235654
 20
498.9656533079958
 10
1726.343426178448
 20
506.6950457516927
 10
1720.974329566861
 20
514.2157473558267
 10
1715.308779810124
 20
521.5157266021615
 10
1709.355840579261
 20
528.5833050811486
 10
1703.125035307152
 20
535.4071761748919
 10
1696.626331953061
 20
541.9764231453227
 10
1689.870127056041
 20
548.280536598653
 10
1682.867229102679
 20
554.3094312981634
 10
1675.628841235829
 20
560.0534622984299
 10
1668.16654333197
 20
565.5034403751804
 10
1660.492273475879
 20
570.650646726092
 10
1652.618308862233
 20
575.4868469190146
 10
1644.557246154724
 20
580.0043040653078
 10
1636.321981334084
 20
584.1957911972116
 10
1627.925689067262
 20
588.0546028294487
 10
1619.381801630773
 20
591.5745656865782
 10
1610.703987421914
 20
594.7500485789147
 10
1601.906129092254
 20
597.5759714112294
 10
1593.002301338341
 20
600.0478133098223
 10
1584.006748385202
 20
602.1616198549545
 10
1574.933861198611
 20
603.9140094070738
 10
1565.798154462621
 20
605.3021785167217
 10
1556.614243359164
 20
606.3239064094479
 10
1547.396820186875
 20
606.9775585385825
 10
1538.160630856549
 20
607.2620892001565
 10
1528.920451300836
 20
607.1770432058087
 10
1519.691063835889
 20
606.7225566109872
 10
1510.487233512823
 20
605.8993564972912
 10
1501.323684496775
 20
604.7087598092968
 10
1492.215076511384
 20
603.1526712477244
 10
1483.175981386361
 20
601.2335802223251
 10
1474.220859745669
 20
598.9545568693535
 10
1465.364037873609
 20
596.3192471400109
 10
1456.619684795821
 20
593.3318669676928
 10
1448.001789611866
 20
589.9971955234026
 10
1439.524139115655
 20
586.320567570092
 10
1431.20029573951
 20
582.307864928181
 10
1423.043575857177
 20
577.9655070658982
 10
1415.067028480458
 20
573.3004408295039
 10
1407.283414383584
 20
568.3201293298152
 10
1399.705185688695
 20
563.0325400028221
 10
1392.344465945099
 20
557.4461318634885
 10
1385.213030734183
 20
551.5698419731335
 10
1378.322288830993
 20
545.4130711420403
 10
1371.683263952627
 20
538.9856688901642
 10
1365.306577122641
 20
532.2979176900022
 10
1359.202429679676
 20
525.3605165168306
 10
1353.380586957491
 20
518.1845637326258
 10
1347.850362662516
 20
510.7815393310556
 10
1342.620603973905
 20
503.1632865719335
 10
1337.699677389935
 20
495.3419930345341
 10
1333.095455343401
 20
487.3301711200632
 10
1328.815303607395
 20
479.1406380344877
 10
1324.866069511643
 20
470.7864952837357
 10
1321.254070988242
 20
462.2811077140872
 10
1320.544817675392
 20
460.4058787300445
  0
LWPOLYLINE
  5
1F7
330
1A7
100
AcDbEntity
  8
P-SANR-FIXT
100
AcDbPolyline
 90
       80
 70
   128
 43
0.0
 10
1766.696082269626
 20
376.2458787300464
 10
1766.511283171616
 20
385.4846016037102
 10
1765.957181516721
 20
394.7085444915984
 10
1765.034663749386
 20
403.9029510527602
 10
1763.745205701247
 20
413.0531121980663
 10
1762.09087023011
 20
422.1443896216149
 10
1760.074303919823
 20
431.1622392188963
 10
1757.698732846305
 20
440.0922343542619
 10
1754.967957416512
 20
448.9200889404581
 10
1751.886346288596
 20
457.6316802933217
 10
1748.45882938299
 20
466.2130717250626
 10
1744.690889995575
 20
474.6505348399889
 10
1740.588556025587
 20
482.9305714970138
 10
1736.158390332261
 20
491.0399354037982
 10
1731.407480235654
 20
498.9656533079976
 10
1726.343426178448
 20
506.6950457516945
 10
1720.974329566861
 20
514.2157473558278
 10
1715.308779810124
 20
521.5157266021627
 10
1709.355840579261
 20
528.5833050811497
 10
1703.125035307152
 20
535.4071761748937
 10
1696.626331953061
 20
541.9764231453244
 10
1689.870127056041
 20
548.2805365986542
 10
1682.867229102679
 20
554.3094312981645
 10
1675.628841235829
 20
560.0534622984318
 10
1668.16654333197
 20
565.5034403751821
 10
1660.492273475879
 20
570.6506467260927
 10
1652.618308862233
 20
575.4868469190157
 10
1644.557246154724
 20
580.0043040653097
 10
1636.321981334084
 20
584.1957911972123
 10
1627.925689067262
 20
588.0546028294499
 10
1619.381801630773
 20
591.5745656865801
 10
1610.703987421914
 20
594.7500485789159
 10
1601.906129092254
 20
597.5759714112307
 10
1593.002301338341
 20
600.0478133098241
 10
1584.006748385202
 20
602.1616198549557
 10
1574.933861198611
 20
603.9140094070757
 10
1565.798154462621
 20
605.3021785167228
 10
1556.614243359164
 20
606.3239064094497
 10
1547.396820186875
 20
606.9775585385843
 10
1538.160630856549
 20
607.2620892001577
 10
1528.920451300836
 20
607.17704320581
 10
1519.691063835889
 20
606.7225566109884
 10
1510.487233512823
 20
605.8993564972925
 10
1501.323684496775
 20
604.7087598092986
 10
1492.215076511384
 20
603.1526712477263
 10
1483.175981386361
 20
601.2335802223258
 10
1474.220859745669
 20
598.9545568693553
 10
1465.364037873609
 20
596.3192471400116
 10
1456.619684795821
 20
593.3318669676946
 10
1448.001789611866
 20
589.9971955234039
 10
1439.524139115655
 20
586.3205675700933
 10
1431.20029573951
 20
582.3078649281821
 10
1423.043575857177
 20
577.9655070659
 10
1415.067028480458
 20
573.3004408295057
 10
1407.283414383584
 20
568.3201293298171
 10
1399.705185688695
 20
563.0325400028233
 10
1392.344465945099
 20
557.4461318634892
 10
1385.213030734183
 20
551.5698419731353
 10
1378.322288830993
 20
545.4130711420416
 10
1371.683263952627
 20
538.9856688901654
 10
1365.306577122641
 20
532.2979176900035
 10
1359.202429679676
 20
525.3605165168318
 10
1353.380586957491
 20
518.1845637326277
 10
1347.850362662516
 20
510.7815393310568
 10
1342.620603973905
 20
503.1632865719347
 10
1337.699677389935
 20
495.3419930345353
 10
1333.095455343401
 20
487.330171120065
 10
1328.815303607395
 20
479.140638034489
 10
1324.866069511643
 20
470.7864952837375
 10
1321.254070988242
 20
462.2811077140885
 10
1317.98508646431
 20
453.6380821312691
 10
1315.064345617739
 20
444.8712455324636
 10
1312.496521010826
 20
435.9946229860717
 10
1310.285720615167
 20
427.0224151945891
 10
1308.435481239784
 20
417.9689757765139
 10
1306.948762872982
 20
408.848788303616
 10
1305.827943946997
 20
399.676443130318
 10
1305.074817533014
 20
390.4666140522323
 10
1304.690588472639
 20
381.2340348312267
 10
1304.636732616758
 20
376.2458787300425
  0
LINE
  5
1F8
330
1A7
100
AcDbEntity
  8
P-SANR-FIXT
100
AcDbLine
 10
1304.636732616758
 20
376.2458787300425
 30
0.0
 11
1304.639352323727
 21
375.1456727333034
 31
0.0
  0
LINE
  5
1F9
330
1A7
100
AcDbEntity
  8
P-SANR-FIXT
100
AcDbLine
 10
1766.693462562658
 20
375.1456727333052
 30
0.0
 11
1766.696082269626
 21
376.2458787300454
 31
0.0
  0
SPLINE
  5
1FA
330
1A7
100
AcDbEntity
  8
P-SANR-FIXT
100
AcDbSpline
210
0.0
220
0.0
230
1.0
 70
    24
 71
     3
 72
    11
 73
     7
 74
     0
 42
0.000000001
 43
0.0000000001
 40
-1.0
 40
-1.0
 40
-1.0
 40
-1.0
 40
-0.7
 40
-0.4
 40
-0.2
 40
0.0
 40
0.0
 40
0.0
 40
0.0
 10
1304.67544158094
 20
375.1456525932802
 30
0.0
 10
1304.461171411253
 20
375.1456525932803
 30
0.0
 10
1305.968856530099
 20
375.1456525932804
 30
0.0
 10
1313.124168686482
 20
375.1456525932804
 30
0.0
 10
1323.0656310678
 20
375.1456525932805
 30
0.0
 10
1330.372017993791
 20
375.1456525932807
 30
0.0
 10
1334.436348641258
 20
375.1456525932807
 30
0.0
  0
SPLINE
  5
1FB
330
1A7
100
AcDbEntity
  8
P-SANR-FIXT
100
AcDbSpline
210
0.0
220
0.0
230
1.0
 70
    24
 71
     3
 72
    11
 73
     7
 74
     0
 42
0.000000001
 43
0.0000000001
 40
-1.0
 40
-1.0
 40
-1.0
 40
-1.0
 40
-0.7
 40
-0.4
 40
-0.2
 40
0.0
 40
0.0
 40
0.0
 40
0.0
 10
1736.896466245124
 20
375.145652593282
 30
0.0
 10
1742.992962216324
 20
375.145652593282
 30
0.0
 10
1753.354285555005
 20
375.145652593282
 30
0.0
 10
1762.213567868593
 20
375.1456525932819
 30
0.0
 10
1766.227476802084
 20
375.1456525932819
 30
0.0
 10
1766.800220085233
 20
375.1456525932818
 30
0.0
 10
1766.657373305442
 20
375.1456525932818
 30
0.0
  0
SPLINE
  5
1FC
330
1A7
100
AcDbEntity
  8
P-SANR-FIXT
100
AcDbSpline
210
0.0
220
0.0
230
1.0
 70
    24
 71
     3
 72
    12
 73
     8
 74
     0
 42
0.000000001
 43
0.0000000001
 40
-1.0
 40
-1.0
 40
-1.0
 40
-1.0
 40
-0.85
 40
-0.7
 40
-0.4
 40
-0.2
 40
0.0
 40
0.0
 40
0.0
 40
0.0
 10
1334.436348641258
 20
375.1456525932807
 30
0.0
 10
1335.360869326719
 20
375.1456525932807
 30
0.0
 10
1337.5356848909
 20
375.1456525932807
 30
0.0
 10
1343.311397349755
 20
375.1456525932808
 30
0.0
 10
1351.573755763974
 20
375.1456525932808
 30
0.0
 10
1362.013265102663
 20
375.1456525932809
 30
0.0
 10
1368.208779227726
 20
375.145652593281
 30
0.0
 10
1371.403610036659
 20
375.145652593281
 30
0.0
  0
SPLINE
  5
1FD
330
1A7
100
AcDbEntity
  8
P-SANR-FIXT
100
AcDbSpline
210
0.0
220
0.0
230
1.0
 70
    24
 71
     3
 72
    12
 73
     8
 74
     0
 42
0.000000001
 43
0.0000000001
 40
-1.0
 40
-1.0
 40
-1.0
 40
-1.0
 40
-0.85
 40
-0.7
 40
-0.4
 40
-0.2
 40
0.0
 40
0.0
 40
0.0
 40
0.0
 10
1699.929204849723
 20
375.1456525932821
 30
0.0
 10
1702.325327956422
 20
375.1456525932821
 30
0.0
 10
1707.007789163135
 20
375.145652593282
 30
0.0
 10
1716.118487668046
 20
375.145652593282
 30
0.0
 10
1725.0813955664
 20
375.145652593282
 30
0.0
 10
1732.617237735192
 20
375.145652593282
 30
0.0
 10
1735.663771997842
 20
375.145652593282
 30
0.0
 10
1736.896466245124
 20
375.145652593282
 30
0.0
  0
LINE
  5
1FE
330
1A7
100
AcDbEntity
  8
P-SANR-FIXT
100
AcDbLine
 10
1371.403610036659
 20
375.145652593281
 30
0.0
 11
1468.236657446484
 21
375.1456525932816
 31
0.0
  0
LINE
  5
1FF
330
1A7
100
AcDbEntity
  8
P-SANR-FIXT
100
AcDbLine
 10
1603.096157439927
 20
375.1456525932821
 30
0.0
 11
1699.929204849723
 21
375.1456525932821
 31
0.0
  0
ARC
  5
200
330
1A7
100
AcDbEntity
  8
P-SANR-FIXT
100
AcDbCircle
 10
1785.666407443187
 20
376.2458787300456
 30
0.0
 40
12.50000000000382
100
AcDbArc
 50
0.0
 51
180.0000000000002
  0
ARC
  5
201
330
1A7
100
AcDbEntity
  8
P-SANR-FIXT
100
AcDbCircle
 10
1785.666407443187
 20
376.2458787300456
 30
0.0
 40
12.50000000000378
100
AcDbArc
 50
180.0000000000011
 51
0.0000000000006616
  0
ARC
  5
202
330
1A7
100
AcDbEntity
  8
P-SANR-FIXT
100
AcDbCircle
 10
1785.666407443187
 20
376.2458787300472
 30
0.0
 40
10.00000000000233
100
AcDbArc
 50
145.8419327633202
 51
154.1580672366777
  0
LINE
  5
203
330
1A7
100
AcDbEntity
  8
P-SANR-FIXT
100
AcDbLine
 10
1776.666407443197
 20
380.6047776736132
 30
0.0
 11
1776.666407443197
 21
371.8869797864815
 31
0.0
  0
ARC
  5
204
330
1A7
100
AcDbEntity
  8
P-SANR-FIXT
100
AcDbCircle
 10
1785.666407443187
 20
376.2458787300472
 30
0.0
 40
10.00000000000231
100
AcDbArc
 50
205.8419327633189
 51
214.1580672366765
  0
LINE
  5
205
330
1A7
100
AcDbEntity
  8
P-SANR-FIXT
100
AcDbLine
 10
1777.391490225534
 20
370.6310995677787
 30
0.0
 11
1784.941324660849
 21
366.2722006242126
 31
0.0
  0
ARC
  5
206
330
1A7
100
AcDbEntity
  8
P-SANR-FIXT
100
AcDbCircle
 10
1785.666407443187
 20
376.2458787300472
 30
0.0
 40
10.00000000000256
100
AcDbArc
 50
265.8419327633197
 51
274.1580672366769
  0
LINE
  5
207
330
1A7
100
AcDbEntity
  8
P-SANR-FIXT
100
AcDbLine
 10
1786.391490225525
 20
366.2722006242126
 30
0.0
 11
1793.941324660839
 21
370.6310995677783
 31
0.0
  0
ARC
  5
208
330
1A7
100
AcDbEntity
  8
P-SANR-FIXT
100
AcDbCircle
 10
1785.666407443187
 20
376.2458787300472
 30
0.0
 40
10.00000000000246
100
AcDbArc
 50
325.8419327633187
 51
334.1580672366764
  0
LINE
  5
209
330
1A7
100
AcDbEntity
  8
P-SANR-FIXT
100
AcDbLine
 10
1794.666407443178
 20
371.886979786481
 30
0.0
 11
1794.666407443178
 21
380.6047776736129
 31
0.0
  0
ARC
  5
20A
330
1A7
100
AcDbEntity
  8
P-SANR-FIXT
100
AcDbCircle
 10
1785.666407443187
 20
376.2458787300472
 30
0.0
 40
10.00000000000251
100
AcDbArc
 50
25.84193276331988
 51
34.15806723667705
  0
LINE
  5
20B
330
1A7
100
AcDbEntity
  8
P-SANR-FIXT
100
AcDbLine
 10
1793.94132466084
 20
381.8606578923156
 30
0.0
 11
1786.391490225526
 21
386.2195568358817
 31
0.0
  0
ARC
  5
20C
330
1A7
100
AcDbEntity
  8
P-SANR-FIXT
100
AcDbCircle
 10
1785.666407443187
 20
376.2458787300472
 30
0.0
 40
10.00000000000235
100
AcDbArc
 50
85.84193276331873
 51
94.15806723667602
  0
LINE
  5
20D
330
1A7
100
AcDbEntity
  8
P-SANR-FIXT
100
AcDbLine
 10
1784.941324660849
 20
386.2195568358819
 30
0.0
 11
1777.391490225535
 21
381.860657892316
 31
0.0
  0
LWPOLYLINE
  5
20E
330
1A7
100
AcDbEntity
  8
P-SANR-FIXT
100
AcDbPolyline
 90
       80
 70
   128
 43
0.0
 10
1368.02841490033
 20
375.1456525932812
 10
1368.140517560409
 20
369.5412669603129
 10
1368.542633364491
 20
362.8473811391724
 10
1369.21211155593
 20
356.1749300559839
 10
1370.147881112431
 20
349.5345882090995
 10
1371.348445002326
 20
342.9369787289439
 10
1372.811882579498
 20
336.3926563832709
 10
1374.535852656005
 20
329.9120906917847
 10
1376.517597247487
 20
323.5056491771455
 10
1378.753945985346
 20
317.1835807791425
 10
1381.241321188665
 20
310.9559994585759
 10
1383.97574358773
 20
304.8328680170788
 10
1386.952838690014
 20
298.8239821587591
 10
1390.167843778434
 20
292.9389548191624
 10
1393.61561553068
 20
287.1872007866285
 10
1397.290638247432
 20
281.5779216406315
 10
1401.187032676308
 20
276.1200910312246
 10
1405.298565417408
 20
270.8224403231069
 10
1409.618658895427
 20
265.6934446273064
 10
1414.140401882369
 20
260.7413092428085
 10
1418.856560554043
 20
255.9739565298293
 10
1423.759590062635
 20
251.399013235729
 10
1428.841646606855
 20
247.0237982938427
 10
1434.094599980346
 20
242.8553111147465
 10
1439.510046578281
 20
238.9002203886983
 10
1445.079322841336
 20
235.1648534171516
 10
1450.793519115542
 20
231.6551859904254
 10
1456.64349390582
 20
228.3768328277136
 10
1462.619888500436
 20
225.3350385947312
 10
1468.713141942934
 20
222.5346695133694
 10
1474.91350632763
 20
219.9802055767786
 10
1481.211062394184
 20
217.675733382334
 10
1487.595735396295
 20
215.6249395939521
 10
1494.057311219152
 20
213.8311050442155
 10
1500.585452719834
 20
212.2970994857385
 10
1507.169716264535
 20
211.0253770001788
 10
1513.799568436152
 20
210.0179720722257
 10
1520.464402885503
 20
209.276496334863
 10
1527.153557299225
 20
208.8021359910982
 10
1533.8563304572
 20
208.5956499162879
 10
1540.561999352223
 20
208.6573684441049
 10
1547.259836344529
 20
208.9871928380708
 10
1553.939126323726
 20
209.584595449514
 10
1560.589183850686
 20
210.4486205616952
 10
1567.199370251969
 20
211.5778859187505
 10
1573.759110639432
 20
212.9705849370057
 10
1580.257910827791
 20
214.6244895951241
 10
1586.685374123081
 20
216.536953998468
 10
1593.031217955149
 20
218.7049186119623
 10
1599.285290327571
 20
221.1249151546997
 10
1605.437586058683
 20
223.7930721484499
 10
1611.478262787735
 20
226.7051211112005
 10
1617.397656720568
 20
229.8564033858138
 10
1623.186298089628
 20
233.241877592889
 10
1628.834926303567
 20
236.8561276958901
 10
1634.334504762221
 20
240.6933716656516
 10
1639.676235313236
 20
244.7474707303903
 10
1644.851572327238
 20
249.0119391964305
 10
1649.852236369019
 20
253.4799548239324
 10
1654.670227442863
 20
258.1443697410164
 10
1659.297837790835
 20
262.9977218788386
 10
1663.727664223549
 20
268.0322469093037
 10
1667.952619963692
 20
273.2398906663388
 10
1671.965945983357
 20
278.6123220308367
 10
1675.761221817041
 20
284.1409462586724
 10
1679.332375833027
 20
289.8169187304577
 10
1682.673694946695
 20
295.6311591010471
 10
1685.779833760238
 20
301.5743658261538
 10
1688.645823114165
 20
307.6370310428337
 10
1691.267078036886
 20
313.8094557800389
 10
1693.639405079697
 20
320.0817654749049
 10
1695.759009025398
 20
326.4439257699407
 10
1697.622498959834
 20
332.8857585658625
 10
1699.226893696634
 20
339.3969583043811
 10
1700.56962654647
 20
345.9671084548973
 10
1701.64854942322
 20
352.5856981787271
 10
1702.461936280436
 20
359.2421391442026
 10
1703.008485872661
 20
365.9257824657449
 10
1703.287323837139
 20
372.6259357398068
 10
1703.314528580729
 20
375.1456525932819
  0
LINE
  5
20F
330
1A7
100
AcDbEntity
  8
P-SANR-FIXT
100
AcDbLine
 10
1320.559560026675
 20
460.4058787300445
 30
0.0
 11
1220.66640744319
 21
460.4058787300441
 31
0.0
  0
LINE
  5
210
330
1A7
100
AcDbEntity
  8
P-SANR-FIXT
100
AcDbLine
 10
1220.66640744319
 20
292.0858787300406
 30
0.0
 11
1390.659614498859
 21
292.0858787300407
 31
0.0
  0
LINE
  5
211
330
1A7
100
AcDbEntity
  8
P-SANR-FIXT
100
AcDbLine
 10
1220.66640744319
 20
518.7458787300443
 30
0.0
 11
1200.66640744319
 21
518.7458787300443
 31
0.0
  0
LINE
  5
212
330
1A7
100
AcDbEntity
  8
P-SANR-FIXT
100
AcDbLine
 10
1200.666407443191
 20
233.7458787300398
 30
0.0
 11
1220.666407443191
 21
233.7458787300398
 31
0.0
  0
LINE
  5
213
330
1A7
100
AcDbEntity
  8
P-SANR-FIXT
100
AcDbLine
 10
1870.666407443191
 20
518.745878730049
 30
0.0
 11
1850.66640744319
 21
518.7458787300488
 31
0.0
  0
LINE
  5
214
330
1A7
100
AcDbEntity
  8
P-SANR-FIXT
100
AcDbLine
 10
1850.666407443192
 20
233.7458787300394
 30
0.0
 11
1870.666407443192
 21
233.7458787300395
 31
0.0
  0
LINE
  5
215
330
1A7
100
AcDbEntity
  8
P-SANR-FIXT
100
AcDbLine
 10
1850.666407443189
 20
460.4058787300487
 30
0.0
 11
1750.774355438095
 21
460.4058787300483
 31
0.0
  0
LINE
  5
216
330
1A7
100
AcDbEntity
  8
P-SANR-FIXT
100
AcDbLine
 10
1680.673200387518
 20
292.0858787300396
 30
0.0
 11
1850.666407443189
 21
292.0858787300397
 31
0.0
  0
SPLINE
  5
217
330
1A7
100
AcDbEntity
  8
P-SANR-FIXT
100
AcDbSpline
210
0.0
220
0.0
230
1.0
 70
     8
 71
     3
 72
    16
 73
    12
 74
     0
 42
0.000000001
 43
0.0000000001
 40
0.008134266496109
 40
0.008134266496109
 40
0.008134266496109
 40
0.008134266496109
 40
0.1111111111111111
 40
0.2222222222222222
 40
0.3333333333333333
 40
0.4444444444444445
 40
0.5833333333333333
 40
0.7222222222222223
 40
0.7916666666666668
 40
0.861111111111111
 40
1.0
 40
1.0
 40
1.0
 40
1.0
 10
1368.01001715649
 20
375.1413953938793
 30
0.0
 10
1368.040457502486
 20
370.4864661057067
 30
0.0
 10
1368.503349222458
 20
360.9624647297729
 30
0.0
 10
1370.390285444187
 20
346.9120988403641
 30
0.0
 10
1373.342052010763
 20
333.6138675768375
 30
0.0
 10
1377.279546568432
 20
320.7267391037861
 30
0.0
 10
1381.902034674296
 20
309.0524446485214
 30
0.0
 10
1385.739617508831
 20
301.107927170645
 30
0.0
 10
1388.163452440607
 20
296.517215749725
 30
0.0
 10
1390.051099343079
 20
293.1157758181509
 30
0.0
 10
1390.644748780147
 20
292.1114922066944
 30
0.0
 10
1390.659614498857
 20
292.0858787300422
 30
0.0
  0
SPLINE
  5
218
330
1A7
100
AcDbEntity
  8
P-SANR-FIXT
100
AcDbSpline
210
0.0
220
0.0
230
1.0
 70
     8
 71
     3
 72
    16
 73
    12
 74
     0
 42
0.000000001
 43
0.0000000001
 40
0.0
 40
0.0
 40
0.0
 40
0.0
 40
0.1111111111111111
 40
0.2222222222222222
 40
0.3333333333333333
 40
0.4444444444444445
 40
0.5833333333333333
 40
0.7222222222222223
 40
0.7916666666666668
 40
0.861111111111111
 40
0.9918657335039034
 40
0.9918657335039034
 40
0.9918657335039034
 40
0.9918657335039034
 10
1680.673200387516
 20
292.0858787300388
 30
0.0
 10
1680.685092962485
 20
292.1063695113616
 30
0.0
 10
1681.189569419244
 20
292.9660908047806
 30
0.0
 10
1683.394125685772
 20
296.8897067720052
 30
0.0
 10
1686.622432849532
 20
303.1419518739476
 30
0.0
 10
1690.745761730334
 20
312.1931401168339
 30
0.0
 10
1695.343404466557
 20
324.3827049575756
 30
0.0
 10
1698.938633093894
 20
337.4010605450799
 30
0.0
 10
1701.136680329747
 20
348.7549725121855
 30
0.0
 10
1702.74930259357
 20
360.3541386808696
 30
0.0
 10
1703.284046963309
 20
369.2300593045618
 30
0.0
 10
1703.322788875482
 20
375.1413292209405
 30
0.0
  0
LINE
  5
219
330
1A7
100
AcDbEntity
  8
P-SANR-FIXT
100
AcDbLine
 10
1220.666407443189
 20
518.7458787300445
 30
0.0
 11
1220.666407443188
 21
376.2458787300439
 31
0.0
  0
LINE
  5
21A
330
1A7
100
AcDbEntity
  8
P-SANR-FIXT
100
AcDbLine
 10
1220.666407443188
 20
376.2458787300431
 30
0.0
 11
1220.66640744319
 21
233.7458787300406
 31
0.0
  0
LINE
  5
21B
330
1A7
100
AcDbEntity
  8
P-SANR-FIXT
100
AcDbLine
 10
1200.666407443189
 20
518.7458787300443
 30
0.0
 11
1200.666407443188
 21
376.2458787300439
 31
0.0
  0
LINE
  5
21C
330
1A7
100
AcDbEntity
  8
P-SANR-FIXT
100
AcDbLine
 10
1200.666407443188
 20
376.2458787300431
 30
0.0
 11
1200.66640744319
 21
233.7458787300405
 31
0.0
  0
ARC
  5
21D
330
1A7
100
AcDbEntity
  8
P-SANR-FIXT
100
AcDbCircle
 10
1785.666407443188
 20
376.2458787300456
 30
0.0
 40
13.00000000000023
100
AcDbArc
 50
0.0
 51
180.0
  0
ARC
  5
21E
330
1A7
100
AcDbEntity
  8
P-SANR-FIXT
100
AcDbCircle
 10
1785.666407443188
 20
376.2458787300456
 30
0.0
 40
13.00000000000011
100
AcDbArc
 50
179.9999999999995
 51
359.9999999999986
  0
LINE
  5
21F
330
1A7
100
AcDbEntity
  8
P-SANR-FIXT
100
AcDbLine
 10
1870.666407443189
 20
518.7458787300494
 30
0.0
 11
1870.666407443188
 21
376.2458787300463
 31
0.0
  0
LINE
  5
220
330
1A7
100
AcDbEntity
  8
P-SANR-FIXT
100
AcDbLine
 10
1870.666407443188
 20
376.2458787300454
 30
0.0
 11
1870.66640744319
 21
233.7458787300403
 31
0.0
  0
LINE
  5
221
330
1A7
100
AcDbEntity
  8
P-SANR-FIXT
100
AcDbLine
 10
1850.666407443189
 20
518.7458787300494
 30
0.0
 11
1850.666407443188
 21
376.2458787300462
 31
0.0
  0
LINE
  5
222
330
1A7
100
AcDbEntity
  8
P-SANR-FIXT
100
AcDbLine
 10
1850.666407443188
 20
376.2458787300454
 30
0.0
 11
1850.66640744319
 21
233.7458787300403
 31
0.0
  0
SPLINE
  5
223
330
1A7
100
AcDbEntity
  8
P-SANR-FIXT
100
AcDbSpline
210
0.0
220
0.0
230
1.0
 70
     8
 71
     3
 72
     8
 73
     4
 74
     0
 42
0.000000001
 43
0.0000000001
 40
-0.9694343128565691
 40
-0.9694343128565691
 40
-0.9694343128565691
 40
-0.9694343128565691
 40
-0.9629629629629629
 40
-0.9629629629629629
 40
-0.9629629629629629
 40
-0.9629629629629629
 10
1798.597787913444
 20
377.5224336735255
 30
0.0
 10
1798.589037846906
 20
377.611039178779
 30
0.0
 10
1798.579456524284
 20
377.699337625833
 30
0.0
 10
1798.569041411419
 20
377.7873336787156
 30
0.0
  0
SPLINE
  5
224
330
1A7
100
AcDbEntity
  8
P-SANR-FIXT
100
AcDbSpline
210
0.0
220
0.0
230
1.0
 70
     8
 71
     3
 72
     8
 73
     4
 74
     0
 42
0.000000001
 43
0.0000000001
 40
-0.9381928564122301
 40
-0.9381928564122301
 40
-0.9381928564122301
 40
-0.9381928564122301
 40
-0.9259259259259259
 40
-0.9259259259259259
 40
-0.9259259259259259
 40
-0.9259259259259259
 10
1798.412655391221
 20
378.7847602162514
 30
0.0
 10
1798.380743066806
 20
378.9473047736017
 30
0.0
 10
1798.345799909113
 20
379.1088269135228
 30
0.0
 10
1798.307808657515
 20
379.2693584036052
 30
0.0
  0
SPLINE
  5
225
330
1A7
100
AcDbEntity
  8
P-SANR-FIXT
100
AcDbSpline
210
0.0
220
0.0
230
1.0
 70
     8
 71
     3
 72
     8
 73
     4
 74
     0
 42
0.000000001
 43
0.0000000001
 40
-0.8888888888888889
 40
-0.8888888888888889
 40
-0.8888888888888889
 40
-0.8888888888888889
 40
-0.8748408238608213
 40
-0.8748408238608213
 40
-0.8748408238608213
 40
-0.8748408238608213
 10
1797.879858761689
 20
380.6971990017985
 30
0.0
 10
1797.815092581727
 20
380.8745203528596
 30
0.0
 10
1797.746260545048
 20
381.0506682776672
 30
0.0
 10
1797.673336727853
 20
381.2256904881223
 30
0.0
  0
SPLINE
  5
226
330
1A7
100
AcDbEntity
  8
P-SANR-FIXT
100
AcDbSpline
210
0.0
220
0.0
230
1.0
 70
     8
 71
     3
 72
     8
 73
     4
 74
     0
 42
0.000000001
 43
0.0000000001
 40
-0.8518518518518519
 40
-0.8518518518518519
 40
-0.8518518518518519
 40
-0.8518518518518519
 40
-0.8435719917816244
 40
-0.8435719917816244
 40
-0.8435719917816244
 40
-0.8435719917816244
 10
1797.282411344855
 20
382.0759661088189
 30
0.0
 10
1797.231558944711
 20
382.1769059695833
 30
0.0
 10
1797.179326385112
 20
382.2773735757465
 30
0.0
 10
1797.125758441239
 20
382.37728183382
 30
0.0
  0
SPLINE
  5
227
330
1A7
100
AcDbEntity
  8
P-SANR-FIXT
100
AcDbSpline
210
0.0
220
0.0
230
1.0
 70
     8
 71
     3
 72
     8
 73
     4
 74
     0
 42
0.000000001
 43
0.0000000001
 40
-0.8148148148148148
 40
-0.8148148148148148
 40
-0.8148148148148148
 40
-0.8148148148148148
 40
-0.8127015580493511
 40
-0.8127015580493511
 40
-0.8127015580493511
 40
-0.8127015580493511
 10
1796.521160947305
 20
383.3943795608767
 30
0.0
 10
1796.505259236729
 20
383.4186191975296
 30
0.0
 10
1796.489280667286
 20
383.442802692758
 30
0.0
 10
1796.473225983406
 20
383.4669285985445
 30
0.0
  0
SPLINE
  5
228
330
1A7
100
AcDbEntity
  8
P-SANR-FIXT
100
AcDbSpline
210
0.0
220
0.0
230
1.0
 70
     8
 71
     3
 72
     8
 73
     4
 74
     0
 42
0.000000001
 43
0.0000000001
 40
-0.7812229929223574
 40
-0.7812229929223574
 40
-0.7812229929223574
 40
-0.7812229929223574
 40
-0.7777777777777778
 40
-0.7777777777777778
 40
-0.7777777777777778
 40
-0.7777777777777778
 10
1795.707478078902
 20
384.5021532946855
 30
0.0
 10
1795.677843009298
 20
384.5382384819412
 30
0.0
 10
1795.648023951957
 20
384.5741376495778
 30
0.0
 10
1795.618020450843
 20
384.6098525630563
 30
0.0
  0
SPLINE
  5
229
330
1A7
100
AcDbEntity
  8
P-SANR-FIXT
100
AcDbSpline
210
0.0
220
0.0
230
1.0
 70
     8
 71
     3
 72
     8
 73
     4
 74
     0
 42
0.000000001
 43
0.0000000001
 40
-0.7495386828806616
 40
-0.7495386828806616
 40
-0.7495386828806616
 40
-0.7495386828806616
 40
-0.7407407407407407
 40
-0.7407407407407407
 40
-0.7407407407407407
 40
-0.7407407407407407
 10
1794.842812795276
 20
385.4519116919846
 30
0.0
 10
1794.758394168181
 20
385.5357052748132
 30
0.0
 10
1794.672748364894
 20
385.6183916608238
 30
0.0
 10
1794.585867790881
 20
385.7000002505839
 30
0.0
  0
SPLINE
  5
22A
330
1A7
100
AcDbEntity
  8
P-SANR-FIXT
100
AcDbSpline
210
0.0
220
0.0
230
1.0
 70
     8
 71
     3
 72
     8
 73
     4
 74
     0
 42
0.000000001
 43
0.0000000001
 40
-0.7191953913451022
 40
-0.7191953913451022
 40
-0.7191953913451022
 40
-0.7191953913451022
 40
-0.6878570301492824
 40
-0.6878570301492824
 40
-0.6878570301492824
 40
-0.6878570301492824
 10
1793.925261859104
 20
386.2805882153609
 30
0.0
 10
1793.594175946538
 20
386.5530160909011
 30
0.0
 10
1793.248095616438
 20
386.8117765116748
 30
0.0
 10
1792.896081035876
 20
387.0488179815705
 30
0.0
  0
SPLINE
  5
22B
330
1A7
100
AcDbEntity
  8
P-SANR-FIXT
100
AcDbSpline
210
0.0
220
0.0
230
1.0
 70
     8
 71
     3
 72
     8
 73
     4
 74
     0
 42
0.000000001
 43
0.0000000001
 40
-0.6666666666666668
 40
-0.6666666666666668
 40
-0.6666666666666668
 40
-0.6666666666666668
 40
-0.6563087099050867
 40
-0.6563087099050867
 40
-0.6563087099050867
 40
-0.6563087099050867
 10
1792.171348045754
 20
387.5013126508046
 30
0.0
 10
1792.051072355451
 20
387.5706872825982
 30
0.0
 10
1791.929502862689
 20
387.6380651928006
 30
0.0
 10
1791.806313008939
 20
387.7036382865722
 30
0.0
  0
SPLINE
  5
22C
330
1A7
100
AcDbEntity
  8
P-SANR-FIXT
100
AcDbSpline
210
0.0
220
0.0
230
1.0
 70
     8
 71
     3
 72
     8
 73
     4
 74
     0
 42
0.000000001
 43
0.0000000001
 40
-0.6296296296296297
 40
-0.6296296296296297
 40
-0.6296296296296297
 40
-0.6296296296296297
 40
-0.6248649546869531
 40
-0.6248649546869531
 40
-0.6248649546869531
 40
-0.6248649546869531
 10
1790.823130286929
 20
388.1745083406603
 30
0.0
 10
1790.762974861593
 20
388.2003264098539
 30
0.0
 10
1790.702576119733
 20
388.2257324595841
 30
0.0
 10
1790.641959402458
 20
388.2507174398339
 30
0.0
  0
SPLINE
  5
22D
330
1A7
100
AcDbEntity
  8
P-SANR-FIXT
100
AcDbSpline
210
0.0
220
0.0
230
1.0
 70
     8
 71
     3
 72
     8
 73
     4
 74
     0
 42
0.000000001
 43
0.0000000001
 40
-0.5938667891449172
 40
-0.5938667891449172
 40
-0.5938667891449172
 40
-0.5938667891449172
 40
-0.5925925925925926
 40
-0.5925925925925926
 40
-0.5925925925925926
 40
-0.5925925925925926
 10
1789.43817338951
 20
388.6824030047291
 30
0.0
 10
1789.4214912773
 20
388.6875170204469
 30
0.0
 10
1789.404805366264
 20
388.6925967128118
 30
0.0
 10
1789.388116141159
 20
388.6976419086018
 30
0.0
  0
SPLINE
  5
22E
330
1A7
100
AcDbEntity
  8
P-SANR-FIXT
100
AcDbSpline
210
0.0
220
0.0
230
1.0
 70
     8
 71
     3
 72
     8
 73
     4
 74
     0
 42
0.000000001
 43
0.0000000001
 40
-0.5625781462465663
 40
-0.5625781462465663
 40
-0.5625781462465663
 40
-0.5625781462465663
 40
-0.5555555555555556
 40
-0.5555555555555556
 40
-0.5555555555555556
 40
-0.5555555555555556
 10
1788.20552488681
 20
388.9952978426737
 30
0.0
 10
1788.112800155071
 20
389.013892900208
 30
0.0
 10
1788.019859511947
 20
389.0314093837368
 30
0.0
 10
1787.926627704312
 20
389.0478499025131
 30
0.0
  0
SPLINE
  5
22F
330
1A7
100
AcDbEntity
  8
P-SANR-FIXT
100
AcDbSpline
210
0.0
220
0.0
230
1.0
 70
     8
 71
     3
 72
     8
 73
     4
 74
     0
 42
0.000000001
 43
0.0000000001
 40
-0.5311998125654504
 40
-0.5311998125654504
 40
-0.5311998125654504
 40
-0.5311998125654504
 40
-0.5185185185185186
 40
-0.5185185185185186
 40
-0.5185185185185186
 40
-0.5185185185185186
 10
1786.945083902369
 20
389.1803894716033
 30
0.0
 10
1786.773004984937
 20
389.1968035085006
 30
0.0
 10
1786.600260613701
 20
389.2098459342424
 30
0.0
 10
1786.427235245786
 20
389.219609429483
 30
0.0
  0
SPLINE
  5
230
330
1A7
100
AcDbEntity
  8
P-SANR-FIXT
100
AcDbSpline
210
0.0
220
0.0
230
1.0
 70
     8
 71
     3
 72
     8
 73
     4
 74
     0
 42
0.000000001
 43
0.0000000001
 40
-0.4814814814814815
 40
-0.4814814814814815
 40
-0.4814814814814815
 40
-0.4814814814814815
 40
-0.4688853582557674
 40
-0.4688853582557674
 40
-0.4688853582557674
 40
-0.4688853582557674
 10
1784.909723802143
 20
389.2209389068696
 30
0.0
 10
1784.737981095558
 20
389.2113770965378
 30
0.0
 10
1784.56648544531
 20
389.1984485341497
 30
0.0
 10
1784.395385504242
 20
389.1820902579111
 30
0.0
  0
SPLINE
  5
231
330
1A7
100
AcDbEntity
  8
P-SANR-FIXT
100
AcDbSpline
210
0.0
220
0.0
230
1.0
 70
     8
 71
     3
 72
     8
 73
     4
 74
     0
 42
0.000000001
 43
0.0000000001
 40
-0.4444444444444445
 40
-0.4444444444444445
 40
-0.4444444444444445
 40
-0.4444444444444445
 40
-0.437500478483541
 40
-0.437500478483541
 40
-0.437500478483541
 40
-0.437500478483541
 10
1783.40495858584
 20
389.0476695838909
 30
0.0
 10
1783.311791856849
 20
389.0311818609615
 30
0.0
 10
1783.21883267105
 20
389.0136149601032
 30
0.0
 10
1783.126096371422
 20
388.9949900535782
 30
0.0
  0
SPLINE
  5
232
330
1A7
100
AcDbEntity
  8
P-SANR-FIXT
100
AcDbSpline
210
0.0
220
0.0
230
1.0
 70
     8
 71
     3
 72
     8
 73
     4
 74
     0
 42
0.000000001
 43
0.0000000001
 40
-0.4074074074074075
 40
-0.4074074074074075
 40
-0.4074074074074075
 40
-0.4074074074074075
 40
-0.4061949052537193
 40
-0.4061949052537193
 40
-0.4061949052537193
 40
-0.4061949052537193
 10
1781.934259075062
 20
388.6949317906243
 30
0.0
 10
1781.918453812051
 20
388.6901478610319
 30
0.0
 10
1781.902657294471
 20
388.6853345347498
 30
0.0
 10
1781.886869610814
 20
388.680491919284
 30
0.0
  0
SPLINE
  5
233
330
1A7
100
AcDbEntity
  8
P-SANR-FIXT
100
AcDbSpline
210
0.0
220
0.0
230
1.0
 70
     8
 71
     3
 72
     8
 73
     4
 74
     0
 42
0.000000001
 43
0.0000000001
 40
-0.3751733544289924
 40
-0.3751733544289924
 40
-0.3751733544289924
 40
-0.3751733544289924
 40
-0.3703703703703705
 40
-0.3703703703703705
 40
-0.3703703703703705
 40
-0.3703703703703705
 10
1780.693963327082
 20
388.2529377866703
 30
0.0
 10
1780.633466906545
 20
388.2280380819651
 30
0.0
 10
1780.573156704028
 20
388.2026979609091
 30
0.0
 10
1780.513041564139
 20
388.1769162938098
 30
0.0
  0
SPLINE
  5
234
330
1A7
100
AcDbEntity
  8
P-SANR-FIXT
100
AcDbSpline
210
0.0
220
0.0
230
1.0
 70
     8
 71
     3
 72
     8
 73
     4
 74
     0
 42
0.000000001
 43
0.0000000001
 40
-0.3437210408081172
 40
-0.3437210408081172
 40
-0.3437210408081172
 40
-0.3437210408081172
 40
-0.3333333333333333
 40
-0.3333333333333333
 40
-0.3333333333333333
 40
-0.3333333333333333
 10
1779.531858667378
 20
387.7068402326624
 30
0.0
 10
1779.407121600339
 20
387.6404031428504
 30
0.0
 10
1779.283550645656
 20
387.5718551893182
 30
0.0
 10
1779.161204847816
 20
387.5012036561935
 30
0.0
  0
SPLINE
  5
235
330
1A7
100
AcDbEntity
  8
P-SANR-FIXT
100
AcDbSpline
210
0.0
220
0.0
230
1.0
 70
     8
 71
     3
 72
     8
 73
     4
 74
     0
 42
0.000000001
 43
0.0000000001
 40
-0.3121891163595707
 40
-0.3121891163595707
 40
-0.3121891163595707
 40
-0.3121891163595707
 40
-0.2808865980990571
 40
-0.2808865980990571
 40
-0.2808865980990571
 40
-0.2808865980990571
 10
1778.429930958895
 20
387.0440905150323
 30
0.0
 10
1778.076947252356
 20
386.8062194087518
 30
0.0
 10
1777.735508354751
 20
386.5508157432645
 30
0.0
 10
1777.407096542677
 20
386.2797786800451
 30
0.0
  0
SPLINE
  5
236
330
1A7
100
AcDbEntity
  8
P-SANR-FIXT
100
AcDbSpline
210
0.0
220
0.0
230
1.0
 70
     8
 71
     3
 72
     8
 73
     4
 74
     0
 42
0.000000001
 43
0.0000000001
 40
-0.2592592592592595
 40
-0.2592592592592595
 40
-0.2592592592592595
 40
-0.2592592592592595
 40
-0.2505794722584168
 40
-0.2505794722584168
 40
-0.2505794722584168
 40
-0.2505794722584168
 10
1776.744600371266
 20
385.6965907799324
 30
0.0
 10
1776.658555055794
 20
385.6157256953077
 30
0.0
 10
1776.573668333228
 20
385.533692955495
 30
0.0
 10
1776.489943451002
 20
385.4505321959519
 30
0.0
  0
SPLINE
  5
237
330
1A7
100
AcDbEntity
  8
P-SANR-FIXT
100
AcDbSpline
210
0.0
220
0.0
230
1.0
 70
     8
 71
     3
 72
     8
 73
     4
 74
     0
 42
0.000000001
 43
0.0000000001
 40
-0.2222222222222222
 40
-0.2222222222222222
 40
-0.2222222222222222
 40
-0.2222222222222222
 40
-0.2189112296307646
 40
-0.2189112296307646
 40
-0.2189112296307646
 40
-0.2189112296307646
 10
1775.706660940271
 20
384.6007246052032
 30
0.0
 10
1775.677751105088
 20
384.5662946322608
 30
0.0
 10
1775.649003283679
 20
384.5317220431072
 30
0.0
 10
1775.62042257485
 20
384.4970064554686
 30
0.0
  0
SPLINE
  5
238
330
1A7
100
AcDbEntity
  8
P-SANR-FIXT
100
AcDbSpline
210
0.0
220
0.0
230
1.0
 70
     8
 71
     3
 72
     8
 73
     4
 74
     0
 42
0.000000001
 43
0.0000000001
 40
-0.1874188614818262
 40
-0.1874188614818262
 40
-0.1874188614818262
 40
-0.1874188614818262
 40
-0.1851851851851856
 40
-0.1851851851851856
 40
-0.1851851851851856
 40
-0.1851851851851856
 10
1774.858325289213
 20
383.4656801116935
 30
0.0
 10
1774.841525357117
 20
383.4403906040479
 30
0.0
 10
1774.824795123348
 20
383.4150458205673
 30
0.0
 10
1774.808139841612
 20
383.3896443219608
 30
0.0
  0
SPLINE
  5
239
330
1A7
100
AcDbEntity
  8
P-SANR-FIXT
100
AcDbSpline
210
0.0
220
0.0
230
1.0
 70
     8
 71
     3
 72
     8
 73
     4
 74
     0
 42
0.000000001
 43
0.0000000001
 40
-0.1565009918597724
 40
-0.1565009918597724
 40
-0.1565009918597724
 40
-0.1565009918597724
 40
-0.1481481481481486
 40
-0.1481481481481486
 40
-0.1481481481481486
 40
-0.1481481481481486
 10
1774.210156081222
 20
382.3817982204302
 30
0.0
 10
1774.156285536838
 20
382.2813479289944
 30
0.0
 10
1774.104221877621
 20
382.1800273335925
 30
0.0
 10
1774.053713748042
 20
382.0780141128146
 30
0.0
  0
SPLINE
  5
23A
330
1A7
100
AcDbEntity
  8
P-SANR-FIXT
100
AcDbSpline
210
0.0
220
0.0
230
1.0
 70
     8
 71
     3
 72
     8
 73
     4
 74
     0
 42
0.000000001
 43
0.0000000001
 40
-0.1251950870190066
 40
-0.1251950870190066
 40
-0.1251950870190066
 40
-0.1251950870190066
 40
-0.1111111111111111
 40
-0.1111111111111111
 40
-0.1111111111111111
 40
-0.1111111111111111
 10
1773.660186566802
 20
381.2273997474361
 30
0.0
 10
1773.58647729083
 20
381.0511570600001
 30
0.0
 10
1773.518529656934
 20
380.8732316804707
 30
0.0
 10
1773.451681836838
 20
380.6956515738651
 30
0.0
  0
SPLINE
  5
23B
330
1A7
100
AcDbEntity
  8
P-SANR-FIXT
100
AcDbSpline
210
0.0
220
0.0
230
1.0
 70
     8
 71
     3
 72
     8
 73
     4
 74
     0
 42
0.000000001
 43
0.0000000001
 40
-0.0740740740740746
 40
-0.0740740740740746
 40
-0.0740740740740746
 40
-0.0740740740740746
 40
-0.0618093092815129
 40
-0.0618093092815129
 40
-0.0618093092815129
 40
-0.0618093092815129
 10
1773.025330052661
 20
379.270493654593
 30
0.0
 10
1772.987709122922
 20
379.1105360414881
 30
0.0
 10
1772.950653315176
 20
378.9505032313003
 30
0.0
 10
1772.91896981834
 20
378.7883563082834
 30
0.0
  0
SPLINE
  5
23C
330
1A7
100
AcDbEntity
  8
P-SANR-FIXT
100
AcDbSpline
210
0.0
220
0.0
230
1.0
 70
     8
 71
     3
 72
     8
 73
     4
 74
     0
 42
0.000000001
 43
0.0000000001
 40
-0.0370370370370377
 40
-0.0370370370370377
 40
-0.0370370370370377
 40
-0.0370370370370377
 40
-0.0305641100393932
 40
-0.0305641100393932
 40
-0.0305641100393932
 40
-0.0305641100393932
 10
1772.765296094313
 20
377.7898865104712
 30
0.0
 10
1772.75480366849
 20
377.7017199964364
 30
0.0
 10
1772.746505241506
 20
377.6127319966058
 30
0.0
 10
1772.739684047234
 20
377.5231899569244
 30
0.0
  0
SPLINE
  5
23D
330
1A7
100
AcDbEntity
  8
P-SANR-FIXT
100
AcDbSpline
210
0.0
220
0.0
230
1.0
 70
     8
 71
     3
 72
     8
 73
     4
 74
     0
 42
0.000000001
 43
0.0000000001
 40
-0.9694358899606561
 40
-0.9694358899606561
 40
-0.9694358899606561
 40
-0.9694358899606561
 40
-0.9629629629629629
 40
-0.9629629629629629
 40
-0.9629629629629629
 40
-0.9629629629629629
 10
1772.735294080707
 20
374.9692791487845
 30
0.0
 10
1772.744058722586
 20
374.8806497323429
 30
0.0
 10
1772.753653437798
 20
374.7923289397657
 30
0.0
 10
1772.764080623016
 20
374.7043122548803
 30
0.0
  0
SPLINE
  5
23E
330
1A7
100
AcDbEntity
  8
P-SANR-FIXT
100
AcDbSpline
210
0.0
220
0.0
230
1.0
 70
     8
 71
     3
 72
     8
 73
     4
 74
     0
 42
0.000000001
 43
0.0000000001
 40
-0.9381906907185245
 40
-0.9381906907185245
 40
-0.9381906907185245
 40
-0.9381906907185245
 40
-0.9259259259259259
 40
-0.9259259259259259
 40
-0.9259259259259259
 40
-0.9259259259259259
 10
1772.920509329315
 20
373.7068862551197
 30
0.0
 10
1772.952406246004
 20
373.5443992071962
 30
0.0
 10
1772.987324815326
 20
373.3829419111233
 30
0.0
 10
1773.025281340905
 20
373.2224836451359
 30
0.0
  0
SPLINE
  5
23F
330
1A7
100
AcDbEntity
  8
P-SANR-FIXT
100
AcDbSpline
210
0.0
220
0.0
230
1.0
 70
     8
 71
     3
 72
     8
 73
     4
 74
     0
 42
0.000000001
 43
0.0000000001
 40
-0.8888888888888889
 40
-0.8888888888888889
 40
-0.8888888888888889
 40
-0.8888888888888889
 40
-0.8748049129810267
 40
-0.8748049129810267
 40
-0.8748049129810267
 40
-0.8748049129810267
 10
1773.452703403252
 20
371.7953168232913
 30
0.0
 10
1773.517530198368
 20
371.6176650499073
 30
0.0
 10
1773.586427940303
 20
371.4412083191301
 30
0.0
 10
1773.659421316865
 20
371.2659001103968
 30
0.0
  0
SPLINE
  5
240
330
1A7
100
AcDbEntity
  8
P-SANR-FIXT
100
AcDbSpline
210
0.0
220
0.0
230
1.0
 70
     8
 71
     3
 72
     8
 73
     4
 74
     0
 42
0.000000001
 43
0.0000000001
 40
-0.8518518518518519
 40
-0.8518518518518519
 40
-0.8518518518518519
 40
-0.8518518518518519
 40
-0.8434990081402565
 40
-0.8434990081402565
 40
-0.8434990081402565
 40
-0.8434990081402565
 10
1774.048974353702
 20
370.4178670423238
 30
0.0
 10
1774.100161232691
 20
370.3161616572174
 30
0.0
 10
1774.152748925814
 20
370.214940458716
 30
0.0
 10
1774.2066939375
 20
370.1142901560465
 30
0.0
  0
SPLINE
  5
241
330
1A7
100
AcDbEntity
  8
P-SANR-FIXT
100
AcDbSpline
210
0.0
220
0.0
230
1.0
 70
     8
 71
     3
 72
     8
 73
     4
 74
     0
 42
0.000000001
 43
0.0000000001
 40
-0.8148148148148148
 40
-0.8148148148148148
 40
-0.8148148148148148
 40
-0.8148148148148148
 40
-0.8125811385182151
 40
-0.8125811385182151
 40
-0.8125811385182151
 40
-0.8125811385182151
 10
1774.808703948482
 20
369.1010804957014
 30
0.0
 10
1774.825485397569
 20
369.0754870618666
 30
0.0
 10
1774.842353228297
 20
369.0499557466684
 30
0.0
 10
1774.8593066089
 20
369.024488208255
 30
0.0
  0
SPLINE
  5
242
330
1A7
100
AcDbEntity
  8
P-SANR-FIXT
100
AcDbSpline
210
0.0
220
0.0
230
1.0
 70
     8
 71
     3
 72
     8
 73
     4
 74
     0
 42
0.000000001
 43
0.0000000001
 40
-0.781088770369268
 40
-0.781088770369268
 40
-0.781088770369268
 40
-0.781088770369268
 40
-0.7777777777777778
 40
-0.7777777777777778
 40
-0.7777777777777778
 40
-0.7777777777777778
 10
1775.625162637214
 20
367.9897509895902
 30
0.0
 10
1775.653654373754
 20
367.955084408704
 30
0.0
 10
1775.682317994766
 20
367.9205873574874
 30
0.0
 10
1775.711153820692
 20
367.8862583597109
 30
0.0
  0
SPLINE
  5
243
330
1A7
100
AcDbEntity
  8
P-SANR-FIXT
100
AcDbSpline
210
0.0
220
0.0
230
1.0
 70
     8
 71
     3
 72
     8
 73
     4
 74
     0
 42
0.000000001
 43
0.0000000001
 40
-0.7494205277416178
 40
-0.7494205277416178
 40
-0.7494205277416178
 40
-0.7494205277416178
 40
-0.7407407407407407
 40
-0.7407407407407407
 40
-0.7407407407407407
 40
-0.7407407407407407
 10
1776.490149772655
 20
367.0402720957998
 30
0.0
 10
1776.573537402519
 20
366.95754085484
 30
0.0
 10
1776.658127335534
 20
366.8758776386385
 30
0.0
 10
1776.74392534478
 20
366.7952558515764
 30
0.0
  0
SPLINE
  5
244
330
1A7
100
AcDbEntity
  8
P-SANR-FIXT
100
AcDbSpline
210
0.0
220
0.0
230
1.0
 70
     8
 71
     3
 72
     8
 73
     4
 74
     0
 42
0.000000001
 43
0.0000000001
 40
-0.7191134019009649
 40
-0.7191134019009649
 40
-0.7191134019009649
 40
-0.7191134019009649
 40
-0.6878108836404495
 40
-0.6878108836404495
 40
-0.6878108836404495
 40
-0.6878108836404495
 10
1777.407852594904
 20
366.2115973744366
 30
0.0
 10
1777.739019097824
 20
365.9390596737605
 30
0.0
 10
1778.085143291082
 20
365.6801437551605
 30
0.0
 10
1778.437015840848
 20
365.4430563429737
 30
0.0
  0
SPLINE
  5
245
330
1A7
100
AcDbEntity
  8
P-SANR-FIXT
100
AcDbSpline
210
0.0
220
0.0
230
1.0
 70
     8
 71
     3
 72
     8
 73
     4
 74
     0
 42
0.000000001
 43
0.0000000001
 40
-0.6666666666666668
 40
-0.6666666666666668
 40
-0.6666666666666668
 40
-0.6666666666666668
 40
-0.6562789591919018
 40
-0.6562789591919018
 40
-0.6562789591919018
 40
-0.6562789591919018
 10
1779.160471059531
 20
364.9910289642812
 30
0.0
 10
1779.281103146232
 20
364.9213895944957
 30
0.0
 10
1779.403019932543
 20
364.8537719040107
 30
0.0
 10
1779.526551378748
 20
364.7879808539575
 30
0.0
  0
SPLINE
  5
246
330
1A7
100
AcDbEntity
  8
P-SANR-FIXT
100
AcDbSpline
210
0.0
220
0.0
230
1.0
 70
     8
 71
     3
 72
     8
 73
     4
 74
     0
 42
0.000000001
 43
0.0000000001
 40
-0.6296296296296297
 40
-0.6296296296296297
 40
-0.6296296296296297
 40
-0.6296296296296297
 40
-0.6248266455710241
 40
-0.6248266455710241
 40
-0.6248266455710241
 40
-0.6248266455710241
 10
1780.508233877932
 20
364.3175693823318
 30
0.0
 10
1780.568833692015
 20
364.2915470385021
 30
0.0
 10
1780.629679069762
 20
364.2659446732441
 30
0.0
 10
1780.690744404612
 20
364.2407713177625
 30
0.0
  0
SPLINE
  5
247
330
1A7
100
AcDbEntity
  8
P-SANR-FIXT
100
AcDbSpline
210
0.0
220
0.0
230
1.0
 70
     8
 71
     3
 72
     8
 73
     4
 74
     0
 42
0.000000001
 43
0.0000000001
 40
-0.5938050947462898
 40
-0.5938050947462898
 40
-0.5938050947462898
 40
-0.5938050947462898
 40
-0.5925925925925926
 40
-0.5925925925925926
 40
-0.5925925925925926
 40
-0.5925925925925926
 10
1781.894600058752
 20
363.8091251834342
 30
0.0
 10
1781.91046348029
 20
363.8042643453736
 30
0.0
 10
1781.926330380018
 20
363.7994345647144
 30
0.0
 10
1781.942200345879
 20
363.7946359868737
 30
0.0
  0
SPLINE
  5
248
330
1A7
100
AcDbEntity
  8
P-SANR-FIXT
100
AcDbSpline
210
0.0
220
0.0
230
1.0
 70
     8
 71
     3
 72
     8
 73
     4
 74
     0
 42
0.000000001
 43
0.0000000001
 40
-0.5624995215164606
 40
-0.5624995215164606
 40
-0.5624995215164606
 40
-0.5624995215164606
 40
-0.5555555555555556
 40
-0.5555555555555556
 40
-0.5555555555555556
 40
-0.5555555555555556
 10
1783.127247315844
 20
363.4964251303779
 30
0.0
 10
1783.218902364927
 20
363.4780579158614
 30
0.0
 10
1783.310772521297
 20
363.4607428617469
 30
0.0
 10
1783.402930415095
 20
363.4444773487033
 30
0.0
  0
SPLINE
  5
249
330
1A7
100
AcDbEntity
  8
P-SANR-FIXT
100
AcDbSpline
210
0.0
220
0.0
230
1.0
 70
     8
 71
     3
 72
     8
 73
     4
 74
     0
 42
0.000000001
 43
0.0000000001
 40
-0.5311146417442272
 40
-0.5311146417442272
 40
-0.5311146417442272
 40
-0.5311146417442272
 40
-0.5185185185185186
 40
-0.5185185185185186
 40
-0.5185185185185186
 40
-0.5185185185185186
 10
1784.387726225783
 20
363.3114235312441
 30
0.0
 10
1784.558635833075
 20
363.2951200671695
 30
0.0
 10
1784.730205115992
 20
363.2821371413925
 30
0.0
 10
1784.902054444306
 20
363.2723861761253
 30
0.0
  0
SPLINE
  5
24A
330
1A7
100
AcDbEntity
  8
P-SANR-FIXT
100
AcDbSpline
210
0.0
220
0.0
230
1.0
 70
     8
 71
     3
 72
     8
 73
     4
 74
     0
 42
0.000000001
 43
0.0000000001
 40
-0.4814814814814815
 40
-0.4814814814814815
 40
-0.4814814814814815
 40
-0.4814814814814815
 40
-0.4688001874345468
 40
-0.4688001874345468
 40
-0.4688001874345468
 40
-0.4688001874345468
 10
1786.419523281513
 20
363.2705643951903
 30
0.0
 10
1786.592436389609
 20
363.2801381100985
 30
0.0
 10
1786.765105719459
 20
363.2931275646547
 30
0.0
 10
1786.937381480536
 20
363.3095991912739
 30
0.0
  0
SPLINE
  5
24B
330
1A7
100
AcDbEntity
  8
P-SANR-FIXT
100
AcDbSpline
210
0.0
220
0.0
230
1.0
 70
     8
 71
     3
 72
     8
 73
     4
 74
     0
 42
0.000000001
 43
0.0000000001
 40
-0.4444444444444445
 40
-0.4444444444444445
 40
-0.4444444444444445
 40
-0.4444444444444445
 40
-0.4374218537534269
 40
-0.4374218537534269
 40
-0.4374218537534269
 40
-0.4374218537534269
 10
1787.924585488333
 20
363.44351051489
 30
0.0
 10
1788.01884259148
 20
363.4601767200109
 30
0.0
 10
1788.112891158825
 20
363.4779496502371
 30
0.0
 10
1788.20671486477
 20
363.4968070230971
 30
0.0
  0
SPLINE
  5
24C
330
1A7
100
AcDbEntity
  8
P-SANR-FIXT
100
AcDbSpline
210
0.0
220
0.0
230
1.0
 70
     8
 71
     3
 72
     8
 73
     4
 74
     0
 42
0.000000001
 43
0.0000000001
 40
-0.4074074074074075
 40
-0.4074074074074075
 40
-0.4074074074074075
 40
-0.4074074074074075
 40
-0.4061332108550825
 40
-0.4061332108550825
 40
-0.4061332108550825
 40
-0.4061332108550825
 10
1789.396090957839
 20
363.796310187852
 30
0.0
 10
1789.41271170572
 20
363.8013397968166
 30
0.0
 10
1789.429322839468
 20
363.8064019014473
 30
0.0
 10
1789.445924253652
 20
363.8114963746875
 30
0.0
  0
SPLINE
  5
24D
330
1A7
100
AcDbEntity
  8
P-SANR-FIXT
100
AcDbSpline
210
0.0
220
0.0
230
1.0
 70
     8
 71
     3
 72
     8
 73
     4
 74
     0
 42
0.000000001
 43
0.0000000001
 40
-0.3751350453130394
 40
-0.3751350453130394
 40
-0.3751350453130394
 40
-0.3751350453130394
 40
-0.3703703703703705
 40
-0.3703703703703705
 40
-0.3703703703703705
 40
-0.3703703703703705
 10
1790.63872587994
 20
364.2390905120192
 30
0.0
 10
1790.698778782163
 20
364.2638058342807
 30
0.0
 10
1790.758647286554
 20
364.2889536472055
 30
0.0
 10
1790.81832237135
 20
364.3145347364814
 30
0.0
  0
SPLINE
  5
24E
330
1A7
100
AcDbEntity
  8
P-SANR-FIXT
100
AcDbSpline
210
0.0
220
0.0
230
1.0
 70
     8
 71
     3
 72
     8
 73
     4
 74
     0
 42
0.000000001
 43
0.0000000001
 40
-0.3436912900948975
 40
-0.3436912900948975
 40
-0.3436912900948975
 40
-0.3436912900948975
 40
-0.3333333333333333
 40
-0.3333333333333333
 40
-0.3333333333333333
 40
-0.3333333333333333
 10
1791.801034393645
 20
364.7850930939835
 30
0.0
 10
1791.925431518348
 20
364.8513107458366
 30
0.0
 10
1792.048651783811
 20
364.9196129182637
 30
0.0
 10
1792.170632787955
 20
364.9899890422203
 30
0.0
  0
SPLINE
  5
24F
330
1A7
100
AcDbEntity
  8
P-SANR-FIXT
100
AcDbSpline
210
0.0
220
0.0
230
1.0
 70
     8
 71
     3
 72
     8
 73
     4
 74
     0
 42
0.000000001
 43
0.0000000001
 40
-0.3121429698507037
 40
-0.3121429698507037
 40
-0.3121429698507037
 40
-0.3121429698507037
 40
-0.2808046086548829
 40
-0.2808046086548829
 40
-0.2808046086548829
 40
-0.2808046086548829
 10
1792.903148674954
 20
365.4475154053038
 30
0.0
 10
1793.256247502392
 20
365.685317184364
 30
0.0
 10
1793.597655681572
 20
365.9405932585707
 30
0.0
 10
1793.92599643478
 20
366.211537513688
 30
0.0
  0
SPLINE
  5
250
330
1A7
100
AcDbEntity
  8
P-SANR-FIXT
100
AcDbSpline
210
0.0
220
0.0
230
1.0
 70
     8
 71
     3
 72
     8
 73
     4
 74
     0
 42
0.000000001
 43
0.0000000001
 40
-0.2592592592592595
 40
-0.2592592592592595
 40
-0.2592592592592595
 40
-0.2592592592592595
 40
-0.250461317119313
 40
-0.250461317119313
 40
-0.250461317119313
 40
-0.250461317119313
 10
1794.585158966984
 20
366.7916386771682
 30
0.0
 10
1794.672282392807
 20
366.8734861641132
 30
0.0
 10
1794.758221592157
 20
366.9565406108753
 30
0.0
 10
1794.842975870103
 20
367.0407636717683
 30
0.0
  0
SPLINE
  5
251
330
1A7
100
AcDbEntity
  8
P-SANR-FIXT
100
AcDbSpline
210
0.0
220
0.0
230
1.0
 70
     8
 71
     3
 72
     8
 73
     4
 74
     0
 42
0.000000001
 43
0.0000000001
 40
-0.2222222222222222
 40
-0.2222222222222222
 40
-0.2222222222222222
 40
-0.2222222222222222
 40
-0.2187770070776116
 40
-0.2187770070776116
 40
-0.2187770070776116
 40
-0.2187770070776116
 10
1795.622447452531
 20
367.8866163623275
 30
0.0
 10
1795.652531703789
 20
367.9224401929848
 30
0.0
 10
1795.682443239233
 20
367.9584214887364
 30
0.0
 10
1795.712176146296
 20
367.994560495794
 30
0.0
  0
SPLINE
  5
252
330
1A7
100
AcDbEntity
  8
P-SANR-FIXT
100
AcDbSpline
210
0.0
220
0.0
230
1.0
 70
     8
 71
     3
 72
     8
 73
     4
 74
     0
 42
0.000000001
 43
0.0000000001
 40
-0.1872984419506179
 40
-0.1872984419506179
 40
-0.1872984419506179
 40
-0.1872984419506179
 40
-0.1851851851851856
 40
-0.1851851851851856
 40
-0.1851851851851856
 40
-0.1851851851851856
 10
1796.474230612402
 20
369.0264399608106
 30
0.0
 10
1796.490140528351
 20
369.0503975173004
 30
0.0
 10
1796.505988490802
 20
369.0744049958133
 30
0.0
 10
1796.521769969596
 20
369.0984635773855
 30
0.0
  0
SPLINE
  5
253
330
1A7
100
AcDbEntity
  8
P-SANR-FIXT
100
AcDbSpline
210
0.0
220
0.0
230
1.0
 70
     8
 71
     3
 72
     8
 73
     4
 74
     0
 42
0.000000001
 43
0.0000000001
 40
-0.1564280082183569
 40
-0.1564280082183569
 40
-0.1564280082183569
 40
-0.1564280082183569
 40
-0.1481481481481486
 40
-0.1481481481481486
 40
-0.1481481481481486
 40
-0.1481481481481486
 10
1797.122290712172
 20
370.1101299799421
 30
0.0
 10
1797.175777355694
 20
370.2098322422781
 30
0.0
 10
1797.227484940559
 20
370.3103869464813
 30
0.0
 10
1797.277658715692
 20
370.4116203763817
 30
0.0
  0
SPLINE
  5
254
330
1A7
100
AcDbEntity
  8
P-SANR-FIXT
100
AcDbSpline
210
0.0
220
0.0
230
1.0
 70
     8
 71
     3
 72
     8
 73
     4
 74
     0
 42
0.000000001
 43
0.0000000001
 40
-0.1251591761391462
 40
-0.1251591761391462
 40
-0.1251591761391462
 40
-0.1251591761391462
 40
-0.1111111111111111
 40
-0.1111111111111111
 40
-0.1111111111111111
 40
-0.1111111111111111
 10
1797.672528711616
 20
371.2644798063495
 30
0.0
 10
1797.746170654417
 20
371.4404396861815
 30
0.0
 10
1797.814059440257
 20
371.6180537748134
 30
0.0
 10
1797.880843229592
 20
371.7953104045601
 30
0.0
  0
SPLINE
  5
255
330
1A7
100
AcDbEntity
  8
P-SANR-FIXT
100
AcDbSpline
210
0.0
220
0.0
230
1.0
 70
     8
 71
     3
 72
     8
 73
     4
 74
     0
 42
0.000000001
 43
0.0000000001
 40
-0.0740740740740746
 40
-0.0740740740740746
 40
-0.0740740740740746
 40
-0.0740740740740746
 40
-0.0618071435877423
 40
-0.0618071435877423
 40
-0.0618071435877423
 40
-0.0618071435877423
 10
1798.307675424226
 20
373.2210898209102
 30
0.0
 10
1798.345324809154
 20
373.3811133913357
 30
0.0
 10
1798.382405738075
 20
373.5412090359545
 30
0.0
 10
1798.414102080894
 20
373.7034115464887
 30
0.0
  0
SPLINE
  5
256
330
1A7
100
AcDbEntity
  8
P-SANR-FIXT
100
AcDbSpline
210
0.0
220
0.0
230
1.0
 70
     8
 71
     3
 72
     8
 73
     4
 74
     0
 42
0.000000001
 43
0.0000000001
 40
-0.0370370370370377
 40
-0.0370370370370377
 40
-0.0370370370370377
 40
-0.0370370370370377
 40
-0.0305656871433907
 40
-0.0305656871433907
 40
-0.0305656871433907
 40
-0.0305656871433907
 10
1798.567757488394
 20
374.7019079370641
 30
0.0
 10
1798.578242866873
 20
374.7900592277388
 30
0.0
 10
1798.586530823272
 20
374.8790276636448
 30
0.0
 10
1798.593339092706
 20
374.968547289239
 30
0.0
  0
ENDBLK
  5
258
330
1A7
100
AcDbEntity
  8
0
100
AcDbBlockEnd
  0
BLOCK
  5
2F6
330
25A
100
AcDbEntity
  8
0
100
AcDbBlockBegin
  2
Automatic flow rate regulator valve_Caleffi_121 DN15 - 1_2__-V2-Est - Idraulica
 70
     0
 10
0.0
 20
0.0
 30
0.0
  3
Automatic flow rate regulator valve_Caleffi_121 DN15 - 1_2__-V2-Est - Idraulica
  1

  0
LINE
  5
25B
330
25A
100
AcDbEntity
  8
M-PIPE
100
AcDbLine
 10
2941.216495598194
 20
2488.984043225002
 30
0.0
 11
2950.165424770633
 21
2488.984043225002
 31
0.0
1001
REVIT
1002
{
1070
     3
1000
790271
1002
}
  0
LINE
  5
25C
330
25A
100
AcDbEntity
  8
M-PIPE
100
AcDbLine
 10
2950.165424770633
 20
2488.984043225002
 30
0.0
 11
2968.063283115511
 21
2488.984043225002
 31
0.0
1001
REVIT
1002
{
1070
     3
1000
790271
1002
}
  0
LINE
  5
25D
330
25A
100
AcDbEntity
  8
M-PIPE
100
AcDbLine
 10
2968.063283115511
 20
2488.984043225002
 30
0.0
 11
2977.012212287951
 21
2488.984043225002
 31
0.0
1001
REVIT
1002
{
1070
     3
1000
790271
1002
}
  0
LINE
  5
25E
330
25A
100
AcDbEntity
  8
M-PIPE
100
AcDbLine
 10
2977.012212287951
 20
2488.984043225002
 30
0.0
 11
2977.012212287951
 21
2478.484043225003
 31
0.0
1001
REVIT
1002
{
1070
     3
1000
790271
1002
}
  0
LINE
  5
25F
330
25A
100
AcDbEntity
  8
M-PIPE
100
AcDbLine
 10
2941.216495598194
 20
2478.484043225003
 30
0.0
 11
2941.216495598194
 21
2488.984043225002
 31
0.0
1001
REVIT
1002
{
1070
     3
1000
790271
1002
}
  0
LINE
  5
260
330
25A
100
AcDbEntity
  8
M-PIPE
100
AcDbLine
 10
2950.165424770633
 20
2478.484043225003
 30
0.0
 11
2950.165424770633
 21
2488.984043225002
 31
0.0
1001
REVIT
1002
{
1070
     3
1000
790271
1002
}
  0
LINE
  5
261
330
25A
100
AcDbEntity
  8
M-PIPE
100
AcDbLine
 10
2968.063283115511
 20
2478.484043225003
 30
0.0
 11
2968.063283115511
 21
2488.984043225002
 31
0.0
1001
REVIT
1002
{
1070
     3
1000
790271
1002
}
  0
LINE
  5
262
330
25A
100
AcDbEntity
  8
M-PIPE
100
AcDbLine
 10
2987.364353943077
 20
2360.984043225005
 30
0.0
 11
2990.6469062753
 21
2454.984043225004
 31
0.0
1001
REVIT
1002
{
1070
     3
1000
790271
1002
}
  0
LINE
  5
263
330
25A
100
AcDbEntity
  8
M-PIPE
100
AcDbLine
 10
2893.581801610853
 20
2454.984043225004
 30
0.0
 11
2896.864353943077
 21
2360.984043225003
 31
0.0
1001
REVIT
1002
{
1070
     3
1000
790271
1002
}
  0
LINE
  5
264
330
25A
100
AcDbEntity
  8
M-PIPE
100
AcDbLine
 10
3001.91081466067
 20
2454.984043225004
 30
0.0
 11
3001.91081466067
 21
2468.984043225004
 31
0.0
1001
REVIT
1002
{
1070
     3
1000
790271
1002
}
  0
LINE
  5
265
330
25A
100
AcDbEntity
  8
M-PIPE
100
AcDbLine
 10
2882.317893225461
 20
2468.984043225004
 30
0.0
 11
2882.317893225461
 21
2454.984043225004
 31
0.0
1001
REVIT
1002
{
1070
     3
1000
790271
1002
}
  0
LINE
  5
266
330
25A
100
AcDbEntity
  8
M-PIPE
100
AcDbLine
 10
2952.114353943067
 20
2454.984043225004
 30
0.0
 11
2952.114353943067
 21
2468.984043225004
 31
0.0
1001
REVIT
1002
{
1070
     3
1000
790271
1002
}
  0
LINE
  5
267
330
25A
100
AcDbEntity
  8
M-PIPE
100
AcDbLine
 10
2932.114353943065
 20
2468.984043225004
 30
0.0
 11
2932.114353943065
 21
2454.984043225004
 31
0.0
1001
REVIT
1002
{
1070
     3
1000
790271
1002
}
  0
LINE
  5
268
330
25A
100
AcDbEntity
  8
M-PIPE
100
AcDbLine
 10
2985.614353943077
 20
2468.984043225004
 30
0.0
 11
2985.614353943077
 21
2478.484043225004
 31
0.0
1001
REVIT
1002
{
1070
     3
1000
790271
1002
}
  0
LINE
  5
269
330
25A
100
AcDbEntity
  8
M-PIPE
100
AcDbLine
 10
2932.614353943077
 20
2478.484043225004
 30
0.0
 11
2932.614353943077
 21
2468.984043225004
 31
0.0
1001
REVIT
1002
{
1070
     3
1000
790271
1002
}
  0
LINE
  5
26A
330
25A
100
AcDbEntity
  8
M-PIPE
100
AcDbLine
 10
2969.964353943076
 20
2488.984043225004
 30
0.0
 11
2969.964353943076
 21
2498.98404322507
 31
0.0
1001
REVIT
1002
{
1070
     3
1000
790271
1002
}
  0
LINE
  5
26B
330
25A
100
AcDbEntity
  8
M-PIPE
100
AcDbLine
 10
2948.264353943077
 20
2498.98404322507
 30
0.0
 11
2948.264353943077
 21
2488.984043225004
 31
0.0
1001
REVIT
1002
{
1070
     3
1000
790271
1002
}
  0
LINE
  5
26C
330
25A
100
AcDbEntity
  8
M-PIPE
100
AcDbLine
 10
2965.208364710648
 20
2340.984043225003
 30
0.0
 11
2953.661359326856
 21
2340.984043225002
 31
0.0
1001
REVIT
1002
{
1070
     3
1000
790271
1002
}
  0
LINE
  5
26D
330
25A
100
AcDbEntity
  8
M-PIPE
100
AcDbLine
 10
2953.661359326856
 20
2340.984043225002
 30
0.0
 11
2948.464353943093
 21
2340.984043225002
 31
0.0
1001
REVIT
1002
{
1070
     3
1000
790271
1002
}
  0
LINE
  5
26E
330
25A
100
AcDbEntity
  8
M-PIPE
100
AcDbLine
 10
2942.114353943092
 20
2340.984043225002
 30
0.0
 11
2930.56734855927
 21
2340.984043225002
 31
0.0
1001
REVIT
1002
{
1070
     3
1000
790271
1002
}
  0
LINE
  5
26F
330
25A
100
AcDbEntity
  8
M-PIPE
100
AcDbLine
 10
2930.56734855927
 20
2340.984043225002
 30
0.0
 11
2919.020343175478
 21
2340.984043225002
 31
0.0
1001
REVIT
1002
{
1070
     3
1000
790271
1002
}
  0
LINE
  5
270
330
25A
100
AcDbEntity
  8
M-PIPE
100
AcDbLine
 10
2965.208364710648
 20
2360.984043225002
 30
0.0
 11
2965.208364710648
 21
2340.984043225003
 31
0.0
1001
REVIT
1002
{
1070
     3
1000
790271
1002
}
  0
LINE
  5
271
330
25A
100
AcDbEntity
  8
M-PIPE
100
AcDbLine
 10
2919.020343175478
 20
2340.984043225002
 30
0.0
 11
2919.020343175477
 21
2360.984043225002
 31
0.0
1001
REVIT
1002
{
1070
     3
1000
790271
1002
}
  0
LINE
  5
272
330
25A
100
AcDbEntity
  8
M-PIPE
100
AcDbLine
 10
2930.56734855927
 20
2340.984043225002
 30
0.0
 11
2930.56734855927
 21
2360.984043225002
 31
0.0
1001
REVIT
1002
{
1070
     3
1000
790271
1002
}
  0
LINE
  5
273
330
25A
100
AcDbEntity
  8
M-PIPE
100
AcDbLine
 10
2953.661359326856
 20
2340.984043225003
 30
0.0
 11
2953.661359326856
 21
2360.984043225002
 31
0.0
1001
REVIT
1002
{
1070
     3
1000
790271
1002
}
  0
LINE
  5
274
330
25A
100
AcDbEntity
  8
M-PIPE
100
AcDbLine
 10
2896.864353943075
 20
2360.984043225002
 30
0.0
 11
2987.364353943075
 21
2360.984043225004
 31
0.0
1001
REVIT
1002
{
1070
     3
1000
790271
1002
}
  0
LINE
  5
275
330
25A
100
AcDbEntity
  8
M-PIPE
100
AcDbLine
 10
2952.106402437643
 20
2468.984043225003
 30
0.0
 11
2986.176688554164
 21
2468.984043225003
 31
0.0
1001
REVIT
1002
{
1070
     3
1000
790271
1002
}
  0
LINE
  5
276
330
25A
100
AcDbEntity
  8
M-PIPE
100
AcDbLine
 10
2986.176688554164
 20
2468.984043225003
 30
0.0
 11
3001.910814660668
 21
2468.984043225003
 31
0.0
1001
REVIT
1002
{
1070
     3
1000
790271
1002
}
  0
LINE
  5
277
330
25A
100
AcDbEntity
  8
M-PIPE
100
AcDbLine
 10
3001.910814660668
 20
2468.984043225003
 30
0.0
 11
3001.909905159456
 21
2468.984043225003
 31
0.0
1001
REVIT
1002
{
1070
     3
1000
790271
1002
}
  0
LINE
  5
278
330
25A
100
AcDbEntity
  8
M-PIPE
100
AcDbLine
 10
2882.318802726685
 20
2468.984043225003
 30
0.0
 11
2882.317893225473
 21
2468.984043225003
 31
0.0
1001
REVIT
1002
{
1070
     3
1000
790271
1002
}
  0
LINE
  5
279
330
25A
100
AcDbEntity
  8
M-PIPE
100
AcDbLine
 10
2882.317893225458
 20
2468.984043225003
 30
0.0
 11
2898.052019331961
 21
2468.984043225003
 31
0.0
1001
REVIT
1002
{
1070
     3
1000
790271
1002
}
  0
LINE
  5
27A
330
25A
100
AcDbEntity
  8
M-PIPE
100
AcDbLine
 10
2898.052019331961
 20
2468.984043225003
 30
0.0
 11
2932.122305448484
 21
2468.984043225003
 31
0.0
1001
REVIT
1002
{
1070
     3
1000
790271
1002
}
  0
LINE
  5
27B
330
25A
100
AcDbEntity
  8
M-PIPE
100
AcDbLine
 10
2932.114353943063
 20
2468.984043225003
 30
0.0
 11
2952.114353943063
 21
2468.984043225003
 31
0.0
1001
REVIT
1002
{
1070
     3
1000
790271
1002
}
  0
LINE
  5
27C
330
25A
100
AcDbEntity
  8
M-PIPE
100
AcDbLine
 10
2952.114353943063
 20
2454.984043225003
 30
0.0
 11
2932.114353943063
 21
2454.984043225003
 31
0.0
1001
REVIT
1002
{
1070
     3
1000
790271
1002
}
  0
LINE
  5
27D
330
25A
100
AcDbEntity
  8
M-PIPE
100
AcDbLine
 10
2932.122305448485
 20
2454.984043225003
 30
0.0
 11
2898.052019331962
 21
2454.984043225003
 31
0.0
1001
REVIT
1002
{
1070
     3
1000
790271
1002
}
  0
LINE
  5
27E
330
25A
100
AcDbEntity
  8
M-PIPE
100
AcDbLine
 10
2898.052019331962
 20
2454.984043225003
 30
0.0
 11
2882.317893225458
 21
2454.984043225003
 31
0.0
1001
REVIT
1002
{
1070
     3
1000
790271
1002
}
  0
LINE
  5
27F
330
25A
100
AcDbEntity
  8
M-PIPE
100
AcDbLine
 10
2882.317893225473
 20
2454.984043225003
 30
0.0
 11
2882.318802726685
 21
2454.984043225003
 31
0.0
1001
REVIT
1002
{
1070
     3
1000
790271
1002
}
  0
LINE
  5
280
330
25A
100
AcDbEntity
  8
M-PIPE
100
AcDbLine
 10
3001.909905159456
 20
2454.984043225003
 30
0.0
 11
3001.910814660668
 21
2454.984043225003
 31
0.0
1001
REVIT
1002
{
1070
     3
1000
790271
1002
}
  0
LINE
  5
281
330
25A
100
AcDbEntity
  8
M-PIPE
100
AcDbLine
 10
3001.910814660668
 20
2454.984043225003
 30
0.0
 11
2986.176688554164
 21
2454.984043225003
 31
0.0
1001
REVIT
1002
{
1070
     3
1000
790271
1002
}
  0
LINE
  5
282
330
25A
100
AcDbEntity
  8
M-PIPE
100
AcDbLine
 10
2986.176688554164
 20
2454.984043225003
 30
0.0
 11
2952.106402437643
 21
2454.984043225003
 31
0.0
1001
REVIT
1002
{
1070
     3
1000
790271
1002
}
  0
LINE
  5
283
330
25A
100
AcDbEntity
  8
M-PIPE
100
AcDbLine
 10
2986.176688554164
 20
2454.984043225003
 30
0.0
 11
2986.176688554164
 21
2468.984043225003
 31
0.0
1001
REVIT
1002
{
1070
     3
1000
790271
1002
}
  0
LINE
  5
284
330
25A
100
AcDbEntity
  8
M-PIPE
100
AcDbLine
 10
2898.052019331961
 20
2454.984043225003
 30
0.0
 11
2898.052019331961
 21
2468.984043225003
 31
0.0
1001
REVIT
1002
{
1070
     3
1000
790271
1002
}
  0
LINE
  5
285
330
25A
100
AcDbEntity
  8
M-PIPE
100
AcDbLine
 10
2985.614353943074
 20
2478.484043225003
 30
0.0
 11
2932.614353943074
 21
2478.484043225003
 31
0.0
1001
REVIT
1002
{
1070
     3
1000
790271
1002
}
  0
LINE
  5
286
330
25A
100
AcDbEntity
  8
M-PIPE
100
AcDbLine
 10
2969.964353943074
 20
2498.984043225069
 30
0.0
 11
2948.264353943074
 21
2498.984043225069
 31
0.0
1001
REVIT
1002
{
1070
     3
1000
790271
1002
}
  0
LINE
  5
287
330
25A
100
AcDbEntity
  8
M-PIPE
100
AcDbLine
 10
2960.767478943111
 20
2297.888808850013
 30
0.0
 11
2960.767478943111
 21
2332.119277600012
 31
0.0
1001
REVIT
1002
{
1070
     3
1000
790271
1002
}
  0
LINE
  5
288
330
25A
100
AcDbEntity
  8
M-PIPE
100
AcDbLine
 10
2923.461228943077
 20
2332.119277600012
 30
0.0
 11
2923.461228943077
 21
2297.888808850013
 31
0.0
1001
REVIT
1002
{
1070
     3
1000
790271
1002
}
  0
LINE
  5
289
330
25A
100
AcDbEntity
  8
M-PIPE
100
AcDbLine
 10
2960.767478943109
 20
2297.888808850012
 30
0.0
 11
2942.114353943092
 21
2297.888808850012
 31
0.0
1001
REVIT
1002
{
1070
     3
1000
790271
1002
}
  0
LINE
  5
28A
330
25A
100
AcDbEntity
  8
M-PIPE
100
AcDbLine
 10
2935.756810317907
 20
2297.888808850012
 30
0.0
 11
2923.461228943074
 21
2297.888808850012
 31
0.0
1001
REVIT
1002
{
1070
     3
1000
790271
1002
}
  0
LINE
  5
28B
330
25A
100
AcDbEntity
  8
M-PIPE
100
AcDbLine
 10
2960.767478943109
 20
2332.119277600012
 30
0.0
 11
2948.471897568277
 21
2332.119277600012
 31
0.0
1001
REVIT
1002
{
1070
     3
1000
790271
1002
}
  0
LINE
  5
28C
330
25A
100
AcDbEntity
  8
M-PIPE
100
AcDbLine
 10
2942.114353943092
 20
2332.119277600012
 30
0.0
 11
2923.461228943074
 21
2332.119277600012
 31
0.0
1001
REVIT
1002
{
1070
     3
1000
790271
1002
}
  0
LINE
  5
28D
330
25A
100
AcDbEntity
  8
M-PIPE
100
AcDbLine
 10
2956.997166443091
 20
2340.984043225005
 30
0.0
 11
2956.997166443091
 21
2332.119277600012
 31
0.0
1001
REVIT
1002
{
1070
     3
1000
790271
1002
}
  0
LINE
  5
28E
330
25A
100
AcDbEntity
  8
M-PIPE
100
AcDbLine
 10
2935.949691159335
 20
2340.984043225005
 30
0.0
 11
2935.949691159335
 21
2332.119277600012
 31
0.0
1001
REVIT
1002
{
1070
     3
1000
790271
1002
}
  0
LINE
  5
28F
330
25A
100
AcDbEntity
  8
M-PIPE
100
AcDbLine
 10
2927.231541443092
 20
2340.984043225005
 30
0.0
 11
2927.231541443092
 21
2332.119277600012
 31
0.0
1001
REVIT
1002
{
1070
     3
1000
790271
1002
}
  0
LINE
  5
290
330
25A
100
AcDbEntity
  8
M-PIPE
100
AcDbLine
 10
2958.485447693091
 20
2285.982558850012
 30
0.0
 11
2948.895483005223
 21
2285.982558850012
 31
0.0
1001
REVIT
1002
{
1070
     3
1000
790271
1002
}
  0
LINE
  5
291
330
25A
100
AcDbEntity
  8
M-PIPE
100
AcDbLine
 10
2948.895483005223
 20
2285.982558850012
 30
0.0
 11
2942.114353943092
 21
2285.982558850012
 31
0.0
1001
REVIT
1002
{
1070
     3
1000
790271
1002
}
  0
LINE
  5
292
330
25A
100
AcDbEntity
  8
M-PIPE
100
AcDbLine
 10
2935.764353943092
 20
2285.982558850012
 30
0.0
 11
2935.33322488096
 21
2285.982558850012
 31
0.0
1001
REVIT
1002
{
1070
     3
1000
790271
1002
}
  0
LINE
  5
293
330
25A
100
AcDbEntity
  8
M-PIPE
100
AcDbLine
 10
2935.33322488096
 20
2285.982558850012
 30
0.0
 11
2925.743260193092
 21
2285.982558850012
 31
0.0
1001
REVIT
1002
{
1070
     3
1000
790271
1002
}
  0
LINE
  5
294
330
25A
100
AcDbEntity
  8
M-PIPE
100
AcDbLine
 10
2958.485447693091
 20
2297.888808850012
 30
0.0
 11
2958.485447693091
 21
2285.982558850012
 31
0.0
1001
REVIT
1002
{
1070
     3
1000
790271
1002
}
  0
LINE
  5
295
330
25A
100
AcDbEntity
  8
M-PIPE
100
AcDbLine
 10
2948.895483005223
 20
2297.888808850012
 30
0.0
 11
2948.895483005223
 21
2285.982558850012
 31
0.0
1001
REVIT
1002
{
1070
     3
1000
790271
1002
}
  0
LINE
  5
296
330
25A
100
AcDbEntity
  8
M-PIPE
100
AcDbLine
 10
2935.33322488096
 20
2297.888808850012
 30
0.0
 11
2935.33322488096
 21
2285.982558850012
 31
0.0
1001
REVIT
1002
{
1070
     3
1000
790271
1002
}
  0
LINE
  5
297
330
25A
100
AcDbEntity
  8
M-PIPE
100
AcDbLine
 10
2925.743260193092
 20
2297.888808850012
 30
0.0
 11
2925.743260193092
 21
2285.982558850012
 31
0.0
1001
REVIT
1002
{
1070
     3
1000
790271
1002
}
  0
ARC
  5
298
330
25A
100
AcDbEntity
  8
M-PIPE
100
AcDbCircle
 10
2942.114353943092
 20
2315.004043225004
 30
0.0
 40
4.762499999999818
100
AcDbArc
 50
90.0
 51
269.9999999999997
1001
REVIT
1002
{
1070
     3
1000
790271
1002
}
  0
ARC
  5
299
330
25A
100
AcDbEntity
  8
M-PIPE
100
AcDbCircle
 10
2942.114353943092
 20
2315.004043225004
 30
0.0
 40
4.762500000000272
100
AcDbArc
 50
269.9999999999997
 51
90.0
1001
REVIT
1002
{
1070
     3
1000
790271
1002
}
  0
ARC
  5
29A
330
25A
100
AcDbEntity
  8
M-PIPE
100
AcDbCircle
 10
2942.114353943092
 20
2315.004043225004
 30
0.0
 40
15.08124999999208
100
AcDbArc
 50
220.2468256002199
 51
245.0989376296169
1001
REVIT
1002
{
1070
     3
1000
790271
1002
}
  0
LWPOLYLINE
  5
29B
330
25A
100
AcDbEntity
  8
M-PIPE
100
AcDbPolyline
 90
       11
 70
   128
 43
0.0
 10
2930.603314402138
 20
2305.260323696566
 10
2928.703508430586
 20
2308.105251721997
 10
2927.49374229962
 20
2311.305149237199
 10
2927.036263152969
 20
2314.695369145967
 10
2927.354610061093
 20
2318.101471529266
 10
2928.432402845013
 20
2321.348199253354
 10
2930.214184899843
 20
2324.268495626758
 10
2932.608276651469
 20
2326.712100112803
 10
2935.491492825026
 20
2328.553279815051
 10
2938.715480803452
 20
2329.697298920829
 10
2942.114353943092
 20
2330.085293224996
1001
REVIT
1002
{
1070
     3
1000
790271
1002
}
  0
ARC
  5
29C
330
25A
100
AcDbEntity
  8
M-PIPE
100
AcDbCircle
 10
2942.114353943092
 20
2315.004043225004
 30
0.0
 40
15.08124999999252
100
AcDbArc
 50
40.24682560021854
 51
65.09893762962241
1001
REVIT
1002
{
1070
     3
1000
790271
1002
}
  0
LWPOLYLINE
  5
29D
330
25A
100
AcDbEntity
  8
M-PIPE
100
AcDbPolyline
 90
       11
 70
   128
 43
0.0
 10
2953.625393484047
 20
2324.747762753441
 10
2955.525199455599
 20
2321.90283472801
 10
2956.734965586566
 20
2318.702937212808
 10
2957.192444733216
 20
2315.31271730404
 10
2956.874097825092
 20
2311.906614920741
 10
2955.796305041171
 20
2308.659887196654
 10
2954.014522986342
 20
2305.73959082325
 10
2951.620431234715
 20
2303.295986337204
 10
2948.737215061159
 20
2301.454806634957
 10
2945.513227082732
 20
2300.310787529179
 10
2942.114353943092
 20
2299.922793225011
1001
REVIT
1002
{
1070
     3
1000
790271
1002
}
  0
LWPOLYLINE
  5
29E
330
25A
100
AcDbEntity
  8
M-PIPE
100
AcDbPolyline
 90
       12
 70
   128
 43
0.0
 10
2942.114353943092
 20
2326.910293224996
 10
2939.400665206849
 20
2326.596915280932
 10
2936.829827527319
 20
2325.673277950293
 10
2934.537172150954
 20
2324.188002346821
 10
2932.643386553374
 20
2322.21927473655
 10
2931.248161340281
 20
2319.870730741264
 10
2930.42494244281
 20
2317.265999864593
 10
2930.217064856547
 20
2314.542197521879
 10
2930.635471447736
 20
2311.842707159331
 10
2931.658136910789
 20
2309.309632418285
 10
2933.231227200514
 20
2307.076316669579
 10
2935.271933405485
 20
2305.260323696567
1001
REVIT
1002
{
1070
     3
1000
790271
1002
}
  0
LWPOLYLINE
  5
29F
330
25A
100
AcDbEntity
  8
M-PIPE
100
AcDbPolyline
 90
       12
 70
   128
 43
0.0
 10
2942.114353943092
 20
2303.097793225012
 10
2944.828042679336
 20
2303.411171169077
 10
2947.398880358866
 20
2304.334808499715
 10
2949.691535735231
 20
2305.820084103188
 10
2951.585321332811
 20
2307.788811713458
 10
2952.980546545904
 20
2310.137355708743
 10
2953.803765443375
 20
2312.742086585416
 10
2954.011643029637
 20
2315.465888928129
 10
2953.593236438448
 20
2318.165379290677
 10
2952.570570975396
 20
2320.698454031723
 10
2950.997480685672
 20
2322.931769780429
 10
2948.9567744807
 20
2324.747762753441
1001
REVIT
1002
{
1070
     3
1000
790271
1002
}
  0
ARC
  5
2A0
330
25A
100
AcDbEntity
  8
M-PIPE
100
AcDbCircle
 10
2942.114353943092
 20
2315.004043225004
 30
0.0
 40
11.90624999999252
100
AcDbArc
 50
234.9219701748856
 51
269.9999999999997
1001
REVIT
1002
{
1070
     3
1000
790271
1002
}
  0
LINE
  5
2A1
330
25A
100
AcDbEntity
  8
M-PIPE
100
AcDbLine
 10
2935.271933405485
 20
2305.260323696567
 30
0.0
 11
2930.603314402138
 21
2305.260323696566
 31
0.0
1001
REVIT
1002
{
1070
     3
1000
790271
1002
}
  0
ARC
  5
2A2
330
25A
100
AcDbEntity
  8
M-PIPE
100
AcDbCircle
 10
2942.114353943092
 20
2315.004043225004
 30
0.0
 40
11.90624999999215
100
AcDbArc
 50
54.92197017488454
 51
90.0
1001
REVIT
1002
{
1070
     3
1000
790271
1002
}
  0
LINE
  5
2A3
330
25A
100
AcDbEntity
  8
M-PIPE
100
AcDbLine
 10
2948.9567744807
 20
2324.747762753441
 30
0.0
 11
2953.625393484047
 21
2324.747762753441
 31
0.0
1001
REVIT
1002
{
1070
     3
1000
790271
1002
}
  0
LINE
  5
2A4
330
25A
100
AcDbEntity
  8
M-PIPE
100
AcDbLine
 10
2942.114353943092
 20
2281.666543225004
 30
0.0
 11
2942.114353943092
 21
2303.097793225012
 31
0.0
1001
REVIT
1002
{
1070
     3
1000
790271
1002
}
  0
LINE
  5
2A5
330
25A
100
AcDbEntity
  8
M-PIPE
100
AcDbLine
 10
2942.114353943092
 20
2348.34154322502
 30
0.0
 11
2942.114353943092
 21
2326.910293224996
 31
0.0
1001
REVIT
1002
{
1070
     3
1000
790271
1002
}
  0
LINE
  5
2A6
330
25A
100
AcDbEntity
  8
M-PIPE
100
AcDbLine
 10
2935.764353943092
 20
2301.324803422944
 30
0.0
 11
2935.764353943092
 21
2281.666543225004
 31
0.0
1001
REVIT
1002
{
1070
     3
1000
790271
1002
}
  0
LINE
  5
2A7
330
25A
100
AcDbEntity
  8
M-PIPE
100
AcDbLine
 10
2935.764353943092
 20
2281.666543225004
 30
0.0
 11
2942.114353943092
 21
2281.666543225004
 31
0.0
1001
REVIT
1002
{
1070
     3
1000
790271
1002
}
  0
LINE
  5
2A8
330
25A
100
AcDbEntity
  8
M-PIPE
100
AcDbLine
 10
2948.464353943092
 20
2328.683283027065
 30
0.0
 11
2948.464353943092
 21
2348.34154322502
 31
0.0
1001
REVIT
1002
{
1070
     3
1000
790271
1002
}
  0
LINE
  5
2A9
330
25A
100
AcDbEntity
  8
M-PIPE
100
AcDbLine
 10
2948.464353943092
 20
2348.34154322502
 30
0.0
 11
2942.114353943092
 21
2348.34154322502
 31
0.0
1001
REVIT
1002
{
1070
     3
1000
790271
1002
}
  0
LINE
  5
2AA
330
25A
100
AcDbEntity
  8
M-PIPE
100
AcDbLine
 10
2979.114353943073
 20
1092.982558850012
 30
0.0
 11
3001.114353943073
 21
1092.982558850012
 31
0.0
1001
REVIT
1002
{
1070
     3
1000
790271
1002
}
  0
LINE
  5
2AB
330
25A
100
AcDbEntity
  8
M-PIPE
100
AcDbLine
 10
3001.114353943073
 20
1120.982558850012
 30
0.0
 11
2979.114353943073
 21
1120.982558850012
 31
0.0
1001
REVIT
1002
{
1070
     3
1000
790271
1002
}
  0
LINE
  5
2AC
330
25A
100
AcDbEntity
  8
M-PIPE
100
AcDbLine
 10
2979.11435394307
 20
1120.982558850012
 30
0.0
 11
2979.11435394307
 21
1092.982558850012
 31
0.0
1001
REVIT
1002
{
1070
     3
1000
790271
1002
}
  0
LINE
  5
2AD
330
25A
100
AcDbEntity
  8
M-PIPE
100
AcDbLine
 10
3001.11435394307
 20
1092.982558850012
 30
0.0
 11
3001.114353943071
 21
1120.982558850012
 31
0.0
1001
REVIT
1002
{
1070
     3
1000
790271
1002
}
  0
LINE
  5
2AE
330
25A
100
AcDbEntity
  8
M-PIPE
100
AcDbLine
 10
2970.085366810812
 20
1096.482558850012
 30
0.0
 11
2979.114353943073
 21
1096.482558850012
 31
0.0
1001
REVIT
1002
{
1070
     3
1000
790271
1002
}
  0
LINE
  5
2AF
330
25A
100
AcDbEntity
  8
M-PIPE
100
AcDbLine
 10
2979.114353943073
 20
1117.482558850012
 30
0.0
 11
2970.085366810812
 21
1117.482558850012
 31
0.0
1001
REVIT
1002
{
1070
     3
1000
790271
1002
}
  0
LINE
  5
2B0
330
25A
100
AcDbEntity
  8
M-PIPE
100
AcDbLine
 10
2967.114353943058
 20
1065.982558850012
 30
0.0
 11
2959.792023472722
 21
1065.982558850012
 31
0.0
1001
REVIT
1002
{
1070
     3
1000
790271
1002
}
  0
LINE
  5
2B1
330
25A
100
AcDbEntity
  8
M-PIPE
100
AcDbLine
 10
2959.792023472722
 20
1065.982558850012
 30
0.0
 11
2942.114353943058
 21
1065.982558850012
 31
0.0
1001
REVIT
1002
{
1070
     3
1000
790271
1002
}
  0
LINE
  5
2B2
330
25A
100
AcDbEntity
  8
M-PIPE
100
AcDbLine
 10
2942.114353943058
 20
1065.982558850012
 30
0.0
 11
2924.436684413394
 21
1065.982558850012
 31
0.0
1001
REVIT
1002
{
1070
     3
1000
790271
1002
}
  0
LINE
  5
2B3
330
25A
100
AcDbEntity
  8
M-PIPE
100
AcDbLine
 10
2924.436684413394
 20
1065.982558850012
 30
0.0
 11
2917.114353943058
 21
1065.982558850011
 31
0.0
1001
REVIT
1002
{
1070
     3
1000
790271
1002
}
  0
LINE
  5
2B4
330
25A
100
AcDbEntity
  8
M-PIPE
100
AcDbLine
 10
2967.114353943058
 20
1083.982558850012
 30
0.0
 11
2967.114353943058
 21
1065.982558850012
 31
0.0
1001
REVIT
1002
{
1070
     3
1000
790271
1002
}
  0
LINE
  5
2B5
330
25A
100
AcDbEntity
  8
M-PIPE
100
AcDbLine
 10
2959.792023472722
 20
1083.982558850012
 30
0.0
 11
2959.792023472722
 21
1065.982558850012
 31
0.0
1001
REVIT
1002
{
1070
     3
1000
790271
1002
}
  0
LINE
  5
2B6
330
25A
100
AcDbEntity
  8
M-PIPE
100
AcDbLine
 10
2942.114353943058
 20
1083.982558850012
 30
0.0
 11
2942.114353943058
 21
1065.982558850012
 31
0.0
1001
REVIT
1002
{
1070
     3
1000
790271
1002
}
  0
LINE
  5
2B7
330
25A
100
AcDbEntity
  8
M-PIPE
100
AcDbLine
 10
2924.436684413394
 20
1083.982558850012
 30
0.0
 11
2924.436684413394
 21
1065.982558850012
 31
0.0
1001
REVIT
1002
{
1070
     3
1000
790271
1002
}
  0
LINE
  5
2B8
330
25A
100
AcDbEntity
  8
M-PIPE
100
AcDbLine
 10
2917.114353943058
 20
1083.982558850012
 30
0.0
 11
2917.114353943058
 21
1065.982558850012
 31
0.0
1001
REVIT
1002
{
1070
     3
1000
790271
1002
}
  0
LINE
  5
2B9
330
25A
100
AcDbEntity
  8
M-PIPE
100
AcDbLine
 10
2914.114353943061
 20
1129.982558850012
 30
0.0
 11
2914.11435394306
 21
1083.982558850012
 31
0.0
1001
REVIT
1002
{
1070
     3
1000
790271
1002
}
  0
LINE
  5
2BA
330
25A
100
AcDbEntity
  8
M-PIPE
100
AcDbLine
 10
2970.114353943085
 20
1083.982558850011
 30
0.0
 11
2970.114353943085
 21
1096.572387805587
 31
0.0
1001
REVIT
1002
{
1070
     3
1000
790271
1002
}
  0
LINE
  5
2BB
330
25A
100
AcDbEntity
  8
M-PIPE
100
AcDbLine
 10
2970.114353943085
 20
1117.392729894437
 30
0.0
 11
2970.114353943085
 21
1129.982558850012
 31
0.0
1001
REVIT
1002
{
1070
     3
1000
790271
1002
}
  0
LINE
  5
2BC
330
25A
100
AcDbEntity
  8
M-PIPE
100
AcDbLine
 10
2970.114353943083
 20
1129.982558850012
 30
0.0
 11
2914.114353943057
 21
1129.982558850012
 31
0.0
1001
REVIT
1002
{
1070
     3
1000
790271
1002
}
  0
LINE
  5
2BD
330
25A
100
AcDbEntity
  8
M-PIPE
100
AcDbLine
 10
2914.114353943057
 20
1083.982558850012
 30
0.0
 11
2970.114353943082
 21
1083.982558850012
 31
0.0
1001
REVIT
1002
{
1070
     3
1000
790271
1002
}
  0
LINE
  5
2BE
330
25A
100
AcDbEntity
  8
M-PIPE
100
AcDbLine
 10
2917.114353943058
 20
1147.982558850012
 30
0.0
 11
2924.436684413394
 21
1147.982558850013
 31
0.0
1001
REVIT
1002
{
1070
     3
1000
790271
1002
}
  0
LINE
  5
2BF
330
25A
100
AcDbEntity
  8
M-PIPE
100
AcDbLine
 10
2924.436684413394
 20
1147.982558850013
 30
0.0
 11
2942.114353943058
 21
1147.982558850013
 31
0.0
1001
REVIT
1002
{
1070
     3
1000
790271
1002
}
  0
LINE
  5
2C0
330
25A
100
AcDbEntity
  8
M-PIPE
100
AcDbLine
 10
2942.114353943058
 20
1147.982558850013
 30
0.0
 11
2959.792023472722
 21
1147.982558850013
 31
0.0
1001
REVIT
1002
{
1070
     3
1000
790271
1002
}
  0
LINE
  5
2C1
330
25A
100
AcDbEntity
  8
M-PIPE
100
AcDbLine
 10
2959.792023472722
 20
1147.982558850013
 30
0.0
 11
2967.114353943058
 21
1147.982558850013
 31
0.0
1001
REVIT
1002
{
1070
     3
1000
790271
1002
}
  0
LINE
  5
2C2
330
25A
100
AcDbEntity
  8
M-PIPE
100
AcDbLine
 10
2967.114353943058
 20
1147.982558850013
 30
0.0
 11
2967.114353943058
 21
1129.982558850012
 31
0.0
1001
REVIT
1002
{
1070
     3
1000
790271
1002
}
  0
LINE
  5
2C3
330
25A
100
AcDbEntity
  8
M-PIPE
100
AcDbLine
 10
2959.792023472722
 20
1147.982558850013
 30
0.0
 11
2959.792023472722
 21
1129.982558850012
 31
0.0
1001
REVIT
1002
{
1070
     3
1000
790271
1002
}
  0
LINE
  5
2C4
330
25A
100
AcDbEntity
  8
M-PIPE
100
AcDbLine
 10
2942.114353943058
 20
1147.982558850013
 30
0.0
 11
2942.114353943058
 21
1129.982558850012
 31
0.0
1001
REVIT
1002
{
1070
     3
1000
790271
1002
}
  0
LINE
  5
2C5
330
25A
100
AcDbEntity
  8
M-PIPE
100
AcDbLine
 10
2924.436684413394
 20
1147.982558850013
 30
0.0
 11
2924.436684413394
 21
1129.982558850012
 31
0.0
1001
REVIT
1002
{
1070
     3
1000
790271
1002
}
  0
LINE
  5
2C6
330
25A
100
AcDbEntity
  8
M-PIPE
100
AcDbLine
 10
2917.114353943058
 20
1147.982558850013
 30
0.0
 11
2917.114353943058
 21
1129.982558850012
 31
0.0
1001
REVIT
1002
{
1070
     3
1000
790271
1002
}
  0
LWPOLYLINE
  5
2C7
330
25A
100
AcDbEntity
  8
P-SANR-FIXT
100
AcDbPolyline
 90
       40
 70
   128
 43
0.0
 10
2711.120767868659
 20
1346.053353066118
 10
2711.134185922351
 20
1346.453101266413
 10
2711.163578907406
 20
1346.851993131753
 10
2711.208899801313
 20
1347.249390520244
 10
2711.270076100314
 20
1347.644657680839
 10
2711.347009935378
 20
1348.037162270401
 10
2711.439578228782
 20
1348.426276365314
 10
2711.547632891003
 20
1348.811377466036
 10
2711.671001057631
 20
1349.191849492954
 10
2711.809485365919
 20
1349.567083771988
 10
2711.962864270512
 20
1349.936480008339
 10
2712.130892397884
 20
1350.299447246828
 10
2712.313300938876
 20
1350.655404817302
 10
2712.509798078732
 20
1351.003783263582
 10
2712.720069463947
 20
1351.344025254472
 10
2712.943778705159
 20
1351.675586475366
 10
2713.180567915305
 20
1351.99793649904
 10
2713.430058282161
 20
1352.310559634221
 10
2713.691850674361
 20
1352.612955750582
 10
2713.965526279925
 20
1352.904641078845
 10
2714.250647276263
 20
1353.185148984707
 10
2714.546757530606
 20
1353.454030715357
 10
2714.853383329713
 20
1353.710856117386
 10
2715.170034137714
 20
1353.955214324934
 10
2715.496203380866
 20
1354.186714416999
 10
2715.831369257959
 20
1354.404986042817
 10
2716.174995575088
 20
1354.609680014347
 10
2716.526532603448
 20
1354.800468864903
 10
2716.885417958784
 20
1354.977047373021
 10
2717.251077501087
 20
1355.139133050758
 10
2717.622926253091
 20
1355.286466595605
 10
2718.000369336117
 20
1355.418812305321
 10
2718.38280292175
 20
1355.535958455001
 10
2718.769615197833
 20
1355.637717635796
 10
2719.160187347239
 20
1355.723927054724
 10
2719.553894537849
 20
1355.794448795107
 10
2719.950106922143
 20
1355.849170037201
 10
2720.348190644827
 20
1355.888003238694
 10
2720.747508856866
 20
1355.910886274748
 10
2721.119849373359
 20
1355.917820551969
  0
LWPOLYLINE
  5
2C8
330
25A
100
AcDbEntity
  8
P-SANR-FIXT
100
AcDbPolyline
 90
       28
 70
   128
 43
0.0
 10
2827.112174429329
 20
1355.917820551969
 10
2824.725123299286
 20
1355.917820551969
 10
2817.331470276128
 20
1355.917820551969
 10
2810.137443247907
 20
1355.917820551969
 10
2803.154551123226
 20
1355.917820551969
 10
2796.393965039881
 20
1355.917820551969
 10
2789.866500493421
 20
1355.917820551969
 10
2783.582600034671
 20
1355.917820551969
 10
2777.552316563871
 20
1355.917820551969
 10
2771.785297248182
 20
1355.917820551969
 10
2766.290768088277
 20
1355.917820551969
 10
2761.077519158709
 20
1355.917820551969
 10
2756.153890545665
 20
1355.917820551969
 10
2751.527759004606
 20
1355.917820551969
 10
2747.206525359143
 20
1355.917820551969
 10
2743.197102661296
 20
1355.917820551969
 10
2739.505905132082
 20
1355.917820551969
 10
2736.138837900137
 20
1355.917820551969
 10
2733.101287554759
 20
1355.917820551969
 10
2730.398113528526
 20
1355.917820551969
 10
2728.033640323235
 20
1355.917820551969
 10
2726.011650591619
 20
1355.917820551969
 10
2724.335379085913
 20
1355.917820551969
 10
2723.007507482943
 20
1355.917820551969
 10
2722.030160094008
 20
1355.917820551969
 10
2721.404900466439
 20
1355.917820551969
 10
2721.132728882262
 20
1355.917820551969
 10
2721.119849373357
 20
1355.917820551969
  0
LWPOLYLINE
  5
2C9
330
25A
100
AcDbEntity
  8
P-SANR-FIXT
100
AcDbPolyline
 90
        6
 70
   128
 43
0.0
 10
2721.119849373357
 20
1355.917820551969
 10
2721.296621405523
 20
1355.917820551969
 10
2721.826654704478
 20
1355.917820551969
 10
2722.709101330013
 20
1355.917820551969
 10
2723.94254955577
 20
1355.917820551969
 10
2724.790746840775
 20
1355.917820551969
  0
LWPOLYLINE
  5
2CA
330
25A
100
AcDbEntity
  8
P-SANR-FIXT
100
AcDbPolyline
 90
       12
 70
   128
 43
0.0
 10
2740.881287418278
 20
1190.638042126526
 10
2735.169738354561
 20
1205.27882761452
 10
2730.048233184531
 20
1220.136303079957
 10
2725.524965223928
 20
1235.186699731518
 10
2721.607170736579
 20
1250.405940145139
 10
2718.301117357911
 20
1265.769676782758
 10
2715.612094068076
 20
1281.253330943176
 10
2713.54440273071
 20
1296.83213208274
 10
2712.101351210869
 20
1312.481157442928
 10
2711.28524808315
 20
1328.175371921443
 10
2711.097398938466
 20
1343.889668123041
 10
2711.120767868659
 20
1346.053353066115
  0
LWPOLYLINE
  5
2CB
330
25A
100
AcDbEntity
  8
P-SANR-FIXT
100
AcDbPolyline
 90
       31
 70
   128
 43
0.0
 10
2777.847871940917
 20
1165.917820551967
 10
2776.248298573452
 20
1165.949816285528
 10
2774.651284182151
 20
1166.045752299862
 10
2773.05938364936
 20
1166.205475117812
 10
2771.475143676347
 20
1166.428729216942
 10
2769.901098709115
 20
1166.715157438317
 10
2768.339766883832
 20
1167.064301557886
 10
2766.793645998352
 20
1167.475603019536
 10
2765.265209516273
 20
1167.948403828669
 10
2763.756902609913
 20
1168.48194760485
 10
2762.271138248571
 20
1169.075380791852
 10
2760.810293338277
 20
1169.727754023168
 10
2759.376704919258
 20
1170.438023640795
 10
2757.972666427168
 20
1171.205053364861
 10
2756.600424024082
 20
1172.02761611143
 10
2755.262173005116
 20
1172.90439595558
 10
2753.960054286422
 20
1173.833990236595
 10
2752.696150980179
 20
1174.81491180193
 10
2751.472485062058
 20
1175.845591386331
 10
2750.291014136495
 20
1176.924380122331
 10
2749.153628304936
 20
1178.04955217808
 10
2748.062147142083
 20
1179.219307518314
 10
2747.018316784958
 20
1180.431774784024
 10
2746.023807139462
 20
1181.685014286228
 10
2745.080209208877
 20
1182.977021109069
 10
2744.189032548601
 20
1184.305728317241
 10
2743.351702851184
 20
1185.669010262655
 10
2742.569559665519
 20
1187.064685985017
 10
2741.843854253857
 20
1188.490522700898
 10
2741.175747590046
 20
1189.944239375716
 10
2740.881287418277
 20
1190.638042126528
  0
LWPOLYLINE
  5
2CC
330
25A
100
AcDbEntity
  8
P-SANR-FIXT
100
AcDbPolyline
 90
       38
 70
   128
 43
0.0
 10
2921.114353943092
 20
1165.917820551967
 10
2915.943712623675
 20
1165.917820551967
 10
2909.479641891661
 20
1165.917820551967
 10
2903.06777973723
 20
1165.917820551967
 10
2896.718383772036
 20
1165.917820551967
 10
2890.441611675159
 20
1165.917820551967
 10
2884.24750494298
 20
1165.917820551967
 10
2878.145972824931
 20
1165.917820551967
 10
2872.146776470812
 20
1165.917820551967
 10
2866.259513315028
 20
1165.917820551967
 10
2860.493601722746
 20
1165.917820551967
 10
2854.858265922517
 20
1165.917820551967
 10
2849.362521249482
 20
1165.917820551967
 10
2844.015159722755
 20
1165.917820551967
 10
2838.824735980069
 20
1165.917820551967
 10
2833.79955359218
 20
1165.917820551967
 10
2828.947651778927
 20
1165.917820551967
 10
2824.276792548195
 20
1165.917820551967
 10
2819.794448278354
 20
1165.917820551967
 10
2815.507789764057
 20
1165.917820551967
 10
2811.423674744487
 20
1165.917820551967
 10
2807.548636932441
 20
1165.917820551967
 10
2803.888875561792
 20
1165.917820551967
 10
2800.450245470025
 20
1165.917820551967
 10
2797.238247731748
 20
1165.917820551967
 10
2794.258020858155
 20
1165.917820551967
 10
2791.514332576496
 20
1165.917820551967
 10
2789.011572202733
 20
1165.917820551967
 10
2786.753743619569
 20
1165.917820551967
 10
2784.744458871093
 20
1165.917820551967
 10
2782.986932384279
 20
1165.917820551967
 10
2781.483975826587
 20
1165.917820551967
 10
2780.237993607894
 20
1165.917820551967
 10
2779.250979033955
 20
1165.917820551967
 10
2778.524511117538
 20
1165.917820551967
 10
2778.059752052338
 20
1165.917820551967
 10
2777.857445353712
 20
1165.917820551967
 10
2777.847871940917
 20
1165.917820551967
  0
LWPOLYLINE
  5
2CD
330
25A
100
AcDbEntity
  8
P-SANR-FIXT
100
AcDbPolyline
 90
       41
 70
   128
 43
0.0
 10
2777.847871940917
 20
1165.917820551967
 10
2777.979267605695
 20
1165.917820551967
 10
2778.373244394996
 20
1165.917820551967
 10
2779.029172029999
 20
1165.917820551967
 10
2779.946001166413
 20
1165.917820551967
 10
2781.122265073201
 20
1165.917820551967
 10
2782.556081979032
 20
1165.917820551967
 10
2784.245158082724
 20
1165.917820551967
 10
2786.186791222826
 20
1165.917820551967
 10
2788.377875200508
 20
1165.917820551967
 10
2790.814904748812
 20
1165.917820551967
 10
2793.493981140331
 20
1165.917820551967
 10
2796.410818424349
 20
1165.917820551967
 10
2799.560750283431
 20
1165.917820551967
 10
2802.938737498556
 20
1165.917820551967
 10
2806.539376010778
 20
1165.917820551967
 10
2810.356905566571
 20
1165.917820551967
 10
2814.38521893301
 20
1165.917820551967
 10
2818.617871668037
 20
1165.917820551967
 10
2823.048092430193
 20
1165.917820551967
 10
2827.668793811321
 20
1165.917820551967
 10
2832.47258367491
 20
1165.917820551967
 10
2837.451776981931
 20
1165.917820551967
 10
2842.598408085265
 20
1165.917820551967
 10
2847.904243473033
 20
1165.917820551967
 10
2853.360794940471
 20
1165.917820551967
 10
2858.959333169228
 20
1165.917820551967
 10
2864.690901692433
 20
1165.917820551967
 10
2870.546331223116
 20
1165.917820551967
 10
2876.51625432312
 20
1165.917820551967
 10
2882.591120389002
 20
1165.917820551967
 10
2888.761210930958
 20
1165.917820551967
 10
2895.016655120335
 20
1165.917820551967
 10
2901.347445580857
 20
1165.917820551967
 10
2907.743454398282
 20
1165.917820551967
 10
2914.19444932291
 20
1165.917820551967
 10
2920.690110139002
 20
1165.917820551967
 10
2927.220045174919
 20
1165.917820551967
 10
2933.773807927583
 20
1165.917820551967
 10
2940.340913774648
 20
1165.917820551967
 10
2942.114353943095
 20
1165.917820551967
  0
LINE
  5
2CE
330
25A
100
AcDbEntity
  8
P-SANR-FIXT
100
AcDbLine
 10
2942.114353943095
 20
1165.917820551967
 30
0.0
 11
2943.214580079857
 21
1165.917820551967
 31
0.0
  0
LWPOLYLINE
  5
2CF
330
25A
100
AcDbEntity
  8
P-SANR-FIXT
100
AcDbPolyline
 90
        5
 70
   128
 43
0.0
 10
2943.214557819138
 20
1297.486746228862
 10
2943.214580079855
 20
1282.532906714626
 10
2943.214580079855
 20
1251.243864827723
 10
2943.214580079855
 20
1220.543658098347
 10
2943.214580079855
 20
1190.638042126526
  0
LWPOLYLINE
  5
2D0
330
25A
100
AcDbEntity
  8
P-SANR-FIXT
100
AcDbPolyline
 90
        6
 70
   128
 43
0.0
 10
2943.214580079855
 20
1190.638042126528
 10
2943.214580079855
 20
1182.422703321918
 10
2943.214580079855
 20
1175.508780739506
 10
2943.214580079855
 20
1170.278745775361
 10
2943.214580079855
 20
1167.021778630687
 10
2943.214580079855
 20
1165.917820551967
  0
LWPOLYLINE
  5
2D1
330
25A
100
AcDbEntity
  8
P-SANR-FIXT
100
AcDbPolyline
 90
       38
 70
   128
 43
0.0
 10
2714.614353943092
 20
2074.142558850013
 10
2714.622352876482
 20
2074.542452191879
 10
2714.646336880066
 20
2074.941705789704
 10
2714.686267584554
 20
2075.339680922902
 10
2714.742081109336
 20
2075.735740916154
 10
2714.81368816468
 20
2076.129252157963
 10
2714.900974194572
 20
2076.519585114284
 10
2715.003799559985
 20
2076.906115335654
 10
2715.121999762267
 20
2077.288224456173
 10
2715.255385706313
 20
2077.665301182763
 10
2715.403744003064
 20
2078.036742273098
 10
2715.566837310892
 20
2078.401953500673
 10
2715.7444047153
 20
2078.760350605427
 10
2715.936162146316
 20
2079.111360228449
 10
2716.141802832958
 20
2079.454420829221
 10
2716.360997793996
 20
2079.788983583963
 10
2716.593396364249
 20
2080.114513263636
 10
2716.838626755583
 20
2080.430489090197
 10
2717.096296651683
 20
2080.736405569727
 10
2717.365993835683
 20
2081.031773301118
 10
2717.647286849621
 20
2081.316119759008
 10
2717.939725684679
 20
2081.588990049722
 10
2718.242842501107
 20
2081.849947639002
 10
2718.556152376657
 20
2082.098575050376
 10
2718.879154082368
 20
2082.334474533023
 10
2719.211330884411
 20
2082.557268698091
 10
2719.552151370764
 20
2082.766601122445
 10
2719.901070301355
 20
2082.962136918862
 10
2720.257529480325
 20
2083.143563271778
 10
2720.62095864903
 20
2083.31058993773
 10
2720.990776398326
 20
2083.462949709685
 10
2721.366391098705
 20
2083.600398844508
 10
2721.747201846773
 20
2083.722717452905
 10
2722.132599426569
 20
2083.829709851195
 10
2722.521967284178
 20
2083.921204874366
 10
2722.91468251409
 20
2083.997056149897
 10
2723.310116855711
 20
2084.057142331929
 10
2723.70763769845
 20
2084.101367295389
  0
LWPOLYLINE
  5
2D2
330
25A
100
AcDbEntity
  8
P-SANR-FIXT
100
AcDbPolyline
 90
        3
 70
   128
 43
0.0
 10
2724.808312597867
 20
2084.142558850013
 10
2724.627029793075
 20
2084.142558850013
 10
2724.614353943092
 20
2084.142558850013
  0
LINE
  5
2D3
330
25A
100
AcDbEntity
  8
P-SANR-FIXT
100
AcDbLine
 10
2714.614353943092
 20
2074.142558850013
 30
0.0
 11
2714.614353943092
 21
1365.917827128592
 31
0.0
  0
LWPOLYLINE
  5
2D4
330
25A
100
AcDbEntity
  8
P-SANR-FIXT
100
AcDbPolyline
 90
       39
 70
   128
 43
0.0
 10
2723.815207003401
 20
1355.949810065566
 10
2723.417231870203
 20
1355.989740770054
 10
2723.021171876949
 20
1356.045554294836
 10
2722.627660635141
 20
1356.11716135018
 10
2722.237327678821
 20
1356.204447380072
 10
2721.850797457451
 20
1356.307272745485
 10
2721.46868833693
 20
1356.425472947768
 10
2721.091611610341
 20
1356.558858891813
 10
2720.720170520005
 20
1356.707217188564
 10
2720.354959292432
 20
1356.870310496393
 10
2719.996562187677
 20
1357.0478779008
 10
2719.645552564654
 20
1357.239635331816
 10
2719.302491963884
 20
1357.445276018458
 10
2718.967929209142
 20
1357.664470979496
 10
2718.642399529468
 20
1357.89686954975
 10
2718.326423702908
 20
1358.142099941083
 10
2718.020507223378
 20
1358.399769837184
 10
2717.725139491987
 20
1358.669467021184
 10
2717.440793034097
 20
1358.950760035121
 10
2717.167922743384
 20
1359.24319887018
 10
2716.906965154102
 20
1359.546315686607
 10
2716.658337742729
 20
1359.859625562158
 10
2716.422438260082
 20
1360.182627267868
 10
2716.199644095013
 20
1360.514804069911
 10
2715.990311670659
 20
1360.855624556265
 10
2715.794775874243
 20
1361.204543486856
 10
2715.613349521327
 20
1361.561002665826
 10
2715.446322855374
 20
1361.92443183453
 10
2715.29396308342
 20
1362.294249583826
 10
2715.156513948597
 20
1362.669864284205
 10
2715.0341953402
 20
1363.050675032273
 10
2714.92720294191
 20
1363.436072612069
 10
2714.835707918739
 20
1363.825440469678
 10
2714.759856643208
 20
1364.21815569959
 10
2714.699770461175
 20
1364.613590041211
 10
2714.655545497716
 20
1365.011110883949
 10
2714.627252503337
 20
1365.410082279257
 10
2714.614936740793
 20
1365.80986595801
 10
2714.614353943092
 20
1365.917827128592
  0
LWPOLYLINE
  5
2D5
330
25A
100
AcDbEntity
  8
P-SANR-FIXT
100
AcDbPolyline
 90
        3
 70
   128
 43
0.0
 10
2724.737880702207
 20
1355.917827128593
 10
2724.627029793075
 20
1355.917827128593
 10
2724.614353943092
 20
1355.917827128593
  0
LINE
  5
2D6
330
25A
100
AcDbEntity
  8
P-SANR-FIXT
100
AcDbLine
 10
2943.214580079856
 20
1582.443264173869
 30
0.0
 11
2943.214580079856
 21
1857.521853526139
 31
0.0
  0
LWPOLYLINE
  5
2D7
330
25A
100
AcDbEntity
  8
P-SANR-FIXT
100
AcDbPolyline
 90
       40
 70
   128
 43
0.0
 10
2721.119849373359
 20
2084.142558850022
 10
2720.719956031492
 20
2084.150557783412
 10
2720.320702433667
 20
2084.174541786995
 10
2719.922727300469
 20
2084.214472491483
 10
2719.526667307216
 20
2084.270286016265
 10
2719.133156065408
 20
2084.341893071609
 10
2718.742823109087
 20
2084.429179101501
 10
2718.356292887717
 20
2084.532004466914
 10
2717.974183767197
 20
2084.650204669197
 10
2717.597107040608
 20
2084.783590613242
 10
2717.225665950272
 20
2084.931948909992
 10
2716.860454722699
 20
2085.095042217821
 10
2716.502057617943
 20
2085.272609622228
 10
2716.151047994921
 20
2085.464367053245
 10
2715.807987394149
 20
2085.670007739887
 10
2715.473424639408
 20
2085.889202700924
 10
2715.147894959734
 20
2086.121601271178
 10
2714.831919133173
 20
2086.366831662511
 10
2714.526002653644
 20
2086.624501558612
 10
2714.230634922252
 20
2086.894198742611
 10
2713.946288464363
 20
2087.175491756549
 10
2713.673418173649
 20
2087.467930591607
 10
2713.412460584368
 20
2087.771047408034
 10
2713.163833172994
 20
2088.084357283586
 10
2712.927933690347
 20
2088.407358989296
 10
2712.705139525279
 20
2088.739535791339
 10
2712.495807100924
 20
2089.080356277692
 10
2712.300271304509
 20
2089.429275208283
 10
2712.118844951592
 20
2089.785734387253
 10
2711.95181828564
 20
2090.149163555957
 10
2711.799458513685
 20
2090.518981305253
 10
2711.662009378862
 20
2090.894596005632
 10
2711.539690770465
 20
2091.2754067537
 10
2711.432698372175
 20
2091.660804333496
 10
2711.341203349004
 20
2092.050172191106
 10
2711.265352073473
 20
2092.442887421017
 10
2711.20526589144
 20
2092.838321762638
 10
2711.161040927981
 20
2093.235842605377
 10
2711.1327479336
 20
2093.634814000684
 10
2711.120767868659
 20
2094.007026335873
  0
LWPOLYLINE
  5
2D8
330
25A
100
AcDbEntity
  8
P-SANR-FIXT
100
AcDbPolyline
 90
        7
 70
   128
 43
0.0
 10
2724.790746840776
 20
2084.142558850022
 10
2724.335379085913
 20
2084.142558850022
 10
2723.007507482942
 20
2084.142558850022
 10
2722.030160094007
 20
2084.142558850022
 10
2721.404900466439
 20
2084.142558850022
 10
2721.132728882262
 20
2084.142558850022
 10
2721.119849373357
 20
2084.142558850022
  0
LWPOLYLINE
  5
2D9
330
25A
100
AcDbEntity
  8
P-SANR-FIXT
100
AcDbPolyline
 90
       27
 70
   128
 43
0.0
 10
2721.119849373357
 20
2084.142558850022
 10
2721.296621405523
 20
2084.142558850022
 10
2721.826654704478
 20
2084.142558850022
 10
2722.709101330013
 20
2084.142558850022
 10
2723.94254955577
 20
2084.142558850022
 10
2725.525026127711
 20
2084.142558850022
 10
2727.453999420898
 20
2084.142558850022
 10
2729.726383489554
 20
2084.142558850022
 10
2732.338543003918
 20
2084.142558850022
 10
2735.286299065998
 20
2084.142558850022
 10
2738.564935894917
 20
2084.142558850022
 10
2742.169208371152
 20
2084.142558850022
 10
2746.093350427614
 20
2084.142558850022
 10
2750.331084274116
 20
2084.142558850022
 10
2754.875630440507
 20
2084.142558850022
 10
2759.71971862237
 20
2084.142558850022
 10
2764.855599311966
 20
2084.142558850022
 10
2770.275056195789
 20
2084.142558850022
 10
2775.969419298912
 20
2084.142558850022
 10
2781.929578855103
 20
2084.142558850022
 10
2788.145999880506
 20
2084.142558850022
 10
2794.608737427577
 20
2084.142558850022
 10
2801.307452494888
 20
2084.142558850022
 10
2808.231428567311
 20
2084.142558850022
 10
2815.369588760169
 20
2084.142558850022
 10
2822.710513539878
 20
2084.142558850022
 10
2827.17831581109
 20
2084.142558850022
  0
LWPOLYLINE
  5
2DA
330
25A
100
AcDbEntity
  8
P-SANR-FIXT
100
AcDbPolyline
 90
       12
 70
   128
 43
0.0
 10
2711.120767868659
 20
2094.007026335873
 10
2711.222074000428
 20
2109.722118746685
 10
2711.951735180287
 20
2125.420589594998
 10
2713.308584106002
 20
2141.077324676281
 10
2715.290450108736
 20
2156.667276554331
 10
2717.89416262566
 20
2172.165504631823
 10
2721.115556272176
 20
2187.547215049942
 10
2724.949477505645
 20
2202.787800353279
 10
2729.389792869951
 20
2217.862878856498
 10
2734.42939880773
 20
2232.748333649839
 10
2740.060233024539
 20
2247.420351181029
 10
2740.881287418277
 20
2249.422337275461
  0
LWPOLYLINE
  5
2DB
330
25A
100
AcDbEntity
  8
P-SANR-FIXT
100
AcDbPolyline
 90
       31
 70
   128
 43
0.0
 10
2740.881287418277
 20
2249.422337275461
 10
2741.521884908756
 20
2250.88838418469
 10
2742.220596229355
 20
2252.327641345638
 10
2742.976303591012
 20
2253.737806253869
 10
2743.787798023159
 20
2255.11662294635
 10
2744.653781307813
 20
2256.461885610506
 10
2745.57286805645
 20
2257.771442113048
 10
2746.543587926337
 20
2259.043197442928
 10
2747.564387972755
 20
2260.275117062913
 10
2748.633635133391
 20
2261.465230164405
 10
2749.74961884088
 20
2262.61163282032
 10
2750.910553759355
 20
2263.712491030961
 10
2752.114582640599
 20
2264.766043658028
 10
2753.359779295249
 20
2265.770605242064
 10
2754.644151674283
 20
2266.72456869883
 10
2755.96564505588
 20
2267.626407890296
 10
2757.322145332536
 20
2268.474680066137
 10
2758.711482393175
 20
2269.268028171828
 10
2760.13143359488
 20
2270.005183019637
 10
2761.579727318633
 20
2270.684965319061
 10
2763.054046603429
 20
2271.306287563431
 10
2764.552032852916
 20
2271.8681557697
 10
2766.07128960865
 20
2272.369671068595
 10
2767.609386383913
 20
2272.810031142623
 10
2769.163862551974
 20
2273.188531509603
 10
2770.732231282565
 20
2273.504566649691
 10
2772.311983520289
 20
2273.757630974081
 10
2773.900591998559
 20
2273.947319633836
 10
2775.495515282694
 20
2274.073329167567
 10
2777.094201835674
 20
2274.1354579869
 10
2777.847871940917
 20
2274.142558850022
  0
LWPOLYLINE
  5
2DC
330
25A
100
AcDbEntity
  8
P-SANR-FIXT
100
AcDbPolyline
 90
       41
 70
   128
 43
0.0
 10
2942.114353943095
 20
2274.142558850022
 10
2935.545446698646
 20
2274.142558850022
 10
2928.987048304497
 20
2274.142558850022
 10
2922.449650799027
 20
2274.142558850022
 10
2915.943712623676
 20
2274.142558850022
 10
2909.479641891662
 20
2274.142558850022
 10
2903.067779737231
 20
2274.142558850022
 10
2896.718383772038
 20
2274.142558850022
 10
2890.441611675159
 20
2274.142558850022
 10
2884.247504942981
 20
2274.142558850022
 10
2878.145972824933
 20
2274.142558850022
 10
2872.146776470814
 20
2274.142558850022
 10
2866.259513315029
 20
2274.142558850022
 10
2860.493601722747
 20
2274.142558850022
 10
2854.858265922519
 20
2274.142558850022
 10
2849.362521249484
 20
2274.142558850022
 10
2844.015159722756
 20
2274.142558850022
 10
2838.82473598007
 20
2274.142558850022
 10
2833.799553592181
 20
2274.142558850022
 10
2828.947651778928
 20
2274.142558850022
 10
2824.276792548195
 20
2274.142558850022
 10
2819.794448278356
 20
2274.142558850022
 10
2815.507789764059
 20
2274.142558850022
 10
2811.423674744487
 20
2274.142558850022
 10
2807.548636932443
 20
2274.142558850022
 10
2803.888875561794
 20
2274.142558850022
 10
2800.450245470025
 20
2274.142558850022
 10
2797.238247731748
 20
2274.142558850022
 10
2794.258020858155
 20
2274.142558850022
 10
2791.514332576497
 20
2274.142558850022
 10
2789.011572202733
 20
2274.142558850022
 10
2786.753743619569
 20
2274.142558850022
 10
2784.744458871094
 20
2274.142558850022
 10
2782.98693238428
 20
2274.142558850022
 10
2781.483975826587
 20
2274.142558850022
 10
2780.237993607894
 20
2274.142558850022
 10
2779.250979033956
 20
2274.142558850022
 10
2778.524511117538
 20
2274.142558850022
 10
2778.059752052338
 20
2274.142558850022
 10
2777.857445353712
 20
2274.142558850022
 10
2777.847871940917
 20
2274.142558850022
  0
LWPOLYLINE
  5
2DD
330
25A
100
AcDbEntity
  8
P-SANR-FIXT
100
AcDbPolyline
 90
       39
 70
   128
 43
0.0
 10
2777.847871940917
 20
2274.142558850022
 10
2777.979267605695
 20
2274.142558850022
 10
2778.373244394996
 20
2274.142558850022
 10
2779.029172029999
 20
2274.142558850022
 10
2779.946001166413
 20
2274.142558850022
 10
2781.122265073201
 20
2274.142558850022
 10
2782.556081979032
 20
2274.142558850022
 10
2784.245158082724
 20
2274.142558850022
 10
2786.186791222826
 20
2274.142558850022
 10
2788.377875200508
 20
2274.142558850022
 10
2790.814904748812
 20
2274.142558850022
 10
2793.493981140331
 20
2274.142558850022
 10
2796.410818424349
 20
2274.142558850022
 10
2799.560750283431
 20
2274.142558850022
 10
2802.938737498556
 20
2274.142558850022
 10
2806.539376010778
 20
2274.142558850022
 10
2810.356905566571
 20
2274.142558850022
 10
2814.38521893301
 20
2274.142558850022
 10
2818.617871668037
 20
2274.142558850022
 10
2823.048092430193
 20
2274.142558850022
 10
2827.668793811321
 20
2274.142558850022
 10
2832.47258367491
 20
2274.142558850022
 10
2837.451776981931
 20
2274.142558850022
 10
2842.598408085265
 20
2274.142558850022
 10
2847.904243473033
 20
2274.142558850022
 10
2853.360794940471
 20
2274.142558850022
 10
2858.959333169229
 20
2274.142558850022
 10
2864.690901692434
 20
2274.142558850022
 10
2870.546331223117
 20
2274.142558850022
 10
2876.516254323121
 20
2274.142558850022
 10
2882.591120389002
 20
2274.142558850022
 10
2888.761210930958
 20
2274.142558850022
 10
2895.016655120336
 20
2274.142558850022
 10
2901.347445580858
 20
2274.142558850022
 10
2907.743454398282
 20
2274.142558850022
 10
2914.194449322911
 20
2274.142558850022
 10
2920.690110139003
 20
2274.142558850022
 10
2927.220045174919
 20
2274.142558850022
 10
2929.114353943095
 20
2274.142558850022
  0
LINE
  5
2DE
330
25A
100
AcDbEntity
  8
P-SANR-FIXT
100
AcDbLine
 10
2943.214580079857
 20
2274.142558850022
 30
0.0
 11
2942.114353943095
 21
2274.142558850022
 31
0.0
  0
SPLINE
  5
2DF
330
25A
100
AcDbEntity
  8
P-SANR-FIXT
100
AcDbSpline
210
0.0
220
0.0
230
1.0
 70
    24
 71
     3
 72
    10
 73
     6
 74
     0
 42
0.000000001
 43
0.0000000001
 40
-0.695251214306694
 40
-0.695251214306694
 40
-0.695251214306694
 40
-0.695251214306694
 40
-0.4
 40
-0.2
 40
0.0
 40
0.0
 40
0.0
 40
0.0
 10
2943.214580079855
 20
2142.477859039694
 30
0.0
 10
2943.214580079855
 20
2158.054984253879
 30
0.0
 10
2943.214580079855
 20
2184.034014811333
 30
0.0
 10
2943.214580079855
 20
2219.6589318932
 30
0.0
 10
2943.214580079855
 20
2239.586230411112
 30
0.0
 10
2943.214580079855
 20
2249.42233727546
 30
0.0
  0
SPLINE
  5
2E0
330
25A
100
AcDbEntity
  8
P-SANR-FIXT
100
AcDbSpline
210
0.0
220
0.0
230
1.0
 70
    24
 71
     3
 72
    12
 73
     8
 74
     0
 42
0.000000001
 43
0.0000000001
 40
-1.0
 40
-1.0
 40
-1.0
 40
-1.0
 40
-0.85
 40
-0.7
 40
-0.4
 40
-0.2
 40
0.0
 40
0.0
 40
0.0
 40
0.0
 10
2943.214580079855
 20
2249.42233727546
 30
0.0
 10
2943.214580079855
 20
2251.638849004387
 30
0.0
 10
2943.214580079855
 20
2255.815931163814
 30
0.0
 10
2943.214580079855
 20
2263.289439370146
 30
0.0
 10
2943.214580079855
 20
2269.567774982658
 30
0.0
 10
2943.214580079855
 20
2273.404462822886
 30
0.0
 10
2943.214580079855
 20
2274.133407668107
 30
0.0
 10
2943.214580079855
 20
2274.142558850022
 30
0.0
  0
LINE
  5
2E1
330
25A
100
AcDbEntity
  8
P-SANR-FIXT
100
AcDbLine
 10
2929.114353943094
 20
2285.982558850012
 30
0.0
 11
2929.114353943094
 21
2274.142558850022
 31
0.0
  0
LINE
  5
2E2
330
25A
100
AcDbEntity
  8
P-SANR-FIXT
100
AcDbLine
 10
2955.114353943094
 20
2219.982558850014
 30
0.0
 11
2955.114353943094
 21
2285.982558850012
 31
0.0
  0
LINE
  5
2E3
330
25A
100
AcDbEntity
  8
P-SANR-FIXT
100
AcDbLine
 10
2921.114353943091
 20
1165.917820551967
 30
0.0
 11
2921.114353943091
 21
1147.982558850012
 31
0.0
  0
LINE
  5
2E4
330
25A
100
AcDbEntity
  8
P-SANR-FIXT
100
AcDbLine
 10
2963.1143539431
 20
1147.982558850012
 30
0.0
 11
2963.114353943099
 21
1207.182558850013
 31
0.0
  0
LWPOLYLINE
  5
2E5
330
25A
100
AcDbEntity
  8
P-SANR-FIXT
100
AcDbPolyline
 90
       41
 70
   128
 43
0.0
 10
3109.774353943094
 20
1277.182558850012
 10
3109.718361409362
 20
1274.383305456948
 10
3109.550473384278
 20
1271.58853027217
 10
3109.270958452865
 20
1268.802704339788
 10
3108.880263779388
 20
1266.030284387015
 10
3108.379014391981
 20
1263.275705694358
 10
3107.768012182736
 20
1260.543375000113
 10
3107.048234624848
 20
1257.837663450525
 10
3106.220833208864
 20
1255.162899606884
 10
3105.28713160055
 20
1252.523362520756
 10
3104.248623523296
 20
1249.923274888407
 10
3103.106970368491
 20
1247.366796295392
 10
3101.863998537643
 20
1244.858016562109
 10
3100.521696520529
 20
1242.400949200951
 10
3099.082211714033
 20
1239.999524995551
 10
3097.547846986771
 20
1237.65758571236
 10
3095.921056994994
 20
1235.378877954645
 10
3094.204444255659
 20
1233.167047168719
 10
3092.400754982956
 20
1231.025631812009
 10
3090.512874694957
 20
1228.958057692274
 10
3088.543823597395
 20
1226.967632487046
 10
3086.496751751985
 20
1225.057540452052
 10
3084.374934036995
 20
1223.230837327085
 10
3082.181764908136
 20
1221.490445447467
 10
3079.920752968166
 20
1219.839149068942
 10
3077.595515353863
 20
1218.27958991346
 10
3075.209771949388
 20
1216.814262942979
 10
3072.767339435255
 20
1215.445512368066
 10
3070.272125182464
 20
1214.175527897657
 10
3067.728121001533
 20
1213.006341235989
 10
3065.139396756461
 20
1211.939822832306
 10
3062.510093853808
 20
1210.977678888545
 10
3059.844418617331
 20
1210.121448629767
 10
3057.14663555876
 20
1209.372501841734
 10
3054.421060555493
 20
1208.73203667954
 10
3051.67205394611
 20
1208.20107775082
 10
3048.904013554764
 20
1207.780474476594
 10
3046.121367655595
 20
1207.470899732378
 10
3043.328567888444
 20
1207.272848771722
 10
3040.530082137172
 20
1207.186638433915
 10
3039.774353943093
 20
1207.182558850013
  0
LWPOLYLINE
  5
2E6
330
25A
100
AcDbEntity
  8
P-SANR-FIXT
100
AcDbPolyline
 90
       41
 70
   128
 43
0.0
 10
2943.214580079857
 20
1207.182558850013
 10
2946.019712319762
 20
1207.182558850013
 10
2949.918822956124
 20
1207.182558850013
 10
2953.80544810693
 20
1207.182558850013
 10
2957.673370001042
 20
1207.182558850013
 10
2961.516400788541
 20
1207.182558850013
 10
2965.328392439969
 20
1207.182558850013
 10
2969.103246581866
 20
1207.182558850013
 10
2972.834924252865
 20
1207.182558850013
 10
2976.51745556474
 20
1207.182558850013
 10
2980.144949252958
 20
1207.182558850013
 10
2983.71160210144
 20
1207.182558850013
 10
2987.211708226476
 20
1207.182558850013
 10
2990.639668204914
 20
1207.182558850013
 10
2993.989998032048
 20
1207.182558850013
 10
2997.257337894854
 20
1207.182558850013
 10
3000.436460746545
 20
1207.182558850013
 10
3003.522280668738
 20
1207.182558850013
 10
3006.509861007829
 20
1207.182558850013
 10
3009.394422272591
 20
1207.182558850013
 10
3012.171349780342
 20
1207.182558850013
 10
3014.836201039449
 20
1207.182558850013
 10
3017.384712856368
 20
1207.182558850013
 10
3019.812808155846
 20
1207.182558850013
 10
3022.11660250337
 20
1207.182558850013
 10
3024.292410319433
 20
1207.182558850013
 10
3026.336750775679
 20
1207.182558850013
 10
3028.246353363478
 20
1207.182558850013
 10
3030.018163126052
 20
1207.182558850013
 10
3031.649345545745
 20
1207.182558850013
 10
3033.137291078653
 20
1207.182558850013
 10
3034.479619329336
 20
1207.182558850013
 10
3035.674182858941
 20
1207.182558850013
 10
3036.719070620645
 20
1207.182558850013
 10
3037.612611016927
 20
1207.182558850013
 10
3038.353374573767
 20
1207.182558850013
 10
3038.940176227495
 20
1207.182558850013
 10
3039.372077220641
 20
1207.182558850013
 10
3039.64838660375
 20
1207.182558850013
 10
3039.768662340753
 20
1207.182558850013
 10
3039.774353943095
 20
1207.182558850013
  0
LWPOLYLINE
  5
2E7
330
25A
100
AcDbEntity
  8
P-SANR-FIXT
100
AcDbPolyline
 90
       35
 70
   128
 43
0.0
 10
3039.774353943095
 20
1207.182558850013
 10
3039.696236359605
 20
1207.182558850013
 10
3039.462008580608
 20
1207.182558850013
 10
3039.072045320583
 20
1207.182558850013
 10
3038.526970437558
 20
1207.182558850013
 10
3037.82765593507
 20
1207.182558850013
 10
3036.975220567143
 20
1207.182558850013
 10
3035.971028048524
 20
1207.182558850013
 10
3034.816684873025
 20
1207.182558850013
 10
3033.514037743482
 20
1207.182558850013
 10
3032.065170617416
 20
1207.182558850013
 10
3030.472401373156
 20
1207.182558850013
 10
3028.738278101719
 20
1207.182558850013
 10
3026.865575030414
 20
1207.182558850013
 10
3024.857288084665
 20
1207.182558850013
 10
3022.716630095175
 20
1207.182558850013
 10
3020.447025658075
 20
1207.182558850013
 10
3018.05210565631
 20
1207.182558850013
 10
3015.535701450995
 20
1207.182558850013
 10
3012.901838752052
 20
1207.182558850013
 10
3010.154731177939
 20
1207.182558850013
 10
3007.298773514757
 20
1207.182558850013
 10
3004.338534685528
 20
1207.182558850013
 10
3001.278750440896
 20
1207.182558850013
 10
2998.124315782931
 20
1207.182558850013
 10
2994.880277134178
 20
1207.182558850013
 10
2991.551824264448
 20
1207.182558850013
 10
2988.144281988303
 20
1207.182558850013
 10
2984.663101646479
 20
1207.182558850013
 10
2981.113852384913
 20
1207.182558850013
 10
2977.502212245287
 20
1207.182558850013
 10
2973.833959081387
 20
1207.182558850013
 10
2970.114961315753
 20
1207.182558850013
 10
2966.351168551467
 20
1207.182558850013
 10
2963.114353943099
 20
1207.182558850013
  0
LINE
  5
2E8
330
25A
100
AcDbEntity
  8
P-SANR-FIXT
100
AcDbLine
 10
3109.774353943096
 20
1277.182558850012
 30
0.0
 11
3109.774353943096
 21
1439.982558850021
 31
0.0
  0
LINE
  5
2E9
330
25A
100
AcDbEntity
  8
P-SANR-FIXT
100
AcDbLine
 10
3109.774353943095
 20
1439.982558850017
 30
0.0
 11
3109.774353943095
 21
1999.982558850021
 31
0.0
  0
LINE
  5
2EA
330
25A
100
AcDbEntity
  8
P-SANR-FIXT
100
AcDbLine
 10
3109.774353943095
 20
1999.982558850017
 30
0.0
 11
3109.774353943095
 21
2149.982558850013
 31
0.0
  0
LWPOLYLINE
  5
2EB
330
25A
100
AcDbEntity
  8
P-SANR-FIXT
100
AcDbPolyline
 90
       41
 70
   128
 43
0.0
 10
3039.774353943095
 20
2219.982558850014
 10
3042.573607336159
 20
2219.926566316282
 10
3045.368382520937
 20
2219.758678291197
 10
3048.15420845332
 20
2219.479163359784
 10
3050.926628406092
 20
2219.088468686308
 10
3053.681207098748
 20
2218.587219298901
 10
3056.413537792994
 20
2217.976217089656
 10
3059.119249342583
 20
2217.256439531768
 10
3061.794013186223
 20
2216.429038115785
 10
3064.433550272351
 20
2215.495336507469
 10
3067.0336379047
 20
2214.456828430216
 10
3069.590116497714
 20
2213.315175275411
 10
3072.098896230999
 20
2212.072203444563
 10
3074.555963592156
 20
2210.729901427449
 10
3076.957387797556
 20
2209.290416620953
 10
3079.299327080747
 20
2207.756051893691
 10
3081.578034838461
 20
2206.129261901914
 10
3083.789865624387
 20
2204.412649162579
 10
3085.931280981097
 20
2202.608959889876
 10
3087.998855100833
 20
2200.721079601877
 10
3089.989280306062
 20
2198.752028504316
 10
3091.899372341055
 20
2196.704956658905
 10
3093.726075466022
 20
2194.583138943914
 10
3095.46646734564
 20
2192.389969815056
 10
3097.117763724165
 20
2190.128957875085
 10
3098.677322879647
 20
2187.803720260784
 10
3100.142649850127
 20
2185.417976856308
 10
3101.511400425041
 20
2182.975544342175
 10
3102.78138489545
 20
2180.480330089384
 10
3103.950571557118
 20
2177.936325908452
 10
3105.0170899608
 20
2175.34760166338
 10
3105.979233904561
 20
2172.718298760727
 10
3106.835464163339
 20
2170.05262352425
 10
3107.584410951373
 20
2167.35484046568
 10
3108.224876113567
 20
2164.629265462413
 10
3108.755835042286
 20
2161.880258853031
 10
3109.176438316513
 20
2159.112218461683
 10
3109.486013060729
 20
2156.329572562515
 10
3109.684064021385
 20
2153.536772795364
 10
3109.770274359192
 20
2150.738287044092
 10
3109.774353943094
 20
2149.982558850013
  0
LWPOLYLINE
  5
2EC
330
25A
100
AcDbEntity
  8
P-SANR-FIXT
100
AcDbPolyline
 90
       38
 70
   128
 43
0.0
 10
2955.114353943094
 20
2219.982558850014
 10
2957.673370001041
 20
2219.982558850014
 10
2961.51640078854
 20
2219.982558850014
 10
2965.328392439969
 20
2219.982558850014
 10
2969.103246581866
 20
2219.982558850014
 10
2972.834924252865
 20
2219.982558850014
 10
2976.51745556474
 20
2219.982558850014
 10
2980.144949252958
 20
2219.982558850014
 10
2983.71160210144
 20
2219.982558850014
 10
2987.211708226476
 20
2219.982558850014
 10
2990.639668204914
 20
2219.982558850014
 10
2993.989998032048
 20
2219.982558850014
 10
2997.257337894854
 20
2219.982558850014
 10
3000.436460746545
 20
2219.982558850014
 10
3003.522280668738
 20
2219.982558850014
 10
3006.509861007829
 20
2219.982558850014
 10
3009.394422272591
 20
2219.982558850014
 10
3012.171349780342
 20
2219.982558850014
 10
3014.836201039449
 20
2219.982558850014
 10
3017.384712856368
 20
2219.982558850014
 10
3019.812808155846
 20
2219.982558850014
 10
3022.11660250337
 20
2219.982558850014
 10
3024.292410319433
 20
2219.982558850014
 10
3026.336750775679
 20
2219.982558850014
 10
3028.246353363478
 20
2219.982558850014
 10
3030.018163126052
 20
2219.982558850014
 10
3031.649345545745
 20
2219.982558850014
 10
3033.137291078653
 20
2219.982558850014
 10
3034.479619329336
 20
2219.982558850014
 10
3035.674182858941
 20
2219.982558850014
 10
3036.719070620645
 20
2219.982558850014
 10
3037.612611016927
 20
2219.982558850014
 10
3038.353374573767
 20
2219.982558850014
 10
3038.940176227495
 20
2219.982558850014
 10
3039.372077220641
 20
2219.982558850014
 10
3039.64838660375
 20
2219.982558850014
 10
3039.768662340753
 20
2219.982558850014
 10
3039.774353943093
 20
2219.982558850014
  0
LWPOLYLINE
  5
2ED
330
25A
100
AcDbEntity
  8
P-SANR-FIXT
100
AcDbPolyline
 90
       40
 70
   128
 43
0.0
 10
3039.774353943093
 20
2219.982558850014
 10
3039.696236359605
 20
2219.982558850014
 10
3039.462008580608
 20
2219.982558850014
 10
3039.072045320582
 20
2219.982558850014
 10
3038.526970437558
 20
2219.982558850014
 10
3037.82765593507
 20
2219.982558850014
 10
3036.975220567143
 20
2219.982558850014
 10
3035.971028048524
 20
2219.982558850014
 10
3034.816684873025
 20
2219.982558850014
 10
3033.514037743481
 20
2219.982558850014
 10
3032.065170617415
 20
2219.982558850014
 10
3030.472401373155
 20
2219.982558850014
 10
3028.738278101718
 20
2219.982558850014
 10
3026.865575030413
 20
2219.982558850014
 10
3024.857288084664
 20
2219.982558850014
 10
3022.716630095173
 20
2219.982558850014
 10
3020.447025658073
 20
2219.982558850014
 10
3018.052105656309
 20
2219.982558850014
 10
3015.535701450993
 20
2219.982558850014
 10
3012.901838752051
 20
2219.982558850014
 10
3010.154731177938
 20
2219.982558850014
 10
3007.298773514755
 20
2219.982558850014
 10
3004.338534685527
 20
2219.982558850014
 10
3001.278750440894
 20
2219.982558850014
 10
2998.124315782929
 20
2219.982558850014
 10
2994.880277134176
 20
2219.982558850014
 10
2991.551824264447
 20
2219.982558850014
 10
2988.144281988301
 20
2219.982558850014
 10
2984.663101646477
 20
2219.982558850014
 10
2981.11385238491
 20
2219.982558850014
 10
2977.502212245286
 20
2219.982558850014
 10
2973.833959081384
 20
2219.982558850014
 10
2970.11496131575
 20
2219.982558850014
 10
2966.351168551464
 20
2219.982558850014
 10
2962.548602054049
 20
2219.982558850014
 10
2958.713345118731
 20
2219.982558850014
 10
2954.85153333846
 20
2219.982558850014
 10
2950.969344788278
 20
2219.982558850014
 10
2947.072990141706
 20
2219.982558850014
 10
2943.214580079857
 20
2219.982558850014
  0
ARC
  5
2EE
330
25A
100
AcDbEntity
  8
P-SANR-FIXT
100
AcDbCircle
 10
2942.114353943092
 20
1999.982558850009
 30
0.0
 40
142.500000000002
100
AcDbArc
 50
90.00000000000042
 51
270.0000000000001
  0
ARC
  5
2EF
330
25A
100
AcDbEntity
  8
P-SANR-FIXT
100
AcDbCircle
 10
2942.114353943091
 20
1999.982558850011
 30
0.0
 40
76.20000000000041
100
AcDbArc
 50
90.00000000000049
 51
270.0000000000001
  0
ARC
  5
2F0
330
25A
100
AcDbEntity
  8
P-SANR-FIXT
100
AcDbCircle
 10
2942.114353943092
 20
1999.982558850009
 30
0.0
 40
142.5000000000023
100
AcDbArc
 50
270.0000000000001
 51
90.0000000000001
  0
ARC
  5
2F1
330
25A
100
AcDbEntity
  8
P-SANR-FIXT
100
AcDbCircle
 10
2942.114353943091
 20
1999.982558850011
 30
0.0
 40
76.19999999999982
100
AcDbArc
 50
269.9999999999997
 51
89.99999999999898
  0
ARC
  5
2F2
330
25A
100
AcDbEntity
  8
P-SANR-FIXT
100
AcDbCircle
 10
2942.114353943092
 20
1439.982558849999
 30
0.0
 40
142.500000000002
100
AcDbArc
 50
90.00000000000042
 51
270.0000000000001
  0
ARC
  5
2F3
330
25A
100
AcDbEntity
  8
P-SANR-FIXT
100
AcDbCircle
 10
2942.114353943091
 20
1439.982558850011
 30
0.0
 40
76.1999999999881
100
AcDbArc
 50
90.00000000000044
 51
270.0000000000001
  0
ARC
  5
2F4
330
25A
100
AcDbEntity
  8
P-SANR-FIXT
100
AcDbCircle
 10
2942.114353943092
 20
1439.982558849999
 30
0.0
 40
142.5000000000024
100
AcDbArc
 50
270.0000000000001
 51
90.0000000000001
  0
ARC
  5
2F5
330
25A
100
AcDbEntity
  8
P-SANR-FIXT
100
AcDbCircle
 10
2942.114353943091
 20
1439.982558850011
 30
0.0
 40
76.19999999998788
100
AcDbArc
 50
269.9999999999996
 51
89.99999999999891
  0
ENDBLK
  5
2F7
330
25A
100
AcDbEntity
  8
0
100
AcDbBlockEnd
  0
ENDSEC
  0
SECTION
  2
ENTITIES
  0
INSERT
  5
1A6
330
71
100
AcDbEntity
  8
P-SANR-FIXT
100
AcDbBlockReference
  2
Automatic flow rate regulator valve_Caleffi_121 DN15 - 1_2__-859151-Est - Idraulica
 10
0.0
 20
0.0
 30
0.0
1001
REVIT
1002
{
1070
     1
1000
863131
1002
}
1002
{
1070
     5
1000
859151
1002
}
1002
{
1070
     2
1000
-2001160
1002
}
  0
INSERT
  5
259
330
71
100
AcDbEntity
  8
P-SANR-FIXT
100
AcDbBlockReference
  2
Automatic flow rate regulator valve_Caleffi_121 DN15 - 1_2__-V1-Est - Idraulica
 10
0.0
 20
0.0
 30
0.0
1001
REVIT
1002
{
1070
     1
1000
863152
1002
}
1002
{
1070
     5
1000
859151
1002
}
1002
{
1070
     2
1000
-2001160
1002
}
  0
INSERT
  5
2F8
330
71
100
AcDbEntity
  8
P-SANR-FIXT
100
AcDbBlockReference
  2
Automatic flow rate regulator valve_Caleffi_121 DN15 - 1_2__-V2-Est - Idraulica
 10
0.0
 20
0.0
 30
0.0
1001
REVIT
1002
{
1070
     1
1000
863172
1002
}
1002
{
1070
     5
1000
859151
1002
}
1002
{
1070
     2
1000
-2001160
1002
}
  0
ENDSEC
  0
SECTION
  2
OBJECTS
  0
DICTIONARY
  5
C
330
0
100
AcDbDictionary
281
     1
  3
ACAD_CIP_PREVIOUS_PRODUCT_INFO
350
7A
  3
ACAD_COLOR
350
63
  3
ACAD_DETAILVIEWSTYLE
350
6B
  3
ACAD_GROUP
350
D
  3
ACAD_IMAGE_VARS
350
7B
  3
ACAD_LAYOUT
350
62
  3
ACAD_MATERIAL
350
10
  3
ACAD_MLEADERSTYLE
350
66
  3
ACAD_MLINESTYLE
350
5F
  3
ACAD_PLOTSETTINGS
350
61
  3
ACAD_PLOTSTYLENAME
350
E
  3
ACAD_SCALELIST
350
42
  3
ACAD_SECTIONVIEWSTYLE
350
68
  3
ACAD_TABLESTYLE
350
64
  3
ACAD_VISUALSTYLE
350
29
  3
ACDB_RECOMPOSE_DATA
350
303
  3
AcDbVariableDictionary
350
7C
  3
REVIT_DICTIONARY
350
2FA
  0
DICTIONARY
  5
2FF
330
71
100
AcDbDictionary
280
     1
281
     1
  3
ACAD_SORTENTS
360
300
  0
XRECORD
  5
7A
102
{ACAD_REACTORS
330
C
102
}
330
C
100
AcDbXrecord
280
     1
300
RVT
300
2013
300
RVT2013
  0
DICTIONARY
  5
63
102
{ACAD_REACTORS
330
C
102
}
330
C
100
AcDbDictionary
281
     1
  0
DICTIONARY
  5
6B
102
{ACAD_REACTORS
330
C
102
}
330
C
100
AcDbDictionary
281
     1
  3
Imperial24
350
6C
  0
DICTIONARY
  5
D
102
{ACAD_REACTORS
330
C
102
}
330
C
100
AcDbDictionary
281
     1
  0
RASTERVARIABLES
  5
7B
102
{ACAD_REACTORS
330
C
102
}
330
C
100
AcDbRasterVariables
 90
        0
 70
     0
 71
     1
 72
     1
  0
DICTIONARY
  5
62
102
{ACAD_REACTORS
330
C
102
}
330
C
100
AcDbDictionary
281
     1
  3
Layout1
350
70
  3
Layout2
350
78
  3
Model
350
74
  0
DICTIONARY
  5
10
102
{ACAD_REACTORS
330
C
102
}
330
C
100
AcDbDictionary
281
     1
  3
ByBlock
350
19
  3
ByLayer
350
11
  3
Global
350
21
  0
DICTIONARY
  5
66
102
{ACAD_REACTORS
330
C
102
}
330
C
100
AcDbDictionary
281
     1
  3
Standard
350
67
  0
DICTIONARY
  5
5F
102
{ACAD_REACTORS
330
C
102
}
330
C
100
AcDbDictionary
281
     1
  3
Standard
350
60
  0
DICTIONARY
  5
61
102
{ACAD_REACTORS
330
C
102
}
330
C
100
AcDbDictionary
281
     1
  0
ACDBDICTIONARYWDFLT
  5
E
102
{ACAD_REACTORS
330
C
102
}
330
C
100
AcDbDictionary
281
     1
  3
Normal
350
F
100
AcDbDictionaryWithDefault
340
F
  0
DICTIONARY
  5
42
102
{ACAD_REACTORS
330
C
102
}
330
C
100
AcDbDictionary
281
     1
  3
A0
350
43
  3
A1
350
44
  3
A2
350
45
  3
A3
350
46
  3
A4
350
47
  3
A5
350
48
  3
A6
350
49
  3
A7
350
4A
  3
A8
350
4B
  3
A9
350
4C
  3
B0
350
4D
  3
B1
350
4E
  3
B2
350
4F
  3
B3
350
50
  3
B4
350
51
  3
B5
350
52
  3
B6
350
53
  0
DICTIONARY
  5
68
102
{ACAD_REACTORS
330
C
102
}
330
C
100
AcDbDictionary
281
     1
  3
Imperial24
350
6A
  0
DICTIONARY
  5
64
102
{ACAD_REACTORS
330
C
102
}
330
C
100
AcDbDictionary
281
     1
  3
Standard
350
65
  0
DICTIONARY
  5
29
102
{ACAD_REACTORS
330
C
102
}
330
C
100
AcDbDictionary
281
     1
  3
2dWireframe
350
2F
  3
Basic
350
2E
  3
Brighten
350
35
  3
ColorChange
350
39
  3
Conceptual
350
32
  3
Dim
350
34
  3
EdgeColorOff
350
41
  3
Facepattern
350
38
  3
Flat
350
2A
  3
FlatWithEdges
350
2B
  3
Gouraud
350
2C
  3
GouraudWithEdges
350
2D
  3
Hidden
350
31
  3
JitterOff
350
3F
  3
Linepattern
350
37
  3
OverhangOff
350
40
  3
Realistic
350
33
  3
Shaded
350
3E
  3
Shaded with edges
350
3D
  3
Shades of Gray
350
3A
  3
Sketchy
350
3B
  3
Thicken
350
36
  3
Wireframe
350
30
  3
X-Ray
350
3C
  0
XRECORD
  5
303
102
{ACAD_REACTORS
330
C
102
}
330
C
100
AcDbXrecord
280
     1
 90
        1
330
65
  0
DICTIONARY
  5
7C
102
{ACAD_REACTORS
330
C
102
}
330
C
100
AcDbDictionary
281
     1
  3
CANNOSCALE
350
81
  3
CMLEADERSTYLE
350
7E
  3
CTABLESTYLE
350
7D
  3
CVIEWDETAILSTYLE
350
7F
  3
CVIEWSECTIONSTYLE
350
80
  0
DICTIONARY
  5
2FA
102
{ACAD_REACTORS
330
C
102
}
330
C
100
AcDbDictionary
281
     1
  3
DRAWING_TOOL
350
2FE
  3
REVIT_CATEGORY_MAPPING
350
2FC
  3
REVIT_SUB_CATEGORY_MAPPING
350
2FD
  3
REVIT_TYPE_MAPPING
350
2FB
  0
SORTENTSTABLE
  5
300
102
{ACAD_REACTORS
330
2FF
102
}
330
2FF
100
AcDbSortentsTable
330
71
  0
ACDBDETAILVIEWSTYLE
  5
6C
102
{ACAD_REACTORS
330
6B
102
}
330
6B
100
AcDbModelDocViewStyle
 70
     0
  3
Imperial24
290
     1
100
AcDbDetailViewStyle
 70
     0
 71
     0
 90
        3
 71
     1
340
55
 62
   256
 40
0.24
340
0
 62
   256
 40
0.24
300

 40
0.36
280
     3
 71
     2
340
5D
 90
       25
 62
   256
 71
     3
340
55
 62
   256
 40
0.24
 90
        1
 40
0.75
 90
        1
300
%<\AcVar ViewType \f "%tc1">% %<\AcVar ViewDetailId>%\PSCALA %<\AcVar ViewScale \f "%sn">%
 71
     4
340
5D
 90
       25
 62
   256
340
5D
 90
       25
 62
   256
280
     0
  0
LAYOUT
  5
70
102
{ACAD_REACTORS
330
62
102
}
330
62
100
AcDbPlotSettings
  1

  2

  4

  6

 40
0.0
 41
0.0
 42
0.0
 43
0.0
 44
0.0
 45
0.0
 46
0.0
 47
0.0
 48
0.0
 49
0.0
140
0.0
141
0.0
142
1.0
143
1.0
 70
   688
 72
     0
 73
     0
 74
     5
  7

 75
    16
147
1.0
 76
     0
 77
     2
 78
   300
148
0.0
149
0.0
100
AcDbLayout
  1
Layout1
 70
     1
 71
     1
 10
0.0
 20
0.0
 11
12.0
 21
9.0
 12
0.0
 22
0.0
 32
0.0
 14
0.0
 24
0.0
 34
0.0
 15
0.0
 25
0.0
 35
0.0
146
0.0
 13
0.0
 23
0.0
 33
0.0
 16
1.0
 26
0.0
 36
0.0
 17
0.0
 27
1.0
 37
0.0
 76
     0
330
6D
  0
LAYOUT
  5
78
102
{ACAD_REACTORS
330
62
102
}
330
62
100
AcDbPlotSettings
  1

  2

  4

  6

 40
0.0
 41
0.0
 42
0.0
 43
0.0
 44
0.0
 45
0.0
 46
0.0
 47
0.0
 48
0.0
 49
0.0
140
0.0
141
0.0
142
1.0
143
1.0
 70
   688
 72
     0
 73
     0
 74
     5
  7

 75
    16
147
1.0
 76
     0
 77
     2
 78
   300
148
0.0
149
0.0
100
AcDbLayout
  1
Layout2
 70
     1
 71
     2
 10
0.0
 20
0.0
 11
12.0
 21
9.0
 12
0.0
 22
0.0
 32
0.0
 14
0.0
 24
0.0
 34
0.0
 15
0.0
 25
0.0
 35
0.0
146
0.0
 13
0.0
 23
0.0
 33
0.0
 16
1.0
 26
0.0
 36
0.0
 17
0.0
 27
1.0
 37
0.0
 76
     0
330
75
  0
LAYOUT
  5
74
102
{ACAD_REACTORS
330
62
102
}
330
62
100
AcDbPlotSettings
  1

  2

  4

  6

 40
0.0
 41
0.0
 42
0.0
 43
0.0
 44
0.0
 45
0.0
 46
0.0
 47
0.0
 48
0.0
 49
0.0
140
0.0
141
0.0
142
1.0
143
1.0
 70
  1712
 72
     0
 73
     0
 74
     0
  7

 75
     0
147
1.0
 76
     0
 77
     2
 78
   300
148
0.0
149
0.0
100
AcDbLayout
  1
Model
 70
     1
 71
     0
 10
0.0
 20
0.0
 11
12.0
 21
9.0
 12
0.0
 22
0.0
 32
0.0
 14
0.0
 24
0.0
 34
0.0
 15
0.0
 25
0.0
 35
0.0
146
0.0
 13
0.0
 23
0.0
 33
0.0
 16
1.0
 26
0.0
 36
0.0
 17
0.0
 27
1.0
 37
0.0
 76
     0
330
71
  0
MATERIAL
  5
19
102
{ACAD_XDICTIONARY
360
1A
102
}
102
{ACAD_REACTORS
330
10
102
}
330
10
100
AcDbMaterial
  1
ByBlock
 72
     0
 43
0.0208333333333333
 43
0.0
 43
0.0
 43
0.0
 43
0.0
 43
0.0208333333333333
 43
0.0
 43
0.0
 43
0.0
 43
0.0
 43
1.0
 43
0.0
 43
0.0
 43
0.0
 43
0.0
 43
1.0
 77
     0
 47
0.0208333333333333
 47
0.0
 47
0.0
 47
0.0
 47
0.0
 47
0.0208333333333333
 47
0.0
 47
0.0
 47
0.0
 47
0.0
 47
1.0
 47
0.0
 47
0.0
 47
0.0
 47
0.0
 47
1.0
171
     0
 49
0.0208333333333333
 49
0.0
 49
0.0
 49
0.0
 49
0.0
 49
0.0208333333333333
 49
0.0
 49
0.0
 49
0.0
 49
0.0
 49
1.0
 49
0.0
 49
0.0
 49
0.0
 49
0.0
 49
1.0
175
     0
142
0.0208333333333333
142
0.0
142
0.0
142
0.0
142
0.0
142
0.0208333333333333
142
0.0
142
0.0
142
0.0
142
0.0
142
1.0
142
0.0
142
0.0
142
0.0
142
0.0
142
1.0
179
     0
144
0.0208333333333333
144
0.0
144
0.0
144
0.0
144
0.0
144
0.0208333333333333
144
0.0
144
0.0
144
0.0
144
0.0
144
1.0
144
0.0
144
0.0
144
0.0
144
0.0
144
1.0
147
0.0208333333333333
147
0.0
147
0.0
147
0.0
147
0.0
147
0.0208333333333333
147
0.0
147
0.0
147
0.0
147
0.0
147
1.0
147
0.0
147
0.0
147
0.0
147
0.0
147
1.0
  0
MATERIAL
  5
11
102
{ACAD_XDICTIONARY
360
12
102
}
102
{ACAD_REACTORS
330
10
102
}
330
10
100
AcDbMaterial
  1
ByLayer
 72
     0
 43
0.0208333333333333
 43
0.0
 43
0.0
 43
0.0
 43
0.0
 43
0.0208333333333333
 43
0.0
 43
0.0
 43
0.0
 43
0.0
 43
1.0
 43
0.0
 43
0.0
 43
0.0
 43
0.0
 43
1.0
 77
     0
 47
0.0208333333333333
 47
0.0
 47
0.0
 47
0.0
 47
0.0
 47
0.0208333333333333
 47
0.0
 47
0.0
 47
0.0
 47
0.0
 47
1.0
 47
0.0
 47
0.0
 47
0.0
 47
0.0
 47
1.0
171
     0
 49
0.0208333333333333
 49
0.0
 49
0.0
 49
0.0
 49
0.0
 49
0.0208333333333333
 49
0.0
 49
0.0
 49
0.0
 49
0.0
 49
1.0
 49
0.0
 49
0.0
 49
0.0
 49
0.0
 49
1.0
175
     0
142
0.0208333333333333
142
0.0
142
0.0
142
0.0
142
0.0
142
0.0208333333333333
142
0.0
142
0.0
142
0.0
142
0.0
142
1.0
142
0.0
142
0.0
142
0.0
142
0.0
142
1.0
179
     0
144
0.0208333333333333
144
0.0
144
0.0
144
0.0
144
0.0
144
0.0208333333333333
144
0.0
144
0.0
144
0.0
144
0.0
144
1.0
144
0.0
144
0.0
144
0.0
144
0.0
144
1.0
147
0.0208333333333333
147
0.0
147
0.0
147
0.0
147
0.0
147
0.0208333333333333
147
0.0
147
0.0
147
0.0
147
0.0
147
1.0
147
0.0
147
0.0
147
0.0
147
0.0
147
1.0
  0
MATERIAL
  5
21
102
{ACAD_XDICTIONARY
360
22
102
}
102
{ACAD_REACTORS
330
10
102
}
330
10
100
AcDbMaterial
  1
Global
 72
     0
 43
0.0208333333333333
 43
0.0
 43
0.0
 43
0.0
 43
0.0
 43
0.0208333333333333
 43
0.0
 43
0.0
 43
0.0
 43
0.0
 43
1.0
 43
0.0
 43
0.0
 43
0.0
 43
0.0
 43
1.0
 77
     0
 47
0.0208333333333333
 47
0.0
 47
0.0
 47
0.0
 47
0.0
 47
0.0208333333333333
 47
0.0
 47
0.0
 47
0.0
 47
0.0
 47
1.0
 47
0.0
 47
0.0
 47
0.0
 47
0.0
 47
1.0
171
     0
 49
0.0208333333333333
 49
0.0
 49
0.0
 49
0.0
 49
0.0
 49
0.0208333333333333
 49
0.0
 49
0.0
 49
0.0
 49
0.0
 49
1.0
 49
0.0
 49
0.0
 49
0.0
 49
0.0
 49
1.0
175
     0
142
0.0208333333333333
142
0.0
142
0.0
142
0.0
142
0.0
142
0.0208333333333333
142
0.0
142
0.0
142
0.0
142
0.0
142
1.0
142
0.0
142
0.0
142
0.0
142
0.0
142
1.0
179
     0
144
0.0208333333333333
144
0.0
144
0.0
144
0.0
144
0.0
144
0.0208333333333333
144
0.0
144
0.0
144
0.0
144
0.0
144
1.0
144
0.0
144
0.0
144
0.0
144
0.0
144
1.0
147
0.0208333333333333
147
0.0
147
0.0
147
0.0
147
0.0
147
0.0208333333333333
147
0.0
147
0.0
147
0.0
147
0.0
147
1.0
147
0.0
147
0.0
147
0.0
147
0.0
147
1.0
  0
MLEADERSTYLE
  5
67
102
{ACAD_REACTORS
330
66
102
}
330
66
100
AcDbMLeaderStyle
179
     2
170
     2
171
     1
172
     0
 90
        2
 40
0.0
 41
0.0
173
     1
 91
-1056964608
340
5B
 92
       -2
290
     1
 42
0.09
291
     1
 43
0.36
  3
Standard
 44
0.18
300

342
55
174
     1
178
     6
175
     1
176
     0
 93
-1056964608
 45
0.18
292
     0
297
     0
 46
0.18
 94
-1056964608
 47
1.0
 49
1.0
140
1.0
293
     1
141
0.0
294
     1
177
     0
142
1.0
295
     1
296
     0
143
0.125
271
     0
272
     9
273
     9
298
     1
  0
MLINESTYLE
  5
60
102
{ACAD_REACTORS
330
5F
102
}
330
5F
100
AcDbMlineStyle
  2
STANDARD
 70
     0
  3

 62
   256
 51
90.0
 52
90.0
 71
     2
 49
0.5
 62
   256
  6
BYLAYER
 49
-0.5
 62
   256
  6
BYLAYER
  0
ACDBPLACEHOLDER
  5
F
102
{ACAD_REACTORS
330
E
102
}
330
E
  0
SCALE
  5
43
102
{ACAD_REACTORS
330
42
102
}
330
42
100
AcDbScale
 70
     0
300
1:1
140
1.0
141
1.0
290
     1
  0
SCALE
  5
44
102
{ACAD_REACTORS
330
42
102
}
330
42
100
AcDbScale
 70
     0
300
1/128" = 1'-0"
140
0.0078125
141
12.0
290
     0
  0
SCALE
  5
45
102
{ACAD_REACTORS
330
42
102
}
330
42
100
AcDbScale
 70
     0
300
1/64" = 1'-0"
140
0.015625
141
12.0
290
     0
  0
SCALE
  5
46
102
{ACAD_REACTORS
330
42
102
}
330
42
100
AcDbScale
 70
     0
300
1/32" = 1'-0"
140
0.03125
141
12.0
290
     0
  0
SCALE
  5
47
102
{ACAD_REACTORS
330
42
102
}
330
42
100
AcDbScale
 70
     0
300
1/16" = 1'-0"
140
0.0625
141
12.0
290
     0
  0
SCALE
  5
48
102
{ACAD_REACTORS
330
42
102
}
330
42
100
AcDbScale
 70
     0
300
3/32" = 1'-0"
140
0.09375
141
12.0
290
     0
  0
SCALE
  5
49
102
{ACAD_REACTORS
330
42
102
}
330
42
100
AcDbScale
 70
     0
300
1/8" = 1'-0"
140
0.125
141
12.0
290
     0
  0
SCALE
  5
4A
102
{ACAD_REACTORS
330
42
102
}
330
42
100
AcDbScale
 70
     0
300
3/16" = 1'-0"
140
0.1875
141
12.0
290
     0
  0
SCALE
  5
4B
102
{ACAD_REACTORS
330
42
102
}
330
42
100
AcDbScale
 70
     0
300
1/4" = 1'-0"
140
0.25
141
12.0
290
     0
  0
SCALE
  5
4C
102
{ACAD_REACTORS
330
42
102
}
330
42
100
AcDbScale
 70
     0
300
3/8" = 1'-0"
140
0.375
141
12.0
290
     0
  0
SCALE
  5
4D
102
{ACAD_REACTORS
330
42
102
}
330
42
100
AcDbScale
 70
     0
300
1/2" = 1'-0"
140
0.5
141
12.0
290
     0
  0
SCALE
  5
4E
102
{ACAD_REACTORS
330
42
102
}
330
42
100
AcDbScale
 70
     0
300
3/4" = 1'-0"
140
0.75
141
12.0
290
     0
  0
SCALE
  5
4F
102
{ACAD_REACTORS
330
42
102
}
330
42
100
AcDbScale
 70
     0
300
1" = 1'-0"
140
1.0
141
12.0
290
     0
  0
SCALE
  5
50
102
{ACAD_REACTORS
330
42
102
}
330
42
100
AcDbScale
 70
     0
300
1-1/2" = 1'-0"
140
1.5
141
12.0
290
     0
  0
SCALE
  5
51
102
{ACAD_REACTORS
330
42
102
}
330
42
100
AcDbScale
 70
     0
300
3" = 1'-0"
140
3.0
141
12.0
290
     0
  0
SCALE
  5
52
102
{ACAD_REACTORS
330
42
102
}
330
42
100
AcDbScale
 70
     0
300
6" = 1'-0"
140
6.0
141
12.0
290
     0
  0
SCALE
  5
53
102
{ACAD_REACTORS
330
42
102
}
330
42
100
AcDbScale
 70
     0
300
1'-0" = 1'-0"
140
12.0
141
12.0
290
     0
  0
ACDBSECTIONVIEWSTYLE
  5
6A
102
{ACAD_REACTORS
330
68
102
}
330
68
100
AcDbModelDocViewStyle
 70
     0
  3
Imperial24
290
     1
100
AcDbSectionViewStyle
 70
     0
 71
     0
 90
       78
 71
     1
340
55
 62
   256
 40
0.24
340
0
340
0
 62
   256
 40
0.24
300
I, O, Q, S, X, Z
 40
0.48
 90
        3
 40
0.18
 90
        1
 71
     2
340
69
 90
       25
 62
   256
340
5D
 90
       50
 62
   256
 40
0.24
 40
0.0
 40
0.24
 71
     3
340
55
 62
   256
 40
0.24
 90
        1
 40
0.75
 90
        1
300
%<\AcVar ViewType \f "%tc1">% %<\AcVar ViewSectionStartId>%-%<\AcVar ViewSectionEndId>%\PSCALA %<\AcVar ViewScale \f "%sn">%
 71
     4
 62
   256
 62
   257
300
ANSI31
 40
1.0
 90
        0
290
     0
290
     0
 90
        6
 40
0.0
 40
1.570796326794896
 40
0.2617993877991494
 40
1.308996938995747
 40
-0.2617993877991494
 40
1.832595714594046
  0
TABLESTYLE
  5
65
102
{ACAD_XDICTIONARY
360
301
102
}
102
{ACAD_REACTORS
330
64
102
}
330
64
100
AcDbTableStyle
280
     0
  3
Standard
 70
     0
 71
     0
 40
0.06
 41
0.06
280
     0
281
     0
  7
Standard
140
0.18
170
     2
 62
     0
 63
     7
283
     0
 90
      512
 91
        0
  1

274
    -2
284
     1
 64
     0
275
    -2
285
     1
 65
     0
276
    -2
286
     1
 66
     0
277
    -2
287
     1
 67
     0
278
    -2
288
     1
 68
     0
279
    -2
289
     1
 69
     0
  7
Standard
140
0.25
170
     5
 62
     0
 63
     7
283
     0
 90
      512
 91
        0
  1

274
    -2
284
     1
 64
     0
275
    -2
285
     1
 65
     0
276
    -2
286
     1
 66
     0
277
    -2
287
     1
 67
     0
278
    -2
288
     1
 68
     0
279
    -2
289
     1
 69
     0
  7
Standard
140
0.18
170
     5
 62
     0
 63
     7
283
     0
 90
      512
 91
        0
  1

274
    -2
284
     1
 64
     0
275
    -2
285
     1
 65
     0
276
    -2
286
     1
 66
     0
277
    -2
287
     1
 67
     0
278
    -2
288
     1
 68
     0
279
    -2
289
     1
 69
     0
  0
VISUALSTYLE
  5
2F
102
{ACAD_REACTORS
330
29
102
}
330
29
100
AcDbVisualStyle
  2
2dWireframe
 70
     4
177
     3
291
     0
 70
    58
 90
        0
176
     1
 90
        2
176
     1
 90
        0
176
     1
 90
        0
176
     1
 40
0.6
176
     1
 40
30.0
176
     1
 62
     7
420
 16777215
176
     1
 90
        1
176
     1
 90
        4
176
     1
 62
     7
176
     1
 62
   257
176
     1
 90
        1
176
     1
 90
        1
176
     1
 40
1.0
176
     1
 90
        0
176
     1
 62
   257
176
     1
 40
1.0
176
     1
 90
        1
176
     1
 90
        6
176
     1
 90
        2
176
     1
 62
     7
176
     1
 90
        5
176
     1
 90
        0
176
     1
 90
        0
176
     1
290
     0
176
     1
 90
        1
176
     1
 40
0.0
176
     1
 90
        0
176
     1
290
     1
176
     1
290
     1
176
     1
290
     0
176
     1
290
     0
176
     1
290
     0
176
     1
290
     0
176
     1
290
     0
176
     1
290
     0
176
     1
290
     0
176
     1
 90
       50
176
     1
 40
0.0
176
     1
 40
1.0
176
     1
 90
        0
176
     1
 62
    18
420
        0
176
     1
 90
       50
176
     1
 90
        3
176
     1
 62
     5
420
      255
176
     1
290
     0
176
     1
 90
       50
176
     1
 90
       50
176
     1
 90
       50
176
     1
290
     0
176
     1
 90
       50
176
     1
 62
   256
176
     0
 40
1.0
176
     0
 90
        2
176
     1
  1
strokes_ogs.tif
176
     1
290
     0
176
     1
 40
1.0
176
     1
 40
1.0
176
     1
  0
VISUALSTYLE
  5
2E
102
{ACAD_REACTORS
330
29
102
}
330
29
100
AcDbVisualStyle
  2
Basic
 70
     7
177
     3
291
     1
 70
    58
 90
        1
176
     1
 90
        0
176
     1
 90
        1
176
     1
 90
        0
176
     1
 40
0.6
176
     1
 40
30.0
176
     1
 62
     7
420
 16777215
176
     1
 90
        0
176
     1
 90
        4
176
     1
 62
     7
176
     1
 62
   257
176
     1
 90
        1
176
     1
 90
        1
176
     1
 40
1.0
176
     1
 90
        8
176
     1
 62
     7
176
     1
 40
1.0
176
     1
 90
        1
176
     1
 90
        6
176
     1
 90
        2
176
     1
 62
     7
176
     1
 90
        5
176
     1
 90
        0
176
     1
 90
        0
176
     1
290
     0
176
     1
 90
        1
176
     1
 40
0.0
176
     1
 90
        0
176
     1
290
     0
176
     1
290
     1
176
     1
290
     1
176
     1
290
     0
176
     1
290
     0
176
     1
290
     0
176
     1
290
     0
176
     1
290
     0
176
     1
290
     0
176
     1
 90
       50
176
     1
 40
0.0
176
     1
 40
1.0
176
     1
 90
        0
176
     1
 62
    18
420
        0
176
     1
 90
       50
176
     1
 90
        3
176
     1
 62
     5
420
      255
176
     1
290
     0
176
     1
 90
       50
176
     1
 90
       50
176
     1
 90
       50
176
     1
290
     0
176
     1
 90
       50
176
     1
 62
   256
176
     0
 40
1.0
176
     0
 90
        2
176
     1
  1
strokes_ogs.tif
176
     1
290
     0
176
     1
 40
1.0
176
     1
 40
1.0
176
     1
  0
VISUALSTYLE
  5
35
102
{ACAD_REACTORS
330
29
102
}
330
29
100
AcDbVisualStyle
  2
Brighten
 70
    12
177
     3
291
     1
 70
    58
 90
        2
176
     1
 90
        2
176
     1
 90
        0
176
     1
 90
        0
176
     1
 40
0.6
176
     1
 40
30.0
176
     1
 62
     7
420
 16777215
176
     1
 90
        1
176
     1
 90
        4
176
     1
 62
     7
176
     1
 62
   257
176
     1
 90
        1
176
     1
 90
        1
176
     1
 40
1.0
176
     1
 90
        8
176
     1
 62
     7
176
     1
 40
1.0
176
     1
 90
        1
176
     1
 90
        6
176
     1
 90
        2
176
     1
 62
     7
176
     1
 90
        5
176
     1
 90
        0
176
     1
 90
        0
176
     1
290
     0
176
     1
 90
        1
176
     1
 40
50.0
176
     1
 90
        0
176
     1
290
     0
176
     1
290
     1
176
     1
290
     1
176
     1
290
     0
176
     1
290
     0
176
     1
290
     0
176
     1
290
     0
176
     1
290
     0
176
     1
290
     0
176
     1
 90
       50
176
     1
 40
0.0
176
     1
 40
1.0
176
     1
 90
        0
176
     1
 62
    18
420
        0
176
     1
 90
       50
176
     1
 90
        3
176
     1
 62
     5
420
      255
176
     1
290
     0
176
     1
 90
       50
176
     1
 90
       50
176
     1
 90
       50
176
     1
290
     0
176
     1
 90
       50
176
     1
 62
   256
176
     0
 40
1.0
176
     0
 90
        2
176
     1
  1
strokes_ogs.tif
176
     1
290
     0
176
     1
 40
1.0
176
     1
 40
1.0
176
     1
  0
VISUALSTYLE
  5
39
102
{ACAD_REACTORS
330
29
102
}
330
29
100
AcDbVisualStyle
  2
ColorChange
 70
    16
177
     3
291
     1
 70
    58
 90
        2
176
     1
 90
        2
176
     1
 90
        3
176
     1
 90
        0
176
     1
 40
0.6
176
     1
 40
30.0
176
     1
 62
     8
420
  8421504
176
     1
 90
        1
176
     1
 90
        4
176
     1
 62
     7
176
     1
 62
   257
176
     1
 90
        1
176
     1
 90
        1
176
     1
 40
1.0
176
     1
 90
        8
176
     1
 62
     8
420
  8421504
176
     1
 40
1.0
176
     1
 90
        1
176
     1
 90
        6
176
     1
 90
        2
176
     1
 62
     7
176
     1
 90
        5
176
     1
 90
        0
176
     1
 90
        0
176
     1
290
     0
176
     1
 90
        1
176
     1
 40
0.0
176
     1
 90
        0
176
     1
290
     0
176
     1
290
     1
176
     1
290
     1
176
     1
290
     0
176
     1
290
     0
176
     1
290
     0
176
     1
290
     0
176
     1
290
     0
176
     1
290
     0
176
     1
 90
       50
176
     1
 40
0.0
176
     1
 40
1.0
176
     1
 90
        0
176
     1
 62
    18
420
        0
176
     1
 90
       50
176
     1
 90
        3
176
     1
 62
     5
420
      255
176
     1
290
     0
176
     1
 90
       50
176
     1
 90
       50
176
     1
 90
       50
176
     1
290
     0
176
     1
 90
       50
176
     1
 62
   256
176
     0
 40
1.0
176
     0
 90
        2
176
     1
  1
strokes_ogs.tif
176
     1
290
     0
176
     1
 40
1.0
176
     1
 40
1.0
176
     1
  0
VISUALSTYLE
  5
32
102
{ACAD_REACTORS
330
29
102
}
330
29
100
AcDbVisualStyle
  2
Conceptual
 70
     9
177
     3
291
     0
 70
    58
 90
        3
176
     1
 90
        2
176
     1
 90
        0
176
     1
 90
        0
176
     1
 40
0.6
176
     1
 40
30.0
176
     1
 62
     7
420
 16777215
176
     1
 90
        2
176
     1
 90
        2
176
     1
 62
     7
176
     1
 62
   257
176
     1
 90
        1
176
     1
 90
        1
176
     1
 40
179.0
176
     1
 90
        8
176
     1
 62
     7
176
     1
 40
1.0
176
     1
 90
        1
176
     1
 90
        6
176
     1
 90
        2
176
     1
 62
     7
176
     1
 90
        3
176
     1
 90
        0
176
     1
 90
        0
176
     1
290
     0
176
     1
 90
        1
176
     1
 40
0.0
176
     1
 90
        0
176
     1
290
     0
176
     1
290
     1
176
     1
290
     1
176
     1
290
     0
176
     1
290
     0
176
     1
290
     0
176
     1
290
     0
176
     1
290
     0
176
     1
290
     0
176
     1
 90
       50
176
     1
 40
0.0
176
     1
 40
1.0
176
     1
 90
        0
176
     1
 62
    18
420
        0
176
     1
 90
       50
176
     1
 90
        3
176
     1
 62
     5
420
      255
176
     1
290
     0
176
     1
 90
       50
176
     1
 90
       50
176
     1
 90
       50
176
     1
290
     0
176
     1
 90
       50
176
     1
 62
   256
176
     0
 40
1.0
176
     0
 90
        2
176
     1
  1
strokes_ogs.tif
176
     1
290
     0
176
     1
 40
1.0
176
     1
 40
1.0
176
     1
  0
VISUALSTYLE
  5
34
102
{ACAD_REACTORS
330
29
102
}
330
29
100
AcDbVisualStyle
  2
Dim
 70
    11
177
     3
291
     1
 70
    58
 90
        2
176
     1
 90
        2
176
     1
 90
        0
176
     1
 90
        0
176
     1
 40
0.6
176
     1
 40
30.0
176
     1
 62
     7
420
 16777215
176
     1
 90
        1
176
     1
 90
        4
176
     1
 62
     7
176
     1
 62
   257
176
     1
 90
        1
176
     1
 90
        1
176
     1
 40
1.0
176
     1
 90
        8
176
     1
 62
     7
176
     1
 40
1.0
176
     1
 90
        1
176
     1
 90
        6
176
     1
 90
        2
176
     1
 62
     7
176
     1
 90
        5
176
     1
 90
        0
176
     1
 90
        0
176
     1
290
     0
176
     1
 90
        1
176
     1
 40
-50.0
176
     1
 90
        0
176
     1
290
     0
176
     1
290
     1
176
     1
290
     1
176
     1
290
     0
176
     1
290
     0
176
     1
290
     0
176
     1
290
     0
176
     1
290
     0
176
     1
290
     0
176
     1
 90
       50
176
     1
 40
0.0
176
     1
 40
1.0
176
     1
 90
        0
176
     1
 62
    18
420
        0
176
     1
 90
       50
176
     1
 90
        3
176
     1
 62
     5
420
      255
176
     1
290
     0
176
     1
 90
       50
176
     1
 90
       50
176
     1
 90
       50
176
     1
290
     0
176
     1
 90
       50
176
     1
 62
   256
176
     0
 40
1.0
176
     0
 90
        2
176
     1
  1
strokes_ogs.tif
176
     1
290
     0
176
     1
 40
1.0
176
     1
 40
1.0
176
     1
  0
VISUALSTYLE
  5
41
102
{ACAD_REACTORS
330
29
102
}
330
29
100
AcDbVisualStyle
  2
EdgeColorOff
 70
    22
177
     3
291
     1
 70
    58
 90
        2
176
     0
 90
        2
176
     0
 90
        0
176
     0
 90
        0
176
     0
 40
0.6
176
     0
 40
30.0
176
     0
 62
     7
420
 16777215
176
     0
 90
        1
176
     0
 90
        4
176
     0
 62
     7
176
     0
 62
   257
176
     0
 90
        1
176
     0
 90
        1
176
     0
 40
1.0
176
     0
 90
        8
176
     2
 62
     7
176
     0
 40
1.0
176
     0
 90
        1
176
     0
 90
        6
176
     0
 90
        2
176
     0
 62
     7
176
     0
 90
        5
176
     0
 90
        0
176
     0
 90
        0
176
     0
290
     0
176
     0
 90
        1
176
     0
 40
0.0
176
     0
 90
        0
176
     0
290
     0
176
     0
290
     1
176
     0
290
     1
176
     0
290
     0
176
     0
290
     0
176
     0
290
     0
176
     0
290
     0
176
     0
290
     0
176
     0
290
     0
176
     0
 90
       50
176
     0
 40
0.0
176
     0
 40
1.0
176
     0
 90
        0
176
     0
 62
    18
420
        0
176
     0
 90
       50
176
     0
 90
        3
176
     0
 62
     5
420
      255
176
     0
290
     0
176
     0
 90
       50
176
     0
 90
       50
176
     0
 90
       50
176
     0
290
     0
176
     0
 90
       50
176
     0
 62
   256
176
     0
 40
1.0
176
     0
 90
        2
176
     0
  1
strokes_ogs.tif
176
     0
290
     0
176
     0
 40
1.0
176
     0
 40
1.0
176
     0
  0
VISUALSTYLE
  5
38
102
{ACAD_REACTORS
330
29
102
}
330
29
100
AcDbVisualStyle
  2
Facepattern
 70
    15
177
     3
291
     1
 70
    58
 90
        2
176
     1
 90
        2
176
     1
 90
        0
176
     1
 90
        0
176
     1
 40
0.6
176
     1
 40
30.0
176
     1
 62
     7
420
 16777215
176
     1
 90
        1
176
     1
 90
        4
176
     1
 62
     7
176
     1
 62
   257
176
     1
 90
        1
176
     1
 90
        1
176
     1
 40
1.0
176
     1
 90
        8
176
     1
 62
     7
176
     1
 40
1.0
176
     1
 90
        1
176
     1
 90
        6
176
     1
 90
        2
176
     1
 62
     7
176
     1
 90
        5
176
     1
 90
        0
176
     1
 90
        0
176
     1
290
     0
176
     1
 90
        1
176
     1
 40
0.0
176
     1
 90
        0
176
     1
290
     0
176
     1
290
     1
176
     1
290
     1
176
     1
290
     0
176
     1
290
     0
176
     1
290
     0
176
     1
290
     0
176
     1
290
     0
176
     1
290
     0
176
     1
 90
       50
176
     1
 40
0.0
176
     1
 40
1.0
176
     1
 90
        0
176
     1
 62
    18
420
        0
176
     1
 90
       50
176
     1
 90
        3
176
     1
 62
     5
420
      255
176
     1
290
     0
176
     1
 90
       50
176
     1
 90
       50
176
     1
 90
       50
176
     1
290
     0
176
     1
 90
       50
176
     1
 62
   256
176
     0
 40
1.0
176
     0
 90
        2
176
     1
  1
strokes_ogs.tif
176
     1
290
     0
176
     1
 40
1.0
176
     1
 40
1.0
176
     1
  0
VISUALSTYLE
  5
2A
102
{ACAD_REACTORS
330
29
102
}
330
29
100
AcDbVisualStyle
  2
Flat
 70
     0
177
     3
291
     1
 70
    58
 90
        2
176
     1
 90
        1
176
     1
 90
        1
176
     1
 90
        2
176
     1
 40
0.6
176
     1
 40
30.0
176
     1
 62
     7
420
 16777215
176
     1
 90
        0
176
     1
 90
        0
176
     1
 62
     7
176
     1
 62
   257
176
     1
 90
        1
176
     1
 90
        1
176
     1
 40
1.0
176
     1
 90
        8
176
     1
 62
     7
176
     1
 40
1.0
176
     1
 90
        1
176
     1
 90
        6
176
     1
 90
        2
176
     1
 62
     7
176
     1
 90
        5
176
     1
 90
        0
176
     1
 90
        0
176
     1
290
     0
176
     1
 90
       13
176
     1
 40
0.0
176
     1
 90
        0
176
     1
290
     0
176
     1
290
     1
176
     1
290
     1
176
     1
290
     0
176
     1
290
     0
176
     1
290
     0
176
     1
290
     0
176
     1
290
     0
176
     1
290
     0
176
     1
 90
       50
176
     1
 40
0.0
176
     1
 40
1.0
176
     1
 90
        0
176
     1
 62
    18
420
        0
176
     1
 90
       50
176
     1
 90
        3
176
     1
 62
     5
420
      255
176
     1
290
     0
176
     1
 90
       50
176
     1
 90
       50
176
     1
 90
       50
176
     1
290
     0
176
     1
 90
       50
176
     1
 62
   256
176
     0
 40
1.0
176
     0
 90
        2
176
     1
  1
strokes_ogs.tif
176
     1
290
     0
176
     1
 40
1.0
176
     1
 40
1.0
176
     1
  0
VISUALSTYLE
  5
2B
102
{ACAD_REACTORS
330
29
102
}
330
29
100
AcDbVisualStyle
  2
FlatWithEdges
 70
     1
177
     3
291
     1
 70
    58
 90
        2
176
     1
 90
        1
176
     1
 90
        1
176
     1
 90
        2
176
     1
 40
0.6
176
     1
 40
30.0
176
     1
 62
     7
420
 16777215
176
     1
 90
        1
176
     1
 90
        0
176
     1
 62
     7
176
     1
 62
   257
176
     1
 90
        1
176
     1
 90
        1
176
     1
 40
1.0
176
     1
 90
        0
176
     1
 62
   257
176
     1
 40
1.0
176
     1
 90
        1
176
     1
 90
        6
176
     1
 90
        2
176
     1
 62
     7
176
     1
 90
        5
176
     1
 90
        0
176
     1
 90
        0
176
     1
290
     0
176
     1
 90
       13
176
     1
 40
0.0
176
     1
 90
        0
176
     1
290
     0
176
     1
290
     1
176
     1
290
     1
176
     1
290
     0
176
     1
290
     0
176
     1
290
     0
176
     1
290
     0
176
     1
290
     0
176
     1
290
     0
176
     1
 90
       50
176
     1
 40
0.0
176
     1
 40
1.0
176
     1
 90
        0
176
     1
 62
    18
420
        0
176
     1
 90
       50
176
     1
 90
        3
176
     1
 62
     5
420
      255
176
     1
290
     0
176
     1
 90
       50
176
     1
 90
       50
176
     1
 90
       50
176
     1
290
     0
176
     1
 90
       50
176
     1
 62
   256
176
     0
 40
1.0
176
     0
 90
        2
176
     1
  1
strokes_ogs.tif
176
     1
290
     0
176
     1
 40
1.0
176
     1
 40
1.0
176
     1
  0
VISUALSTYLE
  5
2C
102
{ACAD_REACTORS
330
29
102
}
330
29
100
AcDbVisualStyle
  2
Gouraud
 70
     2
177
     3
291
     1
 70
    58
 90
        2
176
     1
 90
        2
176
     1
 90
        1
176
     1
 90
        2
176
     1
 40
0.6
176
     1
 40
30.0
176
     1
 62
     7
420
 16777215
176
     1
 90
        0
176
     1
 90
        0
176
     1
 62
     7
176
     1
 62
   257
176
     1
 90
        1
176
     1
 90
        1
176
     1
 40
1.0
176
     1
 90
        0
176
     1
 62
     7
176
     1
 40
1.0
176
     1
 90
        1
176
     1
 90
        6
176
     1
 90
        2
176
     1
 62
     7
176
     1
 90
        5
176
     1
 90
        0
176
     1
 90
        0
176
     1
290
     0
176
     1
 90
       13
176
     1
 40
0.0
176
     1
 90
        0
176
     1
290
     0
176
     1
290
     1
176
     1
290
     1
176
     1
290
     0
176
     1
290
     0
176
     1
290
     0
176
     1
290
     0
176
     1
290
     0
176
     1
290
     0
176
     1
 90
       50
176
     1
 40
0.0
176
     1
 40
1.0
176
     1
 90
        0
176
     1
 62
    18
420
        0
176
     1
 90
       50
176
     1
 90
        3
176
     1
 62
     5
420
      255
176
     1
290
     0
176
     1
 90
       50
176
     1
 90
       50
176
     1
 90
       50
176
     1
290
     0
176
     1
 90
       50
176
     1
 62
   256
176
     0
 40
1.0
176
     0
 90
        2
176
     1
  1
strokes_ogs.tif
176
     1
290
     0
176
     1
 40
1.0
176
     1
 40
1.0
176
     1
  0
VISUALSTYLE
  5
2D
102
{ACAD_REACTORS
330
29
102
}
330
29
100
AcDbVisualStyle
  2
GouraudWithEdges
 70
     3
177
     3
291
     1
 70
    58
 90
        2
176
     1
 90
        2
176
     1
 90
        1
176
     1
 90
        2
176
     1
 40
0.6
176
     1
 40
30.0
176
     1
 62
     7
420
 16777215
176
     1
 90
        1
176
     1
 90
        0
176
     1
 62
     7
176
     1
 62
   257
176
     1
 90
        1
176
     1
 90
        1
176
     1
 40
1.0
176
     1
 90
        0
176
     1
 62
   257
176
     1
 40
1.0
176
     1
 90
        1
176
     1
 90
        6
176
     1
 90
        2
176
     1
 62
     7
176
     1
 90
        5
176
     1
 90
        0
176
     1
 90
        0
176
     1
290
     0
176
     1
 90
       13
176
     1
 40
0.0
176
     1
 90
        0
176
     1
290
     0
176
     1
290
     1
176
     1
290
     1
176
     1
290
     0
176
     1
290
     0
176
     1
290
     0
176
     1
290
     0
176
     1
290
     0
176
     1
290
     0
176
     1
 90
       50
176
     1
 40
0.0
176
     1
 40
1.0
176
     1
 90
        0
176
     1
 62
    18
420
        0
176
     1
 90
       50
176
     1
 90
        3
176
     1
 62
     5
420
      255
176
     1
290
     0
176
     1
 90
       50
176
     1
 90
       50
176
     1
 90
       50
176
     1
290
     0
176
     1
 90
       50
176
     1
 62
   256
176
     0
 40
1.0
176
     0
 90
        2
176
     1
  1
strokes_ogs.tif
176
     1
290
     0
176
     1
 40
1.0
176
     1
 40
1.0
176
     1
  0
VISUALSTYLE
  5
31
102
{ACAD_REACTORS
330
29
102
}
330
29
100
AcDbVisualStyle
  2
Hidden
 70
     6
177
     3
291
     0
 70
    58
 90
        1
176
     1
 90
        2
176
     1
 90
        2
176
     1
 90
        0
176
     1
 40
0.6
176
     1
 40
30.0
176
     1
 62
     7
420
 16777215
176
     1
 90
        2
176
     1
 90
        2
176
     1
 62
     7
176
     1
 62
   257
176
     1
 90
        2
176
     1
 90
        1
176
     1
 40
40.0
176
     1
 90
        0
176
     1
 62
   257
176
     1
 40
1.0
176
     1
 90
        1
176
     1
 90
        6
176
     1
 90
        2
176
     1
 62
     7
176
     1
 90
        3
176
     1
 90
        0
176
     1
 90
        0
176
     1
290
     0
176
     1
 90
        1
176
     1
 40
0.0
176
     1
 90
        0
176
     1
290
     0
176
     1
290
     1
176
     1
290
     1
176
     1
290
     0
176
     1
290
     0
176
     1
290
     0
176
     1
290
     0
176
     1
290
     0
176
     1
290
     0
176
     1
 90
       50
176
     1
 40
0.0
176
     1
 40
1.0
176
     1
 90
        0
176
     1
 62
    18
420
        0
176
     1
 90
       50
176
     1
 90
        3
176
     1
 62
     5
420
      255
176
     1
290
     0
176
     1
 90
       50
176
     1
 90
       50
176
     1
 90
       50
176
     1
290
     0
176
     1
 90
       50
176
     1
 62
   256
176
     0
 40
1.0
176
     0
 90
        2
176
     1
  1
strokes_ogs.tif
176
     1
290
     0
176
     1
 40
1.0
176
     1
 40
1.0
176
     1
  0
VISUALSTYLE
  5
3F
102
{ACAD_REACTORS
330
29
102
}
330
29
100
AcDbVisualStyle
  2
JitterOff
 70
    20
177
     3
291
     1
 70
    58
 90
        2
176
     0
 90
        2
176
     0
 90
        0
176
     0
 90
        0
176
     0
 40
0.6
176
     0
 40
30.0
176
     0
 62
     7
420
 16777215
176
     0
 90
        1
176
     0
 90
        4
176
     0
 62
     7
176
     0
 62
   257
176
     0
 90
        1
176
     0
 90
        1
176
     0
 40
1.0
176
     0
 90
       10
176
     2
 62
     7
176
     0
 40
1.0
176
     0
 90
        1
176
     0
 90
        6
176
     0
 90
        2
176
     0
 62
     7
176
     0
 90
        5
176
     0
 90
        0
176
     0
 90
        0
176
     0
290
     0
176
     0
 90
        1
176
     0
 40
0.0
176
     0
 90
        0
176
     0
290
     0
176
     0
290
     1
176
     0
290
     1
176
     0
290
     0
176
     0
290
     0
176
     0
290
     0
176
     0
290
     0
176
     0
290
     0
176
     0
290
     0
176
     0
 90
       50
176
     0
 40
0.0
176
     0
 40
1.0
176
     0
 90
        0
176
     0
 62
    18
420
        0
176
     0
 90
       50
176
     0
 90
        3
176
     0
 62
     5
420
      255
176
     0
290
     0
176
     0
 90
       50
176
     0
 90
       50
176
     0
 90
       50
176
     0
290
     0
176
     0
 90
       50
176
     0
 62
   256
176
     0
 40
1.0
176
     0
 90
        2
176
     0
  1
strokes_ogs.tif
176
     0
290
     0
176
     0
 40
1.0
176
     0
 40
1.0
176
     0
  0
VISUALSTYLE
  5
37
102
{ACAD_REACTORS
330
29
102
}
330
29
100
AcDbVisualStyle
  2
Linepattern
 70
    14
177
     3
291
     1
 70
    58
 90
        2
176
     1
 90
        2
176
     1
 90
        0
176
     1
 90
        0
176
     1
 40
0.6
176
     1
 40
30.0
176
     1
 62
     7
420
 16777215
176
     1
 90
        1
176
     1
 90
        4
176
     1
 62
     7
176
     1
 62
   257
176
     1
 90
        7
176
     1
 90
        7
176
     1
 40
1.0
176
     1
 90
        8
176
     1
 62
     7
176
     1
 40
1.0
176
     1
 90
        1
176
     1
 90
        6
176
     1
 90
        2
176
     1
 62
     7
176
     1
 90
        5
176
     1
 90
        0
176
     1
 90
        0
176
     1
290
     0
176
     1
 90
        1
176
     1
 40
0.0
176
     1
 90
        0
176
     1
290
     0
176
     1
290
     1
176
     1
290
     1
176
     1
290
     0
176
     1
290
     0
176
     1
290
     0
176
     1
290
     0
176
     1
290
     0
176
     1
290
     0
176
     1
 90
       50
176
     1
 40
0.0
176
     1
 40
1.0
176
     1
 90
        0
176
     1
 62
    18
420
        0
176
     1
 90
       50
176
     1
 90
        3
176
     1
 62
     5
420
      255
176
     1
290
     0
176
     1
 90
       50
176
     1
 90
       50
176
     1
 90
       50
176
     1
290
     0
176
     1
 90
       50
176
     1
 62
   256
176
     0
 40
1.0
176
     0
 90
        2
176
     1
  1
strokes_ogs.tif
176
     1
290
     0
176
     1
 40
1.0
176
     1
 40
1.0
176
     1
  0
VISUALSTYLE
  5
40
102
{ACAD_REACTORS
330
29
102
}
330
29
100
AcDbVisualStyle
  2
OverhangOff
 70
    21
177
     3
291
     1
 70
    58
 90
        2
176
     0
 90
        2
176
     0
 90
        0
176
     0
 90
        0
176
     0
 40
0.6
176
     0
 40
30.0
176
     0
 62
     7
420
 16777215
176
     0
 90
        1
176
     0
 90
        4
176
     0
 62
     7
176
     0
 62
   257
176
     0
 90
        1
176
     0
 90
        1
176
     0
 40
1.0
176
     0
 90
        9
176
     2
 62
     7
176
     0
 40
1.0
176
     0
 90
        1
176
     0
 90
        6
176
     0
 90
        2
176
     0
 62
     7
176
     0
 90
        5
176
     0
 90
        0
176
     0
 90
        0
176
     0
290
     0
176
     0
 90
        1
176
     0
 40
0.0
176
     0
 90
        0
176
     0
290
     0
176
     0
290
     1
176
     0
290
     1
176
     0
290
     0
176
     0
290
     0
176
     0
290
     0
176
     0
290
     0
176
     0
290
     0
176
     0
290
     0
176
     0
 90
       50
176
     0
 40
0.0
176
     0
 40
1.0
176
     0
 90
        0
176
     0
 62
    18
420
        0
176
     0
 90
       50
176
     0
 90
        3
176
     0
 62
     5
420
      255
176
     0
290
     0
176
     0
 90
       50
176
     0
 90
       50
176
     0
 90
       50
176
     0
290
     0
176
     0
 90
       50
176
     0
 62
   256
176
     0
 40
1.0
176
     0
 90
        2
176
     0
  1
strokes_ogs.tif
176
     0
290
     0
176
     0
 40
1.0
176
     0
 40
1.0
176
     0
  0
VISUALSTYLE
  5
33
102
{ACAD_REACTORS
330
29
102
}
330
29
100
AcDbVisualStyle
  2
Realistic
 70
     8
177
     3
291
     0
 70
    58
 90
        2
176
     1
 90
        3
176
     1
 90
        0
176
     1
 90
        2
176
     1
 40
0.6
176
     1
 40
30.0
176
     1
 62
     7
420
 16777215
176
     1
 90
        0
176
     1
 90
        0
176
     1
 62
     7
176
     1
 62
   257
176
     1
 90
        1
176
     1
 90
        1
176
     1
 40
1.0
176
     1
 90
        8
176
     1
 62
   257
176
     1
 40
1.0
176
     1
 90
        1
176
     1
 90
        6
176
     1
 90
        2
176
     1
 62
     7
176
     1
 90
        3
176
     1
 90
        0
176
     1
 90
        0
176
     1
290
     0
176
     1
 90
       13
176
     1
 40
0.0
176
     1
 90
        0
176
     1
290
     0
176
     1
290
     1
176
     1
290
     1
176
     1
290
     0
176
     1
290
     0
176
     1
290
     0
176
     1
290
     0
176
     1
290
     0
176
     1
290
     0
176
     1
 90
       50
176
     1
 40
0.0
176
     1
 40
1.0
176
     1
 90
        0
176
     1
 62
    18
420
        0
176
     1
 90
       50
176
     1
 90
        3
176
     1
 62
     5
420
      255
176
     1
290
     0
176
     1
 90
       50
176
     1
 90
       50
176
     1
 90
       50
176
     1
290
     0
176
     1
 90
       50
176
     1
 62
   256
176
     0
 40
1.0
176
     0
 90
        2
176
     1
  1
strokes_ogs.tif
176
     1
290
     0
176
     1
 40
1.0
176
     1
 40
1.0
176
     1
  0
VISUALSTYLE
  5
3E
102
{ACAD_REACTORS
330
29
102
}
330
29
100
AcDbVisualStyle
  2
Shaded
 70
    27
177
     3
291
     0
 70
    58
 90
        2
176
     1
 90
        2
176
     1
 90
        1
176
     1
 90
        2
176
     1
 40
0.6
176
     1
 40
30.0
176
     1
 62
     7
420
 16777215
176
     1
 90
        0
176
     1
 90
        4
176
     1
 62
     7
176
     1
 62
   257
176
     1
 90
        1
176
     1
 90
        1
176
     1
 40
1.0
176
     1
 90
        8
176
     1
 62
   257
176
     1
 40
1.0
176
     1
 90
        1
176
     1
 90
        6
176
     1
 90
        2
176
     1
 62
     8
420
  7895160
176
     1
 90
        3
176
     1
 90
        0
176
     1
 90
        0
176
     1
290
     0
176
     1
 90
        5
176
     1
 40
0.0
176
     1
 90
        0
176
     1
290
     0
176
     1
290
     1
176
     1
290
     1
176
     1
290
     0
176
     1
290
     0
176
     1
290
     0
176
     1
290
     0
176
     1
290
     0
176
     1
290
     0
176
     1
 90
       50
176
     1
 40
0.0
176
     1
 40
1.0
176
     1
 90
        0
176
     1
 62
    18
420
        0
176
     1
 90
       50
176
     1
 90
        3
176
     1
 62
     5
420
      255
176
     1
290
     0
176
     1
 90
       50
176
     1
 90
       50
176
     1
 90
       50
176
     1
290
     0
176
     1
 90
       50
176
     1
 62
   256
176
     0
 40
1.0
176
     0
 90
        2
176
     1
  1
strokes_ogs.tif
176
     1
290
     0
176
     1
 40
1.0
176
     1
 40
1.0
176
     1
  0
VISUALSTYLE
  5
3D
102
{ACAD_REACTORS
330
29
102
}
330
29
100
AcDbVisualStyle
  2
Shaded with edges
 70
    26
177
     3
291
     0
 70
    58
 90
        2
176
     1
 90
        2
176
     1
 90
        1
176
     1
 90
        2
176
     1
 40
0.6
176
     1
 40
30.0
176
     1
 62
     7
420
 16777215
176
     1
 90
        1
176
     1
 90
       10
176
     1
 62
     7
176
     1
 62
   257
176
     1
 90
        2
176
     1
 90
        1
176
     1
 40
1.0
176
     1
 90
        8
176
     1
 62
   257
176
     1
 40
1.0
176
     1
 90
        1
176
     1
 90
        6
176
     1
 90
        2
176
     1
 62
     7
176
     1
 90
        3
176
     1
 90
        0
176
     1
 90
        0
176
     1
290
     0
176
     1
 90
        5
176
     1
 40
0.0
176
     1
 90
        0
176
     1
290
     0
176
     1
290
     1
176
     1
290
     1
176
     1
290
     0
176
     1
290
     0
176
     1
290
     0
176
     1
290
     0
176
     1
290
     0
176
     1
290
     0
176
     1
 90
       50
176
     1
 40
0.0
176
     1
 40
1.0
176
     1
 90
        0
176
     1
 62
    18
420
        0
176
     1
 90
       50
176
     1
 90
        3
176
     1
 62
     5
420
      255
176
     1
290
     0
176
     1
 90
       50
176
     1
 90
       50
176
     1
 90
       50
176
     1
290
     0
176
     1
 90
       50
176
     1
 62
   256
176
     0
 40
1.0
176
     0
 90
        2
176
     1
  1
strokes_ogs.tif
176
     1
290
     0
176
     1
 40
1.0
176
     1
 40
1.0
176
     1
  0
VISUALSTYLE
  5
3A
102
{ACAD_REACTORS
330
29
102
}
330
29
100
AcDbVisualStyle
  2
Shades of Gray
 70
    23
177
     3
291
     0
 70
    58
 90
        2
176
     1
 90
        2
176
     1
 90
        3
176
     1
 90
        0
176
     1
 40
0.6
176
     1
 40
30.0
176
     1
 62
     7
420
 16777215
176
     1
 90
        2
176
     1
 90
        2
176
     1
 62
     7
176
     1
 62
     7
176
     1
 90
        1
176
     1
 90
        1
176
     1
 40
40.0
176
     1
 90
        8
176
     1
 62
     7
176
     1
 40
1.0
176
     1
 90
        1
176
     1
 90
        6
176
     1
 90
        2
176
     1
 62
     7
176
     1
 90
        3
176
     1
 90
        0
176
     1
 90
        0
176
     1
290
     0
176
     1
 90
        1
176
     1
 40
0.0
176
     1
 90
        0
176
     1
290
     0
176
     1
290
     1
176
     1
290
     1
176
     1
290
     0
176
     1
290
     0
176
     1
290
     0
176
     1
290
     0
176
     1
290
     0
176
     1
290
     0
176
     1
 90
       50
176
     1
 40
0.0
176
     1
 40
1.0
176
     1
 90
        0
176
     1
 62
    18
420
        0
176
     1
 90
       50
176
     1
 90
        3
176
     1
 62
     5
420
      255
176
     1
290
     0
176
     1
 90
       50
176
     1
 90
       50
176
     1
 90
       50
176
     1
290
     0
176
     1
 90
       50
176
     1
 62
   256
176
     0
 40
1.0
176
     0
 90
        2
176
     1
  1
strokes_ogs.tif
176
     1
290
     0
176
     1
 40
1.0
176
     1
 40
1.0
176
     1
  0
VISUALSTYLE
  5
3B
102
{ACAD_REACTORS
330
29
102
}
330
29
100
AcDbVisualStyle
  2
Sketchy
 70
    24
177
     3
291
     0
 70
    58
 90
        1
176
     1
 90
        2
176
     1
 90
        2
176
     1
 90
        0
176
     1
 40
0.6
176
     1
 40
30.0
176
     1
 62
     7
420
 16777215
176
     1
 90
        2
176
     1
 90
        2
176
     1
 62
     7
176
     1
 62
     7
176
     1
 90
        1
176
     1
 90
        1
176
     1
 40
40.0
176
     1
 90
       11
176
     1
 62
     7
176
     1
 40
1.0
176
     1
 90
        1
176
     1
 90
        6
176
     1
 90
        2
176
     1
 62
     7
176
     1
 90
        6
176
     1
 90
        0
176
     1
 90
        0
176
     1
290
     0
176
     1
 90
        1
176
     1
 40
0.0
176
     1
 90
        0
176
     1
290
     0
176
     1
290
     1
176
     1
290
     1
176
     1
290
     0
176
     1
290
     0
176
     1
290
     0
176
     1
290
     0
176
     1
290
     0
176
     1
290
     0
176
     1
 90
       50
176
     1
 40
0.0
176
     1
 40
1.0
176
     1
 90
        0
176
     1
 62
    18
420
        0
176
     1
 90
       50
176
     1
 90
        3
176
     1
 62
     5
420
      255
176
     1
290
     0
176
     1
 90
       50
176
     1
 90
       50
176
     1
 90
       50
176
     1
290
     0
176
     1
 90
       50
176
     1
 62
   256
176
     0
 40
1.0
176
     0
 90
        2
176
     1
  1
strokes_ogs.tif
176
     1
290
     0
176
     1
 40
1.0
176
     1
 40
1.0
176
     1
  0
VISUALSTYLE
  5
36
102
{ACAD_REACTORS
330
29
102
}
330
29
100
AcDbVisualStyle
  2
Thicken
 70
    13
177
     3
291
     1
 70
    58
 90
        2
176
     1
 90
        2
176
     1
 90
        0
176
     1
 90
        0
176
     1
 40
0.6
176
     1
 40
30.0
176
     1
 62
     7
420
 16777215
176
     1
 90
        1
176
     1
 90
        4
176
     1
 62
     7
176
     1
 62
   257
176
     1
 90
        1
176
     1
 90
        1
176
     1
 40
1.0
176
     1
 90
       12
176
     1
 62
     7
176
     1
 40
1.0
176
     1
 90
        1
176
     1
 90
        6
176
     1
 90
        2
176
     1
 62
     7
176
     1
 90
        5
176
     1
 90
        0
176
     1
 90
        0
176
     1
290
     0
176
     1
 90
        1
176
     1
 40
0.0
176
     1
 90
        0
176
     1
290
     0
176
     1
290
     1
176
     1
290
     1
176
     1
290
     0
176
     1
290
     0
176
     1
290
     0
176
     1
290
     0
176
     1
290
     0
176
     1
290
     0
176
     1
 90
       50
176
     1
 40
0.0
176
     1
 40
1.0
176
     1
 90
        0
176
     1
 62
    18
420
        0
176
     1
 90
       50
176
     1
 90
        3
176
     1
 62
     5
420
      255
176
     1
290
     0
176
     1
 90
       50
176
     1
 90
       50
176
     1
 90
       50
176
     1
290
     0
176
     1
 90
       50
176
     1
 62
   256
176
     0
 40
1.0
176
     0
 90
        2
176
     1
  1
strokes_ogs.tif
176
     1
290
     0
176
     1
 40
1.0
176
     1
 40
1.0
176
     1
  0
VISUALSTYLE
  5
30
102
{ACAD_REACTORS
330
29
102
}
330
29
100
AcDbVisualStyle
  2
Wireframe
 70
     5
177
     3
291
     0
 70
    58
 90
        0
176
     1
 90
        2
176
     1
 90
        0
176
     1
 90
        0
176
     1
 40
0.6
176
     1
 40
30.0
176
     1
 62
     7
420
 16777215
176
     1
 90
        1
176
     1
 90
        4
176
     1
 62
     7
176
     1
 62
   257
176
     1
 90
        1
176
     1
 90
        1
176
     1
 40
1.0
176
     1
 90
        0
176
     1
 62
   257
176
     1
 40
1.0
176
     1
 90
        1
176
     1
 90
        6
176
     1
 90
        2
176
     1
 62
     7
176
     1
 90
        3
176
     1
 90
        0
176
     1
 90
        0
176
     1
290
     0
176
     1
 90
        1
176
     1
 40
0.0
176
     1
 90
        0
176
     1
290
     0
176
     1
290
     1
176
     1
290
     1
176
     1
290
     0
176
     1
290
     0
176
     1
290
     0
176
     1
290
     0
176
     1
290
     0
176
     1
290
     0
176
     1
 90
       50
176
     1
 40
0.0
176
     1
 40
1.0
176
     1
 90
        0
176
     1
 62
    18
420
        0
176
     1
 90
       50
176
     1
 90
        3
176
     1
 62
     5
420
      255
176
     1
290
     0
176
     1
 90
       50
176
     1
 90
       50
176
     1
 90
       50
176
     1
290
     0
176
     1
 90
       50
176
     1
 62
   256
176
     0
 40
1.0
176
     0
 90
        2
176
     1
  1
strokes_ogs.tif
176
     1
290
     0
176
     1
 40
1.0
176
     1
 40
1.0
176
     1
  0
VISUALSTYLE
  5
3C
102
{ACAD_REACTORS
330
29
102
}
330
29
100
AcDbVisualStyle
  2
X-Ray
 70
    25
177
     3
291
     0
 70
    58
 90
        2
176
     1
 90
        2
176
     1
 90
        1
176
     1
 90
        1
176
     1
 40
0.5
176
     1
 40
30.0
176
     1
 62
     7
420
 16777215
176
     1
 90
        1
176
     1
 90
        0
176
     1
 62
     7
176
     1
 62
   257
176
     1
 90
        1
176
     1
 90
        1
176
     1
 40
1.0
176
     1
 90
        8
176
     1
 62
     7
176
     1
 40
1.0
176
     1
 90
        1
176
     1
 90
        6
176
     1
 90
        2
176
     1
 62
     7
176
     1
 90
        3
176
     1
 90
        0
176
     1
 90
        0
176
     1
290
     0
176
     1
 90
       13
176
     1
 40
0.0
176
     1
 90
        0
176
     1
290
     0
176
     1
290
     1
176
     1
290
     1
176
     1
290
     0
176
     1
290
     0
176
     1
290
     0
176
     1
290
     0
176
     1
290
     0
176
     1
290
     0
176
     1
 90
       50
176
     1
 40
0.0
176
     1
 40
1.0
176
     1
 90
        0
176
     1
 62
    18
420
        0
176
     1
 90
       50
176
     1
 90
        3
176
     1
 62
     5
420
      255
176
     1
290
     0
176
     1
 90
       50
176
     1
 90
       50
176
     1
 90
       50
176
     1
290
     0
176
     1
 90
       50
176
     1
 62
   256
176
     0
 40
1.0
176
     0
 90
        2
176
     1
  1
strokes_ogs.tif
176
     1
290
     0
176
     1
 40
1.0
176
     1
 40
1.0
176
     1
  0
DICTIONARYVAR
  5
81
102
{ACAD_REACTORS
330
7C
102
}
330
7C
100
DictionaryVariables
280
     0
  1
1:1
  0
DICTIONARYVAR
  5
7E
102
{ACAD_REACTORS
330
7C
102
}
330
7C
100
DictionaryVariables
280
     0
  1
STANDARD
  0
DICTIONARYVAR
  5
7D
102
{ACAD_REACTORS
330
7C
102
}
330
7C
100
DictionaryVariables
280
     0
  1
STANDARD
  0
DICTIONARYVAR
  5
7F
102
{ACAD_REACTORS
330
7C
102
}
330
7C
100
DictionaryVariables
280
     0
  1
Imperial24
  0
DICTIONARYVAR
  5
80
102
{ACAD_REACTORS
330
7C
102
}
330
7C
100
DictionaryVariables
280
     0
  1
Imperial24
  0
XRECORD
  5
2FE
102
{ACAD_REACTORS
330
2FA
102
}
330
2FA
100
AcDbXrecord
280
     1
  1
BUILDING_ID
  1
Progetto per messa in tavola DXF, DWG
  1
FLOOR_ID
  1
694395
  0
XRECORD
  5
2FC
102
{ACAD_REACTORS
330
2FA
102
}
330
2FA
100
AcDbXrecord
280
     1
  1
-2001160
  1
Apparecchi idraulici
  0
XRECORD
  5
2FD
102
{ACAD_REACTORS
330
2FA
102
}
330
2FA
100
AcDbXrecord
280
     1
  1
790271
  1
Body
  0
XRECORD
  5
2FB
102
{ACAD_REACTORS
330
2FA
102
}
330
2FA
100
AcDbXrecord
280
     1
  1
859151
  1
Automatic flow rate regulator valve_Caleffi_121 DN15 : 1/2''
  0
DICTIONARY
  5
1A
330
19
100
AcDbDictionary
280
     1
281
     1
  3
BUMPTILE
360
1C
  3
DIFFUSETILE
360
1B
  3
OPACITYTILE
360
1F
  3
REFLECTIONTILE
360
1E
  3
REFRACTIONTILE
360
20
  3
SPECULARTILE
360
1D
  0
DICTIONARY
  5
12
330
11
100
AcDbDictionary
280
     1
281
     1
  3
BUMPTILE
360
14
  3
DIFFUSETILE
360
13
  3
OPACITYTILE
360
17
  3
REFLECTIONTILE
360
16
  3
REFRACTIONTILE
360
18
  3
SPECULARTILE
360
15
  0
DICTIONARY
  5
22
330
21
100
AcDbDictionary
280
     1
281
     1
  3
BUMPTILE
360
24
  3
DIFFUSETILE
360
23
  3
OPACITYTILE
360
27
  3
REFLECTIONTILE
360
26
  3
REFRACTIONTILE
360
28
  3
SPECULARTILE
360
25
  0
DICTIONARY
  5
301
330
65
100
AcDbDictionary
280
     1
281
     1
  3
ACAD_ROUNDTRIP_2008_TABLESTYLE_CELLSTYLEMAP
360
302
  0
XRECORD
  5
1C
102
{ACAD_REACTORS
330
1A
102
}
330
1A
100
AcDbXrecord
280
     1
270
     1
271
     1
  0
XRECORD
  5
1B
102
{ACAD_REACTORS
330
1A
102
}
330
1A
100
AcDbXrecord
280
     1
270
     1
271
     1
  0
XRECORD
  5
1F
102
{ACAD_REACTORS
330
1A
102
}
330
1A
100
AcDbXrecord
280
     1
270
     1
271
     1
  0
XRECORD
  5
1E
102
{ACAD_REACTORS
330
1A
102
}
330
1A
100
AcDbXrecord
280
     1
270
     1
271
     1
  0
XRECORD
  5
20
102
{ACAD_REACTORS
330
1A
102
}
330
1A
100
AcDbXrecord
280
     1
270
     1
271
     1
  0
XRECORD
  5
1D
102
{ACAD_REACTORS
330
1A
102
}
330
1A
100
AcDbXrecord
280
     1
270
     1
271
     1
  0
XRECORD
  5
14
102
{ACAD_REACTORS
330
12
102
}
330
12
100
AcDbXrecord
280
     1
270
     1
271
     1
  0
XRECORD
  5
13
102
{ACAD_REACTORS
330
12
102
}
330
12
100
AcDbXrecord
280
     1
270
     1
271
     1
  0
XRECORD
  5
17
102
{ACAD_REACTORS
330
12
102
}
330
12
100
AcDbXrecord
280
     1
270
     1
271
     1
  0
XRECORD
  5
16
102
{ACAD_REACTORS
330
12
102
}
330
12
100
AcDbXrecord
280
     1
270
     1
271
     1
  0
XRECORD
  5
18
102
{ACAD_REACTORS
330
12
102
}
330
12
100
AcDbXrecord
280
     1
270
     1
271
     1
  0
XRECORD
  5
15
102
{ACAD_REACTORS
330
12
102
}
330
12
100
AcDbXrecord
280
     1
270
     1
271
     1
  0
XRECORD
  5
24
102
{ACAD_REACTORS
330
22
102
}
330
22
100
AcDbXrecord
280
     1
270
     1
271
     1
  0
XRECORD
  5
23
102
{ACAD_REACTORS
330
22
102
}
330
22
100
AcDbXrecord
280
     1
270
     1
271
     1
  0
XRECORD
  5
27
102
{ACAD_REACTORS
330
22
102
}
330
22
100
AcDbXrecord
280
     1
270
     1
271
     1
  0
XRECORD
  5
26
102
{ACAD_REACTORS
330
22
102
}
330
22
100
AcDbXrecord
280
     1
270
     1
271
     1
  0
XRECORD
  5
28
102
{ACAD_REACTORS
330
22
102
}
330
22
100
AcDbXrecord
280
     1
270
     1
271
     1
  0
XRECORD
  5
25
102
{ACAD_REACTORS
330
22
102
}
330
22
100
AcDbXrecord
280
     1
270
     1
271
     1
  0
CELLSTYLEMAP
  5
302
102
{ACAD_REACTORS
330
301
102
}
330
301
100
AcDbCellStyleMap
 90
        3
300
CELLSTYLE
  1
TABLEFORMAT_BEGIN
 90
        5
170
     1
 91
        0
 92
    32768
 62
   257
 93
        1
300
CONTENTFORMAT
  1
CONTENTFORMAT_BEGIN
 90
        0
 91
        0
 92
      512
 93
        0
300

 40
0.0
140
1.0
 94
        5
 62
     0
340
55
144
0.25
309
CONTENTFORMAT_END
171
     0
 94
        0
309
TABLEFORMAT_END
  1
CELLSTYLE_BEGIN
 90
        1
 91
        1
300
_TITLE
309
CELLSTYLE_END
300
CELLSTYLE
  1
TABLEFORMAT_BEGIN
 90
        5
170
     1
 91
        0
 92
        0
 62
   257
 93
        1
300
CONTENTFORMAT
  1
CONTENTFORMAT_BEGIN
 90
        0
 91
        0
 92
      512
 93
        0
300

 40
0.0
140
1.0
 94
        5
 62
     0
340
55
144
0.18
309
CONTENTFORMAT_END
171
     0
 94
        0
309
TABLEFORMAT_END
  1
CELLSTYLE_BEGIN
 90
        2
 91
        1
300
_HEADER
309
CELLSTYLE_END
300
CELLSTYLE
  1
TABLEFORMAT_BEGIN
 90
        5
170
     1
 91
        0
 92
        0
 62
   257
 93
        1
300
CONTENTFORMAT
  1
CONTENTFORMAT_BEGIN
 90
        0
 91
        0
 92
      512
 93
        0
300

 40
0.0
140
1.0
 94
        2
 62
     0
340
55
144
0.18
309
CONTENTFORMAT_END
171
     0
 94
        0
309
TABLEFORMAT_END
  1
CELLSTYLE_BEGIN
 90
        3
 91
        2
300
_DATA
309
CELLSTYLE_END
  0
ENDSEC
  0
EOF
