  0
SECTION
  2
HEADER
  9
$ACADVER
  1
AC1027
  9
$ACADMAINTVER
 70
    20
  9
$DWGCODEPAGE
  3
ANSI_1252
  9
$REQUIREDVERSIONS
160
                 0
  9
$INSBASE
 10
0.0
 20
0.0
 30
0.0
  9
$EXTMIN
 10
1200.666407443186
 20
208.5956499162879
 30
-0.00000001
  9
$EXTMAX
 10
3109.774353943096
 20
2499.001484375054
 30
0.00000001
  9
$LIMMIN
 10
0.0
 20
0.0
  9
$LIMMAX
 10
12.0
 20
9.0
  9
$ORTHOMODE
 70
     0
  9
$REGENMODE
 70
     1
  9
$FILLMODE
 70
     1
  9
$QTEXTMODE
 70
     0
  9
$MIRRTEXT
 70
     0
  9
$LTSCALE
 40
1.0
  9
$ATTMODE
 70
     1
  9
$TEXTSIZE
 40
0.2
  9
$TRACEWID
 40
0.05
  9
$TEXTSTYLE
  7
Standard
  9
$CLAYER
  8
0
  9
$CELTYPE
  6
ByLayer
  9
$CECOLOR
 62
   256
  9
$CELTSCALE
 40
1.0
  9
$DISPSILH
 70
     0
  9
$DIMSCALE
 40
1.0
  9
$DIMASZ
 40
0.18
  9
$DIMEXO
 40
0.0625
  9
$DIMDLI
 40
0.38
  9
$DIMRND
 40
0.0
  9
$DIMDLE
 40
0.0
  9
$DIMEXE
 40
0.18
  9
$DIMTP
 40
0.0
  9
$DIMTM
 40
0.0
  9
$DIMTXT
 40
0.18
  9
$DIMCEN
 40
0.09
  9
$DIMTSZ
 40
0.0
  9
$DIMTOL
 70
     0
  9
$DIMLIM
 70
     0
  9
$DIMTIH
 70
     1
  9
$DIMTOH
 70
     1
  9
$DIMSE1
 70
     0
  9
$DIMSE2
 70
     0
  9
$DIMTAD
 70
     0
  9
$DIMZIN
 70
     0
  9
$DIMBLK
  1

  9
$DIMASO
 70
     1
  9
$DIMSHO
 70
     1
  9
$DIMPOST
  1

  9
$DIMAPOST
  1

  9
$DIMALT
 70
     0
  9
$DIMALTD
 70
     2
  9
$DIMALTF
 40
25.4
  9
$DIMLFAC
 40
1.0
  9
$DIMTOFL
 70
     0
  9
$DIMTVP
 40
0.0
  9
$DIMTIX
 70
     0
  9
$DIMSOXD
 70
     0
  9
$DIMSAH
 70
     0
  9
$DIMBLK1
  1

  9
$DIMBLK2
  1

  9
$DIMSTYLE
  2
Standard
  9
$DIMCLRD
 70
     0
  9
$DIMCLRE
 70
     0
  9
$DIMCLRT
 70
     0
  9
$DIMTFAC
 40
1.0
  9
$DIMGAP
 40
0.09
  9
$DIMJUST
 70
     0
  9
$DIMSD1
 70
     0
  9
$DIMSD2
 70
     0
  9
$DIMTOLJ
 70
     1
  9
$DIMTZIN
 70
     0
  9
$DIMALTZ
 70
     0
  9
$DIMALTTZ
 70
     0
  9
$DIMUPT
 70
     0
  9
$DIMDEC
 70
     4
  9
$DIMTDEC
 70
     4
  9
$DIMALTU
 70
     2
  9
$DIMALTTD
 70
     2
  9
$DIMTXSTY
  7
Standard
  9
$DIMAUNIT
 70
     0
  9
$DIMADEC
 70
     0
  9
$DIMALTRND
 40
0.0
  9
$DIMAZIN
 70
     0
  9
$DIMDSEP
 70
    46
  9
$DIMATFIT
 70
     3
  9
$DIMFRAC
 70
     0
  9
$DIMLDRBLK
  1

  9
$DIMLUNIT
 70
     2
  9
$DIMLWD
 70
    -2
  9
$DIMLWE
 70
    -2
  9
$DIMTMOVE
 70
     0
  9
$DIMFXL
 40
1.0
  9
$DIMFXLON
 70
     0
  9
$DIMJOGANG
 40
0.7853981633974483
  9
$DIMTFILL
 70
     0
  9
$DIMTFILLCLR
 70
     0
  9
$DIMARCSYM
 70
     0
  9
$DIMLTYPE
  6

  9
$DIMLTEX1
  6

  9
$DIMLTEX2
  6

  9
$DIMTXTDIRECTION
 70
     0
  9
$LUNITS
 70
     2
  9
$LUPREC
 70
     4
  9
$SKETCHINC
 40
0.1
  9
$FILLETRAD
 40
0.0
  9
$AUNITS
 70
     0
  9
$AUPREC
 70
     0
  9
$MENU
  1
.
  9
$ELEVATION
 40
0.0
  9
$PELEVATION
 40
0.0
  9
$THICKNESS
 40
0.0
  9
$LIMCHECK
 70
     0
  9
$CHAMFERA
 40
0.0
  9
$CHAMFERB
 40
0.0
  9
$CHAMFERC
 40
0.0
  9
$CHAMFERD
 40
0.0
  9
$SKPOLY
 70
     0
  9
$TDCREATE
 40
2457549.353452049
  9
$TDUCREATE
 40
2457549.270118715
  9
$TDUPDATE
 40
2457549.353452049
  9
$TDUUPDATE
 40
2457549.270118715
  9
$TDINDWG
 40
0.0000468403
  9
$TDUSRTIMER
 40
0.0000468403
  9
$USRTIMER
 70
     1
  9
$ANGBASE
 50
0.0
  9
$ANGDIR
 70
     0
  9
$PDMODE
 70
     0
  9
$PDSIZE
 40
0.0
  9
$PLINEWID
 40
0.0
  9
$SPLFRAME
 70
     0
  9
$SPLINETYPE
 70
     6
  9
$SPLINESEGS
 70
     8
  9
$HANDSEED
  5
305
  9
$SURFTAB1
 70
     6
  9
$SURFTAB2
 70
     6
  9
$SURFTYPE
 70
     6
  9
$SURFU
 70
     6
  9
$SURFV
 70
     6
  9
$UCSBASE
  2

  9
$UCSNAME
  2

  9
$UCSORG
 10
0.0
 20
0.0
 30
0.0
  9
$UCSXDIR
 10
1.0
 20
0.0
 30
0.0
  9
$UCSYDIR
 10
0.0
 20
1.0
 30
0.0
  9
$UCSORTHOREF
  2

  9
$UCSORTHOVIEW
 70
     0
  9
$UCSORGTOP
 10
0.0
 20
0.0
 30
0.0
  9
$UCSORGBOTTOM
 10
0.0
 20
0.0
 30
0.0
  9
$UCSORGLEFT
 10
0.0
 20
0.0
 30
0.0
  9
$UCSORGRIGHT
 10
0.0
 20
0.0
 30
0.0
  9
$UCSORGFRONT
 10
0.0
 20
0.0
 30
0.0
  9
$UCSORGBACK
 10
0.0
 20
0.0
 30
0.0
  9
$PUCSBASE
  2

  9
$PUCSNAME
  2

  9
$PUCSORG
 10
0.0
 20
0.0
 30
0.0
  9
$PUCSXDIR
 10
1.0
 20
0.0
 30
0.0
  9
$PUCSYDIR
 10
0.0
 20
1.0
 30
0.0
  9
$PUCSORTHOREF
  2

  9
$PUCSORTHOVIEW
 70
     0
  9
$PUCSORGTOP
 10
0.0
 20
0.0
 30
0.0
  9
$PUCSORGBOTTOM
 10
0.0
 20
0.0
 30
0.0
  9
$PUCSORGLEFT
 10
0.0
 20
0.0
 30
0.0
  9
$PUCSORGRIGHT
 10
0.0
 20
0.0
 30
0.0
  9
$PUCSORGFRONT
 10
0.0
 20
0.0
 30
0.0
  9
$PUCSORGBACK
 10
0.0
 20
0.0
 30
0.0
  9
$USERI1
 70
     0
  9
$USERI2
 70
     0
  9
$USERI3
 70
     0
  9
$USERI4
 70
     0
  9
$USERI5
 70
     0
  9
$USERR1
 40
0.0
  9
$USERR2
 40
0.0
  9
$USERR3
 40
0.0
  9
$USERR4
 40
0.0
  9
$USERR5
 40
0.0
  9
$WORLDVIEW
 70
     1
  9
$SHADEDGE
 70
     3
  9
$SHADEDIF
 70
    70
  9
$TILEMODE
 70
     1
  9
$MAXACTVP
 70
    64
  9
$PINSBASE
 10
0.0
 20
0.0
 30
0.0
  9
$PLIMCHECK
 70
     0
  9
$PEXTMIN
 10
1.000000000000000E+20
 20
1.000000000000000E+20
 30
1.000000000000000E+20
  9
$PEXTMAX
 10
-1.000000000000000E+20
 20
-1.000000000000000E+20
 30
-1.000000000000000E+20
  9
$PLIMMIN
 10
0.0
 20
0.0
  9
$PLIMMAX
 10
12.0
 20
9.0
  9
$UNITMODE
 70
     0
  9
$VISRETAIN
 70
     1
  9
$PLINEGEN
 70
     0
  9
$PSLTSCALE
 70
     1
  9
$TREEDEPTH
 70
  3020
  9
$CMLSTYLE
  2
Standard
  9
$CMLJUST
 70
     0
  9
$CMLSCALE
 40
1.0
  9
$PROXYGRAPHICS
 70
     1
  9
$MEASUREMENT
 70
     1
  9
$CELWEIGHT
370
    -1
  9
$ENDCAPS
280
     0
  9
$JOINSTYLE
280
     0
  9
$LWDISPLAY
290
     0
  9
$INSUNITS
 70
     4
  9
$HYPERLINKBASE
  1

  9
$STYLESHEET
  1

  9
$XEDIT
290
     1
  9
$CEPSNTYPE
380
     0
  9
$PSTYLEMODE
290
     1
  9
$FINGERPRINTGUID
  2
{F9868281-D404-4C98-B3E6-C7E3531185CD}
  9
$VERSIONGUID
  2
{6607EFE4-1677-48FB-8E5D-3A6D9805521A}
  9
$EXTNAMES
290
     1
  9
$PSVPSCALE
 40
0.0
  9
$OLESTARTUP
290
     0
  9
$SORTENTS
280
   127
  9
$INDEXCTL
280
     0
  9
$HIDETEXT
280
     1
  9
$XCLIPFRAME
280
     2
  9
$HALOGAP
280
     0
  9
$OBSCOLOR
 70
   257
  9
$OBSLTYPE
280
     0
  9
$INTERSECTIONDISPLAY
280
     0
  9
$INTERSECTIONCOLOR
 70
   257
  9
$DIMASSOC
280
     2
  9
$PROJECTNAME
  1

  9
$CAMERADISPLAY
290
     0
  9
$LENSLENGTH
 40
50.0
  9
$CAMERAHEIGHT
 40
0.0
  9
$STEPSPERSEC
 40
2.0
  9
$STEPSIZE
 40
6.0
  9
$3DDWFPREC
 40
2.0
  9
$PSOLWIDTH
 40
0.25
  9
$PSOLHEIGHT
 40
4.0
  9
$LOFTANG1
 40
1.570796326794896
  9
$LOFTANG2
 40
1.570796326794896
  9
$LOFTMAG1
 40
0.0
  9
$LOFTMAG2
 40
0.0
  9
$LOFTPARAM
 70
     7
  9
$LOFTNORMALS
280
     1
  9
$LATITUDE
 40
37.795
  9
$LONGITUDE
 40
-122.394
  9
$NORTHDIRECTION
 40
0.0
  9
$TIMEZONE
 70
 -8000
  9
$LIGHTGLYPHDISPLAY
280
     1
  9
$TILEMODELIGHTSYNCH
280
     1
  9
$CMATERIAL
347
11
  9
$SOLIDHIST
280
     0
  9
$SHOWHIST
280
     1
  9
$DWFFRAME
280
     2
  9
$DGNFRAME
280
     0
  9
$REALWORLDSCALE
290
     1
  9
$INTERFERECOLOR
 62
     1
  9
$INTERFEREOBJVS
345
33
  9
$INTERFEREVPVS
346
30
  9
$CSHADOW
280
     0
  9
$SHADOWPLANELOCATION
 40
0.0
  0
ENDSEC
  0
SECTION
  2
CLASSES
  0
CLASS
  1
ACDBDICTIONARYWDFLT
  2
AcDbDictionaryWithDefault
  3
ObjectDBX Classes
 90
        0
 91
        1
280
     0
281
     0
  0
CLASS
  1
MATERIAL
  2
AcDbMaterial
  3
ObjectDBX Classes
 90
     1153
 91
        3
280
     0
281
     0
  0
CLASS
  1
VISUALSTYLE
  2
AcDbVisualStyle
  3
ObjectDBX Classes
 90
     4095
 91
       24
280
     0
281
     0
  0
CLASS
  1
SCALE
  2
AcDbScale
  3
ObjectDBX Classes
 90
     1153
 91
       17
280
     0
281
     0
  0
CLASS
  1
TABLESTYLE
  2
AcDbTableStyle
  3
ObjectDBX Classes
 90
     4095
 91
        1
280
     0
281
     0
  0
CLASS
  1
MLEADERSTYLE
  2
AcDbMLeaderStyle
  3
ACDB_MLEADERSTYLE_CLASS
 90
     4095
 91
        1
280
     0
281
     0
  0
CLASS
  1
ACDBSECTIONVIEWSTYLE
  2
AcDbSectionViewStyle
  3
ObjectDBX Classes
 90
     1025
 91
        1
280
     0
281
     0
  0
CLASS
  1
ACDBDETAILVIEWSTYLE
  2
AcDbDetailViewStyle
  3
ObjectDBX Classes
 90
     1025
 91
        1
280
     0
281
     0
  0
CLASS
  1
RASTERVARIABLES
  2
AcDbRasterVariables
  3
ISM
 90
        0
 91
        1
280
     0
281
     0
  0
CLASS
  1
DICTIONARYVAR
  2
AcDbDictionaryVar
  3
ObjectDBX Classes
 90
        0
 91
        5
280
     0
281
     0
  0
CLASS
  1
CELLSTYLEMAP
  2
AcDbCellStyleMap
  3
ObjectDBX Classes
 90
     1152
 91
        2
280
     0
281
     0
  0
CLASS
  1
SORTENTSTABLE
  2
AcDbSortentsTable
  3
ObjectDBX Classes
 90
        0
 91
        1
280
     0
281
     0
  0
ENDSEC
  0
SECTION
  2
TABLES
  0
TABLE
  2
VPORT
  5
8
330
0
100
AcDbSymbolTable
 70
     1
  0
VPORT
  5
57
330
8
100
AcDbSymbolTableRecord
100
AcDbViewportTableRecord
  2
*Active
 70
     0
 10
0.0
 20
0.0
 11
1.0
 21
1.0
 12
2155.220380693141
 22
1353.798567145671
 13
0.0
 23
0.0
 14
1.0
 24
1.0
 15
0.0
 25
0.0
 16
0.0
 26
0.0
 36
1.0
 17
0.0
 27
0.0
 37
0.0
 40
2290.405834458766
 41
0.8335238750171283
 42
50.0
 43
0.0
 44
0.0
 50
0.0
 51
0.0
 71
     0
 72
  1000
 73
     1
 74
     1
 75
     0
 76
     0
 77
     0
 78
     0
281
     0
 65
     1
110
0.0
120
0.0
130
0.0
111
1.0
121
0.0
131
0.0
112
0.0
122
1.0
132
0.0
 79
     0
146
0.0
 60
     3
 61
     5
292
     1
282
     1
141
0.0
142
0.0
 63
   250
421
  3355443
  0
ENDTAB
  0
TABLE
  2
LTYPE
  5
5
330
0
100
AcDbSymbolTable
 70
     3
  0
LTYPE
  5
5B
330
5
100
AcDbSymbolTableRecord
100
AcDbLinetypeTableRecord
  2
ByBlock
 70
     0
  3

 72
    65
 73
     0
 40
0.0
  0
LTYPE
  5
5C
330
5
100
AcDbSymbolTableRecord
100
AcDbLinetypeTableRecord
  2
ByLayer
 70
     0
  3

 72
    65
 73
     0
 40
0.0
  0
LTYPE
  5
5D
330
5
100
AcDbSymbolTableRecord
100
AcDbLinetypeTableRecord
  2
Continuous
 70
     0
  3
Solid line
 72
    65
 73
     0
 40
0.0
  0
LTYPE
  5
69
330
5
100
AcDbSymbolTableRecord
100
AcDbLinetypeTableRecord
  2
PHANTOM2
 70
     0
  3
___ _ _ ___ _ _ ___ _ _ ___ _ _
 72
    65
 73
     6
 40
1.25
 49
0.625
 74
     0
 49
-0.125
 74
     0
 49
0.125
 74
     0
 49
-0.125
 74
     0
 49
0.125
 74
     0
 49
-0.125
 74
     0
  0
LTYPE
  5
86
330
5
100
AcDbSymbolTableRecord
100
AcDbLinetypeTableRecord
  2
Nascosto 1_5 mm
 70
     0
  3

 72
    65
 73
     2
 40
2.2
 49
1.5
 74
     0
 49
-0.7000000000000001
 74
     0
  0
ENDTAB
  0
TABLE
  2
LAYER
  5
2
330
0
100
AcDbSymbolTable
 70
     4
  0
LAYER
  5
54
330
2
100
AcDbSymbolTableRecord
100
AcDbLayerTableRecord
  2
0
 70
     0
 62
     7
  6
Continuous
370
    -3
390
F
347
21
348
0
  0
LAYER
  5
85
330
2
100
AcDbSymbolTableRecord
100
AcDbLayerTableRecord
  2
P-SANR-FIXT
 70
     0
 62
     6
  6
Continuous
370
    18
390
F
347
21
348
0
  0
LAYER
  5
88
330
2
100
AcDbSymbolTableRecord
100
AcDbLayerTableRecord
  2
M-PIPE
 70
     0
 62
     3
  6
Continuous
370
    18
390
F
347
21
348
0
  0
ENDTAB
  0
TABLE
  2
STYLE
  5
3
330
0
100
AcDbSymbolTable
 70
     2
  0
STYLE
  5
55
330
3
100
AcDbSymbolTableRecord
100
AcDbTextStyleTableRecord
  2
Standard
 70
     0
 40
0.0
 41
1.0
 50
0.0
 71
     0
 42
0.2
  3
txt
  4

  0
STYLE
  5
5A
330
3
100
AcDbSymbolTableRecord
100
AcDbTextStyleTableRecord
  2
Annotative
 70
     0
 40
0.0
 41
1.0
 50
0.0
 71
     0
 42
0.2
  3
txt
  4

1001
AcadAnnotative
1000
AnnotativeData
1002
{
1070
     1
1070
     1
1002
}
  0
ENDTAB
  0
TABLE
  2
VIEW
  5
6
330
0
100
AcDbSymbolTable
 70
     0
  0
ENDTAB
  0
TABLE
  2
UCS
  5
7
330
0
100
AcDbSymbolTable
 70
     0
  0
ENDTAB
  0
TABLE
  2
APPID
  5
9
330
0
100
AcDbSymbolTable
 70
     3
  0
APPID
  5
56
330
9
100
AcDbSymbolTableRecord
100
AcDbRegAppTableRecord
  2
ACAD
 70
     0
  0
APPID
  5
5E
330
9
100
AcDbSymbolTableRecord
100
AcDbRegAppTableRecord
  2
AcadAnnotative
 70
     0
  0
APPID
  5
79
330
9
100
AcDbSymbolTableRecord
100
AcDbRegAppTableRecord
  2
REVIT
 70
     0
  0
ENDTAB
  0
TABLE
  2
DIMSTYLE
  5
A
330
0
100
AcDbSymbolTable
 70
     2
100
AcDbDimStyleTable
 71
     0
  0
DIMSTYLE
105
58
330
A
100
AcDbSymbolTableRecord
100
AcDbDimStyleTableRecord
  2
Standard
 70
     0
340
55
  0
DIMSTYLE
105
59
330
A
100
AcDbSymbolTableRecord
100
AcDbDimStyleTableRecord
  2
Annotative
 70
     0
340
55
1001
AcadAnnotative
1000
AnnotativeData
1002
{
1070
     1
1070
     1
1002
}
  0
ENDTAB
  0
TABLE
  2
BLOCK_RECORD
  5
1
330
0
100
AcDbSymbolTable
 70
     4
  0
BLOCK_RECORD
  5
71
102
{ACAD_XDICTIONARY
360
300
102
}
330
1
100
AcDbSymbolTableRecord
100
AcDbBlockTableRecord
  2
*Model_Space
340
74
 70
     0
280
     1
281
     0
  0
BLOCK_RECORD
  5
6D
330
1
100
AcDbSymbolTableRecord
100
AcDbBlockTableRecord
  2
*Paper_Space
340
70
 70
     0
280
     1
281
     0
  0
BLOCK_RECORD
  5
75
330
1
100
AcDbSymbolTableRecord
100
AcDbBlockTableRecord
  2
*Paper_Space0
340
78
 70
     0
280
     1
281
     0
  0
BLOCK_RECORD
  5
87
330
1
100
AcDbSymbolTableRecord
100
AcDbBlockTableRecord
  2
Automatic flow rate regulator valve_Caleffi_121 DN15 - 1_2__-859151-Est - Idraulica
340
0
102
{BLKREFS
331
1A7
102
}
 70
     0
280
     1
281
     0
  0
BLOCK_RECORD
  5
1A8
330
1
100
AcDbSymbolTableRecord
100
AcDbBlockTableRecord
  2
Automatic flow rate regulator valve_Caleffi_121 DN15 - 1_2__-V1-Est - Idraulica
340
0
102
{BLKREFS
331
259
102
}
 70
     0
280
     1
281
     0
  0
BLOCK_RECORD
  5
25A
330
1
100
AcDbSymbolTableRecord
100
AcDbBlockTableRecord
  2
Automatic flow rate regulator valve_Caleffi_121 DN15 - 1_2__-V2-Est - Idraulica
340
0
102
{BLKREFS
331
2F9
102
}
 70
     0
280
     1
281
     0
  0
ENDTAB
  0
ENDSEC
  0
SECTION
  2
BLOCKS
  0
BLOCK
  5
72
330
71
100
AcDbEntity
  8
0
100
AcDbBlockBegin
  2
*Model_Space
 70
     0
 10
0.0
 20
0.0
 30
0.0
  3
*Model_Space
  1

  0
ENDBLK
  5
73
330
71
100
AcDbEntity
  8
0
100
AcDbBlockEnd
  0
BLOCK
  5
6E
330
6D
100
AcDbEntity
 67
     1
  8
0
100
AcDbBlockBegin
  2
*Paper_Space
 70
     0
 10
0.0
 20
0.0
 30
0.0
  3
*Paper_Space
  1

  0
ENDBLK
  5
6F
330
6D
100
AcDbEntity
 67
     1
  8
0
100
AcDbBlockEnd
  0
BLOCK
  5
76
330
75
100
AcDbEntity
 67
     1
  8
0
100
AcDbBlockBegin
  2
*Paper_Space0
 70
     0
 10
0.0
 20
0.0
 30
0.0
  3
*Paper_Space0
  1

  0
ENDBLK
  5
77
330
75
100
AcDbEntity
 67
     1
  8
0
100
AcDbBlockEnd
  0
BLOCK
  5
1A5
330
87
100
AcDbEntity
  8
0
100
AcDbBlockBegin
  2
Automatic flow rate regulator valve_Caleffi_121 DN15 - 1_2__-859151-Est - Idraulica
 70
     0
 10
0.0
 20
0.0
 30
0.0
  3
Automatic flow rate regulator valve_Caleffi_121 DN15 - 1_2__-859151-Est - Idraulica
  1

  0
LINE
  5
89
330
87
100
AcDbEntity
  8
M-PIPE
100
AcDbLine
 10
1535.666407443206
 20
2489.001484374988
 30
0.0
 11
1551.166407443206
 21
2489.001484374988
 31
0.0
1001
REVIT
1002
{
1070
     3
1000
790271
1002
}
  0
LINE
  5
8A
330
87
100
AcDbEntity
  8
M-PIPE
100
AcDbLine
 10
1520.166407443206
 20
2489.001484374988
 30
0.0
 11
1535.666407443206
 21
2489.001484374988
 31
0.0
1001
REVIT
1002
{
1070
     3
1000
790271
1002
}
  0
LINE
  5
8B
330
87
100
AcDbEntity
  8
M-PIPE
100
AcDbLine
 10
1535.666407443206
 20
2489.001484374988
 30
0.0
 11
1535.666407443206
 21
2478.501484374988
 31
0.0
1001
REVIT
1002
{
1070
     3
1000
790271
1002
}
  0
LINE
  5
8C
330
87
100
AcDbEntity
  8
M-PIPE
100
AcDbLine
 10
1551.166407443206
 20
2478.501484374988
 30
0.0
 11
1551.166407443206
 21
2489.001484374988
 31
0.0
1001
REVIT
1002
{
1070
     3
1000
790271
1002
}
  0
LINE
  5
8D
330
87
100
AcDbEntity
  8
M-PIPE
100
AcDbLine
 10
1520.166407443206
 20
2478.501484374988
 30
0.0
 11
1520.166407443206
 21
2489.001484374988
 31
0.0
1001
REVIT
1002
{
1070
     3
1000
790271
1002
}
  0
LINE
  5
8E
330
87
100
AcDbEntity
  8
M-PIPE
100
AcDbLine
 10
1487.133855110968
 20
2455.001484374988
 30
0.0
 11
1490.41640744319
 21
2361.001484374989
 31
0.0
1001
REVIT
1002
{
1070
     3
1000
790271
1002
}
  0
LINE
  5
8F
330
87
100
AcDbEntity
  8
M-PIPE
100
AcDbLine
 10
1580.91640744319
 20
2361.001484374988
 30
0.0
 11
1584.198959775415
 21
2455.001484374988
 31
0.0
1001
REVIT
1002
{
1070
     3
1000
790271
1002
}
  0
LINE
  5
90
330
87
100
AcDbEntity
  8
M-PIPE
100
AcDbLine
 10
1496.916407443207
 20
2469.001484374989
 30
0.0
 11
1496.916407443207
 21
2455.001484374988
 31
0.0
1001
REVIT
1002
{
1070
     3
1000
790271
1002
}
  0
LINE
  5
91
330
87
100
AcDbEntity
  8
M-PIPE
100
AcDbLine
 10
1574.416407443207
 20
2455.001484374988
 30
0.0
 11
1574.416407443207
 21
2469.001484374989
 31
0.0
1001
REVIT
1002
{
1070
     3
1000
790271
1002
}
  0
LINE
  5
92
330
87
100
AcDbEntity
  8
M-PIPE
100
AcDbLine
 10
1603.166407443207
 20
2455.001484374988
 30
0.0
 11
1603.166407443207
 21
2469.001484374989
 31
0.0
1001
REVIT
1002
{
1070
     3
1000
790271
1002
}
  0
LINE
  5
93
330
87
100
AcDbEntity
  8
M-PIPE
100
AcDbLine
 10
1468.166407443207
 20
2469.001484374989
 30
0.0
 11
1468.166407443207
 21
2455.001484374988
 31
0.0
1001
REVIT
1002
{
1070
     3
1000
790271
1002
}
  0
LINE
  5
94
330
87
100
AcDbEntity
  8
M-PIPE
100
AcDbLine
 10
1509.166407443192
 20
2478.501484374989
 30
0.0
 11
1509.166407443192
 21
2469.001484374989
 31
0.0
1001
REVIT
1002
{
1070
     3
1000
790271
1002
}
  0
LINE
  5
95
330
87
100
AcDbEntity
  8
M-PIPE
100
AcDbLine
 10
1562.166407443192
 20
2469.001484374989
 30
0.0
 11
1562.166407443192
 21
2478.501484374988
 31
0.0
1001
REVIT
1002
{
1070
     3
1000
790271
1002
}
  0
LINE
  5
96
330
87
100
AcDbEntity
  8
M-PIPE
100
AcDbLine
 10
1524.816407443193
 20
2499.001484375054
 30
0.0
 11
1524.816407443192
 21
2489.001484374989
 31
0.0
1001
REVIT
1002
{
1070
     3
1000
790271
1002
}
  0
LINE
  5
97
330
87
100
AcDbEntity
  8
M-PIPE
100
AcDbLine
 10
1546.516407443192
 20
2489.001484374989
 30
0.0
 11
1546.516407443192
 21
2499.001484375054
 31
0.0
1001
REVIT
1002
{
1070
     3
1000
790271
1002
}
  0
LINE
  5
98
330
87
100
AcDbEntity
  8
M-PIPE
100
AcDbLine
 10
1535.666407443206
 20
2341.001484374987
 30
0.0
 11
1515.666407443205
 21
2341.001484374987
 31
0.0
1001
REVIT
1002
{
1070
     3
1000
790271
1002
}
  0
LINE
  5
99
330
87
100
AcDbEntity
  8
M-PIPE
100
AcDbLine
 10
1555.666407443206
 20
2341.001484374987
 30
0.0
 11
1535.666407443206
 21
2341.001484374987
 31
0.0
1001
REVIT
1002
{
1070
     3
1000
790271
1002
}
  0
LINE
  5
9A
330
87
100
AcDbEntity
  8
M-PIPE
100
AcDbLine
 10
1535.666407443206
 20
2361.001484374987
 30
0.0
 11
1535.666407443206
 21
2341.001484374987
 31
0.0
1001
REVIT
1002
{
1070
     3
1000
790271
1002
}
  0
LINE
  5
9B
330
87
100
AcDbEntity
  8
M-PIPE
100
AcDbLine
 10
1555.666407443206
 20
2341.001484374987
 30
0.0
 11
1555.666407443206
 21
2361.001484374987
 31
0.0
1001
REVIT
1002
{
1070
     3
1000
790271
1002
}
  0
LINE
  5
9C
330
87
100
AcDbEntity
  8
M-PIPE
100
AcDbLine
 10
1515.666407443205
 20
2341.001484374987
 30
0.0
 11
1515.666407443205
 21
2361.001484374987
 31
0.0
1001
REVIT
1002
{
1070
     3
1000
790271
1002
}
  0
LINE
  5
9D
330
87
100
AcDbEntity
  8
M-PIPE
100
AcDbLine
 10
1490.416407443189
 20
2361.001484374988
 30
0.0
 11
1535.66640744319
 21
2361.001484374988
 31
0.0
1001
REVIT
1002
{
1070
     3
1000
790271
1002
}
  0
LINE
  5
9E
330
87
100
AcDbEntity
  8
M-PIPE
100
AcDbLine
 10
1535.66640744319
 20
2361.001484374988
 30
0.0
 11
1580.916407443189
 21
2361.001484374987
 31
0.0
1001
REVIT
1002
{
1070
     3
1000
790271
1002
}
  0
LINE
  5
9F
330
87
100
AcDbEntity
  8
M-PIPE
100
AcDbLine
 10
1479.035972660597
 20
2469.001484374988
 30
0.0
 11
1496.89113333836
 21
2469.001484374988
 31
0.0
1001
REVIT
1002
{
1070
     3
1000
790271
1002
}
  0
LINE
  5
A0
330
87
100
AcDbEntity
  8
M-PIPE
100
AcDbLine
 10
1496.916407443205
 20
2469.001484374988
 30
0.0
 11
1515.978639979286
 21
2469.001484374988
 31
0.0
1001
REVIT
1002
{
1070
     3
1000
790271
1002
}
  0
LINE
  5
A1
330
87
100
AcDbEntity
  8
M-PIPE
100
AcDbLine
 10
1515.978639979286
 20
2469.001484374988
 30
0.0
 11
1555.354174907125
 21
2469.001484374988
 31
0.0
1001
REVIT
1002
{
1070
     3
1000
790271
1002
}
  0
LINE
  5
A2
330
87
100
AcDbEntity
  8
M-PIPE
100
AcDbLine
 10
1555.354174907126
 20
2469.001484374988
 30
0.0
 11
1574.416407443206
 21
2469.001484374988
 31
0.0
1001
REVIT
1002
{
1070
     3
1000
790271
1002
}
  0
LINE
  5
A3
330
87
100
AcDbEntity
  8
M-PIPE
100
AcDbLine
 10
1574.441681548051
 20
2469.001484374988
 30
0.0
 11
1592.296842225814
 21
2469.001484374988
 31
0.0
1001
REVIT
1002
{
1070
     3
1000
790271
1002
}
  0
LINE
  5
A4
330
87
100
AcDbEntity
  8
M-PIPE
100
AcDbLine
 10
1592.296842225814
 20
2469.001484374988
 30
0.0
 11
1603.166407443205
 21
2469.001484374988
 31
0.0
1001
REVIT
1002
{
1070
     3
1000
790271
1002
}
  0
LINE
  5
A5
330
87
100
AcDbEntity
  8
M-PIPE
100
AcDbLine
 10
1468.166407443205
 20
2469.001484374988
 30
0.0
 11
1479.035972660596
 21
2469.001484374988
 31
0.0
1001
REVIT
1002
{
1070
     3
1000
790271
1002
}
  0
LINE
  5
A6
330
87
100
AcDbEntity
  8
M-PIPE
100
AcDbLine
 10
1479.035972660597
 20
2455.001484374988
 30
0.0
 11
1468.166407443205
 21
2455.001484374988
 31
0.0
1001
REVIT
1002
{
1070
     3
1000
790271
1002
}
  0
LINE
  5
A7
330
87
100
AcDbEntity
  8
M-PIPE
100
AcDbLine
 10
1603.166407443205
 20
2455.001484374988
 30
0.0
 11
1592.296842225814
 21
2455.001484374988
 31
0.0
1001
REVIT
1002
{
1070
     3
1000
790271
1002
}
  0
LINE
  5
A8
330
87
100
AcDbEntity
  8
M-PIPE
100
AcDbLine
 10
1592.296842225814
 20
2455.001484374988
 30
0.0
 11
1574.441681548052
 21
2455.001484374988
 31
0.0
1001
REVIT
1002
{
1070
     3
1000
790271
1002
}
  0
LINE
  5
A9
330
87
100
AcDbEntity
  8
M-PIPE
100
AcDbLine
 10
1574.416407443206
 20
2455.001484374988
 30
0.0
 11
1555.354174907126
 21
2455.001484374988
 31
0.0
1001
REVIT
1002
{
1070
     3
1000
790271
1002
}
  0
LINE
  5
AA
330
87
100
AcDbEntity
  8
M-PIPE
100
AcDbLine
 10
1555.354174907125
 20
2455.001484374988
 30
0.0
 11
1515.978639979286
 21
2455.001484374988
 31
0.0
1001
REVIT
1002
{
1070
     3
1000
790271
1002
}
  0
LINE
  5
AB
330
87
100
AcDbEntity
  8
M-PIPE
100
AcDbLine
 10
1515.978639979286
 20
2455.001484374988
 30
0.0
 11
1496.916407443205
 21
2455.001484374988
 31
0.0
1001
REVIT
1002
{
1070
     3
1000
790271
1002
}
  0
LINE
  5
AC
330
87
100
AcDbEntity
  8
M-PIPE
100
AcDbLine
 10
1496.89113333836
 20
2455.001484374988
 30
0.0
 11
1479.035972660597
 21
2455.001484374988
 31
0.0
1001
REVIT
1002
{
1070
     3
1000
790271
1002
}
  0
LINE
  5
AD
330
87
100
AcDbEntity
  8
M-PIPE
100
AcDbLine
 10
1479.035972660597
 20
2469.001484374988
 30
0.0
 11
1479.035972660597
 21
2455.001484374988
 31
0.0
1001
REVIT
1002
{
1070
     3
1000
790271
1002
}
  0
LINE
  5
AE
330
87
100
AcDbEntity
  8
M-PIPE
100
AcDbLine
 10
1515.978639979286
 20
2455.001484374988
 30
0.0
 11
1515.978639979286
 21
2469.001484374988
 31
0.0
1001
REVIT
1002
{
1070
     3
1000
790271
1002
}
  0
LINE
  5
AF
330
87
100
AcDbEntity
  8
M-PIPE
100
AcDbLine
 10
1555.354174907126
 20
2455.001484374988
 30
0.0
 11
1555.354174907126
 21
2469.001484374988
 31
0.0
1001
REVIT
1002
{
1070
     3
1000
790271
1002
}
  0
LINE
  5
B0
330
87
100
AcDbEntity
  8
M-PIPE
100
AcDbLine
 10
1592.296842225814
 20
2455.001484374988
 30
0.0
 11
1592.296842225814
 21
2469.001484374988
 31
0.0
1001
REVIT
1002
{
1070
     3
1000
790271
1002
}
  0
LINE
  5
B1
330
87
100
AcDbEntity
  8
M-PIPE
100
AcDbLine
 10
1535.666407443191
 20
2478.501484374988
 30
0.0
 11
1509.16640744319
 21
2478.501484374988
 31
0.0
1001
REVIT
1002
{
1070
     3
1000
790271
1002
}
  0
LINE
  5
B2
330
87
100
AcDbEntity
  8
M-PIPE
100
AcDbLine
 10
1562.166407443191
 20
2478.501484374988
 30
0.0
 11
1535.666407443191
 21
2478.501484374988
 31
0.0
1001
REVIT
1002
{
1070
     3
1000
790271
1002
}
  0
LINE
  5
B3
330
87
100
AcDbEntity
  8
M-PIPE
100
AcDbLine
 10
1535.666407443191
 20
2499.001484375053
 30
0.0
 11
1524.816407443191
 21
2499.001484375054
 31
0.0
1001
REVIT
1002
{
1070
     3
1000
790271
1002
}
  0
LINE
  5
B4
330
87
100
AcDbEntity
  8
M-PIPE
100
AcDbLine
 10
1546.516407443191
 20
2499.001484375053
 30
0.0
 11
1535.666407443191
 21
2499.001484375053
 31
0.0
1001
REVIT
1002
{
1070
     3
1000
790271
1002
}
  0
LINE
  5
B5
330
87
100
AcDbEntity
  8
M-PIPE
100
AcDbLine
 10
1554.319532443147
 20
2297.906249999997
 30
0.0
 11
1554.319532443147
 21
2332.136718749997
 31
0.0
1001
REVIT
1002
{
1070
     3
1000
790271
1002
}
  0
LINE
  5
B6
330
87
100
AcDbEntity
  8
M-PIPE
100
AcDbLine
 10
1517.013282443113
 20
2332.136718749997
 30
0.0
 11
1517.013282443113
 21
2326.133984374989
 31
0.0
1001
REVIT
1002
{
1070
     3
1000
790271
1002
}
  0
LINE
  5
B7
330
87
100
AcDbEntity
  8
M-PIPE
100
AcDbLine
 10
1517.013282443113
 20
2303.908984374989
 30
0.0
 11
1517.013282443113
 21
2297.906249999997
 31
0.0
1001
REVIT
1002
{
1070
     3
1000
790271
1002
}
  0
LINE
  5
B8
330
87
100
AcDbEntity
  8
M-PIPE
100
AcDbLine
 10
1508.678907442997
 20
2303.908984374989
 30
0.0
 11
1517.013282443113
 21
2303.908984374989
 31
0.0
1001
REVIT
1002
{
1070
     3
1000
790271
1002
}
  0
LINE
  5
B9
330
87
100
AcDbEntity
  8
M-PIPE
100
AcDbLine
 10
1517.013282443113
 20
2326.133984374989
 30
0.0
 11
1508.678907442997
 21
2326.133984374989
 31
0.0
1001
REVIT
1002
{
1070
     3
1000
790271
1002
}
  0
LINE
  5
BA
330
87
100
AcDbEntity
  8
M-PIPE
100
AcDbLine
 10
1554.319532443146
 20
2297.906249999996
 30
0.0
 11
1535.666407443129
 21
2297.906249999996
 31
0.0
1001
REVIT
1002
{
1070
     3
1000
790271
1002
}
  0
LINE
  5
BB
330
87
100
AcDbEntity
  8
M-PIPE
100
AcDbLine
 10
1535.666407443129
 20
2297.906249999996
 30
0.0
 11
1517.013282443112
 21
2297.906249999996
 31
0.0
1001
REVIT
1002
{
1070
     3
1000
790271
1002
}
  0
SPLINE
  5
BC
330
87
100
AcDbEntity
  8
M-PIPE
100
AcDbSpline
210
0.0
220
0.0
230
1.0
 70
     8
 71
     3
 72
    27
 73
    23
 74
     0
 42
0.000000001
 43
0.0000000001
 40
0.0
 40
0.0
 40
0.0
 40
0.0
 40
0.0555555555555556
 40
0.1111111111111111
 40
0.2222222222222222
 40
0.2777777777777778
 40
0.3333333333333333
 40
0.3472222222222222
 40
0.3611111111111111
 40
0.3888888888888888
 40
0.4444444444444445
 40
0.4722222222222223
 40
0.5
 40
0.5277777777777778
 40
0.5555555555555556
 40
0.6111111111111112
 40
0.6388888888888889
 40
0.6666666666666666
 40
0.7777777777777777
 40
0.8888888888888889
 40
0.9444444444444444
 40
1.0
 40
1.0
 40
1.0
 40
1.0
 10
1517.013282443112
 20
2326.133984374989
 30
0.0
 10
1517.013282443112
 20
2326.120611252038
 30
0.0
 10
1517.089686001684
 20
2325.989723239828
 30
0.0
 10
1517.492663282917
 20
2325.328403129211
 30
0.0
 10
1518.228842740478
 20
2323.991163483624
 30
0.0
 10
1519.070240689395
 20
2322.207814520085
 30
0.0
 10
1519.536725421601
 20
2321.036838559448
 30
0.0
 10
1519.810552538633
 20
2320.208731597533
 30
0.0
 10
1519.990186305709
 20
2319.63333950648
 30
0.0
 10
1520.284540677764
 20
2318.579478402117
 30
0.0
 10
1520.537486484171
 20
2317.324283392156
 30
0.0
 10
1520.652723856378
 20
2316.033183396288
 30
0.0
 10
1520.683544824335
 20
2315.023274389343
 30
0.0
 10
1520.653011370506
 20
2314.01331140218
 30
0.0
 10
1520.537926118282
 20
2312.72185778935
 30
0.0
 10
1520.285454123692
 20
2311.466506329834
 30
0.0
 10
1519.947483812413
 20
2310.25912031621
 30
0.0
 10
1519.406097301162
 20
2308.570975013419
 30
0.0
 10
1518.412192463247
 20
2306.386022019482
 30
0.0
 10
1517.493109155738
 20
2304.715295681494
 30
0.0
 10
1517.089656260917
 20
2304.053060346756
 30
0.0
 10
1517.013282443112
 20
2303.922263901364
 30
0.0
 10
1517.013282443112
 20
2303.908984374988
 30
0.0
1001
REVIT
1002
{
1070
     3
1000
790271
1002
}
  0
LINE
  5
BD
330
87
100
AcDbEntity
  8
M-PIPE
100
AcDbLine
 10
1554.319532443146
 20
2332.136718749996
 30
0.0
 11
1535.666407443129
 21
2332.136718749996
 31
0.0
1001
REVIT
1002
{
1070
     3
1000
790271
1002
}
  0
LINE
  5
BE
330
87
100
AcDbEntity
  8
M-PIPE
100
AcDbLine
 10
1535.666407443129
 20
2332.136718749996
 30
0.0
 11
1517.013282443112
 21
2332.136718749996
 31
0.0
1001
REVIT
1002
{
1070
     3
1000
790271
1002
}
  0
LINE
  5
BF
330
87
100
AcDbEntity
  8
M-PIPE
100
AcDbLine
 10
1520.783594943159
 20
2332.136718749996
 30
0.0
 11
1520.783594943159
 21
2341.001484374989
 31
0.0
1001
REVIT
1002
{
1070
     3
1000
790271
1002
}
  0
LINE
  5
C0
330
87
100
AcDbEntity
  8
M-PIPE
100
AcDbLine
 10
1550.54921994316
 20
2341.001484374989
 30
0.0
 11
1550.54921994316
 21
2332.136718749996
 31
0.0
1001
REVIT
1002
{
1070
     3
1000
790271
1002
}
  0
LINE
  5
C1
330
87
100
AcDbEntity
  8
M-PIPE
100
AcDbLine
 10
1541.831070226916
 20
2341.001484374989
 30
0.0
 11
1541.831070226916
 21
2332.136718749996
 31
0.0
1001
REVIT
1002
{
1070
     3
1000
790271
1002
}
  0
LINE
  5
C2
330
87
100
AcDbEntity
  8
M-PIPE
100
AcDbLine
 10
1529.501744659404
 20
2341.001484374989
 30
0.0
 11
1529.501744659404
 21
2332.136718749996
 31
0.0
1001
REVIT
1002
{
1070
     3
1000
790271
1002
}
  0
LINE
  5
C3
330
87
100
AcDbEntity
  8
M-PIPE
100
AcDbLine
 10
1552.037501193129
 20
2285.999999999996
 30
0.0
 11
1542.44753650526
 21
2285.999999999996
 31
0.0
1001
REVIT
1002
{
1070
     3
1000
790271
1002
}
  0
LINE
  5
C4
330
87
100
AcDbEntity
  8
M-PIPE
100
AcDbLine
 10
1542.44753650526
 20
2285.999999999996
 30
0.0
 11
1528.885278380997
 21
2285.999999999996
 31
0.0
1001
REVIT
1002
{
1070
     3
1000
790271
1002
}
  0
LINE
  5
C5
330
87
100
AcDbEntity
  8
M-PIPE
100
AcDbLine
 10
1528.885278380997
 20
2285.999999999996
 30
0.0
 11
1519.295313693129
 21
2285.999999999996
 31
0.0
1001
REVIT
1002
{
1070
     3
1000
790271
1002
}
  0
LINE
  5
C6
330
87
100
AcDbEntity
  8
M-PIPE
100
AcDbLine
 10
1552.037501193129
 20
2297.906249999996
 30
0.0
 11
1552.037501193129
 21
2285.999999999996
 31
0.0
1001
REVIT
1002
{
1070
     3
1000
790271
1002
}
  0
LINE
  5
C7
330
87
100
AcDbEntity
  8
M-PIPE
100
AcDbLine
 10
1542.44753650526
 20
2297.906249999996
 30
0.0
 11
1542.44753650526
 21
2285.999999999996
 31
0.0
1001
REVIT
1002
{
1070
     3
1000
790271
1002
}
  0
LINE
  5
C8
330
87
100
AcDbEntity
  8
M-PIPE
100
AcDbLine
 10
1528.885278380997
 20
2297.906249999996
 30
0.0
 11
1528.885278380997
 21
2285.999999999996
 31
0.0
1001
REVIT
1002
{
1070
     3
1000
790271
1002
}
  0
LINE
  5
C9
330
87
100
AcDbEntity
  8
M-PIPE
100
AcDbLine
 10
1519.295313693129
 20
2297.906249999996
 30
0.0
 11
1519.295313693129
 21
2285.999999999996
 31
0.0
1001
REVIT
1002
{
1070
     3
1000
790271
1002
}
  0
LINE
  5
CA
330
87
100
AcDbEntity
  8
M-PIPE
100
AcDbLine
 10
1497.486538242757
 20
2299.940234374997
 30
0.0
 11
1508.678907442997
 21
2299.940234374997
 31
0.0
1001
REVIT
1002
{
1070
     3
1000
790271
1002
}
  0
LINE
  5
CB
330
87
100
AcDbEntity
  8
M-PIPE
100
AcDbLine
 10
1508.678907442997
 20
2330.102734374982
 30
0.0
 11
1497.486538242758
 21
2330.102734374982
 31
0.0
1001
REVIT
1002
{
1070
     3
1000
790271
1002
}
  0
LINE
  5
CC
330
87
100
AcDbEntity
  8
M-PIPE
100
AcDbLine
 10
1508.678907442995
 20
2330.10273437498
 30
0.0
 11
1508.678907442995
 21
2299.940234374996
 31
0.0
1001
REVIT
1002
{
1070
     3
1000
790271
1002
}
  0
LINE
  5
CD
330
87
100
AcDbEntity
  8
M-PIPE
100
AcDbLine
 10
1498.46823635208
 20
2328.700724177049
 30
0.0
 11
1480.103907443123
 21
2328.700724177048
 31
0.0
1001
REVIT
1002
{
1070
     3
1000
790271
1002
}
  0
LINE
  5
CE
330
87
100
AcDbEntity
  8
M-PIPE
100
AcDbLine
 10
1480.103907443123
 20
2328.700724177049
 30
0.0
 11
1480.103907443123
 21
2324.765203903425
 31
0.0
1001
REVIT
1002
{
1070
     3
1000
790271
1002
}
  0
LWPOLYLINE
  5
CF
330
87
100
AcDbEntity
  8
M-PIPE
100
AcDbPolyline
 90
       11
 70
   128
 43
0.0
 10
1480.103907443123
 20
2324.765203903425
 10
1482.095947492194
 20
2321.920275877994
 10
1484.336539853837
 20
2318.720378362792
 10
1486.710397390145
 20
2315.330158454024
 10
1489.095375954845
 20
2311.924056070726
 10
1491.368759181765
 20
2308.677328346638
 10
1493.413572716229
 20
2305.757031973235
 10
1495.124602997761
 20
2303.313427487189
 10
1496.413810904474
 20
2301.472247784941
 10
1497.214861706195
 20
2300.328228679163
 10
1497.486538242756
 20
2299.940234374996
1001
REVIT
1002
{
1070
     3
1000
790271
1002
}
  0
LWPOLYLINE
  5
D0
330
87
100
AcDbEntity
  8
M-PIPE
100
AcDbPolyline
 90
        6
 70
   128
 43
0.0
 10
1486.925118541048
 20
2315.021710189038
 10
1486.603145464318
 20
2314.559638671863
 10
1484.712941963137
 20
2311.860148309315
 10
1482.939263934608
 20
2309.327073568269
 10
1481.375479412162
 20
2307.093757819564
 10
1480.103907443123
 20
2305.277764846551
1001
REVIT
1002
{
1070
     3
1000
790271
1002
}
  0
LINE
  5
D1
330
87
100
AcDbEntity
  8
M-PIPE
100
AcDbLine
 10
1480.103907443123
 20
2303.115234374996
 30
0.0
 11
1495.26337930894
 21
2303.115234374996
 31
0.0
1001
REVIT
1002
{
1070
     3
1000
790271
1002
}
  0
LINE
  5
D2
330
87
100
AcDbEntity
  8
M-PIPE
100
AcDbLine
 10
1480.103907443123
 20
2305.277764846551
 30
0.0
 11
1480.103907443123
 21
2303.115234374996
 31
0.0
1001
REVIT
1002
{
1070
     3
1000
790271
1002
}
  0
LINE
  5
D3
330
87
100
AcDbEntity
  8
M-PIPE
100
AcDbLine
 10
1480.103907443186
 20
2281.683984374989
 30
0.0
 11
1480.103907443123
 21
2303.115234374996
 31
0.0
1001
REVIT
1002
{
1070
     3
1000
790271
1002
}
  0
LINE
  5
D4
330
87
100
AcDbEntity
  8
M-PIPE
100
AcDbLine
 10
1480.103907443186
 20
2281.683984374989
 30
0.0
 11
1495.093084482044
 21
2281.683984374989
 31
0.0
1001
REVIT
1002
{
1070
     3
1000
790271
1002
}
  0
LINE
  5
D5
330
87
100
AcDbEntity
  8
M-PIPE
100
AcDbLine
 10
1495.093084482044
 20
2281.683984374989
 30
0.0
 11
1495.093084482044
 21
2296.522028159017
 31
0.0
1001
REVIT
1002
{
1070
     3
1000
790271
1002
}
  0
LINE
  5
D6
330
87
100
AcDbEntity
  8
M-PIPE
100
AcDbLine
 10
1495.093084482044
 20
2296.522028159017
 30
0.0
 11
1497.486538242756
 21
2299.940234374996
 31
0.0
1001
REVIT
1002
{
1070
     3
1000
790271
1002
}
  0
LINE
  5
D7
330
87
100
AcDbEntity
  8
M-PIPE
100
AcDbLine
 10
1495.093084482971
 20
2348.358984375005
 30
0.0
 11
1480.103907443186
 21
2348.358984375004
 31
0.0
1001
REVIT
1002
{
1070
     3
1000
790271
1002
}
  0
LINE
  5
D8
330
87
100
AcDbEntity
  8
M-PIPE
100
AcDbLine
 10
1480.103907443123
 20
2328.700724177049
 30
0.0
 11
1480.103907443186
 21
2348.358984375004
 31
0.0
1001
REVIT
1002
{
1070
     3
1000
790271
1002
}
  0
LINE
  5
D9
330
87
100
AcDbEntity
  8
M-PIPE
100
AcDbLine
 10
1498.46823635208
 20
2328.700724177049
 30
0.0
 11
1495.093084482971
 21
2333.520940590954
 31
0.0
1001
REVIT
1002
{
1070
     3
1000
790271
1002
}
  0
LINE
  5
DA
330
87
100
AcDbEntity
  8
M-PIPE
100
AcDbLine
 10
1495.093084482971
 20
2333.520940590954
 30
0.0
 11
1495.093084482971
 21
2348.358984375005
 31
0.0
1001
REVIT
1002
{
1070
     3
1000
790271
1002
}
  0
ARC
  5
DB
330
87
100
AcDbEntity
  8
M-PIPE
100
AcDbCircle
 10
1535.666407443171
 20
1106.999999999996
 30
0.0
 40
14.00000000000005
100
AcDbArc
 50
269.9999999999997
 51
319.9947991151396
1001
REVIT
1002
{
1070
     3
1000
790271
1002
}
  0
LINE
  5
DC
330
87
100
AcDbEntity
  8
M-PIPE
100
AcDbLine
 10
1648.666407443171
 20
1097.999999999996
 30
0.0
 11
1648.666407443171
 21
1115.999999999996
 31
0.0
1001
REVIT
1002
{
1070
     3
1000
790271
1002
}
  0
ARC
  5
DD
330
87
100
AcDbEntity
  8
M-PIPE
100
AcDbCircle
 10
1535.666407443171
 20
1106.999999999996
 30
0.0
 40
14.0
100
AcDbArc
 50
40.00520088486076
 51
89.99999999999907
1001
REVIT
1002
{
1070
     3
1000
790271
1002
}
  0
ARC
  5
DE
330
87
100
AcDbEntity
  8
M-PIPE
100
AcDbCircle
 10
1535.666407443171
 20
1106.999999999996
 30
0.0
 40
14.00000000000023
100
AcDbArc
 50
89.99999999999907
 51
269.9999999999988
1001
REVIT
1002
{
1070
     3
1000
790271
1002
}
  0
LINE
  5
DF
330
87
100
AcDbEntity
  8
M-PIPE
100
AcDbLine
 10
1546.390212737935
 20
1097.999999999996
 30
0.0
 11
1648.666407443171
 21
1097.999999999996
 31
0.0
1001
REVIT
1002
{
1070
     3
1000
790271
1002
}
  0
LINE
  5
E0
330
87
100
AcDbEntity
  8
M-PIPE
100
AcDbLine
 10
1648.666407443171
 20
1115.999999999996
 30
0.0
 11
1546.390212737935
 21
1115.999999999996
 31
0.0
1001
REVIT
1002
{
1070
     3
1000
790271
1002
}
  0
LINE
  5
E1
330
87
100
AcDbEntity
  8
M-PIPE
100
AcDbLine
 10
1553.344076972818
 20
1065.999999999996
 30
0.0
 11
1535.666407443155
 21
1065.999999999996
 31
0.0
1001
REVIT
1002
{
1070
     3
1000
790271
1002
}
  0
LINE
  5
E2
330
87
100
AcDbEntity
  8
M-PIPE
100
AcDbLine
 10
1535.666407443155
 20
1065.999999999996
 30
0.0
 11
1517.988737913491
 21
1065.999999999996
 31
0.0
1001
REVIT
1002
{
1070
     3
1000
790271
1002
}
  0
LINE
  5
E3
330
87
100
AcDbEntity
  8
M-PIPE
100
AcDbLine
 10
1517.988737913491
 20
1065.999999999996
 30
0.0
 11
1510.666407443155
 21
1065.999999999996
 31
0.0
1001
REVIT
1002
{
1070
     3
1000
790271
1002
}
  0
LINE
  5
E4
330
87
100
AcDbEntity
  8
M-PIPE
100
AcDbLine
 10
1560.666407443155
 20
1065.999999999996
 30
0.0
 11
1553.344076972818
 21
1065.999999999996
 31
0.0
1001
REVIT
1002
{
1070
     3
1000
790271
1002
}
  0
LINE
  5
E5
330
87
100
AcDbEntity
  8
M-PIPE
100
AcDbLine
 10
1553.344076972818
 20
1065.999999999996
 30
0.0
 11
1553.344076972818
 21
1083.999999999996
 31
0.0
1001
REVIT
1002
{
1070
     3
1000
790271
1002
}
  0
LINE
  5
E6
330
87
100
AcDbEntity
  8
M-PIPE
100
AcDbLine
 10
1535.666407443155
 20
1083.999999999996
 30
0.0
 11
1535.666407443155
 21
1065.999999999996
 31
0.0
1001
REVIT
1002
{
1070
     3
1000
790271
1002
}
  0
LINE
  5
E7
330
87
100
AcDbEntity
  8
M-PIPE
100
AcDbLine
 10
1517.988737913491
 20
1083.999999999996
 30
0.0
 11
1517.988737913491
 21
1065.999999999996
 31
0.0
1001
REVIT
1002
{
1070
     3
1000
790271
1002
}
  0
LINE
  5
E8
330
87
100
AcDbEntity
  8
M-PIPE
100
AcDbLine
 10
1510.666407443155
 20
1083.999999999996
 30
0.0
 11
1510.666407443155
 21
1065.999999999996
 31
0.0
1001
REVIT
1002
{
1070
     3
1000
790271
1002
}
  0
LINE
  5
E9
330
87
100
AcDbEntity
  8
M-PIPE
100
AcDbLine
 10
1560.666407443155
 20
1083.999999999996
 30
0.0
 11
1560.666407443155
 21
1065.999999999996
 31
0.0
1001
REVIT
1002
{
1070
     3
1000
790271
1002
}
  0
LINE
  5
EA
330
87
100
AcDbEntity
  8
M-PIPE
100
AcDbLine
 10
1563.666407443185
 20
1083.999999999996
 30
0.0
 11
1563.666407443185
 21
1097.999999999996
 31
0.0
1001
REVIT
1002
{
1070
     3
1000
790271
1002
}
  0
LINE
  5
EB
330
87
100
AcDbEntity
  8
M-PIPE
100
AcDbLine
 10
1563.666407443185
 20
1115.999999999996
 30
0.0
 11
1563.666407443185
 21
1129.999999999995
 31
0.0
1001
REVIT
1002
{
1070
     3
1000
790271
1002
}
  0
LINE
  5
EC
330
87
100
AcDbEntity
  8
M-PIPE
100
AcDbLine
 10
1507.666407443161
 20
1129.999999999997
 30
0.0
 11
1507.66640744316
 21
1083.999999999996
 31
0.0
1001
REVIT
1002
{
1070
     3
1000
790271
1002
}
  0
LINE
  5
ED
330
87
100
AcDbEntity
  8
M-PIPE
100
AcDbLine
 10
1563.666407443184
 20
1129.999999999996
 30
0.0
 11
1535.666407443172
 21
1129.999999999996
 31
0.0
1001
REVIT
1002
{
1070
     3
1000
790271
1002
}
  0
LINE
  5
EE
330
87
100
AcDbEntity
  8
M-PIPE
100
AcDbLine
 10
1535.666407443172
 20
1129.999999999996
 30
0.0
 11
1507.666407443159
 21
1129.999999999997
 31
0.0
1001
REVIT
1002
{
1070
     3
1000
790271
1002
}
  0
LINE
  5
EF
330
87
100
AcDbEntity
  8
M-PIPE
100
AcDbLine
 10
1535.66640744317
 20
1083.999999999996
 30
0.0
 11
1563.666407443183
 21
1083.999999999996
 31
0.0
1001
REVIT
1002
{
1070
     3
1000
790271
1002
}
  0
LINE
  5
F0
330
87
100
AcDbEntity
  8
M-PIPE
100
AcDbLine
 10
1507.666407443158
 20
1083.999999999996
 30
0.0
 11
1535.66640744317
 21
1083.999999999996
 31
0.0
1001
REVIT
1002
{
1070
     3
1000
790271
1002
}
  0
LINE
  5
F1
330
87
100
AcDbEntity
  8
M-PIPE
100
AcDbLine
 10
1553.344076972818
 20
1147.999999999997
 30
0.0
 11
1560.666407443155
 21
1147.999999999997
 31
0.0
1001
REVIT
1002
{
1070
     3
1000
790271
1002
}
  0
LINE
  5
F2
330
87
100
AcDbEntity
  8
M-PIPE
100
AcDbLine
 10
1510.666407443155
 20
1147.999999999997
 30
0.0
 11
1517.988737913491
 21
1147.999999999997
 31
0.0
1001
REVIT
1002
{
1070
     3
1000
790271
1002
}
  0
LINE
  5
F3
330
87
100
AcDbEntity
  8
M-PIPE
100
AcDbLine
 10
1517.988737913491
 20
1147.999999999997
 30
0.0
 11
1535.666407443155
 21
1147.999999999997
 31
0.0
1001
REVIT
1002
{
1070
     3
1000
790271
1002
}
  0
LINE
  5
F4
330
87
100
AcDbEntity
  8
M-PIPE
100
AcDbLine
 10
1535.666407443155
 20
1147.999999999997
 30
0.0
 11
1553.344076972818
 21
1147.999999999997
 31
0.0
1001
REVIT
1002
{
1070
     3
1000
790271
1002
}
  0
LINE
  5
F5
330
87
100
AcDbEntity
  8
M-PIPE
100
AcDbLine
 10
1553.344076972818
 20
1129.999999999997
 30
0.0
 11
1553.344076972818
 21
1147.999999999997
 31
0.0
1001
REVIT
1002
{
1070
     3
1000
790271
1002
}
  0
LINE
  5
F6
330
87
100
AcDbEntity
  8
M-PIPE
100
AcDbLine
 10
1535.666407443155
 20
1147.999999999997
 30
0.0
 11
1535.666407443155
 21
1129.999999999997
 31
0.0
1001
REVIT
1002
{
1070
     3
1000
790271
1002
}
  0
LINE
  5
F7
330
87
100
AcDbEntity
  8
M-PIPE
100
AcDbLine
 10
1517.988737913491
 20
1147.999999999997
 30
0.0
 11
1517.988737913491
 21
1129.999999999997
 31
0.0
1001
REVIT
1002
{
1070
     3
1000
790271
1002
}
  0
LINE
  5
F8
330
87
100
AcDbEntity
  8
M-PIPE
100
AcDbLine
 10
1510.666407443155
 20
1147.999999999997
 30
0.0
 11
1510.666407443155
 21
1129.999999999997
 31
0.0
1001
REVIT
1002
{
1070
     3
1000
790271
1002
}
  0
LINE
  5
F9
330
87
100
AcDbEntity
  8
M-PIPE
100
AcDbLine
 10
1560.666407443155
 20
1147.999999999997
 30
0.0
 11
1560.666407443155
 21
1129.999999999997
 31
0.0
1001
REVIT
1002
{
1070
     3
1000
790271
1002
}
  0
LWPOLYLINE
  5
FA
330
87
100
AcDbEntity
  8
P-SANR-FIXT
100
AcDbPolyline
 90
       37
 70
   128
 43
0.0
 10
1752.205138542777
 20
1369.99755409153
 10
1752.482752767947
 20
1369.992001066603
 10
1752.882006365772
 20
1369.968017063019
 10
1753.27998149897
 20
1369.928086358532
 10
1753.676041492223
 20
1369.87227283375
 10
1754.069552734032
 20
1369.800665778406
 10
1754.459885690352
 20
1369.713379748514
 10
1754.846415911722
 20
1369.610554383101
 10
1755.228525032242
 20
1369.492354180818
 10
1755.605601758832
 20
1369.358968236773
 10
1755.977042849167
 20
1369.210609940022
 10
1756.342254076741
 20
1369.047516632193
 10
1756.700651181496
 20
1368.869949227786
 10
1757.051660804518
 20
1368.67819179677
 10
1757.39472140529
 20
1368.472551110128
 10
1757.729284160031
 20
1368.25335614909
 10
1758.054813839704
 20
1368.020957578837
 10
1758.370789666265
 20
1367.775727187503
 10
1758.676706145796
 20
1367.518057291402
 10
1758.972073877187
 20
1367.248360107403
 10
1759.256420335076
 20
1366.967067093465
 10
1759.529290625789
 20
1366.674628258407
 10
1759.79024821507
 20
1366.37151144198
 10
1760.038875626445
 20
1366.058201566428
 10
1760.274775109091
 20
1365.735199860718
 10
1760.49756927416
 20
1365.403023058675
 10
1760.706901698515
 20
1365.062202572321
 10
1760.90243749493
 20
1364.713283641731
 10
1761.083863847846
 20
1364.356824462761
 10
1761.250890513798
 20
1363.993395294056
 10
1761.403250285753
 20
1363.62357754476
 10
1761.540699420576
 20
1363.247962844381
 10
1761.663018028973
 20
1362.867152096313
 10
1761.770010427264
 20
1362.481754516517
 10
1761.861505450434
 20
1362.092386658907
 10
1761.937356725965
 20
1361.699671428996
 10
1761.987271285093
 20
1361.379356997675
  0
LWPOLYLINE
  5
FB
330
87
100
AcDbEntity
  8
P-SANR-FIXT
100
AcDbPolyline
 90
       37
 70
   128
 43
0.0
 10
1309.345543601285
 20
1361.379356997676
 10
1309.408625642301
 20
1361.774324494953
 10
1309.487451711653
 20
1362.166453451541
 10
1309.581895704448
 20
1362.555116544759
 10
1309.691806530443
 20
1362.939691996567
 10
1309.817008355761
 20
1363.319564568282
 10
1309.957300884193
 20
1363.694126544823
 10
1310.112459677619
 20
1364.062778706931
 10
1310.282236515069
 20
1364.424931289788
 10
1310.46635978982
 20
1364.780004926516
 10
1310.66453494391
 20
1365.127431575042
 10
1310.876444939367
 20
1365.466655426841
 10
1311.101750765405
 20
1365.797133796115
 10
1311.340091980763
 20
1366.118337987971
 10
1311.591087290341
 20
1366.429754144223
 10
1311.854335155186
 20
1366.730884065451
 10
1312.129414434871
 20
1367.02124600802
 10
1312.415885061229
 20
1367.300375454762
 10
1312.713288742368
 20
1367.567825858107
 10
1313.021149695842
 20
1367.823169354462
 10
1313.338975409797
 20
1368.065997448703
 10
1313.666257430892
 20
1368.295921667682
 10
1314.002472177708
 20
1368.512574181694
 10
1314.347081778373
 20
1368.715608392934
 10
1314.699534931038
 20
1368.904699489977
 10
1315.059267785846
 20
1369.079544967403
 10
1315.425704846967
 20
1369.239865109748
 10
1315.798259893272
 20
1369.385403438983
 10
1316.176336916163
 20
1369.515927124828
 10
1316.559331073054
 20
1369.63122735723
 10
1316.946629654995
 20
1369.731119680412
 10
1317.337613066874
 20
1369.815444287968
 10
1317.731655818639
 20
1369.884066278512
 10
1318.128127525943
 20
1369.936875871499
 10
1318.526393918632
 20
1369.973788582846
 10
1318.925817855436
 20
1369.994745360088
 10
1319.195262953732
 20
1369.999113372144
  0
LWPOLYLINE
  5
FC
330
87
100
AcDbEntity
  8
P-SANR-FIXT
100
AcDbPolyline
 90
        3
 70
   128
 43
0.0
 10
1319.338739324624
 20
1369.999999999994
 10
1319.423065538693
 20
1369.999999999994
 10
1319.44020206697
 20
1369.999999999994
  0
LWPOLYLINE
  5
FD
330
87
100
AcDbEntity
  8
P-SANR-FIXT
100
AcDbPolyline
 90
        3
 70
   128
 43
0.0
 10
1751.812955789671
 20
1369.999999999994
 10
1752.032410091999
 20
1369.999999999994
 10
1752.082859426081
 20
1369.999999999994
  0
LWPOLYLINE
  5
FE
330
87
100
AcDbEntity
  8
P-SANR-FIXT
100
AcDbPolyline
 90
       18
 70
   128
 43
0.0
 10
1761.987271285093
 20
1361.379356997675
 10
1763.495058354072
 20
1348.701733920319
 10
1764.494669648284
 20
1335.973956188234
 10
1764.984506002899
 20
1323.216385530677
 10
1764.963783784242
 20
1310.44943133923
 10
1764.432536143442
 20
1297.693518017126
 10
1763.391612963398
 20
1284.969052304566
 10
1761.842679499147
 20
1272.296390632281
 10
1759.788213713809
 20
1259.695806555591
 10
1757.231502314378
 20
1247.187458321036
 10
1754.176635493691
 20
1234.791356617487
 10
1750.628500386991
 20
1222.527332563308
 10
1746.592773253554
 20
1210.415005980801
 10
1742.075910395882
 20
1198.473754008672
 10
1737.085137831004
 20
1186.722680102747
 10
1731.628439730381
 20
1175.180583474511
 10
1725.714545646941
 20
1163.865929016387
 10
1723.600586768924
 20
1160.07266865223
  0
LWPOLYLINE
  5
FF
330
87
100
AcDbEntity
  8
P-SANR-FIXT
100
AcDbPolyline
 90
        8
 70
   128
 43
0.0
 10
1347.732228117453
 20
1160.072668652231
 10
1341.664953136029
 20
1171.305821506023
 10
1336.051737630887
 20
1182.772615322505
 10
1330.901561549415
 20
1194.45470567769
 10
1326.222664074698
 20
1206.333403719056
 10
1322.022530444583
 20
1218.389706063724
 10
1318.307879976898
 20
1230.604325199817
 10
1316.982545374806
 20
1235.683829044067
  0
LWPOLYLINE
  5
100
330
87
100
AcDbEntity
  8
P-SANR-FIXT
100
AcDbPolyline
 90
       12
 70
   128
 43
0.0
 10
1316.254761229327
 20
1238.473149083633
 10
1315.084655319974
 20
1242.957720342362
 10
1312.358012945678
 20
1255.430128694383
 10
1310.132314900157
 20
1268.001597063155
 10
1308.411121825492
 20
1280.652013781058
 10
1307.197187263435
 20
1293.361140879955
 10
1306.492453250327
 20
1306.108646467624
 10
1306.298047210253
 20
1318.874137254446
 10
1306.614280151406
 20
1331.637191178324
 10
1307.44064616854
 20
1344.377390075617
 10
1308.775823252309
 20
1357.074352345855
 10
1309.345543601284
 20
1361.379356997676
  0
LWPOLYLINE
  5
101
330
87
100
AcDbEntity
  8
P-SANR-FIXT
100
AcDbPolyline
 90
       28
 70
   128
 43
0.0
 10
1723.600586768924
 20
1160.07266865223
 10
1723.396585553359
 20
1159.728630613851
 10
1723.178989664917
 20
1159.39302564199
 10
1722.948147210602
 20
1159.066390633012
 10
1722.704427489099
 20
1158.749248133251
 10
1722.448220399969
 20
1158.442105503054
 10
1722.179935819901
 20
1158.14545410511
 10
1721.900002946993
 20
1157.859768518372
 10
1721.608869614124
 20
1157.585505778837
 10
1721.307001572523
 20
1157.323104648382
 10
1720.994881746661
 20
1157.072984912838
 10
1720.673009461678
 20
1156.835546710428
 10
1720.341899644566
 20
1156.611169891624
 10
1720.0020820004
 20
1156.400213411471
 10
1719.654100164922
 20
1156.203014755337
 10
1719.298510834834
 20
1156.019889399004
 10
1718.93588287721
 20
1155.851130303978
 10
1718.566796419426
 20
1155.697007448811
 10
1718.19184192108
 20
1155.557767397193
 10
1717.811619229383
 20
1155.433632903505
 10
1717.426736619533
 20
1155.324802556454
 10
1717.037809821601
 20
1155.231450461381
 10
1716.645461035496
 20
1155.153725961723
 10
1716.250317935581
 20
1155.091753400101
 10
1715.853012666523
 20
1155.045631919392
 10
1715.454180831997
 20
1155.015435304127
 10
1715.054460477861
 20
1155.001211862448
 10
1714.898782025691
 20
1154.999999999994
  0
LWPOLYLINE
  5
102
330
87
100
AcDbEntity
  8
P-SANR-FIXT
100
AcDbPolyline
 90
       28
 70
   128
 43
0.0
 10
1356.093416927753
 20
1155.006813227108
 10
1356.03413951882
 20
1155.007998933384
 10
1355.634885920994
 20
1155.031982936968
 10
1355.236910787797
 20
1155.071913641455
 10
1354.840850794544
 20
1155.127727166238
 10
1354.447339552736
 20
1155.199334221582
 10
1354.057006596415
 20
1155.286620251474
 10
1353.670476375045
 20
1155.389445616886
 10
1353.288367254525
 20
1155.507645819169
 10
1352.911290527935
 20
1155.641031763214
 10
1352.5398494376
 20
1155.789390059966
 10
1352.174638210027
 20
1155.952483367794
 10
1351.816241105271
 20
1156.130050772201
 10
1351.465231482249
 20
1156.321808203218
 10
1351.122170881478
 20
1156.52744888986
 10
1350.787608126736
 20
1156.746643850897
 10
1350.462078447062
 20
1156.979042421151
 10
1350.146102620501
 20
1157.224272812485
 10
1349.840186140972
 20
1157.481942708585
 10
1349.544818409581
 20
1157.751639892585
 10
1349.260471951691
 20
1158.032932906522
 10
1348.987601660978
 20
1158.325371741581
 10
1348.726644071696
 20
1158.628488558008
 10
1348.478016660322
 20
1158.94179843356
 10
1348.242117177676
 20
1159.26480013927
 10
1348.019323012607
 20
1159.596976941313
 10
1347.809990588253
 20
1159.937797427667
 10
1347.732228117453
 20
1160.072668652231
  0
LWPOLYLINE
  5
103
330
87
100
AcDbEntity
  8
P-SANR-FIXT
100
AcDbPolyline
 90
        3
 70
   128
 43
0.0
 10
1714.898782025691
 20
1154.999999999994
 10
1714.755415243125
 20
1154.999999999994
 10
1714.691709610613
 20
1154.999999999994
  0
LWPOLYLINE
  5
104
330
87
100
AcDbEntity
  8
P-SANR-FIXT
100
AcDbPolyline
 90
        3
 70
   128
 43
0.0
 10
1356.686542804875
 20
1154.999999999994
 10
1356.475814129442
 20
1154.999999999994
 10
1356.434032860686
 20
1154.999999999994
  0
LWPOLYLINE
  5
105
330
87
100
AcDbEntity
  8
P-SANR-FIXT
100
AcDbPolyline
 90
        3
 70
   128
 43
0.0
 10
1752.056136276559
 20
1369.999999999994
 10
1751.909749347685
 20
1369.999999999994
 10
1751.490708421916
 20
1369.999999999994
  0
LWPOLYLINE
  5
106
330
87
100
AcDbEntity
  8
P-SANR-FIXT
100
AcDbPolyline
 90
        3
 70
   128
 43
0.0
 10
1319.842106464462
 20
1369.999999999994
 10
1319.374973780114
 20
1369.999999999994
 10
1319.267544956638
 20
1369.999999999994
  0
LWPOLYLINE
  5
107
330
87
100
AcDbEntity
  8
P-SANR-FIXT
100
AcDbPolyline
 90
        4
 70
   128
 43
0.0
 10
1714.183331858145
 20
1154.999999999994
 10
1714.680306464504
 20
1154.999999999994
 10
1714.890897020023
 20
1154.999999999994
 10
1714.898782025691
 20
1154.999999999994
  0
LWPOLYLINE
  5
108
330
87
100
AcDbEntity
  8
P-SANR-FIXT
100
AcDbPolyline
 90
        4
 70
   128
 43
0.0
 10
1356.434032860686
 20
1154.999999999994
 10
1356.577399643252
 20
1154.999999999994
 10
1357.00727063468
 20
1154.999999999994
 10
1357.149483028232
 20
1154.999999999994
  0
LINE
  5
109
330
87
100
AcDbEntity
  8
P-SANR-FIXT
100
AcDbLine
 10
1751.490708421914
 20
1369.999999999994
 30
0.0
 11
1703.310209344614
 21
1369.999999999994
 31
0.0
  0
LINE
  5
10A
330
87
100
AcDbEntity
  8
P-SANR-FIXT
100
AcDbLine
 10
1368.02260554176
 20
1369.999999999994
 30
0.0
 11
1319.842106464461
 21
1369.999999999994
 31
0.0
  0
SPLINE
  5
10B
330
87
100
AcDbEntity
  8
P-SANR-FIXT
100
AcDbSpline
210
0.0
220
0.0
230
1.0
 70
     8
 71
     3
 72
    11
 73
     7
 74
     0
 42
0.000000001
 43
0.0000000001
 40
0.0
 40
0.0
 40
0.0
 40
0.0
 40
0.3333333333333333
 40
0.5
 40
0.6666666666666666
 40
1.0
 40
1.0
 40
1.0
 40
1.0
 10
1761.421100892158
 20
1361.379356997675
 30
0.0
 10
1761.191990186521
 20
1362.983940999684
 30
0.0
 10
1760.293683844445
 20
1365.233950979588
 30
0.0
 10
1758.133717656467
 20
1367.618474947817
 30
0.0
 10
1755.468095606468
 20
1369.419868923834
 30
0.0
 10
1753.114592307831
 20
1369.994768451072
 30
0.0
 10
1751.490708421914
 20
1369.999999999993
 30
0.0
  0
SPLINE
  5
10C
330
87
100
AcDbEntity
  8
P-SANR-FIXT
100
AcDbSpline
210
0.0
220
0.0
230
1.0
 70
     8
 71
     3
 72
    11
 73
     7
 74
     0
 42
0.000000001
 43
0.0000000001
 40
0.0
 40
0.0
 40
0.0
 40
0.0
 40
0.3333333333333333
 40
0.5
 40
0.6666666666666666
 40
1.0
 40
1.0
 40
1.0
 40
1.0
 10
1319.842106464461
 20
1369.999999999994
 30
0.0
 10
1318.218222578544
 20
1369.994768451072
 30
0.0
 10
1315.864719279906
 20
1369.419868923835
 30
0.0
 10
1313.199097229908
 20
1367.618474947818
 30
0.0
 10
1311.03913104193
 20
1365.233950979589
 30
0.0
 10
1310.140824699854
 20
1362.983940999685
 30
0.0
 10
1309.911713994217
 20
1361.379356997675
 30
0.0
  0
SPLINE
  5
10D
330
87
100
AcDbEntity
  8
P-SANR-FIXT
100
AcDbSpline
210
0.0
220
0.0
230
1.0
 70
     8
 71
     3
 72
    12
 73
     8
 74
     0
 42
0.000000001
 43
0.0000000001
 40
0.0
 40
0.0
 40
0.0
 40
0.0
 40
0.1428571428571428
 40
0.2857142857142857
 40
0.5714285714285714
 40
0.7857142857142857
 40
1.0
 40
1.0
 40
1.0
 40
1.0
 10
1722.918387307034
 20
1160.072668652231
 30
0.0
 10
1727.839125293937
 20
1168.735292760505
 30
0.0
 10
1736.828037576737
 20
1186.431673151042
 30
0.0
 10
1751.460158589648
 20
1223.460489693758
 30
0.0
 10
1761.948629476609
 20
1267.111646632033
 30
0.0
 10
1765.525242774005
 20
1316.821216220646
 30
0.0
 10
1763.485202604877
 20
1346.572843175642
 30
0.0
 10
1761.421100892158
 20
1361.379356997675
 30
0.0
  0
SPLINE
  5
10E
330
87
100
AcDbEntity
  8
P-SANR-FIXT
100
AcDbSpline
210
0.0
220
0.0
230
1.0
 70
     8
 71
     3
 72
    12
 73
     8
 74
     0
 42
0.000000001
 43
0.0000000001
 40
0.0
 40
0.0
 40
0.0
 40
0.0
 40
0.1428571428571428
 40
0.2857142857142857
 40
0.5714285714285714
 40
0.7857142857142857
 40
1.0
 40
1.0
 40
1.0
 40
1.0
 10
1309.911713994217
 20
1361.379356997675
 30
0.0
 10
1308.535646185738
 20
1351.508347782987
 30
0.0
 10
1306.712608461652
 20
1331.737964367922
 30
0.0
 10
1306.779095249357
 20
1291.923429809237
 30
0.0
 10
1313.138227670133
 20
1247.481653554389
 30
0.0
 10
1328.158584081306
 20
1199.960499265346
 30
0.0
 10
1341.033320598986
 20
1173.066604814642
 30
0.0
 10
1348.414427579341
 20
1160.072668652231
 30
0.0
  0
SPLINE
  5
10F
330
87
100
AcDbEntity
  8
P-SANR-FIXT
100
AcDbSpline
210
0.0
220
0.0
230
1.0
 70
     8
 71
     3
 72
    10
 73
     6
 74
     0
 42
0.000000001
 43
0.0000000001
 40
0.0
 40
0.0
 40
0.0
 40
0.0
 40
0.4
 40
0.7
 40
1.0
 40
1.0
 40
1.0
 40
1.0
 10
1714.183331858144
 20
1154.999999999994
 30
0.0
 10
1715.614426636896
 20
1155.003122340524
 30
0.0
 10
1718.053075817827
 20
1155.5228733446
 30
0.0
 10
1721.058975224206
 20
1157.485184377969
 30
0.0
 10
1722.384846616728
 20
1159.139457194164
 30
0.0
 10
1722.918387307034
 20
1160.072668652231
 30
0.0
  0
SPLINE
  5
110
330
87
100
AcDbEntity
  8
P-SANR-FIXT
100
AcDbSpline
210
0.0
220
0.0
230
1.0
 70
     8
 71
     3
 72
    10
 73
     6
 74
     0
 42
0.000000001
 43
0.0000000001
 40
0.0
 40
0.0
 40
0.0
 40
0.0
 40
0.4
 40
0.7
 40
1.0
 40
1.0
 40
1.0
 40
1.0
 10
1348.414427579341
 20
1160.072668652231
 30
0.0
 10
1349.125815166415
 20
1158.828386708143
 30
0.0
 10
1350.787826476279
 20
1156.967140774643
 30
0.0
 10
1353.984137120749
 20
1155.334279843322
 30
0.0
 10
1356.076161944167
 20
1155.002341755391
 30
0.0
 10
1357.149483028231
 20
1154.999999999994
 30
0.0
  0
LINE
  5
111
330
87
100
AcDbEntity
  8
P-SANR-FIXT
100
AcDbLine
 10
1357.149483028231
 20
1154.999999999994
 30
0.0
 11
1514.712545183403
 21
1154.999999999994
 31
0.0
  0
LINE
  5
112
330
87
100
AcDbEntity
  8
P-SANR-FIXT
100
AcDbLine
 10
1556.620269702972
 20
1154.999999999994
 30
0.0
 11
1714.183331858144
 21
1154.999999999994
 31
0.0
  0
LWPOLYLINE
  5
113
330
87
100
AcDbEntity
  8
P-SANR-FIXT
100
AcDbPolyline
 90
        3
 70
   128
 43
0.0
 10
1751.049272039791
 20
2069.85234168693
 10
1751.066300785058
 20
2069.852001066607
 10
1751.124534088237
 20
2069.848502869572
  0
LWPOLYLINE
  5
114
330
87
100
AcDbEntity
  8
P-SANR-FIXT
100
AcDbPolyline
 90
        3
 70
   128
 43
0.0
 10
1320.185582522956
 20
2069.847930736876
 10
1320.558446272606
 20
2069.859417202298
 10
1320.61266407885
 20
2069.859709881718
  0
LWPOLYLINE
  5
115
330
87
100
AcDbEntity
  8
P-SANR-FIXT
100
AcDbPolyline
 90
        3
 70
   128
 43
0.0
 10
1750.466053138324
 20
2069.859999999998
 10
1750.616288301471
 20
2069.859999999998
 10
1750.638473772868
 20
2069.859999999998
  0
LWPOLYLINE
  5
116
330
87
100
AcDbEntity
  8
P-SANR-FIXT
100
AcDbPolyline
 90
        5
 70
   128
 43
0.0
 10
1753.245962647537
 20
1370.199999999995
 10
1753.148161959715
 20
1370.172848998813
 10
1752.758794102106
 20
1370.081353975643
 10
1752.366078872194
 20
1370.005502700112
 10
1752.177916251611
 20
1369.976911421404
  0
LWPOLYLINE
  5
117
330
87
100
AcDbEntity
  8
P-SANR-FIXT
100
AcDbPolyline
 90
        3
 70
   128
 43
0.0
 10
1751.147232363424
 20
1369.872069263118
 10
1750.774368613774
 20
1369.860582797697
 10
1750.72015080753
 20
1369.860290118277
  0
LWPOLYLINE
  5
118
330
87
100
AcDbEntity
  8
P-SANR-FIXT
100
AcDbPolyline
 90
        3
 70
   128
 43
0.0
 10
1320.283542846585
 20
1369.867658313065
 10
1320.26651410132
 20
1369.867998933387
 10
1320.208280798141
 20
1369.871497130422
  0
LWPOLYLINE
  5
119
330
87
100
AcDbEntity
  8
P-SANR-FIXT
100
AcDbPolyline
 90
        5
 70
   128
 43
0.0
 10
1319.130252439375
 20
1369.979690804551
 10
1319.073225377044
 20
1369.987727166241
 10
1318.679714135235
 20
1370.059334221585
 10
1318.289381178915
 20
1370.146620251476
 10
1318.088721682788
 20
1370.199999999998
  0
LWPOLYLINE
  5
11A
330
87
100
AcDbEntity
  8
P-SANR-FIXT
100
AcDbPolyline
 90
        3
 70
   128
 43
0.0
 10
1320.866761748053
 20
1369.859999999997
 10
1320.716526584906
 20
1369.859999999997
 10
1320.69434111351
 20
1369.859999999997
  0
LWPOLYLINE
  5
11B
330
87
100
AcDbEntity
  8
P-SANR-FIXT
100
AcDbPolyline
 90
        3
 70
   128
 43
0.0
 10
1750.562981256427
 20
2069.859999999998
 10
1750.494430375302
 20
2069.859999999998
 10
1750.07034445017
 20
2069.859999999998
  0
LWPOLYLINE
  5
11C
330
87
100
AcDbEntity
  8
P-SANR-FIXT
100
AcDbPolyline
 90
        3
 70
   128
 43
0.0
 10
1321.26247043621
 20
2069.859999999998
 10
1320.79420161218
 20
2069.859999999998
 10
1320.738659108287
 20
2069.859999999998
  0
LINE
  5
11D
330
87
100
AcDbEntity
  8
P-SANR-FIXT
100
AcDbLine
 10
1760.666407443191
 20
1509.799999999995
 30
0.0
 11
1760.666407443192
 21
1930.199999999995
 31
0.0
  0
LINE
  5
11E
330
87
100
AcDbEntity
  8
P-SANR-FIXT
100
AcDbLine
 10
1310.666407443187
 20
1930.199999999999
 30
0.0
 11
1310.666407443186
 21
1509.799999999995
 31
0.0
  0
LWPOLYLINE
  5
11F
330
87
100
AcDbEntity
  8
P-SANR-FIXT
100
AcDbPolyline
 90
        3
 70
   128
 43
0.0
 10
1750.07034445017
 20
1369.859999999996
 10
1750.5386132742
 20
1369.859999999996
 10
1750.594155778093
 20
1369.859999999996
  0
LWPOLYLINE
  5
120
330
87
100
AcDbEntity
  8
P-SANR-FIXT
100
AcDbPolyline
 90
        3
 70
   128
 43
0.0
 10
1320.76983362995
 20
1369.859999999997
 10
1320.838384511076
 20
1369.859999999997
 10
1321.262470436207
 20
1369.859999999997
  0
LINE
  5
121
330
87
100
AcDbEntity
  8
P-SANR-FIXT
100
AcDbLine
 10
1750.070344450169
 20
2069.859999999997
 30
0.0
 11
1703.310112324746
 21
2069.859999999997
 31
0.0
  0
LINE
  5
122
330
87
100
AcDbEntity
  8
P-SANR-FIXT
100
AcDbLine
 10
1368.022702561628
 20
2069.859999999997
 30
0.0
 11
1321.262470436208
 21
2069.859999999997
 31
0.0
  0
SPLINE
  5
123
330
87
100
AcDbEntity
  8
P-SANR-FIXT
100
AcDbSpline
210
0.0
220
0.0
230
1.0
 70
     8
 71
     3
 72
     8
 73
     4
 74
     0
 42
0.000000001
 43
0.0000000001
 40
0.9239494818157842
 40
0.9239494818157842
 40
0.9239494818157842
 40
0.9239494818157842
 40
1.0
 40
1.0
 40
1.0
 40
1.0
 10
1751.273653212974
 20
2069.786874783396
 30
0.0
 10
1750.877280605719
 20
2069.834454468231
 30
0.0
 10
1750.475857115021
 20
2069.858894781874
 30
0.0
 10
1750.070344450169
 20
2069.859999999997
 30
0.0
  0
SPLINE
  5
124
330
87
100
AcDbEntity
  8
P-SANR-FIXT
100
AcDbSpline
210
0.0
220
0.0
230
1.0
 70
     8
 71
     3
 72
     8
 73
     4
 74
     0
 42
0.000000001
 43
0.0000000001
 40
0.0
 40
0.0
 40
0.0
 40
0.0
 40
0.0849415004268207
 40
0.0849415004268207
 40
0.0849415004268207
 40
0.0849415004268207
 10
1321.262470436208
 20
2069.859999999998
 30
0.0
 10
1320.809549732746
 20
2069.858765572042
 30
0.0
 10
1320.360701039313
 20
2069.828047439481
 30
0.0
 10
1319.918155571077
 20
2069.768489889829
 30
0.0
  0
LINE
  5
125
330
87
100
AcDbEntity
  8
P-SANR-FIXT
100
AcDbLine
 10
1760.096904934268
 20
1509.789310057522
 30
0.0
 11
1760.096904934268
 21
1930.238076317474
 31
0.0
  0
LINE
  5
126
330
87
100
AcDbEntity
  8
P-SANR-FIXT
100
AcDbLine
 10
1311.235909952108
 20
1930.238076317477
 30
0.0
 11
1311.235909952107
 21
1509.761807382482
 31
0.0
  0
SPLINE
  5
127
330
87
100
AcDbEntity
  8
P-SANR-FIXT
100
AcDbSpline
210
0.0
220
0.0
230
1.0
 70
     8
 71
     3
 72
     8
 73
     4
 74
     0
 42
0.000000001
 43
0.0000000001
 40
0.0
 40
0.0
 40
0.0
 40
0.0
 40
0.0907921981713194
 40
0.0907921981713194
 40
0.0907921981713194
 40
0.0907921981713194
 10
1750.070344450169
 20
1369.859999999996
 30
0.0
 10
1750.553763565443
 20
1369.86124225581
 30
0.0
 10
1751.032685251952
 20
1369.896135553422
 30
0.0
 10
1751.504350810661
 20
1369.963902101313
 30
0.0
  0
SPLINE
  5
128
330
87
100
AcDbEntity
  8
P-SANR-FIXT
100
AcDbSpline
210
0.0
220
0.0
230
1.0
 70
     8
 71
     3
 72
     8
 73
     4
 74
     0
 42
0.000000001
 43
0.0000000001
 40
0.0983188111346039
 40
0.0983188111346039
 40
0.0983188111346039
 40
0.0983188111346039
 40
0.1725283671629716
 40
0.1725283671629716
 40
0.1725283671629716
 40
0.1725283671629716
 10
1751.621501925364
 20
1369.981432808222
 30
0.0
 10
1752.006021820477
 20
1370.041272709454
 30
0.0
 10
1752.384894652745
 20
1370.123539912774
 30
0.0
 10
1752.757382283652
 20
1370.227205343923
 30
0.0
  0
SPLINE
  5
129
330
87
100
AcDbEntity
  8
P-SANR-FIXT
100
AcDbSpline
210
0.0
220
0.0
230
1.0
 70
     8
 71
     3
 72
     8
 73
     4
 74
     0
 42
0.000000001
 43
0.0000000001
 40
0.827471632836696
 40
0.827471632836696
 40
0.827471632836696
 40
0.827471632836696
 40
0.9016811888653778
 40
0.9016811888653778
 40
0.9016811888653778
 40
0.9016811888653778
 10
1318.579595656895
 20
1370.224790978928
 30
0.0
 10
1318.952156856502
 20
1370.121523542413
 30
0.0
 10
1319.335639796664
 20
1370.065204815939
 30
0.0
 10
1319.722667145293
 20
1370.02354002337
 30
0.0
  0
SPLINE
  5
12A
330
87
100
AcDbEntity
  8
P-SANR-FIXT
100
AcDbSpline
210
0.0
220
0.0
230
1.0
 70
     8
 71
     3
 72
     8
 73
     4
 74
     0
 42
0.000000001
 43
0.0000000001
 40
0.9092078018287267
 40
0.9092078018287267
 40
0.9092078018287267
 40
0.9092078018287267
 40
1.0
 40
1.0
 40
1.0
 40
1.0
 10
1319.830928138945
 20
1369.963083311257
 30
0.0
 10
1320.301316319764
 20
1369.89571250185
 30
0.0
 10
1320.779051320931
 20
1369.861242255811
 30
0.0
 10
1321.262470436205
 20
1369.859999999997
 30
0.0
  0
LINE
  5
12B
330
87
100
AcDbEntity
  8
P-SANR-FIXT
100
AcDbLine
 10
1321.262470436205
 20
1369.859999999997
 30
0.0
 11
1368.02260554176
 21
1369.859999999997
 31
0.0
  0
LINE
  5
12C
330
87
100
AcDbEntity
  8
P-SANR-FIXT
100
AcDbLine
 10
1703.310209344614
 20
1369.859999999996
 30
0.0
 11
1750.070344450169
 21
1369.859999999996
 31
0.0
  0
LWPOLYLINE
  5
12D
330
87
100
AcDbEntity
  8
P-SANR-FIXT
100
AcDbPolyline
 90
       40
 70
   128
 43
0.0
 10
1312.720021425678
 20
2069.799999999998
 10
1312.320128083812
 20
2069.807998933387
 10
1311.920874485987
 20
2069.831982936971
 10
1311.522899352789
 20
2069.871913641458
 10
1311.126839359536
 20
2069.927727166241
 10
1310.733328117728
 20
2069.999334221585
 10
1310.342995161407
 20
2070.086620251477
 10
1309.956464940037
 20
2070.18944561689
 10
1309.574355819517
 20
2070.307645819173
 10
1309.197279092927
 20
2070.441031763218
 10
1308.825838002592
 20
2070.589390059968
 10
1308.460626775018
 20
2070.752483367797
 10
1308.102229670264
 20
2070.930050772204
 10
1307.751220047241
 20
2071.121808203221
 10
1307.40815944647
 20
2071.327448889863
 10
1307.073596691728
 20
2071.5466438509
 10
1306.748067012055
 20
2071.779042421154
 10
1306.432091185494
 20
2072.024272812488
 10
1306.126174705964
 20
2072.281942708588
 10
1305.830806974573
 20
2072.551639892588
 10
1305.546460516683
 20
2072.832932906525
 10
1305.27359022597
 20
2073.125371741584
 10
1305.012632636689
 20
2073.428488558011
 10
1304.764005225315
 20
2073.741798433562
 10
1304.528105742668
 20
2074.064800139272
 10
1304.305311577599
 20
2074.396976941315
 10
1304.095979153245
 20
2074.737797427669
 10
1303.900443356829
 20
2075.08671635826
 10
1303.719017003914
 20
2075.44317553723
 10
1303.551990337961
 20
2075.806604705934
 10
1303.399630566006
 20
2076.176422455231
 10
1303.262181431183
 20
2076.55203715561
 10
1303.139862822786
 20
2076.932847903678
 10
1303.032870424496
 20
2077.318245483473
 10
1302.941375401325
 20
2077.707613341083
 10
1302.865524125794
 20
2078.100328570995
 10
1302.805437943761
 20
2078.495762912616
 10
1302.761212980302
 20
2078.893283755354
 10
1302.732919985922
 20
2079.292255150662
 10
1302.720897312456
 20
2079.66764831552
  0
LWPOLYLINE
  5
12E
330
87
100
AcDbEntity
  8
P-SANR-FIXT
100
AcDbPolyline
 90
       39
 70
   128
 43
0.0
 10
1768.611917573803
 20
2079.667648315519
 10
1768.598626685289
 20
2079.267895867013
 10
1768.569360593811
 20
2078.868994671609
 10
1768.524166118876
 20
2078.471582886128
 10
1768.463115562
 20
2078.076296284648
 10
1768.386306591052
 20
2077.683767241409
 10
1768.293862084
 20
2077.294623719144
 10
1768.185929932335
 20
2076.909488264477
 10
1768.062682804476
 20
2076.528977011978
 10
1767.924317869535
 20
2076.153698698478
 10
1767.771056481893
 20
2075.784253689224
 10
1767.603143827075
 20
2075.421233017421
 10
1767.42084852951
 20
2075.065217438703
 10
1767.224462222786
 20
2074.71677650205
 10
1767.014299083101
 20
2074.37646763863
 10
1766.790695326644
 20
2074.04483527003
 10
1766.554008671729
 20
2073.722409937295
 10
1766.304617766511
 20
2073.409707452177
 10
1766.042921583239
 20
2073.107228071946
 10
1765.769338779979
 20
2072.815455699084
 10
1765.484307030857
 20
2072.534857107148
 10
1765.188282325868
 20
2072.265881194025
 10
1764.88173824139
 20
2072.008958263799
 10
1764.565165182566
 20
2071.76449933835
 10
1764.239069598759
 20
2071.532895499812
 10
1763.903973173339
 20
2071.314517264918
 10
1763.560411989103
 20
2071.109713992262
 10
1763.208935670657
 20
2070.918813323388
 10
1762.850106505133
 20
2070.742120658646
 10
1762.48449854265
 20
2070.579918668605
 10
1762.112696677956
 20
2070.432466841848
 10
1761.735295714719
 20
2070.300001069844
 10
1761.352899413974
 20
2070.182733269569
 10
1760.966119528229
 20
2070.080851044489
 10
1760.575574822792
 20
2069.994517384431
 10
1760.181890085879
 20
2069.923870404833
 10
1759.785695129088
 20
2069.869023125791
 10
1759.387623779834
 20
2069.830063291252
 10
1759.150331051754
 20
2069.816389433715
  0
LWPOLYLINE
  5
12F
330
87
100
AcDbEntity
  8
P-SANR-FIXT
100
AcDbPolyline
 90
        3
 70
   128
 43
0.0
 10
1759.105288584733
 20
2069.813793887353
 10
1758.988312867358
 20
2069.807053228641
 10
1758.612793460581
 20
2069.799999999997
  0
LWPOLYLINE
  5
130
330
87
100
AcDbEntity
  8
P-SANR-FIXT
100
AcDbPolyline
 90
        3
 70
   128
 43
0.0
 10
1312.937939934344
 20
2069.799999999998
 10
1312.771992967617
 20
2069.799999999998
 10
1312.749161695622
 20
2069.799999999998
  0
LWPOLYLINE
  5
131
330
87
100
AcDbEntity
  8
P-SANR-FIXT
100
AcDbPolyline
 90
        3
 70
   128
 43
0.0
 10
1312.826004247817
 20
2069.799999999998
 10
1312.898354754813
 20
2069.799999999998
 10
1313.294783258893
 20
2069.799999999998
  0
LWPOLYLINE
  5
132
330
87
100
AcDbEntity
  8
P-SANR-FIXT
100
AcDbPolyline
 90
        3
 70
   128
 43
0.0
 10
1758.038031627366
 20
2069.799999999997
 10
1758.499927151495
 20
2069.799999999997
 10
1758.552043341645
 20
2069.799999999997
  0
LWPOLYLINE
  5
133
330
87
100
AcDbEntity
  8
P-SANR-FIXT
100
AcDbPolyline
 90
        4
 70
   128
 43
0.0
 10
1302.720897312456
 20
2079.66764831552
 10
1302.806013256711
 20
2092.250298404115
 10
1303.394232916634
 20
2104.819479984779
 10
1303.949236570528
 20
2111.200091901735
  0
LWPOLYLINE
  5
134
330
87
100
AcDbEntity
  8
P-SANR-FIXT
100
AcDbPolyline
 90
       14
 70
   128
 43
0.0
 10
1303.964936507558
 20
2111.380586578853
 10
1304.484615266251
 20
2117.355085048262
 10
1306.075415926406
 20
2129.837059300585
 10
1308.164089955393
 20
2142.245434245623
 10
1310.747295920327
 20
2154.560359130442
 10
1313.82090124272
 20
2166.76213270227
 10
1317.379988809721
 20
2178.831234726299
 10
1321.418864840456
 20
2190.748357213894
 10
1325.931067994857
 20
2202.49443531126
 10
1330.909379710428
 20
2214.050677799137
 10
1336.345835750407
 20
2225.398597154745
 10
1342.231738944847
 20
2236.520039127874
 10
1348.557673104228
 20
2247.397211783816
 10
1352.90841657832
 20
2254.34004089417
  0
LWPOLYLINE
  5
135
330
87
100
AcDbEntity
  8
P-SANR-FIXT
100
AcDbPolyline
 90
        9
 70
   128
 43
0.0
 10
1718.42439830794
 20
2254.34004089417
 10
1725.031451711541
 20
2243.631298050214
 10
1731.204984680827
 20
2232.666909391783
 10
1736.935120879999
 20
2221.464415601785
 10
1742.212693313502
 20
2210.041738280547
 10
1747.029258991263
 20
2198.417151275074
 10
1751.377112435679
 20
2186.609251444795
 10
1755.249298008731
 20
2174.636928910556
 10
1756.26277103953
 20
2171.014603646613
  0
LWPOLYLINE
  5
136
330
87
100
AcDbEntity
  8
P-SANR-FIXT
100
AcDbPolyline
 90
        9
 70
   128
 43
0.0
 10
1756.45989498868
 20
2170.310049070977
 10
1758.639621039522
 20
2162.519336834451
 10
1761.542657734436
 20
2150.275860778854
 10
1763.953763854042
 20
2137.926087693651
 10
1765.869082142889
 20
2125.489774581301
 10
1767.285548500296
 20
2112.986816889845
 10
1768.200896882253
 20
2100.437216684434
 10
1768.613662926614
 20
2087.861050648291
 10
1768.611917573803
 20
2079.667648315519
  0
LWPOLYLINE
  5
137
330
87
100
AcDbEntity
  8
P-SANR-FIXT
100
AcDbPolyline
 90
       26
 70
   128
 43
0.0
 10
1352.90841657832
 20
2254.34004089417
 10
1353.802266370243
 20
2255.666951303486
 10
1354.748463441465
 20
2256.957055867962
 10
1355.745494078517
 20
2258.208290695502
 10
1356.791763245068
 20
2259.418654077299
 10
1357.885597133644
 20
2260.586209690139
 10
1359.025245843362
 20
2261.709089694106
 10
1360.208886179398
 20
2262.785497720729
 10
1361.434624569711
 20
2263.813711746787
 10
1362.700500094354
 20
2264.792086849179
 10
1364.004487622527
 20
2265.71905783645
 10
1365.344501052352
 20
2266.593141752763
 10
1366.718396648198
 20
2267.412940250314
 10
1368.123976470192
 20
2268.177141826388
 10
1369.558991890461
 20
2268.884523921483
 10
1371.021147190451
 20
2269.533954875149
 10
1372.508103233595
 20
2270.124395736397
 10
1374.017481207421
 20
2270.654901925802
 10
1375.546866429157
 20
2271.124624746631
 10
1377.093812208698
 20
2271.532812742572
 10
1378.655843762795
 20
2271.878812899908
 10
1380.230462174177
 20
2272.162071692195
 10
1381.815148389285
 20
2272.382135965792
 10
1383.407367248226
 20
2272.538653664806
 10
1385.004571540479
 20
2272.631374394306
 10
1386.523678554519
 20
2272.660230879516
  0
LWPOLYLINE
  5
138
330
87
100
AcDbEntity
  8
P-SANR-FIXT
100
AcDbPolyline
 90
       26
 70
   128
 43
0.0
 10
1684.809136331741
 20
2272.660230879516
 10
1686.408709699207
 20
2272.628235145955
 10
1688.005724090508
 20
2272.532299131621
 10
1689.597624623298
 20
2272.372576313671
 10
1691.181864596311
 20
2272.149322214541
 10
1692.755909563544
 20
2271.862893993166
 10
1694.317241388827
 20
2271.513749873597
 10
1695.863362274306
 20
2271.102448411947
 10
1697.391798756386
 20
2270.629647602813
 10
1698.900105662745
 20
2270.096103826633
 10
1700.385870024087
 20
2269.502670639631
 10
1701.846714934381
 20
2268.850297408315
 10
1703.280303353401
 20
2268.140027790687
 10
1704.684341845491
 20
2267.372998066622
 10
1706.056584248577
 20
2266.550435320053
 10
1707.394835267543
 20
2265.673655475903
 10
1708.696953986237
 20
2264.744061194887
 10
1709.96085729248
 20
2263.763139629553
 10
1711.184523210601
 20
2262.732460045151
 10
1712.365994136163
 20
2261.653671309152
 10
1713.503379967723
 20
2260.528499253402
 10
1714.594861130576
 20
2259.358743913169
 10
1715.6386914877
 20
2258.14627664746
 10
1716.633201133196
 20
2256.893037145255
 10
1717.576799063781
 20
2255.601030322414
 10
1718.424398307941
 20
2254.34004089417
  0
LWPOLYLINE
  5
139
330
87
100
AcDbEntity
  8
P-SANR-FIXT
100
AcDbPolyline
 90
        3
 70
   128
 43
0.0
 10
1386.523678554519
 20
2272.660230879516
 10
1386.642976829921
 20
2272.660230879516
 10
1386.935692655929
 20
2272.660230879516
  0
LWPOLYLINE
  5
13A
330
87
100
AcDbEntity
  8
P-SANR-FIXT
100
AcDbPolyline
 90
        4
 70
   128
 43
0.0
 10
1684.403134743934
 20
2272.660230879516
 10
1684.526327727417
 20
2272.660230879516
 10
1684.77436932911
 20
2272.660230879516
 10
1684.809136331741
 20
2272.660230879516
  0
LWPOLYLINE
  5
13B
330
87
100
AcDbEntity
  8
P-SANR-FIXT
100
AcDbPolyline
 90
        4
 70
   128
 43
0.0
 10
1387.384237967382
 20
2272.660230879516
 10
1386.86307878194
 20
2272.660230879516
 10
1386.57997317934
 20
2272.660230879516
 10
1386.523678554519
 20
2272.660230879516
  0
LWPOLYLINE
  5
13C
330
87
100
AcDbEntity
  8
P-SANR-FIXT
100
AcDbPolyline
 90
        4
 70
   128
 43
0.0
 10
1684.809136331741
 20
2272.660230879516
 10
1684.68983805634
 20
2272.660230879516
 10
1684.332134081927
 20
2272.660230879516
 10
1683.948576918879
 20
2272.660230879516
  0
SPLINE
  5
13D
330
87
100
AcDbEntity
  8
P-SANR-FIXT
100
AcDbSpline
210
0.0
220
0.0
230
1.0
 70
     8
 71
     3
 72
    12
 73
     8
 74
     0
 42
0.000000001
 43
0.0000000001
 40
-1.0
 40
-1.0
 40
-1.0
 40
-1.0
 40
-0.7857142857142857
 40
-0.5714285714285714
 40
-0.4285714285714286
 40
-0.2857142857142857
 40
0.0
 40
0.0
 40
0.0
 40
0.0
 10
1313.294783258892
 20
2069.799999999997
 30
0.0
 10
1312.162161512701
 20
2069.803027570729
 30
0.0
 10
1309.960336024294
 20
2070.173552249223
 30
0.0
 10
1307.305547333078
 20
2071.616824995289
 30
0.0
 10
1305.443623079592
 20
2073.44931933658
 30
0.0
 10
1303.825411830672
 20
2075.969726630842
 30
0.0
 10
1303.295026899402
 20
2078.159039363431
 30
0.0
 10
1303.270927938616
 20
2079.667648315519
 30
0.0
  0
SPLINE
  5
13E
330
87
100
AcDbEntity
  8
P-SANR-FIXT
100
AcDbSpline
210
0.0
220
0.0
230
1.0
 70
     8
 71
     3
 72
    12
 73
     8
 74
     0
 42
0.000000001
 43
0.0000000001
 40
-1.0
 40
-1.0
 40
-1.0
 40
-1.0
 40
-0.7857142857142857
 40
-0.5714285714285714
 40
-0.4285714285714286
 40
-0.2857142857142857
 40
0.0
 40
0.0
 40
0.0
 40
0.0
 10
1768.061886947641
 20
2079.667648315519
 30
0.0
 10
1768.043812727051
 20
2078.536191601452
 30
0.0
 10
1767.641930883864
 20
2076.341340293798
 30
0.0
 10
1766.156015807634
 20
2073.710330384798
 30
0.0
 10
1764.292739157176
 20
2071.879262477773
 30
0.0
 10
1761.745920521729
 20
2070.302198029384
 30
0.0
 10
1759.548193955619
 20
2069.804036760973
 30
0.0
 10
1758.038031627365
 20
2069.799999999996
 30
0.0
  0
SPLINE
  5
13F
330
87
100
AcDbEntity
  8
P-SANR-FIXT
100
AcDbSpline
210
0.0
220
0.0
230
1.0
 70
     8
 71
     3
 72
    12
 73
     8
 74
     0
 42
0.000000001
 43
0.0000000001
 40
-1.0
 40
-1.0
 40
-1.0
 40
-1.0
 40
-0.8333333333333332
 40
-0.6666666666666666
 40
-0.3333333333333333
 40
-0.1666666666666666
 40
0.0
 40
0.0
 40
0.0
 40
0.0
 10
1717.722803730199
 20
2254.340040894169
 30
0.0
 10
1723.305382335752
 20
2245.712913490118
 30
0.0
 10
1733.573099894854
 20
2228.010586054117
 30
0.0
 10
1750.600776753087
 20
2190.646524496565
 30
0.0
 10
1761.997814655136
 20
2151.095375693465
 30
0.0
 10
1767.466231011809
 20
2110.401818652219
 30
0.0
 10
1768.195855750231
 20
2089.945678735439
 30
0.0
 10
1768.061886947641
 20
2079.667648315519
 30
0.0
  0
SPLINE
  5
140
330
87
100
AcDbEntity
  8
P-SANR-FIXT
100
AcDbSpline
210
0.0
220
0.0
230
1.0
 70
     8
 71
     3
 72
    12
 73
     8
 74
     0
 42
0.000000001
 43
0.0000000001
 40
-1.0
 40
-1.0
 40
-1.0
 40
-1.0
 40
-0.8333333333333332
 40
-0.6666666666666666
 40
-0.3333333333333333
 40
-0.1666666666666666
 40
0.0
 40
0.0
 40
0.0
 40
0.0
 10
1303.270927938616
 20
2079.667648315519
 30
0.0
 10
1303.136959136026
 20
2089.94567873544
 30
0.0
 10
1303.866583874448
 20
2110.40181865222
 30
0.0
 10
1309.335000231122
 20
2151.095375693467
 30
0.0
 10
1320.732038133171
 20
2190.646524496565
 30
0.0
 10
1337.759714991404
 20
2228.010586054118
 30
0.0
 10
1348.027432550505
 20
2245.712913490119
 30
0.0
 10
1353.610011156059
 20
2254.340040894169
 30
0.0
  0
LINE
  5
141
330
87
100
AcDbEntity
  8
P-SANR-FIXT
100
AcDbLine
 10
1387.384237967381
 20
2272.660230879516
 30
0.0
 11
1522.729005996448
 21
2272.660230879515
 31
0.0
  0
LINE
  5
142
330
87
100
AcDbEntity
  8
P-SANR-FIXT
100
AcDbLine
 10
1548.603808889926
 20
2272.660230879515
 30
0.0
 11
1683.948576918877
 21
2272.660230879515
 31
0.0
  0
SPLINE
  5
143
330
87
100
AcDbEntity
  8
P-SANR-FIXT
100
AcDbSpline
210
0.0
220
0.0
230
1.0
 70
     8
 71
     3
 72
    13
 73
     9
 74
     0
 42
0.000000001
 43
0.0000000001
 40
0.0
 40
0.0
 40
0.0
 40
0.0
 40
0.25
 40
0.375
 40
0.5
 40
0.625
 40
0.75
 40
1.0
 40
1.0
 40
1.0
 40
1.0
 10
1717.722803730199
 20
2254.340040894169
 30
0.0
 10
1715.860312890405
 20
2257.191607415382
 30
0.0
 10
1712.671068528257
 20
2260.993896459753
 30
0.0
 10
1707.466096411333
 20
2265.222157426482
 30
0.0
 10
1703.219008144014
 20
2267.887857749789
 30
0.0
 10
1698.667593476769
 20
2269.989446031898
 30
0.0
 10
1692.283206840301
 20
2272.042673428758
 30
0.0
 10
1687.355445032814
 20
2272.648170060371
 30
0.0
 10
1683.948576918877
 20
2272.660230879515
 30
0.0
  0
SPLINE
  5
144
330
87
100
AcDbEntity
  8
P-SANR-FIXT
100
AcDbSpline
210
0.0
220
0.0
230
1.0
 70
     8
 71
     3
 72
    13
 73
     9
 74
     0
 42
0.000000001
 43
0.0000000001
 40
0.0
 40
0.0
 40
0.0
 40
0.0
 40
0.25
 40
0.375
 40
0.5
 40
0.625
 40
0.75
 40
1.0
 40
1.0
 40
1.0
 40
1.0
 10
1387.384237967381
 20
2272.660230879516
 30
0.0
 10
1383.977369853444
 20
2272.648170060371
 30
0.0
 10
1379.049608045957
 20
2272.042673428758
 30
0.0
 10
1372.665221409489
 20
2269.989446031899
 30
0.0
 10
1368.113806742244
 20
2267.887857749789
 30
0.0
 10
1363.866718474925
 20
2265.222157426483
 30
0.0
 10
1358.661746358
 20
2260.993896459753
 30
0.0
 10
1355.472501995852
 20
2257.191607415382
 30
0.0
 10
1353.610011156059
 20
2254.340040894169
 30
0.0
  0
LINE
  5
145
330
87
100
AcDbEntity
  8
P-SANR-FIXT
100
AcDbLine
 10
1703.310112324746
 20
2069.799999999996
 30
0.0
 11
1758.038031627365
 21
2069.799999999996
 31
0.0
  0
LINE
  5
146
330
87
100
AcDbEntity
  8
P-SANR-FIXT
100
AcDbLine
 10
1313.294783258892
 20
2069.799999999997
 30
0.0
 11
1368.022702561628
 21
2069.799999999997
 31
0.0
  0
LINE
  5
147
330
87
100
AcDbEntity
  8
P-SANR-FIXT
100
AcDbLine
 10
1773.166407443184
 20
1544.360000000019
 30
0.0
 11
1773.166407443184
 21
1539.859999999995
 31
0.0
  0
LINE
  5
148
330
87
100
AcDbEntity
  8
P-SANR-FIXT
100
AcDbLine
 10
1798.166407443192
 20
1539.859999999995
 30
0.0
 11
1798.166407443192
 21
1544.360000000019
 31
0.0
  0
LINE
  5
149
330
87
100
AcDbEntity
  8
P-SANR-FIXT
100
AcDbLine
 10
1773.166407443182
 20
1544.360000000019
 30
0.0
 11
1798.16640744319
 21
1544.360000000019
 31
0.0
  0
LINE
  5
14A
330
87
100
AcDbEntity
  8
P-SANR-FIXT
100
AcDbLine
 10
1776.666407443194
 20
1548.660000000017
 30
0.0
 11
1777.391490225533
 21
1548.660000000017
 31
0.0
  0
LINE
  5
14B
330
87
100
AcDbEntity
  8
P-SANR-FIXT
100
AcDbLine
 10
1777.391490225533
 20
1548.660000000017
 30
0.0
 11
1784.941324660847
 21
1548.660000000017
 31
0.0
  0
LINE
  5
14C
330
87
100
AcDbEntity
  8
P-SANR-FIXT
100
AcDbLine
 10
1784.941324660847
 20
1548.660000000017
 30
0.0
 11
1786.391490225526
 21
1548.660000000017
 31
0.0
  0
LINE
  5
14D
330
87
100
AcDbEntity
  8
P-SANR-FIXT
100
AcDbLine
 10
1786.391490225526
 20
1548.660000000017
 30
0.0
 11
1793.941324660839
 21
1548.660000000017
 31
0.0
  0
LINE
  5
14E
330
87
100
AcDbEntity
  8
P-SANR-FIXT
100
AcDbLine
 10
1793.941324660839
 20
1548.660000000017
 30
0.0
 11
1794.666407443179
 21
1548.660000000017
 31
0.0
  0
LINE
  5
14F
330
87
100
AcDbEntity
  8
P-SANR-FIXT
100
AcDbLine
 10
1776.666407443194
 20
1544.360000000017
 30
0.0
 11
1776.666407443194
 21
1548.660000000017
 31
0.0
  0
LINE
  5
150
330
87
100
AcDbEntity
  8
P-SANR-FIXT
100
AcDbLine
 10
1777.391490225533
 20
1544.360000000017
 30
0.0
 11
1777.391490225533
 21
1548.660000000017
 31
0.0
  0
LINE
  5
151
330
87
100
AcDbEntity
  8
P-SANR-FIXT
100
AcDbLine
 10
1784.941324660847
 20
1544.360000000017
 30
0.0
 11
1784.941324660847
 21
1548.660000000017
 31
0.0
  0
LINE
  5
152
330
87
100
AcDbEntity
  8
P-SANR-FIXT
100
AcDbLine
 10
1786.391490225526
 20
1544.360000000017
 30
0.0
 11
1786.391490225526
 21
1548.660000000017
 31
0.0
  0
LINE
  5
153
330
87
100
AcDbEntity
  8
P-SANR-FIXT
100
AcDbLine
 10
1793.941324660839
 20
1544.360000000017
 30
0.0
 11
1793.941324660839
 21
1548.660000000017
 31
0.0
  0
LINE
  5
154
330
87
100
AcDbEntity
  8
P-SANR-FIXT
100
AcDbLine
 10
1794.666407443179
 20
1544.360000000017
 30
0.0
 11
1794.666407443179
 21
1548.660000000017
 31
0.0
  0
LINE
  5
155
330
87
100
AcDbEntity
  8
P-SANR-FIXT
100
AcDbLine
 10
1773.166407443184
 20
2104.360000000021
 30
0.0
 11
1773.166407443184
 21
2099.859999999996
 31
0.0
  0
LINE
  5
156
330
87
100
AcDbEntity
  8
P-SANR-FIXT
100
AcDbLine
 10
1798.166407443192
 20
2099.859999999996
 30
0.0
 11
1798.166407443192
 21
2104.360000000021
 31
0.0
  0
LINE
  5
157
330
87
100
AcDbEntity
  8
P-SANR-FIXT
100
AcDbLine
 10
1776.666407443193
 20
2108.660000000018
 30
0.0
 11
1777.391490225532
 21
2108.660000000018
 31
0.0
  0
LINE
  5
158
330
87
100
AcDbEntity
  8
P-SANR-FIXT
100
AcDbLine
 10
1777.391490225532
 20
2108.660000000018
 30
0.0
 11
1784.941324660846
 21
2108.660000000018
 31
0.0
  0
LINE
  5
159
330
87
100
AcDbEntity
  8
P-SANR-FIXT
100
AcDbLine
 10
1784.941324660846
 20
2108.660000000018
 30
0.0
 11
1786.391490225524
 21
2108.660000000018
 31
0.0
  0
LINE
  5
15A
330
87
100
AcDbEntity
  8
P-SANR-FIXT
100
AcDbLine
 10
1786.391490225524
 20
2108.660000000018
 30
0.0
 11
1793.941324660839
 21
2108.660000000018
 31
0.0
  0
LINE
  5
15B
330
87
100
AcDbEntity
  8
P-SANR-FIXT
100
AcDbLine
 10
1793.941324660839
 20
2108.660000000018
 30
0.0
 11
1794.666407443178
 21
2108.660000000018
 31
0.0
  0
LINE
  5
15C
330
87
100
AcDbEntity
  8
P-SANR-FIXT
100
AcDbLine
 10
1776.666407443193
 20
2104.360000000018
 30
0.0
 11
1776.666407443193
 21
2108.660000000018
 31
0.0
  0
LINE
  5
15D
330
87
100
AcDbEntity
  8
P-SANR-FIXT
100
AcDbLine
 10
1777.391490225532
 20
2104.360000000018
 30
0.0
 11
1777.391490225532
 21
2108.660000000018
 31
0.0
  0
LINE
  5
15E
330
87
100
AcDbEntity
  8
P-SANR-FIXT
100
AcDbLine
 10
1784.941324660846
 20
2104.360000000018
 30
0.0
 11
1784.941324660846
 21
2108.660000000018
 31
0.0
  0
LINE
  5
15F
330
87
100
AcDbEntity
  8
P-SANR-FIXT
100
AcDbLine
 10
1786.391490225524
 20
2104.360000000018
 30
0.0
 11
1786.391490225524
 21
2108.660000000018
 31
0.0
  0
LINE
  5
160
330
87
100
AcDbEntity
  8
P-SANR-FIXT
100
AcDbLine
 10
1793.941324660839
 20
2104.360000000018
 30
0.0
 11
1793.941324660839
 21
2108.660000000018
 31
0.0
  0
LINE
  5
161
330
87
100
AcDbEntity
  8
P-SANR-FIXT
100
AcDbLine
 10
1794.666407443178
 20
2104.360000000018
 30
0.0
 11
1794.666407443178
 21
2108.660000000018
 31
0.0
  0
LINE
  5
162
330
87
100
AcDbEntity
  8
P-SANR-FIXT
100
AcDbLine
 10
1773.166407443183
 20
2104.36000000002
 30
0.0
 11
1798.166407443191
 21
2104.36000000002
 31
0.0
  0
LINE
  5
163
330
87
100
AcDbEntity
  8
P-SANR-FIXT
100
AcDbLine
 10
1548.666407443189
 20
2272.660230879516
 30
0.0
 11
1548.666407443189
 21
2285.999999999996
 31
0.0
  0
LINE
  5
164
330
87
100
AcDbEntity
  8
P-SANR-FIXT
100
AcDbLine
 10
1522.666407443189
 20
2285.999999999996
 30
0.0
 11
1522.666407443189
 21
2272.660230879516
 31
0.0
  0
LINE
  5
165
330
87
100
AcDbEntity
  8
P-SANR-FIXT
100
AcDbLine
 10
1870.666407443189
 20
1564.999999999995
 30
0.0
 11
1850.66640744319
 21
1564.999999999995
 31
0.0
  0
LINE
  5
166
330
87
100
AcDbEntity
  8
P-SANR-FIXT
100
AcDbLine
 10
1850.666407443189
 20
1314.999999999995
 30
0.0
 11
1870.666407443189
 21
1314.999999999995
 31
0.0
  0
LINE
  5
167
330
87
100
AcDbEntity
  8
P-SANR-FIXT
100
AcDbLine
 10
1850.666407443189
 20
1509.799999999995
 30
0.0
 11
1798.666407443188
 21
1509.799999999995
 31
0.0
  0
LINE
  5
168
330
87
100
AcDbEntity
  8
P-SANR-FIXT
100
AcDbLine
 10
1772.666407443188
 20
1509.799999999995
 30
0.0
 11
1703.326407443189
 21
1509.799999999995
 31
0.0
  0
LINE
  5
169
330
87
100
AcDbEntity
  8
P-SANR-FIXT
100
AcDbLine
 10
1703.326407443189
 20
1370.199999999996
 30
0.0
 11
1850.666407443189
 21
1370.199999999995
 31
0.0
  0
LINE
  5
16A
330
87
100
AcDbEntity
  8
P-SANR-FIXT
100
AcDbLine
 10
1368.006407443188
 20
1509.799999999995
 30
0.0
 11
1220.666407443188
 21
1509.799999999996
 31
0.0
  0
LINE
  5
16B
330
87
100
AcDbEntity
  8
P-SANR-FIXT
100
AcDbLine
 10
1220.666407443188
 20
1370.199999999998
 30
0.0
 11
1368.006407443189
 21
1370.199999999998
 31
0.0
  0
LINE
  5
16C
330
87
100
AcDbEntity
  8
P-SANR-FIXT
100
AcDbLine
 10
1220.666407443188
 20
1564.999999999996
 30
0.0
 11
1200.666407443188
 21
1564.999999999996
 31
0.0
  0
LINE
  5
16D
330
87
100
AcDbEntity
  8
P-SANR-FIXT
100
AcDbLine
 10
1200.666407443187
 20
1314.999999999998
 30
0.0
 11
1220.666407443187
 21
1314.999999999998
 31
0.0
  0
LINE
  5
16E
330
87
100
AcDbEntity
  8
P-SANR-FIXT
100
AcDbLine
 10
1556.666407443193
 20
1147.999999999997
 30
0.0
 11
1556.666407443193
 21
1154.999999999994
 31
0.0
  0
LINE
  5
16F
330
87
100
AcDbEntity
  8
P-SANR-FIXT
100
AcDbLine
 10
1514.666407443185
 20
1154.999999999994
 30
0.0
 11
1514.666407443185
 21
1147.999999999997
 31
0.0
  0
LWPOLYLINE
  5
170
330
87
100
AcDbEntity
  8
P-SANR-FIXT
100
AcDbPolyline
 90
       41
 70
   128
 43
0.0
 10
1437.718359315071
 20
1207.205761730811
 10
1435.207154050126
 20
1207.255992533729
 10
1432.412378865349
 20
1207.423880558813
 10
1429.626552932966
 20
1207.703395490226
 10
1426.854132980193
 20
1208.094090163703
 10
1424.099554287536
 20
1208.59533955111
 10
1421.367223593291
 20
1209.206341760355
 10
1418.661512043703
 20
1209.926119318243
 10
1415.986748200062
 20
1210.753520734226
 10
1413.347211113934
 20
1211.687222342541
 10
1410.747123481585
 20
1212.725730419795
 10
1408.190644888571
 20
1213.867383574599
 10
1405.681865155287
 20
1215.110355405447
 10
1403.224797794129
 20
1216.452657422561
 10
1400.823373588728
 20
1217.892142229057
 10
1398.481434305538
 20
1219.426506956319
 10
1396.202726547823
 20
1221.053296948096
 10
1393.990895761898
 20
1222.769909687431
 10
1391.849480405187
 20
1224.573598960134
 10
1389.781906285452
 20
1226.461479248133
 10
1387.791481080224
 20
1228.430530345695
 10
1385.881389045231
 20
1230.477602191105
 10
1384.054685920263
 20
1232.599419906096
 10
1382.314294040645
 20
1234.792589034954
 10
1380.662997662121
 20
1237.053600974924
 10
1379.103438506638
 20
1239.378838589227
 10
1377.638111536157
 20
1241.764581993702
 10
1376.269360961244
 20
1244.207014507834
 10
1374.999376490835
 20
1246.702228760626
 10
1373.830189829167
 20
1249.246232941557
 10
1372.763671425484
 20
1251.834957186629
 10
1371.801527481723
 20
1254.464260089283
 10
1370.945297222945
 20
1257.12993532576
 10
1370.196350434912
 20
1259.82771838433
 10
1369.555885272718
 20
1262.553293387597
 10
1369.024926343998
 20
1265.302299996979
 10
1368.604323069772
 20
1268.070340388326
 10
1368.294748325555
 20
1270.852986287495
 10
1368.096697364899
 20
1273.645786054646
 10
1368.010487027093
 20
1276.444271805918
 10
1368.00640744319
 20
1277.199999999996
  0
LWPOLYLINE
  5
171
330
87
100
AcDbEntity
  8
P-SANR-FIXT
100
AcDbPolyline
 90
       38
 70
   128
 43
0.0
 10
1703.326407443188
 20
1277.199999999996
 10
1703.270414909456
 20
1274.400746606932
 10
1703.10252688437
 20
1271.605971422155
 10
1702.823011952958
 20
1268.820145489772
 10
1702.432317279481
 20
1266.047725536999
 10
1701.931067892074
 20
1263.293146844342
 10
1701.320065682829
 20
1260.560816150097
 10
1700.600288124941
 20
1257.855104600509
 10
1699.772886708958
 20
1255.180340756868
 10
1698.839185100643
 20
1252.54080367074
 10
1697.800677023389
 20
1249.940716038391
 10
1696.659023868584
 20
1247.384237445376
 10
1695.416052037737
 20
1244.875457712093
 10
1694.073750020623
 20
1242.418390350935
 10
1692.634265214126
 20
1240.016966145535
 10
1691.099900486864
 20
1237.675026862344
 10
1689.473110495088
 20
1235.396319104629
 10
1687.756497755752
 20
1233.184488318704
 10
1685.952808483049
 20
1231.043072961993
 10
1684.064928195051
 20
1228.975498842258
 10
1682.095877097489
 20
1226.98507363703
 10
1680.048805252079
 20
1225.074981602036
 10
1677.926987537088
 20
1223.248278477069
 10
1675.73381840823
 20
1221.507886597451
 10
1673.472806468259
 20
1219.856590218927
 10
1671.147568853957
 20
1218.297031063444
 10
1668.761825449481
 20
1216.831704092963
 10
1666.319392935348
 20
1215.46295351805
 10
1663.824178682556
 20
1214.192969047642
 10
1661.280174501626
 20
1213.023782385973
 10
1658.691450256554
 20
1211.957263982291
 10
1656.062147353901
 20
1210.995120038529
 10
1653.396472117423
 20
1210.138889779751
 10
1650.698689058853
 20
1209.389942991718
 10
1647.973114055586
 20
1208.749477829525
 10
1645.224107446203
 20
1208.218518900805
 10
1642.456067054857
 20
1207.797915626579
 10
1641.360700199149
 20
1207.676053942963
  0
LINE
  5
172
330
87
100
AcDbEntity
  8
P-SANR-FIXT
100
AcDbLine
 10
1640.898972050682
 20
1207.624685792419
 30
0.0
 11
1640.045899082769
 21
1207.529779772965
 31
0.0
  0
LINE
  5
173
330
87
100
AcDbEntity
  8
P-SANR-FIXT
100
AcDbLine
 10
1639.673421155688
 20
1207.488340882362
 30
0.0
 11
1639.480481573719
 21
1207.474658601947
 31
0.0
  0
LINE
  5
174
330
87
100
AcDbEntity
  8
P-SANR-FIXT
100
AcDbLine
 10
1639.268374020616
 20
1207.459617027844
 30
0.0
 11
1638.001214466956
 21
1207.369756605389
 31
0.0
  0
LWPOLYLINE
  5
175
330
87
100
AcDbEntity
  8
P-SANR-FIXT
100
AcDbPolyline
 90
        4
 70
   128
 43
0.0
 10
1637.904626489296
 20
1207.362907083991
 10
1636.880621388537
 20
1207.290289921706
 10
1634.082135637265
 20
1207.204079583899
 10
1633.367231194101
 20
1207.200220375416
  0
LWPOLYLINE
  5
176
330
87
100
AcDbEntity
  8
P-SANR-FIXT
100
AcDbPolyline
 90
        4
 70
   128
 43
0.0
 10
1633.326407443187
 20
1207.199999999997
 10
1633.248289859698
 20
1207.199999999997
 10
1633.014062080701
 20
1207.199999999997
 10
1632.803650789439
 20
1207.199999999997
  0
LWPOLYLINE
  5
177
330
87
100
AcDbEntity
  8
P-SANR-FIXT
100
AcDbPolyline
 90
        4
 70
   128
 43
0.0
 10
1438.509951841105
 20
1207.199999999997
 10
1438.191593060378
 20
1207.199999999997
 10
1438.029173189145
 20
1207.199999999997
 10
1438.00640744319
 20
1207.199999999997
  0
LWPOLYLINE
  5
178
330
87
100
AcDbEntity
  8
P-SANR-FIXT
100
AcDbPolyline
 90
       80
 70
   128
 43
0.0
 10
1438.00640744319
 20
1207.199999999997
 10
1438.084525026679
 20
1207.199999999997
 10
1438.318752805676
 20
1207.199999999997
 10
1438.708716065701
 20
1207.199999999997
 10
1439.253790948726
 20
1207.199999999997
 10
1439.953105451214
 20
1207.199999999997
 10
1440.805540819141
 20
1207.199999999997
 10
1441.80973333776
 20
1207.199999999997
 10
1442.964076513258
 20
1207.199999999997
 10
1444.266723642803
 20
1207.199999999997
 10
1445.715590768868
 20
1207.199999999997
 10
1447.308360013128
 20
1207.199999999997
 10
1449.042483284565
 20
1207.199999999997
 10
1450.915186355871
 20
1207.199999999997
 10
1452.923473301619
 20
1207.199999999997
 10
1455.06413129111
 20
1207.199999999997
 10
1457.33373572821
 20
1207.199999999997
 10
1459.728655729974
 20
1207.199999999997
 10
1462.24505993529
 20
1207.199999999997
 10
1464.878922634233
 20
1207.199999999997
 10
1467.626030208345
 20
1207.199999999997
 10
1470.481987871528
 20
1207.199999999997
 10
1473.442226700756
 20
1207.199999999997
 10
1476.502010945389
 20
1207.199999999997
 10
1479.656445603353
 20
1207.199999999997
 10
1482.900484252107
 20
1207.199999999997
 10
1486.228937121836
 20
1207.199999999997
 10
1489.636479397982
 20
1207.199999999997
 10
1493.117659739805
 20
1207.199999999997
 10
1496.666909001373
 20
1207.199999999997
 10
1500.278549140997
 20
1207.199999999997
 10
1503.946802304899
 20
1207.199999999997
 10
1507.665800070532
 20
1207.199999999997
 10
1511.429592834818
 20
1207.199999999997
 10
1515.232159332233
 20
1207.199999999997
 10
1519.067416267551
 20
1207.199999999997
 10
1522.929228047822
 20
1207.199999999997
 10
1526.811416598004
 20
1207.199999999997
 10
1530.707771244576
 20
1207.199999999997
 10
1534.612058651278
 20
1207.199999999997
 10
1538.518032791132
 20
1207.199999999997
 10
1542.419444938744
 20
1207.199999999997
 10
1546.310053666934
 20
1207.199999999997
 10
1550.18363483169
 20
1207.199999999997
 10
1554.033991529468
 20
1207.199999999997
 10
1557.854964010916
 20
1207.199999999997
 10
1561.640439535161
 20
1207.199999999997
 10
1565.384362148892
 20
1207.199999999997
 10
1569.080742374585
 20
1207.199999999997
 10
1572.7236667924
 20
1207.199999999997
 10
1576.307307500382
 20
1207.199999999997
 10
1579.82593143787
 20
1207.199999999997
 10
1583.273909557162
 20
1207.199999999997
 10
1586.645725828797
 20
1207.199999999997
 10
1589.935986066023
 20
1207.199999999997
 10
1593.139426554345
 20
1207.199999999997
 10
1596.250922472346
 20
1207.199999999997
 10
1599.265496090308
 20
1207.199999999997
 10
1602.178324733516
 20
1207.199999999997
 10
1604.984748497513
 20
1207.199999999997
 10
1607.680277702946
 20
1207.199999999997
 10
1610.260600078104
 20
1207.199999999997
 10
1612.721587657624
 20
1207.199999999997
 10
1615.059303386363
 20
1207.199999999997
 10
1617.270007417841
 20
1207.199999999997
 10
1619.350163097199
 20
1207.199999999997
 10
1621.296442619093
 20
1207.199999999997
 10
1623.105732351472
 20
1207.199999999997
 10
1624.775137816726
 20
1207.199999999997
 10
1626.301988322231
 20
1207.199999999997
 10
1627.683841232889
 20
1207.199999999997
 10
1628.918485878822
 20
1207.199999999997
 10
1630.003947091974
 20
1207.199999999997
 10
1630.938488365956
 20
1207.199999999997
 10
1631.720614634088
 20
1207.199999999997
 10
1632.349074661187
 20
1207.199999999997
 10
1632.822863045272
 20
1207.199999999997
 10
1633.141221825999
 20
1207.199999999997
 10
1633.303641697232
 20
1207.199999999997
 10
1633.326407443187
 20
1207.199999999997
  0
LINE
  5
179
330
87
100
AcDbEntity
  8
P-SANR-FIXT
100
AcDbLine
 10
1703.326407443189
 20
1277.199999999996
 30
0.0
 11
1703.326407443189
 21
1370.199999999995
 31
0.0
  0
LINE
  5
17A
330
87
100
AcDbEntity
  8
P-SANR-FIXT
100
AcDbLine
 10
1368.006407443189
 20
1370.199999999998
 30
0.0
 11
1368.006407443189
 21
1277.199999999996
 31
0.0
  0
LINE
  5
17B
330
87
100
AcDbEntity
  8
P-SANR-FIXT
100
AcDbLine
 10
1703.326407443189
 20
1509.799999999995
 30
0.0
 11
1703.326407443189
 21
1930.199999999995
 31
0.0
  0
LINE
  5
17C
330
87
100
AcDbEntity
  8
P-SANR-FIXT
100
AcDbLine
 10
1368.006407443189
 20
1930.199999999998
 30
0.0
 11
1368.006407443189
 21
1509.799999999995
 31
0.0
  0
LINE
  5
17D
330
87
100
AcDbEntity
  8
P-SANR-FIXT
100
AcDbLine
 10
1703.326407443189
 20
2069.799999999996
 30
0.0
 11
1703.326407443189
 21
2149.999999999997
 31
0.0
  0
LINE
  5
17E
330
87
100
AcDbEntity
  8
P-SANR-FIXT
100
AcDbLine
 10
1368.006407443189
 20
2149.999999999997
 30
0.0
 11
1368.006407443189
 21
2069.799999999996
 31
0.0
  0
LWPOLYLINE
  5
17F
330
87
100
AcDbEntity
  8
P-SANR-FIXT
100
AcDbPolyline
 90
       41
 70
   128
 43
0.0
 10
1368.006407443189
 20
2149.999999999997
 10
1368.06239997692
 20
2152.799253393062
 10
1368.230288002006
 20
2155.594028577839
 10
1368.509802933418
 20
2158.379854510222
 10
1368.900497606894
 20
2161.152274462995
 10
1369.401746994302
 20
2163.906853155652
 10
1370.012749203546
 20
2166.639183849897
 10
1370.732526761434
 20
2169.344895399486
 10
1371.559928177418
 20
2172.019659243126
 10
1372.493629785733
 20
2174.659196329254
 10
1373.532137862987
 20
2177.259283961603
 10
1374.673791017791
 20
2179.815762554618
 10
1375.916762848638
 20
2182.324542287901
 10
1377.259064865753
 20
2184.781609649059
 10
1378.698549672249
 20
2187.18303385446
 10
1380.232914399511
 20
2189.52497313765
 10
1381.859704391288
 20
2191.803680895365
 10
1383.576317130623
 20
2194.015511681291
 10
1385.380006403326
 20
2196.156927038001
 10
1387.267886691325
 20
2198.224501157737
 10
1389.236937788887
 20
2200.214926362964
 10
1391.284009634297
 20
2202.125018397958
 10
1393.405827349287
 20
2203.951721522926
 10
1395.598996478146
 20
2205.692113402543
 10
1397.860008418116
 20
2207.343409781068
 10
1400.185246032418
 20
2208.902968936551
 10
1402.570989436894
 20
2210.368295907032
 10
1405.013421951026
 20
2211.737046481944
 10
1407.508636203818
 20
2213.007030952354
 10
1410.052640384749
 20
2214.176217614022
 10
1412.641364629821
 20
2215.242736017704
 10
1415.270667532474
 20
2216.204879961466
 10
1417.936342768951
 20
2217.061110220244
 10
1420.634125827522
 20
2217.810057008277
 10
1423.359700830789
 20
2218.450522170471
 10
1426.108707440171
 20
2218.98148109919
 10
1428.876747831518
 20
2219.402084373416
 10
1431.659393730687
 20
2219.711659117633
 10
1434.452193497838
 20
2219.909710078289
 10
1437.250679249109
 20
2219.995920416096
 10
1437.965583692274
 20
2219.99977962458
  0
LWPOLYLINE
  5
180
330
87
100
AcDbEntity
  8
P-SANR-FIXT
100
AcDbPolyline
 90
       41
 70
   128
 43
0.0
 10
1635.280307165777
 20
2219.960916794314
 10
1636.125660836254
 20
2219.944007466267
 10
1638.920436021032
 20
2219.776119441181
 10
1641.706261953414
 20
2219.496604509769
 10
1644.478681906187
 20
2219.105909836292
 10
1647.233260598844
 20
2218.604660448885
 10
1649.965591293089
 20
2217.99365823964
 10
1652.671302842677
 20
2217.273880681752
 10
1655.346066686318
 20
2216.446479265769
 10
1657.985603772446
 20
2215.512777657453
 10
1660.585691404795
 20
2214.4742695802
 10
1663.142169997809
 20
2213.332616425395
 10
1665.650949731093
 20
2212.089644594548
 10
1668.108017092251
 20
2210.747342577434
 10
1670.509441297651
 20
2209.307857770937
 10
1672.851380580842
 20
2207.773493043675
 10
1675.130088338557
 20
2206.146703051898
 10
1677.341919124482
 20
2204.430090312563
 10
1679.483334481193
 20
2202.626401039861
 10
1681.550908600928
 20
2200.738520751861
 10
1683.541333806156
 20
2198.769469654299
 10
1685.451425841149
 20
2196.722397808889
 10
1687.278128966117
 20
2194.600580093899
 10
1689.018520845735
 20
2192.40741096504
 10
1690.669817224259
 20
2190.14639902507
 10
1692.229376379742
 20
2187.821161410767
 10
1693.694703350223
 20
2185.435418006292
 10
1695.063453925136
 20
2182.992985492159
 10
1696.333438395545
 20
2180.497771239368
 10
1697.502625057213
 20
2177.953767058437
 10
1698.569143460895
 20
2175.365042813365
 10
1699.531287404657
 20
2172.735739910712
 10
1700.387517663435
 20
2170.070064674234
 10
1701.136464451468
 20
2167.372281615664
 10
1701.776929613661
 20
2164.646706612396
 10
1702.307888542381
 20
2161.897700003015
 10
1702.728491816607
 20
2159.129659611668
 10
1703.038066560823
 20
2156.347013712499
 10
1703.23611752148
 20
2153.554213945348
 10
1703.322327859287
 20
2150.755728194076
 10
1703.326407443189
 20
2149.999999999997
  0
LWPOLYLINE
  5
181
330
87
100
AcDbEntity
  8
P-SANR-FIXT
100
AcDbPolyline
 90
        4
 70
   128
 43
0.0
 10
1438.006407443189
 20
2219.999999999998
 10
1438.084525026677
 20
2219.999999999998
 10
1438.318752805675
 20
2219.999999999998
 10
1438.529164096938
 20
2219.999999999998
  0
LWPOLYLINE
  5
182
330
87
100
AcDbEntity
  8
P-SANR-FIXT
100
AcDbPolyline
 90
        4
 70
   128
 43
0.0
 10
1632.822863045274
 20
2219.999999999998
 10
1633.141221826001
 20
2219.999999999998
 10
1633.303641697233
 20
2219.999999999998
 10
1633.326407443189
 20
2219.999999999998
  0
LWPOLYLINE
  5
183
330
87
100
AcDbEntity
  8
P-SANR-FIXT
100
AcDbPolyline
 90
       80
 70
   128
 43
0.0
 10
1633.326407443189
 20
2219.999999999998
 10
1633.2482898597
 20
2219.999999999998
 10
1633.014062080702
 20
2219.999999999998
 10
1632.624098820677
 20
2219.999999999998
 10
1632.079023937652
 20
2219.999999999998
 10
1631.379709435164
 20
2219.999999999998
 10
1630.527274067238
 20
2219.999999999998
 10
1629.523081548618
 20
2219.999999999998
 10
1628.36873837312
 20
2219.999999999998
 10
1627.066091243576
 20
2219.999999999998
 10
1625.617224117511
 20
2219.999999999998
 10
1624.024454873251
 20
2219.999999999998
 10
1622.290331601814
 20
2219.999999999998
 10
1620.417628530508
 20
2219.999999999998
 10
1618.409341584759
 20
2219.999999999998
 10
1616.268683595268
 20
2219.999999999998
 10
1613.999079158169
 20
2219.999999999998
 10
1611.604159156404
 20
2219.999999999998
 10
1609.087754951089
 20
2219.999999999998
 10
1606.453892252145
 20
2219.999999999998
 10
1603.706784678033
 20
2219.999999999998
 10
1600.850827014851
 20
2219.999999999998
 10
1597.890588185622
 20
2219.999999999998
 10
1594.830803940989
 20
2219.999999999998
 10
1591.676369283025
 20
2219.999999999998
 10
1588.432330634271
 20
2219.999999999998
 10
1585.103877764542
 20
2219.999999999998
 10
1581.696335488396
 20
2219.999999999998
 10
1578.215155146572
 20
2219.999999999998
 10
1574.665905885005
 20
2219.999999999998
 10
1571.05426574538
 20
2219.999999999998
 10
1567.386012581479
 20
2219.999999999998
 10
1563.667014815845
 20
2219.999999999998
 10
1559.903222051559
 20
2219.999999999998
 10
1556.100655554144
 20
2219.999999999998
 10
1552.265398618826
 20
2219.999999999998
 10
1548.403586838555
 20
2219.999999999998
 10
1544.521398288372
 20
2219.999999999998
 10
1540.625043641801
 20
2219.999999999998
 10
1536.720756235098
 20
2219.999999999998
 10
1532.814782095244
 20
2219.999999999998
 10
1528.913369947632
 20
2219.999999999998
 10
1525.022761219442
 20
2219.999999999998
 10
1521.149180054687
 20
2219.999999999998
 10
1517.29882335691
 20
2219.999999999998
 10
1513.477850875461
 20
2219.999999999998
 10
1509.692375351215
 20
2219.999999999998
 10
1505.948452737485
 20
2219.999999999998
 10
1502.252072511792
 20
2219.999999999998
 10
1498.609148093977
 20
2219.999999999998
 10
1495.025507385994
 20
2219.999999999998
 10
1491.506883448507
 20
2219.999999999998
 10
1488.058905329214
 20
2219.999999999998
 10
1484.68708905758
 20
2219.999999999998
 10
1481.396828820353
 20
2219.999999999998
 10
1478.193388332031
 20
2219.999999999998
 10
1475.08189241403
 20
2219.999999999998
 10
1472.067318796068
 20
2219.999999999998
 10
1469.15449015286
 20
2219.999999999998
 10
1466.348066388863
 20
2219.999999999998
 10
1463.65253718343
 20
2219.999999999998
 10
1461.072214808273
 20
2219.999999999998
 10
1458.611227228752
 20
2219.999999999998
 10
1456.273511500013
 20
2219.999999999998
 10
1454.062807468535
 20
2219.999999999998
 10
1451.982651789177
 20
2219.999999999998
 10
1450.036372267283
 20
2219.999999999998
 10
1448.227082534904
 20
2219.999999999998
 10
1446.55767706965
 20
2219.999999999998
 10
1445.030826564145
 20
2219.999999999998
 10
1443.648973653487
 20
2219.999999999998
 10
1442.414329007554
 20
2219.999999999998
 10
1441.328867794402
 20
2219.999999999998
 10
1440.39432652042
 20
2219.999999999998
 10
1439.612200252287
 20
2219.999999999998
 10
1438.983740225189
 20
2219.999999999998
 10
1438.509951841103
 20
2219.999999999998
 10
1438.191593060377
 20
2219.999999999998
 10
1438.029173189144
 20
2219.999999999998
 10
1438.006407443189
 20
2219.999999999998
  0
LINE
  5
184
330
87
100
AcDbEntity
  8
P-SANR-FIXT
100
AcDbLine
 10
1870.66640744319
 20
2124.999999999996
 30
0.0
 11
1850.66640744319
 21
2124.999999999996
 31
0.0
  0
LINE
  5
185
330
87
100
AcDbEntity
  8
P-SANR-FIXT
100
AcDbLine
 10
1850.666407443189
 20
1874.999999999995
 30
0.0
 11
1870.666407443189
 21
1874.999999999995
 31
0.0
  0
LINE
  5
186
330
87
100
AcDbEntity
  8
P-SANR-FIXT
100
AcDbLine
 10
1850.66640744319
 20
2069.799999999995
 30
0.0
 11
1798.666407443189
 21
2069.799999999996
 31
0.0
  0
LINE
  5
187
330
87
100
AcDbEntity
  8
P-SANR-FIXT
100
AcDbLine
 10
1772.666407443189
 20
2069.799999999996
 30
0.0
 11
1703.326407443189
 21
2069.799999999996
 31
0.0
  0
LINE
  5
188
330
87
100
AcDbEntity
  8
P-SANR-FIXT
100
AcDbLine
 10
1703.326407443189
 20
1930.199999999995
 30
0.0
 11
1850.66640744319
 21
1930.199999999995
 31
0.0
  0
LINE
  5
189
330
87
100
AcDbEntity
  8
P-SANR-FIXT
100
AcDbLine
 10
1368.006407443189
 20
2069.799999999996
 30
0.0
 11
1220.666407443189
 21
2069.799999999996
 31
0.0
  0
LINE
  5
18A
330
87
100
AcDbEntity
  8
P-SANR-FIXT
100
AcDbLine
 10
1220.666407443188
 20
1930.199999999999
 30
0.0
 11
1368.006407443189
 21
1930.199999999998
 31
0.0
  0
LINE
  5
18B
330
87
100
AcDbEntity
  8
P-SANR-FIXT
100
AcDbLine
 10
1220.666407443188
 20
2124.999999999996
 30
0.0
 11
1200.666407443188
 21
2124.999999999996
 31
0.0
  0
LINE
  5
18C
330
87
100
AcDbEntity
  8
P-SANR-FIXT
100
AcDbLine
 10
1200.666407443188
 20
1874.999999999999
 30
0.0
 11
1220.666407443188
 21
1874.999999999999
 31
0.0
  0
LINE
  5
18D
330
87
100
AcDbEntity
  8
P-SANR-FIXT
100
AcDbLine
 10
1798.666407443188
 20
1509.799999999995
 30
0.0
 11
1798.666407443188
 21
1539.859999999995
 31
0.0
  0
LINE
  5
18E
330
87
100
AcDbEntity
  8
P-SANR-FIXT
100
AcDbLine
 10
1772.666407443188
 20
1539.859999999995
 30
0.0
 11
1772.666407443188
 21
1509.799999999995
 31
0.0
  0
LINE
  5
18F
330
87
100
AcDbEntity
  8
P-SANR-FIXT
100
AcDbLine
 10
1798.666407443189
 20
2069.799999999996
 30
0.0
 11
1798.666407443189
 21
2099.859999999996
 31
0.0
  0
LINE
  5
190
330
87
100
AcDbEntity
  8
P-SANR-FIXT
100
AcDbLine
 10
1772.666407443189
 20
2099.859999999996
 30
0.0
 11
1772.666407443189
 21
2069.799999999996
 31
0.0
  0
LINE
  5
191
330
87
100
AcDbEntity
  8
P-SANR-FIXT
100
AcDbLine
 10
1870.666407443188
 20
1564.999999999995
 30
0.0
 11
1870.666407443187
 21
1314.999999999995
 31
0.0
  0
LINE
  5
192
330
87
100
AcDbEntity
  8
P-SANR-FIXT
100
AcDbLine
 10
1850.666407443188
 20
1564.999999999995
 30
0.0
 11
1850.666407443187
 21
1314.999999999995
 31
0.0
  0
SPLINE
  5
193
330
87
100
AcDbEntity
  8
P-SANR-FIXT
100
AcDbSpline
210
0.0
220
0.0
230
1.0
 70
     8
 71
     3
 72
    24
 73
    20
 74
     0
 42
0.000000001
 43
0.0000000001
 40
0.0
 40
0.0
 40
0.0
 40
0.0
 40
0.0555555555555556
 40
0.1111111111111111
 40
0.1666666666666666
 40
0.2222222222222222
 40
0.2777777777777778
 40
0.3333333333333333
 40
0.3888888888888888
 40
0.4444444444444445
 40
0.5138888888888889
 40
0.5486111111111111
 40
0.5833333333333333
 40
0.6527777777777777
 40
0.6875
 40
0.7222222222222223
 40
0.7916666666666668
 40
0.861111111111111
 40
1.0
 40
1.0
 40
1.0
 40
1.0
 10
1798.666407443187
 20
1509.799999999995
 30
0.0
 10
1798.657999671318
 20
1509.799999999995
 30
0.0
 10
1798.51653510805
 20
1509.773136240941
 30
0.0
 10
1797.948376796499
 20
1509.667803364238
 30
0.0
 10
1796.970300242457
 20
1509.502628466188
 30
0.0
 10
1795.675005211739
 20
1509.299490121418
 30
0.0
 10
1794.061074653759
 20
1509.084770873596
 30
0.0
 10
1792.208882566509
 20
1508.879984438467
 30
0.0
 10
1790.137267289081
 20
1508.715027901015
 30
0.0
 10
1787.756215437109
 20
1508.593920627339
 30
0.0
 10
1785.563485500739
 20
1508.568896664313
 30
0.0
 10
1783.669905082408
 20
1508.602775477073
 30
0.0
 10
1781.849233186153
 20
1508.675088634008
 30
0.0
 10
1780.028178843734
 20
1508.801672293835
 30
0.0
 10
1778.439055406037
 20
1508.955298787053
 30
0.0
 10
1776.90635909788
 20
1509.130292810051
 30
0.0
 10
1775.283130696154
 20
1509.353104648773
 30
0.0
 10
1773.285202664782
 20
1509.678871860488
 30
0.0
 10
1772.687949654945
 20
1509.799999999995
 30
0.0
 10
1772.666407443186
 20
1509.799999999995
 30
0.0
  0
SPLINE
  5
194
330
87
100
AcDbEntity
  8
P-SANR-FIXT
100
AcDbSpline
210
0.0
220
0.0
230
1.0
 70
     8
 71
     3
 72
    19
 73
    15
 74
     0
 42
0.000000001
 43
0.0000000001
 40
0.0105802055789137
 40
0.0105802055789137
 40
0.0105802055789137
 40
0.0105802055789137
 40
0.125
 40
0.25
 40
0.3125
 40
0.375
 40
0.4375
 40
0.5
 40
0.5625
 40
0.625
 40
0.6875
 40
0.75
 40
0.875
 40
1.0
 40
1.0
 40
1.0
 40
1.0
 10
1703.318981382729
 20
1509.790081297271
 30
0.0
 10
1703.279107255833
 20
1509.718603595246
 30
0.0
 10
1702.898318164523
 20
1508.761421290496
 30
0.0
 10
1701.563780909373
 20
1505.487117619912
 30
0.0
 10
1700.052889067584
 20
1501.55643958521
 30
0.0
 10
1698.766643135245
 20
1498.030903132212
 30
0.0
 10
1697.359048969967
 20
1493.970861593386
 30
0.0
 10
1695.892162052999
 20
1489.408477057637
 30
0.0
 10
1694.40911456934
 20
1484.384038145956
 30
0.0
 10
1692.967996223071
 20
1478.936642572043
 30
0.0
 10
1691.623361213355
 20
1473.099933028411
 30
0.0
 10
1690.025272479128
 20
1464.873344394742
 30
0.0
 10
1688.523432628919
 20
1453.845668105676
 30
0.0
 10
1688.126396983051
 20
1444.62548644612
 30
0.0
 10
1688.106020405174
 20
1439.999999999995
 30
0.0
  0
SPLINE
  5
195
330
87
100
AcDbEntity
  8
P-SANR-FIXT
100
AcDbSpline
210
0.0
220
0.0
230
1.0
 70
     8
 71
     3
 72
    19
 73
    15
 74
     0
 42
0.000000001
 43
0.0000000001
 40
0.0
 40
0.0
 40
0.0
 40
0.0
 40
0.125
 40
0.25
 40
0.3125
 40
0.375
 40
0.4375
 40
0.5
 40
0.5625
 40
0.625
 40
0.6875
 40
0.75
 40
0.875
 40
0.9894197944210832
 40
0.9894197944210832
 40
0.9894197944210832
 40
0.9894197944210832
 10
1688.106020405174
 20
1439.999999999995
 30
0.0
 10
1688.126396983051
 20
1435.374513553871
 30
0.0
 10
1688.523432628919
 20
1426.154331894315
 30
0.0
 10
1690.025272479128
 20
1415.126655605249
 30
0.0
 10
1691.623361213355
 20
1406.90006697158
 30
0.0
 10
1692.967996223072
 20
1401.063357427948
 30
0.0
 10
1694.40911456934
 20
1395.615961854034
 30
0.0
 10
1695.892162053
 20
1390.591522942354
 30
0.0
 10
1697.359048969967
 20
1386.029138406605
 30
0.0
 10
1698.766643135245
 20
1381.969096867777
 30
0.0
 10
1700.052889067584
 20
1378.443560414781
 30
0.0
 10
1701.563780909373
 20
1374.512882380079
 30
0.0
 10
1702.898318164523
 20
1371.238578709495
 30
0.0
 10
1703.279107255833
 20
1370.281396404745
 30
0.0
 10
1703.318981382729
 20
1370.209918702719
 30
0.0
  0
SPLINE
  5
196
330
87
100
AcDbEntity
  8
P-SANR-FIXT
100
AcDbSpline
210
0.0
220
0.0
230
1.0
 70
     8
 71
     3
 72
    19
 73
    15
 74
     0
 42
0.000000001
 43
0.0000000001
 40
0.0105802055789068
 40
0.0105802055789068
 40
0.0105802055789068
 40
0.0105802055789068
 40
0.125
 40
0.25
 40
0.3125
 40
0.375
 40
0.4375
 40
0.5
 40
0.5625
 40
0.625
 40
0.6875
 40
0.75
 40
0.875
 40
1.0
 40
1.0
 40
1.0
 40
1.0
 10
1368.013833503645
 20
1370.209918702722
 30
0.0
 10
1368.053707630542
 20
1370.281396404747
 30
0.0
 10
1368.434496721851
 20
1371.238578709497
 30
0.0
 10
1369.769033977001
 20
1374.512882380081
 30
0.0
 10
1371.27992581879
 20
1378.443560414783
 30
0.0
 10
1372.56617175113
 20
1381.96909686778
 30
0.0
 10
1373.973765916408
 20
1386.029138406607
 30
0.0
 10
1375.440652833375
 20
1390.591522942355
 30
0.0
 10
1376.923700317034
 20
1395.615961854036
 30
0.0
 10
1378.364818663303
 20
1401.063357427949
 30
0.0
 10
1379.70945367302
 20
1406.900066971582
 30
0.0
 10
1381.307542407246
 20
1415.126655605251
 30
0.0
 10
1382.809382257455
 20
1426.154331894316
 30
0.0
 10
1383.206417903323
 20
1435.374513553871
 30
0.0
 10
1383.226794481201
 20
1439.999999999996
 30
0.0
  0
SPLINE
  5
197
330
87
100
AcDbEntity
  8
P-SANR-FIXT
100
AcDbSpline
210
0.0
220
0.0
230
1.0
 70
     8
 71
     3
 72
    19
 73
    15
 74
     0
 42
0.000000001
 43
0.0000000001
 40
0.0
 40
0.0
 40
0.0
 40
0.0
 40
0.125
 40
0.25
 40
0.3125
 40
0.375
 40
0.4375
 40
0.5
 40
0.5625
 40
0.625
 40
0.6875
 40
0.75
 40
0.875
 40
0.9894197944210965
 40
0.9894197944210965
 40
0.9894197944210965
 40
0.9894197944210965
 10
1383.226794481201
 20
1439.999999999996
 30
0.0
 10
1383.206417903323
 20
1444.625486446121
 30
0.0
 10
1382.809382257456
 20
1453.845668105677
 30
0.0
 10
1381.307542407246
 20
1464.873344394742
 30
0.0
 10
1379.70945367302
 20
1473.099933028411
 30
0.0
 10
1378.364818663303
 20
1478.936642572043
 30
0.0
 10
1376.923700317035
 20
1484.384038145957
 30
0.0
 10
1375.440652833375
 20
1489.408477057637
 30
0.0
 10
1373.973765916408
 20
1493.970861593385
 30
0.0
 10
1372.56617175113
 20
1498.030903132213
 30
0.0
 10
1371.27992581879
 20
1501.55643958521
 30
0.0
 10
1369.769033977001
 20
1505.487117619912
 30
0.0
 10
1368.434496721851
 20
1508.761421290496
 30
0.0
 10
1368.053707630542
 20
1509.718603595246
 30
0.0
 10
1368.013833503645
 20
1509.790081297271
 30
0.0
  0
LINE
  5
198
330
87
100
AcDbEntity
  8
P-SANR-FIXT
100
AcDbLine
 10
1220.666407443186
 20
1564.999999999996
 30
0.0
 11
1220.666407443186
 21
1314.999999999999
 31
0.0
  0
LINE
  5
199
330
87
100
AcDbEntity
  8
P-SANR-FIXT
100
AcDbLine
 10
1200.666407443187
 20
1564.999999999996
 30
0.0
 11
1200.666407443186
 21
1314.999999999999
 31
0.0
  0
SPLINE
  5
19A
330
87
100
AcDbEntity
  8
P-SANR-FIXT
100
AcDbSpline
210
0.0
220
0.0
230
1.0
 70
     8
 71
     3
 72
    15
 73
    11
 74
     0
 42
0.000000001
 43
0.0000000001
 40
0.0105172358974707
 40
0.0105172358974707
 40
0.0105172358974707
 40
0.0105172358974707
 40
0.125
 40
0.25
 40
0.375
 40
0.5
 40
0.625
 40
0.75
 40
0.875
 40
1.0
 40
1.0
 40
1.0
 40
1.0
 10
1703.322298228937
 20
1930.212897776006
 30
0.0
 10
1703.292512484052
 20
1930.293466535234
 30
0.0
 10
1702.892252647958
 20
1931.231750893429
 30
0.0
 10
1701.287955927216
 20
1935.191507917042
 30
0.0
 10
1698.823054487684
 20
1941.699509339922
 30
0.0
 10
1695.898336700579
 20
1950.359541015768
 30
0.0
 10
1692.920410461303
 20
1960.873518627059
 30
0.0
 10
1690.324482129189
 20
1972.915843013405
 30
0.0
 10
1688.528737425077
 20
1986.180936199108
 30
0.0
 10
1688.114791338668
 20
1995.315955065376
 30
0.0
 10
1688.106020405173
 20
1999.999999999996
 30
0.0
  0
SPLINE
  5
19B
330
87
100
AcDbEntity
  8
P-SANR-FIXT
100
AcDbSpline
210
0.0
220
0.0
230
1.0
 70
     8
 71
     3
 72
    15
 73
    11
 74
     0
 42
0.000000001
 43
0.0000000001
 40
0.0
 40
0.0
 40
0.0
 40
0.0
 40
0.125
 40
0.25
 40
0.375
 40
0.5
 40
0.625
 40
0.75
 40
0.875
 40
0.9894827641025242
 40
0.9894827641025242
 40
0.9894827641025242
 40
0.9894827641025242
 10
1383.2267944812
 20
1999.999999999997
 30
0.0
 10
1383.218023547706
 20
1995.315955065376
 30
0.0
 10
1382.804077461297
 20
1986.180936199109
 30
0.0
 10
1381.008332757186
 20
1972.915843013406
 30
0.0
 10
1378.412404425071
 20
1960.87351862706
 30
0.0
 10
1375.434478185795
 20
1950.35954101577
 30
0.0
 10
1372.509760398691
 20
1941.699509339924
 30
0.0
 10
1370.044858959158
 20
1935.191507917043
 30
0.0
 10
1368.440562238416
 20
1931.231750893431
 30
0.0
 10
1368.040302402322
 20
1930.293466535236
 30
0.0
 10
1368.010516657438
 20
1930.212897776008
 30
0.0
  0
SPLINE
  5
19C
330
87
100
AcDbEntity
  8
P-SANR-FIXT
100
AcDbSpline
210
0.0
220
0.0
230
1.0
 70
     8
 71
     3
 72
    15
 73
    11
 74
     0
 42
0.000000001
 43
0.0000000001
 40
0.0105172358974775
 40
0.0105172358974775
 40
0.0105172358974775
 40
0.0105172358974775
 40
0.125
 40
0.25
 40
0.375
 40
0.5
 40
0.625
 40
0.75
 40
0.875
 40
1.0
 40
1.0
 40
1.0
 40
1.0
 10
1368.010516657437
 20
2069.787102223984
 30
0.0
 10
1368.040302402322
 20
2069.706533464756
 30
0.0
 10
1368.440562238416
 20
2068.768249106561
 30
0.0
 10
1370.044858959158
 20
2064.808492082949
 30
0.0
 10
1372.509760398691
 20
2058.300490660069
 30
0.0
 10
1375.434478185795
 20
2049.640458984223
 30
0.0
 10
1378.412404425071
 20
2039.126481372933
 30
0.0
 10
1381.008332757185
 20
2027.084156986588
 30
0.0
 10
1382.804077461297
 20
2013.819063800884
 30
0.0
 10
1383.218023547706
 20
2004.684044934617
 30
0.0
 10
1383.2267944812
 20
1999.999999999997
 30
0.0
  0
SPLINE
  5
19D
330
87
100
AcDbEntity
  8
P-SANR-FIXT
100
AcDbSpline
210
0.0
220
0.0
230
1.0
 70
     8
 71
     3
 72
    15
 73
    11
 74
     0
 42
0.000000001
 43
0.0000000001
 40
0.0
 40
0.0
 40
0.0
 40
0.0
 40
0.125
 40
0.25
 40
0.375
 40
0.5
 40
0.625
 40
0.75
 40
0.875
 40
0.9894827641025273
 40
0.9894827641025273
 40
0.9894827641025273
 40
0.9894827641025273
 10
1688.106020405173
 20
1999.999999999996
 30
0.0
 10
1688.114791338668
 20
2004.684044934616
 30
0.0
 10
1688.528737425077
 20
2013.819063800883
 30
0.0
 10
1690.324482129189
 20
2027.084156986586
 30
0.0
 10
1692.920410461303
 20
2039.126481372933
 30
0.0
 10
1695.898336700579
 20
2049.640458984223
 30
0.0
 10
1698.823054487684
 20
2058.300490660069
 30
0.0
 10
1701.287955927216
 20
2064.808492082949
 30
0.0
 10
1702.892252647958
 20
2068.768249106561
 30
0.0
 10
1703.292512484052
 20
2069.706533464756
 30
0.0
 10
1703.322298228937
 20
2069.787102223985
 30
0.0
  0
LINE
  5
19E
330
87
100
AcDbEntity
  8
P-SANR-FIXT
100
AcDbLine
 10
1870.666407443189
 20
2124.999999999995
 30
0.0
 11
1870.666407443188
 21
1874.999999999994
 31
0.0
  0
LINE
  5
19F
330
87
100
AcDbEntity
  8
P-SANR-FIXT
100
AcDbLine
 10
1850.666407443188
 20
2124.999999999995
 30
0.0
 11
1850.666407443188
 21
1874.999999999994
 31
0.0
  0
SPLINE
  5
1A0
330
87
100
AcDbEntity
  8
P-SANR-FIXT
100
AcDbSpline
210
0.0
220
0.0
230
1.0
 70
     8
 71
     3
 72
    24
 73
    20
 74
     0
 42
0.000000001
 43
0.0000000001
 40
0.0
 40
0.0
 40
0.0
 40
0.0
 40
0.0555555555555556
 40
0.1111111111111111
 40
0.1666666666666666
 40
0.2222222222222222
 40
0.2777777777777778
 40
0.3333333333333333
 40
0.3888888888888888
 40
0.4444444444444445
 40
0.5138888888888889
 40
0.5486111111111111
 40
0.5833333333333333
 40
0.6527777777777777
 40
0.6875
 40
0.7222222222222223
 40
0.7916666666666668
 40
0.861111111111111
 40
1.0
 40
1.0
 40
1.0
 40
1.0
 10
1798.666407443187
 20
2069.799999999995
 30
0.0
 10
1798.657999671319
 20
2069.799999999995
 30
0.0
 10
1798.516535108051
 20
2069.77313624094
 30
0.0
 10
1797.9483767965
 20
2069.667803364238
 30
0.0
 10
1796.970300242459
 20
2069.502628466187
 30
0.0
 10
1795.67500521174
 20
2069.299490121419
 30
0.0
 10
1794.06107465376
 20
2069.084770873596
 30
0.0
 10
1792.208882566511
 20
2068.879984438466
 30
0.0
 10
1790.137267289081
 20
2068.715027901015
 30
0.0
 10
1787.75621543711
 20
2068.593920627339
 30
0.0
 10
1785.56348550074
 20
2068.568896664312
 30
0.0
 10
1783.669905082409
 20
2068.602775477072
 30
0.0
 10
1781.849233186154
 20
2068.675088634008
 30
0.0
 10
1780.028178843735
 20
2068.801672293835
 30
0.0
 10
1778.439055406038
 20
2068.955298787052
 30
0.0
 10
1776.906359097881
 20
2069.130292810051
 30
0.0
 10
1775.283130696154
 20
2069.353104648772
 30
0.0
 10
1773.285202664783
 20
2069.678871860487
 30
0.0
 10
1772.687949654946
 20
2069.799999999995
 30
0.0
 10
1772.666407443187
 20
2069.799999999995
 30
0.0
  0
LINE
  5
1A1
330
87
100
AcDbEntity
  8
P-SANR-FIXT
100
AcDbLine
 10
1220.666407443187
 20
2124.999999999996
 30
0.0
 11
1220.666407443186
 21
1874.999999999998
 31
0.0
  0
LINE
  5
1A2
330
87
100
AcDbEntity
  8
P-SANR-FIXT
100
AcDbLine
 10
1200.666407443187
 20
2124.999999999996
 30
0.0
 11
1200.666407443186
 21
1874.999999999998
 31
0.0
  0
LINE
  5
1A3
330
87
100
AcDbEntity
  8
P-SANR-FIXT
100
AcDbLine
 10
1772.666407443187
 20
1539.859999999995
 30
0.0
 11
1798.666407443187
 21
1539.859999999995
 31
0.0
  0
LINE
  5
1A4
330
87
100
AcDbEntity
  8
P-SANR-FIXT
100
AcDbLine
 10
1772.666407443187
 20
2099.859999999995
 30
0.0
 11
1798.666407443187
 21
2099.859999999995
 31
0.0
  0
ENDBLK
  5
1A6
330
87
100
AcDbEntity
  8
0
100
AcDbBlockEnd
  0
BLOCK
  5
257
330
1A8
100
AcDbEntity
  8
0
100
AcDbBlockBegin
  2
Automatic flow rate regulator valve_Caleffi_121 DN15 - 1_2__-V1-Est - Idraulica
 70
     0
 10
0.0
 20
0.0
 30
0.0
  3
Automatic flow rate regulator valve_Caleffi_121 DN15 - 1_2__-V1-Est - Idraulica
  1

  0
LINE
  5
1A9
330
1A8
100
AcDbEntity
  8
M-PIPE
100
AcDbLine
 10
1535.666407443206
 20
341.3480203851858
 30
0.0
 11
1551.166407443206
 21
350.2969495576254
 31
0.0
1001
REVIT
1002
{
1070
     3
1000
790271
1002
}
  0
LINE
  5
1AA
330
1A8
100
AcDbEntity
  8
M-PIPE
100
AcDbLine
 10
1551.166407443206
 20
350.2969495576254
 30
0.0
 11
1551.166407443206
 21
368.1948079025038
 31
0.0
1001
REVIT
1002
{
1070
     3
1000
790271
1002
}
  0
LINE
  5
1AB
330
1A8
100
AcDbEntity
  8
M-PIPE
100
AcDbLine
 10
1551.166407443206
 20
368.1948079025038
 30
0.0
 11
1535.666407443206
 21
377.1437370749426
 31
0.0
1001
REVIT
1002
{
1070
     3
1000
790271
1002
}
  0
LINE
  5
1AC
330
1A8
100
AcDbEntity
  8
M-PIPE
100
AcDbLine
 10
1535.666407443206
 20
377.1437370749426
 30
0.0
 11
1520.166407443206
 21
368.1948079025031
 31
0.0
1001
REVIT
1002
{
1070
     3
1000
790271
1002
}
  0
LINE
  5
1AD
330
1A8
100
AcDbEntity
  8
M-PIPE
100
AcDbLine
 10
1520.166407443206
 20
368.1948079025031
 30
0.0
 11
1520.166407443206
 21
350.2969495576246
 31
0.0
1001
REVIT
1002
{
1070
     3
1000
790271
1002
}
  0
LINE
  5
1AE
330
1A8
100
AcDbEntity
  8
M-PIPE
100
AcDbLine
 10
1520.166407443206
 20
350.2969495576246
 30
0.0
 11
1535.666407443206
 21
341.3480203851858
 31
0.0
1001
REVIT
1002
{
1070
     3
1000
790271
1002
}
  0
ARC
  5
1AF
330
1A8
100
AcDbEntity
  8
M-PIPE
100
AcDbCircle
 10
1535.666407443205
 20
376.2458787300734
 30
0.0
 40
57.49999999999988
100
AcDbArc
 50
189.9770839511122
 51
230.0229160488877
1001
REVIT
1002
{
1070
     3
1000
790271
1002
}
  0
ARC
  5
1B0
330
1A8
100
AcDbEntity
  8
M-PIPE
100
AcDbCircle
 10
1506.916407443206
 20
326.449418012468
 30
0.0
 40
9.999999999999939
100
AcDbArc
 50
145.0114580244434
 51
334.9885419755549
1001
REVIT
1002
{
1070
     3
1000
790271
1002
}
  0
ARC
  5
1B1
330
1A8
100
AcDbEntity
  8
M-PIPE
100
AcDbCircle
 10
1535.666407443205
 20
376.2458787300734
 30
0.0
 40
57.4999999999998
100
AcDbArc
 50
249.9770839511118
 51
290.022916048887
1001
REVIT
1002
{
1070
     3
1000
790271
1002
}
  0
ARC
  5
1B2
330
1A8
100
AcDbEntity
  8
M-PIPE
100
AcDbCircle
 10
1564.416407443206
 20
326.4494180124685
 30
0.0
 40
10.0
100
AcDbArc
 50
205.0114580244433
 51
34.98854197555561
1001
REVIT
1002
{
1070
     3
1000
790271
1002
}
  0
ARC
  5
1B3
330
1A8
100
AcDbEntity
  8
M-PIPE
100
AcDbCircle
 10
1535.666407443205
 20
376.2458787300734
 30
0.0
 40
57.50000000000027
100
AcDbArc
 50
309.9770839511113
 51
350.0229160488872
1001
REVIT
1002
{
1070
     3
1000
790271
1002
}
  0
ARC
  5
1B4
330
1A8
100
AcDbEntity
  8
M-PIPE
100
AcDbCircle
 10
1593.166407443206
 20
376.2458787300741
 30
0.0
 40
9.999999999999868
100
AcDbArc
 50
265.0114580244425
 51
94.98854197555713
1001
REVIT
1002
{
1070
     3
1000
790271
1002
}
  0
ARC
  5
1B5
330
1A8
100
AcDbEntity
  8
M-PIPE
100
AcDbCircle
 10
1535.666407443205
 20
376.2458787300734
 30
0.0
 40
57.50000000000006
100
AcDbArc
 50
9.977083951112208
 51
50.02291604890309
1001
REVIT
1002
{
1070
     3
1000
790271
1002
}
  0
ARC
  5
1B6
330
1A8
100
AcDbEntity
  8
M-PIPE
100
AcDbCircle
 10
1564.416407443205
 20
426.0423394476788
 30
0.0
 40
9.999999999984515
100
AcDbArc
 50
325.0114580244507
 51
154.9885419755151
1001
REVIT
1002
{
1070
     3
1000
790271
1002
}
  0
ARC
  5
1B7
330
1A8
100
AcDbEntity
  8
M-PIPE
100
AcDbCircle
 10
1535.666407443214
 20
376.2458787300122
 30
0.0
 40
57.50000000006007
100
AcDbArc
 50
69.97708395112532
 51
110.022916048876
1001
REVIT
1002
{
1070
     3
1000
790271
1002
}
  0
ARC
  5
1B8
330
1A8
100
AcDbEntity
  8
M-PIPE
100
AcDbCircle
 10
1506.916407443205
 20
426.0423394476782
 30
0.0
 40
9.999999999999291
100
AcDbArc
 50
25.01145802444395
 51
214.988541975554
1001
REVIT
1002
{
1070
     3
1000
790271
1002
}
  0
ARC
  5
1B9
330
1A8
100
AcDbEntity
  8
M-PIPE
100
AcDbCircle
 10
1535.666407443205
 20
376.2458787300734
 30
0.0
 40
57.49999999999977
100
AcDbArc
 50
129.9770839511118
 51
170.0229160488883
1001
REVIT
1002
{
1070
     3
1000
790271
1002
}
  0
ARC
  5
1BA
330
1A8
100
AcDbEntity
  8
M-PIPE
100
AcDbCircle
 10
1478.166407443205
 20
376.2458787300724
 30
0.0
 40
9.999999999999868
100
AcDbArc
 50
85.01145802444286
 51
274.9885419755555
1001
REVIT
1002
{
1070
     3
1000
790271
1002
}
  0
ARC
  5
1BB
330
1A8
100
AcDbEntity
  8
M-PIPE
100
AcDbCircle
 10
1535.666407443191
 20
359.2458787300623
 30
0.0
 40
26.49999999999991
100
AcDbArc
 50
265.0000000000013
 51
265.4989141705231
1001
REVIT
1002
{
1070
     3
1000
790271
1002
}
  0
ARC
  5
1BC
330
1A8
100
AcDbEntity
  8
M-PIPE
100
AcDbCircle
 10
1535.666407443191
 20
359.2458787300623
 30
0.0
 40
26.50000000000002
100
AcDbArc
 50
260.0000000000015
 51
260.995099319542
1001
REVIT
1002
{
1070
     3
1000
790271
1002
}
  0
ARC
  5
1BD
330
1A8
100
AcDbEntity
  8
M-PIPE
100
AcDbCircle
 10
1535.666407443191
 20
359.2458787300623
 30
0.0
 40
26.49999999999975
100
AcDbArc
 50
255.000000000001
 51
256.4895751335293
1001
REVIT
1002
{
1070
     3
1000
790271
1002
}
  0
ARC
  5
1BE
330
1A8
100
AcDbEntity
  8
M-PIPE
100
AcDbCircle
 10
1535.666407443191
 20
359.2458787300623
 30
0.0
 40
26.4999999999998
100
AcDbArc
 50
242.9728913627074
 51
251.9833361371161
1001
REVIT
1002
{
1070
     3
1000
790271
1002
}
  0
ARC
  5
1BF
330
1A8
100
AcDbEntity
  8
M-PIPE
100
AcDbCircle
 10
1535.666407443191
 20
359.2458787300623
 30
0.0
 40
26.49999999999987
100
AcDbArc
 50
238.4710753991547
 51
240.0000000000012
1001
REVIT
1002
{
1070
     3
1000
790271
1002
}
  0
ARC
  5
1C0
330
1A8
100
AcDbEntity
  8
M-PIPE
100
AcDbCircle
 10
1535.666407443191
 20
359.2458787300623
 30
0.0
 40
26.49999999999973
100
AcDbArc
 50
233.9735171897369
 51
235.0000000000012
1001
REVIT
1002
{
1070
     3
1000
790271
1002
}
  0
ARC
  5
1C1
330
1A8
100
AcDbEntity
  8
M-PIPE
100
AcDbCircle
 10
1535.666407443191
 20
359.2458787300623
 30
0.0
 40
26.49999999999975
100
AcDbArc
 50
229.4822353515839
 51
230.0000000000012
1001
REVIT
1002
{
1070
     3
1000
790271
1002
}
  0
ARC
  5
1C2
330
1A8
100
AcDbEntity
  8
M-PIPE
100
AcDbCircle
 10
1535.666407443191
 20
359.2458787300623
 30
0.0
 40
26.49999999999977
100
AcDbArc
 50
220.0000000000006
 51
220.5177646484177
1001
REVIT
1002
{
1070
     3
1000
790271
1002
}
  0
ARC
  5
1C3
330
1A8
100
AcDbEntity
  8
M-PIPE
100
AcDbCircle
 10
1535.666407443191
 20
359.2458787300623
 30
0.0
 40
26.49999999999983
100
AcDbArc
 50
215.0000000000007
 51
216.0264828102653
1001
REVIT
1002
{
1070
     3
1000
790271
1002
}
  0
ARC
  5
1C4
330
1A8
100
AcDbEntity
  8
M-PIPE
100
AcDbCircle
 10
1535.666407443191
 20
359.2458787300623
 30
0.0
 40
26.49999999999986
100
AcDbArc
 50
210.0000000000008
 51
211.5289246008476
1001
REVIT
1002
{
1070
     3
1000
790271
1002
}
  0
ARC
  5
1C5
330
1A8
100
AcDbEntity
  8
M-PIPE
100
AcDbCircle
 10
1535.666407443191
 20
359.2458787300623
 30
0.0
 40
26.49999999999998
100
AcDbArc
 50
198.0166638628857
 51
207.0271086372941
1001
REVIT
1002
{
1070
     3
1000
790271
1002
}
  0
ARC
  5
1C6
330
1A8
100
AcDbEntity
  8
M-PIPE
100
AcDbCircle
 10
1535.666407443191
 20
359.2458787300623
 30
0.0
 40
26.49999999999986
100
AcDbArc
 50
193.5104248664723
 51
195.0000000000008
1001
REVIT
1002
{
1070
     3
1000
790271
1002
}
  0
ARC
  5
1C7
330
1A8
100
AcDbEntity
  8
M-PIPE
100
AcDbCircle
 10
1535.666407443191
 20
359.2458787300623
 30
0.0
 40
26.49999999999982
100
AcDbArc
 50
189.0049006804613
 51
190.0000000000008
1001
REVIT
1002
{
1070
     3
1000
790271
1002
}
  0
ARC
  5
1C8
330
1A8
100
AcDbEntity
  8
M-PIPE
100
AcDbCircle
 10
1535.666407443191
 20
359.2458787300623
 30
0.0
 40
26.49999999999966
100
AcDbArc
 50
184.5010858294801
 51
185.0000000000009
1001
REVIT
1002
{
1070
     3
1000
790271
1002
}
  0
ARC
  5
1C9
330
1A8
100
AcDbEntity
  8
M-PIPE
100
AcDbCircle
 10
1535.666407443191
 20
359.2458787300623
 30
0.0
 40
26.49999999999998
100
AcDbArc
 50
175.0000000000013
 51
175.4989141705218
1001
REVIT
1002
{
1070
     3
1000
790271
1002
}
  0
ARC
  5
1CA
330
1A8
100
AcDbEntity
  8
M-PIPE
100
AcDbCircle
 10
1535.666407443191
 20
359.2458787300623
 30
0.0
 40
26.49999999999971
100
AcDbArc
 50
170.0000000000013
 51
170.9950993195405
1001
REVIT
1002
{
1070
     3
1000
790271
1002
}
  0
ARC
  5
1CB
330
1A8
100
AcDbEntity
  8
M-PIPE
100
AcDbCircle
 10
1535.666407443191
 20
359.2458787300623
 30
0.0
 40
26.49999999999981
100
AcDbArc
 50
165.0000000000013
 51
166.4895751335295
1001
REVIT
1002
{
1070
     3
1000
790271
1002
}
  0
ARC
  5
1CC
330
1A8
100
AcDbEntity
  8
M-PIPE
100
AcDbCircle
 10
1535.666407443191
 20
359.2458787300623
 30
0.0
 40
26.49999999999987
100
AcDbArc
 50
152.9728913627073
 51
161.9833361371164
1001
REVIT
1002
{
1070
     3
1000
790271
1002
}
  0
ARC
  5
1CD
330
1A8
100
AcDbEntity
  8
M-PIPE
100
AcDbCircle
 10
1535.666407443191
 20
359.2458787300623
 30
0.0
 40
26.49999999999978
100
AcDbArc
 50
148.4710753991544
 51
150.0000000000011
1001
REVIT
1002
{
1070
     3
1000
790271
1002
}
  0
ARC
  5
1CE
330
1A8
100
AcDbEntity
  8
M-PIPE
100
AcDbCircle
 10
1535.666407443191
 20
359.2458787300623
 30
0.0
 40
26.49999999999999
100
AcDbArc
 50
143.9735171897362
 51
145.0000000000011
1001
REVIT
1002
{
1070
     3
1000
790271
1002
}
  0
ARC
  5
1CF
330
1A8
100
AcDbEntity
  8
M-PIPE
100
AcDbCircle
 10
1535.666407443191
 20
359.2458787300623
 30
0.0
 40
26.50000000000004
100
AcDbArc
 50
139.4822353515833
 51
140.000000000001
1001
REVIT
1002
{
1070
     3
1000
790271
1002
}
  0
ARC
  5
1D0
330
1A8
100
AcDbEntity
  8
M-PIPE
100
AcDbCircle
 10
1535.666407443191
 20
359.2458787300623
 30
0.0
 40
26.49999999999977
100
AcDbArc
 50
130.0000000000014
 51
130.517764648418
1001
REVIT
1002
{
1070
     3
1000
790271
1002
}
  0
ARC
  5
1D1
330
1A8
100
AcDbEntity
  8
M-PIPE
100
AcDbCircle
 10
1535.666407443191
 20
359.2458787300623
 30
0.0
 40
26.49999999999983
100
AcDbArc
 50
125.0000000000012
 51
126.0264828102655
1001
REVIT
1002
{
1070
     3
1000
790271
1002
}
  0
ARC
  5
1D2
330
1A8
100
AcDbEntity
  8
M-PIPE
100
AcDbCircle
 10
1535.666407443191
 20
359.2458787300623
 30
0.0
 40
26.50000000000006
100
AcDbArc
 50
120.0000000000011
 51
121.5289246008475
1001
REVIT
1002
{
1070
     3
1000
790271
1002
}
  0
ARC
  5
1D3
330
1A8
100
AcDbEntity
  8
M-PIPE
100
AcDbCircle
 10
1535.666407443191
 20
359.2458787300623
 30
0.0
 40
26.50000000000008
100
AcDbArc
 50
108.0166638628853
 51
117.0271086372947
1001
REVIT
1002
{
1070
     3
1000
790271
1002
}
  0
ARC
  5
1D4
330
1A8
100
AcDbEntity
  8
M-PIPE
100
AcDbCircle
 10
1535.666407443191
 20
359.2458787300623
 30
0.0
 40
26.49999999999986
100
AcDbArc
 50
103.5104248664727
 51
105.0000000000007
1001
REVIT
1002
{
1070
     3
1000
790271
1002
}
  0
ARC
  5
1D5
330
1A8
100
AcDbEntity
  8
M-PIPE
100
AcDbCircle
 10
1535.666407443191
 20
359.2458787300623
 30
0.0
 40
26.50000000000004
100
AcDbArc
 50
99.00490068046057
 51
100.0000000000007
1001
REVIT
1002
{
1070
     3
1000
790271
1002
}
  0
ARC
  5
1D6
330
1A8
100
AcDbEntity
  8
M-PIPE
100
AcDbCircle
 10
1535.666407443191
 20
359.2458787300623
 30
0.0
 40
26.49999999999988
100
AcDbArc
 50
94.50108582948008
 51
95.00000000000079
1001
REVIT
1002
{
1070
     3
1000
790271
1002
}
  0
ARC
  5
1D7
330
1A8
100
AcDbEntity
  8
M-PIPE
100
AcDbCircle
 10
1535.666407443191
 20
359.2458787300623
 30
0.0
 40
26.50000000000022
100
AcDbArc
 50
85.00000000000072
 51
85.49891417052098
1001
REVIT
1002
{
1070
     3
1000
790271
1002
}
  0
ARC
  5
1D8
330
1A8
100
AcDbEntity
  8
M-PIPE
100
AcDbCircle
 10
1535.666407443191
 20
359.2458787300623
 30
0.0
 40
26.5
100
AcDbArc
 50
80.00000000000133
 51
80.99509931953944
1001
REVIT
1002
{
1070
     3
1000
790271
1002
}
  0
ARC
  5
1D9
330
1A8
100
AcDbEntity
  8
M-PIPE
100
AcDbCircle
 10
1535.666407443191
 20
359.2458787300623
 30
0.0
 40
26.50000000000008
100
AcDbArc
 50
75.00000000000103
 51
76.4895751335289
1001
REVIT
1002
{
1070
     3
1000
790271
1002
}
  0
ARC
  5
1DA
330
1A8
100
AcDbEntity
  8
M-PIPE
100
AcDbCircle
 10
1535.666407443191
 20
359.2458787300623
 30
0.0
 40
26.50000000000023
100
AcDbArc
 50
62.97289136270769
 51
71.98333613711536
1001
REVIT
1002
{
1070
     3
1000
790271
1002
}
  0
ARC
  5
1DB
330
1A8
100
AcDbEntity
  8
M-PIPE
100
AcDbCircle
 10
1535.666407443191
 20
359.2458787300623
 30
0.0
 40
26.50000000000018
100
AcDbArc
 50
58.47107539915464
 51
60.00000000000137
1001
REVIT
1002
{
1070
     3
1000
790271
1002
}
  0
ARC
  5
1DC
330
1A8
100
AcDbEntity
  8
M-PIPE
100
AcDbCircle
 10
1535.666407443191
 20
359.2458787300623
 30
0.0
 40
26.50000000000018
100
AcDbArc
 50
53.97351718973535
 51
55.00000000000122
1001
REVIT
1002
{
1070
     3
1000
790271
1002
}
  0
ARC
  5
1DD
330
1A8
100
AcDbEntity
  8
M-PIPE
100
AcDbCircle
 10
1535.666407443191
 20
359.2458787300623
 30
0.0
 40
26.50000000000021
100
AcDbArc
 50
49.4822353515825
 51
50.00000000000127
1001
REVIT
1002
{
1070
     3
1000
790271
1002
}
  0
ARC
  5
1DE
330
1A8
100
AcDbEntity
  8
M-PIPE
100
AcDbCircle
 10
1535.666407443191
 20
359.2458787300623
 30
0.0
 40
26.50000000000034
100
AcDbArc
 50
40.00000000000172
 51
40.5177646484196
1001
REVIT
1002
{
1070
     3
1000
790271
1002
}
  0
ARC
  5
1DF
330
1A8
100
AcDbEntity
  8
M-PIPE
100
AcDbCircle
 10
1535.666407443191
 20
359.2458787300623
 30
0.0
 40
26.50000000000023
100
AcDbArc
 50
35.00000000000138
 51
36.02648281026629
1001
REVIT
1002
{
1070
     3
1000
790271
1002
}
  0
ARC
  5
1E0
330
1A8
100
AcDbEntity
  8
M-PIPE
100
AcDbCircle
 10
1535.666407443191
 20
359.2458787300623
 30
0.0
 40
26.50000000000037
100
AcDbArc
 50
30.00000000000142
 51
31.52892460084729
1001
REVIT
1002
{
1070
     3
1000
790271
1002
}
  0
ARC
  5
1E1
330
1A8
100
AcDbEntity
  8
M-PIPE
100
AcDbCircle
 10
1535.666407443191
 20
359.2458787300623
 30
0.0
 40
26.50000000000029
100
AcDbArc
 50
18.01666386288623
 51
27.02710863729531
1001
REVIT
1002
{
1070
     3
1000
790271
1002
}
  0
ARC
  5
1E2
330
1A8
100
AcDbEntity
  8
M-PIPE
100
AcDbCircle
 10
1535.666407443191
 20
359.2458787300623
 30
0.0
 40
26.50000000000009
100
AcDbArc
 50
13.51042486647269
 51
15.00000000000128
1001
REVIT
1002
{
1070
     3
1000
790271
1002
}
  0
ARC
  5
1E3
330
1A8
100
AcDbEntity
  8
M-PIPE
100
AcDbCircle
 10
1535.666407443191
 20
359.2458787300623
 30
0.0
 40
26.50000000000016
100
AcDbArc
 50
9.00490068046135
 51
10.00000000000129
1001
REVIT
1002
{
1070
     3
1000
790271
1002
}
  0
ARC
  5
1E4
330
1A8
100
AcDbEntity
  8
M-PIPE
100
AcDbCircle
 10
1535.666407443191
 20
359.2458787300623
 30
0.0
 40
26.49999999999994
100
AcDbArc
 50
4.501085829480476
 51
5.000000000001399
1001
REVIT
1002
{
1070
     3
1000
790271
1002
}
  0
ARC
  5
1E5
330
1A8
100
AcDbEntity
  8
M-PIPE
100
AcDbCircle
 10
1535.666407443191
 20
359.2458787300623
 30
0.0
 40
26.50000000000018
100
AcDbArc
 50
355.000000000001
 51
355.498914170521
1001
REVIT
1002
{
1070
     3
1000
790271
1002
}
  0
ARC
  5
1E6
330
1A8
100
AcDbEntity
  8
M-PIPE
100
AcDbCircle
 10
1535.666407443191
 20
359.2458787300623
 30
0.0
 40
26.49999999999983
100
AcDbArc
 50
350.0000000000011
 51
350.9950993195404
1001
REVIT
1002
{
1070
     3
1000
790271
1002
}
  0
ARC
  5
1E7
330
1A8
100
AcDbEntity
  8
M-PIPE
100
AcDbCircle
 10
1535.666407443191
 20
359.2458787300623
 30
0.0
 40
26.49999999999997
100
AcDbArc
 50
345.0000000000011
 51
346.4895751335288
1001
REVIT
1002
{
1070
     3
1000
790271
1002
}
  0
ARC
  5
1E8
330
1A8
100
AcDbEntity
  8
M-PIPE
100
AcDbCircle
 10
1535.666407443191
 20
359.2458787300623
 30
0.0
 40
26.50000000000002
100
AcDbArc
 50
332.9728913627072
 51
341.9833361371154
1001
REVIT
1002
{
1070
     3
1000
790271
1002
}
  0
ARC
  5
1E9
330
1A8
100
AcDbEntity
  8
M-PIPE
100
AcDbCircle
 10
1535.666407443191
 20
359.2458787300623
 30
0.0
 40
26.49999999999995
100
AcDbArc
 50
328.4710753991543
 51
330.0000000000013
1001
REVIT
1002
{
1070
     3
1000
790271
1002
}
  0
ARC
  5
1EA
330
1A8
100
AcDbEntity
  8
M-PIPE
100
AcDbCircle
 10
1535.666407443191
 20
359.2458787300623
 30
0.0
 40
26.49999999999991
100
AcDbArc
 50
323.9735171897356
 51
325.0000000000012
1001
REVIT
1002
{
1070
     3
1000
790271
1002
}
  0
ARC
  5
1EB
330
1A8
100
AcDbEntity
  8
M-PIPE
100
AcDbCircle
 10
1535.666407443191
 20
359.2458787300623
 30
0.0
 40
26.49999999999992
100
AcDbArc
 50
319.4822353515834
 51
320.0000000000013
1001
REVIT
1002
{
1070
     3
1000
790271
1002
}
  0
ARC
  5
1EC
330
1A8
100
AcDbEntity
  8
M-PIPE
100
AcDbCircle
 10
1535.666407443191
 20
359.2458787300623
 30
0.0
 40
26.50000000000017
100
AcDbArc
 50
310.0000000000015
 51
310.5177646484196
1001
REVIT
1002
{
1070
     3
1000
790271
1002
}
  0
ARC
  5
1ED
330
1A8
100
AcDbEntity
  8
M-PIPE
100
AcDbCircle
 10
1535.666407443191
 20
359.2458787300623
 30
0.0
 40
26.50000000000004
100
AcDbArc
 50
305.0000000000016
 51
306.0264828102662
1001
REVIT
1002
{
1070
     3
1000
790271
1002
}
  0
ARC
  5
1EE
330
1A8
100
AcDbEntity
  8
M-PIPE
100
AcDbCircle
 10
1535.666407443191
 20
359.2458787300623
 30
0.0
 40
26.50000000000022
100
AcDbArc
 50
300.0000000000015
 51
301.5289246008483
1001
REVIT
1002
{
1070
     3
1000
790271
1002
}
  0
ARC
  5
1EF
330
1A8
100
AcDbEntity
  8
M-PIPE
100
AcDbCircle
 10
1535.666407443191
 20
359.2458787300623
 30
0.0
 40
26.50000000000009
100
AcDbArc
 50
288.0166638628865
 51
297.0271086372953
1001
REVIT
1002
{
1070
     3
1000
790271
1002
}
  0
ARC
  5
1F0
330
1A8
100
AcDbEntity
  8
M-PIPE
100
AcDbCircle
 10
1535.666407443191
 20
359.2458787300623
 30
0.0
 40
26.49999999999998
100
AcDbArc
 50
283.5104248664738
 51
285.0000000000012
1001
REVIT
1002
{
1070
     3
1000
790271
1002
}
  0
ARC
  5
1F1
330
1A8
100
AcDbEntity
  8
M-PIPE
100
AcDbCircle
 10
1535.666407443191
 20
359.2458787300623
 30
0.0
 40
26.4999999999999
100
AcDbArc
 50
279.0049006804612
 51
280.0000000000013
1001
REVIT
1002
{
1070
     3
1000
790271
1002
}
  0
ARC
  5
1F2
330
1A8
100
AcDbEntity
  8
M-PIPE
100
AcDbCircle
 10
1535.666407443191
 20
359.2458787300623
 30
0.0
 40
26.49999999999972
100
AcDbArc
 50
274.5010858294808
 51
275.0000000000019
1001
REVIT
1002
{
1070
     3
1000
790271
1002
}
  0
ARC
  5
1F3
330
1A8
100
AcDbEntity
  8
M-PIPE
100
AcDbCircle
 10
1535.666407443191
 20
359.2458787300623
 30
0.0
 40
26.49999999999968
100
AcDbArc
 50
90.00000000000062
 51
270.0000000000012
1001
REVIT
1002
{
1070
     3
1000
790271
1002
}
  0
ARC
  5
1F4
330
1A8
100
AcDbEntity
  8
M-PIPE
100
AcDbCircle
 10
1535.666407443191
 20
359.2458787300623
 30
0.0
 40
26.50000000000028
100
AcDbArc
 50
270.0000000000018
 51
90.00000000000072
1001
REVIT
1002
{
1070
     3
1000
790271
1002
}
  0
ARC
  5
1F5
330
1A8
100
AcDbEntity
  8
M-PIPE
100
AcDbCircle
 10
1535.666407443191
 20
359.2458787300624
 30
0.0
 40
10.84999999999975
100
AcDbArc
 50
90.00000000000017
 51
270.0000000000009
1001
REVIT
1002
{
1070
     3
1000
790271
1002
}
  0
ARC
  5
1F6
330
1A8
100
AcDbEntity
  8
M-PIPE
100
AcDbCircle
 10
1535.666407443191
 20
359.2458787300624
 30
0.0
 40
10.84999999999998
100
AcDbArc
 50
270.0000000000014
 51
90.00000000000058
1001
REVIT
1002
{
1070
     3
1000
790271
1002
}
  0
LWPOLYLINE
  5
1F7
330
1A8
100
AcDbEntity
  8
P-SANR-FIXT
100
AcDbPolyline
 90
        3
 70
   128
 43
0.0
 10
1302.693342403005
 20
391.0700883778909
 10
1302.879696005903
 20
381.7536506235165
 10
1303.243284573787
 20
375.0719325512869
  0
LWPOLYLINE
  5
1F8
330
1A8
100
AcDbEntity
  8
P-SANR-FIXT
100
AcDbPolyline
 90
        3
 70
   128
 43
0.0
 10
1768.089530312474
 20
375.0719325512951
 10
1768.543372204376
 20
384.3791753027006
 10
1768.639472483255
 20
391.0700883778905
  0
LWPOLYLINE
  5
1F9
330
1A8
100
AcDbEntity
  8
P-SANR-FIXT
100
AcDbPolyline
 90
       80
 70
   128
 43
0.0
 10
1768.639472483255
 20
391.0700883778916
 10
1768.453118880358
 20
400.3865261322659
 10
1767.894356197678
 20
409.6880595736339
 10
1766.964078336311
 20
418.9598082327102
 10
1765.663773542386
 20
428.1869392895085
 10
1763.99552202619
 20
437.3546913026875
 10
1761.961992634275
 20
446.4483978247094
 10
1759.566438579871
 20
455.4535108650248
 10
1756.812692238441
 20
464.3556241637591
 10
1753.705159016696
 20
473.1404962386495
 10
1750.248810304887
 20
481.7940731683826
 10
1746.449175523635
 20
490.3025110758689
 10
1742.312333278048
 20
498.6521982754928
 10
1737.844901633239
 20
506.829777048907
 10
1733.054027526837
 20
514.8221650145302
 10
1727.947375335414
 20
522.6165760565701
 10
1722.533114613115
 20
530.2005407800781
 10
1716.819907022116
 20
537.5619264593231
 10
1710.81689247581
 20
544.6889564475631
 10
1704.533674516896
 20
551.5702290171691
 10
1697.980304953758
 20
558.1947355999559
 10
1691.167267779722
 20
564.551878398544
 10
1684.105462400895
 20
570.631487340574
 10
1676.806186199446
 20
576.4238363486526
 10
1669.2811164602
 20
581.9196589000021
 10
1661.542291689477
 20
587.1101628509201
 10
1653.60209235605
 20
591.9870445023329
 10
1645.473221085034
 20
596.5425018839447
 10
1637.168682336395
 20
600.7692472357238
 10
1628.70176160059
 20
604.6605186667651
 10
1620.086004144617
 20
608.2100909728731
 10
1611.335193342475
 20
611.4122855955586
 10
1602.463328624708
 20
614.2619797065241
 10
1593.4846030823
 20
616.7546144030954
 10
1584.41338076076
 20
618.8862020014902
 10
1575.264173680712
 20
620.6533324162663
 10
1566.051618621756
 20
622.0531786157277
 10
1556.790453706747
 20
623.0835011445732
 10
1547.495494823939
 20
623.7426517065472
 10
1538.181611924726
 20
624.0295758013611
 10
1528.863705234891
 20
623.9438144116717
 10
1519.556681417423
 20
623.485504737407
 10
1510.275429725038
 20
622.6553799762777
 10
1501.034798180549
 20
621.454768150818
 10
1491.849569823197
 20
619.8855899838328
 10
1482.734439058944
 20
617.9503558256482
 10
1473.703988152555
 20
615.6521616380896
 10
1464.772663899086
 20
612.9946840416018
 10
1455.954754512095
 20
609.9821744334409
 10
1447.264366765548
 20
606.6194521863454
 10
1438.715403425989
 20
602.9118969385684
 10
1430.32154101108
 20
598.8654399876032
 10
1422.09620791009
 20
594.4865548013731
 10
1414.052562901335
 20
589.782246662064
 10
1406.203474100943
 20
584.7600414591668
 10
1398.561498376613
 20
579.4279736496589
 10
1391.138861259302
 20
573.7945734045885
 10
1383.947437384987
 20
567.8688529626206
 10
1376.998731497777
 20
561.6602922123745
 10
1370.303860044781
 20
555.1788235266299
 10
1363.87353339216
 20
548.4348158726431
 10
1357.718038690828
 20
541.4390582240164
 10
1351.847223419206
 20
534.2027423006393
 10
1346.270479629355
 20
526.7374446643223
 10
1340.996728921696
 20
519.0551081987734
 10
1336.034408172354
 20
511.1680230035259
 10
1331.391456035958
 20
503.0888067324035
 10
1327.07530024548
 20
494.8303844079663
 10
1323.092845729456
 20
486.4059677442296
 10
1319.450463565566
 20
477.8290340107436
 10
1316.153980788272
 20
469.1133044718323
 10
1313.208671066805
 20
460.272722435503
 10
1310.619246268421
 20
451.3214309471227
 10
1308.389848920416
 20
442.2737501635658
 10
1306.524045582968
 20
433.1441544440164
 10
1305.024821143399
 20
423.9472491940838
 10
1303.894574040995
 20
414.6977475002656
 10
1303.135112430014
 20
405.4104465921504
 10
1302.747651287023
 20
396.1002041700055
 10
1302.693342403005
 20
391.0700883778909
  0
SPLINE
  5
1FA
330
1A8
100
AcDbEntity
  8
P-SANR-FIXT
100
AcDbSpline
210
0.0
220
0.0
230
1.0
 70
    24
 71
     3
 72
    12
 73
     8
 74
     0
 42
0.000000001
 43
0.0000000001
 40
-1.0
 40
-1.0
 40
-1.0
 40
-1.0
 40
-0.8333333333333332
 40
-0.6666666666666666
 40
-0.3333333333333333
 40
-0.1666666666666666
 40
0.0
 40
0.0
 40
0.0
 40
0.0
 10
1717.722803730199
 20
375.0715948267098
 30
0.0
 10
1723.305382335752
 20
375.0715948267097
 30
0.0
 10
1733.573099894854
 20
375.0715948267097
 30
0.0
 10
1750.600776753087
 20
375.0715948267097
 30
0.0
 10
1761.997814655136
 20
375.0715948267096
 30
0.0
 10
1767.46623101181
 20
375.0715948267096
 30
0.0
 10
1768.195855750232
 20
375.0715948267095
 30
0.0
 10
1768.061886947642
 20
375.0715948267095
 30
0.0
  0
SPLINE
  5
1FB
330
1A8
100
AcDbEntity
  8
P-SANR-FIXT
100
AcDbSpline
210
0.0
220
0.0
230
1.0
 70
    24
 71
     3
 72
    12
 73
     8
 74
     0
 42
0.000000001
 43
0.0000000001
 40
-1.0
 40
-1.0
 40
-1.0
 40
-1.0
 40
-0.8333333333333332
 40
-0.6666666666666666
 40
-0.3333333333333333
 40
-0.1666666666666666
 40
0.0
 40
0.0
 40
0.0
 40
0.0
 10
1303.270927938616
 20
375.0715948267093
 30
0.0
 10
1303.136959136026
 20
375.0715948267093
 30
0.0
 10
1303.866583874448
 20
375.0715948267094
 30
0.0
 10
1309.335000231122
 20
375.0715948267095
 30
0.0
 10
1320.732038133171
 20
375.0715948267095
 30
0.0
 10
1337.759714991404
 20
375.0715948267095
 30
0.0
 10
1348.027432550506
 20
375.0715948267096
 30
0.0
 10
1353.610011156059
 20
375.0715948267096
 30
0.0
  0
LINE
  5
1FC
330
1A8
100
AcDbEntity
  8
P-SANR-FIXT
100
AcDbLine
 10
1387.384237967381
 20
375.0715948267096
 30
0.0
 11
1468.241386072873
 21
375.0715948267096
 31
0.0
  0
LINE
  5
1FD
330
1A8
100
AcDbEntity
  8
P-SANR-FIXT
100
AcDbLine
 10
1603.091428813538
 20
375.0715948267097
 30
0.0
 11
1683.948576918878
 21
375.0715948267097
 31
0.0
  0
SPLINE
  5
1FE
330
1A8
100
AcDbEntity
  8
P-SANR-FIXT
100
AcDbSpline
210
0.0
220
0.0
230
1.0
 70
    24
 71
     3
 72
    13
 73
     9
 74
     0
 42
0.000000001
 43
0.0000000001
 40
0.0
 40
0.0
 40
0.0
 40
0.0
 40
0.25
 40
0.375
 40
0.5
 40
0.625
 40
0.75
 40
1.0
 40
1.0
 40
1.0
 40
1.0
 10
1717.722803730199
 20
375.0715948267098
 30
0.0
 10
1715.860312890406
 20
375.0715948267098
 30
0.0
 10
1712.671068528258
 20
375.0715948267098
 30
0.0
 10
1707.466096411333
 20
375.0715948267097
 30
0.0
 10
1703.219008144014
 20
375.0715948267097
 30
0.0
 10
1698.667593476769
 20
375.0715948267098
 30
0.0
 10
1692.283206840301
 20
375.0715948267098
 30
0.0
 10
1687.355445032814
 20
375.0715948267097
 30
0.0
 10
1683.948576918878
 20
375.0715948267097
 30
0.0
  0
SPLINE
  5
1FF
330
1A8
100
AcDbEntity
  8
P-SANR-FIXT
100
AcDbSpline
210
0.0
220
0.0
230
1.0
 70
    24
 71
     3
 72
    13
 73
     9
 74
     0
 42
0.000000001
 43
0.0000000001
 40
0.0
 40
0.0
 40
0.0
 40
0.0
 40
0.25
 40
0.375
 40
0.5
 40
0.625
 40
0.75
 40
1.0
 40
1.0
 40
1.0
 40
1.0
 10
1387.384237967381
 20
375.0715948267096
 30
0.0
 10
1383.977369853444
 20
375.0715948267096
 30
0.0
 10
1379.049608045957
 20
375.0715948267096
 30
0.0
 10
1372.665221409489
 20
375.0715948267096
 30
0.0
 10
1368.113806742244
 20
375.0715948267096
 30
0.0
 10
1363.866718474925
 20
375.0715948267096
 30
0.0
 10
1358.661746358001
 20
375.0715948267096
 30
0.0
 10
1355.472501995853
 20
375.0715948267096
 30
0.0
 10
1353.610011156059
 20
375.0715948267096
 30
0.0
  0
ARC
  5
200
330
1A8
100
AcDbEntity
  8
P-SANR-FIXT
100
AcDbCircle
 10
1785.666407443186
 20
376.2458787300456
 30
0.0
 40
10.00000000000405
100
AcDbArc
 50
145.8419327633129
 51
154.1580672366846
  0
LINE
  5
201
330
1A8
100
AcDbEntity
  8
P-SANR-FIXT
100
AcDbLine
 10
1776.666407443193
 20
380.6047776736112
 30
0.0
 11
1776.666407443193
 21
371.8869797864803
 31
0.0
  0
ARC
  5
202
330
1A8
100
AcDbEntity
  8
P-SANR-FIXT
100
AcDbCircle
 10
1785.666407443186
 20
376.2458787300456
 30
0.0
 40
10.00000000000395
100
AcDbArc
 50
205.8419327633123
 51
214.1580672366826
  0
LINE
  5
203
330
1A8
100
AcDbEntity
  8
P-SANR-FIXT
100
AcDbLine
 10
1777.391490225532
 20
370.6310995677752
 30
0.0
 11
1784.941324660846
 21
366.2722006242095
 31
0.0
  0
ARC
  5
204
330
1A8
100
AcDbEntity
  8
P-SANR-FIXT
100
AcDbCircle
 10
1785.666407443186
 20
376.2458787300456
 30
0.0
 40
10.00000000000404
100
AcDbArc
 50
265.8419327633112
 51
274.1580672366828
  0
LINE
  5
205
330
1A8
100
AcDbEntity
  8
P-SANR-FIXT
100
AcDbLine
 10
1786.391490225525
 20
366.2722006242095
 30
0.0
 11
1793.941324660839
 21
370.6310995677748
 31
0.0
  0
ARC
  5
206
330
1A8
100
AcDbEntity
  8
P-SANR-FIXT
100
AcDbCircle
 10
1785.666407443186
 20
376.2458787300456
 30
0.0
 40
10.00000000000405
100
AcDbArc
 50
325.8419327633117
 51
334.1580672366831
  0
LINE
  5
207
330
1A8
100
AcDbEntity
  8
P-SANR-FIXT
100
AcDbLine
 10
1794.666407443178
 20
371.8869797864798
 30
0.0
 11
1794.666407443179
 21
380.6047776736109
 31
0.0
  0
ARC
  5
208
330
1A8
100
AcDbEntity
  8
P-SANR-FIXT
100
AcDbCircle
 10
1785.666407443186
 20
376.2458787300456
 30
0.0
 40
10.00000000000395
100
AcDbArc
 50
25.84193276331289
 51
34.15806723668455
  0
LINE
  5
209
330
1A8
100
AcDbEntity
  8
P-SANR-FIXT
100
AcDbLine
 10
1793.941324660839
 20
381.860657892316
 30
0.0
 11
1786.391490225526
 21
386.2195568358817
 31
0.0
  0
ARC
  5
20A
330
1A8
100
AcDbEntity
  8
P-SANR-FIXT
100
AcDbCircle
 10
1785.666407443186
 20
376.2458787300456
 30
0.0
 40
10.00000000000402
100
AcDbArc
 50
85.84193276331291
 51
94.15806723668449
  0
LINE
  5
20B
330
1A8
100
AcDbEntity
  8
P-SANR-FIXT
100
AcDbLine
 10
1784.941324660847
 20
386.2195568358817
 30
0.0
 11
1777.391490225533
 21
381.8606578923164
 31
0.0
  0
ARC
  5
20C
330
1A8
100
AcDbEntity
  8
P-SANR-FIXT
100
AcDbCircle
 10
1785.666407443187
 20
376.2458787300454
 30
0.0
 40
12.50000000000398
100
AcDbArc
 50
359.999999999999
 51
179.9999999999996
  0
ARC
  5
20D
330
1A8
100
AcDbEntity
  8
P-SANR-FIXT
100
AcDbCircle
 10
1785.666407443187
 20
376.2458787300454
 30
0.0
 40
12.50000000000392
100
AcDbArc
 50
180.0000000000001
 51
359.9999999999992
  0
LWPOLYLINE
  5
20E
330
1A8
100
AcDbEntity
  8
P-SANR-FIXT
100
AcDbPolyline
 90
       80
 70
   128
 43
0.0
 10
1368.02989625318
 20
375.0715948267097
 10
1368.140517560409
 20
369.5412669603129
 10
1368.542633364491
 20
362.8473811391724
 10
1369.21211155593
 20
356.1749300559839
 10
1370.147881112431
 20
349.5345882090995
 10
1371.348445002326
 20
342.9369787289439
 10
1372.811882579498
 20
336.3926563832709
 10
1374.535852656005
 20
329.9120906917847
 10
1376.517597247487
 20
323.5056491771455
 10
1378.753945985346
 20
317.1835807791425
 10
1381.241321188665
 20
310.9559994585759
 10
1383.97574358773
 20
304.8328680170788
 10
1386.952838690014
 20
298.8239821587591
 10
1390.167843778434
 20
292.9389548191624
 10
1393.61561553068
 20
287.1872007866285
 10
1397.290638247432
 20
281.5779216406315
 10
1401.187032676308
 20
276.1200910312246
 10
1405.298565417408
 20
270.8224403231069
 10
1409.618658895427
 20
265.6934446273064
 10
1414.140401882369
 20
260.7413092428085
 10
1418.856560554043
 20
255.9739565298293
 10
1423.759590062635
 20
251.399013235729
 10
1428.841646606855
 20
247.0237982938427
 10
1434.094599980346
 20
242.8553111147465
 10
1439.510046578281
 20
238.9002203886983
 10
1445.079322841336
 20
235.1648534171516
 10
1450.793519115542
 20
231.6551859904254
 10
1456.64349390582
 20
228.3768328277136
 10
1462.619888500436
 20
225.3350385947312
 10
1468.713141942934
 20
222.5346695133694
 10
1474.91350632763
 20
219.9802055767786
 10
1481.211062394184
 20
217.675733382334
 10
1487.595735396295
 20
215.6249395939521
 10
1494.057311219152
 20
213.8311050442155
 10
1500.585452719834
 20
212.2970994857385
 10
1507.169716264535
 20
211.0253770001788
 10
1513.799568436152
 20
210.0179720722257
 10
1520.464402885503
 20
209.276496334863
 10
1527.153557299225
 20
208.8021359910982
 10
1533.8563304572
 20
208.5956499162879
 10
1540.561999352223
 20
208.6573684441049
 10
1547.259836344529
 20
208.9871928380708
 10
1553.939126323726
 20
209.584595449514
 10
1560.589183850686
 20
210.4486205616952
 10
1567.199370251969
 20
211.5778859187505
 10
1573.759110639432
 20
212.9705849370057
 10
1580.257910827791
 20
214.6244895951241
 10
1586.685374123081
 20
216.536953998468
 10
1593.031217955149
 20
218.7049186119623
 10
1599.285290327571
 20
221.1249151546997
 10
1605.437586058683
 20
223.7930721484499
 10
1611.478262787735
 20
226.7051211112005
 10
1617.397656720568
 20
229.8564033858138
 10
1623.186298089628
 20
233.241877592889
 10
1628.834926303567
 20
236.8561276958901
 10
1634.334504762221
 20
240.6933716656516
 10
1639.676235313236
 20
244.7474707303903
 10
1644.851572327238
 20
249.0119391964305
 10
1649.852236369019
 20
253.4799548239324
 10
1654.670227442863
 20
258.1443697410164
 10
1659.297837790835
 20
262.9977218788386
 10
1663.727664223549
 20
268.0322469093037
 10
1667.952619963692
 20
273.2398906663388
 10
1671.965945983357
 20
278.6123220308367
 10
1675.761221817041
 20
284.1409462586724
 10
1679.332375833027
 20
289.8169187304577
 10
1682.673694946695
 20
295.6311591010471
 10
1685.779833760238
 20
301.5743658261538
 10
1688.645823114165
 20
307.6370310428337
 10
1691.267078036886
 20
313.8094557800389
 10
1693.639405079697
 20
320.0817654749049
 10
1695.759009025398
 20
326.4439257699407
 10
1697.622498959834
 20
332.8857585658625
 10
1699.226893696634
 20
339.3969583043811
 10
1700.56962654647
 20
345.9671084548973
 10
1701.64854942322
 20
352.5856981787271
 10
1702.461936280436
 20
359.2421391442026
 10
1703.008485872661
 20
365.9257824657449
 10
1703.287323837139
 20
372.6259357398068
 10
1703.313728997812
 20
375.0715948267093
  0
LINE
  5
20F
330
1A8
100
AcDbEntity
  8
P-SANR-FIXT
100
AcDbLine
 10
1870.66640744319
 20
501.2458787300448
 30
0.0
 11
1850.666407443189
 21
501.2458787300446
 31
0.0
  0
LINE
  5
210
330
1A8
100
AcDbEntity
  8
P-SANR-FIXT
100
AcDbLine
 10
1850.666407443191
 20
251.2458787300441
 30
0.0
 11
1870.666407443191
 21
251.2458787300442
 31
0.0
  0
LINE
  5
211
330
1A8
100
AcDbEntity
  8
P-SANR-FIXT
100
AcDbLine
 10
1850.66640744319
 20
446.0458787300442
 30
0.0
 11
1761.929982699031
 21
446.0458787300445
 31
0.0
  0
LINE
  5
212
330
1A8
100
AcDbEntity
  8
P-SANR-FIXT
100
AcDbLine
 10
1688.106020405175
 20
306.4458787300434
 30
0.0
 11
1850.66640744319
 21
306.445878730044
 31
0.0
  0
LINE
  5
213
330
1A8
100
AcDbEntity
  8
P-SANR-FIXT
100
AcDbLine
 10
1309.402832187229
 20
446.0458787300412
 30
0.0
 11
1220.666407443189
 21
446.0458787300408
 31
0.0
  0
LINE
  5
214
330
1A8
100
AcDbEntity
  8
P-SANR-FIXT
100
AcDbLine
 10
1220.666407443189
 20
306.445878730044
 30
0.0
 11
1383.226794481203
 21
306.4458787300445
 31
0.0
  0
LINE
  5
215
330
1A8
100
AcDbEntity
  8
P-SANR-FIXT
100
AcDbLine
 10
1220.666407443188
 20
501.2458787300413
 30
0.0
 11
1200.666407443188
 21
501.2458787300407
 31
0.0
  0
LINE
  5
216
330
1A8
100
AcDbEntity
  8
P-SANR-FIXT
100
AcDbLine
 10
1200.666407443189
 20
251.2458787300434
 30
0.0
 11
1220.666407443189
 21
251.2458787300435
 31
0.0
  0
SPLINE
  5
217
330
1A8
100
AcDbEntity
  8
P-SANR-FIXT
100
AcDbSpline
210
0.0
220
0.0
230
1.0
 70
     8
 71
     3
 72
    15
 73
    11
 74
     0
 42
0.000000001
 43
0.0000000001
 40
0.010517235897476
 40
0.010517235897476
 40
0.010517235897476
 40
0.010517235897476
 40
0.125
 40
0.25
 40
0.375
 40
0.5
 40
0.625
 40
0.75
 40
0.875
 40
1.0
 40
1.0
 40
1.0
 40
1.0
 10
1368.010516657438
 20
375.0662497911602
 30
0.0
 10
1368.040302402323
 20
370.7937570419251
 30
0.0
 10
1368.440562238416
 20
362.0303417293566
 30
0.0
 10
1370.044858959159
 20
349.1316901116788
 30
0.0
 10
1372.509760398691
 20
337.0672876378353
 30
0.0
 10
1375.434478185796
 20
326.5529504818854
 30
0.0
 10
1378.412404425071
 20
317.9124243053389
 30
0.0
 10
1381.008332757186
 20
311.4264596427152
 30
0.0
 10
1382.804077461297
 20
307.3579789313789
 30
0.0
 10
1383.218023547706
 20
306.4650339980577
 30
0.0
 10
1383.226794481201
 20
306.4458787300456
 30
0.0
  0
SPLINE
  5
218
330
1A8
100
AcDbEntity
  8
P-SANR-FIXT
100
AcDbSpline
210
0.0
220
0.0
230
1.0
 70
     8
 71
     3
 72
    15
 73
    11
 74
     0
 42
0.000000001
 43
0.0000000001
 40
0.0
 40
0.0
 40
0.0
 40
0.0
 40
0.125
 40
0.25
 40
0.375
 40
0.5
 40
0.625
 40
0.75
 40
0.875
 40
0.9894827641025269
 40
0.9894827641025269
 40
0.9894827641025269
 40
0.9894827641025269
 10
1688.106020405174
 20
306.4458787300432
 30
0.0
 10
1688.114791338669
 20
306.4650339980564
 30
0.0
 10
1688.528737425078
 20
307.3579789313789
 30
0.0
 10
1690.324482129189
 20
311.4264596427147
 30
0.0
 10
1692.920410461303
 20
317.9124243053387
 30
0.0
 10
1695.898336700579
 20
326.5529504818853
 30
0.0
 10
1698.823054487684
 20
337.0672876378348
 30
0.0
 10
1701.287955927216
 20
349.1316901116782
 30
0.0
 10
1702.892252647959
 20
362.030341729356
 30
0.0
 10
1703.292512484052
 20
370.7937570419247
 30
0.0
 10
1703.322298228937
 20
375.0662497911601
 30
0.0
  0
LINE
  5
219
330
1A8
100
AcDbEntity
  8
P-SANR-FIXT
100
AcDbLine
 10
1870.666407443188
 20
501.245878730045
 30
0.0
 11
1870.666407443189
 21
376.2458787300461
 31
0.0
  0
LINE
  5
21A
330
1A8
100
AcDbEntity
  8
P-SANR-FIXT
100
AcDbLine
 10
1870.666407443189
 20
376.2458787300456
 30
0.0
 11
1870.666407443189
 21
251.2458787300448
 31
0.0
  0
LINE
  5
21B
330
1A8
100
AcDbEntity
  8
P-SANR-FIXT
100
AcDbLine
 10
1850.666407443188
 20
501.245878730045
 30
0.0
 11
1850.666407443189
 21
376.245878730046
 31
0.0
  0
LINE
  5
21C
330
1A8
100
AcDbEntity
  8
P-SANR-FIXT
100
AcDbLine
 10
1850.666407443189
 20
376.2458787300454
 30
0.0
 11
1850.666407443189
 21
251.2458787300447
 31
0.0
  0
SPLINE
  5
21D
330
1A8
100
AcDbEntity
  8
P-SANR-FIXT
100
AcDbSpline
210
0.0
220
0.0
230
1.0
 70
     8
 71
     3
 72
     8
 73
     4
 74
     0
 42
0.000000001
 43
0.0000000001
 40
0.0305456317446222
 40
0.0305456317446222
 40
0.0305456317446222
 40
0.0305456317446222
 40
0.037037037037037
 40
0.037037037037037
 40
0.037037037037037
 40
0.037037037037037
 10
1772.736517000928
 20
377.5243985291402
 30
0.0
 10
1772.745408708866
 20
377.6135169990376
 30
0.0
 10
1772.755127296737
 20
377.7023147871941
 30
0.0
 10
1772.765668112075
 20
377.7907838677147
 30
0.0
  0
SPLINE
  5
21E
330
1A8
100
AcDbEntity
  8
P-SANR-FIXT
100
AcDbSpline
210
0.0
220
0.0
230
1.0
 70
     8
 71
     3
 72
     8
 73
     4
 74
     0
 42
0.000000001
 43
0.0000000001
 40
0.061772797195204
 40
0.061772797195204
 40
0.061772797195204
 40
0.061772797195204
 40
0.0740740740740741
 40
0.0740740740740741
 40
0.0740740740740741
 40
0.0740740740740741
 10
1772.921742401175
 20
378.7873922975476
 30
0.0
 10
1772.953496309854
 20
378.9501260348612
 30
0.0
 10
1772.988203231424
 20
379.1116724284079
 30
0.0
 10
1773.02595814737
 20
379.272180439112
 30
0.0
  0
SPLINE
  5
21F
330
1A8
100
AcDbEntity
  8
P-SANR-FIXT
100
AcDbSpline
210
0.0
220
0.0
230
1.0
 70
     8
 71
     3
 72
     8
 73
     4
 74
     0
 42
0.000000001
 43
0.0000000001
 40
0.1111111111111111
 40
0.1111111111111111
 40
0.1111111111111111
 40
0.1111111111111111
 40
0.125139252035721
 40
0.125139252035721
 40
0.125139252035721
 40
0.125139252035721
 10
1773.45246229057
 20
380.6977933528628
 30
0.0
 10
1773.517429685751
 20
380.8752429687847
 30
0.0
 10
1773.586732800559
 20
381.051925455011
 30
0.0
 10
1773.660128015443
 20
381.2274734827111
 30
0.0
  0
SPLINE
  5
220
330
1A8
100
AcDbEntity
  8
P-SANR-FIXT
100
AcDbSpline
210
0.0
220
0.0
230
1.0
 70
     8
 71
     3
 72
     8
 73
     4
 74
     0
 42
0.000000001
 43
0.0000000001
 40
0.1481481481481481
 40
0.1481481481481481
 40
0.1481481481481481
 40
0.1481481481481481
 40
0.1564491150237385
 40
0.1564491150237385
 40
0.1564491150237385
 40
0.1564491150237385
 10
1774.05322679856
 20
382.0804960840856
 30
0.0
 10
1774.104212915583
 20
382.1815874221925
 30
0.0
 10
1774.156491976028
 20
382.2820705628233
 30
0.0
 10
1774.210013502452
 20
382.3818693963718
 30
0.0
  0
SPLINE
  5
221
330
1A8
100
AcDbEntity
  8
P-SANR-FIXT
100
AcDbSpline
210
0.0
220
0.0
230
1.0
 70
     8
 71
     3
 72
     8
 73
     4
 74
     0
 42
0.000000001
 43
0.0000000001
 40
0.1851851851851852
 40
0.1851851851851852
 40
0.1851851851851852
 40
0.1851851851851852
 40
0.1873778093457259
 40
0.1873778093457259
 40
0.1873778093457259
 40
0.1873778093457259
 10
1774.809021344702
 20
383.3910712456336
 30
0.0
 10
1774.825341439042
 20
383.4160011807798
 30
0.0
 10
1774.8417443699
 20
383.4408722546318
 30
0.0
 10
1774.858230194602
 20
383.4656839248191
 30
0.0
  0
SPLINE
  5
222
330
1A8
100
AcDbEntity
  8
P-SANR-FIXT
100
AcDbSpline
210
0.0
220
0.0
230
1.0
 70
     8
 71
     3
 72
     8
 73
     4
 74
     0
 42
0.000000001
 43
0.0000000001
 40
0.2188886410725422
 40
0.2188886410725422
 40
0.2188886410725422
 40
0.2188886410725422
 40
0.2222222222222222
 40
0.2222222222222222
 40
0.2222222222222222
 40
0.2222222222222222
 10
1775.620529078634
 20
384.4969943911559
 30
0.0
 10
1775.649233877331
 20
384.5319509032784
 30
0.0
 10
1775.67813218944
 20
384.566752087103
 30
0.0
 10
1775.707224216279
 20
384.6013960361653
 30
0.0
  0
SPLINE
  5
223
330
1A8
100
AcDbEntity
  8
P-SANR-FIXT
100
AcDbSpline
210
0.0
220
0.0
230
1.0
 70
     8
 71
     3
 72
     8
 73
     4
 74
     0
 42
0.000000001
 43
0.0000000001
 40
0.2505751102054341
 40
0.2505751102054341
 40
0.2505751102054341
 40
0.2505751102054341
 40
0.2592592592592593
 40
0.2592592592592593
 40
0.2592592592592593
 40
0.2592592592592593
 10
1776.489695555763
 20
385.4506939628742
 30
0.0
 10
1776.573492643094
 20
385.5338089816145
 30
0.0
 10
1776.658428758137
 20
385.6158059054678
 30
0.0
 10
1776.744450124974
 20
385.6966690998503
 30
0.0
  0
SPLINE
  5
224
330
1A8
100
AcDbEntity
  8
P-SANR-FIXT
100
AcDbSpline
210
0.0
220
0.0
230
1.0
 70
     8
 71
     3
 72
     8
 73
     4
 74
     0
 42
0.000000001
 43
0.0000000001
 40
0.2809039092515632
 40
0.2809039092515632
 40
0.2809039092515632
 40
0.2809039092515632
 40
0.3122257585311408
 40
0.3122257585311408
 40
0.3122257585311408
 40
0.3122257585311408
 10
1777.407051969037
 20
386.2799345854508
 30
0.0
 10
1777.735638048516
 20
386.5508414046666
 30
0.0
 10
1778.076783075305
 20
386.8063404007165
 30
0.0
 10
1778.42981361551
 20
387.0441713578853
 30
0.0
  0
SPLINE
  5
225
330
1A8
100
AcDbEntity
  8
P-SANR-FIXT
100
AcDbSpline
210
0.0
220
0.0
230
1.0
 70
     8
 71
     3
 72
     8
 73
     4
 74
     0
 42
0.000000001
 43
0.0000000001
 40
0.3333333333333333
 40
0.3333333333333333
 40
0.3333333333333333
 40
0.3333333333333333
 40
0.3437697783641318
 40
0.3437697783641318
 40
0.3437697783641318
 40
0.3437697783641318
 10
1779.159514711606
 20
387.5002266445042
 30
0.0
 10
1779.282380242397
 20
387.5711955912864
 30
0.0
 10
1779.406514936662
 20
387.6400338735825
 30
0.0
 10
1779.531819963753
 20
387.7067568792984
 30
0.0
  0
SPLINE
  5
226
330
1A8
100
AcDbEntity
  8
P-SANR-FIXT
100
AcDbSpline
210
0.0
220
0.0
230
1.0
 70
     8
 71
     3
 72
     8
 73
     4
 74
     0
 42
0.000000001
 43
0.0000000001
 40
0.3703703703703703
 40
0.3703703703703703
 40
0.3703703703703703
 40
0.3703703703703703
 40
0.3752237490184415
 40
0.3752237490184415
 40
0.3752237490184415
 40
0.3752237490184415
 10
1780.511131717269
 20
388.1759808824214
 30
0.0
 10
1780.57187956208
 20
388.2020418310282
 30
0.0
 10
1780.63282601923
 20
388.2276537869844
 30
0.0
 10
1780.693961153192
 20
388.2528183039091
 30
0.0
  0
SPLINE
  5
227
330
1A8
100
AcDbEntity
  8
P-SANR-FIXT
100
AcDbSpline
210
0.0
220
0.0
230
1.0
 70
     8
 71
     3
 72
     8
 73
     4
 74
     0
 42
0.000000001
 43
0.0000000001
 40
0.4062421936340907
 40
0.4062421936340907
 40
0.4062421936340907
 40
0.4062421936340907
 40
0.4074074074074074
 40
0.4074074074074074
 40
0.4074074074074074
 40
0.4074074074074074
 10
1781.886876510776
 20
388.6804675636724
 30
0.0
 10
1781.902050791763
 20
388.6851234560916
 30
0.0
 10
1781.917233310697
 20
388.6897522659605
 30
0.0
 10
1781.932423998626
 20
388.694353889401
 30
0.0
  0
SPLINE
  5
228
330
1A8
100
AcDbEntity
  8
P-SANR-FIXT
100
AcDbSpline
210
0.0
220
0.0
230
1.0
 70
     8
 71
     3
 72
     8
 73
     4
 74
     0
 42
0.000000001
 43
0.0000000001
 40
0.4375389602282169
 40
0.4375389602282169
 40
0.4375389602282169
 40
0.4375389602282169
 40
0.4444444444444445
 40
0.4444444444444445
 40
0.4444444444444445
 40
0.4444444444444445
 10
1783.126078393929
 20
388.9950018103833
 30
0.0
 10
1783.218334631643
 20
389.0135284569353
 30
0.0
 10
1783.310815272031
 20
389.0310060770329
 30
0.0
 10
1783.403505812644
 20
389.047412865081
 30
0.0
  0
SPLINE
  5
229
330
1A8
100
AcDbEntity
  8
P-SANR-FIXT
100
AcDbSpline
210
0.0
220
0.0
230
1.0
 70
     8
 71
     3
 72
     8
 73
     4
 74
     0
 42
0.000000001
 43
0.0000000001
 40
0.468907515286275
 40
0.468907515286275
 40
0.468907515286275
 40
0.468907515286275
 40
0.4814814814814815
 40
0.4814814814814815
 40
0.4814814814814815
 40
0.4814814814814815
 10
1784.395380293464
 20
389.1819561146539
 30
0.0
 10
1784.56629250622
 20
389.1982681527057
 30
0.0
 10
1784.737605238571
 20
389.211158335921
 30
0.0
 10
1784.909167186835
 20
389.2206933071672
 30
0.0
  0
SPLINE
  5
22A
330
1A8
100
AcDbEntity
  8
P-SANR-FIXT
100
AcDbSpline
210
0.0
220
0.0
230
1.0
 70
     8
 71
     3
 72
     8
 73
     4
 74
     0
 42
0.000000001
 43
0.0000000001
 40
0.5185185185185186
 40
0.5185185185185186
 40
0.5185185185185186
 40
0.5185185185185186
 40
0.5311782256637395
 40
0.5311782256637395
 40
0.5311782256637395
 40
0.5311782256637395
 10
1786.427797623874
 20
389.219311093874
 30
0.0
 10
1786.600652213202
 20
389.209567573245
 30
0.0
 10
1786.773224443008
 20
389.1965627937356
 30
0.0
 10
1786.945125466268
 20
389.1801969709852
 30
0.0
  0
SPLINE
  5
22B
330
1A8
100
AcDbEntity
  8
P-SANR-FIXT
100
AcDbSpline
210
0.0
220
0.0
230
1.0
 70
     8
 71
     3
 72
     8
 73
     4
 74
     0
 42
0.000000001
 43
0.0000000001
 40
0.5555555555555556
 40
0.5555555555555556
 40
0.5555555555555556
 40
0.5555555555555556
 40
0.5625402518071834
 40
0.5625402518071834
 40
0.5625402518071834
 40
0.5625402518071834
 10
1787.928064125705
 20
389.0475835616392
 30
0.0
 10
1788.020829334351
 20
389.0312282657432
 30
0.0
 10
1788.113300194468
 20
389.0138043607617
 30
0.0
 10
1788.205553298825
 20
388.9953108653075
 30
0.0
  0
SPLINE
  5
22C
330
1A8
100
AcDbEntity
  8
P-SANR-FIXT
100
AcDbSpline
210
0.0
220
0.0
230
1.0
 70
     8
 71
     3
 72
     8
 73
     4
 74
     0
 42
0.000000001
 43
0.0000000001
 40
0.5925925925925926
 40
0.5925925925925926
 40
0.5925925925925926
 40
0.5925925925925926
 40
0.5938200541314275
 40
0.5938200541314275
 40
0.5938200541314275
 40
0.5938200541314275
 10
1789.389909367011
 20
388.6971289078534
 30
0.0
 10
1789.405988728264
 20
388.6922637825929
 30
0.0
 10
1789.422065215246
 20
388.6873667831752
 30
0.0
 10
1789.438138379517
 20
388.6824380573048
 30
0.0
  0
SPLINE
  5
22D
330
1A8
100
AcDbEntity
  8
P-SANR-FIXT
100
AcDbSpline
210
0.0
220
0.0
230
1.0
 70
     8
 71
     3
 72
     8
 73
     4
 74
     0
 42
0.000000001
 43
0.0000000001
 40
0.6248150276345786
 40
0.6248150276345786
 40
0.6248150276345786
 40
0.6248150276345786
 40
0.6296296296296296
 40
0.6296296296296296
 40
0.6296296296296296
 40
0.6296296296296296
 10
1790.641931017653
 20
388.250573191212
 30
0.0
 10
1790.703186796989
 20
388.2253176244455
 30
0.0
 10
1790.764224857294
 20
388.1996368518327
 30
0.0
 10
1790.825016281049
 20
388.1735385617583
 30
0.0
  0
SPLINE
  5
22E
330
1A8
100
AcDbEntity
  8
P-SANR-FIXT
100
AcDbSpline
210
0.0
220
0.0
230
1.0
 70
     8
 71
     3
 72
     8
 73
     4
 74
     0
 42
0.000000001
 43
0.0000000001
 40
0.6562603333301626
 40
0.6562603333301626
 40
0.6562603333301626
 40
0.6562603333301626
 40
0.6666666666666666
 40
0.6666666666666666
 40
0.6666666666666666
 40
0.6666666666666666
 10
1791.806348112061
 20
387.7034994160359
 30
0.0
 10
1791.930103972597
 20
387.6376550678326
 30
0.0
 10
1792.052137012922
 20
387.5699483090036
 30
0.0
 10
1792.172858401188
 20
387.5002334481324
 30
0.0
  0
SPLINE
  5
22F
330
1A8
100
AcDbEntity
  8
P-SANR-FIXT
100
AcDbSpline
210
0.0
220
0.0
230
1.0
 70
     8
 71
     3
 72
     8
 73
     4
 74
     0
 42
0.000000001
 43
0.0000000001
 40
0.6878205272636528
 40
0.6878205272636528
 40
0.6878205272636528
 40
0.6878205272636528
 40
0.7191779677391395
 40
0.7191779677391395
 40
0.7191779677391395
 40
0.7191779677391395
 10
1792.896231667441
 20
387.0489544461267
 30
0.0
 10
1793.248284373921
 20
386.8119690769825
 30
0.0
 10
1793.596677158028
 20
386.5544551449019
 30
0.0
 10
1793.926002559573
 20
386.2811155875468
 30
0.0
  0
SPLINE
  5
230
330
1A8
100
AcDbEntity
  8
P-SANR-FIXT
100
AcDbSpline
210
0.0
220
0.0
230
1.0
 70
     8
 71
     3
 72
     8
 73
     4
 74
     0
 42
0.000000001
 43
0.0000000001
 40
0.7407407407407405
 40
0.7407407407407405
 40
0.7407407407407405
 40
0.7407407407407405
 40
0.7495426911257114
 40
0.7495426911257114
 40
0.7495426911257114
 40
0.7495426911257114
 10
1794.5860345071
 20
385.7000545811109
 30
0.0
 10
1794.672890353839
 20
385.6184524293228
 30
0.0
 10
1794.757967752435
 20
385.5355042409671
 30
0.0
 10
1794.841557020006
 20
385.4513197572879
 30
0.0
  0
SPLINE
  5
231
330
1A8
100
AcDbEntity
  8
P-SANR-FIXT
100
AcDbSpline
210
0.0
220
0.0
230
1.0
 70
     8
 71
     3
 72
     8
 73
     4
 74
     0
 42
0.000000001
 43
0.0000000001
 40
0.7777777777777775
 40
0.7777777777777775
 40
0.7777777777777775
 40
0.7777777777777775
 40
0.7812450991543173
 40
0.7812450991543173
 40
0.7812450991543173
 40
0.7812450991543173
 10
1795.617508110794
 20
384.6105140918207
 30
0.0
 10
1795.647687892661
 20
384.5745911709719
 30
0.0
 10
1795.677576961469
 20
384.5384361680519
 30
0.0
 10
1795.707254018674
 20
384.5020815248247
 30
0.0
  0
SPLINE
  5
232
330
1A8
100
AcDbEntity
  8
P-SANR-FIXT
100
AcDbSpline
210
0.0
220
0.0
230
1.0
 70
     8
 71
     3
 72
     8
 73
     4
 74
     0
 42
0.000000001
 43
0.0000000001
 40
0.8127423000711802
 40
0.8127423000711802
 40
0.8127423000711802
 40
0.8127423000711802
 40
0.8148148148148145
 40
0.8148148148148145
 40
0.8148148148148145
 40
0.8148148148148145
 10
1796.473326440044
 20
383.4669048120895
 30
0.0
 10
1796.489065738383
 20
383.443256472724
 30
0.0
 10
1796.504816529134
 20
383.4195837099604
 30
0.0
 10
1796.520567235649
 20
383.3958838930808
 30
0.0
  0
SPLINE
  5
233
330
1A8
100
AcDbEntity
  8
P-SANR-FIXT
100
AcDbSpline
210
0.0
220
0.0
230
1.0
 70
     8
 71
     3
 72
     8
 73
     4
 74
     0
 42
0.000000001
 43
0.0000000001
 40
0.8436238630572544
 40
0.8436238630572544
 40
0.8436238630572544
 40
0.8436238630572544
 40
0.8518518518518513
 40
0.8518518518518513
 40
0.8518518518518513
 40
0.8518518518518513
 10
1797.125892825127
 20
382.3773551641711
 30
0.0
 10
1797.179110812296
 20
382.2781065498152
 30
0.0
 10
1797.23230781642
 20
382.1787301470002
 30
0.0
 10
1797.283609024692
 20
382.0787063620537
 30
0.0
  0
SPLINE
  5
234
330
1A8
100
AcDbEntity
  8
P-SANR-FIXT
100
AcDbSpline
210
0.0
220
0.0
230
1.0
 70
     8
 71
     3
 72
     8
 73
     4
 74
     0
 42
0.000000001
 43
0.0000000001
 40
0.8748969030077645
 40
0.8748969030077645
 40
0.8748969030077645
 40
0.8748969030077645
 40
0.8888888888888883
 40
0.8888888888888883
 40
0.8888888888888883
 40
0.8888888888888883
 10
1797.673396482431
 20
381.2257938874396
 30
0.0
 10
1797.746008734149
 20
381.0514632872051
 30
0.0
 10
1797.807583669704
 20
380.8735905186896
 30
0.0
 10
1797.860489004078
 20
380.6929390325286
 30
0.0
  0
SPLINE
  5
235
330
1A8
100
AcDbEntity
  8
P-SANR-FIXT
100
AcDbSpline
210
0.0
220
0.0
230
1.0
 70
     8
 71
     3
 72
     8
 73
     4
 74
     0
 42
0.000000001
 43
0.0000000001
 40
0.9259259259259254
 40
0.9259259259259254
 40
0.9259259259259254
 40
0.9259259259259254
 40
0.9382297046493606
 40
0.9382297046493606
 40
0.9382297046493606
 40
0.9382297046493606
 10
1798.307193210301
 20
379.2710685525784
 30
0.0
 10
1798.345320642223
 20
379.1099820404696
 30
0.0
 10
1798.375374811921
 20
378.9460400746429
 30
0.0
 10
1798.399869048511
 20
378.7801350567847
 30
0.0
  0
SPLINE
  5
236
330
1A8
100
AcDbEntity
  8
P-SANR-FIXT
100
AcDbSpline
210
0.0
220
0.0
230
1.0
 70
     8
 71
     3
 72
     8
 73
     4
 74
     0
 42
0.000000001
 43
0.0000000001
 40
0.9629629629629622
 40
0.9629629629629622
 40
0.9629629629629622
 40
0.9629629629629622
 40
0.9694529925254393
 40
0.9694529925254393
 40
0.9694529925254393
 40
0.9694529925254393
 10
1798.568675307714
 20
377.7882518303417
 30
0.0
 10
1798.579138217287
 20
377.6999497440172
 30
0.0
 10
1798.587395041088
 20
377.6108151498263
 30
0.0
 10
1798.594167542844
 20
377.5211209537086
 30
0.0
  0
SPLINE
  5
237
330
1A8
100
AcDbEntity
  8
P-SANR-FIXT
100
AcDbSpline
210
0.0
220
0.0
230
1.0
 70
     8
 71
     3
 72
     8
 73
     4
 74
     0
 42
0.000000001
 43
0.0000000001
 40
0.0305470074745278
 40
0.0305470074745278
 40
0.0305470074745278
 40
0.0305470074745278
 40
0.037037037037037
 40
0.037037037037037
 40
0.037037037037037
 40
0.037037037037037
 10
1798.596508956238
 20
374.9673461353899
 30
0.0
 10
1798.587626006255
 20
374.8782424825554
 30
0.0
 10
1798.57791500469
 20
374.7894580518293
 30
0.0
 10
1798.567380730478
 20
374.7010010094308
 30
0.0
  0
SPLINE
  5
238
330
1A8
100
AcDbEntity
  8
P-SANR-FIXT
100
AcDbSpline
210
0.0
220
0.0
230
1.0
 70
     8
 71
     3
 72
     8
 73
     4
 74
     0
 42
0.000000001
 43
0.0000000001
 40
0.061770295350605
 40
0.061770295350605
 40
0.061770295350605
 40
0.061770295350605
 40
0.0740740740740741
 40
0.0740740740740741
 40
0.0740740740740741
 40
0.0740740740740741
 10
1798.411321046011
 20
373.7043712695844
 30
0.0
 10
1798.379552571937
 20
373.5415771757695
 30
0.0
 10
1798.344824885133
 20
373.3799666963776
 30
0.0
 10
1798.307040300625
 20
373.2193878236337
 30
0.0
  0
SPLINE
  5
239
330
1A8
100
AcDbEntity
  8
P-SANR-FIXT
100
AcDbSpline
210
0.0
220
0.0
230
1.0
 70
     8
 71
     3
 72
     8
 73
     4
 74
     0
 42
0.000000001
 43
0.0000000001
 40
0.1111111111111111
 40
0.1111111111111111
 40
0.1111111111111111
 40
0.1111111111111111
 40
0.1251030969922111
 40
0.1251030969922111
 40
0.1251030969922111
 40
0.1251030969922111
 10
1797.880057089419
 20
371.7931534612792
 30
0.0
 10
1797.815152400194
 20
371.6160379831063
 30
0.0
 10
1797.745914102071
 20
371.4396648684937
 30
0.0
 10
1797.672589016482
 20
371.2644044119781
 30
0.0
  0
SPLINE
  5
23A
330
1A8
100
AcDbEntity
  8
P-SANR-FIXT
100
AcDbSpline
210
0.0
220
0.0
230
1.0
 70
     8
 71
     3
 72
     8
 73
     4
 74
     0
 42
0.000000001
 43
0.0000000001
 40
0.1481481481481481
 40
0.1481481481481481
 40
0.1481481481481481
 40
0.1481481481481481
 40
0.1563761369427261
 40
0.1563761369427261
 40
0.1563761369427261
 40
0.1563761369427261
 10
1797.278130290992
 20
370.4091423061928
 30
0.0
 10
1797.227488847571
 20
370.3088263475376
 30
0.0
 10
1797.175574756724
 20
370.2091060485471
 30
0.0
 10
1797.122438209401
 20
370.1100567082028
 30
0.0
  0
SPLINE
  5
23B
330
1A8
100
AcDbEntity
  8
P-SANR-FIXT
100
AcDbSpline
210
0.0
220
0.0
230
1.0
 70
     8
 71
     3
 72
     8
 73
     4
 74
     0
 42
0.000000001
 43
0.0000000001
 40
0.1851851851851852
 40
0.1851851851851852
 40
0.1851851851851852
 40
0.1851851851851852
 40
0.1872576999287881
 40
0.1872576999287881
 40
0.1872576999287881
 40
0.1872576999287881
 10
1796.520903236289
 20
369.0970430057594
 30
0.0
 10
1796.505452589016
 20
369.073453463379
 30
0.0
 10
1796.489928254253
 20
369.0499169043862
 30
0.0
 10
1796.474330219741
 20
369.0264338255104
 30
0.0
  0
SPLINE
  5
23C
330
1A8
100
AcDbEntity
  8
P-SANR-FIXT
100
AcDbSpline
210
0.0
220
0.0
230
1.0
 70
     8
 71
     3
 72
     8
 73
     4
 74
     0
 42
0.000000001
 43
0.0000000001
 40
0.2187549008456511
 40
0.2187549008456511
 40
0.2187549008456511
 40
0.2187549008456511
 40
0.2222222222222222
 40
0.2222222222222222
 40
0.2222222222222222
 40
0.2222222222222222
 10
1795.71206374913
 20
367.9945760813267
 30
0.0
 10
1795.682215751144
 20
367.9582003071023
 30
0.0
 10
1795.652160950695
 20
367.9219953493336
 30
0.0
 10
1795.62189929053
 20
367.8859635344531
 30
0.0
  0
SPLINE
  5
23D
330
1A8
100
AcDbEntity
  8
P-SANR-FIXT
100
AcDbSpline
210
0.0
220
0.0
230
1.0
 70
     8
 71
     3
 72
     8
 73
     4
 74
     0
 42
0.000000001
 43
0.0000000001
 40
0.2504573088742626
 40
0.2504573088742626
 40
0.2504573088742626
 40
0.2504573088742626
 40
0.2592592592592593
 40
0.2592592592592593
 40
0.2592592592592593
 40
0.2592592592592593
 10
1794.843226019195
 20
367.0406051363362
 30
0.0
 10
1794.758401280891
 20
366.9564323381679
 30
0.0
 10
1794.672414390456
 20
366.8734180840759
 30
0.0
 10
1794.585318621233
 20
366.7915757059233
 30
0.0
  0
SPLINE
  5
23E
330
1A8
100
AcDbEntity
  8
P-SANR-FIXT
100
AcDbSpline
210
0.0
220
0.0
230
1.0
 70
     8
 71
     3
 72
     8
 73
     4
 74
     0
 42
0.000000001
 43
0.0000000001
 40
0.2808220322608496
 40
0.2808220322608496
 40
0.2808220322608496
 40
0.2808220322608496
 40
0.3121794727363369
 40
0.3121794727363369
 40
0.3121794727363369
 40
0.3121794727363369
 10
1793.926041371056
 20
366.2113862490212
 30
0.0
 10
1793.597524087831
 20
365.9405730348468
 30
0.0
 10
1793.256410451845
 20
365.6851997304203
 30
0.0
 10
1792.903265133045
 20
365.4474370265381
 30
0.0
  0
SPLINE
  5
23F
330
1A8
100
AcDbEntity
  8
P-SANR-FIXT
100
AcDbSpline
210
0.0
220
0.0
230
1.0
 70
     8
 71
     3
 72
     8
 73
     4
 74
     0
 42
0.000000001
 43
0.0000000001
 40
0.3333333333333333
 40
0.3333333333333333
 40
0.3333333333333333
 40
0.3333333333333333
 40
0.3437396666698307
 40
0.3437396666698307
 40
0.3437396666698307
 40
0.3437396666698307
 10
1792.172312034814
 20
364.9909595635365
 30
0.0
 10
1792.049814692659
 20
364.9202681690878
 30
0.0
 10
1791.926034237118
 20
364.8516775557737
 30
0.0
 10
1791.801072684354
 20
364.785175745194
 30
0.0
  0
SPLINE
  5
240
330
1A8
100
AcDbEntity
  8
P-SANR-FIXT
100
AcDbSpline
210
0.0
220
0.0
230
1.0
 70
     8
 71
     3
 72
     8
 73
     4
 74
     0
 42
0.000000001
 43
0.0000000001
 40
0.3703703703703703
 40
0.3703703703703703
 40
0.3703703703703703
 40
0.3703703703703703
 40
0.3751849723654202
 40
0.3751849723654202
 40
0.3751849723654202
 40
0.3751849723654202
 10
1790.820215263605
 20
364.3154611881047
 30
0.0
 10
1790.759912747932
 20
364.2896033545686
 30
0.0
 10
1790.699413306151
 20
364.2641860954266
 30
0.0
 10
1790.638727037495
 20
364.2392082185066
 30
0.0
  0
SPLINE
  5
241
330
1A8
100
AcDbEntity
  8
P-SANR-FIXT
100
AcDbSpline
210
0.0
220
0.0
230
1.0
 70
     8
 71
     3
 72
     8
 73
     4
 74
     0
 42
0.000000001
 43
0.0000000001
 40
0.406179945868564
 40
0.406179945868564
 40
0.406179945868564
 40
0.406179945868564
 40
0.4074074074074074
 40
0.4074074074074074
 40
0.4074074074074074
 40
0.4074074074074074
 10
1789.445917361896
 20
363.8115201083325
 30
0.0
 10
1789.429922383593
 20
363.8066102304785
 30
0.0
 10
1789.413918298016
 20
363.8017304270902
 30
0.0
 10
1789.397905188205
 20
363.7968808216392
 30
0.0
  0
SPLINE
  5
242
330
1A8
100
AcDbEntity
  8
P-SANR-FIXT
100
AcDbSpline
210
0.0
220
0.0
230
1.0
 70
     8
 71
     3
 72
     8
 73
     4
 74
     0
 42
0.000000001
 43
0.0000000001
 40
0.4374597481928151
 40
0.4374597481928151
 40
0.4374597481928151
 40
0.4374597481928151
 40
0.4444444444444445
 40
0.4444444444444445
 40
0.4444444444444445
 40
0.4444444444444445
 10
1788.206733494648
 20
363.4967950787063
 30
0.0
 10
1788.113381825201
 20
363.4780344143321
 30
0.0
 10
1788.019803661244
 20
363.4603492918708
 30
0.0
 10
1787.926014456565
 20
363.4437626492917
 30
0.0
  0
SPLINE
  5
243
330
1A8
100
AcDbEntity
  8
P-SANR-FIXT
100
AcDbSpline
210
0.0
220
0.0
230
1.0
 70
     8
 71
     3
 72
     8
 73
     4
 74
     0
 42
0.000000001
 43
0.0000000001
 40
0.4688217743362605
 40
0.4688217743362605
 40
0.4688217743362605
 40
0.4688217743362605
 40
0.4814814814814815
 40
0.4814814814814815
 40
0.4814814814814815
 40
0.4814814814814815
 10
1786.937387173625
 20
363.3097328595678
 30
0.0
 10
1786.765290676013
 20
363.2933068704226
 30
0.0
 10
1786.592795654648
 20
363.2803554891044
 30
0.0
 10
1786.420054641976
 20
363.2708085265203
 30
0.0
  0
SPLINE
  5
244
330
1A8
100
AcDbEntity
  8
P-SANR-FIXT
100
AcDbSpline
210
0.0
220
0.0
230
1.0
 70
     8
 71
     3
 72
     8
 73
     4
 74
     0
 42
0.000000001
 43
0.0000000001
 40
0.5185185185185186
 40
0.5185185185185186
 40
0.5185185185185186
 40
0.5185185185185186
 40
0.5310924847137279
 40
0.5310924847137279
 40
0.5310924847137279
 40
0.5310924847137279
 10
1784.901466829942
 20
363.2726862635847
 30
0.0
 10
1784.729796956763
 20
363.282417106133
 30
0.0
 10
1784.558408458386
 20
363.2953621154093
 30
0.0
 10
1784.387685182062
 20
363.3116168244369
 30
0.0
  0
SPLINE
  5
245
330
1A8
100
AcDbEntity
  8
P-SANR-FIXT
100
AcDbSpline
210
0.0
220
0.0
230
1.0
 70
     8
 71
     3
 72
     8
 73
     4
 74
     0
 42
0.000000001
 43
0.0000000001
 40
0.5555555555555556
 40
0.5555555555555556
 40
0.5555555555555556
 40
0.5555555555555556
 40
0.5624610397717918
 40
0.5624610397717918
 40
0.5624610397717918
 40
0.5624610397717918
 10
1783.40147018842
 20
363.4447483707238
 30
0.0
 10
1783.309787071614
 20
363.4609273522027
 30
0.0
 10
1783.218394694231
 20
363.4781484003897
 30
0.0
 10
1783.127219162898
 20
363.4964125596456
 30
0.0
  0
SPLINE
  5
246
330
1A8
100
AcDbEntity
  8
P-SANR-FIXT
100
AcDbSpline
210
0.0
220
0.0
230
1.0
 70
     8
 71
     3
 72
     8
 73
     4
 74
     0
 42
0.000000001
 43
0.0000000001
 40
0.5925925925925926
 40
0.5925925925925926
 40
0.5925925925925926
 40
0.5925925925925926
 40
0.5937578063659183
 40
0.5937578063659183
 40
0.5937578063659183
 40
0.5937578063659183
 10
1781.940386171227
 20
363.7951560928724
 30
0.0
 10
1781.925133032399
 20
363.7997722741153
 30
0.0
 10
1781.909882544384
 20
363.8044171469965
 30
0.0
 10
1781.89463508578
 20
363.8090905885598
 30
0.0
  0
SPLINE
  5
247
330
1A8
100
AcDbEntity
  8
P-SANR-FIXT
100
AcDbSpline
210
0.0
220
0.0
230
1.0
 70
     8
 71
     3
 72
     8
 73
     4
 74
     0
 42
0.000000001
 43
0.0000000001
 40
0.6247762509815748
 40
0.6247762509815748
 40
0.6247762509815748
 40
0.6247762509815748
 40
0.6296296296296296
 40
0.6296296296296296
 40
0.6296296296296296
 40
0.6296296296296296
 10
1780.690772070078
 20
364.2409169077961
 30
0.0
 10
1780.62906228777
 20
364.2663631831147
 30
0.0
 10
1780.567572189483
 20
364.2922426984918
 30
0.0
 10
1780.506331027057
 20
364.318547819991
 30
0.0
  0
SPLINE
  5
248
330
1A8
100
AcDbEntity
  8
P-SANR-FIXT
100
AcDbSpline
210
0.0
220
0.0
230
1.0
 70
     8
 71
     3
 72
     8
 73
     4
 74
     0
 42
0.000000001
 43
0.0000000001
 40
0.6562302216358893
 40
0.6562302216358893
 40
0.6562302216358893
 40
0.6562302216358893
 40
0.6666666666666666
 40
0.6666666666666666
 40
0.6666666666666666
 40
0.6666666666666666
 10
1779.526516125716
 20
364.7881202631616
 30
0.0
 10
1779.402415052953
 20
364.8541843708703
 30
0.0
 10
1779.280031606605
 20
364.9221330614228
 30
0.0
 10
1779.158950600233
 20
364.9921148846761
 30
0.0
  0
SPLINE
  5
249
330
1A8
100
AcDbEntity
  8
P-SANR-FIXT
100
AcDbSpline
210
0.0
220
0.0
230
1.0
 70
     8
 71
     3
 72
     8
 73
     4
 74
     0
 42
0.000000001
 43
0.0000000001
 40
0.687774241468869
 40
0.687774241468869
 40
0.687774241468869
 40
0.687774241468869
 40
0.7190960907484518
 40
0.7190960907484518
 40
0.7190960907484518
 40
0.7190960907484518
 10
1778.436863893085
 20
365.4429179228089
 30
0.0
 10
1778.084952897145
 20
365.6799479503159
 30
0.0
 10
1777.736520066147
 20
365.9376216235677
 30
0.0
 10
1777.407095518291
 20
366.2110576070484
 30
0.0
  0
SPLINE
  5
24A
330
1A8
100
AcDbEntity
  8
P-SANR-FIXT
100
AcDbSpline
210
0.0
220
0.0
230
1.0
 70
     8
 71
     3
 72
     8
 73
     4
 74
     0
 42
0.000000001
 43
0.0000000001
 40
0.7407407407407405
 40
0.7407407407407405
 40
0.7407407407407405
 40
0.7407407407407405
 40
0.7494248897946001
 40
0.7494248897946001
 40
0.7494248897946001
 40
0.7494248897946001
 10
1776.74376792492
 20
366.795186432321
 30
0.0
 10
1776.657990951175
 20
366.8758050719702
 30
0.0
 10
1776.573951794529
 20
366.9577261147058
 30
0.0
 10
1776.491372921049
 20
367.0408426934372
 30
0.0
  0
SPLINE
  5
24B
330
1A8
100
AcDbEntity
  8
P-SANR-FIXT
100
AcDbSpline
210
0.0
220
0.0
230
1.0
 70
     8
 71
     3
 72
     8
 73
     4
 74
     0
 42
0.000000001
 43
0.0000000001
 40
0.7777777777777775
 40
0.7777777777777775
 40
0.7777777777777775
 40
0.7777777777777775
 40
0.7811113589274897
 40
0.7811113589274897
 40
0.7811113589274897
 40
0.7811113589274897
 10
1775.711681009796
 20
367.8855787745554
 30
0.0
 10
1775.682664106349
 20
367.9201217178697
 30
0.0
 10
1775.65391778158
 20
367.9548771135071
 30
0.0
 10
1775.625372183109
 20
367.9898159926709
 30
0.0
  0
SPLINE
  5
24C
330
1A8
100
AcDbEntity
  8
P-SANR-FIXT
100
AcDbSpline
210
0.0
220
0.0
230
1.0
 70
     8
 71
     3
 72
     8
 73
     4
 74
     0
 42
0.000000001
 43
0.0000000001
 40
0.8126221906543149
 40
0.8126221906543149
 40
0.8126221906543149
 40
0.8126221906543149
 40
0.8148148148148145
 40
0.8148148148148145
 40
0.8148148148148145
 40
0.8148148148148145
 10
1774.859210781832
 20
369.0245137033536
 30
0.0
 10
1774.842575087813
 20
369.0495002926151
 30
0.0
 10
1774.825927280476
 20
369.0745135231389
 30
0.0
 10
1774.809280956583
 20
369.099556568102
 30
0.0
  0
SPLINE
  5
24D
330
1A8
100
AcDbEntity
  8
P-SANR-FIXT
100
AcDbSpline
210
0.0
220
0.0
230
1.0
 70
     8
 71
     3
 72
     8
 73
     4
 74
     0
 42
0.000000001
 43
0.0000000001
 40
0.8435508849762896
 40
0.8435508849762896
 40
0.8435508849762896
 40
0.8435508849762896
 40
0.8518518518518513
 40
0.8518518518518513
 40
0.8518518518518513
 40
0.8518518518518513
 10
1774.206564507589
 20
370.114218774766
 30
0.0
 10
1774.152968266904
 20
370.2142110170078
 30
0.0
 10
1774.099396112368
 20
370.3143314877265
 30
0.0
 10
1774.047756689481
 20
370.4151186535166
 30
0.0
  0
SPLINE
  5
24E
330
1A8
100
AcDbEntity
  8
P-SANR-FIXT
100
AcDbSpline
210
0.0
220
0.0
230
1.0
 70
     8
 71
     3
 72
     8
 73
     4
 74
     0
 42
0.000000001
 43
0.0000000001
 40
0.8748607479643114
 40
0.8748607479643114
 40
0.8748607479643114
 40
0.8748607479643114
 40
0.8888888888888883
 40
0.8888888888888883
 40
0.8888888888888883
 40
0.8888888888888883
 10
1773.6593628972
 20
371.2657991403771
 30
0.0
 10
1773.586678357408
 20
371.4404204775836
 30
0.0
 10
1773.525051827546
 20
371.6186347290194
 30
0.0
 10
1773.472105873768
 20
371.7996659333412
 30
0.0
  0
SPLINE
  5
24F
330
1A8
100
AcDbEntity
  8
P-SANR-FIXT
100
AcDbSpline
210
0.0
220
0.0
230
1.0
 70
     8
 71
     3
 72
     8
 73
     4
 74
     0
 42
0.000000001
 43
0.0000000001
 40
0.9259259259259254
 40
0.9259259259259254
 40
0.9259259259259254
 40
0.9259259259259254
 40
0.9382272028048321
 40
0.9382272028048321
 40
0.9382272028048321
 40
0.9382272028048321
 10
1773.025889185748
 20
373.2207899373943
 30
0.0
 10
1772.987797666051
 20
373.3817983374765
 30
0.0
 10
1772.957757770045
 20
373.5456782041838
 30
0.0
 10
1772.933263291369
 20
373.7115324138529
 30
0.0
  0
SPLINE
  5
250
330
1A8
100
AcDbEntity
  8
P-SANR-FIXT
100
AcDbSpline
210
0.0
220
0.0
230
1.0
 70
     8
 71
     3
 72
     8
 73
     4
 74
     0
 42
0.000000001
 43
0.0000000001
 40
0.9629629629629622
 40
0.9629629629629622
 40
0.9629629629629622
 40
0.9629629629629622
 40
0.9694543682554261
 40
0.9694543682554261
 40
0.9694543682554261
 40
0.9694543682554261
 10
1772.764441477286
 20
374.7034045336442
 30
0.0
 10
1772.753967021881
 20
374.7917240209649
 30
0.0
 10
1772.745695735302
 20
374.8808796263543
 30
0.0
 10
1772.738906654497
 20
374.9705972232955
 30
0.0
  0
LINE
  5
251
330
1A8
100
AcDbEntity
  8
P-SANR-FIXT
100
AcDbLine
 10
1220.666407443186
 20
501.2458787300412
 30
0.0
 11
1220.666407443188
 21
376.2458787300438
 31
0.0
  0
LINE
  5
252
330
1A8
100
AcDbEntity
  8
P-SANR-FIXT
100
AcDbLine
 10
1220.666407443188
 20
376.2458787300432
 30
0.0
 11
1220.666407443188
 21
251.2458787300439
 31
0.0
  0
LINE
  5
253
330
1A8
100
AcDbEntity
  8
P-SANR-FIXT
100
AcDbLine
 10
1200.666407443187
 20
501.2458787300411
 30
0.0
 11
1200.666407443188
 21
376.2458787300437
 31
0.0
  0
LINE
  5
254
330
1A8
100
AcDbEntity
  8
P-SANR-FIXT
100
AcDbLine
 10
1200.666407443188
 20
376.2458787300431
 30
0.0
 11
1200.666407443188
 21
251.2458787300438
 31
0.0
  0
ARC
  5
255
330
1A8
100
AcDbEntity
  8
P-SANR-FIXT
100
AcDbCircle
 10
1785.666407443188
 20
376.2458787300454
 30
0.0
 40
12.99999999999977
100
AcDbArc
 50
0.0
 51
180.0
  0
ARC
  5
256
330
1A8
100
AcDbEntity
  8
P-SANR-FIXT
100
AcDbCircle
 10
1785.666407443188
 20
376.2458787300454
 30
0.0
 40
13.00000000000009
100
AcDbArc
 50
179.9999999999995
 51
359.9999999999988
  0
ENDBLK
  5
258
330
1A8
100
AcDbEntity
  8
0
100
AcDbBlockEnd
  0
BLOCK
  5
2F7
330
25A
100
AcDbEntity
  8
0
100
AcDbBlockBegin
  2
Automatic flow rate regulator valve_Caleffi_121 DN15 - 1_2__-V2-Est - Idraulica
 70
     0
 10
0.0
 20
0.0
 30
0.0
  3
Automatic flow rate regulator valve_Caleffi_121 DN15 - 1_2__-V2-Est - Idraulica
  1

  0
LINE
  5
25B
330
25A
100
AcDbEntity
  8
M-PIPE
100
AcDbLine
 10
2941.216495598194
 20
2488.984043225002
 30
0.0
 11
2950.165424770633
 21
2488.984043225002
 31
0.0
1001
REVIT
1002
{
1070
     3
1000
790271
1002
}
  0
LINE
  5
25C
330
25A
100
AcDbEntity
  8
M-PIPE
100
AcDbLine
 10
2950.165424770633
 20
2488.984043225002
 30
0.0
 11
2968.063283115511
 21
2488.984043225002
 31
0.0
1001
REVIT
1002
{
1070
     3
1000
790271
1002
}
  0
LINE
  5
25D
330
25A
100
AcDbEntity
  8
M-PIPE
100
AcDbLine
 10
2968.063283115511
 20
2488.984043225002
 30
0.0
 11
2977.012212287951
 21
2488.984043225002
 31
0.0
1001
REVIT
1002
{
1070
     3
1000
790271
1002
}
  0
LINE
  5
25E
330
25A
100
AcDbEntity
  8
M-PIPE
100
AcDbLine
 10
2977.012212287951
 20
2488.984043225002
 30
0.0
 11
2977.012212287951
 21
2478.484043225003
 31
0.0
1001
REVIT
1002
{
1070
     3
1000
790271
1002
}
  0
LINE
  5
25F
330
25A
100
AcDbEntity
  8
M-PIPE
100
AcDbLine
 10
2941.216495598194
 20
2478.484043225003
 30
0.0
 11
2941.216495598194
 21
2488.984043225002
 31
0.0
1001
REVIT
1002
{
1070
     3
1000
790271
1002
}
  0
LINE
  5
260
330
25A
100
AcDbEntity
  8
M-PIPE
100
AcDbLine
 10
2950.165424770633
 20
2478.484043225003
 30
0.0
 11
2950.165424770633
 21
2488.984043225002
 31
0.0
1001
REVIT
1002
{
1070
     3
1000
790271
1002
}
  0
LINE
  5
261
330
25A
100
AcDbEntity
  8
M-PIPE
100
AcDbLine
 10
2968.063283115511
 20
2478.484043225003
 30
0.0
 11
2968.063283115511
 21
2488.984043225002
 31
0.0
1001
REVIT
1002
{
1070
     3
1000
790271
1002
}
  0
LINE
  5
262
330
25A
100
AcDbEntity
  8
M-PIPE
100
AcDbLine
 10
2987.364353943077
 20
2360.984043225005
 30
0.0
 11
2990.6469062753
 21
2454.984043225004
 31
0.0
1001
REVIT
1002
{
1070
     3
1000
790271
1002
}
  0
LINE
  5
263
330
25A
100
AcDbEntity
  8
M-PIPE
100
AcDbLine
 10
2893.581801610853
 20
2454.984043225004
 30
0.0
 11
2896.864353943077
 21
2360.984043225003
 31
0.0
1001
REVIT
1002
{
1070
     3
1000
790271
1002
}
  0
LINE
  5
264
330
25A
100
AcDbEntity
  8
M-PIPE
100
AcDbLine
 10
3001.91081466067
 20
2454.984043225004
 30
0.0
 11
3001.91081466067
 21
2468.984043225004
 31
0.0
1001
REVIT
1002
{
1070
     3
1000
790271
1002
}
  0
LINE
  5
265
330
25A
100
AcDbEntity
  8
M-PIPE
100
AcDbLine
 10
2882.317893225461
 20
2468.984043225004
 30
0.0
 11
2882.317893225461
 21
2454.984043225004
 31
0.0
1001
REVIT
1002
{
1070
     3
1000
790271
1002
}
  0
LINE
  5
266
330
25A
100
AcDbEntity
  8
M-PIPE
100
AcDbLine
 10
2952.114353943067
 20
2454.984043225004
 30
0.0
 11
2952.114353943067
 21
2468.984043225004
 31
0.0
1001
REVIT
1002
{
1070
     3
1000
790271
1002
}
  0
LINE
  5
267
330
25A
100
AcDbEntity
  8
M-PIPE
100
AcDbLine
 10
2932.114353943065
 20
2468.984043225004
 30
0.0
 11
2932.114353943065
 21
2454.984043225004
 31
0.0
1001
REVIT
1002
{
1070
     3
1000
790271
1002
}
  0
LINE
  5
268
330
25A
100
AcDbEntity
  8
M-PIPE
100
AcDbLine
 10
2985.614353943077
 20
2468.984043225004
 30
0.0
 11
2985.614353943077
 21
2478.484043225004
 31
0.0
1001
REVIT
1002
{
1070
     3
1000
790271
1002
}
  0
LINE
  5
269
330
25A
100
AcDbEntity
  8
M-PIPE
100
AcDbLine
 10
2932.614353943077
 20
2478.484043225004
 30
0.0
 11
2932.614353943077
 21
2468.984043225004
 31
0.0
1001
REVIT
1002
{
1070
     3
1000
790271
1002
}
  0
LINE
  5
26A
330
25A
100
AcDbEntity
  8
M-PIPE
100
AcDbLine
 10
2969.964353943076
 20
2488.984043225004
 30
0.0
 11
2969.964353943076
 21
2498.98404322507
 31
0.0
1001
REVIT
1002
{
1070
     3
1000
790271
1002
}
  0
LINE
  5
26B
330
25A
100
AcDbEntity
  8
M-PIPE
100
AcDbLine
 10
2948.264353943077
 20
2498.98404322507
 30
0.0
 11
2948.264353943077
 21
2488.984043225004
 31
0.0
1001
REVIT
1002
{
1070
     3
1000
790271
1002
}
  0
LINE
  5
26C
330
25A
100
AcDbEntity
  8
M-PIPE
100
AcDbLine
 10
2965.208364710648
 20
2340.984043225003
 30
0.0
 11
2953.661359326856
 21
2340.984043225002
 31
0.0
1001
REVIT
1002
{
1070
     3
1000
790271
1002
}
  0
LINE
  5
26D
330
25A
100
AcDbEntity
  8
M-PIPE
100
AcDbLine
 10
2953.661359326856
 20
2340.984043225002
 30
0.0
 11
2948.464353943093
 21
2340.984043225002
 31
0.0
1001
REVIT
1002
{
1070
     3
1000
790271
1002
}
  0
LINE
  5
26E
330
25A
100
AcDbEntity
  8
M-PIPE
100
AcDbLine
 10
2942.114353943092
 20
2340.984043225002
 30
0.0
 11
2930.56734855927
 21
2340.984043225002
 31
0.0
1001
REVIT
1002
{
1070
     3
1000
790271
1002
}
  0
LINE
  5
26F
330
25A
100
AcDbEntity
  8
M-PIPE
100
AcDbLine
 10
2930.56734855927
 20
2340.984043225002
 30
0.0
 11
2919.020343175478
 21
2340.984043225002
 31
0.0
1001
REVIT
1002
{
1070
     3
1000
790271
1002
}
  0
LINE
  5
270
330
25A
100
AcDbEntity
  8
M-PIPE
100
AcDbLine
 10
2965.208364710648
 20
2360.984043225002
 30
0.0
 11
2965.208364710648
 21
2340.984043225003
 31
0.0
1001
REVIT
1002
{
1070
     3
1000
790271
1002
}
  0
LINE
  5
271
330
25A
100
AcDbEntity
  8
M-PIPE
100
AcDbLine
 10
2919.020343175478
 20
2340.984043225002
 30
0.0
 11
2919.020343175477
 21
2360.984043225002
 31
0.0
1001
REVIT
1002
{
1070
     3
1000
790271
1002
}
  0
LINE
  5
272
330
25A
100
AcDbEntity
  8
M-PIPE
100
AcDbLine
 10
2930.56734855927
 20
2340.984043225002
 30
0.0
 11
2930.56734855927
 21
2360.984043225002
 31
0.0
1001
REVIT
1002
{
1070
     3
1000
790271
1002
}
  0
LINE
  5
273
330
25A
100
AcDbEntity
  8
M-PIPE
100
AcDbLine
 10
2953.661359326856
 20
2340.984043225003
 30
0.0
 11
2953.661359326856
 21
2360.984043225002
 31
0.0
1001
REVIT
1002
{
1070
     3
1000
790271
1002
}
  0
LINE
  5
274
330
25A
100
AcDbEntity
  8
M-PIPE
100
AcDbLine
 10
2896.864353943075
 20
2360.984043225002
 30
0.0
 11
2987.364353943075
 21
2360.984043225004
 31
0.0
1001
REVIT
1002
{
1070
     3
1000
790271
1002
}
  0
LINE
  5
275
330
25A
100
AcDbEntity
  8
M-PIPE
100
AcDbLine
 10
2952.106402437643
 20
2468.984043225003
 30
0.0
 11
2986.176688554164
 21
2468.984043225003
 31
0.0
1001
REVIT
1002
{
1070
     3
1000
790271
1002
}
  0
LINE
  5
276
330
25A
100
AcDbEntity
  8
M-PIPE
100
AcDbLine
 10
2986.176688554164
 20
2468.984043225003
 30
0.0
 11
3001.910814660668
 21
2468.984043225003
 31
0.0
1001
REVIT
1002
{
1070
     3
1000
790271
1002
}
  0
LINE
  5
277
330
25A
100
AcDbEntity
  8
M-PIPE
100
AcDbLine
 10
3001.910814660668
 20
2468.984043225003
 30
0.0
 11
3001.909905159456
 21
2468.984043225003
 31
0.0
1001
REVIT
1002
{
1070
     3
1000
790271
1002
}
  0
LINE
  5
278
330
25A
100
AcDbEntity
  8
M-PIPE
100
AcDbLine
 10
2882.318802726685
 20
2468.984043225003
 30
0.0
 11
2882.317893225473
 21
2468.984043225003
 31
0.0
1001
REVIT
1002
{
1070
     3
1000
790271
1002
}
  0
LINE
  5
279
330
25A
100
AcDbEntity
  8
M-PIPE
100
AcDbLine
 10
2882.317893225458
 20
2468.984043225003
 30
0.0
 11
2898.052019331961
 21
2468.984043225003
 31
0.0
1001
REVIT
1002
{
1070
     3
1000
790271
1002
}
  0
LINE
  5
27A
330
25A
100
AcDbEntity
  8
M-PIPE
100
AcDbLine
 10
2898.052019331961
 20
2468.984043225003
 30
0.0
 11
2932.122305448484
 21
2468.984043225003
 31
0.0
1001
REVIT
1002
{
1070
     3
1000
790271
1002
}
  0
LINE
  5
27B
330
25A
100
AcDbEntity
  8
M-PIPE
100
AcDbLine
 10
2932.114353943063
 20
2468.984043225003
 30
0.0
 11
2952.114353943063
 21
2468.984043225003
 31
0.0
1001
REVIT
1002
{
1070
     3
1000
790271
1002
}
  0
LINE
  5
27C
330
25A
100
AcDbEntity
  8
M-PIPE
100
AcDbLine
 10
2952.114353943063
 20
2454.984043225003
 30
0.0
 11
2932.114353943063
 21
2454.984043225003
 31
0.0
1001
REVIT
1002
{
1070
     3
1000
790271
1002
}
  0
LINE
  5
27D
330
25A
100
AcDbEntity
  8
M-PIPE
100
AcDbLine
 10
2932.122305448485
 20
2454.984043225003
 30
0.0
 11
2898.052019331962
 21
2454.984043225003
 31
0.0
1001
REVIT
1002
{
1070
     3
1000
790271
1002
}
  0
LINE
  5
27E
330
25A
100
AcDbEntity
  8
M-PIPE
100
AcDbLine
 10
2898.052019331962
 20
2454.984043225003
 30
0.0
 11
2882.317893225458
 21
2454.984043225003
 31
0.0
1001
REVIT
1002
{
1070
     3
1000
790271
1002
}
  0
LINE
  5
27F
330
25A
100
AcDbEntity
  8
M-PIPE
100
AcDbLine
 10
2882.317893225473
 20
2454.984043225003
 30
0.0
 11
2882.318802726685
 21
2454.984043225003
 31
0.0
1001
REVIT
1002
{
1070
     3
1000
790271
1002
}
  0
LINE
  5
280
330
25A
100
AcDbEntity
  8
M-PIPE
100
AcDbLine
 10
3001.909905159456
 20
2454.984043225003
 30
0.0
 11
3001.910814660668
 21
2454.984043225003
 31
0.0
1001
REVIT
1002
{
1070
     3
1000
790271
1002
}
  0
LINE
  5
281
330
25A
100
AcDbEntity
  8
M-PIPE
100
AcDbLine
 10
3001.910814660668
 20
2454.984043225003
 30
0.0
 11
2986.176688554164
 21
2454.984043225003
 31
0.0
1001
REVIT
1002
{
1070
     3
1000
790271
1002
}
  0
LINE
  5
282
330
25A
100
AcDbEntity
  8
M-PIPE
100
AcDbLine
 10
2986.176688554164
 20
2454.984043225003
 30
0.0
 11
2952.106402437643
 21
2454.984043225003
 31
0.0
1001
REVIT
1002
{
1070
     3
1000
790271
1002
}
  0
LINE
  5
283
330
25A
100
AcDbEntity
  8
M-PIPE
100
AcDbLine
 10
2986.176688554164
 20
2454.984043225003
 30
0.0
 11
2986.176688554164
 21
2468.984043225003
 31
0.0
1001
REVIT
1002
{
1070
     3
1000
790271
1002
}
  0
LINE
  5
284
330
25A
100
AcDbEntity
  8
M-PIPE
100
AcDbLine
 10
2898.052019331961
 20
2454.984043225003
 30
0.0
 11
2898.052019331961
 21
2468.984043225003
 31
0.0
1001
REVIT
1002
{
1070
     3
1000
790271
1002
}
  0
LINE
  5
285
330
25A
100
AcDbEntity
  8
M-PIPE
100
AcDbLine
 10
2985.614353943074
 20
2478.484043225003
 30
0.0
 11
2932.614353943074
 21
2478.484043225003
 31
0.0
1001
REVIT
1002
{
1070
     3
1000
790271
1002
}
  0
LINE
  5
286
330
25A
100
AcDbEntity
  8
M-PIPE
100
AcDbLine
 10
2969.964353943074
 20
2498.984043225069
 30
0.0
 11
2948.264353943074
 21
2498.984043225069
 31
0.0
1001
REVIT
1002
{
1070
     3
1000
790271
1002
}
  0
LINE
  5
287
330
25A
100
AcDbEntity
  8
M-PIPE
100
AcDbLine
 10
2960.767478943111
 20
2297.888808850013
 30
0.0
 11
2960.767478943111
 21
2332.119277600012
 31
0.0
1001
REVIT
1002
{
1070
     3
1000
790271
1002
}
  0
LINE
  5
288
330
25A
100
AcDbEntity
  8
M-PIPE
100
AcDbLine
 10
2923.461228943077
 20
2332.119277600012
 30
0.0
 11
2923.461228943077
 21
2297.888808850013
 31
0.0
1001
REVIT
1002
{
1070
     3
1000
790271
1002
}
  0
LINE
  5
289
330
25A
100
AcDbEntity
  8
M-PIPE
100
AcDbLine
 10
2960.767478943109
 20
2297.888808850012
 30
0.0
 11
2942.114353943092
 21
2297.888808850012
 31
0.0
1001
REVIT
1002
{
1070
     3
1000
790271
1002
}
  0
LINE
  5
28A
330
25A
100
AcDbEntity
  8
M-PIPE
100
AcDbLine
 10
2935.756810317907
 20
2297.888808850012
 30
0.0
 11
2923.461228943074
 21
2297.888808850012
 31
0.0
1001
REVIT
1002
{
1070
     3
1000
790271
1002
}
  0
LINE
  5
28B
330
25A
100
AcDbEntity
  8
M-PIPE
100
AcDbLine
 10
2960.767478943109
 20
2332.119277600012
 30
0.0
 11
2948.471897568277
 21
2332.119277600012
 31
0.0
1001
REVIT
1002
{
1070
     3
1000
790271
1002
}
  0
LINE
  5
28C
330
25A
100
AcDbEntity
  8
M-PIPE
100
AcDbLine
 10
2942.114353943092
 20
2332.119277600012
 30
0.0
 11
2923.461228943074
 21
2332.119277600012
 31
0.0
1001
REVIT
1002
{
1070
     3
1000
790271
1002
}
  0
LINE
  5
28D
330
25A
100
AcDbEntity
  8
M-PIPE
100
AcDbLine
 10
2956.997166443091
 20
2340.984043225005
 30
0.0
 11
2956.997166443091
 21
2332.119277600012
 31
0.0
1001
REVIT
1002
{
1070
     3
1000
790271
1002
}
  0
LINE
  5
28E
330
25A
100
AcDbEntity
  8
M-PIPE
100
AcDbLine
 10
2935.949691159335
 20
2340.984043225005
 30
0.0
 11
2935.949691159335
 21
2332.119277600012
 31
0.0
1001
REVIT
1002
{
1070
     3
1000
790271
1002
}
  0
LINE
  5
28F
330
25A
100
AcDbEntity
  8
M-PIPE
100
AcDbLine
 10
2927.231541443092
 20
2340.984043225005
 30
0.0
 11
2927.231541443092
 21
2332.119277600012
 31
0.0
1001
REVIT
1002
{
1070
     3
1000
790271
1002
}
  0
LINE
  5
290
330
25A
100
AcDbEntity
  8
M-PIPE
100
AcDbLine
 10
2958.485447693091
 20
2285.982558850012
 30
0.0
 11
2948.895483005223
 21
2285.982558850012
 31
0.0
1001
REVIT
1002
{
1070
     3
1000
790271
1002
}
  0
LINE
  5
291
330
25A
100
AcDbEntity
  8
M-PIPE
100
AcDbLine
 10
2948.895483005223
 20
2285.982558850012
 30
0.0
 11
2942.114353943092
 21
2285.982558850012
 31
0.0
1001
REVIT
1002
{
1070
     3
1000
790271
1002
}
  0
LINE
  5
292
330
25A
100
AcDbEntity
  8
M-PIPE
100
AcDbLine
 10
2935.764353943092
 20
2285.982558850012
 30
0.0
 11
2935.33322488096
 21
2285.982558850012
 31
0.0
1001
REVIT
1002
{
1070
     3
1000
790271
1002
}
  0
LINE
  5
293
330
25A
100
AcDbEntity
  8
M-PIPE
100
AcDbLine
 10
2935.33322488096
 20
2285.982558850012
 30
0.0
 11
2925.743260193092
 21
2285.982558850012
 31
0.0
1001
REVIT
1002
{
1070
     3
1000
790271
1002
}
  0
LINE
  5
294
330
25A
100
AcDbEntity
  8
M-PIPE
100
AcDbLine
 10
2958.485447693091
 20
2297.888808850012
 30
0.0
 11
2958.485447693091
 21
2285.982558850012
 31
0.0
1001
REVIT
1002
{
1070
     3
1000
790271
1002
}
  0
LINE
  5
295
330
25A
100
AcDbEntity
  8
M-PIPE
100
AcDbLine
 10
2948.895483005223
 20
2297.888808850012
 30
0.0
 11
2948.895483005223
 21
2285.982558850012
 31
0.0
1001
REVIT
1002
{
1070
     3
1000
790271
1002
}
  0
LINE
  5
296
330
25A
100
AcDbEntity
  8
M-PIPE
100
AcDbLine
 10
2935.33322488096
 20
2297.888808850012
 30
0.0
 11
2935.33322488096
 21
2285.982558850012
 31
0.0
1001
REVIT
1002
{
1070
     3
1000
790271
1002
}
  0
LINE
  5
297
330
25A
100
AcDbEntity
  8
M-PIPE
100
AcDbLine
 10
2925.743260193092
 20
2297.888808850012
 30
0.0
 11
2925.743260193092
 21
2285.982558850012
 31
0.0
1001
REVIT
1002
{
1070
     3
1000
790271
1002
}
  0
ARC
  5
298
330
25A
100
AcDbEntity
  8
M-PIPE
100
AcDbCircle
 10
2942.114353943092
 20
2315.004043225004
 30
0.0
 40
4.762499999999818
100
AcDbArc
 50
90.0
 51
269.9999999999997
1001
REVIT
1002
{
1070
     3
1000
790271
1002
}
  0
ARC
  5
299
330
25A
100
AcDbEntity
  8
M-PIPE
100
AcDbCircle
 10
2942.114353943092
 20
2315.004043225004
 30
0.0
 40
4.762500000000272
100
AcDbArc
 50
269.9999999999997
 51
90.0
1001
REVIT
1002
{
1070
     3
1000
790271
1002
}
  0
ARC
  5
29A
330
25A
100
AcDbEntity
  8
M-PIPE
100
AcDbCircle
 10
2942.114353943092
 20
2315.004043225004
 30
0.0
 40
15.08124999999208
100
AcDbArc
 50
220.2468256002199
 51
245.0989376296169
1001
REVIT
1002
{
1070
     3
1000
790271
1002
}
  0
LWPOLYLINE
  5
29B
330
25A
100
AcDbEntity
  8
M-PIPE
100
AcDbPolyline
 90
       11
 70
   128
 43
0.0
 10
2930.603314402138
 20
2305.260323696566
 10
2928.703508430586
 20
2308.105251721997
 10
2927.49374229962
 20
2311.305149237199
 10
2927.036263152969
 20
2314.695369145967
 10
2927.354610061093
 20
2318.101471529266
 10
2928.432402845013
 20
2321.348199253354
 10
2930.214184899843
 20
2324.268495626758
 10
2932.608276651469
 20
2326.712100112803
 10
2935.491492825026
 20
2328.553279815051
 10
2938.715480803452
 20
2329.697298920829
 10
2942.114353943092
 20
2330.085293224996
1001
REVIT
1002
{
1070
     3
1000
790271
1002
}
  0
ARC
  5
29C
330
25A
100
AcDbEntity
  8
M-PIPE
100
AcDbCircle
 10
2942.114353943092
 20
2315.004043225004
 30
0.0
 40
15.08124999999252
100
AcDbArc
 50
40.24682560021854
 51
65.09893762962241
1001
REVIT
1002
{
1070
     3
1000
790271
1002
}
  0
LWPOLYLINE
  5
29D
330
25A
100
AcDbEntity
  8
M-PIPE
100
AcDbPolyline
 90
       11
 70
   128
 43
0.0
 10
2953.625393484047
 20
2324.747762753441
 10
2955.525199455599
 20
2321.90283472801
 10
2956.734965586566
 20
2318.702937212808
 10
2957.192444733216
 20
2315.31271730404
 10
2956.874097825092
 20
2311.906614920741
 10
2955.796305041171
 20
2308.659887196654
 10
2954.014522986342
 20
2305.73959082325
 10
2951.620431234715
 20
2303.295986337204
 10
2948.737215061159
 20
2301.454806634957
 10
2945.513227082732
 20
2300.310787529179
 10
2942.114353943092
 20
2299.922793225011
1001
REVIT
1002
{
1070
     3
1000
790271
1002
}
  0
LWPOLYLINE
  5
29E
330
25A
100
AcDbEntity
  8
M-PIPE
100
AcDbPolyline
 90
       12
 70
   128
 43
0.0
 10
2942.114353943092
 20
2326.910293224996
 10
2939.400665206849
 20
2326.596915280932
 10
2936.829827527319
 20
2325.673277950293
 10
2934.537172150954
 20
2324.188002346821
 10
2932.643386553374
 20
2322.21927473655
 10
2931.248161340281
 20
2319.870730741264
 10
2930.42494244281
 20
2317.265999864593
 10
2930.217064856547
 20
2314.542197521879
 10
2930.635471447736
 20
2311.842707159331
 10
2931.658136910789
 20
2309.309632418285
 10
2933.231227200514
 20
2307.076316669579
 10
2935.271933405485
 20
2305.260323696567
1001
REVIT
1002
{
1070
     3
1000
790271
1002
}
  0
LWPOLYLINE
  5
29F
330
25A
100
AcDbEntity
  8
M-PIPE
100
AcDbPolyline
 90
       12
 70
   128
 43
0.0
 10
2942.114353943092
 20
2303.097793225012
 10
2944.828042679336
 20
2303.411171169077
 10
2947.398880358866
 20
2304.334808499715
 10
2949.691535735231
 20
2305.820084103188
 10
2951.585321332811
 20
2307.788811713458
 10
2952.980546545904
 20
2310.137355708743
 10
2953.803765443375
 20
2312.742086585416
 10
2954.011643029637
 20
2315.465888928129
 10
2953.593236438448
 20
2318.165379290677
 10
2952.570570975396
 20
2320.698454031723
 10
2950.997480685672
 20
2322.931769780429
 10
2948.9567744807
 20
2324.747762753441
1001
REVIT
1002
{
1070
     3
1000
790271
1002
}
  0
ARC
  5
2A0
330
25A
100
AcDbEntity
  8
M-PIPE
100
AcDbCircle
 10
2942.114353943092
 20
2315.004043225004
 30
0.0
 40
11.90624999999252
100
AcDbArc
 50
234.9219701748856
 51
269.9999999999997
1001
REVIT
1002
{
1070
     3
1000
790271
1002
}
  0
LINE
  5
2A1
330
25A
100
AcDbEntity
  8
M-PIPE
100
AcDbLine
 10
2935.271933405485
 20
2305.260323696567
 30
0.0
 11
2930.603314402138
 21
2305.260323696566
 31
0.0
1001
REVIT
1002
{
1070
     3
1000
790271
1002
}
  0
ARC
  5
2A2
330
25A
100
AcDbEntity
  8
M-PIPE
100
AcDbCircle
 10
2942.114353943092
 20
2315.004043225004
 30
0.0
 40
11.90624999999215
100
AcDbArc
 50
54.92197017488454
 51
90.0
1001
REVIT
1002
{
1070
     3
1000
790271
1002
}
  0
LINE
  5
2A3
330
25A
100
AcDbEntity
  8
M-PIPE
100
AcDbLine
 10
2948.9567744807
 20
2324.747762753441
 30
0.0
 11
2953.625393484047
 21
2324.747762753441
 31
0.0
1001
REVIT
1002
{
1070
     3
1000
790271
1002
}
  0
LINE
  5
2A4
330
25A
100
AcDbEntity
  8
M-PIPE
100
AcDbLine
 10
2942.114353943092
 20
2281.666543225004
 30
0.0
 11
2942.114353943092
 21
2303.097793225012
 31
0.0
1001
REVIT
1002
{
1070
     3
1000
790271
1002
}
  0
LINE
  5
2A5
330
25A
100
AcDbEntity
  8
M-PIPE
100
AcDbLine
 10
2942.114353943092
 20
2348.34154322502
 30
0.0
 11
2942.114353943092
 21
2326.910293224996
 31
0.0
1001
REVIT
1002
{
1070
     3
1000
790271
1002
}
  0
LINE
  5
2A6
330
25A
100
AcDbEntity
  8
M-PIPE
100
AcDbLine
 10
2935.764353943092
 20
2301.324803422944
 30
0.0
 11
2935.764353943092
 21
2281.666543225004
 31
0.0
1001
REVIT
1002
{
1070
     3
1000
790271
1002
}
  0
LINE
  5
2A7
330
25A
100
AcDbEntity
  8
M-PIPE
100
AcDbLine
 10
2935.764353943092
 20
2281.666543225004
 30
0.0
 11
2942.114353943092
 21
2281.666543225004
 31
0.0
1001
REVIT
1002
{
1070
     3
1000
790271
1002
}
  0
LINE
  5
2A8
330
25A
100
AcDbEntity
  8
M-PIPE
100
AcDbLine
 10
2948.464353943092
 20
2328.683283027065
 30
0.0
 11
2948.464353943092
 21
2348.34154322502
 31
0.0
1001
REVIT
1002
{
1070
     3
1000
790271
1002
}
  0
LINE
  5
2A9
330
25A
100
AcDbEntity
  8
M-PIPE
100
AcDbLine
 10
2948.464353943092
 20
2348.34154322502
 30
0.0
 11
2942.114353943092
 21
2348.34154322502
 31
0.0
1001
REVIT
1002
{
1070
     3
1000
790271
1002
}
  0
LINE
  5
2AA
330
25A
100
AcDbEntity
  8
M-PIPE
100
AcDbLine
 10
2979.114353943073
 20
1092.982558850012
 30
0.0
 11
3001.114353943073
 21
1092.982558850012
 31
0.0
1001
REVIT
1002
{
1070
     3
1000
790271
1002
}
  0
LINE
  5
2AB
330
25A
100
AcDbEntity
  8
M-PIPE
100
AcDbLine
 10
3001.114353943073
 20
1120.982558850012
 30
0.0
 11
2979.114353943073
 21
1120.982558850012
 31
0.0
1001
REVIT
1002
{
1070
     3
1000
790271
1002
}
  0
LINE
  5
2AC
330
25A
100
AcDbEntity
  8
M-PIPE
100
AcDbLine
 10
2979.11435394307
 20
1120.982558850012
 30
0.0
 11
2979.11435394307
 21
1092.982558850012
 31
0.0
1001
REVIT
1002
{
1070
     3
1000
790271
1002
}
  0
LINE
  5
2AD
330
25A
100
AcDbEntity
  8
M-PIPE
100
AcDbLine
 10
3001.11435394307
 20
1092.982558850012
 30
0.0
 11
3001.114353943071
 21
1120.982558850012
 31
0.0
1001
REVIT
1002
{
1070
     3
1000
790271
1002
}
  0
LINE
  5
2AE
330
25A
100
AcDbEntity
  8
M-PIPE
100
AcDbLine
 10
2970.085366810812
 20
1096.482558850012
 30
0.0
 11
2979.114353943073
 21
1096.482558850012
 31
0.0
1001
REVIT
1002
{
1070
     3
1000
790271
1002
}
  0
LINE
  5
2AF
330
25A
100
AcDbEntity
  8
M-PIPE
100
AcDbLine
 10
2979.114353943073
 20
1117.482558850012
 30
0.0
 11
2970.085366810812
 21
1117.482558850012
 31
0.0
1001
REVIT
1002
{
1070
     3
1000
790271
1002
}
  0
LINE
  5
2B0
330
25A
100
AcDbEntity
  8
M-PIPE
100
AcDbLine
 10
2967.114353943058
 20
1065.982558850012
 30
0.0
 11
2959.792023472722
 21
1065.982558850012
 31
0.0
1001
REVIT
1002
{
1070
     3
1000
790271
1002
}
  0
LINE
  5
2B1
330
25A
100
AcDbEntity
  8
M-PIPE
100
AcDbLine
 10
2959.792023472722
 20
1065.982558850012
 30
0.0
 11
2942.114353943058
 21
1065.982558850012
 31
0.0
1001
REVIT
1002
{
1070
     3
1000
790271
1002
}
  0
LINE
  5
2B2
330
25A
100
AcDbEntity
  8
M-PIPE
100
AcDbLine
 10
2942.114353943058
 20
1065.982558850012
 30
0.0
 11
2924.436684413394
 21
1065.982558850012
 31
0.0
1001
REVIT
1002
{
1070
     3
1000
790271
1002
}
  0
LINE
  5
2B3
330
25A
100
AcDbEntity
  8
M-PIPE
100
AcDbLine
 10
2924.436684413394
 20
1065.982558850012
 30
0.0
 11
2917.114353943058
 21
1065.982558850011
 31
0.0
1001
REVIT
1002
{
1070
     3
1000
790271
1002
}
  0
LINE
  5
2B4
330
25A
100
AcDbEntity
  8
M-PIPE
100
AcDbLine
 10
2967.114353943058
 20
1083.982558850012
 30
0.0
 11
2967.114353943058
 21
1065.982558850012
 31
0.0
1001
REVIT
1002
{
1070
     3
1000
790271
1002
}
  0
LINE
  5
2B5
330
25A
100
AcDbEntity
  8
M-PIPE
100
AcDbLine
 10
2959.792023472722
 20
1083.982558850012
 30
0.0
 11
2959.792023472722
 21
1065.982558850012
 31
0.0
1001
REVIT
1002
{
1070
     3
1000
790271
1002
}
  0
LINE
  5
2B6
330
25A
100
AcDbEntity
  8
M-PIPE
100
AcDbLine
 10
2942.114353943058
 20
1083.982558850012
 30
0.0
 11
2942.114353943058
 21
1065.982558850012
 31
0.0
1001
REVIT
1002
{
1070
     3
1000
790271
1002
}
  0
LINE
  5
2B7
330
25A
100
AcDbEntity
  8
M-PIPE
100
AcDbLine
 10
2924.436684413394
 20
1083.982558850012
 30
0.0
 11
2924.436684413394
 21
1065.982558850012
 31
0.0
1001
REVIT
1002
{
1070
     3
1000
790271
1002
}
  0
LINE
  5
2B8
330
25A
100
AcDbEntity
  8
M-PIPE
100
AcDbLine
 10
2917.114353943058
 20
1083.982558850012
 30
0.0
 11
2917.114353943058
 21
1065.982558850012
 31
0.0
1001
REVIT
1002
{
1070
     3
1000
790271
1002
}
  0
LINE
  5
2B9
330
25A
100
AcDbEntity
  8
M-PIPE
100
AcDbLine
 10
2914.114353943061
 20
1129.982558850012
 30
0.0
 11
2914.11435394306
 21
1083.982558850012
 31
0.0
1001
REVIT
1002
{
1070
     3
1000
790271
1002
}
  0
LINE
  5
2BA
330
25A
100
AcDbEntity
  8
M-PIPE
100
AcDbLine
 10
2970.114353943085
 20
1083.982558850011
 30
0.0
 11
2970.114353943085
 21
1096.572387805587
 31
0.0
1001
REVIT
1002
{
1070
     3
1000
790271
1002
}
  0
LINE
  5
2BB
330
25A
100
AcDbEntity
  8
M-PIPE
100
AcDbLine
 10
2970.114353943085
 20
1117.392729894437
 30
0.0
 11
2970.114353943085
 21
1129.982558850012
 31
0.0
1001
REVIT
1002
{
1070
     3
1000
790271
1002
}
  0
LINE
  5
2BC
330
25A
100
AcDbEntity
  8
M-PIPE
100
AcDbLine
 10
2970.114353943083
 20
1129.982558850012
 30
0.0
 11
2914.114353943057
 21
1129.982558850012
 31
0.0
1001
REVIT
1002
{
1070
     3
1000
790271
1002
}
  0
LINE
  5
2BD
330
25A
100
AcDbEntity
  8
M-PIPE
100
AcDbLine
 10
2914.114353943057
 20
1083.982558850012
 30
0.0
 11
2970.114353943082
 21
1083.982558850012
 31
0.0
1001
REVIT
1002
{
1070
     3
1000
790271
1002
}
  0
LINE
  5
2BE
330
25A
100
AcDbEntity
  8
M-PIPE
100
AcDbLine
 10
2917.114353943058
 20
1147.982558850012
 30
0.0
 11
2924.436684413394
 21
1147.982558850013
 31
0.0
1001
REVIT
1002
{
1070
     3
1000
790271
1002
}
  0
LINE
  5
2BF
330
25A
100
AcDbEntity
  8
M-PIPE
100
AcDbLine
 10
2924.436684413394
 20
1147.982558850013
 30
0.0
 11
2942.114353943058
 21
1147.982558850013
 31
0.0
1001
REVIT
1002
{
1070
     3
1000
790271
1002
}
  0
LINE
  5
2C0
330
25A
100
AcDbEntity
  8
M-PIPE
100
AcDbLine
 10
2942.114353943058
 20
1147.982558850013
 30
0.0
 11
2959.792023472722
 21
1147.982558850013
 31
0.0
1001
REVIT
1002
{
1070
     3
1000
790271
1002
}
  0
LINE
  5
2C1
330
25A
100
AcDbEntity
  8
M-PIPE
100
AcDbLine
 10
2959.792023472722
 20
1147.982558850013
 30
0.0
 11
2967.114353943058
 21
1147.982558850013
 31
0.0
1001
REVIT
1002
{
1070
     3
1000
790271
1002
}
  0
LINE
  5
2C2
330
25A
100
AcDbEntity
  8
M-PIPE
100
AcDbLine
 10
2967.114353943058
 20
1147.982558850013
 30
0.0
 11
2967.114353943058
 21
1129.982558850012
 31
0.0
1001
REVIT
1002
{
1070
     3
1000
790271
1002
}
  0
LINE
  5
2C3
330
25A
100
AcDbEntity
  8
M-PIPE
100
AcDbLine
 10
2959.792023472722
 20
1147.982558850013
 30
0.0
 11
2959.792023472722
 21
1129.982558850012
 31
0.0
1001
REVIT
1002
{
1070
     3
1000
790271
1002
}
  0
LINE
  5
2C4
330
25A
100
AcDbEntity
  8
M-PIPE
100
AcDbLine
 10
2942.114353943058
 20
1147.982558850013
 30
0.0
 11
2942.114353943058
 21
1129.982558850012
 31
0.0
1001
REVIT
1002
{
1070
     3
1000
790271
1002
}
  0
LINE
  5
2C5
330
25A
100
AcDbEntity
  8
M-PIPE
100
AcDbLine
 10
2924.436684413394
 20
1147.982558850013
 30
0.0
 11
2924.436684413394
 21
1129.982558850012
 31
0.0
1001
REVIT
1002
{
1070
     3
1000
790271
1002
}
  0
LINE
  5
2C6
330
25A
100
AcDbEntity
  8
M-PIPE
100
AcDbLine
 10
2917.114353943058
 20
1147.982558850013
 30
0.0
 11
2917.114353943058
 21
1129.982558850012
 31
0.0
1001
REVIT
1002
{
1070
     3
1000
790271
1002
}
  0
LWPOLYLINE
  5
2C7
330
25A
100
AcDbEntity
  8
P-SANR-FIXT
100
AcDbPolyline
 90
       37
 70
   128
 43
0.0
 10
2700.969280453343
 20
1361.361915847691
 10
2701.032362494358
 20
1361.756883344968
 10
2701.111188563711
 20
1362.149012301556
 10
2701.205632556506
 20
1362.537675394773
 10
2701.3155433825
 20
1362.922250846583
 10
2701.440745207819
 20
1363.302123418297
 10
2701.581037736251
 20
1363.676685394838
 10
2701.736196529677
 20
1364.045337556947
 10
2701.905973367127
 20
1364.407490139803
 10
2702.090096641878
 20
1364.762563776531
 10
2702.288271795968
 20
1365.109990425057
 10
2702.500181791426
 20
1365.449214276857
 10
2702.725487617462
 20
1365.779692646131
 10
2702.963828832821
 20
1366.100896837987
 10
2703.214824142398
 20
1366.412312994238
 10
2703.478072007244
 20
1366.713442915467
 10
2703.753151286929
 20
1367.003804858035
 10
2704.039621913287
 20
1367.282934304777
 10
2704.337025594426
 20
1367.550384708122
 10
2704.6448865479
 20
1367.805728204477
 10
2704.962712261855
 20
1368.048556298719
 10
2705.28999428295
 20
1368.278480517697
 10
2705.626209029765
 20
1368.495133031709
 10
2705.97081863043
 20
1368.698167242949
 10
2706.323271783096
 20
1368.887258339992
 10
2706.683004637903
 20
1369.062103817418
 10
2707.049441699024
 20
1369.222423959763
 10
2707.42199674533
 20
1369.367962288998
 10
2707.800073768221
 20
1369.498485974843
 10
2708.183067925111
 20
1369.613786207245
 10
2708.570366507053
 20
1369.713678530428
 10
2708.961349918932
 20
1369.798003137983
 10
2709.355392670696
 20
1369.866625128527
 10
2709.751864378001
 20
1369.919434721515
 10
2710.15013077069
 20
1369.956347432861
 10
2710.549554707494
 20
1369.977304210103
 10
2710.873692312355
 20
1369.982558850009
  0
LWPOLYLINE
  5
2C8
330
25A
100
AcDbEntity
  8
P-SANR-FIXT
100
AcDbPolyline
 90
       31
 70
   128
 43
0.0
 10
2838.666540642352
 20
1369.98255885001
 10
2835.109836506172
 20
1369.98255885001
 10
2827.353533524974
 20
1369.98255885001
 10
2819.757107802335
 20
1369.98255885001
 10
2812.332711998927
 20
1369.98255885001
 10
2805.092223564249
 20
1369.98255885001
 10
2798.047225735241
 20
1369.98255885001
 10
2791.208989005576
 20
1369.98255885001
 10
2784.588453095278
 20
1369.98255885001
 10
2778.196209449494
 20
1369.98255885001
 10
2772.042484294455
 20
1369.98255885001
 10
2766.137122277682
 20
1369.98255885001
 10
2760.48957071866
 20
1369.98255885001
 10
2755.108864495135
 20
1369.98255885001
 10
2750.003611589245
 20
1369.98255885001
 10
2745.181979316572
 20
1369.98255885001
 10
2740.651681260196
 20
1369.98255885001
 10
2736.419964930594
 20
1369.98255885001
 10
2732.493600171176
 20
1369.98255885001
 10
2728.878868327976
 20
1369.98255885001
 10
2725.581552200841
 20
1369.98255885001
 10
2722.606926792188
 20
1369.982558850009
 10
2719.959750868115
 20
1369.982558850009
 10
2717.6442593454
 20
1369.982558850009
 10
2715.664156516535
 20
1369.982558850009
 10
2714.022610123646
 20
1369.982558850009
 10
2712.722246290784
 20
1369.982558850009
 10
2711.765145322685
 20
1369.982558850009
 10
2711.152838376728
 20
1369.982558850009
 10
2710.886305013408
 20
1369.982558850009
 10
2710.873692312355
 20
1369.982558850009
  0
LWPOLYLINE
  5
2C9
330
25A
100
AcDbEntity
  8
P-SANR-FIXT
100
AcDbPolyline
 90
        3
 70
   128
 43
0.0
 10
2710.873692312355
 20
1369.982558850009
 10
2711.046802390751
 20
1369.982558850009
 10
2711.129038910858
 20
1369.982558850009
  0
LWPOLYLINE
  5
2CA
330
25A
100
AcDbEntity
  8
P-SANR-FIXT
100
AcDbPolyline
 90
       18
 70
   128
 43
0.0
 10
2739.355964969512
 20
1160.055227502247
 10
2733.288689988086
 20
1171.288380356038
 10
2727.675474482945
 20
1182.75517417252
 10
2722.525298401473
 20
1194.437264527705
 10
2717.846400926756
 20
1206.315962569071
 10
2713.646267296641
 20
1218.372264913739
 10
2709.931616828955
 20
1230.586884049832
 10
2706.708392172032
 20
1242.940279192377
 10
2703.981749797736
 20
1255.412687544398
 10
2701.756051752215
 20
1267.98415591317
 10
2700.034858677549
 20
1280.634572631073
 10
2698.820924115493
 20
1293.343699729971
 10
2698.116190102385
 20
1306.091205317639
 10
2697.921784062311
 20
1318.856696104461
 10
2698.238017003463
 20
1331.619750028339
 10
2699.064383020597
 20
1344.359948925632
 10
2700.399560104366
 20
1357.05691119587
 10
2700.969280453343
 20
1361.361915847691
  0
LWPOLYLINE
  5
2CB
330
25A
100
AcDbEntity
  8
P-SANR-FIXT
100
AcDbPolyline
 90
       28
 70
   128
 43
0.0
 10
2748.057769712744
 20
1154.982558850009
 10
2747.657876370878
 20
1154.9905577834
 10
2747.258622773052
 20
1155.014541786983
 10
2746.860647639856
 20
1155.054472491471
 10
2746.464587646602
 20
1155.110286016253
 10
2746.071076404794
 20
1155.181893071597
 10
2745.680743448473
 20
1155.269179101489
 10
2745.294213227103
 20
1155.372004466902
 10
2744.912104106583
 20
1155.490204669185
 10
2744.535027379993
 20
1155.62359061323
 10
2744.163586289658
 20
1155.77194890998
 10
2743.798375062084
 20
1155.93504221781
 10
2743.43997795733
 20
1156.112609622216
 10
2743.088968334307
 20
1156.304367053233
 10
2742.745907733536
 20
1156.510007739875
 10
2742.411344978795
 20
1156.729202700912
 10
2742.08581529912
 20
1156.961601271167
 10
2741.76983947256
 20
1157.2068316625
 10
2741.463922993029
 20
1157.464501558601
 10
2741.168555261639
 20
1157.734198742601
 10
2740.88420880375
 20
1158.015491756538
 10
2740.611338513036
 20
1158.307930591596
 10
2740.350380923755
 20
1158.611047408024
 10
2740.101753512381
 20
1158.924357283575
 10
2739.865854029734
 20
1159.247358989285
 10
2739.643059864666
 20
1159.579535791328
 10
2739.433727440311
 20
1159.920356277682
 10
2739.355964969512
 20
1160.055227502247
  0
LWPOLYLINE
  5
2CC
330
25A
100
AcDbEntity
  8
P-SANR-FIXT
100
AcDbPolyline
 90
       41
 70
   128
 43
0.0
 10
2921.114353943092
 20
1154.982558850009
 10
2920.122760971003
 20
1154.982558850009
 10
2912.966843931118
 20
1154.982558850009
 10
2905.83384111634
 20
1154.982558850009
 10
2898.73516380955
 20
1154.982558850009
 10
2891.682168380131
 20
1154.982558850009
 10
2884.686138116214
 20
1154.982558850009
 10
2877.758265173813
 20
1154.982558850009
 10
2870.909632671769
 20
1154.982558850009
 10
2864.151196961122
 20
1154.982558850009
 10
2857.493770097285
 20
1154.982558850009
 10
2850.948002543066
 20
1154.982558850009
 10
2844.524366130196
 20
1154.982558850009
 10
2838.233137306633
 20
1154.982558850009
 10
2832.084380696436
 20
1154.982558850009
 10
2826.087932998517
 20
1154.982558850009
 10
2820.25338725002
 20
1154.982558850009
 10
2814.590077479504
 20
1154.982558850009
 10
2809.107063774494
 20
1154.982558850009
 10
2803.813117787273
 20
1154.982558850009
 10
2798.716708702104
 20
1154.982558850009
 10
2793.825989686346
 20
1154.982558850009
 10
2789.148784847128
 20
1154.982558850009
 10
2784.692576714443
 20
1154.982558850009
 10
2780.464494270694
 20
1154.982558850009
 10
2776.47130154585
 20
1154.982558850009
 10
2772.719386796434
 20
1154.982558850009
 10
2769.214752285682
 20
1154.982558850009
 10
2765.963004681191
 20
1154.982558850009
 10
2762.969346085462
 20
1154.982558850009
 10
2760.238565713635
 20
1154.982558850009
 10
2757.77503223177
 20
1154.982558850009
 10
2755.58268676791
 20
1154.982558850009
 10
2753.665036607124
 20
1154.982558850009
 10
2752.02514958059
 20
1154.982558850009
 10
2750.665649157729
 20
1154.982558850009
 10
2749.588710249205
 20
1154.982558850009
 10
2748.796055727538
 20
1154.982558850009
 10
2748.288953670871
 20
1154.982558850009
 10
2748.068215334318
 20
1154.982558850009
 10
2748.057769712744
 20
1154.982558850009
  0
LWPOLYLINE
  5
2CD
330
25A
100
AcDbEntity
  8
P-SANR-FIXT
100
AcDbPolyline
 90
       41
 70
   128
 43
0.0
 10
2748.057769712744
 20
1154.982558850009
 10
2748.20113649531
 20
1154.982558850009
 10
2748.631007486738
 20
1154.982558850009
 10
2749.346694985143
 20
1154.982558850009
 10
2750.3470540432
 20
1154.982558850009
 10
2751.630484299814
 20
1154.982558850009
 10
2753.194932540358
 20
1154.982558850009
 10
2755.037895981379
 20
1154.982558850009
 10
2757.156426274517
 20
1154.982558850009
 10
2759.547134223229
 20
1154.982558850009
 10
2762.20619520479
 20
1154.982558850009
 10
2765.129355288864
 20
1154.982558850009
 10
2768.311938042893
 20
1154.982558850009
 10
2771.748852013382
 20
1154.982558850009
 10
2775.434598871151
 20
1154.982558850009
 10
2779.363282207475
 20
1154.982558850009
 10
2783.528616967094
 20
1154.982558850009
 10
2787.923939502946
 20
1154.98255885001
 10
2792.542218236595
 20
1154.98255885001
 10
2797.376064907246
 20
1154.98255885001
 10
2802.417746391393
 20
1154.98255885001
 10
2807.659197074162
 20
1154.98255885001
 10
2813.092031752577
 20
1154.98255885001
 10
2818.707559050095
 20
1154.98255885001
 10
2824.496795320957
 20
1154.98255885001
 10
2830.450479022099
 20
1154.98255885001
 10
2836.559085529651
 20
1154.98255885001
 10
2842.812842376301
 20
1154.98255885001
 10
2849.201744885158
 20
1154.98255885001
 10
2855.715572175102
 20
1154.98255885001
 10
2862.34390351201
 20
1154.98255885001
 10
2869.076134979712
 20
1154.98255885001
 10
2875.901496443992
 20
1154.98255885001
 10
2882.809068782507
 20
1154.98255885001
 10
2889.787801353053
 20
1154.98255885001
 10
2896.826529672234
 20
1154.98255885001
 10
2903.913993276252
 20
1154.98255885001
 10
2911.038853735256
 20
1154.98255885001
 10
2918.189712792398
 20
1154.98255885001
 10
2925.355130598623
 20
1154.98255885001
 10
2927.290144295247
 20
1154.98255885001
  0
LWPOLYLINE
  5
2CE
330
25A
100
AcDbEntity
  8
P-SANR-FIXT
100
AcDbPolyline
 90
        4
 70
   128
 43
0.0
 10
2927.290144295248
 20
1154.98255885001
 10
2934.457527619492
 20
1154.98255885001
 10
2941.613444659377
 20
1154.98255885001
 10
2943.288637846428
 20
1154.98255885001
  0
SPLINE
  5
2CF
330
25A
100
AcDbEntity
  8
P-SANR-FIXT
100
AcDbSpline
210
0.0
220
0.0
230
1.0
 70
    24
 71
     3
 72
    11
 73
     7
 74
     0
 42
0.000000001
 43
0.0000000001
 40
0.2227093317101784
 40
0.2227093317101784
 40
0.2227093317101784
 40
0.2227093317101784
 40
0.2857142857142857
 40
0.5714285714285714
 40
0.7857142857142857
 40
1.0
 40
1.0
 40
1.0
 40
1.0
 10
2943.288637846425
 20
1315.030901750034
 30
0.0
 10
2943.288637846425
 20
1310.64750803476
 30
0.0
 10
2943.288637846425
 20
1286.385674931861
 30
0.0
 10
2943.288637846425
 20
1247.464212404402
 30
0.0
 10
2943.288637846425
 20
1199.943058115361
 30
0.0
 10
2943.288637846425
 20
1173.049163664658
 30
0.0
 10
2943.288637846425
 20
1160.055227502247
 30
0.0
  0
SPLINE
  5
2D0
330
25A
100
AcDbEntity
  8
P-SANR-FIXT
100
AcDbSpline
210
0.0
220
0.0
230
1.0
 70
    24
 71
     3
 72
    10
 73
     6
 74
     0
 42
0.000000001
 43
0.0000000001
 40
0.0
 40
0.0
 40
0.0
 40
0.0
 40
0.4
 40
0.7
 40
1.0
 40
1.0
 40
1.0
 40
1.0
 10
2943.288637846425
 20
1160.055227502247
 30
0.0
 10
2943.288637846425
 20
1158.810945558158
 30
0.0
 10
2943.288637846425
 20
1156.949699624658
 30
0.0
 10
2943.288637846425
 20
1155.316838693337
 30
0.0
 10
2943.288637846425
 20
1154.984900605407
 30
0.0
 10
2943.288637846425
 20
1154.98255885001
 30
0.0
  0
LWPOLYLINE
  5
2D1
330
25A
100
AcDbEntity
  8
P-SANR-FIXT
100
AcDbPolyline
 90
       38
 70
   128
 43
0.0
 10
2702.290144295246
 20
2059.842558850013
 10
2702.298143228636
 20
2060.242452191879
 10
2702.322127232219
 20
2060.641705789705
 10
2702.362057936707
 20
2061.039680922903
 10
2702.417871461489
 20
2061.435740916156
 10
2702.489478516833
 20
2061.829252157964
 10
2702.576764546726
 20
2062.219585114284
 10
2702.679589912138
 20
2062.606115335654
 10
2702.797790114421
 20
2062.988224456175
 10
2702.931176058466
 20
2063.365301182765
 10
2703.079534355217
 20
2063.7367422731
 10
2703.242627663046
 20
2064.101953500673
 10
2703.420195067453
 20
2064.460350605428
 10
2703.611952498469
 20
2064.811360228451
 10
2703.817593185112
 20
2065.154420829222
 10
2704.036788146149
 20
2065.488983583964
 10
2704.269186716402
 20
2065.814513263637
 10
2704.514417107736
 20
2066.130489090197
 10
2704.772087003837
 20
2066.436405569728
 10
2705.041784187837
 20
2066.731773301119
 10
2705.323077201774
 20
2067.016119759008
 10
2705.615516036832
 20
2067.288990049722
 10
2705.91863285326
 20
2067.549947639003
 10
2706.231942728811
 20
2067.798575050377
 10
2706.554944434521
 20
2068.034474533023
 10
2706.887121236564
 20
2068.257268698092
 10
2707.227941722918
 20
2068.466601122447
 10
2707.576860653509
 20
2068.662136918863
 10
2707.933319832479
 20
2068.843563271778
 10
2708.296749001183
 20
2069.010589937731
 10
2708.666566750479
 20
2069.162949709685
 10
2709.042181450858
 20
2069.300398844509
 10
2709.422992198926
 20
2069.422717452905
 10
2709.808389778722
 20
2069.529709851196
 10
2710.197757636331
 20
2069.621204874366
 10
2710.590472866243
 20
2069.697056149898
 10
2710.985907207864
 20
2069.75714233193
 10
2711.214366315512
 20
2069.782558850013
  0
LWPOLYLINE
  5
2D2
330
25A
100
AcDbEntity
  8
P-SANR-FIXT
100
AcDbPolyline
 90
        3
 70
   128
 43
0.0
 10
2712.335887583978
 20
2069.842558850013
 10
2712.302674445803
 20
2069.842558850013
 10
2712.290144295245
 20
2069.842558850013
  0
LINE
  5
2D3
330
25A
100
AcDbEntity
  8
P-SANR-FIXT
100
AcDbLine
 10
2702.290144295245
 20
2059.842558850013
 30
0.0
 11
2702.290144295245
 21
1379.842558850012
 31
0.0
  0
LWPOLYLINE
  5
2D4
330
25A
100
AcDbEntity
  8
P-SANR-FIXT
100
AcDbPolyline
 90
       38
 70
   128
 43
0.0
 10
2710.767506726864
 20
1369.96034475195
 10
2710.696962229102
 20
1369.970286016256
 10
2710.303450987293
 20
1370.0418930716
 10
2709.913118030972
 20
1370.129179101492
 10
2709.526587809603
 20
1370.232004466904
 10
2709.144478689083
 20
1370.350204669188
 10
2708.767401962493
 20
1370.483590613233
 10
2708.395960872158
 20
1370.631948909983
 10
2708.030749644584
 20
1370.795042217812
 10
2707.672352539829
 20
1370.972609622219
 10
2707.321342916807
 20
1371.164367053236
 10
2706.978282316035
 20
1371.370007739878
 10
2706.643719561294
 20
1371.589202700916
 10
2706.31818988162
 20
1371.821601271169
 10
2706.00221405506
 20
1372.066831662503
 10
2705.696297575529
 20
1372.324501558603
 10
2705.400929844139
 20
1372.594198742604
 10
2705.116583386249
 20
1372.875491756541
 10
2704.843713095535
 20
1373.167930591599
 10
2704.582755506255
 20
1373.471047408026
 10
2704.33412809488
 20
1373.784357283577
 10
2704.098228612234
 20
1374.107358989288
 10
2703.875434447165
 20
1374.439535791331
 10
2703.66610202281
 20
1374.780356277685
 10
2703.470566226395
 20
1375.129275208275
 10
2703.289139873479
 20
1375.485734387245
 10
2703.122113207527
 20
1375.849163555949
 10
2702.969753435572
 20
1376.218981305246
 10
2702.832304300749
 20
1376.594596005625
 10
2702.709985692351
 20
1376.975406753693
 10
2702.602993294062
 20
1377.360804333489
 10
2702.511498270891
 20
1377.750172191098
 10
2702.435646995359
 20
1378.14288742101
 10
2702.375560813327
 20
1378.538321762631
 10
2702.331335849868
 20
1378.935842605369
 10
2702.303042855489
 20
1379.334814000676
 10
2702.290727092944
 20
1379.73459767943
 10
2702.290144295244
 20
1379.842558850012
  0
LWPOLYLINE
  5
2D5
330
25A
100
AcDbEntity
  8
P-SANR-FIXT
100
AcDbPolyline
 90
        3
 70
   128
 43
0.0
 10
2712.415877733356
 20
1369.842558850012
 10
2712.302674445802
 20
1369.842558850012
 10
2712.290144295244
 20
1369.842558850012
  0
LINE
  5
2D6
330
25A
100
AcDbEntity
  8
P-SANR-FIXT
100
AcDbLine
 10
2943.288637846427
 20
1875.028696590234
 30
0.0
 11
2943.288637846427
 21
1564.936421109791
 31
0.0
  0
LWPOLYLINE
  5
2D7
330
25A
100
AcDbEntity
  8
P-SANR-FIXT
100
AcDbPolyline
 90
       40
 70
   128
 43
0.0
 10
2704.343758277795
 20
2069.782558850013
 10
2703.943864935929
 20
2069.790557783403
 10
2703.544611338103
 20
2069.814541786986
 10
2703.146636204906
 20
2069.854472491474
 10
2702.750576211653
 20
2069.910286016256
 10
2702.357064969845
 20
2069.9818930716
 10
2701.966732013524
 20
2070.069179101492
 10
2701.580201792154
 20
2070.172004466904
 10
2701.198092671635
 20
2070.290204669188
 10
2700.821015945044
 20
2070.423590613233
 10
2700.449574854709
 20
2070.571948909984
 10
2700.084363627135
 20
2070.735042217813
 10
2699.72596652238
 20
2070.91260962222
 10
2699.374956899359
 20
2071.104367053236
 10
2699.031896298587
 20
2071.310007739878
 10
2698.697333543845
 20
2071.529202700916
 10
2698.371803864171
 20
2071.761601271169
 10
2698.055828037611
 20
2072.006831662503
 10
2697.74991155808
 20
2072.264501558604
 10
2697.45454382669
 20
2072.534198742603
 10
2697.1701973688
 20
2072.815491756541
 10
2696.897327078087
 20
2073.107930591599
 10
2696.636369488806
 20
2073.411047408027
 10
2696.387742077431
 20
2073.724357283578
 10
2696.151842594785
 20
2074.047358989288
 10
2695.929048429717
 20
2074.379535791331
 10
2695.719716005362
 20
2074.720356277685
 10
2695.524180208945
 20
2075.069275208275
 10
2695.34275385603
 20
2075.425734387246
 10
2695.175727190078
 20
2075.78916355595
 10
2695.023367418123
 20
2076.158981305246
 10
2694.8859182833
 20
2076.534596005625
 10
2694.763599674903
 20
2076.915406753693
 10
2694.656607276613
 20
2077.300804333489
 10
2694.565112253442
 20
2077.690172191099
 10
2694.48926097791
 20
2078.08288742101
 10
2694.429174795879
 20
2078.478321762631
 10
2694.384949832419
 20
2078.87584260537
 10
2694.356656838039
 20
2079.274814000676
 10
2694.344634164573
 20
2079.650207165535
  0
LWPOLYLINE
  5
2D8
330
25A
100
AcDbEntity
  8
P-SANR-FIXT
100
AcDbPolyline
 90
        9
 70
   128
 43
0.0
 10
2711.375517444466
 20
2069.782558850012
 10
2711.318613643346
 20
2069.782558850012
 10
2709.278765167901
 20
2069.782558850013
 10
2707.587688392446
 20
2069.782558850013
 10
2706.248088679078
 20
2069.782558850013
 10
2705.262109101572
 20
2069.782558850013
 10
2704.631327016922
 20
2069.782558850013
 10
2704.356751541903
 20
2069.782558850013
 10
2704.343758277795
 20
2069.782558850013
  0
LWPOLYLINE
  5
2D9
330
25A
100
AcDbEntity
  8
P-SANR-FIXT
100
AcDbPolyline
 90
       31
 70
   128
 43
0.0
 10
2704.343758277795
 20
2069.782558850013
 10
2704.52209160693
 20
2069.782558850013
 10
2705.056806299048
 20
2069.782558850013
 10
2705.947046924711
 20
2069.782558850013
 10
2707.191389288824
 20
2069.782558850013
 10
2708.787842709051
 20
2069.782558850013
 10
2710.733853200476
 20
2069.782558850013
 10
2713.026307561443
 20
2069.782558850013
 10
2715.661538354002
 20
2069.782558850013
 10
2718.635329771039
 20
2069.782558850013
 10
2721.942924380662
 20
2069.782558850013
 10
2725.579030737078
 20
2069.782558850013
 10
2729.537831845777
 20
2069.782558850013
 10
2733.812994469485
 20
2069.782558850013
 10
2738.397679259991
 20
2069.782558850013
 10
2743.284551699643
 20
2069.782558850013
 10
2748.465793835015
 20
2069.782558850013
 10
2753.933116783964
 20
2069.782558850013
 10
2759.677773996069
 20
2069.782558850013
 10
2765.690575245255
 20
2069.782558850013
 10
2771.961901332185
 20
2069.782558850013
 10
2778.481719472931
 20
2069.782558850013
 10
2785.239599349289
 20
2069.782558850013
 10
2792.224729795061
 20
2069.782558850013
 10
2799.425936091614
 20
2069.782558850013
 10
2806.831697845049
 20
2069.782558850013
 10
2814.430167416374
 20
2069.782558850013
 10
2822.209188875195
 20
2069.782558850013
 10
2830.156317446612
 20
2069.782558850013
 10
2838.258839420208
 20
2069.782558850013
 10
2838.532904914766
 20
2069.782558850013
  0
LWPOLYLINE
  5
2DA
330
25A
100
AcDbEntity
  8
P-SANR-FIXT
100
AcDbPolyline
 90
       16
 70
   128
 43
0.0
 10
2694.344634164573
 20
2079.650207165535
 10
2694.429750108827
 20
2092.232857254131
 10
2695.017969768751
 20
2104.802038834794
 10
2696.108352118368
 20
2117.337643898278
 10
2697.699152778523
 20
2129.8196181506
 10
2699.78782680751
 20
2142.227993095639
 10
2702.371032772445
 20
2154.542917980457
 10
2705.444638094836
 20
2166.744691552285
 10
2709.003725661838
 20
2178.813793576314
 10
2713.042601692573
 20
2190.73091606391
 10
2717.554804846973
 20
2202.476994161275
 10
2722.533116562544
 20
2214.033236649152
 10
2727.969572602523
 20
2225.38115600476
 10
2733.855475796963
 20
2236.502597977889
 10
2740.181409956344
 20
2247.379770633832
 10
2744.532153430437
 20
2254.322599744186
  0
LWPOLYLINE
  5
2DB
330
25A
100
AcDbEntity
  8
P-SANR-FIXT
100
AcDbPolyline
 90
       26
 70
   128
 43
0.0
 10
2744.532153430436
 20
2254.322599744186
 10
2745.426003222359
 20
2255.649510153501
 10
2746.372200293582
 20
2256.939614717977
 10
2747.369230930633
 20
2258.190849545517
 10
2748.415500097185
 20
2259.401212927314
 10
2749.509333985761
 20
2260.568768540154
 10
2750.648982695478
 20
2261.691648544121
 10
2751.832623031515
 20
2262.768056570745
 10
2753.058361421828
 20
2263.796270596802
 10
2754.324236946471
 20
2264.774645699194
 10
2755.628224474643
 20
2265.701616686465
 10
2756.968237904468
 20
2266.575700602778
 10
2758.342133500315
 20
2267.39549910033
 10
2759.747713322309
 20
2268.159700676403
 10
2761.182728742577
 20
2268.867082771499
 10
2762.644884042568
 20
2269.516513725164
 10
2764.131840085711
 20
2270.106954586412
 10
2765.641218059537
 20
2270.637460775817
 10
2767.170603281273
 20
2271.107183596646
 10
2768.717549060815
 20
2271.515371592587
 10
2770.279580614912
 20
2271.861371749922
 10
2771.854199026293
 20
2272.144630542211
 10
2773.438885241403
 20
2272.364694815808
 10
2775.031104100343
 20
2272.521212514821
 10
2776.628308392596
 20
2272.613933244322
 10
2778.147415406636
 20
2272.642789729532
  0
LWPOLYLINE
  5
2DC
330
25A
100
AcDbEntity
  8
P-SANR-FIXT
100
AcDbPolyline
 90
       41
 70
   128
 43
0.0
 10
2927.290144295247
 20
2272.642789729532
 10
2921.326025868213
 20
2272.642789729532
 10
2915.371448758385
 20
2272.642789729532
 10
2909.435939018898
 20
2272.642789729532
 10
2903.528992199158
 20
2272.642789729532
 10
2897.660058153997
 20
2272.642789729532
 10
2891.838525925913
 20
2272.642789729532
 10
2886.073708724613
 20
2272.642789729532
 10
2880.374829027854
 20
2272.642789729532
 10
2874.751003827456
 20
2272.642789729532
 10
2869.211230044055
 20
2272.642789729532
 10
2863.764370133948
 20
2272.642789729532
 10
2858.419137911056
 20
2272.642789729532
 10
2853.184084606682
 20
2272.642789729532
 10
2848.06758518936
 20
2272.642789729532
 10
2843.077824966695
 20
2272.642789729532
 10
2838.22278649062
 20
2272.642789729532
 10
2833.51023678701
 20
2272.642789729532
 10
2828.947714930099
 20
2272.642789729532
 10
2824.542519981573
 20
2272.642789729532
 10
2820.301699313625
 20
2272.642789729532
 10
2816.232037334663
 20
2272.642789729532
 10
2812.340044635705
 20
2272.642789729532
 10
2808.631947574823
 20
2272.642789729532
 10
2805.113678316294
 20
2272.642789729532
 10
2801.790865340409
 20
2272.642789729532
 10
2798.668824439101
 20
2272.642789729532
 10
2795.752550211811
 20
2272.642789729532
 10
2793.046708075197
 20
2272.642789729532
 10
2790.555626799463
 20
2272.642789729532
 10
2788.283291583248
 20
2272.642789729532
 10
2786.233337678158
 20
2272.642789729532
 10
2784.409044573142
 20
2272.642789729532
 10
2782.813330748004
 20
2272.642789729532
 10
2781.448749004467
 20
2272.642789729532
 10
2780.317482382223
 20
2272.642789729532
 10
2779.421340666544
 20
2272.642789729532
 10
2778.761757493008
 20
2272.642789729532
 10
2778.339788053991
 20
2272.642789729532
 10
2778.156107410578
 20
2272.642789729532
 10
2778.147415406636
 20
2272.642789729532
  0
LWPOLYLINE
  5
2DD
330
25A
100
AcDbEntity
  8
P-SANR-FIXT
100
AcDbPolyline
 90
       41
 70
   128
 43
0.0
 10
2778.147415406636
 20
2272.642789729532
 10
2778.266713682037
 20
2272.642789729532
 10
2778.62441765645
 20
2272.642789729532
 10
2779.219955079821
 20
2272.642789729532
 10
2780.052373219315
 20
2272.642789729532
 10
2781.120340383481
 20
2272.642789729532
 10
2782.422148052678
 20
2272.642789729532
 10
2783.955713612338
 20
2272.642789729532
 10
2785.71858368471
 20
2272.642789729532
 10
2787.707938053736
 20
2272.642789729532
 10
2789.9205941768
 20
2272.642789729532
 10
2792.353012276111
 20
2272.642789729532
 10
2795.001301001601
 20
2272.642789729532
 10
2797.861223656247
 20
2272.642789729532
 10
2800.928204973883
 20
2272.642789729532
 10
2804.197338438658
 20
2272.642789729532
 10
2807.663394134405
 20
2272.642789729532
 10
2811.320827111397
 20
2272.642789729532
 10
2815.163786257082
 20
2272.642789729532
 10
2819.186123656614
 20
2272.642789729532
 10
2823.381404428206
 20
2272.642789729532
 10
2827.742917017571
 20
2272.642789729532
 10
2832.26368393497
 20
2272.642789729532
 10
2836.936472917715
 20
2272.642789729532
 10
2841.753808500242
 20
2272.642789729532
 10
2846.707983973264
 20
2272.642789729532
 10
2851.791073712856
 20
2272.642789729532
 10
2856.994945859771
 20
2272.642789729532
 10
2862.311275328672
 20
2272.642789729531
 10
2867.731557126501
 20
2272.642789729531
 10
2873.247119958647
 20
2272.642789729531
 10
2878.849140101167
 20
2272.642789729531
 10
2884.528655516867
 20
2272.642789729531
 10
2890.276580192649
 20
2272.642789729531
 10
2896.083718675189
 20
2272.642789729531
 10
2901.940780781705
 20
2272.642789729531
 10
2907.838396462267
 20
2272.642789729531
 10
2913.767130789878
 20
2272.642789729531
 10
2919.717499054339
 20
2272.642789729531
 10
2925.679981935776
 20
2272.642789729531
 10
2927.290144295247
 20
2272.642789729531
  0
LWPOLYLINE
  5
2DE
330
25A
100
AcDbEntity
  8
P-SANR-FIXT
100
AcDbPolyline
 90
        4
 70
   128
 43
0.0
 10
2943.288637846428
 20
2272.642789729532
 10
2937.346135528917
 20
2272.642789729532
 10
2931.387545770597
 20
2272.642789729532
 10
2927.290144295247
 20
2272.642789729532
  0
LINE
  5
2DF
330
25A
100
AcDbEntity
  8
P-SANR-FIXT
100
AcDbLine
 10
2927.290144295248
 20
2272.642789729531
 30
0.0
 11
2929.114353943095
 21
2272.642789729531
 31
0.0
  0
SPLINE
  5
2E0
330
25A
100
AcDbEntity
  8
P-SANR-FIXT
100
AcDbSpline
210
0.0
220
0.0
230
1.0
 70
    24
 71
     3
 72
    11
 73
     7
 74
     0
 42
0.000000001
 43
0.0000000001
 40
-0.7535397961568644
 40
-0.7535397961568644
 40
-0.7535397961568644
 40
-0.7535397961568644
 40
-0.6666666666666666
 40
-0.3333333333333333
 40
-0.1666666666666666
 40
0.0
 40
0.0
 40
0.0
 40
0.0
 10
2943.288637846425
 20
2124.981931415863
 30
0.0
 10
2943.288637846425
 20
2130.277194163242
 30
0.0
 10
2943.288637846425
 20
2155.81182363707
 30
0.0
 10
2943.288637846425
 20
2190.629083346581
 30
0.0
 10
2943.288637846425
 20
2227.993144904134
 30
0.0
 10
2943.288637846425
 20
2245.695472340135
 30
0.0
 10
2943.288637846425
 20
2254.322599744185
 30
0.0
  0
SPLINE
  5
2E1
330
25A
100
AcDbEntity
  8
P-SANR-FIXT
100
AcDbSpline
210
0.0
220
0.0
230
1.0
 70
    24
 71
     3
 72
    13
 73
     9
 74
     0
 42
0.000000001
 43
0.0000000001
 40
0.0
 40
0.0
 40
0.0
 40
0.0
 40
0.25
 40
0.375
 40
0.5
 40
0.625
 40
0.75
 40
1.0
 40
1.0
 40
1.0
 40
1.0
 10
2943.288637846426
 20
2272.642789729531
 30
0.0
 10
2943.288637846425
 20
2272.630728910387
 30
0.0
 10
2943.288637846425
 20
2272.025232278775
 30
0.0
 10
2943.288637846425
 20
2269.972004881914
 30
0.0
 10
2943.288637846425
 20
2267.870416599805
 30
0.0
 10
2943.288637846425
 20
2265.204716276498
 30
0.0
 10
2943.288637846425
 20
2260.976455309768
 30
0.0
 10
2943.288637846425
 20
2257.174166265398
 30
0.0
 10
2943.288637846425
 20
2254.322599744185
 30
0.0
  0
LINE
  5
2E2
330
25A
100
AcDbEntity
  8
P-SANR-FIXT
100
AcDbLine
 10
2929.114353943094
 20
2285.982558850012
 30
0.0
 11
2929.114353943094
 21
2272.642789729532
 31
0.0
  0
LINE
  5
2E3
330
25A
100
AcDbEntity
  8
P-SANR-FIXT
100
AcDbLine
 10
2955.114353943094
 20
2219.982558850014
 30
0.0
 11
2955.114353943094
 21
2285.982558850012
 31
0.0
  0
LINE
  5
2E4
330
25A
100
AcDbEntity
  8
P-SANR-FIXT
100
AcDbLine
 10
2921.114353943091
 20
1154.98255885001
 30
0.0
 11
2921.114353943091
 21
1147.982558850012
 31
0.0
  0
LINE
  5
2E5
330
25A
100
AcDbEntity
  8
P-SANR-FIXT
100
AcDbLine
 10
2963.1143539431
 20
1147.982558850012
 30
0.0
 11
2963.114353943099
 21
1207.182558850013
 31
0.0
  0
LWPOLYLINE
  5
2E6
330
25A
100
AcDbEntity
  8
P-SANR-FIXT
100
AcDbPolyline
 90
       41
 70
   128
 43
0.0
 10
3109.774353943094
 20
1277.182558850012
 10
3109.718361409362
 20
1274.383305456948
 10
3109.550473384278
 20
1271.58853027217
 10
3109.270958452865
 20
1268.802704339788
 10
3108.880263779388
 20
1266.030284387015
 10
3108.379014391981
 20
1263.275705694358
 10
3107.768012182736
 20
1260.543375000113
 10
3107.048234624848
 20
1257.837663450525
 10
3106.220833208864
 20
1255.162899606884
 10
3105.28713160055
 20
1252.523362520756
 10
3104.248623523296
 20
1249.923274888407
 10
3103.106970368491
 20
1247.366796295392
 10
3101.863998537643
 20
1244.858016562109
 10
3100.521696520529
 20
1242.400949200951
 10
3099.082211714033
 20
1239.999524995551
 10
3097.547846986771
 20
1237.65758571236
 10
3095.921056994994
 20
1235.378877954645
 10
3094.204444255659
 20
1233.167047168719
 10
3092.400754982956
 20
1231.025631812009
 10
3090.512874694957
 20
1228.958057692274
 10
3088.543823597395
 20
1226.967632487046
 10
3086.496751751985
 20
1225.057540452052
 10
3084.374934036995
 20
1223.230837327085
 10
3082.181764908136
 20
1221.490445447467
 10
3079.920752968166
 20
1219.839149068942
 10
3077.595515353863
 20
1218.27958991346
 10
3075.209771949388
 20
1216.814262942979
 10
3072.767339435255
 20
1215.445512368066
 10
3070.272125182464
 20
1214.175527897657
 10
3067.728121001533
 20
1213.006341235989
 10
3065.139396756461
 20
1211.939822832306
 10
3062.510093853808
 20
1210.977678888545
 10
3059.844418617331
 20
1210.121448629767
 10
3057.14663555876
 20
1209.372501841734
 10
3054.421060555493
 20
1208.73203667954
 10
3051.67205394611
 20
1208.20107775082
 10
3048.904013554764
 20
1207.780474476594
 10
3046.121367655595
 20
1207.470899732378
 10
3043.328567888444
 20
1207.272848771722
 10
3040.530082137172
 20
1207.186638433915
 10
3039.774353943093
 20
1207.182558850013
  0
LWPOLYLINE
  5
2E7
330
25A
100
AcDbEntity
  8
P-SANR-FIXT
100
AcDbPolyline
 90
       41
 70
   128
 43
0.0
 10
2943.288637846428
 20
1207.182558850013
 10
2946.019712319762
 20
1207.182558850013
 10
2949.918822956124
 20
1207.182558850013
 10
2953.80544810693
 20
1207.182558850013
 10
2957.673370001042
 20
1207.182558850013
 10
2961.516400788541
 20
1207.182558850013
 10
2965.328392439969
 20
1207.182558850013
 10
2969.103246581866
 20
1207.182558850013
 10
2972.834924252865
 20
1207.182558850013
 10
2976.51745556474
 20
1207.182558850013
 10
2980.144949252958
 20
1207.182558850013
 10
2983.71160210144
 20
1207.182558850013
 10
2987.211708226476
 20
1207.182558850013
 10
2990.639668204914
 20
1207.182558850013
 10
2993.989998032048
 20
1207.182558850013
 10
2997.257337894854
 20
1207.182558850013
 10
3000.436460746545
 20
1207.182558850013
 10
3003.522280668738
 20
1207.182558850013
 10
3006.509861007829
 20
1207.182558850013
 10
3009.394422272591
 20
1207.182558850013
 10
3012.171349780342
 20
1207.182558850013
 10
3014.836201039449
 20
1207.182558850013
 10
3017.384712856368
 20
1207.182558850013
 10
3019.812808155846
 20
1207.182558850013
 10
3022.11660250337
 20
1207.182558850013
 10
3024.292410319433
 20
1207.182558850013
 10
3026.336750775679
 20
1207.182558850013
 10
3028.246353363478
 20
1207.182558850013
 10
3030.018163126052
 20
1207.182558850013
 10
3031.649345545745
 20
1207.182558850013
 10
3033.137291078653
 20
1207.182558850013
 10
3034.479619329336
 20
1207.182558850013
 10
3035.674182858941
 20
1207.182558850013
 10
3036.719070620645
 20
1207.182558850013
 10
3037.612611016927
 20
1207.182558850013
 10
3038.353374573767
 20
1207.182558850013
 10
3038.940176227495
 20
1207.182558850013
 10
3039.372077220641
 20
1207.182558850013
 10
3039.64838660375
 20
1207.182558850013
 10
3039.768662340753
 20
1207.182558850013
 10
3039.774353943095
 20
1207.182558850013
  0
LWPOLYLINE
  5
2E8
330
25A
100
AcDbEntity
  8
P-SANR-FIXT
100
AcDbPolyline
 90
       35
 70
   128
 43
0.0
 10
3039.774353943095
 20
1207.182558850013
 10
3039.696236359605
 20
1207.182558850013
 10
3039.462008580608
 20
1207.182558850013
 10
3039.072045320583
 20
1207.182558850013
 10
3038.526970437558
 20
1207.182558850013
 10
3037.82765593507
 20
1207.182558850013
 10
3036.975220567143
 20
1207.182558850013
 10
3035.971028048524
 20
1207.182558850013
 10
3034.816684873025
 20
1207.182558850013
 10
3033.514037743482
 20
1207.182558850013
 10
3032.065170617416
 20
1207.182558850013
 10
3030.472401373156
 20
1207.182558850013
 10
3028.738278101719
 20
1207.182558850013
 10
3026.865575030414
 20
1207.182558850013
 10
3024.857288084665
 20
1207.182558850013
 10
3022.716630095175
 20
1207.182558850013
 10
3020.447025658075
 20
1207.182558850013
 10
3018.05210565631
 20
1207.182558850013
 10
3015.535701450995
 20
1207.182558850013
 10
3012.901838752052
 20
1207.182558850013
 10
3010.154731177939
 20
1207.182558850013
 10
3007.298773514757
 20
1207.182558850013
 10
3004.338534685528
 20
1207.182558850013
 10
3001.278750440896
 20
1207.182558850013
 10
2998.124315782931
 20
1207.182558850013
 10
2994.880277134178
 20
1207.182558850013
 10
2991.551824264448
 20
1207.182558850013
 10
2988.144281988303
 20
1207.182558850013
 10
2984.663101646479
 20
1207.182558850013
 10
2981.113852384913
 20
1207.182558850013
 10
2977.502212245287
 20
1207.182558850013
 10
2973.833959081387
 20
1207.182558850013
 10
2970.114961315753
 20
1207.182558850013
 10
2966.351168551467
 20
1207.182558850013
 10
2963.114353943099
 20
1207.182558850013
  0
LINE
  5
2E9
330
25A
100
AcDbEntity
  8
P-SANR-FIXT
100
AcDbLine
 10
3109.774353943096
 20
1277.182558850012
 30
0.0
 11
3109.774353943096
 21
1439.982558850012
 31
0.0
  0
LINE
  5
2EA
330
25A
100
AcDbEntity
  8
P-SANR-FIXT
100
AcDbLine
 10
3109.774353943095
 20
1439.982558850013
 30
0.0
 11
3109.774353943095
 21
1999.982558850012
 31
0.0
  0
LINE
  5
2EB
330
25A
100
AcDbEntity
  8
P-SANR-FIXT
100
AcDbLine
 10
3109.774353943095
 20
1999.982558850013
 30
0.0
 11
3109.774353943095
 21
2149.982558850013
 31
0.0
  0
LWPOLYLINE
  5
2EC
330
25A
100
AcDbEntity
  8
P-SANR-FIXT
100
AcDbPolyline
 90
       41
 70
   128
 43
0.0
 10
3039.774353943095
 20
2219.982558850014
 10
3042.573607336159
 20
2219.926566316282
 10
3045.368382520937
 20
2219.758678291197
 10
3048.15420845332
 20
2219.479163359784
 10
3050.926628406092
 20
2219.088468686308
 10
3053.681207098748
 20
2218.587219298901
 10
3056.413537792994
 20
2217.976217089656
 10
3059.119249342583
 20
2217.256439531768
 10
3061.794013186223
 20
2216.429038115785
 10
3064.433550272351
 20
2215.495336507469
 10
3067.0336379047
 20
2214.456828430216
 10
3069.590116497714
 20
2213.315175275411
 10
3072.098896230999
 20
2212.072203444563
 10
3074.555963592156
 20
2210.729901427449
 10
3076.957387797556
 20
2209.290416620953
 10
3079.299327080747
 20
2207.756051893691
 10
3081.578034838461
 20
2206.129261901914
 10
3083.789865624387
 20
2204.412649162579
 10
3085.931280981097
 20
2202.608959889876
 10
3087.998855100833
 20
2200.721079601877
 10
3089.989280306062
 20
2198.752028504316
 10
3091.899372341055
 20
2196.704956658905
 10
3093.726075466022
 20
2194.583138943914
 10
3095.46646734564
 20
2192.389969815056
 10
3097.117763724165
 20
2190.128957875085
 10
3098.677322879647
 20
2187.803720260784
 10
3100.142649850127
 20
2185.417976856308
 10
3101.511400425041
 20
2182.975544342175
 10
3102.78138489545
 20
2180.480330089384
 10
3103.950571557118
 20
2177.936325908452
 10
3105.0170899608
 20
2175.34760166338
 10
3105.979233904561
 20
2172.718298760727
 10
3106.835464163339
 20
2170.05262352425
 10
3107.584410951373
 20
2167.35484046568
 10
3108.224876113567
 20
2164.629265462413
 10
3108.755835042286
 20
2161.880258853031
 10
3109.176438316513
 20
2159.112218461683
 10
3109.486013060729
 20
2156.329572562515
 10
3109.684064021385
 20
2153.536772795364
 10
3109.770274359192
 20
2150.738287044092
 10
3109.774353943094
 20
2149.982558850013
  0
LWPOLYLINE
  5
2ED
330
25A
100
AcDbEntity
  8
P-SANR-FIXT
100
AcDbPolyline
 90
       38
 70
   128
 43
0.0
 10
2955.114353943094
 20
2219.982558850014
 10
2957.673370001041
 20
2219.982558850014
 10
2961.51640078854
 20
2219.982558850014
 10
2965.328392439969
 20
2219.982558850014
 10
2969.103246581866
 20
2219.982558850014
 10
2972.834924252865
 20
2219.982558850014
 10
2976.51745556474
 20
2219.982558850014
 10
2980.144949252958
 20
2219.982558850014
 10
2983.71160210144
 20
2219.982558850014
 10
2987.211708226476
 20
2219.982558850014
 10
2990.639668204914
 20
2219.982558850014
 10
2993.989998032048
 20
2219.982558850014
 10
2997.257337894854
 20
2219.982558850014
 10
3000.436460746545
 20
2219.982558850014
 10
3003.522280668738
 20
2219.982558850014
 10
3006.509861007829
 20
2219.982558850014
 10
3009.394422272591
 20
2219.982558850014
 10
3012.171349780342
 20
2219.982558850014
 10
3014.836201039449
 20
2219.982558850014
 10
3017.384712856368
 20
2219.982558850014
 10
3019.812808155846
 20
2219.982558850014
 10
3022.11660250337
 20
2219.982558850014
 10
3024.292410319433
 20
2219.982558850014
 10
3026.336750775679
 20
2219.982558850014
 10
3028.246353363478
 20
2219.982558850014
 10
3030.018163126052
 20
2219.982558850014
 10
3031.649345545745
 20
2219.982558850014
 10
3033.137291078653
 20
2219.982558850014
 10
3034.479619329336
 20
2219.982558850014
 10
3035.674182858941
 20
2219.982558850014
 10
3036.719070620645
 20
2219.982558850014
 10
3037.612611016927
 20
2219.982558850014
 10
3038.353374573767
 20
2219.982558850014
 10
3038.940176227495
 20
2219.982558850014
 10
3039.372077220641
 20
2219.982558850014
 10
3039.64838660375
 20
2219.982558850014
 10
3039.768662340753
 20
2219.982558850014
 10
3039.774353943093
 20
2219.982558850014
  0
LWPOLYLINE
  5
2EE
330
25A
100
AcDbEntity
  8
P-SANR-FIXT
100
AcDbPolyline
 90
       40
 70
   128
 43
0.0
 10
3039.774353943093
 20
2219.982558850014
 10
3039.696236359605
 20
2219.982558850014
 10
3039.462008580608
 20
2219.982558850014
 10
3039.072045320582
 20
2219.982558850014
 10
3038.526970437558
 20
2219.982558850014
 10
3037.82765593507
 20
2219.982558850014
 10
3036.975220567143
 20
2219.982558850014
 10
3035.971028048524
 20
2219.982558850014
 10
3034.816684873025
 20
2219.982558850014
 10
3033.514037743481
 20
2219.982558850014
 10
3032.065170617415
 20
2219.982558850014
 10
3030.472401373155
 20
2219.982558850014
 10
3028.738278101718
 20
2219.982558850014
 10
3026.865575030413
 20
2219.982558850014
 10
3024.857288084664
 20
2219.982558850014
 10
3022.716630095173
 20
2219.982558850014
 10
3020.447025658073
 20
2219.982558850014
 10
3018.052105656309
 20
2219.982558850014
 10
3015.535701450993
 20
2219.982558850014
 10
3012.901838752051
 20
2219.982558850014
 10
3010.154731177938
 20
2219.982558850014
 10
3007.298773514755
 20
2219.982558850014
 10
3004.338534685527
 20
2219.982558850014
 10
3001.278750440894
 20
2219.982558850014
 10
2998.124315782929
 20
2219.982558850014
 10
2994.880277134176
 20
2219.982558850014
 10
2991.551824264447
 20
2219.982558850014
 10
2988.144281988301
 20
2219.982558850014
 10
2984.663101646477
 20
2219.982558850014
 10
2981.11385238491
 20
2219.982558850014
 10
2977.502212245286
 20
2219.982558850014
 10
2973.833959081384
 20
2219.982558850014
 10
2970.11496131575
 20
2219.982558850014
 10
2966.351168551464
 20
2219.982558850014
 10
2962.548602054049
 20
2219.982558850014
 10
2958.713345118731
 20
2219.982558850014
 10
2954.85153333846
 20
2219.982558850014
 10
2950.969344788278
 20
2219.982558850014
 10
2947.072990141706
 20
2219.982558850014
 10
2943.288637846428
 20
2219.982558850014
  0
ARC
  5
2EF
330
25A
100
AcDbEntity
  8
P-SANR-FIXT
100
AcDbCircle
 10
2942.114353943092
 20
1439.982558850013
 30
0.0
 40
124.9999999999984
100
AcDbArc
 50
90.0000000000003
 51
269.9999999999999
  0
ARC
  5
2F0
330
25A
100
AcDbEntity
  8
P-SANR-FIXT
100
AcDbCircle
 10
2942.114353943091
 20
1439.982558850011
 30
0.0
 40
63.50000000000193
100
AcDbArc
 50
89.99999999999969
 51
270.0000000000009
  0
ARC
  5
2F1
330
25A
100
AcDbEntity
  8
P-SANR-FIXT
100
AcDbCircle
 10
2942.114353943092
 20
1439.982558850013
 30
0.0
 40
124.9999999999991
100
AcDbArc
 50
270.0000000000001
 51
90.00000000000026
  0
ARC
  5
2F2
330
25A
100
AcDbEntity
  8
P-SANR-FIXT
100
AcDbCircle
 10
2942.114353943091
 20
1439.982558850011
 30
0.0
 40
63.50000000000186
100
AcDbArc
 50
270.0000000000006
 51
89.99999999999804
  0
ARC
  5
2F3
330
25A
100
AcDbEntity
  8
P-SANR-FIXT
100
AcDbCircle
 10
2942.114353943092
 20
1999.982558850012
 30
0.0
 40
124.9999999999988
100
AcDbArc
 50
90.00000000000053
 51
269.9999999999999
  0
ARC
  5
2F4
330
25A
100
AcDbEntity
  8
P-SANR-FIXT
100
AcDbCircle
 10
2942.114353943091
 20
1999.982558850011
 30
0.0
 40
63.50000000000205
100
AcDbArc
 50
90.00000000000019
 51
270.0000000000002
  0
ARC
  5
2F5
330
25A
100
AcDbEntity
  8
P-SANR-FIXT
100
AcDbCircle
 10
2942.114353943092
 20
1999.982558850012
 30
0.0
 40
124.9999999999986
100
AcDbArc
 50
269.9999999999998
 51
90.00000000000021
  0
ARC
  5
2F6
330
25A
100
AcDbEntity
  8
P-SANR-FIXT
100
AcDbCircle
 10
2942.114353943091
 20
1999.982558850011
 30
0.0
 40
63.50000000000182
100
AcDbArc
 50
269.9999999999997
 51
89.99999999999877
  0
ENDBLK
  5
2F8
330
25A
100
AcDbEntity
  8
0
100
AcDbBlockEnd
  0
ENDSEC
  0
SECTION
  2
ENTITIES
  0
INSERT
  5
1A7
330
71
100
AcDbEntity
  8
P-SANR-FIXT
100
AcDbBlockReference
  2
Automatic flow rate regulator valve_Caleffi_121 DN15 - 1_2__-859151-Est - Idraulica
 10
0.0
 20
0.0
 30
0.0
1001
REVIT
1002
{
1070
     1
1000
863131
1002
}
1002
{
1070
     5
1000
859151
1002
}
1002
{
1070
     2
1000
-2001160
1002
}
  0
INSERT
  5
259
330
71
100
AcDbEntity
  8
P-SANR-FIXT
100
AcDbBlockReference
  2
Automatic flow rate regulator valve_Caleffi_121 DN15 - 1_2__-V1-Est - Idraulica
 10
0.0
 20
0.0
 30
0.0
1001
REVIT
1002
{
1070
     1
1000
863152
1002
}
1002
{
1070
     5
1000
859151
1002
}
1002
{
1070
     2
1000
-2001160
1002
}
  0
INSERT
  5
2F9
330
71
100
AcDbEntity
  8
P-SANR-FIXT
100
AcDbBlockReference
  2
Automatic flow rate regulator valve_Caleffi_121 DN15 - 1_2__-V2-Est - Idraulica
 10
0.0
 20
0.0
 30
0.0
1001
REVIT
1002
{
1070
     1
1000
863172
1002
}
1002
{
1070
     5
1000
859151
1002
}
1002
{
1070
     2
1000
-2001160
1002
}
  0
ENDSEC
  0
SECTION
  2
OBJECTS
  0
DICTIONARY
  5
C
330
0
100
AcDbDictionary
281
     1
  3
ACAD_CIP_PREVIOUS_PRODUCT_INFO
350
7A
  3
ACAD_COLOR
350
63
  3
ACAD_DETAILVIEWSTYLE
350
6B
  3
ACAD_GROUP
350
D
  3
ACAD_IMAGE_VARS
350
7B
  3
ACAD_LAYOUT
350
62
  3
ACAD_MATERIAL
350
10
  3
ACAD_MLEADERSTYLE
350
66
  3
ACAD_MLINESTYLE
350
5F
  3
ACAD_PLOTSETTINGS
350
61
  3
ACAD_PLOTSTYLENAME
350
E
  3
ACAD_SCALELIST
350
42
  3
ACAD_SECTIONVIEWSTYLE
350
68
  3
ACAD_TABLESTYLE
350
64
  3
ACAD_VISUALSTYLE
350
29
  3
ACDB_RECOMPOSE_DATA
350
304
  3
AcDbVariableDictionary
350
7C
  3
REVIT_DICTIONARY
350
2FB
  0
DICTIONARY
  5
300
330
71
100
AcDbDictionary
280
     1
281
     1
  3
ACAD_SORTENTS
360
301
  0
XRECORD
  5
7A
102
{ACAD_REACTORS
330
C
102
}
330
C
100
AcDbXrecord
280
     1
300
RVT
300
2013
300
RVT2013
  0
DICTIONARY
  5
63
102
{ACAD_REACTORS
330
C
102
}
330
C
100
AcDbDictionary
281
     1
  0
DICTIONARY
  5
6B
102
{ACAD_REACTORS
330
C
102
}
330
C
100
AcDbDictionary
281
     1
  3
Imperial24
350
6C
  0
DICTIONARY
  5
D
102
{ACAD_REACTORS
330
C
102
}
330
C
100
AcDbDictionary
281
     1
  0
RASTERVARIABLES
  5
7B
102
{ACAD_REACTORS
330
C
102
}
330
C
100
AcDbRasterVariables
 90
        0
 70
     0
 71
     1
 72
     1
  0
DICTIONARY
  5
62
102
{ACAD_REACTORS
330
C
102
}
330
C
100
AcDbDictionary
281
     1
  3
Layout1
350
70
  3
Layout2
350
78
  3
Model
350
74
  0
DICTIONARY
  5
10
102
{ACAD_REACTORS
330
C
102
}
330
C
100
AcDbDictionary
281
     1
  3
ByBlock
350
19
  3
ByLayer
350
11
  3
Global
350
21
  0
DICTIONARY
  5
66
102
{ACAD_REACTORS
330
C
102
}
330
C
100
AcDbDictionary
281
     1
  3
Standard
350
67
  0
DICTIONARY
  5
5F
102
{ACAD_REACTORS
330
C
102
}
330
C
100
AcDbDictionary
281
     1
  3
Standard
350
60
  0
DICTIONARY
  5
61
102
{ACAD_REACTORS
330
C
102
}
330
C
100
AcDbDictionary
281
     1
  0
ACDBDICTIONARYWDFLT
  5
E
102
{ACAD_REACTORS
330
C
102
}
330
C
100
AcDbDictionary
281
     1
  3
Normal
350
F
100
AcDbDictionaryWithDefault
340
F
  0
DICTIONARY
  5
42
102
{ACAD_REACTORS
330
C
102
}
330
C
100
AcDbDictionary
281
     1
  3
A0
350
43
  3
A1
350
44
  3
A2
350
45
  3
A3
350
46
  3
A4
350
47
  3
A5
350
48
  3
A6
350
49
  3
A7
350
4A
  3
A8
350
4B
  3
A9
350
4C
  3
B0
350
4D
  3
B1
350
4E
  3
B2
350
4F
  3
B3
350
50
  3
B4
350
51
  3
B5
350
52
  3
B6
350
53
  0
DICTIONARY
  5
68
102
{ACAD_REACTORS
330
C
102
}
330
C
100
AcDbDictionary
281
     1
  3
Imperial24
350
6A
  0
DICTIONARY
  5
64
102
{ACAD_REACTORS
330
C
102
}
330
C
100
AcDbDictionary
281
     1
  3
Standard
350
65
  0
DICTIONARY
  5
29
102
{ACAD_REACTORS
330
C
102
}
330
C
100
AcDbDictionary
281
     1
  3
2dWireframe
350
2F
  3
Basic
350
2E
  3
Brighten
350
35
  3
ColorChange
350
39
  3
Conceptual
350
32
  3
Dim
350
34
  3
EdgeColorOff
350
41
  3
Facepattern
350
38
  3
Flat
350
2A
  3
FlatWithEdges
350
2B
  3
Gouraud
350
2C
  3
GouraudWithEdges
350
2D
  3
Hidden
350
31
  3
JitterOff
350
3F
  3
Linepattern
350
37
  3
OverhangOff
350
40
  3
Realistic
350
33
  3
Shaded
350
3E
  3
Shaded with edges
350
3D
  3
Shades of Gray
350
3A
  3
Sketchy
350
3B
  3
Thicken
350
36
  3
Wireframe
350
30
  3
X-Ray
350
3C
  0
XRECORD
  5
304
102
{ACAD_REACTORS
330
C
102
}
330
C
100
AcDbXrecord
280
     1
 90
        1
330
65
  0
DICTIONARY
  5
7C
102
{ACAD_REACTORS
330
C
102
}
330
C
100
AcDbDictionary
281
     1
  3
CANNOSCALE
350
81
  3
CMLEADERSTYLE
350
7E
  3
CTABLESTYLE
350
7D
  3
CVIEWDETAILSTYLE
350
7F
  3
CVIEWSECTIONSTYLE
350
80
  0
DICTIONARY
  5
2FB
102
{ACAD_REACTORS
330
C
102
}
330
C
100
AcDbDictionary
281
     1
  3
DRAWING_TOOL
350
2FF
  3
REVIT_CATEGORY_MAPPING
350
2FD
  3
REVIT_SUB_CATEGORY_MAPPING
350
2FE
  3
REVIT_TYPE_MAPPING
350
2FC
  0
SORTENTSTABLE
  5
301
102
{ACAD_REACTORS
330
300
102
}
330
300
100
AcDbSortentsTable
330
71
  0
ACDBDETAILVIEWSTYLE
  5
6C
102
{ACAD_REACTORS
330
6B
102
}
330
6B
100
AcDbModelDocViewStyle
 70
     0
  3
Imperial24
290
     1
100
AcDbDetailViewStyle
 70
     0
 71
     0
 90
        3
 71
     1
340
55
 62
   256
 40
0.24
340
0
 62
   256
 40
0.24
300

 40
0.36
280
     3
 71
     2
340
5D
 90
       25
 62
   256
 71
     3
340
55
 62
   256
 40
0.24
 90
        1
 40
0.75
 90
        1
300
%<\AcVar ViewType \f "%tc1">% %<\AcVar ViewDetailId>%\PSCALA %<\AcVar ViewScale \f "%sn">%
 71
     4
340
5D
 90
       25
 62
   256
340
5D
 90
       25
 62
   256
280
     0
  0
LAYOUT
  5
70
102
{ACAD_REACTORS
330
62
102
}
330
62
100
AcDbPlotSettings
  1

  2

  4

  6

 40
0.0
 41
0.0
 42
0.0
 43
0.0
 44
0.0
 45
0.0
 46
0.0
 47
0.0
 48
0.0
 49
0.0
140
0.0
141
0.0
142
1.0
143
1.0
 70
   688
 72
     0
 73
     0
 74
     5
  7

 75
    16
147
1.0
 76
     0
 77
     2
 78
   300
148
0.0
149
0.0
100
AcDbLayout
  1
Layout1
 70
     1
 71
     1
 10
0.0
 20
0.0
 11
12.0
 21
9.0
 12
0.0
 22
0.0
 32
0.0
 14
0.0
 24
0.0
 34
0.0
 15
0.0
 25
0.0
 35
0.0
146
0.0
 13
0.0
 23
0.0
 33
0.0
 16
1.0
 26
0.0
 36
0.0
 17
0.0
 27
1.0
 37
0.0
 76
     0
330
6D
  0
LAYOUT
  5
78
102
{ACAD_REACTORS
330
62
102
}
330
62
100
AcDbPlotSettings
  1

  2

  4

  6

 40
0.0
 41
0.0
 42
0.0
 43
0.0
 44
0.0
 45
0.0
 46
0.0
 47
0.0
 48
0.0
 49
0.0
140
0.0
141
0.0
142
1.0
143
1.0
 70
   688
 72
     0
 73
     0
 74
     5
  7

 75
    16
147
1.0
 76
     0
 77
     2
 78
   300
148
0.0
149
0.0
100
AcDbLayout
  1
Layout2
 70
     1
 71
     2
 10
0.0
 20
0.0
 11
12.0
 21
9.0
 12
0.0
 22
0.0
 32
0.0
 14
0.0
 24
0.0
 34
0.0
 15
0.0
 25
0.0
 35
0.0
146
0.0
 13
0.0
 23
0.0
 33
0.0
 16
1.0
 26
0.0
 36
0.0
 17
0.0
 27
1.0
 37
0.0
 76
     0
330
75
  0
LAYOUT
  5
74
102
{ACAD_REACTORS
330
62
102
}
330
62
100
AcDbPlotSettings
  1

  2

  4

  6

 40
0.0
 41
0.0
 42
0.0
 43
0.0
 44
0.0
 45
0.0
 46
0.0
 47
0.0
 48
0.0
 49
0.0
140
0.0
141
0.0
142
1.0
143
1.0
 70
  1712
 72
     0
 73
     0
 74
     0
  7

 75
     0
147
1.0
 76
     0
 77
     2
 78
   300
148
0.0
149
0.0
100
AcDbLayout
  1
Model
 70
     1
 71
     0
 10
0.0
 20
0.0
 11
12.0
 21
9.0
 12
0.0
 22
0.0
 32
0.0
 14
0.0
 24
0.0
 34
0.0
 15
0.0
 25
0.0
 35
0.0
146
0.0
 13
0.0
 23
0.0
 33
0.0
 16
1.0
 26
0.0
 36
0.0
 17
0.0
 27
1.0
 37
0.0
 76
     0
330
71
  0
MATERIAL
  5
19
102
{ACAD_XDICTIONARY
360
1A
102
}
102
{ACAD_REACTORS
330
10
102
}
330
10
100
AcDbMaterial
  1
ByBlock
 72
     0
 43
0.0208333333333333
 43
0.0
 43
0.0
 43
0.0
 43
0.0
 43
0.0208333333333333
 43
0.0
 43
0.0
 43
0.0
 43
0.0
 43
1.0
 43
0.0
 43
0.0
 43
0.0
 43
0.0
 43
1.0
 77
     0
 47
0.0208333333333333
 47
0.0
 47
0.0
 47
0.0
 47
0.0
 47
0.0208333333333333
 47
0.0
 47
0.0
 47
0.0
 47
0.0
 47
1.0
 47
0.0
 47
0.0
 47
0.0
 47
0.0
 47
1.0
171
     0
 49
0.0208333333333333
 49
0.0
 49
0.0
 49
0.0
 49
0.0
 49
0.0208333333333333
 49
0.0
 49
0.0
 49
0.0
 49
0.0
 49
1.0
 49
0.0
 49
0.0
 49
0.0
 49
0.0
 49
1.0
175
     0
142
0.0208333333333333
142
0.0
142
0.0
142
0.0
142
0.0
142
0.0208333333333333
142
0.0
142
0.0
142
0.0
142
0.0
142
1.0
142
0.0
142
0.0
142
0.0
142
0.0
142
1.0
179
     0
144
0.0208333333333333
144
0.0
144
0.0
144
0.0
144
0.0
144
0.0208333333333333
144
0.0
144
0.0
144
0.0
144
0.0
144
1.0
144
0.0
144
0.0
144
0.0
144
0.0
144
1.0
147
0.0208333333333333
147
0.0
147
0.0
147
0.0
147
0.0
147
0.0208333333333333
147
0.0
147
0.0
147
0.0
147
0.0
147
1.0
147
0.0
147
0.0
147
0.0
147
0.0
147
1.0
  0
MATERIAL
  5
11
102
{ACAD_XDICTIONARY
360
12
102
}
102
{ACAD_REACTORS
330
10
102
}
330
10
100
AcDbMaterial
  1
ByLayer
 72
     0
 43
0.0208333333333333
 43
0.0
 43
0.0
 43
0.0
 43
0.0
 43
0.0208333333333333
 43
0.0
 43
0.0
 43
0.0
 43
0.0
 43
1.0
 43
0.0
 43
0.0
 43
0.0
 43
0.0
 43
1.0
 77
     0
 47
0.0208333333333333
 47
0.0
 47
0.0
 47
0.0
 47
0.0
 47
0.0208333333333333
 47
0.0
 47
0.0
 47
0.0
 47
0.0
 47
1.0
 47
0.0
 47
0.0
 47
0.0
 47
0.0
 47
1.0
171
     0
 49
0.0208333333333333
 49
0.0
 49
0.0
 49
0.0
 49
0.0
 49
0.0208333333333333
 49
0.0
 49
0.0
 49
0.0
 49
0.0
 49
1.0
 49
0.0
 49
0.0
 49
0.0
 49
0.0
 49
1.0
175
     0
142
0.0208333333333333
142
0.0
142
0.0
142
0.0
142
0.0
142
0.0208333333333333
142
0.0
142
0.0
142
0.0
142
0.0
142
1.0
142
0.0
142
0.0
142
0.0
142
0.0
142
1.0
179
     0
144
0.0208333333333333
144
0.0
144
0.0
144
0.0
144
0.0
144
0.0208333333333333
144
0.0
144
0.0
144
0.0
144
0.0
144
1.0
144
0.0
144
0.0
144
0.0
144
0.0
144
1.0
147
0.0208333333333333
147
0.0
147
0.0
147
0.0
147
0.0
147
0.0208333333333333
147
0.0
147
0.0
147
0.0
147
0.0
147
1.0
147
0.0
147
0.0
147
0.0
147
0.0
147
1.0
  0
MATERIAL
  5
21
102
{ACAD_XDICTIONARY
360
22
102
}
102
{ACAD_REACTORS
330
10
102
}
330
10
100
AcDbMaterial
  1
Global
 72
     0
 43
0.0208333333333333
 43
0.0
 43
0.0
 43
0.0
 43
0.0
 43
0.0208333333333333
 43
0.0
 43
0.0
 43
0.0
 43
0.0
 43
1.0
 43
0.0
 43
0.0
 43
0.0
 43
0.0
 43
1.0
 77
     0
 47
0.0208333333333333
 47
0.0
 47
0.0
 47
0.0
 47
0.0
 47
0.0208333333333333
 47
0.0
 47
0.0
 47
0.0
 47
0.0
 47
1.0
 47
0.0
 47
0.0
 47
0.0
 47
0.0
 47
1.0
171
     0
 49
0.0208333333333333
 49
0.0
 49
0.0
 49
0.0
 49
0.0
 49
0.0208333333333333
 49
0.0
 49
0.0
 49
0.0
 49
0.0
 49
1.0
 49
0.0
 49
0.0
 49
0.0
 49
0.0
 49
1.0
175
     0
142
0.0208333333333333
142
0.0
142
0.0
142
0.0
142
0.0
142
0.0208333333333333
142
0.0
142
0.0
142
0.0
142
0.0
142
1.0
142
0.0
142
0.0
142
0.0
142
0.0
142
1.0
179
     0
144
0.0208333333333333
144
0.0
144
0.0
144
0.0
144
0.0
144
0.0208333333333333
144
0.0
144
0.0
144
0.0
144
0.0
144
1.0
144
0.0
144
0.0
144
0.0
144
0.0
144
1.0
147
0.0208333333333333
147
0.0
147
0.0
147
0.0
147
0.0
147
0.0208333333333333
147
0.0
147
0.0
147
0.0
147
0.0
147
1.0
147
0.0
147
0.0
147
0.0
147
0.0
147
1.0
  0
MLEADERSTYLE
  5
67
102
{ACAD_REACTORS
330
66
102
}
330
66
100
AcDbMLeaderStyle
179
     2
170
     2
171
     1
172
     0
 90
        2
 40
0.0
 41
0.0
173
     1
 91
-1056964608
340
5B
 92
       -2
290
     1
 42
0.09
291
     1
 43
0.36
  3
Standard
 44
0.18
300

342
55
174
     1
178
     6
175
     1
176
     0
 93
-1056964608
 45
0.18
292
     0
297
     0
 46
0.18
 94
-1056964608
 47
1.0
 49
1.0
140
1.0
293
     1
141
0.0
294
     1
177
     0
142
1.0
295
     1
296
     0
143
0.125
271
     0
272
     9
273
     9
298
     1
  0
MLINESTYLE
  5
60
102
{ACAD_REACTORS
330
5F
102
}
330
5F
100
AcDbMlineStyle
  2
STANDARD
 70
     0
  3

 62
   256
 51
90.0
 52
90.0
 71
     2
 49
0.5
 62
   256
  6
BYLAYER
 49
-0.5
 62
   256
  6
BYLAYER
  0
ACDBPLACEHOLDER
  5
F
102
{ACAD_REACTORS
330
E
102
}
330
E
  0
SCALE
  5
43
102
{ACAD_REACTORS
330
42
102
}
330
42
100
AcDbScale
 70
     0
300
1:1
140
1.0
141
1.0
290
     1
  0
SCALE
  5
44
102
{ACAD_REACTORS
330
42
102
}
330
42
100
AcDbScale
 70
     0
300
1/128" = 1'-0"
140
0.0078125
141
12.0
290
     0
  0
SCALE
  5
45
102
{ACAD_REACTORS
330
42
102
}
330
42
100
AcDbScale
 70
     0
300
1/64" = 1'-0"
140
0.015625
141
12.0
290
     0
  0
SCALE
  5
46
102
{ACAD_REACTORS
330
42
102
}
330
42
100
AcDbScale
 70
     0
300
1/32" = 1'-0"
140
0.03125
141
12.0
290
     0
  0
SCALE
  5
47
102
{ACAD_REACTORS
330
42
102
}
330
42
100
AcDbScale
 70
     0
300
1/16" = 1'-0"
140
0.0625
141
12.0
290
     0
  0
SCALE
  5
48
102
{ACAD_REACTORS
330
42
102
}
330
42
100
AcDbScale
 70
     0
300
3/32" = 1'-0"
140
0.09375
141
12.0
290
     0
  0
SCALE
  5
49
102
{ACAD_REACTORS
330
42
102
}
330
42
100
AcDbScale
 70
     0
300
1/8" = 1'-0"
140
0.125
141
12.0
290
     0
  0
SCALE
  5
4A
102
{ACAD_REACTORS
330
42
102
}
330
42
100
AcDbScale
 70
     0
300
3/16" = 1'-0"
140
0.1875
141
12.0
290
     0
  0
SCALE
  5
4B
102
{ACAD_REACTORS
330
42
102
}
330
42
100
AcDbScale
 70
     0
300
1/4" = 1'-0"
140
0.25
141
12.0
290
     0
  0
SCALE
  5
4C
102
{ACAD_REACTORS
330
42
102
}
330
42
100
AcDbScale
 70
     0
300
3/8" = 1'-0"
140
0.375
141
12.0
290
     0
  0
SCALE
  5
4D
102
{ACAD_REACTORS
330
42
102
}
330
42
100
AcDbScale
 70
     0
300
1/2" = 1'-0"
140
0.5
141
12.0
290
     0
  0
SCALE
  5
4E
102
{ACAD_REACTORS
330
42
102
}
330
42
100
AcDbScale
 70
     0
300
3/4" = 1'-0"
140
0.75
141
12.0
290
     0
  0
SCALE
  5
4F
102
{ACAD_REACTORS
330
42
102
}
330
42
100
AcDbScale
 70
     0
300
1" = 1'-0"
140
1.0
141
12.0
290
     0
  0
SCALE
  5
50
102
{ACAD_REACTORS
330
42
102
}
330
42
100
AcDbScale
 70
     0
300
1-1/2" = 1'-0"
140
1.5
141
12.0
290
     0
  0
SCALE
  5
51
102
{ACAD_REACTORS
330
42
102
}
330
42
100
AcDbScale
 70
     0
300
3" = 1'-0"
140
3.0
141
12.0
290
     0
  0
SCALE
  5
52
102
{ACAD_REACTORS
330
42
102
}
330
42
100
AcDbScale
 70
     0
300
6" = 1'-0"
140
6.0
141
12.0
290
     0
  0
SCALE
  5
53
102
{ACAD_REACTORS
330
42
102
}
330
42
100
AcDbScale
 70
     0
300
1'-0" = 1'-0"
140
12.0
141
12.0
290
     0
  0
ACDBSECTIONVIEWSTYLE
  5
6A
102
{ACAD_REACTORS
330
68
102
}
330
68
100
AcDbModelDocViewStyle
 70
     0
  3
Imperial24
290
     1
100
AcDbSectionViewStyle
 70
     0
 71
     0
 90
       78
 71
     1
340
55
 62
   256
 40
0.24
340
0
340
0
 62
   256
 40
0.24
300
I, O, Q, S, X, Z
 40
0.48
 90
        3
 40
0.18
 90
        1
 71
     2
340
69
 90
       25
 62
   256
340
5D
 90
       50
 62
   256
 40
0.24
 40
0.0
 40
0.24
 71
     3
340
55
 62
   256
 40
0.24
 90
        1
 40
0.75
 90
        1
300
%<\AcVar ViewType \f "%tc1">% %<\AcVar ViewSectionStartId>%-%<\AcVar ViewSectionEndId>%\PSCALA %<\AcVar ViewScale \f "%sn">%
 71
     4
 62
   256
 62
   257
300
ANSI31
 40
1.0
 90
        0
290
     0
290
     0
 90
        6
 40
0.0
 40
1.570796326794896
 40
0.2617993877991494
 40
1.308996938995747
 40
-0.2617993877991494
 40
1.832595714594046
  0
TABLESTYLE
  5
65
102
{ACAD_XDICTIONARY
360
302
102
}
102
{ACAD_REACTORS
330
64
102
}
330
64
100
AcDbTableStyle
280
     0
  3
Standard
 70
     0
 71
     0
 40
0.06
 41
0.06
280
     0
281
     0
  7
Standard
140
0.18
170
     2
 62
     0
 63
     7
283
     0
 90
      512
 91
        0
  1

274
    -2
284
     1
 64
     0
275
    -2
285
     1
 65
     0
276
    -2
286
     1
 66
     0
277
    -2
287
     1
 67
     0
278
    -2
288
     1
 68
     0
279
    -2
289
     1
 69
     0
  7
Standard
140
0.25
170
     5
 62
     0
 63
     7
283
     0
 90
      512
 91
        0
  1

274
    -2
284
     1
 64
     0
275
    -2
285
     1
 65
     0
276
    -2
286
     1
 66
     0
277
    -2
287
     1
 67
     0
278
    -2
288
     1
 68
     0
279
    -2
289
     1
 69
     0
  7
Standard
140
0.18
170
     5
 62
     0
 63
     7
283
     0
 90
      512
 91
        0
  1

274
    -2
284
     1
 64
     0
275
    -2
285
     1
 65
     0
276
    -2
286
     1
 66
     0
277
    -2
287
     1
 67
     0
278
    -2
288
     1
 68
     0
279
    -2
289
     1
 69
     0
  0
VISUALSTYLE
  5
2F
102
{ACAD_REACTORS
330
29
102
}
330
29
100
AcDbVisualStyle
  2
2dWireframe
 70
     4
177
     3
291
     0
 70
    58
 90
        0
176
     1
 90
        2
176
     1
 90
        0
176
     1
 90
        0
176
     1
 40
0.6
176
     1
 40
30.0
176
     1
 62
     7
420
 16777215
176
     1
 90
        1
176
     1
 90
        4
176
     1
 62
     7
176
     1
 62
   257
176
     1
 90
        1
176
     1
 90
        1
176
     1
 40
1.0
176
     1
 90
        0
176
     1
 62
   257
176
     1
 40
1.0
176
     1
 90
        1
176
     1
 90
        6
176
     1
 90
        2
176
     1
 62
     7
176
     1
 90
        5
176
     1
 90
        0
176
     1
 90
        0
176
     1
290
     0
176
     1
 90
        1
176
     1
 40
0.0
176
     1
 90
        0
176
     1
290
     1
176
     1
290
     1
176
     1
290
     0
176
     1
290
     0
176
     1
290
     0
176
     1
290
     0
176
     1
290
     0
176
     1
290
     0
176
     1
290
     0
176
     1
 90
       50
176
     1
 40
0.0
176
     1
 40
1.0
176
     1
 90
        0
176
     1
 62
    18
420
        0
176
     1
 90
       50
176
     1
 90
        3
176
     1
 62
     5
420
      255
176
     1
290
     0
176
     1
 90
       50
176
     1
 90
       50
176
     1
 90
       50
176
     1
290
     0
176
     1
 90
       50
176
     1
 62
   256
176
     0
 40
1.0
176
     0
 90
        2
176
     1
  1
strokes_ogs.tif
176
     1
290
     0
176
     1
 40
1.0
176
     1
 40
1.0
176
     1
  0
VISUALSTYLE
  5
2E
102
{ACAD_REACTORS
330
29
102
}
330
29
100
AcDbVisualStyle
  2
Basic
 70
     7
177
     3
291
     1
 70
    58
 90
        1
176
     1
 90
        0
176
     1
 90
        1
176
     1
 90
        0
176
     1
 40
0.6
176
     1
 40
30.0
176
     1
 62
     7
420
 16777215
176
     1
 90
        0
176
     1
 90
        4
176
     1
 62
     7
176
     1
 62
   257
176
     1
 90
        1
176
     1
 90
        1
176
     1
 40
1.0
176
     1
 90
        8
176
     1
 62
     7
176
     1
 40
1.0
176
     1
 90
        1
176
     1
 90
        6
176
     1
 90
        2
176
     1
 62
     7
176
     1
 90
        5
176
     1
 90
        0
176
     1
 90
        0
176
     1
290
     0
176
     1
 90
        1
176
     1
 40
0.0
176
     1
 90
        0
176
     1
290
     0
176
     1
290
     1
176
     1
290
     1
176
     1
290
     0
176
     1
290
     0
176
     1
290
     0
176
     1
290
     0
176
     1
290
     0
176
     1
290
     0
176
     1
 90
       50
176
     1
 40
0.0
176
     1
 40
1.0
176
     1
 90
        0
176
     1
 62
    18
420
        0
176
     1
 90
       50
176
     1
 90
        3
176
     1
 62
     5
420
      255
176
     1
290
     0
176
     1
 90
       50
176
     1
 90
       50
176
     1
 90
       50
176
     1
290
     0
176
     1
 90
       50
176
     1
 62
   256
176
     0
 40
1.0
176
     0
 90
        2
176
     1
  1
strokes_ogs.tif
176
     1
290
     0
176
     1
 40
1.0
176
     1
 40
1.0
176
     1
  0
VISUALSTYLE
  5
35
102
{ACAD_REACTORS
330
29
102
}
330
29
100
AcDbVisualStyle
  2
Brighten
 70
    12
177
     3
291
     1
 70
    58
 90
        2
176
     1
 90
        2
176
     1
 90
        0
176
     1
 90
        0
176
     1
 40
0.6
176
     1
 40
30.0
176
     1
 62
     7
420
 16777215
176
     1
 90
        1
176
     1
 90
        4
176
     1
 62
     7
176
     1
 62
   257
176
     1
 90
        1
176
     1
 90
        1
176
     1
 40
1.0
176
     1
 90
        8
176
     1
 62
     7
176
     1
 40
1.0
176
     1
 90
        1
176
     1
 90
        6
176
     1
 90
        2
176
     1
 62
     7
176
     1
 90
        5
176
     1
 90
        0
176
     1
 90
        0
176
     1
290
     0
176
     1
 90
        1
176
     1
 40
50.0
176
     1
 90
        0
176
     1
290
     0
176
     1
290
     1
176
     1
290
     1
176
     1
290
     0
176
     1
290
     0
176
     1
290
     0
176
     1
290
     0
176
     1
290
     0
176
     1
290
     0
176
     1
 90
       50
176
     1
 40
0.0
176
     1
 40
1.0
176
     1
 90
        0
176
     1
 62
    18
420
        0
176
     1
 90
       50
176
     1
 90
        3
176
     1
 62
     5
420
      255
176
     1
290
     0
176
     1
 90
       50
176
     1
 90
       50
176
     1
 90
       50
176
     1
290
     0
176
     1
 90
       50
176
     1
 62
   256
176
     0
 40
1.0
176
     0
 90
        2
176
     1
  1
strokes_ogs.tif
176
     1
290
     0
176
     1
 40
1.0
176
     1
 40
1.0
176
     1
  0
VISUALSTYLE
  5
39
102
{ACAD_REACTORS
330
29
102
}
330
29
100
AcDbVisualStyle
  2
ColorChange
 70
    16
177
     3
291
     1
 70
    58
 90
        2
176
     1
 90
        2
176
     1
 90
        3
176
     1
 90
        0
176
     1
 40
0.6
176
     1
 40
30.0
176
     1
 62
     8
420
  8421504
176
     1
 90
        1
176
     1
 90
        4
176
     1
 62
     7
176
     1
 62
   257
176
     1
 90
        1
176
     1
 90
        1
176
     1
 40
1.0
176
     1
 90
        8
176
     1
 62
     8
420
  8421504
176
     1
 40
1.0
176
     1
 90
        1
176
     1
 90
        6
176
     1
 90
        2
176
     1
 62
     7
176
     1
 90
        5
176
     1
 90
        0
176
     1
 90
        0
176
     1
290
     0
176
     1
 90
        1
176
     1
 40
0.0
176
     1
 90
        0
176
     1
290
     0
176
     1
290
     1
176
     1
290
     1
176
     1
290
     0
176
     1
290
     0
176
     1
290
     0
176
     1
290
     0
176
     1
290
     0
176
     1
290
     0
176
     1
 90
       50
176
     1
 40
0.0
176
     1
 40
1.0
176
     1
 90
        0
176
     1
 62
    18
420
        0
176
     1
 90
       50
176
     1
 90
        3
176
     1
 62
     5
420
      255
176
     1
290
     0
176
     1
 90
       50
176
     1
 90
       50
176
     1
 90
       50
176
     1
290
     0
176
     1
 90
       50
176
     1
 62
   256
176
     0
 40
1.0
176
     0
 90
        2
176
     1
  1
strokes_ogs.tif
176
     1
290
     0
176
     1
 40
1.0
176
     1
 40
1.0
176
     1
  0
VISUALSTYLE
  5
32
102
{ACAD_REACTORS
330
29
102
}
330
29
100
AcDbVisualStyle
  2
Conceptual
 70
     9
177
     3
291
     0
 70
    58
 90
        3
176
     1
 90
        2
176
     1
 90
        0
176
     1
 90
        0
176
     1
 40
0.6
176
     1
 40
30.0
176
     1
 62
     7
420
 16777215
176
     1
 90
        2
176
     1
 90
        2
176
     1
 62
     7
176
     1
 62
   257
176
     1
 90
        1
176
     1
 90
        1
176
     1
 40
179.0
176
     1
 90
        8
176
     1
 62
     7
176
     1
 40
1.0
176
     1
 90
        1
176
     1
 90
        6
176
     1
 90
        2
176
     1
 62
     7
176
     1
 90
        3
176
     1
 90
        0
176
     1
 90
        0
176
     1
290
     0
176
     1
 90
        1
176
     1
 40
0.0
176
     1
 90
        0
176
     1
290
     0
176
     1
290
     1
176
     1
290
     1
176
     1
290
     0
176
     1
290
     0
176
     1
290
     0
176
     1
290
     0
176
     1
290
     0
176
     1
290
     0
176
     1
 90
       50
176
     1
 40
0.0
176
     1
 40
1.0
176
     1
 90
        0
176
     1
 62
    18
420
        0
176
     1
 90
       50
176
     1
 90
        3
176
     1
 62
     5
420
      255
176
     1
290
     0
176
     1
 90
       50
176
     1
 90
       50
176
     1
 90
       50
176
     1
290
     0
176
     1
 90
       50
176
     1
 62
   256
176
     0
 40
1.0
176
     0
 90
        2
176
     1
  1
strokes_ogs.tif
176
     1
290
     0
176
     1
 40
1.0
176
     1
 40
1.0
176
     1
  0
VISUALSTYLE
  5
34
102
{ACAD_REACTORS
330
29
102
}
330
29
100
AcDbVisualStyle
  2
Dim
 70
    11
177
     3
291
     1
 70
    58
 90
        2
176
     1
 90
        2
176
     1
 90
        0
176
     1
 90
        0
176
     1
 40
0.6
176
     1
 40
30.0
176
     1
 62
     7
420
 16777215
176
     1
 90
        1
176
     1
 90
        4
176
     1
 62
     7
176
     1
 62
   257
176
     1
 90
        1
176
     1
 90
        1
176
     1
 40
1.0
176
     1
 90
        8
176
     1
 62
     7
176
     1
 40
1.0
176
     1
 90
        1
176
     1
 90
        6
176
     1
 90
        2
176
     1
 62
     7
176
     1
 90
        5
176
     1
 90
        0
176
     1
 90
        0
176
     1
290
     0
176
     1
 90
        1
176
     1
 40
-50.0
176
     1
 90
        0
176
     1
290
     0
176
     1
290
     1
176
     1
290
     1
176
     1
290
     0
176
     1
290
     0
176
     1
290
     0
176
     1
290
     0
176
     1
290
     0
176
     1
290
     0
176
     1
 90
       50
176
     1
 40
0.0
176
     1
 40
1.0
176
     1
 90
        0
176
     1
 62
    18
420
        0
176
     1
 90
       50
176
     1
 90
        3
176
     1
 62
     5
420
      255
176
     1
290
     0
176
     1
 90
       50
176
     1
 90
       50
176
     1
 90
       50
176
     1
290
     0
176
     1
 90
       50
176
     1
 62
   256
176
     0
 40
1.0
176
     0
 90
        2
176
     1
  1
strokes_ogs.tif
176
     1
290
     0
176
     1
 40
1.0
176
     1
 40
1.0
176
     1
  0
VISUALSTYLE
  5
41
102
{ACAD_REACTORS
330
29
102
}
330
29
100
AcDbVisualStyle
  2
EdgeColorOff
 70
    22
177
     3
291
     1
 70
    58
 90
        2
176
     0
 90
        2
176
     0
 90
        0
176
     0
 90
        0
176
     0
 40
0.6
176
     0
 40
30.0
176
     0
 62
     7
420
 16777215
176
     0
 90
        1
176
     0
 90
        4
176
     0
 62
     7
176
     0
 62
   257
176
     0
 90
        1
176
     0
 90
        1
176
     0
 40
1.0
176
     0
 90
        8
176
     2
 62
     7
176
     0
 40
1.0
176
     0
 90
        1
176
     0
 90
        6
176
     0
 90
        2
176
     0
 62
     7
176
     0
 90
        5
176
     0
 90
        0
176
     0
 90
        0
176
     0
290
     0
176
     0
 90
        1
176
     0
 40
0.0
176
     0
 90
        0
176
     0
290
     0
176
     0
290
     1
176
     0
290
     1
176
     0
290
     0
176
     0
290
     0
176
     0
290
     0
176
     0
290
     0
176
     0
290
     0
176
     0
290
     0
176
     0
 90
       50
176
     0
 40
0.0
176
     0
 40
1.0
176
     0
 90
        0
176
     0
 62
    18
420
        0
176
     0
 90
       50
176
     0
 90
        3
176
     0
 62
     5
420
      255
176
     0
290
     0
176
     0
 90
       50
176
     0
 90
       50
176
     0
 90
       50
176
     0
290
     0
176
     0
 90
       50
176
     0
 62
   256
176
     0
 40
1.0
176
     0
 90
        2
176
     0
  1
strokes_ogs.tif
176
     0
290
     0
176
     0
 40
1.0
176
     0
 40
1.0
176
     0
  0
VISUALSTYLE
  5
38
102
{ACAD_REACTORS
330
29
102
}
330
29
100
AcDbVisualStyle
  2
Facepattern
 70
    15
177
     3
291
     1
 70
    58
 90
        2
176
     1
 90
        2
176
     1
 90
        0
176
     1
 90
        0
176
     1
 40
0.6
176
     1
 40
30.0
176
     1
 62
     7
420
 16777215
176
     1
 90
        1
176
     1
 90
        4
176
     1
 62
     7
176
     1
 62
   257
176
     1
 90
        1
176
     1
 90
        1
176
     1
 40
1.0
176
     1
 90
        8
176
     1
 62
     7
176
     1
 40
1.0
176
     1
 90
        1
176
     1
 90
        6
176
     1
 90
        2
176
     1
 62
     7
176
     1
 90
        5
176
     1
 90
        0
176
     1
 90
        0
176
     1
290
     0
176
     1
 90
        1
176
     1
 40
0.0
176
     1
 90
        0
176
     1
290
     0
176
     1
290
     1
176
     1
290
     1
176
     1
290
     0
176
     1
290
     0
176
     1
290
     0
176
     1
290
     0
176
     1
290
     0
176
     1
290
     0
176
     1
 90
       50
176
     1
 40
0.0
176
     1
 40
1.0
176
     1
 90
        0
176
     1
 62
    18
420
        0
176
     1
 90
       50
176
     1
 90
        3
176
     1
 62
     5
420
      255
176
     1
290
     0
176
     1
 90
       50
176
     1
 90
       50
176
     1
 90
       50
176
     1
290
     0
176
     1
 90
       50
176
     1
 62
   256
176
     0
 40
1.0
176
     0
 90
        2
176
     1
  1
strokes_ogs.tif
176
     1
290
     0
176
     1
 40
1.0
176
     1
 40
1.0
176
     1
  0
VISUALSTYLE
  5
2A
102
{ACAD_REACTORS
330
29
102
}
330
29
100
AcDbVisualStyle
  2
Flat
 70
     0
177
     3
291
     1
 70
    58
 90
        2
176
     1
 90
        1
176
     1
 90
        1
176
     1
 90
        2
176
     1
 40
0.6
176
     1
 40
30.0
176
     1
 62
     7
420
 16777215
176
     1
 90
        0
176
     1
 90
        0
176
     1
 62
     7
176
     1
 62
   257
176
     1
 90
        1
176
     1
 90
        1
176
     1
 40
1.0
176
     1
 90
        8
176
     1
 62
     7
176
     1
 40
1.0
176
     1
 90
        1
176
     1
 90
        6
176
     1
 90
        2
176
     1
 62
     7
176
     1
 90
        5
176
     1
 90
        0
176
     1
 90
        0
176
     1
290
     0
176
     1
 90
       13
176
     1
 40
0.0
176
     1
 90
        0
176
     1
290
     0
176
     1
290
     1
176
     1
290
     1
176
     1
290
     0
176
     1
290
     0
176
     1
290
     0
176
     1
290
     0
176
     1
290
     0
176
     1
290
     0
176
     1
 90
       50
176
     1
 40
0.0
176
     1
 40
1.0
176
     1
 90
        0
176
     1
 62
    18
420
        0
176
     1
 90
       50
176
     1
 90
        3
176
     1
 62
     5
420
      255
176
     1
290
     0
176
     1
 90
       50
176
     1
 90
       50
176
     1
 90
       50
176
     1
290
     0
176
     1
 90
       50
176
     1
 62
   256
176
     0
 40
1.0
176
     0
 90
        2
176
     1
  1
strokes_ogs.tif
176
     1
290
     0
176
     1
 40
1.0
176
     1
 40
1.0
176
     1
  0
VISUALSTYLE
  5
2B
102
{ACAD_REACTORS
330
29
102
}
330
29
100
AcDbVisualStyle
  2
FlatWithEdges
 70
     1
177
     3
291
     1
 70
    58
 90
        2
176
     1
 90
        1
176
     1
 90
        1
176
     1
 90
        2
176
     1
 40
0.6
176
     1
 40
30.0
176
     1
 62
     7
420
 16777215
176
     1
 90
        1
176
     1
 90
        0
176
     1
 62
     7
176
     1
 62
   257
176
     1
 90
        1
176
     1
 90
        1
176
     1
 40
1.0
176
     1
 90
        0
176
     1
 62
   257
176
     1
 40
1.0
176
     1
 90
        1
176
     1
 90
        6
176
     1
 90
        2
176
     1
 62
     7
176
     1
 90
        5
176
     1
 90
        0
176
     1
 90
        0
176
     1
290
     0
176
     1
 90
       13
176
     1
 40
0.0
176
     1
 90
        0
176
     1
290
     0
176
     1
290
     1
176
     1
290
     1
176
     1
290
     0
176
     1
290
     0
176
     1
290
     0
176
     1
290
     0
176
     1
290
     0
176
     1
290
     0
176
     1
 90
       50
176
     1
 40
0.0
176
     1
 40
1.0
176
     1
 90
        0
176
     1
 62
    18
420
        0
176
     1
 90
       50
176
     1
 90
        3
176
     1
 62
     5
420
      255
176
     1
290
     0
176
     1
 90
       50
176
     1
 90
       50
176
     1
 90
       50
176
     1
290
     0
176
     1
 90
       50
176
     1
 62
   256
176
     0
 40
1.0
176
     0
 90
        2
176
     1
  1
strokes_ogs.tif
176
     1
290
     0
176
     1
 40
1.0
176
     1
 40
1.0
176
     1
  0
VISUALSTYLE
  5
2C
102
{ACAD_REACTORS
330
29
102
}
330
29
100
AcDbVisualStyle
  2
Gouraud
 70
     2
177
     3
291
     1
 70
    58
 90
        2
176
     1
 90
        2
176
     1
 90
        1
176
     1
 90
        2
176
     1
 40
0.6
176
     1
 40
30.0
176
     1
 62
     7
420
 16777215
176
     1
 90
        0
176
     1
 90
        0
176
     1
 62
     7
176
     1
 62
   257
176
     1
 90
        1
176
     1
 90
        1
176
     1
 40
1.0
176
     1
 90
        0
176
     1
 62
     7
176
     1
 40
1.0
176
     1
 90
        1
176
     1
 90
        6
176
     1
 90
        2
176
     1
 62
     7
176
     1
 90
        5
176
     1
 90
        0
176
     1
 90
        0
176
     1
290
     0
176
     1
 90
       13
176
     1
 40
0.0
176
     1
 90
        0
176
     1
290
     0
176
     1
290
     1
176
     1
290
     1
176
     1
290
     0
176
     1
290
     0
176
     1
290
     0
176
     1
290
     0
176
     1
290
     0
176
     1
290
     0
176
     1
 90
       50
176
     1
 40
0.0
176
     1
 40
1.0
176
     1
 90
        0
176
     1
 62
    18
420
        0
176
     1
 90
       50
176
     1
 90
        3
176
     1
 62
     5
420
      255
176
     1
290
     0
176
     1
 90
       50
176
     1
 90
       50
176
     1
 90
       50
176
     1
290
     0
176
     1
 90
       50
176
     1
 62
   256
176
     0
 40
1.0
176
     0
 90
        2
176
     1
  1
strokes_ogs.tif
176
     1
290
     0
176
     1
 40
1.0
176
     1
 40
1.0
176
     1
  0
VISUALSTYLE
  5
2D
102
{ACAD_REACTORS
330
29
102
}
330
29
100
AcDbVisualStyle
  2
GouraudWithEdges
 70
     3
177
     3
291
     1
 70
    58
 90
        2
176
     1
 90
        2
176
     1
 90
        1
176
     1
 90
        2
176
     1
 40
0.6
176
     1
 40
30.0
176
     1
 62
     7
420
 16777215
176
     1
 90
        1
176
     1
 90
        0
176
     1
 62
     7
176
     1
 62
   257
176
     1
 90
        1
176
     1
 90
        1
176
     1
 40
1.0
176
     1
 90
        0
176
     1
 62
   257
176
     1
 40
1.0
176
     1
 90
        1
176
     1
 90
        6
176
     1
 90
        2
176
     1
 62
     7
176
     1
 90
        5
176
     1
 90
        0
176
     1
 90
        0
176
     1
290
     0
176
     1
 90
       13
176
     1
 40
0.0
176
     1
 90
        0
176
     1
290
     0
176
     1
290
     1
176
     1
290
     1
176
     1
290
     0
176
     1
290
     0
176
     1
290
     0
176
     1
290
     0
176
     1
290
     0
176
     1
290
     0
176
     1
 90
       50
176
     1
 40
0.0
176
     1
 40
1.0
176
     1
 90
        0
176
     1
 62
    18
420
        0
176
     1
 90
       50
176
     1
 90
        3
176
     1
 62
     5
420
      255
176
     1
290
     0
176
     1
 90
       50
176
     1
 90
       50
176
     1
 90
       50
176
     1
290
     0
176
     1
 90
       50
176
     1
 62
   256
176
     0
 40
1.0
176
     0
 90
        2
176
     1
  1
strokes_ogs.tif
176
     1
290
     0
176
     1
 40
1.0
176
     1
 40
1.0
176
     1
  0
VISUALSTYLE
  5
31
102
{ACAD_REACTORS
330
29
102
}
330
29
100
AcDbVisualStyle
  2
Hidden
 70
     6
177
     3
291
     0
 70
    58
 90
        1
176
     1
 90
        2
176
     1
 90
        2
176
     1
 90
        0
176
     1
 40
0.6
176
     1
 40
30.0
176
     1
 62
     7
420
 16777215
176
     1
 90
        2
176
     1
 90
        2
176
     1
 62
     7
176
     1
 62
   257
176
     1
 90
        2
176
     1
 90
        1
176
     1
 40
40.0
176
     1
 90
        0
176
     1
 62
   257
176
     1
 40
1.0
176
     1
 90
        1
176
     1
 90
        6
176
     1
 90
        2
176
     1
 62
     7
176
     1
 90
        3
176
     1
 90
        0
176
     1
 90
        0
176
     1
290
     0
176
     1
 90
        1
176
     1
 40
0.0
176
     1
 90
        0
176
     1
290
     0
176
     1
290
     1
176
     1
290
     1
176
     1
290
     0
176
     1
290
     0
176
     1
290
     0
176
     1
290
     0
176
     1
290
     0
176
     1
290
     0
176
     1
 90
       50
176
     1
 40
0.0
176
     1
 40
1.0
176
     1
 90
        0
176
     1
 62
    18
420
        0
176
     1
 90
       50
176
     1
 90
        3
176
     1
 62
     5
420
      255
176
     1
290
     0
176
     1
 90
       50
176
     1
 90
       50
176
     1
 90
       50
176
     1
290
     0
176
     1
 90
       50
176
     1
 62
   256
176
     0
 40
1.0
176
     0
 90
        2
176
     1
  1
strokes_ogs.tif
176
     1
290
     0
176
     1
 40
1.0
176
     1
 40
1.0
176
     1
  0
VISUALSTYLE
  5
3F
102
{ACAD_REACTORS
330
29
102
}
330
29
100
AcDbVisualStyle
  2
JitterOff
 70
    20
177
     3
291
     1
 70
    58
 90
        2
176
     0
 90
        2
176
     0
 90
        0
176
     0
 90
        0
176
     0
 40
0.6
176
     0
 40
30.0
176
     0
 62
     7
420
 16777215
176
     0
 90
        1
176
     0
 90
        4
176
     0
 62
     7
176
     0
 62
   257
176
     0
 90
        1
176
     0
 90
        1
176
     0
 40
1.0
176
     0
 90
       10
176
     2
 62
     7
176
     0
 40
1.0
176
     0
 90
        1
176
     0
 90
        6
176
     0
 90
        2
176
     0
 62
     7
176
     0
 90
        5
176
     0
 90
        0
176
     0
 90
        0
176
     0
290
     0
176
     0
 90
        1
176
     0
 40
0.0
176
     0
 90
        0
176
     0
290
     0
176
     0
290
     1
176
     0
290
     1
176
     0
290
     0
176
     0
290
     0
176
     0
290
     0
176
     0
290
     0
176
     0
290
     0
176
     0
290
     0
176
     0
 90
       50
176
     0
 40
0.0
176
     0
 40
1.0
176
     0
 90
        0
176
     0
 62
    18
420
        0
176
     0
 90
       50
176
     0
 90
        3
176
     0
 62
     5
420
      255
176
     0
290
     0
176
     0
 90
       50
176
     0
 90
       50
176
     0
 90
       50
176
     0
290
     0
176
     0
 90
       50
176
     0
 62
   256
176
     0
 40
1.0
176
     0
 90
        2
176
     0
  1
strokes_ogs.tif
176
     0
290
     0
176
     0
 40
1.0
176
     0
 40
1.0
176
     0
  0
VISUALSTYLE
  5
37
102
{ACAD_REACTORS
330
29
102
}
330
29
100
AcDbVisualStyle
  2
Linepattern
 70
    14
177
     3
291
     1
 70
    58
 90
        2
176
     1
 90
        2
176
     1
 90
        0
176
     1
 90
        0
176
     1
 40
0.6
176
     1
 40
30.0
176
     1
 62
     7
420
 16777215
176
     1
 90
        1
176
     1
 90
        4
176
     1
 62
     7
176
     1
 62
   257
176
     1
 90
        7
176
     1
 90
        7
176
     1
 40
1.0
176
     1
 90
        8
176
     1
 62
     7
176
     1
 40
1.0
176
     1
 90
        1
176
     1
 90
        6
176
     1
 90
        2
176
     1
 62
     7
176
     1
 90
        5
176
     1
 90
        0
176
     1
 90
        0
176
     1
290
     0
176
     1
 90
        1
176
     1
 40
0.0
176
     1
 90
        0
176
     1
290
     0
176
     1
290
     1
176
     1
290
     1
176
     1
290
     0
176
     1
290
     0
176
     1
290
     0
176
     1
290
     0
176
     1
290
     0
176
     1
290
     0
176
     1
 90
       50
176
     1
 40
0.0
176
     1
 40
1.0
176
     1
 90
        0
176
     1
 62
    18
420
        0
176
     1
 90
       50
176
     1
 90
        3
176
     1
 62
     5
420
      255
176
     1
290
     0
176
     1
 90
       50
176
     1
 90
       50
176
     1
 90
       50
176
     1
290
     0
176
     1
 90
       50
176
     1
 62
   256
176
     0
 40
1.0
176
     0
 90
        2
176
     1
  1
strokes_ogs.tif
176
     1
290
     0
176
     1
 40
1.0
176
     1
 40
1.0
176
     1
  0
VISUALSTYLE
  5
40
102
{ACAD_REACTORS
330
29
102
}
330
29
100
AcDbVisualStyle
  2
OverhangOff
 70
    21
177
     3
291
     1
 70
    58
 90
        2
176
     0
 90
        2
176
     0
 90
        0
176
     0
 90
        0
176
     0
 40
0.6
176
     0
 40
30.0
176
     0
 62
     7
420
 16777215
176
     0
 90
        1
176
     0
 90
        4
176
     0
 62
     7
176
     0
 62
   257
176
     0
 90
        1
176
     0
 90
        1
176
     0
 40
1.0
176
     0
 90
        9
176
     2
 62
     7
176
     0
 40
1.0
176
     0
 90
        1
176
     0
 90
        6
176
     0
 90
        2
176
     0
 62
     7
176
     0
 90
        5
176
     0
 90
        0
176
     0
 90
        0
176
     0
290
     0
176
     0
 90
        1
176
     0
 40
0.0
176
     0
 90
        0
176
     0
290
     0
176
     0
290
     1
176
     0
290
     1
176
     0
290
     0
176
     0
290
     0
176
     0
290
     0
176
     0
290
     0
176
     0
290
     0
176
     0
290
     0
176
     0
 90
       50
176
     0
 40
0.0
176
     0
 40
1.0
176
     0
 90
        0
176
     0
 62
    18
420
        0
176
     0
 90
       50
176
     0
 90
        3
176
     0
 62
     5
420
      255
176
     0
290
     0
176
     0
 90
       50
176
     0
 90
       50
176
     0
 90
       50
176
     0
290
     0
176
     0
 90
       50
176
     0
 62
   256
176
     0
 40
1.0
176
     0
 90
        2
176
     0
  1
strokes_ogs.tif
176
     0
290
     0
176
     0
 40
1.0
176
     0
 40
1.0
176
     0
  0
VISUALSTYLE
  5
33
102
{ACAD_REACTORS
330
29
102
}
330
29
100
AcDbVisualStyle
  2
Realistic
 70
     8
177
     3
291
     0
 70
    58
 90
        2
176
     1
 90
        3
176
     1
 90
        0
176
     1
 90
        2
176
     1
 40
0.6
176
     1
 40
30.0
176
     1
 62
     7
420
 16777215
176
     1
 90
        0
176
     1
 90
        0
176
     1
 62
     7
176
     1
 62
   257
176
     1
 90
        1
176
     1
 90
        1
176
     1
 40
1.0
176
     1
 90
        8
176
     1
 62
   257
176
     1
 40
1.0
176
     1
 90
        1
176
     1
 90
        6
176
     1
 90
        2
176
     1
 62
     7
176
     1
 90
        3
176
     1
 90
        0
176
     1
 90
        0
176
     1
290
     0
176
     1
 90
       13
176
     1
 40
0.0
176
     1
 90
        0
176
     1
290
     0
176
     1
290
     1
176
     1
290
     1
176
     1
290
     0
176
     1
290
     0
176
     1
290
     0
176
     1
290
     0
176
     1
290
     0
176
     1
290
     0
176
     1
 90
       50
176
     1
 40
0.0
176
     1
 40
1.0
176
     1
 90
        0
176
     1
 62
    18
420
        0
176
     1
 90
       50
176
     1
 90
        3
176
     1
 62
     5
420
      255
176
     1
290
     0
176
     1
 90
       50
176
     1
 90
       50
176
     1
 90
       50
176
     1
290
     0
176
     1
 90
       50
176
     1
 62
   256
176
     0
 40
1.0
176
     0
 90
        2
176
     1
  1
strokes_ogs.tif
176
     1
290
     0
176
     1
 40
1.0
176
     1
 40
1.0
176
     1
  0
VISUALSTYLE
  5
3E
102
{ACAD_REACTORS
330
29
102
}
330
29
100
AcDbVisualStyle
  2
Shaded
 70
    27
177
     3
291
     0
 70
    58
 90
        2
176
     1
 90
        2
176
     1
 90
        1
176
     1
 90
        2
176
     1
 40
0.6
176
     1
 40
30.0
176
     1
 62
     7
420
 16777215
176
     1
 90
        0
176
     1
 90
        4
176
     1
 62
     7
176
     1
 62
   257
176
     1
 90
        1
176
     1
 90
        1
176
     1
 40
1.0
176
     1
 90
        8
176
     1
 62
   257
176
     1
 40
1.0
176
     1
 90
        1
176
     1
 90
        6
176
     1
 90
        2
176
     1
 62
     8
420
  7895160
176
     1
 90
        3
176
     1
 90
        0
176
     1
 90
        0
176
     1
290
     0
176
     1
 90
        5
176
     1
 40
0.0
176
     1
 90
        0
176
     1
290
     0
176
     1
290
     1
176
     1
290
     1
176
     1
290
     0
176
     1
290
     0
176
     1
290
     0
176
     1
290
     0
176
     1
290
     0
176
     1
290
     0
176
     1
 90
       50
176
     1
 40
0.0
176
     1
 40
1.0
176
     1
 90
        0
176
     1
 62
    18
420
        0
176
     1
 90
       50
176
     1
 90
        3
176
     1
 62
     5
420
      255
176
     1
290
     0
176
     1
 90
       50
176
     1
 90
       50
176
     1
 90
       50
176
     1
290
     0
176
     1
 90
       50
176
     1
 62
   256
176
     0
 40
1.0
176
     0
 90
        2
176
     1
  1
strokes_ogs.tif
176
     1
290
     0
176
     1
 40
1.0
176
     1
 40
1.0
176
     1
  0
VISUALSTYLE
  5
3D
102
{ACAD_REACTORS
330
29
102
}
330
29
100
AcDbVisualStyle
  2
Shaded with edges
 70
    26
177
     3
291
     0
 70
    58
 90
        2
176
     1
 90
        2
176
     1
 90
        1
176
     1
 90
        2
176
     1
 40
0.6
176
     1
 40
30.0
176
     1
 62
     7
420
 16777215
176
     1
 90
        1
176
     1
 90
       10
176
     1
 62
     7
176
     1
 62
   257
176
     1
 90
        2
176
     1
 90
        1
176
     1
 40
1.0
176
     1
 90
        8
176
     1
 62
   257
176
     1
 40
1.0
176
     1
 90
        1
176
     1
 90
        6
176
     1
 90
        2
176
     1
 62
     7
176
     1
 90
        3
176
     1
 90
        0
176
     1
 90
        0
176
     1
290
     0
176
     1
 90
        5
176
     1
 40
0.0
176
     1
 90
        0
176
     1
290
     0
176
     1
290
     1
176
     1
290
     1
176
     1
290
     0
176
     1
290
     0
176
     1
290
     0
176
     1
290
     0
176
     1
290
     0
176
     1
290
     0
176
     1
 90
       50
176
     1
 40
0.0
176
     1
 40
1.0
176
     1
 90
        0
176
     1
 62
    18
420
        0
176
     1
 90
       50
176
     1
 90
        3
176
     1
 62
     5
420
      255
176
     1
290
     0
176
     1
 90
       50
176
     1
 90
       50
176
     1
 90
       50
176
     1
290
     0
176
     1
 90
       50
176
     1
 62
   256
176
     0
 40
1.0
176
     0
 90
        2
176
     1
  1
strokes_ogs.tif
176
     1
290
     0
176
     1
 40
1.0
176
     1
 40
1.0
176
     1
  0
VISUALSTYLE
  5
3A
102
{ACAD_REACTORS
330
29
102
}
330
29
100
AcDbVisualStyle
  2
Shades of Gray
 70
    23
177
     3
291
     0
 70
    58
 90
        2
176
     1
 90
        2
176
     1
 90
        3
176
     1
 90
        0
176
     1
 40
0.6
176
     1
 40
30.0
176
     1
 62
     7
420
 16777215
176
     1
 90
        2
176
     1
 90
        2
176
     1
 62
     7
176
     1
 62
     7
176
     1
 90
        1
176
     1
 90
        1
176
     1
 40
40.0
176
     1
 90
        8
176
     1
 62
     7
176
     1
 40
1.0
176
     1
 90
        1
176
     1
 90
        6
176
     1
 90
        2
176
     1
 62
     7
176
     1
 90
        3
176
     1
 90
        0
176
     1
 90
        0
176
     1
290
     0
176
     1
 90
        1
176
     1
 40
0.0
176
     1
 90
        0
176
     1
290
     0
176
     1
290
     1
176
     1
290
     1
176
     1
290
     0
176
     1
290
     0
176
     1
290
     0
176
     1
290
     0
176
     1
290
     0
176
     1
290
     0
176
     1
 90
       50
176
     1
 40
0.0
176
     1
 40
1.0
176
     1
 90
        0
176
     1
 62
    18
420
        0
176
     1
 90
       50
176
     1
 90
        3
176
     1
 62
     5
420
      255
176
     1
290
     0
176
     1
 90
       50
176
     1
 90
       50
176
     1
 90
       50
176
     1
290
     0
176
     1
 90
       50
176
     1
 62
   256
176
     0
 40
1.0
176
     0
 90
        2
176
     1
  1
strokes_ogs.tif
176
     1
290
     0
176
     1
 40
1.0
176
     1
 40
1.0
176
     1
  0
VISUALSTYLE
  5
3B
102
{ACAD_REACTORS
330
29
102
}
330
29
100
AcDbVisualStyle
  2
Sketchy
 70
    24
177
     3
291
     0
 70
    58
 90
        1
176
     1
 90
        2
176
     1
 90
        2
176
     1
 90
        0
176
     1
 40
0.6
176
     1
 40
30.0
176
     1
 62
     7
420
 16777215
176
     1
 90
        2
176
     1
 90
        2
176
     1
 62
     7
176
     1
 62
     7
176
     1
 90
        1
176
     1
 90
        1
176
     1
 40
40.0
176
     1
 90
       11
176
     1
 62
     7
176
     1
 40
1.0
176
     1
 90
        1
176
     1
 90
        6
176
     1
 90
        2
176
     1
 62
     7
176
     1
 90
        6
176
     1
 90
        0
176
     1
 90
        0
176
     1
290
     0
176
     1
 90
        1
176
     1
 40
0.0
176
     1
 90
        0
176
     1
290
     0
176
     1
290
     1
176
     1
290
     1
176
     1
290
     0
176
     1
290
     0
176
     1
290
     0
176
     1
290
     0
176
     1
290
     0
176
     1
290
     0
176
     1
 90
       50
176
     1
 40
0.0
176
     1
 40
1.0
176
     1
 90
        0
176
     1
 62
    18
420
        0
176
     1
 90
       50
176
     1
 90
        3
176
     1
 62
     5
420
      255
176
     1
290
     0
176
     1
 90
       50
176
     1
 90
       50
176
     1
 90
       50
176
     1
290
     0
176
     1
 90
       50
176
     1
 62
   256
176
     0
 40
1.0
176
     0
 90
        2
176
     1
  1
strokes_ogs.tif
176
     1
290
     0
176
     1
 40
1.0
176
     1
 40
1.0
176
     1
  0
VISUALSTYLE
  5
36
102
{ACAD_REACTORS
330
29
102
}
330
29
100
AcDbVisualStyle
  2
Thicken
 70
    13
177
     3
291
     1
 70
    58
 90
        2
176
     1
 90
        2
176
     1
 90
        0
176
     1
 90
        0
176
     1
 40
0.6
176
     1
 40
30.0
176
     1
 62
     7
420
 16777215
176
     1
 90
        1
176
     1
 90
        4
176
     1
 62
     7
176
     1
 62
   257
176
     1
 90
        1
176
     1
 90
        1
176
     1
 40
1.0
176
     1
 90
       12
176
     1
 62
     7
176
     1
 40
1.0
176
     1
 90
        1
176
     1
 90
        6
176
     1
 90
        2
176
     1
 62
     7
176
     1
 90
        5
176
     1
 90
        0
176
     1
 90
        0
176
     1
290
     0
176
     1
 90
        1
176
     1
 40
0.0
176
     1
 90
        0
176
     1
290
     0
176
     1
290
     1
176
     1
290
     1
176
     1
290
     0
176
     1
290
     0
176
     1
290
     0
176
     1
290
     0
176
     1
290
     0
176
     1
290
     0
176
     1
 90
       50
176
     1
 40
0.0
176
     1
 40
1.0
176
     1
 90
        0
176
     1
 62
    18
420
        0
176
     1
 90
       50
176
     1
 90
        3
176
     1
 62
     5
420
      255
176
     1
290
     0
176
     1
 90
       50
176
     1
 90
       50
176
     1
 90
       50
176
     1
290
     0
176
     1
 90
       50
176
     1
 62
   256
176
     0
 40
1.0
176
     0
 90
        2
176
     1
  1
strokes_ogs.tif
176
     1
290
     0
176
     1
 40
1.0
176
     1
 40
1.0
176
     1
  0
VISUALSTYLE
  5
30
102
{ACAD_REACTORS
330
29
102
}
330
29
100
AcDbVisualStyle
  2
Wireframe
 70
     5
177
     3
291
     0
 70
    58
 90
        0
176
     1
 90
        2
176
     1
 90
        0
176
     1
 90
        0
176
     1
 40
0.6
176
     1
 40
30.0
176
     1
 62
     7
420
 16777215
176
     1
 90
        1
176
     1
 90
        4
176
     1
 62
     7
176
     1
 62
   257
176
     1
 90
        1
176
     1
 90
        1
176
     1
 40
1.0
176
     1
 90
        0
176
     1
 62
   257
176
     1
 40
1.0
176
     1
 90
        1
176
     1
 90
        6
176
     1
 90
        2
176
     1
 62
     7
176
     1
 90
        3
176
     1
 90
        0
176
     1
 90
        0
176
     1
290
     0
176
     1
 90
        1
176
     1
 40
0.0
176
     1
 90
        0
176
     1
290
     0
176
     1
290
     1
176
     1
290
     1
176
     1
290
     0
176
     1
290
     0
176
     1
290
     0
176
     1
290
     0
176
     1
290
     0
176
     1
290
     0
176
     1
 90
       50
176
     1
 40
0.0
176
     1
 40
1.0
176
     1
 90
        0
176
     1
 62
    18
420
        0
176
     1
 90
       50
176
     1
 90
        3
176
     1
 62
     5
420
      255
176
     1
290
     0
176
     1
 90
       50
176
     1
 90
       50
176
     1
 90
       50
176
     1
290
     0
176
     1
 90
       50
176
     1
 62
   256
176
     0
 40
1.0
176
     0
 90
        2
176
     1
  1
strokes_ogs.tif
176
     1
290
     0
176
     1
 40
1.0
176
     1
 40
1.0
176
     1
  0
VISUALSTYLE
  5
3C
102
{ACAD_REACTORS
330
29
102
}
330
29
100
AcDbVisualStyle
  2
X-Ray
 70
    25
177
     3
291
     0
 70
    58
 90
        2
176
     1
 90
        2
176
     1
 90
        1
176
     1
 90
        1
176
     1
 40
0.5
176
     1
 40
30.0
176
     1
 62
     7
420
 16777215
176
     1
 90
        1
176
     1
 90
        0
176
     1
 62
     7
176
     1
 62
   257
176
     1
 90
        1
176
     1
 90
        1
176
     1
 40
1.0
176
     1
 90
        8
176
     1
 62
     7
176
     1
 40
1.0
176
     1
 90
        1
176
     1
 90
        6
176
     1
 90
        2
176
     1
 62
     7
176
     1
 90
        3
176
     1
 90
        0
176
     1
 90
        0
176
     1
290
     0
176
     1
 90
       13
176
     1
 40
0.0
176
     1
 90
        0
176
     1
290
     0
176
     1
290
     1
176
     1
290
     1
176
     1
290
     0
176
     1
290
     0
176
     1
290
     0
176
     1
290
     0
176
     1
290
     0
176
     1
290
     0
176
     1
 90
       50
176
     1
 40
0.0
176
     1
 40
1.0
176
     1
 90
        0
176
     1
 62
    18
420
        0
176
     1
 90
       50
176
     1
 90
        3
176
     1
 62
     5
420
      255
176
     1
290
     0
176
     1
 90
       50
176
     1
 90
       50
176
     1
 90
       50
176
     1
290
     0
176
     1
 90
       50
176
     1
 62
   256
176
     0
 40
1.0
176
     0
 90
        2
176
     1
  1
strokes_ogs.tif
176
     1
290
     0
176
     1
 40
1.0
176
     1
 40
1.0
176
     1
  0
DICTIONARYVAR
  5
81
102
{ACAD_REACTORS
330
7C
102
}
330
7C
100
DictionaryVariables
280
     0
  1
1:1
  0
DICTIONARYVAR
  5
7E
102
{ACAD_REACTORS
330
7C
102
}
330
7C
100
DictionaryVariables
280
     0
  1
STANDARD
  0
DICTIONARYVAR
  5
7D
102
{ACAD_REACTORS
330
7C
102
}
330
7C
100
DictionaryVariables
280
     0
  1
STANDARD
  0
DICTIONARYVAR
  5
7F
102
{ACAD_REACTORS
330
7C
102
}
330
7C
100
DictionaryVariables
280
     0
  1
Imperial24
  0
DICTIONARYVAR
  5
80
102
{ACAD_REACTORS
330
7C
102
}
330
7C
100
DictionaryVariables
280
     0
  1
Imperial24
  0
XRECORD
  5
2FF
102
{ACAD_REACTORS
330
2FB
102
}
330
2FB
100
AcDbXrecord
280
     1
  1
BUILDING_ID
  1
Progetto per messa in tavola DXF, DWG
  1
FLOOR_ID
  1
694395
  0
XRECORD
  5
2FD
102
{ACAD_REACTORS
330
2FB
102
}
330
2FB
100
AcDbXrecord
280
     1
  1
-2001160
  1
Apparecchi idraulici
  0
XRECORD
  5
2FE
102
{ACAD_REACTORS
330
2FB
102
}
330
2FB
100
AcDbXrecord
280
     1
  1
790271
  1
Body
  0
XRECORD
  5
2FC
102
{ACAD_REACTORS
330
2FB
102
}
330
2FB
100
AcDbXrecord
280
     1
  1
859151
  1
Automatic flow rate regulator valve_Caleffi_121 DN15 : 1/2''
  0
DICTIONARY
  5
1A
330
19
100
AcDbDictionary
280
     1
281
     1
  3
BUMPTILE
360
1C
  3
DIFFUSETILE
360
1B
  3
OPACITYTILE
360
1F
  3
REFLECTIONTILE
360
1E
  3
REFRACTIONTILE
360
20
  3
SPECULARTILE
360
1D
  0
DICTIONARY
  5
12
330
11
100
AcDbDictionary
280
     1
281
     1
  3
BUMPTILE
360
14
  3
DIFFUSETILE
360
13
  3
OPACITYTILE
360
17
  3
REFLECTIONTILE
360
16
  3
REFRACTIONTILE
360
18
  3
SPECULARTILE
360
15
  0
DICTIONARY
  5
22
330
21
100
AcDbDictionary
280
     1
281
     1
  3
BUMPTILE
360
24
  3
DIFFUSETILE
360
23
  3
OPACITYTILE
360
27
  3
REFLECTIONTILE
360
26
  3
REFRACTIONTILE
360
28
  3
SPECULARTILE
360
25
  0
DICTIONARY
  5
302
330
65
100
AcDbDictionary
280
     1
281
     1
  3
ACAD_ROUNDTRIP_2008_TABLESTYLE_CELLSTYLEMAP
360
303
  0
XRECORD
  5
1C
102
{ACAD_REACTORS
330
1A
102
}
330
1A
100
AcDbXrecord
280
     1
270
     1
271
     1
  0
XRECORD
  5
1B
102
{ACAD_REACTORS
330
1A
102
}
330
1A
100
AcDbXrecord
280
     1
270
     1
271
     1
  0
XRECORD
  5
1F
102
{ACAD_REACTORS
330
1A
102
}
330
1A
100
AcDbXrecord
280
     1
270
     1
271
     1
  0
XRECORD
  5
1E
102
{ACAD_REACTORS
330
1A
102
}
330
1A
100
AcDbXrecord
280
     1
270
     1
271
     1
  0
XRECORD
  5
20
102
{ACAD_REACTORS
330
1A
102
}
330
1A
100
AcDbXrecord
280
     1
270
     1
271
     1
  0
XRECORD
  5
1D
102
{ACAD_REACTORS
330
1A
102
}
330
1A
100
AcDbXrecord
280
     1
270
     1
271
     1
  0
XRECORD
  5
14
102
{ACAD_REACTORS
330
12
102
}
330
12
100
AcDbXrecord
280
     1
270
     1
271
     1
  0
XRECORD
  5
13
102
{ACAD_REACTORS
330
12
102
}
330
12
100
AcDbXrecord
280
     1
270
     1
271
     1
  0
XRECORD
  5
17
102
{ACAD_REACTORS
330
12
102
}
330
12
100
AcDbXrecord
280
     1
270
     1
271
     1
  0
XRECORD
  5
16
102
{ACAD_REACTORS
330
12
102
}
330
12
100
AcDbXrecord
280
     1
270
     1
271
     1
  0
XRECORD
  5
18
102
{ACAD_REACTORS
330
12
102
}
330
12
100
AcDbXrecord
280
     1
270
     1
271
     1
  0
XRECORD
  5
15
102
{ACAD_REACTORS
330
12
102
}
330
12
100
AcDbXrecord
280
     1
270
     1
271
     1
  0
XRECORD
  5
24
102
{ACAD_REACTORS
330
22
102
}
330
22
100
AcDbXrecord
280
     1
270
     1
271
     1
  0
XRECORD
  5
23
102
{ACAD_REACTORS
330
22
102
}
330
22
100
AcDbXrecord
280
     1
270
     1
271
     1
  0
XRECORD
  5
27
102
{ACAD_REACTORS
330
22
102
}
330
22
100
AcDbXrecord
280
     1
270
     1
271
     1
  0
XRECORD
  5
26
102
{ACAD_REACTORS
330
22
102
}
330
22
100
AcDbXrecord
280
     1
270
     1
271
     1
  0
XRECORD
  5
28
102
{ACAD_REACTORS
330
22
102
}
330
22
100
AcDbXrecord
280
     1
270
     1
271
     1
  0
XRECORD
  5
25
102
{ACAD_REACTORS
330
22
102
}
330
22
100
AcDbXrecord
280
     1
270
     1
271
     1
  0
CELLSTYLEMAP
  5
303
102
{ACAD_REACTORS
330
302
102
}
330
302
100
AcDbCellStyleMap
 90
        3
300
CELLSTYLE
  1
TABLEFORMAT_BEGIN
 90
        5
170
     1
 91
        0
 92
    32768
 62
   257
 93
        1
300
CONTENTFORMAT
  1
CONTENTFORMAT_BEGIN
 90
        0
 91
        0
 92
      512
 93
        0
300

 40
0.0
140
1.0
 94
        5
 62
     0
340
55
144
0.25
309
CONTENTFORMAT_END
171
     0
 94
        0
309
TABLEFORMAT_END
  1
CELLSTYLE_BEGIN
 90
        1
 91
        1
300
_TITLE
309
CELLSTYLE_END
300
CELLSTYLE
  1
TABLEFORMAT_BEGIN
 90
        5
170
     1
 91
        0
 92
        0
 62
   257
 93
        1
300
CONTENTFORMAT
  1
CONTENTFORMAT_BEGIN
 90
        0
 91
        0
 92
      512
 93
        0
300

 40
0.0
140
1.0
 94
        5
 62
     0
340
55
144
0.18
309
CONTENTFORMAT_END
171
     0
 94
        0
309
TABLEFORMAT_END
  1
CELLSTYLE_BEGIN
 90
        2
 91
        1
300
_HEADER
309
CELLSTYLE_END
300
CELLSTYLE
  1
TABLEFORMAT_BEGIN
 90
        5
170
     1
 91
        0
 92
        0
 62
   257
 93
        1
300
CONTENTFORMAT
  1
CONTENTFORMAT_BEGIN
 90
        0
 91
        0
 92
      512
 93
        0
300

 40
0.0
140
1.0
 94
        2
 62
     0
340
55
144
0.18
309
CONTENTFORMAT_END
171
     0
 94
        0
309
TABLEFORMAT_END
  1
CELLSTYLE_BEGIN
 90
        3
 91
        2
300
_DATA
309
CELLSTYLE_END
  0
ENDSEC
  0
EOF
