  0
SECTION
  2
HEADER
  9
$ACADVER
  1
AC1027
  9
$ACADMAINTVER
 70
    20
  9
$DWGCODEPAGE
  3
ANSI_1252
  9
$REQUIREDVERSIONS
160
                 0
  9
$INSBASE
 10
0.0
 20
0.0
 30
0.0
  9
$EXTMIN
 10
451.1664074432006
 20
787.339628730053
 30
-0.00000001
  9
$EXTMAX
 10
1652.1143539531
 20
2535.001484375052
 30
0.00000001
  9
$LIMMIN
 10
0.0
 20
0.0
  9
$LIMMAX
 10
12.0
 20
9.0
  9
$ORTHOMODE
 70
     0
  9
$REGENMODE
 70
     1
  9
$FILLMODE
 70
     1
  9
$QTEXTMODE
 70
     0
  9
$MIRRTEXT
 70
     0
  9
$LTSCALE
 40
1.0
  9
$ATTMODE
 70
     1
  9
$TEXTSIZE
 40
0.2
  9
$TRACEWID
 40
0.05
  9
$TEXTSTYLE
  7
Standard
  9
$CLAYER
  8
0
  9
$CELTYPE
  6
ByLayer
  9
$CECOLOR
 62
   256
  9
$CELTSCALE
 40
1.0
  9
$DISPSILH
 70
     0
  9
$DIMSCALE
 40
1.0
  9
$DIMASZ
 40
0.18
  9
$DIMEXO
 40
0.0625
  9
$DIMDLI
 40
0.38
  9
$DIMRND
 40
0.0
  9
$DIMDLE
 40
0.0
  9
$DIMEXE
 40
0.18
  9
$DIMTP
 40
0.0
  9
$DIMTM
 40
0.0
  9
$DIMTXT
 40
0.18
  9
$DIMCEN
 40
0.09
  9
$DIMTSZ
 40
0.0
  9
$DIMTOL
 70
     0
  9
$DIMLIM
 70
     0
  9
$DIMTIH
 70
     1
  9
$DIMTOH
 70
     1
  9
$DIMSE1
 70
     0
  9
$DIMSE2
 70
     0
  9
$DIMTAD
 70
     0
  9
$DIMZIN
 70
     0
  9
$DIMBLK
  1

  9
$DIMASO
 70
     1
  9
$DIMSHO
 70
     1
  9
$DIMPOST
  1

  9
$DIMAPOST
  1

  9
$DIMALT
 70
     0
  9
$DIMALTD
 70
     2
  9
$DIMALTF
 40
25.4
  9
$DIMLFAC
 40
1.0
  9
$DIMTOFL
 70
     0
  9
$DIMTVP
 40
0.0
  9
$DIMTIX
 70
     0
  9
$DIMSOXD
 70
     0
  9
$DIMSAH
 70
     0
  9
$DIMBLK1
  1

  9
$DIMBLK2
  1

  9
$DIMSTYLE
  2
Standard
  9
$DIMCLRD
 70
     0
  9
$DIMCLRE
 70
     0
  9
$DIMCLRT
 70
     0
  9
$DIMTFAC
 40
1.0
  9
$DIMGAP
 40
0.09
  9
$DIMJUST
 70
     0
  9
$DIMSD1
 70
     0
  9
$DIMSD2
 70
     0
  9
$DIMTOLJ
 70
     1
  9
$DIMTZIN
 70
     0
  9
$DIMALTZ
 70
     0
  9
$DIMALTTZ
 70
     0
  9
$DIMUPT
 70
     0
  9
$DIMDEC
 70
     4
  9
$DIMTDEC
 70
     4
  9
$DIMALTU
 70
     2
  9
$DIMALTTD
 70
     2
  9
$DIMTXSTY
  7
Standard
  9
$DIMAUNIT
 70
     0
  9
$DIMADEC
 70
     0
  9
$DIMALTRND
 40
0.0
  9
$DIMAZIN
 70
     0
  9
$DIMDSEP
 70
    46
  9
$DIMATFIT
 70
     3
  9
$DIMFRAC
 70
     0
  9
$DIMLDRBLK
  1

  9
$DIMLUNIT
 70
     2
  9
$DIMLWD
 70
    -2
  9
$DIMLWE
 70
    -2
  9
$DIMTMOVE
 70
     0
  9
$DIMFXL
 40
1.0
  9
$DIMFXLON
 70
     0
  9
$DIMJOGANG
 40
0.7853981633974483
  9
$DIMTFILL
 70
     0
  9
$DIMTFILLCLR
 70
     0
  9
$DIMARCSYM
 70
     0
  9
$DIMLTYPE
  6

  9
$DIMLTEX1
  6

  9
$DIMLTEX2
  6

  9
$DIMTXTDIRECTION
 70
     0
  9
$LUNITS
 70
     2
  9
$LUPREC
 70
     4
  9
$SKETCHINC
 40
0.1
  9
$FILLETRAD
 40
0.0
  9
$AUNITS
 70
     0
  9
$AUPREC
 70
     0
  9
$MENU
  1
.
  9
$ELEVATION
 40
0.0
  9
$PELEVATION
 40
0.0
  9
$THICKNESS
 40
0.0
  9
$LIMCHECK
 70
     0
  9
$CHAMFERA
 40
0.0
  9
$CHAMFERB
 40
0.0
  9
$CHAMFERC
 40
0.0
  9
$CHAMFERD
 40
0.0
  9
$SKPOLY
 70
     0
  9
$TDCREATE
 40
2457548.676172755
  9
$TDUCREATE
 40
2457548.592839421
  9
$TDUPDATE
 40
2457548.676172755
  9
$TDUUPDATE
 40
2457548.592839421
  9
$TDINDWG
 40
0.0000381250
  9
$TDUSRTIMER
 40
0.0000381250
  9
$USRTIMER
 70
     1
  9
$ANGBASE
 50
0.0
  9
$ANGDIR
 70
     0
  9
$PDMODE
 70
     0
  9
$PDSIZE
 40
0.0
  9
$PLINEWID
 40
0.0
  9
$SPLFRAME
 70
     0
  9
$SPLINETYPE
 70
     6
  9
$SPLINESEGS
 70
     8
  9
$HANDSEED
  5
2C7
  9
$SURFTAB1
 70
     6
  9
$SURFTAB2
 70
     6
  9
$SURFTYPE
 70
     6
  9
$SURFU
 70
     6
  9
$SURFV
 70
     6
  9
$UCSBASE
  2

  9
$UCSNAME
  2

  9
$UCSORG
 10
0.0
 20
0.0
 30
0.0
  9
$UCSXDIR
 10
1.0
 20
0.0
 30
0.0
  9
$UCSYDIR
 10
0.0
 20
1.0
 30
0.0
  9
$UCSORTHOREF
  2

  9
$UCSORTHOVIEW
 70
     0
  9
$UCSORGTOP
 10
0.0
 20
0.0
 30
0.0
  9
$UCSORGBOTTOM
 10
0.0
 20
0.0
 30
0.0
  9
$UCSORGLEFT
 10
0.0
 20
0.0
 30
0.0
  9
$UCSORGRIGHT
 10
0.0
 20
0.0
 30
0.0
  9
$UCSORGFRONT
 10
0.0
 20
0.0
 30
0.0
  9
$UCSORGBACK
 10
0.0
 20
0.0
 30
0.0
  9
$PUCSBASE
  2

  9
$PUCSNAME
  2

  9
$PUCSORG
 10
0.0
 20
0.0
 30
0.0
  9
$PUCSXDIR
 10
1.0
 20
0.0
 30
0.0
  9
$PUCSYDIR
 10
0.0
 20
1.0
 30
0.0
  9
$PUCSORTHOREF
  2

  9
$PUCSORTHOVIEW
 70
     0
  9
$PUCSORGTOP
 10
0.0
 20
0.0
 30
0.0
  9
$PUCSORGBOTTOM
 10
0.0
 20
0.0
 30
0.0
  9
$PUCSORGLEFT
 10
0.0
 20
0.0
 30
0.0
  9
$PUCSORGRIGHT
 10
0.0
 20
0.0
 30
0.0
  9
$PUCSORGFRONT
 10
0.0
 20
0.0
 30
0.0
  9
$PUCSORGBACK
 10
0.0
 20
0.0
 30
0.0
  9
$USERI1
 70
     0
  9
$USERI2
 70
     0
  9
$USERI3
 70
     0
  9
$USERI4
 70
     0
  9
$USERI5
 70
     0
  9
$USERR1
 40
0.0
  9
$USERR2
 40
0.0
  9
$USERR3
 40
0.0
  9
$USERR4
 40
0.0
  9
$USERR5
 40
0.0
  9
$WORLDVIEW
 70
     1
  9
$SHADEDGE
 70
     3
  9
$SHADEDIF
 70
    70
  9
$TILEMODE
 70
     1
  9
$MAXACTVP
 70
    64
  9
$PINSBASE
 10
0.0
 20
0.0
 30
0.0
  9
$PLIMCHECK
 70
     0
  9
$PEXTMIN
 10
1.000000000000000E+20
 20
1.000000000000000E+20
 30
1.000000000000000E+20
  9
$PEXTMAX
 10
-1.000000000000000E+20
 20
-1.000000000000000E+20
 30
-1.000000000000000E+20
  9
$PLIMMIN
 10
0.0
 20
0.0
  9
$PLIMMAX
 10
12.0
 20
9.0
  9
$UNITMODE
 70
     0
  9
$VISRETAIN
 70
     1
  9
$PLINEGEN
 70
     0
  9
$PSLTSCALE
 70
     1
  9
$TREEDEPTH
 70
  3020
  9
$CMLSTYLE
  2
Standard
  9
$CMLJUST
 70
     0
  9
$CMLSCALE
 40
1.0
  9
$PROXYGRAPHICS
 70
     1
  9
$MEASUREMENT
 70
     1
  9
$CELWEIGHT
370
    -1
  9
$ENDCAPS
280
     0
  9
$JOINSTYLE
280
     0
  9
$LWDISPLAY
290
     0
  9
$INSUNITS
 70
     4
  9
$HYPERLINKBASE
  1

  9
$STYLESHEET
  1

  9
$XEDIT
290
     1
  9
$CEPSNTYPE
380
     0
  9
$PSTYLEMODE
290
     1
  9
$FINGERPRINTGUID
  2
{B0F7675F-6C56-437A-8E6C-A9D0F78B246E}
  9
$VERSIONGUID
  2
{4954E474-AC21-4A2E-8DEA-D98E41BFA2F9}
  9
$EXTNAMES
290
     1
  9
$PSVPSCALE
 40
0.0
  9
$OLESTARTUP
290
     0
  9
$SORTENTS
280
   127
  9
$INDEXCTL
280
     0
  9
$HIDETEXT
280
     1
  9
$XCLIPFRAME
280
     2
  9
$HALOGAP
280
     0
  9
$OBSCOLOR
 70
   257
  9
$OBSLTYPE
280
     0
  9
$INTERSECTIONDISPLAY
280
     0
  9
$INTERSECTIONCOLOR
 70
   257
  9
$DIMASSOC
280
     2
  9
$PROJECTNAME
  1

  9
$CAMERADISPLAY
290
     0
  9
$LENSLENGTH
 40
50.0
  9
$CAMERAHEIGHT
 40
0.0
  9
$STEPSPERSEC
 40
2.0
  9
$STEPSIZE
 40
6.0
  9
$3DDWFPREC
 40
2.0
  9
$PSOLWIDTH
 40
0.25
  9
$PSOLHEIGHT
 40
4.0
  9
$LOFTANG1
 40
1.570796326794896
  9
$LOFTANG2
 40
1.570796326794896
  9
$LOFTMAG1
 40
0.0
  9
$LOFTMAG2
 40
0.0
  9
$LOFTPARAM
 70
     7
  9
$LOFTNORMALS
280
     1
  9
$LATITUDE
 40
37.795
  9
$LONGITUDE
 40
-122.394
  9
$NORTHDIRECTION
 40
0.0
  9
$TIMEZONE
 70
 -8000
  9
$LIGHTGLYPHDISPLAY
280
     1
  9
$TILEMODELIGHTSYNCH
280
     1
  9
$CMATERIAL
347
11
  9
$SOLIDHIST
280
     0
  9
$SHOWHIST
280
     1
  9
$DWFFRAME
280
     2
  9
$DGNFRAME
280
     0
  9
$REALWORLDSCALE
290
     1
  9
$INTERFERECOLOR
 62
     1
  9
$INTERFEREOBJVS
345
33
  9
$INTERFEREVPVS
346
30
  9
$CSHADOW
280
     0
  9
$SHADOWPLANELOCATION
 40
0.0
  0
ENDSEC
  0
SECTION
  2
CLASSES
  0
CLASS
  1
ACDBDICTIONARYWDFLT
  2
AcDbDictionaryWithDefault
  3
ObjectDBX Classes
 90
        0
 91
        1
280
     0
281
     0
  0
CLASS
  1
MATERIAL
  2
AcDbMaterial
  3
ObjectDBX Classes
 90
     1153
 91
        3
280
     0
281
     0
  0
CLASS
  1
VISUALSTYLE
  2
AcDbVisualStyle
  3
ObjectDBX Classes
 90
     4095
 91
       24
280
     0
281
     0
  0
CLASS
  1
SCALE
  2
AcDbScale
  3
ObjectDBX Classes
 90
     1153
 91
       17
280
     0
281
     0
  0
CLASS
  1
TABLESTYLE
  2
AcDbTableStyle
  3
ObjectDBX Classes
 90
     4095
 91
        1
280
     0
281
     0
  0
CLASS
  1
MLEADERSTYLE
  2
AcDbMLeaderStyle
  3
ACDB_MLEADERSTYLE_CLASS
 90
     4095
 91
        1
280
     0
281
     0
  0
CLASS
  1
ACDBSECTIONVIEWSTYLE
  2
AcDbSectionViewStyle
  3
ObjectDBX Classes
 90
     1025
 91
        1
280
     0
281
     0
  0
CLASS
  1
ACDBDETAILVIEWSTYLE
  2
AcDbDetailViewStyle
  3
ObjectDBX Classes
 90
     1025
 91
        1
280
     0
281
     0
  0
CLASS
  1
RASTERVARIABLES
  2
AcDbRasterVariables
  3
ISM
 90
        0
 91
        1
280
     0
281
     0
  0
CLASS
  1
DICTIONARYVAR
  2
AcDbDictionaryVar
  3
ObjectDBX Classes
 90
        0
 91
        5
280
     0
281
     0
  0
CLASS
  1
CELLSTYLEMAP
  2
AcDbCellStyleMap
  3
ObjectDBX Classes
 90
     1152
 91
        2
280
     0
281
     0
  0
CLASS
  1
SORTENTSTABLE
  2
AcDbSortentsTable
  3
ObjectDBX Classes
 90
        0
 91
        1
280
     0
281
     0
  0
ENDSEC
  0
SECTION
  2
TABLES
  0
TABLE
  2
VPORT
  5
8
330
0
100
AcDbSymbolTable
 70
     1
  0
VPORT
  5
57
330
8
100
AcDbSymbolTableRecord
100
AcDbViewportTableRecord
  2
*Active
 70
     0
 10
0.0
 20
0.0
 11
1.0
 21
1.0
 12
1051.640380698151
 22
1661.170556552552
 13
0.0
 23
0.0
 14
1.0
 24
1.0
 15
0.0
 25
0.0
 16
0.0
 26
0.0
 36
1.0
 17
0.0
 27
0.0
 37
0.0
 40
1747.661855644999
 41
0.6871740907034179
 42
50.0
 43
0.0
 44
0.0
 50
0.0
 51
0.0
 71
     0
 72
  1000
 73
     1
 74
     1
 75
     0
 76
     0
 77
     0
 78
     0
281
     0
 65
     1
110
0.0
120
0.0
130
0.0
111
1.0
121
0.0
131
0.0
112
0.0
122
1.0
132
0.0
 79
     0
146
0.0
 60
     3
 61
     5
292
     1
282
     1
141
0.0
142
0.0
 63
   250
421
  3355443
  0
ENDTAB
  0
TABLE
  2
LTYPE
  5
5
330
0
100
AcDbSymbolTable
 70
     3
  0
LTYPE
  5
5B
330
5
100
AcDbSymbolTableRecord
100
AcDbLinetypeTableRecord
  2
ByBlock
 70
     0
  3

 72
    65
 73
     0
 40
0.0
  0
LTYPE
  5
5C
330
5
100
AcDbSymbolTableRecord
100
AcDbLinetypeTableRecord
  2
ByLayer
 70
     0
  3

 72
    65
 73
     0
 40
0.0
  0
LTYPE
  5
5D
330
5
100
AcDbSymbolTableRecord
100
AcDbLinetypeTableRecord
  2
Continuous
 70
     0
  3
Solid line
 72
    65
 73
     0
 40
0.0
  0
LTYPE
  5
69
330
5
100
AcDbSymbolTableRecord
100
AcDbLinetypeTableRecord
  2
PHANTOM2
 70
     0
  3
___ _ _ ___ _ _ ___ _ _ ___ _ _
 72
    65
 73
     6
 40
1.25
 49
0.625
 74
     0
 49
-0.125
 74
     0
 49
0.125
 74
     0
 49
-0.125
 74
     0
 49
0.125
 74
     0
 49
-0.125
 74
     0
  0
LTYPE
  5
86
330
5
100
AcDbSymbolTableRecord
100
AcDbLinetypeTableRecord
  2
Nascosto 1_5 mm
 70
     0
  3

 72
    65
 73
     2
 40
2.2
 49
1.5
 74
     0
 49
-0.7000000000000001
 74
     0
  0
ENDTAB
  0
TABLE
  2
LAYER
  5
2
330
0
100
AcDbSymbolTable
 70
     4
  0
LAYER
  5
54
330
2
100
AcDbSymbolTableRecord
100
AcDbLayerTableRecord
  2
0
 70
     0
 62
     7
  6
Continuous
370
    -3
390
F
347
21
348
0
  0
LAYER
  5
85
330
2
100
AcDbSymbolTableRecord
100
AcDbLayerTableRecord
  2
P-SANR-FIXT
 70
     0
 62
     6
  6
Continuous
370
    18
390
F
347
21
348
0
  0
LAYER
  5
88
330
2
100
AcDbSymbolTableRecord
100
AcDbLayerTableRecord
  2
M-PIPE
 70
     0
 62
     3
  6
Continuous
370
    18
390
F
347
21
348
0
  0
ENDTAB
  0
TABLE
  2
STYLE
  5
3
330
0
100
AcDbSymbolTable
 70
     2
  0
STYLE
  5
55
330
3
100
AcDbSymbolTableRecord
100
AcDbTextStyleTableRecord
  2
Standard
 70
     0
 40
0.0
 41
1.0
 50
0.0
 71
     0
 42
0.2
  3
txt
  4

  0
STYLE
  5
5A
330
3
100
AcDbSymbolTableRecord
100
AcDbTextStyleTableRecord
  2
Annotative
 70
     0
 40
0.0
 41
1.0
 50
0.0
 71
     0
 42
0.2
  3
txt
  4

1001
AcadAnnotative
1000
AnnotativeData
1002
{
1070
     1
1070
     1
1002
}
  0
ENDTAB
  0
TABLE
  2
VIEW
  5
6
330
0
100
AcDbSymbolTable
 70
     0
  0
ENDTAB
  0
TABLE
  2
UCS
  5
7
330
0
100
AcDbSymbolTable
 70
     0
  0
ENDTAB
  0
TABLE
  2
APPID
  5
9
330
0
100
AcDbSymbolTable
 70
     3
  0
APPID
  5
56
330
9
100
AcDbSymbolTableRecord
100
AcDbRegAppTableRecord
  2
ACAD
 70
     0
  0
APPID
  5
5E
330
9
100
AcDbSymbolTableRecord
100
AcDbRegAppTableRecord
  2
AcadAnnotative
 70
     0
  0
APPID
  5
79
330
9
100
AcDbSymbolTableRecord
100
AcDbRegAppTableRecord
  2
REVIT
 70
     0
  0
ENDTAB
  0
TABLE
  2
DIMSTYLE
  5
A
330
0
100
AcDbSymbolTable
 70
     2
100
AcDbDimStyleTable
 71
     0
  0
DIMSTYLE
105
58
330
A
100
AcDbSymbolTableRecord
100
AcDbDimStyleTableRecord
  2
Standard
 70
     0
340
55
  0
DIMSTYLE
105
59
330
A
100
AcDbSymbolTableRecord
100
AcDbDimStyleTableRecord
  2
Annotative
 70
     0
340
55
1001
AcadAnnotative
1000
AnnotativeData
1002
{
1070
     1
1070
     1
1002
}
  0
ENDTAB
  0
TABLE
  2
BLOCK_RECORD
  5
1
330
0
100
AcDbSymbolTable
 70
     4
  0
BLOCK_RECORD
  5
71
102
{ACAD_XDICTIONARY
360
2C2
102
}
330
1
100
AcDbSymbolTableRecord
100
AcDbBlockTableRecord
  2
*Model_Space
340
74
 70
     0
280
     1
281
     0
  0
BLOCK_RECORD
  5
6D
330
1
100
AcDbSymbolTableRecord
100
AcDbBlockTableRecord
  2
*Paper_Space
340
70
 70
     0
280
     1
281
     0
  0
BLOCK_RECORD
  5
75
330
1
100
AcDbSymbolTableRecord
100
AcDbBlockTableRecord
  2
*Paper_Space0
340
78
 70
     0
280
     1
281
     0
  0
BLOCK_RECORD
  5
87
330
1
100
AcDbSymbolTableRecord
100
AcDbBlockTableRecord
  2
Automatic flow rate regulator valve_Caleffi_121 DN15 - 1_2__-859151-Est - Idraulica
340
0
102
{BLKREFS
331
16F
102
}
 70
     0
280
     1
281
     0
  0
BLOCK_RECORD
  5
170
330
1
100
AcDbSymbolTableRecord
100
AcDbBlockTableRecord
  2
Automatic flow rate regulator valve_Caleffi_121 DN15 - 1_2__-V1-Est - Idraulica
340
0
102
{BLKREFS
331
227
102
}
 70
     0
280
     1
281
     0
  0
BLOCK_RECORD
  5
228
330
1
100
AcDbSymbolTableRecord
100
AcDbBlockTableRecord
  2
Automatic flow rate regulator valve_Caleffi_121 DN15 - 1_2__-V2-Est - Idraulica
340
0
102
{BLKREFS
331
2BB
102
}
 70
     0
280
     1
281
     0
  0
ENDTAB
  0
ENDSEC
  0
SECTION
  2
BLOCKS
  0
BLOCK
  5
72
330
71
100
AcDbEntity
  8
0
100
AcDbBlockBegin
  2
*Model_Space
 70
     0
 10
0.0
 20
0.0
 30
0.0
  3
*Model_Space
  1

  0
ENDBLK
  5
73
330
71
100
AcDbEntity
  8
0
100
AcDbBlockEnd
  0
BLOCK
  5
6E
330
6D
100
AcDbEntity
 67
     1
  8
0
100
AcDbBlockBegin
  2
*Paper_Space
 70
     0
 10
0.0
 20
0.0
 30
0.0
  3
*Paper_Space
  1

  0
ENDBLK
  5
6F
330
6D
100
AcDbEntity
 67
     1
  8
0
100
AcDbBlockEnd
  0
BLOCK
  5
76
330
75
100
AcDbEntity
 67
     1
  8
0
100
AcDbBlockBegin
  2
*Paper_Space0
 70
     0
 10
0.0
 20
0.0
 30
0.0
  3
*Paper_Space0
  1

  0
ENDBLK
  5
77
330
75
100
AcDbEntity
 67
     1
  8
0
100
AcDbBlockEnd
  0
BLOCK
  5
16D
330
87
100
AcDbEntity
  8
0
100
AcDbBlockBegin
  2
Automatic flow rate regulator valve_Caleffi_121 DN15 - 1_2__-859151-Est - Idraulica
 70
     0
 10
0.0
 20
0.0
 30
0.0
  3
Automatic flow rate regulator valve_Caleffi_121 DN15 - 1_2__-859151-Est - Idraulica
  1

  0
LINE
  5
89
330
87
100
AcDbEntity
  8
M-PIPE
100
AcDbLine
 10
733.3440769728484
 20
1255.999999999995
 30
0.0
 11
715.6664074431845
 21
1255.999999999995
 31
0.0
1001
REVIT
1002
{
1070
     3
1000
790271
1002
}
  0
LINE
  5
8A
330
87
100
AcDbEntity
  8
M-PIPE
100
AcDbLine
 10
715.6664074431845
 20
1255.999999999995
 30
0.0
 11
697.9887379135209
 21
1255.999999999995
 31
0.0
1001
REVIT
1002
{
1070
     3
1000
790271
1002
}
  0
LINE
  5
8B
330
87
100
AcDbEntity
  8
M-PIPE
100
AcDbLine
 10
697.9887379135209
 20
1255.999999999995
 30
0.0
 11
690.6664074431844
 21
1255.999999999995
 31
0.0
1001
REVIT
1002
{
1070
     3
1000
790271
1002
}
  0
LINE
  5
8C
330
87
100
AcDbEntity
  8
M-PIPE
100
AcDbLine
 10
740.6664074431844
 20
1255.999999999995
 30
0.0
 11
733.3440769728484
 21
1255.999999999995
 31
0.0
1001
REVIT
1002
{
1070
     3
1000
790271
1002
}
  0
LINE
  5
8D
330
87
100
AcDbEntity
  8
M-PIPE
100
AcDbLine
 10
733.3440769728484
 20
1255.999999999995
 30
0.0
 11
733.3440769728484
 21
1273.999999999995
 31
0.0
1001
REVIT
1002
{
1070
     3
1000
790271
1002
}
  0
LINE
  5
8E
330
87
100
AcDbEntity
  8
M-PIPE
100
AcDbLine
 10
715.6664074431846
 20
1273.999999999995
 30
0.0
 11
715.6664074431845
 21
1255.999999999995
 31
0.0
1001
REVIT
1002
{
1070
     3
1000
790271
1002
}
  0
LINE
  5
8F
330
87
100
AcDbEntity
  8
M-PIPE
100
AcDbLine
 10
697.988737913521
 20
1273.999999999995
 30
0.0
 11
697.9887379135209
 21
1255.999999999995
 31
0.0
1001
REVIT
1002
{
1070
     3
1000
790271
1002
}
  0
LINE
  5
90
330
87
100
AcDbEntity
  8
M-PIPE
100
AcDbLine
 10
690.6664074431844
 20
1273.999999999995
 30
0.0
 11
690.6664074431844
 21
1255.999999999995
 31
0.0
1001
REVIT
1002
{
1070
     3
1000
790271
1002
}
  0
LINE
  5
91
330
87
100
AcDbEntity
  8
M-PIPE
100
AcDbLine
 10
740.6664074431845
 20
1273.999999999994
 30
0.0
 11
740.6664074431844
 21
1255.999999999995
 31
0.0
1001
REVIT
1002
{
1070
     3
1000
790271
1002
}
  0
LINE
  5
92
330
87
100
AcDbEntity
  8
M-PIPE
100
AcDbLine
 10
743.666407443214
 20
1273.999999999994
 30
0.0
 11
743.6664074432142
 21
1287.999999999995
 31
0.0
1001
REVIT
1002
{
1070
     3
1000
790271
1002
}
  0
LINE
  5
93
330
87
100
AcDbEntity
  8
M-PIPE
100
AcDbLine
 10
743.6664074432143
 20
1305.999999999995
 30
0.0
 11
743.6664074432147
 21
1319.999999999995
 31
0.0
1001
REVIT
1002
{
1070
     3
1000
790271
1002
}
  0
LINE
  5
94
330
87
100
AcDbEntity
  8
M-PIPE
100
AcDbLine
 10
687.6664074431901
 20
1319.999999999996
 30
0.0
 11
687.6664074431894
 21
1273.999999999996
 31
0.0
1001
REVIT
1002
{
1070
     3
1000
790271
1002
}
  0
LINE
  5
95
330
87
100
AcDbEntity
  8
M-PIPE
100
AcDbLine
 10
743.6664074432134
 20
1319.999999999995
 30
0.0
 11
715.6664074432013
 21
1319.999999999995
 31
0.0
1001
REVIT
1002
{
1070
     3
1000
790271
1002
}
  0
LINE
  5
96
330
87
100
AcDbEntity
  8
M-PIPE
100
AcDbLine
 10
715.6664074432013
 20
1319.999999999995
 30
0.0
 11
687.6664074431888
 21
1319.999999999995
 31
0.0
1001
REVIT
1002
{
1070
     3
1000
790271
1002
}
  0
LINE
  5
97
330
87
100
AcDbEntity
  8
M-PIPE
100
AcDbLine
 10
715.6664074432003
 20
1273.999999999995
 30
0.0
 11
743.6664074432126
 21
1273.999999999994
 31
0.0
1001
REVIT
1002
{
1070
     3
1000
790271
1002
}
  0
LINE
  5
98
330
87
100
AcDbEntity
  8
M-PIPE
100
AcDbLine
 10
687.666407443188
 20
1273.999999999996
 30
0.0
 11
715.6664074432003
 21
1273.999999999995
 31
0.0
1001
REVIT
1002
{
1070
     3
1000
790271
1002
}
  0
LINE
  5
99
330
87
100
AcDbEntity
  8
M-PIPE
100
AcDbLine
 10
715.6664074431849
 20
1319.999999999996
 30
0.0
 11
715.6664074431849
 21
1337.999999999995
 31
0.0
1001
REVIT
1002
{
1070
     3
1000
790271
1002
}
  0
LINE
  5
9A
330
87
100
AcDbEntity
  8
M-PIPE
100
AcDbLine
 10
733.3440769728485
 20
1337.999999999995
 30
0.0
 11
740.6664074431846
 21
1337.999999999995
 31
0.0
1001
REVIT
1002
{
1070
     3
1000
790271
1002
}
  0
LINE
  5
9B
330
87
100
AcDbEntity
  8
M-PIPE
100
AcDbLine
 10
690.6664074431846
 20
1337.999999999995
 30
0.0
 11
697.9887379135211
 21
1337.999999999995
 31
0.0
1001
REVIT
1002
{
1070
     3
1000
790271
1002
}
  0
LINE
  5
9C
330
87
100
AcDbEntity
  8
M-PIPE
100
AcDbLine
 10
715.6664074431849
 20
1337.999999999995
 30
0.0
 11
697.9887379135211
 21
1337.999999999995
 31
0.0
1001
REVIT
1002
{
1070
     3
1000
790271
1002
}
  0
LINE
  5
9D
330
87
100
AcDbEntity
  8
M-PIPE
100
AcDbLine
 10
715.6664074431849
 20
1337.999999999995
 30
0.0
 11
733.3440769728485
 21
1337.999999999995
 31
0.0
1001
REVIT
1002
{
1070
     3
1000
790271
1002
}
  0
LINE
  5
9E
330
87
100
AcDbEntity
  8
M-PIPE
100
AcDbLine
 10
733.3440769728484
 20
1319.999999999996
 30
0.0
 11
733.3440769728485
 21
1337.999999999995
 31
0.0
1001
REVIT
1002
{
1070
     3
1000
790271
1002
}
  0
LINE
  5
9F
330
87
100
AcDbEntity
  8
M-PIPE
100
AcDbLine
 10
697.9887379135211
 20
1337.999999999995
 30
0.0
 11
697.9887379135211
 21
1319.999999999996
 31
0.0
1001
REVIT
1002
{
1070
     3
1000
790271
1002
}
  0
LINE
  5
A0
330
87
100
AcDbEntity
  8
M-PIPE
100
AcDbLine
 10
690.6664074431846
 20
1337.999999999995
 30
0.0
 11
690.6664074431846
 21
1319.999999999996
 31
0.0
1001
REVIT
1002
{
1070
     3
1000
790271
1002
}
  0
LINE
  5
A1
330
87
100
AcDbEntity
  8
M-PIPE
100
AcDbLine
 10
740.6664074431846
 20
1337.999999999995
 30
0.0
 11
740.6664074431846
 21
1319.999999999995
 31
0.0
1001
REVIT
1002
{
1070
     3
1000
790271
1002
}
  0
ARC
  5
A2
330
87
100
AcDbEntity
  8
M-PIPE
100
AcDbCircle
 10
715.666407443201
 20
1296.999999999995
 30
0.0
 40
13.99999999999998
100
AcDbArc
 50
269.9999999999992
 51
319.9947991151397
1001
REVIT
1002
{
1070
     3
1000
790271
1002
}
  0
LINE
  5
A3
330
87
100
AcDbEntity
  8
M-PIPE
100
AcDbLine
 10
828.666407443201
 20
1287.999999999995
 30
0.0
 11
828.6664074432012
 21
1305.999999999995
 31
0.0
1001
REVIT
1002
{
1070
     3
1000
790271
1002
}
  0
ARC
  5
A4
330
87
100
AcDbEntity
  8
M-PIPE
100
AcDbCircle
 10
715.666407443201
 20
1296.999999999995
 30
0.0
 40
13.99999999999972
100
AcDbArc
 50
40.00520088485987
 51
89.99999999999859
1001
REVIT
1002
{
1070
     3
1000
790271
1002
}
  0
ARC
  5
A5
330
87
100
AcDbEntity
  8
M-PIPE
100
AcDbCircle
 10
715.666407443201
 20
1296.999999999995
 30
0.0
 40
14.00000000000027
100
AcDbArc
 50
89.99999999999955
 51
269.9999999999992
1001
REVIT
1002
{
1070
     3
1000
790271
1002
}
  0
LINE
  5
A6
330
87
100
AcDbEntity
  8
M-PIPE
100
AcDbLine
 10
726.3902127379644
 20
1287.999999999995
 30
0.0
 11
828.666407443201
 21
1287.999999999995
 31
0.0
1001
REVIT
1002
{
1070
     3
1000
790271
1002
}
  0
LINE
  5
A7
330
87
100
AcDbEntity
  8
M-PIPE
100
AcDbLine
 10
828.666407443201
 20
1305.999999999995
 30
0.0
 11
726.3902127379647
 21
1305.999999999995
 31
0.0
1001
REVIT
1002
{
1070
     3
1000
790271
1002
}
  0
LINE
  5
A8
330
87
100
AcDbEntity
  8
P-SANR-FIXT
100
AcDbLine
 10
715.6664074431973
 20
2525.001484374985
 30
0.0
 11
731.1664074431972
 21
2525.001484374985
 31
0.0
  0
LINE
  5
A9
330
87
100
AcDbEntity
  8
P-SANR-FIXT
100
AcDbLine
 10
700.1664074431971
 20
2525.001484374985
 30
0.0
 11
715.6664074431973
 21
2525.001484374985
 31
0.0
  0
LINE
  5
AA
330
87
100
AcDbEntity
  8
P-SANR-FIXT
100
AcDbLine
 10
715.6664074431973
 20
2525.001484374985
 30
0.0
 11
715.6664074431973
 21
2514.501484374985
 31
0.0
  0
LINE
  5
AB
330
87
100
AcDbEntity
  8
P-SANR-FIXT
100
AcDbLine
 10
731.1664074431972
 20
2514.501484374985
 30
0.0
 11
731.1664074431972
 21
2525.001484374985
 31
0.0
  0
LINE
  5
AC
330
87
100
AcDbEntity
  8
P-SANR-FIXT
100
AcDbLine
 10
700.1664074431971
 20
2514.501484374984
 30
0.0
 11
700.1664074431971
 21
2525.001484374985
 31
0.0
  0
LINE
  5
AD
330
87
100
AcDbEntity
  8
M-PIPE
100
AcDbLine
 10
667.1338551109592
 20
2491.001484374986
 30
0.0
 11
670.4164074431818
 21
2397.001484374986
 31
0.0
1001
REVIT
1002
{
1070
     3
1000
790271
1002
}
  0
LINE
  5
AE
330
87
100
AcDbEntity
  8
M-PIPE
100
AcDbLine
 10
760.9164074431817
 20
2397.001484374985
 30
0.0
 11
764.1989597754064
 21
2491.001484374986
 31
0.0
1001
REVIT
1002
{
1070
     3
1000
790271
1002
}
  0
LINE
  5
AF
330
87
100
AcDbEntity
  8
M-PIPE
100
AcDbLine
 10
676.9164074431984
 20
2505.001484374986
 30
0.0
 11
676.9164074431984
 21
2491.001484374986
 31
0.0
1001
REVIT
1002
{
1070
     3
1000
790271
1002
}
  0
LINE
  5
B0
330
87
100
AcDbEntity
  8
M-PIPE
100
AcDbLine
 10
754.4164074431987
 20
2491.001484374986
 30
0.0
 11
754.4164074431987
 21
2505.001484374986
 31
0.0
1001
REVIT
1002
{
1070
     3
1000
790271
1002
}
  0
LINE
  5
B1
330
87
100
AcDbEntity
  8
M-PIPE
100
AcDbLine
 10
783.166407443198
 20
2491.001484374986
 30
0.0
 11
783.166407443198
 21
2505.001484374986
 31
0.0
1001
REVIT
1002
{
1070
     3
1000
790271
1002
}
  0
LINE
  5
B2
330
87
100
AcDbEntity
  8
M-PIPE
100
AcDbLine
 10
648.166407443198
 20
2505.001484374986
 30
0.0
 11
648.166407443198
 21
2491.001484374986
 31
0.0
1001
REVIT
1002
{
1070
     3
1000
790271
1002
}
  0
LINE
  5
B3
330
87
100
AcDbEntity
  8
M-PIPE
100
AcDbLine
 10
689.1664074431834
 20
2514.501484374986
 30
0.0
 11
689.1664074431834
 21
2505.001484374986
 31
0.0
1001
REVIT
1002
{
1070
     3
1000
790271
1002
}
  0
LINE
  5
B4
330
87
100
AcDbEntity
  8
M-PIPE
100
AcDbLine
 10
742.1664074431833
 20
2505.001484374986
 30
0.0
 11
742.1664074431833
 21
2514.501484374985
 31
0.0
1001
REVIT
1002
{
1070
     3
1000
790271
1002
}
  0
LINE
  5
B5
330
87
100
AcDbEntity
  8
M-PIPE
100
AcDbLine
 10
704.8164074431839
 20
2535.001484375052
 30
0.0
 11
704.8164074431838
 21
2525.001484374986
 31
0.0
1001
REVIT
1002
{
1070
     3
1000
790271
1002
}
  0
LINE
  5
B6
330
87
100
AcDbEntity
  8
M-PIPE
100
AcDbLine
 10
726.5164074431834
 20
2525.001484374986
 30
0.0
 11
726.5164074431835
 21
2535.001484375052
 31
0.0
1001
REVIT
1002
{
1070
     3
1000
790271
1002
}
  0
LINE
  5
B7
330
87
100
AcDbEntity
  8
M-PIPE
100
AcDbLine
 10
715.6664074431973
 20
2377.001484374984
 30
0.0
 11
695.666407443197
 21
2377.001484374984
 31
0.0
1001
REVIT
1002
{
1070
     3
1000
790271
1002
}
  0
LINE
  5
B8
330
87
100
AcDbEntity
  8
M-PIPE
100
AcDbLine
 10
735.6664074431972
 20
2377.001484374984
 30
0.0
 11
715.6664074431973
 21
2377.001484374984
 31
0.0
1001
REVIT
1002
{
1070
     3
1000
790271
1002
}
  0
LINE
  5
B9
330
87
100
AcDbEntity
  8
M-PIPE
100
AcDbLine
 10
715.6664074431973
 20
2397.001484374984
 30
0.0
 11
715.6664074431973
 21
2377.001484374984
 31
0.0
1001
REVIT
1002
{
1070
     3
1000
790271
1002
}
  0
LINE
  5
BA
330
87
100
AcDbEntity
  8
M-PIPE
100
AcDbLine
 10
735.6664074431972
 20
2377.001484374984
 30
0.0
 11
735.666407443197
 21
2397.001484374984
 31
0.0
1001
REVIT
1002
{
1070
     3
1000
790271
1002
}
  0
LINE
  5
BB
330
87
100
AcDbEntity
  8
M-PIPE
100
AcDbLine
 10
695.666407443197
 20
2377.001484374984
 30
0.0
 11
695.666407443197
 21
2397.001484374984
 31
0.0
1001
REVIT
1002
{
1070
     3
1000
790271
1002
}
  0
LINE
  5
BC
330
87
100
AcDbEntity
  8
M-PIPE
100
AcDbLine
 10
670.4164074431804
 20
2397.001484374985
 30
0.0
 11
715.6664074431813
 21
2397.001484374985
 31
0.0
1001
REVIT
1002
{
1070
     3
1000
790271
1002
}
  0
LINE
  5
BD
330
87
100
AcDbEntity
  8
M-PIPE
100
AcDbLine
 10
715.6664074431813
 20
2397.001484374985
 30
0.0
 11
760.9164074431804
 21
2397.001484374984
 31
0.0
1001
REVIT
1002
{
1070
     3
1000
790271
1002
}
  0
LINE
  5
BE
330
87
100
AcDbEntity
  8
M-PIPE
100
AcDbLine
 10
659.0359726605879
 20
2505.001484374985
 30
0.0
 11
676.8911333383514
 21
2505.001484374985
 31
0.0
1001
REVIT
1002
{
1070
     3
1000
790271
1002
}
  0
LINE
  5
BF
330
87
100
AcDbEntity
  8
M-PIPE
100
AcDbLine
 10
676.916407443197
 20
2505.001484374985
 30
0.0
 11
695.9786399792769
 21
2505.001484374985
 31
0.0
1001
REVIT
1002
{
1070
     3
1000
790271
1002
}
  0
LINE
  5
C0
330
87
100
AcDbEntity
  8
M-PIPE
100
AcDbLine
 10
695.9786399792768
 20
2505.001484374985
 30
0.0
 11
735.3541749071161
 21
2505.001484374985
 31
0.0
1001
REVIT
1002
{
1070
     3
1000
790271
1002
}
  0
LINE
  5
C1
330
87
100
AcDbEntity
  8
M-PIPE
100
AcDbLine
 10
735.354174907117
 20
2505.001484374985
 30
0.0
 11
754.4164074431972
 21
2505.001484374985
 31
0.0
1001
REVIT
1002
{
1070
     3
1000
790271
1002
}
  0
LINE
  5
C2
330
87
100
AcDbEntity
  8
M-PIPE
100
AcDbLine
 10
754.4416815480428
 20
2505.001484374985
 30
0.0
 11
772.2968422258052
 21
2505.001484374985
 31
0.0
1001
REVIT
1002
{
1070
     3
1000
790271
1002
}
  0
LINE
  5
C3
330
87
100
AcDbEntity
  8
M-PIPE
100
AcDbLine
 10
772.2968422258053
 20
2505.001484374985
 30
0.0
 11
783.1664074431966
 21
2505.001484374985
 31
0.0
1001
REVIT
1002
{
1070
     3
1000
790271
1002
}
  0
LINE
  5
C4
330
87
100
AcDbEntity
  8
M-PIPE
100
AcDbLine
 10
648.1664074431967
 20
2505.001484374985
 30
0.0
 11
659.0359726605878
 21
2505.001484374985
 31
0.0
1001
REVIT
1002
{
1070
     3
1000
790271
1002
}
  0
LINE
  5
C5
330
87
100
AcDbEntity
  8
M-PIPE
100
AcDbLine
 10
659.0359726605879
 20
2491.001484374984
 30
0.0
 11
648.1664074431967
 21
2491.001484374984
 31
0.0
1001
REVIT
1002
{
1070
     3
1000
790271
1002
}
  0
LINE
  5
C6
330
87
100
AcDbEntity
  8
M-PIPE
100
AcDbLine
 10
783.1664074431967
 20
2491.001484374985
 30
0.0
 11
772.2968422258053
 21
2491.001484374985
 31
0.0
1001
REVIT
1002
{
1070
     3
1000
790271
1002
}
  0
LINE
  5
C7
330
87
100
AcDbEntity
  8
M-PIPE
100
AcDbLine
 10
772.2968422258052
 20
2491.001484374985
 30
0.0
 11
754.4416815480432
 21
2491.001484374985
 31
0.0
1001
REVIT
1002
{
1070
     3
1000
790271
1002
}
  0
LINE
  5
C8
330
87
100
AcDbEntity
  8
M-PIPE
100
AcDbLine
 10
754.4164074431972
 20
2491.001484374985
 30
0.0
 11
735.3541749071171
 21
2491.001484374985
 31
0.0
1001
REVIT
1002
{
1070
     3
1000
790271
1002
}
  0
LINE
  5
C9
330
87
100
AcDbEntity
  8
M-PIPE
100
AcDbLine
 10
735.3541749071164
 20
2491.001484374985
 30
0.0
 11
695.9786399792772
 21
2491.001484374984
 31
0.0
1001
REVIT
1002
{
1070
     3
1000
790271
1002
}
  0
LINE
  5
CA
330
87
100
AcDbEntity
  8
M-PIPE
100
AcDbLine
 10
695.9786399792772
 20
2491.001484374984
 30
0.0
 11
676.916407443197
 21
2491.001484374984
 31
0.0
1001
REVIT
1002
{
1070
     3
1000
790271
1002
}
  0
LINE
  5
CB
330
87
100
AcDbEntity
  8
M-PIPE
100
AcDbLine
 10
676.8911333383516
 20
2491.001484374984
 30
0.0
 11
659.035972660588
 21
2491.001484374984
 31
0.0
1001
REVIT
1002
{
1070
     3
1000
790271
1002
}
  0
LINE
  5
CC
330
87
100
AcDbEntity
  8
M-PIPE
100
AcDbLine
 10
659.035972660588
 20
2505.001484374985
 30
0.0
 11
659.035972660588
 21
2491.001484374984
 31
0.0
1001
REVIT
1002
{
1070
     3
1000
790271
1002
}
  0
LINE
  5
CD
330
87
100
AcDbEntity
  8
M-PIPE
100
AcDbLine
 10
695.9786399792768
 20
2491.001484374984
 30
0.0
 11
695.9786399792768
 21
2505.001484374985
 31
0.0
1001
REVIT
1002
{
1070
     3
1000
790271
1002
}
  0
LINE
  5
CE
330
87
100
AcDbEntity
  8
M-PIPE
100
AcDbLine
 10
735.354174907117
 20
2491.001484374985
 30
0.0
 11
735.354174907117
 21
2505.001484374985
 31
0.0
1001
REVIT
1002
{
1070
     3
1000
790271
1002
}
  0
LINE
  5
CF
330
87
100
AcDbEntity
  8
M-PIPE
100
AcDbLine
 10
772.2968422258053
 20
2491.001484374985
 30
0.0
 11
772.2968422258053
 21
2505.001484374985
 31
0.0
1001
REVIT
1002
{
1070
     3
1000
790271
1002
}
  0
LINE
  5
D0
330
87
100
AcDbEntity
  8
M-PIPE
100
AcDbLine
 10
715.6664074431827
 20
2514.501484374985
 30
0.0
 11
689.166407443182
 21
2514.501484374985
 31
0.0
1001
REVIT
1002
{
1070
     3
1000
790271
1002
}
  0
LINE
  5
D1
330
87
100
AcDbEntity
  8
M-PIPE
100
AcDbLine
 10
742.1664074431821
 20
2514.501484374984
 30
0.0
 11
715.6664074431827
 21
2514.501484374985
 31
0.0
1001
REVIT
1002
{
1070
     3
1000
790271
1002
}
  0
LINE
  5
D2
330
87
100
AcDbEntity
  8
M-PIPE
100
AcDbLine
 10
715.6664074431825
 20
2535.00148437505
 30
0.0
 11
704.8164074431825
 21
2535.001484375051
 31
0.0
1001
REVIT
1002
{
1070
     3
1000
790271
1002
}
  0
LINE
  5
D3
330
87
100
AcDbEntity
  8
M-PIPE
100
AcDbLine
 10
726.5164074431821
 20
2535.00148437505
 30
0.0
 11
715.6664074431825
 21
2535.00148437505
 31
0.0
1001
REVIT
1002
{
1070
     3
1000
790271
1002
}
  0
LINE
  5
D4
330
87
100
AcDbEntity
  8
M-PIPE
100
AcDbLine
 10
677.4865382427674
 20
2335.940234374994
 30
0.0
 11
688.6789074430071
 21
2335.940234374994
 31
0.0
1001
REVIT
1002
{
1070
     3
1000
790271
1002
}
  0
LINE
  5
D5
330
87
100
AcDbEntity
  8
M-PIPE
100
AcDbLine
 10
688.6789074430071
 20
2366.102734374979
 30
0.0
 11
677.4865382427682
 21
2366.102734374979
 31
0.0
1001
REVIT
1002
{
1070
     3
1000
790271
1002
}
  0
LINE
  5
D6
330
87
100
AcDbEntity
  8
M-PIPE
100
AcDbLine
 10
688.6789074430057
 20
2366.102734374978
 30
0.0
 11
688.6789074430059
 21
2335.940234374993
 31
0.0
1001
REVIT
1002
{
1070
     3
1000
790271
1002
}
  0
LINE
  5
D7
330
87
100
AcDbEntity
  8
M-PIPE
100
AcDbLine
 10
678.4682363520903
 20
2364.700724177046
 30
0.0
 11
660.1039074431334
 21
2364.700724177046
 31
0.0
1001
REVIT
1002
{
1070
     3
1000
790271
1002
}
  0
LINE
  5
D8
330
87
100
AcDbEntity
  8
M-PIPE
100
AcDbLine
 10
660.1039074431334
 20
2364.700724177046
 30
0.0
 11
660.1039074431334
 21
2360.765203903422
 31
0.0
1001
REVIT
1002
{
1070
     3
1000
790271
1002
}
  0
LWPOLYLINE
  5
D9
330
87
100
AcDbEntity
  8
M-PIPE
100
AcDbPolyline
 90
       11
 70
   128
 43
0.0
 10
660.1039074431334
 20
2360.765203903422
 10
662.0959474922044
 20
2357.920275877991
 10
664.3365398538472
 20
2354.720378362789
 10
666.7103973901554
 20
2351.330158454021
 10
669.0953759548554
 20
2347.924056070723
 10
671.3687591817756
 20
2344.677328346636
 10
673.4135727162392
 20
2341.757031973232
 10
675.1246029977717
 20
2339.313427487186
 10
676.413810904484
 20
2337.472247784938
 10
677.2148617062058
 20
2336.32822867916
 10
677.4865382427659
 20
2335.940234374993
1001
REVIT
1002
{
1070
     3
1000
790271
1002
}
  0
LWPOLYLINE
  5
DA
330
87
100
AcDbEntity
  8
M-PIPE
100
AcDbPolyline
 90
        6
 70
   128
 43
0.0
 10
666.925118541058
 20
2351.021710189034
 10
666.6031454643281
 20
2350.55963867186
 10
664.7129419631473
 20
2347.860148309312
 10
662.9392639346187
 20
2345.327073568267
 10
661.3754794121724
 20
2343.09375781956
 10
660.1039074431333
 20
2341.277764846548
1001
REVIT
1002
{
1070
     3
1000
790271
1002
}
  0
LINE
  5
DB
330
87
100
AcDbEntity
  8
M-PIPE
100
AcDbLine
 10
660.1039074431334
 20
2339.115234374993
 30
0.0
 11
675.2633793089501
 21
2339.115234374993
 31
0.0
1001
REVIT
1002
{
1070
     3
1000
790271
1002
}
  0
LINE
  5
DC
330
87
100
AcDbEntity
  8
M-PIPE
100
AcDbLine
 10
660.1039074431333
 20
2341.277764846548
 30
0.0
 11
660.1039074431334
 21
2339.115234374993
 31
0.0
1001
REVIT
1002
{
1070
     3
1000
790271
1002
}
  0
LINE
  5
DD
330
87
100
AcDbEntity
  8
M-PIPE
100
AcDbLine
 10
660.1039074431967
 20
2317.683984374985
 30
0.0
 11
660.1039074431334
 21
2339.115234374993
 31
0.0
1001
REVIT
1002
{
1070
     3
1000
790271
1002
}
  0
LINE
  5
DE
330
87
100
AcDbEntity
  8
M-PIPE
100
AcDbLine
 10
660.1039074431967
 20
2317.683984374985
 30
0.0
 11
675.0930844820544
 21
2317.683984374986
 31
0.0
1001
REVIT
1002
{
1070
     3
1000
790271
1002
}
  0
LINE
  5
DF
330
87
100
AcDbEntity
  8
M-PIPE
100
AcDbLine
 10
675.0930844820544
 20
2317.683984374986
 30
0.0
 11
675.0930844820544
 21
2332.522028159014
 31
0.0
1001
REVIT
1002
{
1070
     3
1000
790271
1002
}
  0
LINE
  5
E0
330
87
100
AcDbEntity
  8
M-PIPE
100
AcDbLine
 10
675.0930844820544
 20
2332.522028159014
 30
0.0
 11
677.4865382427659
 21
2335.940234374993
 31
0.0
1001
REVIT
1002
{
1070
     3
1000
790271
1002
}
  0
LINE
  5
E1
330
87
100
AcDbEntity
  8
M-PIPE
100
AcDbLine
 10
675.093084482981
 20
2384.358984375001
 30
0.0
 11
660.1039074431964
 21
2384.358984375001
 31
0.0
1001
REVIT
1002
{
1070
     3
1000
790271
1002
}
  0
LINE
  5
E2
330
87
100
AcDbEntity
  8
M-PIPE
100
AcDbLine
 10
660.1039074431334
 20
2364.700724177046
 30
0.0
 11
660.1039074431964
 21
2384.358984375001
 31
0.0
1001
REVIT
1002
{
1070
     3
1000
790271
1002
}
  0
LINE
  5
E3
330
87
100
AcDbEntity
  8
M-PIPE
100
AcDbLine
 10
678.4682363520903
 20
2364.700724177046
 30
0.0
 11
675.0930844829813
 21
2369.520940590951
 31
0.0
1001
REVIT
1002
{
1070
     3
1000
790271
1002
}
  0
LINE
  5
E4
330
87
100
AcDbEntity
  8
M-PIPE
100
AcDbLine
 10
675.0930844829813
 20
2369.520940590951
 30
0.0
 11
675.093084482981
 21
2384.358984375001
 31
0.0
1001
REVIT
1002
{
1070
     3
1000
790271
1002
}
  0
LINE
  5
E5
330
87
100
AcDbEntity
  8
M-PIPE
100
AcDbLine
 10
734.3195324431579
 20
2333.906249999995
 30
0.0
 11
734.3195324431577
 21
2368.136718749995
 31
0.0
1001
REVIT
1002
{
1070
     3
1000
790271
1002
}
  0
LINE
  5
E6
330
87
100
AcDbEntity
  8
M-PIPE
100
AcDbLine
 10
697.0132824431234
 20
2368.136718749994
 30
0.0
 11
697.0132824431234
 21
2362.133984374986
 31
0.0
1001
REVIT
1002
{
1070
     3
1000
790271
1002
}
  0
LINE
  5
E7
330
87
100
AcDbEntity
  8
M-PIPE
100
AcDbLine
 10
697.0132824431234
 20
2339.908984374987
 30
0.0
 11
697.0132824431234
 21
2333.906249999995
 31
0.0
1001
REVIT
1002
{
1070
     3
1000
790271
1002
}
  0
LINE
  5
E8
330
87
100
AcDbEntity
  8
M-PIPE
100
AcDbLine
 10
688.6789074430072
 20
2339.908984374987
 30
0.0
 11
697.0132824431234
 21
2339.908984374987
 31
0.0
1001
REVIT
1002
{
1070
     3
1000
790271
1002
}
  0
LINE
  5
E9
330
87
100
AcDbEntity
  8
M-PIPE
100
AcDbLine
 10
697.0132824431234
 20
2362.133984374986
 30
0.0
 11
688.6789074430072
 21
2362.133984374986
 31
0.0
1001
REVIT
1002
{
1070
     3
1000
790271
1002
}
  0
LINE
  5
EA
330
87
100
AcDbEntity
  8
M-PIPE
100
AcDbLine
 10
734.3195324431564
 20
2333.906249999994
 30
0.0
 11
715.6664074431396
 21
2333.906249999994
 31
0.0
1001
REVIT
1002
{
1070
     3
1000
790271
1002
}
  0
LINE
  5
EB
330
87
100
AcDbEntity
  8
M-PIPE
100
AcDbLine
 10
715.6664074431395
 20
2333.906249999994
 30
0.0
 11
697.0132824431222
 21
2333.906249999994
 31
0.0
1001
REVIT
1002
{
1070
     3
1000
790271
1002
}
  0
SPLINE
  5
EC
330
87
100
AcDbEntity
  8
M-PIPE
100
AcDbSpline
210
0.0
220
0.0
230
1.0
 70
     8
 71
     3
 72
    27
 73
    23
 74
     0
 42
0.000000001
 43
0.0000000001
 40
0.0
 40
0.0
 40
0.0
 40
0.0
 40
0.0555555555555556
 40
0.1111111111111111
 40
0.2222222222222222
 40
0.2777777777777778
 40
0.3333333333333333
 40
0.3472222222222222
 40
0.3611111111111111
 40
0.3888888888888888
 40
0.4444444444444445
 40
0.4722222222222223
 40
0.5
 40
0.5277777777777778
 40
0.5555555555555556
 40
0.6111111111111112
 40
0.6388888888888889
 40
0.6666666666666666
 40
0.7777777777777777
 40
0.8888888888888889
 40
0.9444444444444444
 40
1.0
 40
1.0
 40
1.0
 40
1.0
 10
697.013282443122
 20
2362.133984374985
 30
0.0
 10
697.013282443122
 20
2362.120611252035
 30
0.0
 10
697.0896860016946
 20
2361.989723239825
 30
0.0
 10
697.4926632829274
 20
2361.328403129208
 30
0.0
 10
698.2288427404887
 20
2359.99116348362
 30
0.0
 10
699.0702406894051
 20
2358.207814520082
 30
0.0
 10
699.5367254216119
 20
2357.036838559445
 30
0.0
 10
699.8105525386433
 20
2356.20873159753
 30
0.0
 10
699.9901863057191
 20
2355.633339506477
 30
0.0
 10
700.2845406777738
 20
2354.579478402114
 30
0.0
 10
700.5374864841812
 20
2353.324283392153
 30
0.0
 10
700.6527238563887
 20
2352.033183396285
 30
0.0
 10
700.6835448243455
 20
2351.023274389339
 30
0.0
 10
700.6530113705159
 20
2350.013311402177
 30
0.0
 10
700.5379261182923
 20
2348.721857789347
 30
0.0
 10
700.2854541237025
 20
2347.466506329831
 30
0.0
 10
699.9474838124233
 20
2346.259120316207
 30
0.0
 10
699.4060973011722
 20
2344.570975013416
 30
0.0
 10
698.4121924632577
 20
2342.386022019479
 30
0.0
 10
697.4931091557486
 20
2340.715295681491
 30
0.0
 10
697.0896562609274
 20
2340.053060346753
 30
0.0
 10
697.0132824431222
 20
2339.922263901362
 30
0.0
 10
697.0132824431222
 20
2339.908984374986
 30
0.0
1001
REVIT
1002
{
1070
     3
1000
790271
1002
}
  0
LINE
  5
ED
330
87
100
AcDbEntity
  8
M-PIPE
100
AcDbLine
 10
734.3195324431563
 20
2368.136718749994
 30
0.0
 11
715.6664074431395
 21
2368.136718749994
 31
0.0
1001
REVIT
1002
{
1070
     3
1000
790271
1002
}
  0
LINE
  5
EE
330
87
100
AcDbEntity
  8
M-PIPE
100
AcDbLine
 10
715.6664074431394
 20
2368.136718749994
 30
0.0
 11
697.013282443122
 21
2368.136718749994
 31
0.0
1001
REVIT
1002
{
1070
     3
1000
790271
1002
}
  0
LINE
  5
EF
330
87
100
AcDbEntity
  8
M-PIPE
100
AcDbLine
 10
700.7835949431696
 20
2368.136718749994
 30
0.0
 11
700.7835949431696
 21
2377.001484374986
 31
0.0
1001
REVIT
1002
{
1070
     3
1000
790271
1002
}
  0
LINE
  5
F0
330
87
100
AcDbEntity
  8
M-PIPE
100
AcDbLine
 10
730.5492199431707
 20
2377.001484374986
 30
0.0
 11
730.5492199431709
 21
2368.136718749994
 31
0.0
1001
REVIT
1002
{
1070
     3
1000
790271
1002
}
  0
LINE
  5
F1
330
87
100
AcDbEntity
  8
M-PIPE
100
AcDbLine
 10
721.8310702269263
 20
2377.001484374986
 30
0.0
 11
721.8310702269263
 21
2368.136718749994
 31
0.0
1001
REVIT
1002
{
1070
     3
1000
790271
1002
}
  0
LINE
  5
F2
330
87
100
AcDbEntity
  8
M-PIPE
100
AcDbLine
 10
709.5017446594141
 20
2377.001484374986
 30
0.0
 11
709.5017446594141
 21
2368.136718749994
 31
0.0
1001
REVIT
1002
{
1070
     3
1000
790271
1002
}
  0
LINE
  5
F3
330
87
100
AcDbEntity
  8
M-PIPE
100
AcDbLine
 10
732.03750119314
 20
2321.999999999994
 30
0.0
 11
722.4475365052711
 21
2321.999999999994
 31
0.0
1001
REVIT
1002
{
1070
     3
1000
790271
1002
}
  0
LINE
  5
F4
330
87
100
AcDbEntity
  8
M-PIPE
100
AcDbLine
 10
722.4475365052711
 20
2321.999999999994
 30
0.0
 11
708.8852783810076
 21
2321.999999999994
 31
0.0
1001
REVIT
1002
{
1070
     3
1000
790271
1002
}
  0
LINE
  5
F5
330
87
100
AcDbEntity
  8
M-PIPE
100
AcDbLine
 10
708.8852783810076
 20
2321.999999999994
 30
0.0
 11
699.2953136931388
 21
2321.999999999994
 31
0.0
1001
REVIT
1002
{
1070
     3
1000
790271
1002
}
  0
LINE
  5
F6
330
87
100
AcDbEntity
  8
M-PIPE
100
AcDbLine
 10
732.0375011931398
 20
2333.906249999994
 30
0.0
 11
732.03750119314
 21
2321.999999999994
 31
0.0
1001
REVIT
1002
{
1070
     3
1000
790271
1002
}
  0
LINE
  5
F7
330
87
100
AcDbEntity
  8
M-PIPE
100
AcDbLine
 10
722.447536505271
 20
2333.906249999994
 30
0.0
 11
722.4475365052711
 21
2321.999999999994
 31
0.0
1001
REVIT
1002
{
1070
     3
1000
790271
1002
}
  0
LINE
  5
F8
330
87
100
AcDbEntity
  8
M-PIPE
100
AcDbLine
 10
708.8852783810076
 20
2333.906249999994
 30
0.0
 11
708.8852783810076
 21
2321.999999999994
 31
0.0
1001
REVIT
1002
{
1070
     3
1000
790271
1002
}
  0
LINE
  5
F9
330
87
100
AcDbEntity
  8
M-PIPE
100
AcDbLine
 10
699.2953136931388
 20
2333.906249999994
 30
0.0
 11
699.2953136931388
 21
2321.999999999994
 31
0.0
1001
REVIT
1002
{
1070
     3
1000
790271
1002
}
  0
LWPOLYLINE
  5
FA
330
87
100
AcDbEntity
  8
P-SANR-FIXT
100
AcDbPolyline
 90
       32
 70
   128
 43
0.0
 10
623.111315018166
 20
1349.999999999994
 10
621.5117416507005
 20
1350.031995733555
 10
619.914727259399
 20
1350.127931747889
 10
618.3228267266092
 20
1350.287654565839
 10
616.7385867535963
 20
1350.510908664969
 10
615.1645417863634
 20
1350.797336886344
 10
613.6032099610806
 20
1351.146481005913
 10
612.0570890756014
 20
1351.557782467563
 10
610.5286525935213
 20
1352.030583276696
 10
609.0203456871624
 20
1352.564127052876
 10
607.5345813258201
 20
1353.157560239878
 10
606.073736415526
 20
1353.809933471195
 10
604.6401479965066
 20
1354.520203088822
 10
603.2361095044164
 20
1355.287232812888
 10
601.8638671013304
 20
1356.109795559457
 10
600.5256160823645
 20
1356.986575403606
 10
599.2234973636702
 20
1357.916169684622
 10
597.9595940574272
 20
1358.897091249956
 10
596.7359281393071
 20
1359.927770834358
 10
595.5544572137438
 20
1361.006559570357
 10
594.4170713821851
 20
1362.131731626107
 10
593.3255902193316
 20
1363.301486966342
 10
592.2817598622072
 20
1364.51395423205
 10
591.2872502167114
 20
1365.767193734255
 10
590.3436522861259
 20
1367.059200557095
 10
589.45247562585
 20
1368.387907765268
 10
588.6151459284323
 20
1369.751189710682
 10
587.8330027427678
 20
1371.146865433044
 10
587.1072973311056
 20
1372.572702148925
 10
586.4391906672952
 20
1374.026418823742
 10
585.8297515794767
 20
1375.505689820927
 10
585.3957426574529
 20
1376.675751371878
  0
LWPOLYLINE
  5
FB
330
87
100
AcDbEntity
  8
P-SANR-FIXT
100
AcDbPolyline
 90
       32
 70
   128
 43
0.0
 10
845.9370722289524
 20
1376.675751371878
 10
845.3740759626681
 20
1375.17818872243
 10
844.7516435000929
 20
1373.704337809209
 10
844.0707706003886
 20
1372.256556479271
 10
843.3325465149492
 20
1370.837160873899
 10
842.5381522448322
 20
1369.448421723275
 10
841.6888586514083
 20
1368.092560713791
 10
840.7860244232535
 20
1366.771746933827
 10
839.8310939025389
 20
1365.488093403672
 10
838.8255947743898
 20
1364.243653695144
 10
837.7711356229163
 20
1363.040418646309
 10
836.6694033578212
 20
1361.88031317657
 10
835.5221605157053
 20
1360.765193207201
 10
834.3312424403841
 20
1359.696842692275
 10
833.0985543467283
 20
1358.676970764712
 10
831.8260682727292
 20
1357.707209002036
 10
830.5158199246555
 20
1356.789108816196
 10
829.1699054203595
 20
1355.924138971637
 10
827.7904779359349
 20
1355.113683235594
 10
826.3797442610947
 20
1354.359038164356
 10
824.9399612687781
 20
1353.661411029057
 10
823.4734323046355
 20
1353.021917884292
 10
821.9825035021671
 20
1352.441581782675
 10
820.4695600294082
 20
1351.92133113817
 10
818.9370222731717
 20
1351.461998240829
 10
817.3873419669435
 20
1351.0643179253
 10
815.8229982686327
 20
1350.728926395255
 10
814.2464937944478
 20
1350.456360205595
 10
812.6603506152445
 20
1350.24705540408
 10
811.0671062217504
 20
1350.101346833742
 10
809.469309465121
 20
1350.019467597211
 10
808.2214998682392
 20
1349.999999999994
  0
LWPOLYLINE
  5
FC
330
87
100
AcDbEntity
  8
P-SANR-FIXT
100
AcDbPolyline
 90
        5
 70
   128
 43
0.0
 10
808.2214998682397
 20
1349.999999999994
 10
808.1474656663163
 20
1349.999999999994
 10
807.9254814994762
 20
1349.999999999994
 10
807.5559024950321
 20
1349.999999999994
 10
807.4822702708397
 20
1349.999999999994
  0
LWPOLYLINE
  5
FD
330
87
100
AcDbEntity
  8
P-SANR-FIXT
100
AcDbPolyline
 90
        5
 70
   128
 43
0.0
 10
623.8702614129294
 20
1349.999999999994
 10
623.5885380192832
 20
1349.999999999994
 10
623.2868205671585
 20
1349.999999999994
 10
623.132890747441
 20
1349.999999999994
 10
623.1113150181657
 20
1349.999999999994
  0
LWPOLYLINE
  5
FE
330
87
100
AcDbEntity
  8
P-SANR-FIXT
100
AcDbPolyline
 90
       10
 70
   128
 43
0.0
 10
585.3957426574542
 20
1376.675751371875
 10
578.9641972963533
 20
1396.109858685584
 10
573.3149534975332
 20
1415.785614003084
 10
568.4570488459644
 20
1435.671540313139
 10
564.3982549527914
 20
1455.735824375755
 10
561.1450650224136
 20
1475.946367616587
 10
558.7026834647426
 20
1496.270837477801
 10
557.0750175692573
 20
1516.676719143275
 10
556.2646712541736
 20
1537.131367555366
 10
556.1664074432036
 20
1547.159999999994
  0
LWPOLYLINE
  5
FF
330
87
100
AcDbEntity
  8
P-SANR-FIXT
100
AcDbPolyline
 90
       10
 70
   128
 43
0.0
 10
875.1664074432017
 20
1547.159999999994
 10
874.7570208618132
 20
1526.693400247235
 10
873.5295160488472
 20
1506.259542688106
 10
871.4858567501503
 20
1485.89111713571
 10
868.6293123846436
 20
1465.620708725899
 10
864.9644528139477
 20
1445.480745788006
 10
860.4971410315814
 20
1425.503447966434
 10
855.2345237834201
 20
1405.720774676102
 10
849.1850201344295
 20
1386.164373974197
 10
845.9370722289513
 20
1376.675751371875
  0
LWPOLYLINE
  5
100
330
87
100
AcDbEntity
  8
P-SANR-FIXT
100
AcDbPolyline
 90
       15
 70
   128
 43
0.0
 10
556.1664074432027
 20
2152.15999999999
 10
555.8419270188331
 20
2162.379204267551
 10
555.9263653187705
 20
2172.603210017816
 10
556.4195872597478
 20
2182.815661022588
 10
557.3208037918742
 20
2193.000219538801
 10
558.6285731609477
 20
2203.140592445418
 10
560.3408032149537
 20
2213.220557308953
 10
562.4547547510622
 20
2223.223988335902
 10
564.9670458977673
 20
2233.134882170573
 10
567.8736575251615
 20
2242.937383497042
 10
571.169939674685
 20
2252.615810404277
 10
574.8506189980678
 20
2262.154679473844
 10
578.9098071935621
 20
2271.538730550086
 10
583.3410104259695
 20
2280.752951153102
 10
587.9286421665511
 20
2289.407588404093
  0
LWPOLYLINE
  5
101
330
87
100
AcDbEntity
  8
P-SANR-FIXT
100
AcDbPolyline
 90
       15
 70
   128
 43
0.0
 10
843.4041727198541
 20
2289.407588404093
 10
848.1851387496266
 20
2280.369901353188
 10
852.6008694287648
 20
2271.148255839655
 10
856.6443005301547
 20
2261.757404529138
 10
860.3089634265865
 20
2252.212370780457
 10
863.5889954391789
 20
2242.528424611445
 10
866.4791492164146
 20
2232.721058270176
 10
868.9748011287836
 20
2222.805961450667
 10
871.0719586656031
 20
2212.798996192724
 10
872.767266822184
 20
2202.716171506051
 10
874.0580134671223
 20
2192.573617759261
 10
874.9421336811305
 20
2182.387560874719
 10
875.4182130604689
 20
2172.174296370531
 10
875.4854899796884
 20
2161.95016329119
 10
875.1664074432026
 20
2152.15999999999
  0
LWPOLYLINE
  5
102
330
87
100
AcDbEntity
  8
P-SANR-FIXT
100
AcDbPolyline
 90
       28
 70
   128
 43
0.0
 10
587.9286421665511
 20
2289.407588404093
 10
588.7327160595678
 20
2290.790745611152
 10
589.5914583150189
 20
2292.140642060356
 10
590.5034951284846
 20
2293.455118205348
 10
591.4673674356205
 20
2294.732071164704
 10
592.4815332463508
 20
2295.96945808609
 10
593.544370111722
 20
2297.165299414393
 10
594.6541777194757
 20
2298.317682058589
 10
595.8091806141858
 20
2299.424762452273
 10
597.0075310376086
 20
2300.484769502983
 10
598.2473118847008
 20
2301.496007425558
 10
599.5265397705797
 20
2302.456858455041
 10
600.8431682035152
 20
2303.365785434758
 10
602.1950908588803
 20
2304.221334275434
 10
603.5801449488211
 20
2305.022136281431
 10
604.9961146822566
 20
2305.766910340368
 10
606.4407348096702
 20
2306.454464972627
 10
607.9116942470276
 20
2307.083700237469
 10
609.4066397730167
 20
2307.653609492698
 10
610.9231797937011
 20
2308.16328100508
 10
612.4588881685582
 20
2308.611899408919
 10
614.0113080917894
 20
2308.99874701047
 10
615.5779560226821
 20
2309.323204936094
 10
617.1563256587477
 20
2309.584754122323
 10
618.7438919452692
 20
2309.782976146253
 10
620.3381151148509
 20
2309.917553894932
 10
621.9364447505045
 20
2309.988272072668
 10
622.904998642564
 20
2309.999999999995
  0
LWPOLYLINE
  5
103
330
87
100
AcDbEntity
  8
P-SANR-FIXT
100
AcDbPolyline
 90
       28
 70
   128
 43
0.0
 10
808.4278162438414
 20
2309.999999999995
 10
810.0273896113067
 20
2309.968004266434
 10
811.6244040026082
 20
2309.8720682521
 10
813.2163045353982
 20
2309.71234543415
 10
814.8005445084111
 20
2309.48909133502
 10
816.3745894756438
 20
2309.202663113645
 10
817.9359213009266
 20
2308.853518994077
 10
819.482042186406
 20
2308.442217532426
 10
821.010478668486
 20
2307.969416723293
 10
822.5187855748451
 20
2307.435872947113
 10
824.0045499361873
 20
2306.842439760111
 10
825.4653948464813
 20
2306.190066528793
 10
826.8989832655007
 20
2305.479796911166
 10
828.3030217575909
 20
2304.712767187101
 10
829.6752641606767
 20
2303.890204440532
 10
831.0135151796428
 20
2303.013424596382
 10
832.3156338983372
 20
2302.083830315366
 10
833.5795372045801
 20
2301.102908750032
 10
834.8032031227003
 20
2300.072229165631
 10
835.9846740482634
 20
2298.993440429631
 10
837.1220598798222
 20
2297.868268373882
 10
838.2135410426757
 20
2296.698513033648
 10
839.2573713998004
 20
2295.486045767939
 10
840.251881045296
 20
2294.232806265734
 10
841.1954789758812
 20
2292.940799442893
 10
842.0866556361572
 20
2291.612092234721
 10
842.9239853335751
 20
2290.248810289306
 10
843.4041727198541
 20
2289.407588404093
  0
LWPOLYLINE
  5
104
330
87
100
AcDbEntity
  8
P-SANR-FIXT
100
AcDbPolyline
 90
        5
 70
   128
 43
0.0
 10
622.904998642564
 20
2309.999999999995
 10
622.9791978755819
 20
2309.999999999995
 10
623.2016768716911
 20
2309.999999999995
 10
623.5720797119577
 20
2309.999999999995
 10
623.6438667818551
 20
2309.999999999995
  0
LWPOLYLINE
  5
105
330
87
100
AcDbEntity
  8
P-SANR-FIXT
100
AcDbPolyline
 90
        5
 70
   128
 43
0.0
 10
807.6687058285502
 20
2309.999999999995
 10
807.9495294555526
 20
2309.999999999995
 10
808.2519194719802
 20
2309.999999999995
 10
808.4061924196841
 20
2309.999999999995
 10
808.4278162438414
 20
2309.999999999995
  0
LINE
  5
106
330
87
100
AcDbEntity
  8
P-SANR-FIXT
100
AcDbLine
 10
808.2214998682378
 20
1349.999999999994
 30
0.0
 11
736.5664074432032
 21
1349.999999999994
 31
0.0
  0
LINE
  5
107
330
87
100
AcDbEntity
  8
P-SANR-FIXT
100
AcDbLine
 10
694.7664074431996
 20
1349.999999999994
 30
0.0
 11
623.1113150181648
 21
1349.999999999994
 31
0.0
  0
ARC
  5
108
330
87
100
AcDbEntity
  8
P-SANR-FIXT
100
AcDbCircle
 10
623.1113150181645
 20
1389.999999999994
 30
0.0
 40
40.0
100
AcDbArc
 50
199.4574189767544
 51
269.9999999999999
  0
ARC
  5
109
330
87
100
AcDbEntity
  8
P-SANR-FIXT
100
AcDbCircle
 10
808.2214998682381
 20
1389.999999999994
 30
0.0
 40
39.99999999999992
100
AcDbArc
 50
269.9999999999997
 51
340.5425810232459
  0
ARC
  5
10A
330
87
100
AcDbEntity
  8
P-SANR-FIXT
100
AcDbCircle
 10
1067.967870734365
 20
1547.159999999998
 30
0.0
 40
511.801463291163
100
AcDbArc
 50
180.0000000000001
 51
199.4574189767542
  0
ARC
  5
10B
330
87
100
AcDbEntity
  8
P-SANR-FIXT
100
AcDbCircle
 10
363.3649441520376
 20
1547.159999999998
 30
0.0
 40
511.8014632911622
100
AcDbArc
 50
340.5425810232454
 51
359.9999999999996
  0
LINE
  5
10C
330
87
100
AcDbEntity
  8
P-SANR-FIXT
100
AcDbLine
 10
556.1664074432006
 20
1547.159999999997
 30
0.0
 11
556.1664074432006
 21
1587.839999999993
 31
0.0
  0
LINE
  5
10D
330
87
100
AcDbEntity
  8
P-SANR-FIXT
100
AcDbLine
 10
556.1664074432006
 20
1702.159999999994
 30
0.0
 11
556.1664074432006
 21
2037.839999999994
 31
0.0
  0
LINE
  5
10E
330
87
100
AcDbEntity
  8
P-SANR-FIXT
100
AcDbLine
 10
875.1664074432019
 20
2037.839999999996
 30
0.0
 11
875.1664074432019
 21
1702.159999999992
 31
0.0
  0
LINE
  5
10F
330
87
100
AcDbEntity
  8
P-SANR-FIXT
100
AcDbLine
 10
875.1664074432019
 20
1587.839999999996
 30
0.0
 11
875.1664074432019
 21
1547.159999999997
 31
0.0
  0
ARC
  5
110
330
87
100
AcDbEntity
  8
P-SANR-FIXT
100
AcDbCircle
 10
811.4502089974116
 20
2165.380531112751
 30
0.0
 40
255.6259020108739
100
AcDbArc
 50
177.0354384310001
 51
182.9645615689998
  0
ARC
  5
111
330
87
100
AcDbEntity
  8
P-SANR-FIXT
100
AcDbCircle
 10
811.4502089974116
 20
2165.380531112751
 30
0.0
 40
255.6259020108738
100
AcDbArc
 50
150.9750975552797
 51
177.0354384310001
  0
ARC
  5
112
330
87
100
AcDbEntity
  8
P-SANR-FIXT
100
AcDbCircle
 10
619.8826058889909
 20
2165.380531112751
 30
0.0
 40
255.6259020108741
100
AcDbArc
 50
357.0354384309998
 51
29.0249024447207
  0
ARC
  5
113
330
87
100
AcDbEntity
  8
P-SANR-FIXT
100
AcDbCircle
 10
622.9049986425628
 20
2269.999999999994
 30
0.0
 40
40.00000000000002
100
AcDbArc
 50
90.0
 51
150.9750975552821
  0
ARC
  5
114
330
87
100
AcDbEntity
  8
P-SANR-FIXT
100
AcDbCircle
 10
808.4278162438399
 20
2269.999999999994
 30
0.0
 40
39.99999999999983
100
AcDbArc
 50
29.02490244471866
 51
90.00000000000026
  0
LINE
  5
115
330
87
100
AcDbEntity
  8
P-SANR-FIXT
100
AcDbLine
 10
622.9049986425629
 20
2309.999999999994
 30
0.0
 11
702.466407443201
 21
2309.999999999994
 31
0.0
  0
LINE
  5
116
330
87
100
AcDbEntity
  8
P-SANR-FIXT
100
AcDbLine
 10
728.8664074432016
 20
2309.999999999994
 30
0.0
 11
808.4278162438396
 21
2309.999999999994
 31
0.0
  0
LINE
  5
117
330
87
100
AcDbEntity
  8
P-SANR-FIXT
100
AcDbLine
 10
883.1664074432023
 20
1736.660000000019
 30
0.0
 11
883.1664074432023
 21
1732.159999999995
 31
0.0
  0
LINE
  5
118
330
87
100
AcDbEntity
  8
P-SANR-FIXT
100
AcDbLine
 10
908.1664074432023
 20
1732.159999999995
 30
0.0
 11
908.1664074432023
 21
1736.660000000019
 31
0.0
  0
LINE
  5
119
330
87
100
AcDbEntity
  8
P-SANR-FIXT
100
AcDbLine
 10
886.6664074432106
 20
1740.960000000016
 30
0.0
 11
887.3914902255483
 21
1740.960000000016
 31
0.0
  0
LINE
  5
11A
330
87
100
AcDbEntity
  8
P-SANR-FIXT
100
AcDbLine
 10
887.3914902255483
 20
1740.960000000016
 30
0.0
 11
894.9413246608632
 21
1740.960000000016
 31
0.0
  0
LINE
  5
11B
330
87
100
AcDbEntity
  8
P-SANR-FIXT
100
AcDbLine
 10
894.941324660863
 20
1740.960000000016
 30
0.0
 11
896.3914902255389
 21
1740.960000000016
 31
0.0
  0
LINE
  5
11C
330
87
100
AcDbEntity
  8
P-SANR-FIXT
100
AcDbLine
 10
896.3914902255389
 20
1740.960000000016
 30
0.0
 11
903.9413246608539
 21
1740.960000000016
 31
0.0
  0
LINE
  5
11D
330
87
100
AcDbEntity
  8
P-SANR-FIXT
100
AcDbLine
 10
903.9413246608539
 20
1740.960000000016
 30
0.0
 11
904.6664074431919
 21
1740.960000000016
 31
0.0
  0
LINE
  5
11E
330
87
100
AcDbEntity
  8
P-SANR-FIXT
100
AcDbLine
 10
886.6664074432106
 20
1736.660000000016
 30
0.0
 11
886.6664074432106
 21
1740.960000000016
 31
0.0
  0
LINE
  5
11F
330
87
100
AcDbEntity
  8
P-SANR-FIXT
100
AcDbLine
 10
887.3914902255483
 20
1736.660000000016
 30
0.0
 11
887.3914902255483
 21
1740.960000000016
 31
0.0
  0
LINE
  5
120
330
87
100
AcDbEntity
  8
P-SANR-FIXT
100
AcDbLine
 10
894.941324660863
 20
1736.660000000016
 30
0.0
 11
894.941324660863
 21
1740.960000000016
 31
0.0
  0
LINE
  5
121
330
87
100
AcDbEntity
  8
P-SANR-FIXT
100
AcDbLine
 10
896.3914902255389
 20
1736.660000000016
 30
0.0
 11
896.3914902255389
 21
1740.960000000016
 31
0.0
  0
LINE
  5
122
330
87
100
AcDbEntity
  8
P-SANR-FIXT
100
AcDbLine
 10
903.9413246608539
 20
1736.660000000016
 30
0.0
 11
903.9413246608539
 21
1740.960000000016
 31
0.0
  0
LINE
  5
123
330
87
100
AcDbEntity
  8
P-SANR-FIXT
100
AcDbLine
 10
904.6664074431919
 20
1736.660000000016
 30
0.0
 11
904.6664074431919
 21
1740.960000000016
 31
0.0
  0
LINE
  5
124
330
87
100
AcDbEntity
  8
P-SANR-FIXT
100
AcDbLine
 10
883.1664074432008
 20
1736.660000000019
 30
0.0
 11
908.1664074432008
 21
1736.660000000019
 31
0.0
  0
LINE
  5
125
330
87
100
AcDbEntity
  8
P-SANR-FIXT
100
AcDbLine
 10
883.166407443203
 20
2186.660000000019
 30
0.0
 11
883.166407443203
 21
2182.159999999995
 31
0.0
  0
LINE
  5
126
330
87
100
AcDbEntity
  8
P-SANR-FIXT
100
AcDbLine
 10
908.166407443203
 20
2182.159999999995
 30
0.0
 11
908.166407443203
 21
2186.660000000019
 31
0.0
  0
LINE
  5
127
330
87
100
AcDbEntity
  8
P-SANR-FIXT
100
AcDbLine
 10
886.6664074432106
 20
2190.960000000017
 30
0.0
 11
887.3914902255483
 21
2190.960000000017
 31
0.0
  0
LINE
  5
128
330
87
100
AcDbEntity
  8
P-SANR-FIXT
100
AcDbLine
 10
887.3914902255483
 20
2190.960000000017
 30
0.0
 11
894.9413246608632
 21
2190.960000000017
 31
0.0
  0
LINE
  5
129
330
87
100
AcDbEntity
  8
P-SANR-FIXT
100
AcDbLine
 10
894.941324660863
 20
2190.960000000017
 30
0.0
 11
896.3914902255389
 21
2190.960000000017
 31
0.0
  0
LINE
  5
12A
330
87
100
AcDbEntity
  8
P-SANR-FIXT
100
AcDbLine
 10
896.3914902255389
 20
2190.960000000017
 30
0.0
 11
903.9413246608539
 21
2190.960000000017
 31
0.0
  0
LINE
  5
12B
330
87
100
AcDbEntity
  8
P-SANR-FIXT
100
AcDbLine
 10
903.9413246608539
 20
2190.960000000017
 30
0.0
 11
904.6664074431919
 21
2190.960000000017
 31
0.0
  0
LINE
  5
12C
330
87
100
AcDbEntity
  8
P-SANR-FIXT
100
AcDbLine
 10
886.6664074432106
 20
2186.660000000017
 30
0.0
 11
886.6664074432106
 21
2190.960000000017
 31
0.0
  0
LINE
  5
12D
330
87
100
AcDbEntity
  8
P-SANR-FIXT
100
AcDbLine
 10
887.3914902255483
 20
2186.660000000017
 30
0.0
 11
887.3914902255483
 21
2190.960000000017
 31
0.0
  0
LINE
  5
12E
330
87
100
AcDbEntity
  8
P-SANR-FIXT
100
AcDbLine
 10
894.941324660863
 20
2186.660000000017
 30
0.0
 11
894.941324660863
 21
2190.960000000017
 31
0.0
  0
LINE
  5
12F
330
87
100
AcDbEntity
  8
P-SANR-FIXT
100
AcDbLine
 10
896.3914902255389
 20
2186.660000000017
 30
0.0
 11
896.3914902255389
 21
2190.960000000017
 31
0.0
  0
LINE
  5
130
330
87
100
AcDbEntity
  8
P-SANR-FIXT
100
AcDbLine
 10
903.9413246608539
 20
2186.660000000017
 30
0.0
 11
903.9413246608539
 21
2190.960000000017
 31
0.0
  0
LINE
  5
131
330
87
100
AcDbEntity
  8
P-SANR-FIXT
100
AcDbLine
 10
904.6664074431919
 20
2186.660000000017
 30
0.0
 11
904.6664074431919
 21
2190.960000000017
 31
0.0
  0
LINE
  5
132
330
87
100
AcDbEntity
  8
P-SANR-FIXT
100
AcDbLine
 10
883.1664074432014
 20
2186.660000000019
 30
0.0
 11
908.1664074432014
 21
2186.660000000019
 31
0.0
  0
LINE
  5
133
330
87
100
AcDbEntity
  8
P-SANR-FIXT
100
AcDbLine
 10
825.1664074432028
 20
1438.399999999993
 30
0.0
 11
825.1664074432028
 21
1587.839999999996
 31
0.0
  0
LINE
  5
134
330
87
100
AcDbEntity
  8
P-SANR-FIXT
100
AcDbLine
 10
825.1664074432028
 20
1702.159999999992
 30
0.0
 11
825.1664074432028
 21
2037.839999999996
 31
0.0
  0
LINE
  5
135
330
87
100
AcDbEntity
  8
P-SANR-FIXT
100
AcDbLine
 10
825.1664074432028
 20
2152.159999999994
 30
0.0
 11
825.1664074432028
 21
2217.799999999995
 31
0.0
  0
LINE
  5
136
330
87
100
AcDbEntity
  8
P-SANR-FIXT
100
AcDbLine
 10
606.1664074432025
 20
2217.799999999995
 30
0.0
 11
606.1664074432025
 21
2152.159999999995
 31
0.0
  0
LINE
  5
137
330
87
100
AcDbEntity
  8
P-SANR-FIXT
100
AcDbLine
 10
606.1664074432025
 20
2037.839999999995
 30
0.0
 11
606.1664074432025
 21
1702.159999999994
 31
0.0
  0
LINE
  5
138
330
87
100
AcDbEntity
  8
P-SANR-FIXT
100
AcDbLine
 10
606.1664074432025
 20
1587.839999999994
 30
0.0
 11
606.1664074432025
 21
1438.399999999993
 31
0.0
  0
LWPOLYLINE
  5
139
330
87
100
AcDbEntity
  8
P-SANR-FIXT
100
AcDbPolyline
 90
       80
 70
   128
 43
0.0
 10
646.1664074432024
 20
1398.399999999994
 10
646.2220000302647
 20
1398.399999999994
 10
646.3886888551704
 20
1398.399999999994
 10
646.666207251359
 20
1398.399999999994
 10
647.0541112485964
 20
1398.399999999994
 10
647.5517802832362
 20
1398.399999999994
 10
648.1584181909864
 20
1398.399999999994
 10
648.873054480604
 20
1398.399999999994
 10
649.694545886473
 20
1398.399999999994
 10
650.6215781975862
 20
1398.399999999994
 10
651.652668360002
 20
1398.399999999994
 10
652.7861668494153
 20
1398.399999999994
 10
654.0202603100424
 20
1398.399999999994
 10
655.352974455606
 20
1398.399999999994
 10
656.7821772277702
 20
1398.399999999994
 10
658.3055822069801
 20
1398.399999999994
 10
659.9207522702442
 20
1398.399999999994
 10
661.6251034900133
 20
1398.399999999994
 10
663.4159092679103
 20
1398.399999999994
 10
665.2903046967098
 20
1398.399999999994
 10
667.2452911435747
 20
1398.399999999994
 10
669.2777410472318
 20
1398.399999999994
 10
671.3844029214014
 20
1398.399999999994
 10
673.561906556482
 20
1398.399999999994
 10
675.8067684111669
 20
1398.399999999994
 10
678.1153971853671
 20
1398.399999999994
 10
680.4840995655247
 20
1398.399999999994
 10
682.909086133128
 20
1398.399999999994
 10
685.3864774269715
 20
1398.399999999994
 10
687.9123101494668
 20
1398.399999999994
 10
690.482543507074
 20
1398.399999999994
 10
693.093065674708
 20
1398.399999999994
 10
695.739700373782
 20
1398.399999999994
 10
698.418213553363
 20
1398.399999999994
 10
701.1243201637492
 20
1398.399999999994
 10
703.8536910116361
 20
1398.399999999994
 10
706.6019596859016
 20
1398.399999999994
 10
709.3647295429333
 20
1398.399999999994
 10
712.137580740319
 20
1398.399999999994
 10
714.9160773076532
 20
1398.399999999994
 10
717.6957742431424
 20
1398.399999999994
 10
720.4722246246602
 20
1398.399999999994
 10
723.240986723874
 20
1398.399999999994
 10
725.9976311120627
 20
1398.399999999994
 10
728.7377477462581
 20
1398.399999999994
 10
731.4569530243724
 20
1398.399999999994
 10
734.1508967980271
 20
1398.399999999994
 10
736.8152693318612
 20
1398.399999999994
 10
739.4458081981905
 20
1398.399999999994
 10
742.0383050959799
 20
1398.399999999994
 10
744.5886125832295
 20
1398.399999999994
 10
747.0926507119964
 20
1398.399999999994
 10
749.5464135554412
 20
1398.399999999994
 10
751.9459756164551
 20
1398.399999999994
 10
754.2874981076205
 20
1398.399999999994
 10
756.5672350924496
 20
1398.399999999994
 10
758.7815394780841
 20
1398.399999999994
 10
760.9268688498674
 20
1398.399999999994
 10
762.9997911384501
 20
1398.399999999994
 10
764.9969901103703
 20
1398.399999999994
 10
766.9152706733195
 20
1398.399999999994
 10
768.7515639876082
 20
1398.399999999994
 10
770.5029323756554
 20
1398.399999999994
 10
772.1665740216452
 20
1398.399999999994
 10
773.7398274538358
 20
1398.399999999994
 10
775.2201758023448
 20
1398.399999999994
 10
776.6052508256055
 20
1398.399999999994
 10
777.8928366990477
 20
1398.399999999994
 10
779.0808735599441
 20
1398.399999999994
 10
780.1674608027517
 20
1398.399999999994
 10
781.1508601196747
 20
1398.399999999994
 10
782.0294982815869
 20
1398.399999999994
 10
782.8019696548622
 20
1398.399999999994
 10
783.4670384500881
 20
1398.399999999994
 10
784.0236406990663
 20
1398.399999999994
 10
784.4708859569338
 20
1398.399999999994
 10
784.8080587266853
 20
1398.399999999994
 10
785.0346196038154
 20
1398.399999999994
 10
785.1502061392514
 20
1398.399999999994
 10
785.1664074432028
 20
1398.399999999994
  0
LINE
  5
13A
330
87
100
AcDbEntity
  8
P-SANR-FIXT
100
AcDbLine
 10
736.5664074432044
 20
1337.999999999995
 30
0.0
 11
736.5664074432044
 21
1398.399999999994
 31
0.0
  0
LINE
  5
13B
330
87
100
AcDbEntity
  8
P-SANR-FIXT
100
AcDbLine
 10
694.7664074432008
 20
1398.399999999994
 30
0.0
 11
694.7664074432008
 21
1337.999999999995
 31
0.0
  0
LINE
  5
13C
330
87
100
AcDbEntity
  8
P-SANR-FIXT
100
AcDbLine
 10
728.8664074432031
 20
2257.799999999996
 30
0.0
 11
728.8664074432031
 21
2321.999999999995
 31
0.0
  0
LINE
  5
13D
330
87
100
AcDbEntity
  8
P-SANR-FIXT
100
AcDbLine
 10
702.4664074432023
 20
2321.999999999995
 30
0.0
 11
702.4664074432023
 21
2257.799999999996
 31
0.0
  0
LWPOLYLINE
  5
13E
330
87
100
AcDbEntity
  8
P-SANR-FIXT
100
AcDbPolyline
 90
       41
 70
   128
 43
0.0
 10
646.1664074432029
 20
1398.399999999994
 10
644.5668340757375
 20
1398.431995733554
 10
642.969819684436
 20
1398.527931747889
 10
641.3779191516462
 20
1398.687654565839
 10
639.7936791786333
 20
1398.910908664968
 10
638.2196342114004
 20
1399.197336886343
 10
636.6583023861174
 20
1399.546481005912
 10
635.1121815006384
 20
1399.957782467563
 10
633.5837450185582
 20
1400.430583276696
 10
632.0754381121993
 20
1400.964127052876
 10
630.5896737508569
 20
1401.557560239878
 10
629.1288288405629
 20
1402.209933471195
 10
627.6952404215435
 20
1402.920203088822
 10
626.2912019294533
 20
1403.687232812887
 10
624.9189595263674
 20
1404.509795559456
 10
623.5807085074014
 20
1405.386575403606
 10
622.2785897887072
 20
1406.316169684622
 10
621.0146864824641
 20
1407.297091249956
 10
619.7910205643439
 20
1408.327770834358
 10
618.6095496387808
 20
1409.406559570357
 10
617.472163807222
 20
1410.531731626107
 10
616.3806826443683
 20
1411.701486966341
 10
615.336852287244
 20
1412.91395423205
 10
614.3423426417481
 20
1414.167193734255
 10
613.3987447111628
 20
1415.459200557095
 10
612.507568050887
 20
1416.787907765268
 10
611.6702383534692
 20
1418.151189710682
 10
610.8880951678048
 20
1419.546865433044
 10
610.1623897561426
 20
1420.972702148925
 10
609.494283092332
 20
1422.426418823742
 10
608.8848440045136
 20
1423.905689820926
 10
608.3350474652212
 20
1425.408148622442
 10
607.8457730316337
 20
1426.931391614715
 10
607.4178034384721
 20
1428.472981933898
 10
607.0518233457899
 20
1430.030453364336
 10
606.7484182436643
 20
1431.601314283983
 10
606.508073515535
 20
1433.183051650467
 10
606.3311736616969
 20
1434.773135021421
 10
606.2180016841793
 20
1436.36902060265
 10
606.168738634004
 20
1437.968155317662
 10
606.1664074432025
 20
1438.399999999993
  0
LWPOLYLINE
  5
13F
330
87
100
AcDbEntity
  8
P-SANR-FIXT
100
AcDbPolyline
 90
       41
 70
   128
 43
0.0
 10
825.1664074432028
 20
1438.399999999993
 10
825.1344117096419
 20
1436.800426632528
 10
825.0384756953076
 20
1435.203412241226
 10
824.8787528773572
 20
1433.611511708436
 10
824.6554987782278
 20
1432.027271735423
 10
824.3690705568523
 20
1430.453226768191
 10
824.019926437284
 20
1428.891894942908
 10
823.6086249756336
 20
1427.345774057429
 10
823.1358241665004
 20
1425.817337575349
 10
822.60228039032
 20
1424.30903066899
 10
822.0088472033181
 20
1422.823266307647
 10
821.3564739720013
 20
1421.362421397353
 10
820.6462043543741
 20
1419.928832978334
 10
819.8791746303086
 20
1418.524794486244
 10
819.0566118837391
 20
1417.152552083158
 10
818.1798320395897
 20
1415.814301064192
 10
817.2502377585743
 20
1414.512182345498
 10
816.2693161932397
 20
1413.248279039254
 10
815.2386366088386
 20
1412.024613121134
 10
814.1598478728388
 20
1410.843142195571
 10
813.0346758170892
 20
1409.705756364012
 10
811.864920476855
 20
1408.614275201159
 10
810.6524532111459
 20
1407.570444844035
 10
809.399213708941
 20
1406.575935198539
 10
808.107206886101
 20
1405.632337267953
 10
806.778499677928
 20
1404.741160607678
 10
805.4152177325136
 20
1403.90383091026
 10
804.0195420101522
 20
1403.121687724595
 10
802.593705294271
 20
1402.395982312933
 10
801.1399886194535
 20
1401.727875649123
 10
799.6607176222696
 20
1401.118436561304
 10
798.1582588207535
 20
1400.568640022012
 10
796.6350158284805
 20
1400.079365588424
 10
795.0934255092974
 20
1399.651395995263
 10
793.5359540788591
 20
1399.285415902581
 10
791.965093159212
 20
1398.982010800455
 10
790.3833557927282
 20
1398.741666072326
 10
788.7932724217749
 20
1398.564766218488
 10
787.1973868405456
 20
1398.45159424097
 10
785.5982521255331
 20
1398.402331190794
 10
785.1664074432025
 20
1398.399999999994
  0
LWPOLYLINE
  5
140
330
87
100
AcDbEntity
  8
P-SANR-FIXT
100
AcDbPolyline
 90
        4
 70
   128
 43
0.0
 10
785.1664074432028
 20
1398.399999999994
 10
785.1108148561408
 20
1398.399999999994
 10
784.944126031235
 20
1398.399999999994
 10
784.772122971122
 20
1398.399999999994
  0
LWPOLYLINE
  5
141
330
87
100
AcDbEntity
  8
P-SANR-FIXT
100
AcDbPolyline
 90
        5
 70
   128
 43
0.0
 10
646.5405557980699
 20
1398.399999999994
 10
646.5247561597201
 20
1398.399999999994
 10
646.2981952825899
 20
1398.399999999994
 10
646.1826087471542
 20
1398.399999999994
 10
646.1664074432024
 20
1398.399999999994
  0
LWPOLYLINE
  5
142
330
87
100
AcDbEntity
  8
P-SANR-FIXT
100
AcDbPolyline
 90
       41
 70
   128
 43
0.0
 10
606.1664074432025
 20
2217.799999999995
 10
606.1984031767634
 20
2219.399573367461
 10
606.2943391910978
 20
2220.996587758762
 10
606.454062009048
 20
2222.588488291552
 10
606.6773161081775
 20
2224.172728264565
 10
606.963744329553
 20
2225.746773231797
 10
607.3128884491214
 20
2227.308105057081
 10
607.7241899107717
 20
2228.854225942559
 10
608.196990719905
 20
2230.38266242464
 10
608.7305344960853
 20
2231.890969330998
 10
609.3239676830871
 20
2233.376733692341
 10
609.976340914404
 20
2234.837578602635
 10
610.6866105320313
 20
2236.271167021654
 10
611.4536402560966
 20
2237.675205513744
 10
612.276203002666
 20
2239.04744791683
 10
613.1529828468153
 20
2240.385698935797
 10
614.0825771278308
 20
2241.68781765449
 10
615.0634986931654
 20
2242.951720960733
 10
616.0941782775666
 20
2244.175386878854
 10
617.1729670135663
 20
2245.356857804417
 10
618.2981390693158
 20
2246.494243635976
 10
619.4678944095502
 20
2247.585724798829
 10
620.6803616752594
 20
2248.629555155954
 10
621.933601177464
 20
2249.62406480145
 10
623.2256080003042
 20
2250.567662732035
 10
624.5543152084771
 20
2251.458839392311
 10
625.9175971538914
 20
2252.296169089729
 10
627.3132728762529
 20
2253.078312275393
 10
628.7391095921341
 20
2253.804017687055
 10
630.1928262669516
 20
2254.472124350866
 10
631.6720972641356
 20
2255.081563438684
 10
633.1745560656515
 20
2255.631359977977
 10
634.6977990579244
 20
2256.120634411564
 10
636.2393893771076
 20
2256.548604004725
 10
637.7968608075458
 20
2256.914584097407
 10
639.367721727193
 20
2257.217989199533
 10
640.9494590936767
 20
2257.458333927663
 10
642.5395424646303
 20
2257.635233781501
 10
644.1354280458595
 20
2257.748405759018
 10
645.7345627608718
 20
2257.797668809194
 10
646.1664074432026
 20
2257.799999999996
  0
LWPOLYLINE
  5
143
330
87
100
AcDbEntity
  8
P-SANR-FIXT
100
AcDbPolyline
 90
       41
 70
   128
 43
0.0
 10
785.1664074432027
 20
2257.799999999996
 10
786.765980810668
 20
2257.768004266434
 10
788.3629952019697
 20
2257.6720682521
 10
789.9548957347595
 20
2257.51234543415
 10
791.5391357077727
 20
2257.28909133502
 10
793.1131806750053
 20
2257.002663113645
 10
794.6745125002881
 20
2256.653518994077
 10
796.2206333857673
 20
2256.242217532426
 10
797.7490698678475
 20
2255.769416723293
 10
799.2573767742063
 20
2255.235872947113
 10
800.7431411355488
 20
2254.642439760111
 10
802.2039860458429
 20
2253.990066528794
 10
803.6375744648621
 20
2253.279796911166
 10
805.0416129569523
 20
2252.512767187101
 10
806.4138553600383
 20
2251.690204440532
 10
807.7521063790042
 20
2250.813424596382
 10
809.0542250976984
 20
2249.883830315367
 10
810.3181284039415
 20
2248.902908750032
 10
811.5417943220618
 20
2247.872229165631
 10
812.7232652476248
 20
2246.793440429631
 10
813.8606510791838
 20
2245.668268373882
 10
814.9521322420371
 20
2244.498513033647
 10
815.9959625991616
 20
2243.286045767938
 10
816.9904722446576
 20
2242.032806265734
 10
817.9340701752428
 20
2240.740799442893
 10
818.8252468355186
 20
2239.41209223472
 10
819.6625765329365
 20
2238.048810289306
 10
820.4447197186008
 20
2236.653134566945
 10
821.1704251302631
 20
2235.227297851064
 10
821.8385317940734
 20
2233.773581176246
 10
822.4479708818918
 20
2232.294310179062
 10
822.9977674211845
 20
2230.791851377546
 10
823.4870418547718
 20
2229.268608385273
 10
823.9150114479334
 20
2227.72701806609
 10
824.2809915406155
 20
2226.169546635652
 10
824.5843966427411
 20
2224.598685716005
 10
824.8247413708703
 20
2223.016948349521
 10
825.0016412247084
 20
2221.426864978568
 10
825.114813202226
 20
2219.830979397338
 10
825.1640762524015
 20
2218.231844682326
 10
825.1664074432028
 20
2217.799999999995
  0
LWPOLYLINE
  5
144
330
87
100
AcDbEntity
  8
P-SANR-FIXT
100
AcDbPolyline
 90
        4
 70
   128
 43
0.0
 10
646.1664074432024
 20
2257.799999999996
 10
646.2220000302645
 20
2257.799999999996
 10
646.3886888551707
 20
2257.799999999996
 10
646.5606919152841
 20
2257.799999999996
  0
LWPOLYLINE
  5
145
330
87
100
AcDbEntity
  8
P-SANR-FIXT
100
AcDbPolyline
 90
        5
 70
   128
 43
0.0
 10
784.7922590883359
 20
2257.799999999996
 10
784.8080587266853
 20
2257.799999999996
 10
785.0346196038154
 20
2257.799999999996
 10
785.1502061392515
 20
2257.799999999996
 10
785.1664074432028
 20
2257.799999999996
  0
LWPOLYLINE
  5
146
330
87
100
AcDbEntity
  8
P-SANR-FIXT
100
AcDbPolyline
 90
       80
 70
   128
 43
0.0
 10
785.1664074432028
 20
2257.799999999996
 10
785.1108148561409
 20
2257.799999999996
 10
784.9441260312349
 20
2257.799999999996
 10
784.6666076350465
 20
2257.799999999996
 10
784.278703637809
 20
2257.799999999996
 10
783.7810346031692
 20
2257.799999999996
 10
783.1743966954189
 20
2257.799999999996
 10
782.4597604058014
 20
2257.799999999996
 10
781.6382689999324
 20
2257.799999999996
 10
780.711236688819
 20
2257.799999999996
 10
779.6801465264033
 20
2257.799999999996
 10
778.5466480369904
 20
2257.799999999996
 10
777.312554576363
 20
2257.799999999996
 10
775.9798404307996
 20
2257.799999999996
 10
774.5506376586354
 20
2257.799999999996
 10
773.0272326794254
 20
2257.799999999996
 10
771.4120626161611
 20
2257.799999999996
 10
769.7077113963922
 20
2257.799999999996
 10
767.9169056184949
 20
2257.799999999996
 10
766.0425101896956
 20
2257.799999999996
 10
764.0875237428306
 20
2257.799999999996
 10
762.0550738391735
 20
2257.799999999996
 10
759.9484119650041
 20
2257.799999999996
 10
757.7709083299232
 20
2257.799999999996
 10
755.5260464752384
 20
2257.799999999996
 10
753.2174177010384
 20
2257.799999999996
 10
750.8487153208807
 20
2257.799999999996
 10
748.4237287532778
 20
2257.799999999996
 10
745.9463374594341
 20
2257.799999999996
 10
743.4205047369386
 20
2257.799999999996
 10
740.8502713793316
 20
2257.799999999996
 10
738.2397492116977
 20
2257.799999999996
 10
735.5931145126235
 20
2257.799999999996
 10
732.9146013330424
 20
2257.799999999996
 10
730.2084947226562
 20
2257.799999999996
 10
727.4791238747692
 20
2257.799999999996
 10
724.7308552005037
 20
2257.799999999996
 10
721.9680853434721
 20
2257.799999999996
 10
719.1952341460862
 20
2257.799999999996
 10
716.416737578752
 20
2257.799999999996
 10
713.6370406432628
 20
2257.799999999996
 10
710.8605902617451
 20
2257.799999999996
 10
708.0918281625314
 20
2257.799999999996
 10
705.3351837743426
 20
2257.799999999996
 10
702.5950671401472
 20
2257.799999999996
 10
699.8758618620329
 20
2257.799999999996
 10
697.1819180883783
 20
2257.799999999996
 10
694.5175455545441
 20
2257.799999999996
 10
691.8870066882151
 20
2257.799999999996
 10
689.2945097904259
 20
2257.799999999996
 10
686.7442023031761
 20
2257.799999999996
 10
684.2401641744092
 20
2257.799999999996
 10
681.7864013309645
 20
2257.799999999996
 10
679.3868392699502
 20
2257.799999999996
 10
677.0453167787848
 20
2257.799999999996
 10
674.7655797939558
 20
2257.799999999996
 10
672.5512754083212
 20
2257.799999999996
 10
670.405946036538
 20
2257.799999999996
 10
668.3330237479554
 20
2257.799999999996
 10
666.3358247760351
 20
2257.799999999996
 10
664.4175442130859
 20
2257.799999999996
 10
662.5812508987971
 20
2257.799999999996
 10
660.8298825107499
 20
2257.799999999996
 10
659.1662408647599
 20
2257.799999999996
 10
657.5929874325697
 20
2257.799999999996
 10
656.1126390840607
 20
2257.799999999996
 10
654.7275640607998
 20
2257.799999999996
 10
653.4399781873577
 20
2257.799999999996
 10
652.2519413264612
 20
2257.799999999996
 10
651.1653540836539
 20
2257.799999999996
 10
650.1819547667308
 20
2257.799999999996
 10
649.3033166048184
 20
2257.799999999996
 10
648.5308452315432
 20
2257.799999999996
 10
647.8657764363173
 20
2257.799999999996
 10
647.309174187339
 20
2257.799999999996
 10
646.8619289294716
 20
2257.799999999996
 10
646.5247561597201
 20
2257.799999999996
 10
646.2981952825899
 20
2257.799999999996
 10
646.182608747154
 20
2257.799999999996
 10
646.1664074432024
 20
2257.799999999996
  0
LINE
  5
147
330
87
100
AcDbEntity
  8
P-SANR-FIXT
100
AcDbLine
 10
606.1664074432025
 20
2152.159999999995
 30
0.0
 11
469.1664074432028
 21
2152.159999999995
 31
0.0
  0
LINE
  5
148
330
87
100
AcDbEntity
  8
P-SANR-FIXT
100
AcDbLine
 10
469.1664074432028
 20
2037.839999999995
 30
0.0
 11
606.1664074432025
 21
2037.839999999995
 31
0.0
  0
LINE
  5
149
330
87
100
AcDbEntity
  8
P-SANR-FIXT
100
AcDbLine
 10
469.1664074432024
 20
2204.999999999995
 30
0.0
 11
451.1664074432024
 21
2204.999999999995
 31
0.0
  0
LINE
  5
14A
330
87
100
AcDbEntity
  8
P-SANR-FIXT
100
AcDbLine
 10
451.1664074432024
 20
1984.999999999994
 30
0.0
 11
469.1664074432024
 21
1984.999999999994
 31
0.0
  0
LINE
  5
14B
330
87
100
AcDbEntity
  8
P-SANR-FIXT
100
AcDbLine
 10
908.6195324432024
 20
2152.159999999994
 30
0.0
 11
908.6195324432024
 21
2182.159999999995
 31
0.0
  0
LINE
  5
14C
330
87
100
AcDbEntity
  8
P-SANR-FIXT
100
AcDbLine
 10
882.6195324432024
 20
2182.159999999995
 30
0.0
 11
882.6195324432024
 21
2152.159999999994
 31
0.0
  0
LINE
  5
14D
330
87
100
AcDbEntity
  8
P-SANR-FIXT
100
AcDbLine
 10
908.6976574432018
 20
1702.159999999992
 30
0.0
 11
908.6976574432018
 21
1732.159999999995
 31
0.0
  0
LINE
  5
14E
330
87
100
AcDbEntity
  8
P-SANR-FIXT
100
AcDbLine
 10
882.6976574432018
 20
1732.159999999995
 30
0.0
 11
882.697657443202
 21
1702.159999999992
 31
0.0
  0
LINE
  5
14F
330
87
100
AcDbEntity
  8
P-SANR-FIXT
100
AcDbLine
 10
962.1664074432029
 20
2152.159999999994
 30
0.0
 11
908.6195324432024
 21
2152.159999999994
 31
0.0
  0
LINE
  5
150
330
87
100
AcDbEntity
  8
P-SANR-FIXT
100
AcDbLine
 10
882.6195324432024
 20
2152.159999999994
 30
0.0
 11
825.1664074432028
 21
2152.159999999994
 31
0.0
  0
LINE
  5
151
330
87
100
AcDbEntity
  8
P-SANR-FIXT
100
AcDbLine
 10
825.1664074432026
 20
2037.839999999996
 30
0.0
 11
962.1664074432029
 21
2037.839999999996
 31
0.0
  0
LINE
  5
152
330
87
100
AcDbEntity
  8
P-SANR-FIXT
100
AcDbLine
 10
980.1664074432039
 20
2204.999999999995
 30
0.0
 11
962.1664074432029
 21
2204.999999999995
 31
0.0
  0
LINE
  5
153
330
87
100
AcDbEntity
  8
P-SANR-FIXT
100
AcDbLine
 10
962.1664074432029
 20
1984.999999999994
 30
0.0
 11
980.1664074432039
 21
1984.999999999994
 31
0.0
  0
LINE
  5
154
330
87
100
AcDbEntity
  8
P-SANR-FIXT
100
AcDbLine
 10
606.1664074432025
 20
1702.159999999994
 30
0.0
 11
469.1664074432021
 21
1702.159999999994
 31
0.0
  0
LINE
  5
155
330
87
100
AcDbEntity
  8
P-SANR-FIXT
100
AcDbLine
 10
469.1664074432021
 20
1587.839999999994
 30
0.0
 11
606.1664074432025
 21
1587.839999999994
 31
0.0
  0
LINE
  5
156
330
87
100
AcDbEntity
  8
P-SANR-FIXT
100
AcDbLine
 10
469.1664074432018
 20
1754.999999999994
 30
0.0
 11
451.1664074432016
 21
1754.999999999994
 31
0.0
  0
LINE
  5
157
330
87
100
AcDbEntity
  8
P-SANR-FIXT
100
AcDbLine
 10
451.1664074432016
 20
1534.999999999994
 30
0.0
 11
469.1664074432018
 21
1534.999999999994
 31
0.0
  0
LINE
  5
158
330
87
100
AcDbEntity
  8
P-SANR-FIXT
100
AcDbLine
 10
962.1664074432036
 20
1702.159999999992
 30
0.0
 11
908.6976574432018
 21
1702.159999999992
 31
0.0
  0
LINE
  5
159
330
87
100
AcDbEntity
  8
P-SANR-FIXT
100
AcDbLine
 10
882.697657443202
 20
1702.159999999992
 30
0.0
 11
825.1664074432028
 21
1702.159999999992
 31
0.0
  0
LINE
  5
15A
330
87
100
AcDbEntity
  8
P-SANR-FIXT
100
AcDbLine
 10
825.1664074432028
 20
1587.839999999996
 30
0.0
 11
962.1664074432036
 21
1587.839999999996
 31
0.0
  0
LINE
  5
15B
330
87
100
AcDbEntity
  8
P-SANR-FIXT
100
AcDbLine
 10
980.1664074432077
 20
1754.999999999994
 30
0.0
 11
962.1664074432036
 21
1754.999999999994
 31
0.0
  0
LINE
  5
15C
330
87
100
AcDbEntity
  8
P-SANR-FIXT
100
AcDbLine
 10
962.1664074432036
 20
1534.999999999994
 30
0.0
 11
980.1664074432077
 21
1534.999999999994
 31
0.0
  0
SPLINE
  5
15D
330
87
100
AcDbEntity
  8
P-SANR-FIXT
100
AcDbSpline
210
0.0
220
0.0
230
1.0
 70
     8
 71
     3
 72
    36
 73
    32
 74
     0
 42
0.000000001
 43
0.0000000001
 40
0.0
 40
0.0
 40
0.0
 40
0.0
 40
0.0555555555555556
 40
0.1111111111111111
 40
0.1388888888888889
 40
0.1666666666666666
 40
0.1944444444444444
 40
0.2222222222222222
 40
0.25
 40
0.2777777777777778
 40
0.3055555555555556
 40
0.3333333333333333
 40
0.3611111111111111
 40
0.3888888888888888
 40
0.4166666666666666
 40
0.4444444444444445
 40
0.4791666666666666
 40
0.5138888888888889
 40
0.5486111111111111
 40
0.5833333333333333
 40
0.6180555555555555
 40
0.6527777777777777
 40
0.6875
 40
0.7222222222222223
 40
0.7569444444444445
 40
0.7916666666666668
 40
0.8263888888888889
 40
0.861111111111111
 40
0.8958333333333333
 40
0.9305555555555555
 40
1.0
 40
1.0
 40
1.0
 40
1.0
 10
606.1664074432013
 20
1702.159999999994
 30
0.0
 10
606.1664074432013
 20
1702.099556272509
 30
0.0
 10
606.5056659246646
 20
1701.442559431269
 30
0.0
 10
607.6309107381399
 20
1699.321475558713
 30
0.0
 10
608.8895906788529
 20
1696.771921607654
 30
0.0
 10
610.0018624186023
 20
1694.427576263469
 30
0.0
 10
611.2410632150412
 20
1691.724865114333
 30
0.0
 10
612.5441274681583
 20
1688.749962021687
 30
0.0
 10
613.898209268936
 20
1685.459951174643
 30
0.0
 10
615.299853652784
 20
1681.813953886269
 30
0.0
 10
616.6818188094789
 20
1677.893592866722
 30
0.0
 10
617.9623453629499
 20
1673.791190004005
 30
0.0
 10
619.1388632509719
 20
1669.433769077658
 30
0.0
 10
620.2183174543851
 20
1664.787265650481
 30
0.0
 10
621.1197700768333
 20
1659.970825483548
 30
0.0
 10
621.8234031084424
 20
1654.732234292582
 30
0.0
 10
622.2232945797625
 20
1648.896329482151
 30
0.0
 10
622.2644334442211
 20
1642.401599936532
 30
0.0
 10
621.9108247237847
 20
1636.064635614557
 30
0.0
 10
621.1452443399157
 20
1630.03288108642
 30
0.0
 10
619.9772530831427
 20
1624.014802451712
 30
0.0
 10
618.5653509695117
 20
1618.313989585313
 30
0.0
 10
617.0285058063922
 20
1613.107536608684
 30
0.0
 10
615.3037046749891
 20
1608.165739830731
 30
0.0
 10
613.5494996287397
 20
1603.650874437062
 30
0.0
 10
611.888512582696
 20
1599.717422684208
 30
0.0
 10
610.2926819417336
 20
1596.190385353259
 30
0.0
 10
608.8743894840977
 20
1593.188544320147
 30
0.0
 10
607.7213335507525
 20
1590.870148762781
 30
0.0
 10
606.5631024082314
 20
1588.653983492299
 30
0.0
 10
606.1664074432013
 20
1587.915281786961
 30
0.0
 10
606.1664074432013
 20
1587.839999999994
 30
0.0
  0
SPLINE
  5
15E
330
87
100
AcDbEntity
  8
P-SANR-FIXT
100
AcDbSpline
210
0.0
220
0.0
230
1.0
 70
     8
 71
     3
 72
    36
 73
    32
 74
     0
 42
0.000000001
 43
0.0000000001
 40
0.0
 40
0.0
 40
0.0
 40
0.0
 40
0.0555555555555556
 40
0.1111111111111111
 40
0.1388888888888889
 40
0.1666666666666666
 40
0.1944444444444444
 40
0.2222222222222222
 40
0.25
 40
0.2777777777777778
 40
0.3055555555555556
 40
0.3333333333333333
 40
0.3611111111111111
 40
0.3888888888888888
 40
0.4166666666666666
 40
0.4444444444444445
 40
0.4791666666666666
 40
0.5138888888888889
 40
0.5486111111111111
 40
0.5833333333333333
 40
0.6180555555555555
 40
0.6527777777777777
 40
0.6875
 40
0.7222222222222223
 40
0.7569444444444445
 40
0.7916666666666668
 40
0.8263888888888889
 40
0.861111111111111
 40
0.8958333333333333
 40
0.9305555555555555
 40
1.0
 40
1.0
 40
1.0
 40
1.0
 10
825.1664074432014
 20
1587.839999999996
 30
0.0
 10
825.1664074432014
 20
1587.90044372748
 30
0.0
 10
824.827148961738
 20
1588.557440568721
 30
0.0
 10
823.7019041482628
 20
1590.678524441277
 30
0.0
 10
822.4432242075501
 20
1593.228078392335
 30
0.0
 10
821.3309524678008
 20
1595.572423736521
 30
0.0
 10
820.0917516713619
 20
1598.275134885656
 30
0.0
 10
818.7886874182449
 20
1601.250037978302
 30
0.0
 10
817.4346056174673
 20
1604.540048825346
 30
0.0
 10
816.0329612336198
 20
1608.18604611372
 30
0.0
 10
814.650996076925
 20
1612.106407133267
 30
0.0
 10
813.3704695234539
 20
1616.208809995984
 30
0.0
 10
812.1939516354322
 20
1620.566230922329
 30
0.0
 10
811.1144974320191
 20
1625.212734349508
 30
0.0
 10
810.2130448095707
 20
1630.029174516439
 30
0.0
 10
809.5094117779618
 20
1635.267765707406
 30
0.0
 10
809.1095203066419
 20
1641.103670517837
 30
0.0
 10
809.0683814421831
 20
1647.598400063455
 30
0.0
 10
809.4219901626196
 20
1653.93536438543
 30
0.0
 10
810.1875705464886
 20
1659.967118913567
 30
0.0
 10
811.3555618032613
 20
1665.985197548275
 30
0.0
 10
812.7674639168921
 20
1671.686010414674
 30
0.0
 10
814.3043090800116
 20
1676.892463391302
 30
0.0
 10
816.0291102114147
 20
1681.834260169255
 30
0.0
 10
817.7833152576635
 20
1686.349125562924
 30
0.0
 10
819.4443023037074
 20
1690.282577315779
 30
0.0
 10
821.0401329446693
 20
1693.809614646727
 30
0.0
 10
822.4584254023053
 20
1696.811455679839
 30
0.0
 10
823.6114813356502
 20
1699.129851237205
 30
0.0
 10
824.7697124781712
 20
1701.346016507686
 30
0.0
 10
825.1664074432014
 20
1702.084718213025
 30
0.0
 10
825.1664074432014
 20
1702.159999999992
 30
0.0
  0
SPLINE
  5
15F
330
87
100
AcDbEntity
  8
P-SANR-FIXT
100
AcDbSpline
210
0.0
220
0.0
230
1.0
 70
     8
 71
     3
 72
    49
 73
    45
 74
     0
 42
0.000000001
 43
0.0000000001
 40
-1.0
 40
-1.0
 40
-1.0
 40
-1.0
 40
-0.9444444444444444
 40
-0.9166666666666666
 40
-0.8888888888888889
 40
-0.861111111111111
 40
-0.8333333333333332
 40
-0.8055555555555555
 40
-0.7916666666666668
 40
-0.7777777777777778
 40
-0.7638888888888889
 40
-0.75
 40
-0.7222222222222223
 40
-0.6944444444444445
 40
-0.6805555555555556
 40
-0.6666666666666666
 40
-0.6527777777777777
 40
-0.6388888888888889
 40
-0.6111111111111112
 40
-0.5833333333333334
 40
-0.5555555555555556
 40
-0.5277777777777778
 40
-0.5
 40
-0.4722222222222223
 40
-0.4444444444444445
 40
-0.4166666666666666
 40
-0.3888888888888888
 40
-0.3611111111111111
 40
-0.3472222222222222
 40
-0.3333333333333333
 40
-0.3194444444444444
 40
-0.3055555555555556
 40
-0.2777777777777778
 40
-0.25
 40
-0.2361111111111111
 40
-0.2222222222222222
 40
-0.2083333333333333
 40
-0.1944444444444444
 40
-0.1666666666666666
 40
-0.1388888888888889
 40
-0.1111111111111111
 40
-0.0833333333333333
 40
-0.0555555555555556
 40
0.0
 40
0.0
 40
0.0
 40
0.0
 10
606.1664074432013
 20
2152.159999999994
 30
0.0
 10
606.2372378488301
 20
2152.159999999994
 30
0.0
 10
606.5148912352633
 20
2151.700779318008
 30
0.0
 10
607.2375130289263
 20
2150.215018642827
 30
0.0
 10
607.9364845685063
 20
2148.679517340063
 30
0.0
 10
608.869275081925
 20
2146.745090996102
 30
0.0
 10
610.0224629521796
 20
2144.434701132351
 30
0.0
 10
611.0715584218025
 20
2142.209670333643
 30
0.0
 10
611.9251202235906
 20
2140.258593570494
 30
0.0
 10
612.5498812832457
 20
2138.710437127773
 30
0.0
 10
613.1911370000379
 20
2137.08432229414
 30
0.0
 10
614.1066429842334
 20
2134.821367348231
 30
0.0
 10
615.3028901195502
 20
2131.81601288532
 30
0.0
 10
616.4782742716087
 20
2128.583688824451
 30
0.0
 10
617.3523154782774
 20
2125.865004964043
 30
0.0
 10
617.9495630384856
 20
2123.75899270687
 30
0.0
 10
618.5194958800316
 20
2121.591146168876
 30
0.0
 10
619.2866744969373
 20
2118.62924447421
 30
0.0
 10
620.19837811312
 20
2114.799834810707
 30
0.0
 10
621.1307134301923
 20
2110.031588758136
 30
0.0
 10
621.7745033936052
 20
2105.131278564756
 30
0.0
 10
622.114277232018
 20
2100.106441625761
 30
0.0
 10
622.2372866289304
 20
2095.00145242698
 30
0.0
 10
622.1144376087515
 20
2089.896447543333
 30
0.0
 10
621.7748252996881
 20
2084.871649616342
 30
0.0
 10
621.1311340738448
 20
2079.971174435378
 30
0.0
 10
620.1988547637409
 20
2075.202623181113
 30
0.0
 10
619.2872353328403
 20
2071.373135903233
 30
0.0
 10
618.5201859162178
 20
2068.411401461274
 30
0.0
 10
617.9503803409645
 20
2066.243789227883
 30
0.0
 10
617.3533415656261
 20
2064.138266374935
 30
0.0
 10
616.47969763231
 20
2061.420564326095
 30
0.0
 10
615.3049215741905
 20
2058.189684681567
 30
0.0
 10
614.1092097357043
 20
2055.185345866377
 30
0.0
 10
613.1939497919279
 20
2052.922624303374
 30
0.0
 10
612.5527542151143
 20
2051.296339586127
 30
0.0
 10
611.9278914469407
 20
2049.747649505878
 30
0.0
 10
611.0740216076698
 20
2047.79555704216
 30
0.0
 10
610.0243142042992
 20
2045.56895441469
 30
0.0
 10
608.8702987663908
 20
2043.25686520486
 30
0.0
 10
607.9369432708168
 20
2041.321419631779
 30
0.0
 10
607.2377136349949
 20
2039.785422038765
 30
0.0
 10
606.5148322713413
 20
2038.299247208938
 30
0.0
 10
606.2371706357244
 20
2037.839999999994
 30
0.0
 10
606.1664074432013
 20
2037.839999999994
 30
0.0
  0
LINE
  5
160
330
87
100
AcDbEntity
  8
P-SANR-FIXT
100
AcDbLine
 10
469.1664074432013
 20
2204.999999999994
 30
0.0
 11
469.1664074432013
 21
1984.999999999994
 31
0.0
  0
LINE
  5
161
330
87
100
AcDbEntity
  8
P-SANR-FIXT
100
AcDbLine
 10
451.1664074432014
 20
2204.999999999994
 30
0.0
 11
451.1664074432014
 21
1984.999999999994
 31
0.0
  0
SPLINE
  5
162
330
87
100
AcDbEntity
  8
P-SANR-FIXT
100
AcDbSpline
210
0.0
220
0.0
230
1.0
 70
     8
 71
     3
 72
    29
 73
    25
 74
     0
 42
0.000000001
 43
0.0000000001
 40
0.0
 40
0.0
 40
0.0
 40
0.0
 40
0.1111111111111111
 40
0.1666666666666666
 40
0.1944444444444444
 40
0.2222222222222222
 40
0.25
 40
0.2777777777777778
 40
0.3055555555555556
 40
0.3333333333333333
 40
0.3611111111111111
 40
0.3888888888888888
 40
0.4444444444444445
 40
0.5555555555555556
 40
0.6111111111111112
 40
0.6666666666666666
 40
0.6944444444444445
 40
0.7222222222222223
 40
0.75
 40
0.7777777777777778
 40
0.8055555555555555
 40
0.8333333333333332
 40
0.8888888888888889
 40
1.0
 40
1.0
 40
1.0
 40
1.0
 10
882.619532443201
 20
2152.159999999993
 30
0.0
 10
882.619532443201
 20
2152.146426064643
 30
0.0
 10
883.0236572274758
 20
2152.068191207205
 30
0.0
 10
884.1473709528909
 20
2151.8298824549
 30
0.0
 10
884.9590173068433
 20
2151.666078680519
 30
0.0
 10
885.6487189033851
 20
2151.546723904318
 30
0.0
 10
886.4138188680895
 20
2151.422079756127
 30
0.0
 10
887.2480796127536
 20
2151.286367505986
 30
0.0
 10
888.145972667729
 20
2151.15408892141
 30
0.0
 10
889.1015109118999
 20
2151.039203692694
 30
0.0
 10
890.1079475264985
 20
2150.937559321539
 30
0.0
 10
891.506970734942
 20
2150.807559838437
 30
0.0
 10
894.0761806568021
 20
2150.647191502047
 30
0.0
 10
897.1587966534615
 20
2150.645453662175
 30
0.0
 10
900.0973052007656
 20
2150.832670277472
 30
0.0
 10
901.8184686035532
 20
2151.002061886598
 30
0.0
 10
903.0914940275662
 20
2151.153635966979
 30
0.0
 10
903.9881855160137
 20
2151.286009032739
 30
0.0
 10
904.8215298446578
 20
2151.421468931065
 30
0.0
 10
905.5865146233953
 20
2151.546054239267
 30
0.0
 10
906.2770884115456
 20
2151.665494315627
 30
0.0
 10
907.0903149202512
 20
2151.829555034157
 30
0.0
 10
908.2158427730615
 20
2152.068294343491
 30
0.0
 10
908.6195324432008
 20
2152.146490191729
 30
0.0
 10
908.619532443201
 20
2152.159999999994
 30
0.0
  0
LINE
  5
163
330
87
100
AcDbEntity
  8
P-SANR-FIXT
100
AcDbLine
 10
908.6195324432008
 20
2182.159999999994
 30
0.0
 11
882.6195324432008
 21
2182.159999999994
 31
0.0
  0
SPLINE
  5
164
330
87
100
AcDbEntity
  8
P-SANR-FIXT
100
AcDbSpline
210
0.0
220
0.0
230
1.0
 70
     8
 71
     3
 72
    29
 73
    25
 74
     0
 42
0.000000001
 43
0.0000000001
 40
0.0
 40
0.0
 40
0.0
 40
0.0
 40
0.1111111111111111
 40
0.1666666666666666
 40
0.1944444444444444
 40
0.2222222222222222
 40
0.25
 40
0.2777777777777778
 40
0.3055555555555556
 40
0.3333333333333333
 40
0.3611111111111111
 40
0.3888888888888888
 40
0.4444444444444445
 40
0.5555555555555556
 40
0.6111111111111112
 40
0.6666666666666666
 40
0.6944444444444445
 40
0.7222222222222223
 40
0.75
 40
0.7777777777777778
 40
0.8055555555555555
 40
0.8333333333333332
 40
0.8888888888888889
 40
1.0
 40
1.0
 40
1.0
 40
1.0
 10
882.6976574432004
 20
1702.159999999992
 30
0.0
 10
882.6976574432004
 20
1702.146426064642
 30
0.0
 10
883.1017822274754
 20
1702.068191207205
 30
0.0
 10
884.2254959528903
 20
1701.829882454899
 30
0.0
 10
885.0371423068427
 20
1701.666078680518
 30
0.0
 10
885.7268439033845
 20
1701.546723904318
 30
0.0
 10
886.4919438680887
 20
1701.422079756127
 30
0.0
 10
887.326204612753
 20
1701.286367505985
 30
0.0
 10
888.2240976677284
 20
1701.15408892141
 30
0.0
 10
889.1796359118993
 20
1701.039203692693
 30
0.0
 10
890.1860725264979
 20
1700.937559321538
 30
0.0
 10
891.5850957349414
 20
1700.807559838437
 30
0.0
 10
894.1543056568013
 20
1700.647191502047
 30
0.0
 10
897.2369216534609
 20
1700.645453662175
 30
0.0
 10
900.1754302007652
 20
1700.832670277471
 30
0.0
 10
901.8965936035526
 20
1701.002061886597
 30
0.0
 10
903.1696190275656
 20
1701.153635966979
 30
0.0
 10
904.0663105160131
 20
1701.286009032738
 30
0.0
 10
904.8996548446572
 20
1701.421468931064
 30
0.0
 10
905.6646396233947
 20
1701.546054239266
 30
0.0
 10
906.3552134115452
 20
1701.665494315626
 30
0.0
 10
907.1684399202506
 20
1701.829555034157
 30
0.0
 10
908.2939677730603
 20
1702.068294343491
 30
0.0
 10
908.6976574432004
 20
1702.146490191729
 30
0.0
 10
908.6976574432004
 20
1702.159999999992
 30
0.0
  0
LINE
  5
165
330
87
100
AcDbEntity
  8
P-SANR-FIXT
100
AcDbLine
 10
908.6976574432002
 20
1732.159999999994
 30
0.0
 11
882.6976574432004
 21
1732.159999999994
 31
0.0
  0
SPLINE
  5
166
330
87
100
AcDbEntity
  8
P-SANR-FIXT
100
AcDbSpline
210
0.0
220
0.0
230
1.0
 70
     8
 71
     3
 72
    49
 73
    45
 74
     0
 42
0.000000001
 43
0.0000000001
 40
-1.0
 40
-1.0
 40
-1.0
 40
-1.0
 40
-0.9444444444444444
 40
-0.9166666666666666
 40
-0.8888888888888889
 40
-0.861111111111111
 40
-0.8333333333333332
 40
-0.8055555555555555
 40
-0.7916666666666668
 40
-0.7777777777777778
 40
-0.7638888888888889
 40
-0.75
 40
-0.7222222222222223
 40
-0.6944444444444445
 40
-0.6805555555555556
 40
-0.6666666666666666
 40
-0.6527777777777777
 40
-0.6388888888888889
 40
-0.6111111111111112
 40
-0.5833333333333334
 40
-0.5555555555555556
 40
-0.5277777777777778
 40
-0.5
 40
-0.4722222222222223
 40
-0.4444444444444445
 40
-0.4166666666666666
 40
-0.3888888888888888
 40
-0.3611111111111111
 40
-0.3472222222222222
 40
-0.3333333333333333
 40
-0.3194444444444444
 40
-0.3055555555555556
 40
-0.2777777777777778
 40
-0.25
 40
-0.2361111111111111
 40
-0.2222222222222222
 40
-0.2083333333333333
 40
-0.1944444444444444
 40
-0.1666666666666666
 40
-0.1388888888888889
 40
-0.1111111111111111
 40
-0.0833333333333333
 40
-0.0555555555555556
 40
0.0
 40
0.0
 40
0.0
 40
0.0
 10
825.1664074432014
 20
2037.839999999995
 30
0.0
 10
825.0956442506783
 20
2037.839999999995
 30
0.0
 10
824.8179826150616
 20
2038.299247208939
 30
0.0
 10
824.0951012514079
 20
2039.785422038766
 30
0.0
 10
823.3958716155862
 20
2041.321419631781
 30
0.0
 10
822.4625161200124
 20
2043.256865204861
 30
0.0
 10
821.3085006821039
 20
2045.568954414692
 30
0.0
 10
820.2587932787334
 20
2047.795557042162
 30
0.0
 10
819.4049234394626
 20
2049.74764950588
 30
0.0
 10
818.780060671289
 20
2051.296339586129
 30
0.0
 10
818.1388650944757
 20
2052.922624303375
 30
0.0
 10
817.2236051506994
 20
2055.185345866378
 30
0.0
 10
816.0278933122132
 20
2058.189684681568
 30
0.0
 10
814.8531172540939
 20
2061.420564326095
 30
0.0
 10
813.9794733207779
 20
2064.138266374936
 30
0.0
 10
813.3824345454396
 20
2066.243789227884
 30
0.0
 10
812.812628970186
 20
2068.411401461275
 30
0.0
 10
812.0455795535638
 20
2071.373135903234
 30
0.0
 10
811.1339601226633
 20
2075.202623181114
 30
0.0
 10
810.2016808125595
 20
2079.971174435379
 30
0.0
 10
809.557989586716
 20
2084.871649616342
 30
0.0
 10
809.2183772776527
 20
2089.896447543333
 30
0.0
 10
809.0955282574737
 20
2095.00145242698
 30
0.0
 10
809.2185376543863
 20
2100.106441625761
 30
0.0
 10
809.5583114927991
 20
2105.131278564756
 30
0.0
 10
810.2021014562119
 20
2110.031588758136
 30
0.0
 10
811.1344367732842
 20
2114.799834810706
 30
0.0
 10
812.0461403894667
 20
2118.62924447421
 30
0.0
 10
812.8133190063723
 20
2121.591146168875
 30
0.0
 10
813.3832518479186
 20
2123.75899270687
 30
0.0
 10
813.9804994081266
 20
2125.865004964042
 30
0.0
 10
814.8545406147952
 20
2128.583688824449
 30
0.0
 10
816.0299247668536
 20
2131.81601288532
 30
0.0
 10
817.2261719021701
 20
2134.82136734823
 30
0.0
 10
818.1416778863658
 20
2137.084322294139
 30
0.0
 10
818.7829336031576
 20
2138.710437127771
 30
0.0
 10
819.4076946628127
 20
2140.258593570492
 30
0.0
 10
820.2612564646006
 20
2142.209670333641
 30
0.0
 10
821.3103519342235
 20
2144.434701132349
 30
0.0
 10
822.4635398044782
 20
2146.7450909961
 30
0.0
 10
823.3963303178967
 20
2148.679517340062
 30
0.0
 10
824.0953018574767
 20
2150.215018642825
 30
0.0
 10
824.8179236511393
 20
2151.700779318006
 30
0.0
 10
825.0955770375727
 20
2152.159999999992
 30
0.0
 10
825.1664074432014
 20
2152.159999999993
 30
0.0
  0
LINE
  5
167
330
87
100
AcDbEntity
  8
P-SANR-FIXT
100
AcDbLine
 10
980.1664074432023
 20
2204.999999999994
 30
0.0
 11
980.1664074432023
 21
1984.999999999994
 31
0.0
  0
LINE
  5
168
330
87
100
AcDbEntity
  8
P-SANR-FIXT
100
AcDbLine
 10
962.1664074432013
 20
2204.999999999994
 30
0.0
 11
962.1664074432013
 21
1984.999999999994
 31
0.0
  0
LINE
  5
169
330
87
100
AcDbEntity
  8
P-SANR-FIXT
100
AcDbLine
 10
469.1664074432006
 20
1754.999999999994
 30
0.0
 11
469.1664074432006
 21
1534.999999999994
 31
0.0
  0
LINE
  5
16A
330
87
100
AcDbEntity
  8
P-SANR-FIXT
100
AcDbLine
 10
451.1664074432006
 20
1754.999999999994
 30
0.0
 11
451.1664074432006
 21
1534.999999999994
 31
0.0
  0
LINE
  5
16B
330
87
100
AcDbEntity
  8
P-SANR-FIXT
100
AcDbLine
 10
980.1664074432059
 20
1754.999999999994
 30
0.0
 11
980.1664074432059
 21
1534.999999999994
 31
0.0
  0
LINE
  5
16C
330
87
100
AcDbEntity
  8
P-SANR-FIXT
100
AcDbLine
 10
962.1664074432022
 20
1754.999999999994
 30
0.0
 11
962.1664074432022
 21
1534.999999999994
 31
0.0
  0
ENDBLK
  5
16E
330
87
100
AcDbEntity
  8
0
100
AcDbBlockEnd
  0
BLOCK
  5
225
330
170
100
AcDbEntity
  8
0
100
AcDbBlockBegin
  2
Automatic flow rate regulator valve_Caleffi_121 DN15 - 1_2__-V1-Est - Idraulica
 70
     0
 10
0.0
 20
0.0
 30
0.0
  3
Automatic flow rate regulator valve_Caleffi_121 DN15 - 1_2__-V1-Est - Idraulica
  1

  0
LINE
  5
171
330
170
100
AcDbEntity
  8
M-PIPE
100
AcDbLine
 10
828.7250011932011
 20
838.3396287300532
 30
0.0
 11
828.7250011932011
 21
840.1796287461147
 31
0.0
1001
REVIT
1002
{
1070
     3
1000
790271
1002
}
  0
LINE
  5
172
330
170
100
AcDbEntity
  8
M-PIPE
100
AcDbLine
 10
812.6350869999029
 20
846.3396287300533
 30
0.0
 11
812.5688783766573
 21
846.3396287300533
 31
0.0
1001
REVIT
1002
{
1070
     3
1000
790271
1002
}
  0
LINE
  5
173
330
170
100
AcDbEntity
  8
M-PIPE
100
AcDbLine
 10
828.7250011932011
 20
838.3396287300532
 30
0.0
 11
807.8954600846275
 21
838.3396287300532
 31
0.0
1001
REVIT
1002
{
1070
     3
1000
790271
1002
}
  0
LINE
  5
174
330
170
100
AcDbEntity
  8
P-SANR-FIXT
100
AcDbLine
 10
715.7250011931973
 20
862.4417703851223
 30
0.0
 11
731.2250011931971
 21
871.3906995575618
 31
0.0
  0
LINE
  5
175
330
170
100
AcDbEntity
  8
P-SANR-FIXT
100
AcDbLine
 10
731.2250011931971
 20
871.3906995575618
 30
0.0
 11
731.2250011931967
 21
889.2885579024403
 31
0.0
  0
LINE
  5
176
330
170
100
AcDbEntity
  8
P-SANR-FIXT
100
AcDbLine
 10
731.2250011931967
 20
889.2885579024403
 30
0.0
 11
715.7250011931965
 21
898.2374870748792
 31
0.0
  0
LINE
  5
177
330
170
100
AcDbEntity
  8
P-SANR-FIXT
100
AcDbLine
 10
715.7250011931965
 20
898.2374870748792
 30
0.0
 11
700.2250011931967
 21
889.2885579024397
 31
0.0
  0
LINE
  5
178
330
170
100
AcDbEntity
  8
P-SANR-FIXT
100
AcDbLine
 10
700.2250011931967
 20
889.2885579024397
 30
0.0
 11
700.225001193197
 21
871.3906995575612
 31
0.0
  0
LINE
  5
179
330
170
100
AcDbEntity
  8
P-SANR-FIXT
100
AcDbLine
 10
700.225001193197
 20
871.3906995575612
 30
0.0
 11
715.7250011931973
 21
862.4417703851223
 31
0.0
  0
ARC
  5
17A
330
170
100
AcDbEntity
  8
M-PIPE
100
AcDbCircle
 10
715.7250011931965
 20
897.3396287300101
 30
0.0
 40
57.50000000000003
100
AcDbArc
 50
189.9770839511124
 51
230.0229160488875
1001
REVIT
1002
{
1070
     3
1000
790271
1002
}
  0
ARC
  5
17B
330
170
100
AcDbEntity
  8
M-PIPE
100
AcDbCircle
 10
686.9750011931968
 20
847.5431680124044
 30
0.0
 40
9.999999999999939
100
AcDbArc
 50
145.0114580244435
 51
334.9885419755545
1001
REVIT
1002
{
1070
     3
1000
790271
1002
}
  0
ARC
  5
17C
330
170
100
AcDbEntity
  8
M-PIPE
100
AcDbCircle
 10
715.7250011931965
 20
897.3396287300101
 30
0.0
 40
57.50000000000009
100
AcDbArc
 50
249.9770839511116
 51
290.0229160488871
1001
REVIT
1002
{
1070
     3
1000
790271
1002
}
  0
ARC
  5
17D
330
170
100
AcDbEntity
  8
M-PIPE
100
AcDbCircle
 10
744.475001193197
 20
847.5431680124051
 30
0.0
 40
10.00000000000005
100
AcDbArc
 50
205.0114580244426
 51
34.98854197555569
1001
REVIT
1002
{
1070
     3
1000
790271
1002
}
  0
ARC
  5
17E
330
170
100
AcDbEntity
  8
M-PIPE
100
AcDbCircle
 10
715.7250011931965
 20
897.3396287300101
 30
0.0
 40
57.50000000000005
100
AcDbArc
 50
309.9770839511111
 51
350.0229160488871
1001
REVIT
1002
{
1070
     3
1000
790271
1002
}
  0
ARC
  5
17F
330
170
100
AcDbEntity
  8
M-PIPE
100
AcDbCircle
 10
773.2250011931966
 20
897.3396287300108
 30
0.0
 40
9.99999999999996
100
AcDbArc
 50
265.0114580244438
 51
94.98854197555592
1001
REVIT
1002
{
1070
     3
1000
790271
1002
}
  0
ARC
  5
180
330
170
100
AcDbEntity
  8
M-PIPE
100
AcDbCircle
 10
715.7250011931965
 20
897.3396287300101
 30
0.0
 40
57.50000000000014
100
AcDbArc
 50
9.977083951112094
 51
50.02291604890299
1001
REVIT
1002
{
1070
     3
1000
790271
1002
}
  0
ARC
  5
181
330
170
100
AcDbEntity
  8
M-PIPE
100
AcDbCircle
 10
744.4750011931962
 20
947.1360894476156
 30
0.0
 40
9.999999999984357
100
AcDbArc
 50
325.011458024451
 51
154.9885419755151
1001
REVIT
1002
{
1070
     3
1000
790271
1002
}
  0
ARC
  5
182
330
170
100
AcDbEntity
  8
M-PIPE
100
AcDbCircle
 10
715.7250011932052
 20
897.3396287299488
 30
0.0
 40
57.50000000006039
100
AcDbArc
 50
69.9770839511251
 51
110.0229160488756
1001
REVIT
1002
{
1070
     3
1000
790271
1002
}
  0
ARC
  5
183
330
170
100
AcDbEntity
  8
M-PIPE
100
AcDbCircle
 10
686.975001193196
 20
947.1360894476148
 30
0.0
 40
9.999999999999545
100
AcDbArc
 50
25.01145802444335
 51
214.9885419755552
1001
REVIT
1002
{
1070
     3
1000
790271
1002
}
  0
ARC
  5
184
330
170
100
AcDbEntity
  8
M-PIPE
100
AcDbCircle
 10
715.7250011931965
 20
897.3396287300101
 30
0.0
 40
57.49999999999994
100
AcDbArc
 50
129.9770839511118
 51
170.0229160488885
1001
REVIT
1002
{
1070
     3
1000
790271
1002
}
  0
ARC
  5
185
330
170
100
AcDbEntity
  8
M-PIPE
100
AcDbCircle
 10
658.2250011931965
 20
897.339628730009
 30
0.0
 40
10.00000000000007
100
AcDbArc
 50
85.01145802444426
 51
274.9885419755547
1001
REVIT
1002
{
1070
     3
1000
790271
1002
}
  0
ARC
  5
186
330
170
100
AcDbEntity
  8
M-PIPE
100
AcDbCircle
 10
715.7250011931818
 20
880.3396287299987
 30
0.0
 40
26.50000000000006
100
AcDbArc
 50
265.0000000000008
 51
265.4989141705218
1001
REVIT
1002
{
1070
     3
1000
790271
1002
}
  0
ARC
  5
187
330
170
100
AcDbEntity
  8
M-PIPE
100
AcDbCircle
 10
715.7250011931818
 20
880.3396287299987
 30
0.0
 40
26.49999999999999
100
AcDbArc
 50
260.0000000000009
 51
260.9950993195408
1001
REVIT
1002
{
1070
     3
1000
790271
1002
}
  0
ARC
  5
188
330
170
100
AcDbEntity
  8
M-PIPE
100
AcDbCircle
 10
715.7250011931818
 20
880.3396287299987
 30
0.0
 40
26.49999999999997
100
AcDbArc
 50
255.0000000000011
 51
256.4895751335295
1001
REVIT
1002
{
1070
     3
1000
790271
1002
}
  0
ARC
  5
189
330
170
100
AcDbEntity
  8
M-PIPE
100
AcDbCircle
 10
715.7250011931818
 20
880.3396287299987
 30
0.0
 40
26.49999999999998
100
AcDbArc
 50
242.9728913627072
 51
251.9833361371158
1001
REVIT
1002
{
1070
     3
1000
790271
1002
}
  0
ARC
  5
18A
330
170
100
AcDbEntity
  8
M-PIPE
100
AcDbCircle
 10
715.7250011931818
 20
880.3396287299987
 30
0.0
 40
26.49999999999992
100
AcDbArc
 50
238.4710753991544
 51
240.0000000000009
1001
REVIT
1002
{
1070
     3
1000
790271
1002
}
  0
ARC
  5
18B
330
170
100
AcDbEntity
  8
M-PIPE
100
AcDbCircle
 10
715.7250011931818
 20
880.3396287299987
 30
0.0
 40
26.49999999999995
100
AcDbArc
 50
233.9735171897364
 51
235.0000000000008
1001
REVIT
1002
{
1070
     3
1000
790271
1002
}
  0
ARC
  5
18C
330
170
100
AcDbEntity
  8
M-PIPE
100
AcDbCircle
 10
715.7250011931818
 20
880.3396287299987
 30
0.0
 40
26.4999999999999
100
AcDbArc
 50
229.4822353515834
 51
230.0000000000009
1001
REVIT
1002
{
1070
     3
1000
790271
1002
}
  0
ARC
  5
18D
330
170
100
AcDbEntity
  8
M-PIPE
100
AcDbCircle
 10
715.7250011931818
 20
880.3396287299987
 30
0.0
 40
26.49999999999987
100
AcDbArc
 50
220.0000000000009
 51
220.5177646484189
1001
REVIT
1002
{
1070
     3
1000
790271
1002
}
  0
ARC
  5
18E
330
170
100
AcDbEntity
  8
M-PIPE
100
AcDbCircle
 10
715.7250011931818
 20
880.3396287299987
 30
0.0
 40
26.49999999999988
100
AcDbArc
 50
215.0000000000007
 51
216.0264828102661
1001
REVIT
1002
{
1070
     3
1000
790271
1002
}
  0
ARC
  5
18F
330
170
100
AcDbEntity
  8
M-PIPE
100
AcDbCircle
 10
715.7250011931818
 20
880.3396287299987
 30
0.0
 40
26.49999999999992
100
AcDbArc
 50
210.0000000000008
 51
211.5289246008474
1001
REVIT
1002
{
1070
     3
1000
790271
1002
}
  0
ARC
  5
190
330
170
100
AcDbEntity
  8
M-PIPE
100
AcDbCircle
 10
715.7250011931818
 20
880.3396287299987
 30
0.0
 40
26.49999999999993
100
AcDbArc
 50
198.0166638628858
 51
207.0271086372943
1001
REVIT
1002
{
1070
     3
1000
790271
1002
}
  0
ARC
  5
191
330
170
100
AcDbEntity
  8
M-PIPE
100
AcDbCircle
 10
715.7250011931818
 20
880.3396287299987
 30
0.0
 40
26.49999999999981
100
AcDbArc
 50
193.5104248664727
 51
195.0000000000006
1001
REVIT
1002
{
1070
     3
1000
790271
1002
}
  0
ARC
  5
192
330
170
100
AcDbEntity
  8
M-PIPE
100
AcDbCircle
 10
715.7250011931818
 20
880.3396287299987
 30
0.0
 40
26.49999999999986
100
AcDbArc
 50
189.0049006804611
 51
190.0000000000007
1001
REVIT
1002
{
1070
     3
1000
790271
1002
}
  0
ARC
  5
193
330
170
100
AcDbEntity
  8
M-PIPE
100
AcDbCircle
 10
715.7250011931818
 20
880.3396287299987
 30
0.0
 40
26.49999999999989
100
AcDbArc
 50
184.5010858294799
 51
185.0000000000006
1001
REVIT
1002
{
1070
     3
1000
790271
1002
}
  0
ARC
  5
194
330
170
100
AcDbEntity
  8
M-PIPE
100
AcDbCircle
 10
715.7250011931818
 20
880.3396287299987
 30
0.0
 40
26.50000000000007
100
AcDbArc
 50
175.0000000000011
 51
175.4989141705222
1001
REVIT
1002
{
1070
     3
1000
790271
1002
}
  0
ARC
  5
195
330
170
100
AcDbEntity
  8
M-PIPE
100
AcDbCircle
 10
715.7250011931818
 20
880.3396287299987
 30
0.0
 40
26.49999999999991
100
AcDbArc
 50
170.0000000000014
 51
170.9950993195407
1001
REVIT
1002
{
1070
     3
1000
790271
1002
}
  0
ARC
  5
196
330
170
100
AcDbEntity
  8
M-PIPE
100
AcDbCircle
 10
715.7250011931818
 20
880.3396287299987
 30
0.0
 40
26.50000000000005
100
AcDbArc
 50
165.0000000000012
 51
166.4895751335289
1001
REVIT
1002
{
1070
     3
1000
790271
1002
}
  0
ARC
  5
197
330
170
100
AcDbEntity
  8
M-PIPE
100
AcDbCircle
 10
715.7250011931818
 20
880.3396287299987
 30
0.0
 40
26.50000000000008
100
AcDbArc
 50
152.9728913627074
 51
161.9833361371154
1001
REVIT
1002
{
1070
     3
1000
790271
1002
}
  0
ARC
  5
198
330
170
100
AcDbEntity
  8
M-PIPE
100
AcDbCircle
 10
715.7250011931818
 20
880.3396287299987
 30
0.0
 40
26.49999999999998
100
AcDbArc
 50
148.4710753991546
 51
150.0000000000014
1001
REVIT
1002
{
1070
     3
1000
790271
1002
}
  0
ARC
  5
199
330
170
100
AcDbEntity
  8
M-PIPE
100
AcDbCircle
 10
715.7250011931818
 20
880.3396287299987
 30
0.0
 40
26.50000000000002
100
AcDbArc
 50
143.9735171897368
 51
145.0000000000011
1001
REVIT
1002
{
1070
     3
1000
790271
1002
}
  0
ARC
  5
19A
330
170
100
AcDbEntity
  8
M-PIPE
100
AcDbCircle
 10
715.7250011931818
 20
880.3396287299987
 30
0.0
 40
26.49999999999997
100
AcDbArc
 50
139.482235351583
 51
140.0000000000013
1001
REVIT
1002
{
1070
     3
1000
790271
1002
}
  0
ARC
  5
19B
330
170
100
AcDbEntity
  8
M-PIPE
100
AcDbCircle
 10
715.7250011931818
 20
880.3396287299987
 30
0.0
 40
26.50000000000006
100
AcDbArc
 50
130.0000000000011
 51
130.5177646484189
1001
REVIT
1002
{
1070
     3
1000
790271
1002
}
  0
ARC
  5
19C
330
170
100
AcDbEntity
  8
M-PIPE
100
AcDbCircle
 10
715.7250011931818
 20
880.3396287299987
 30
0.0
 40
26.49999999999989
100
AcDbArc
 50
125.0000000000015
 51
126.0264828102656
1001
REVIT
1002
{
1070
     3
1000
790271
1002
}
  0
ARC
  5
19D
330
170
100
AcDbEntity
  8
M-PIPE
100
AcDbCircle
 10
715.7250011931818
 20
880.3396287299987
 30
0.0
 40
26.49999999999992
100
AcDbArc
 50
120.0000000000011
 51
121.5289246008478
1001
REVIT
1002
{
1070
     3
1000
790271
1002
}
  0
ARC
  5
19E
330
170
100
AcDbEntity
  8
M-PIPE
100
AcDbCircle
 10
715.7250011931818
 20
880.3396287299987
 30
0.0
 40
26.49999999999993
100
AcDbArc
 50
108.0166638628862
 51
117.0271086372951
1001
REVIT
1002
{
1070
     3
1000
790271
1002
}
  0
ARC
  5
19F
330
170
100
AcDbEntity
  8
M-PIPE
100
AcDbCircle
 10
715.7250011931818
 20
880.3396287299987
 30
0.0
 40
26.50000000000003
100
AcDbArc
 50
103.5104248664727
 51
105.0000000000011
1001
REVIT
1002
{
1070
     3
1000
790271
1002
}
  0
ARC
  5
1A0
330
170
100
AcDbEntity
  8
M-PIPE
100
AcDbCircle
 10
715.7250011931818
 20
880.3396287299987
 30
0.0
 40
26.49999999999997
100
AcDbArc
 50
99.00490068046137
 51
100.0000000000011
1001
REVIT
1002
{
1070
     3
1000
790271
1002
}
  0
ARC
  5
1A1
330
170
100
AcDbEntity
  8
M-PIPE
100
AcDbCircle
 10
715.7250011931818
 20
880.3396287299987
 30
0.0
 40
26.5
100
AcDbArc
 50
94.50108582948029
 51
95.00000000000104
1001
REVIT
1002
{
1070
     3
1000
790271
1002
}
  0
ARC
  5
1A2
330
170
100
AcDbEntity
  8
M-PIPE
100
AcDbCircle
 10
715.7250011931818
 20
880.3396287299987
 30
0.0
 40
26.5000000000001
100
AcDbArc
 50
85.00000000000122
 51
85.49891417052121
1001
REVIT
1002
{
1070
     3
1000
790271
1002
}
  0
ARC
  5
1A3
330
170
100
AcDbEntity
  8
M-PIPE
100
AcDbCircle
 10
715.7250011931818
 20
880.3396287299987
 30
0.0
 40
26.50000000000018
100
AcDbArc
 50
80.00000000000115
 51
80.99509931954022
1001
REVIT
1002
{
1070
     3
1000
790271
1002
}
  0
ARC
  5
1A4
330
170
100
AcDbEntity
  8
M-PIPE
100
AcDbCircle
 10
715.7250011931818
 20
880.3396287299987
 30
0.0
 40
26.50000000000008
100
AcDbArc
 50
75.00000000000129
 51
76.48957513352891
1001
REVIT
1002
{
1070
     3
1000
790271
1002
}
  0
ARC
  5
1A5
330
170
100
AcDbEntity
  8
M-PIPE
100
AcDbCircle
 10
715.7250011931818
 20
880.3396287299987
 30
0.0
 40
26.50000000000016
100
AcDbArc
 50
62.97289136270691
 51
71.98333613711577
1001
REVIT
1002
{
1070
     3
1000
790271
1002
}
  0
ARC
  5
1A6
330
170
100
AcDbEntity
  8
M-PIPE
100
AcDbCircle
 10
715.7250011931818
 20
880.3396287299987
 30
0.0
 40
26.50000000000018
100
AcDbArc
 50
58.47107539915422
 51
60.00000000000149
1001
REVIT
1002
{
1070
     3
1000
790271
1002
}
  0
ARC
  5
1A7
330
170
100
AcDbEntity
  8
M-PIPE
100
AcDbCircle
 10
715.7250011931818
 20
880.3396287299987
 30
0.0
 40
26.5000000000002
100
AcDbArc
 50
53.97351718973636
 51
55.00000000000153
1001
REVIT
1002
{
1070
     3
1000
790271
1002
}
  0
ARC
  5
1A8
330
170
100
AcDbEntity
  8
M-PIPE
100
AcDbCircle
 10
715.7250011931818
 20
880.3396287299987
 30
0.0
 40
26.50000000000014
100
AcDbArc
 50
49.48223535158287
 51
50.00000000000153
1001
REVIT
1002
{
1070
     3
1000
790271
1002
}
  0
ARC
  5
1A9
330
170
100
AcDbEntity
  8
M-PIPE
100
AcDbCircle
 10
715.7250011931818
 20
880.3396287299987
 30
0.0
 40
26.50000000000007
100
AcDbArc
 50
40.00000000000143
 51
40.51776464841871
1001
REVIT
1002
{
1070
     3
1000
790271
1002
}
  0
ARC
  5
1AA
330
170
100
AcDbEntity
  8
M-PIPE
100
AcDbCircle
 10
715.7250011931818
 20
880.3396287299987
 30
0.0
 40
26.50000000000003
100
AcDbArc
 50
35.00000000000131
 51
36.0264828102661
1001
REVIT
1002
{
1070
     3
1000
790271
1002
}
  0
ARC
  5
1AB
330
170
100
AcDbEntity
  8
M-PIPE
100
AcDbCircle
 10
715.7250011931818
 20
880.3396287299987
 30
0.0
 40
26.50000000000004
100
AcDbArc
 50
30.00000000000167
 51
31.5289246008484
1001
REVIT
1002
{
1070
     3
1000
790271
1002
}
  0
ARC
  5
1AC
330
170
100
AcDbEntity
  8
M-PIPE
100
AcDbCircle
 10
715.7250011931818
 20
880.3396287299987
 30
0.0
 40
26.49999999999999
100
AcDbArc
 50
18.01666386288654
 51
27.02710863729548
1001
REVIT
1002
{
1070
     3
1000
790271
1002
}
  0
ARC
  5
1AD
330
170
100
AcDbEntity
  8
M-PIPE
100
AcDbCircle
 10
715.7250011931818
 20
880.3396287299987
 30
0.0
 40
26.50000000000009
100
AcDbArc
 50
13.51042486647319
 51
15.0000000000016
1001
REVIT
1002
{
1070
     3
1000
790271
1002
}
  0
ARC
  5
1AE
330
170
100
AcDbEntity
  8
M-PIPE
100
AcDbCircle
 10
715.7250011931818
 20
880.3396287299987
 30
0.0
 40
26.49999999999999
100
AcDbArc
 50
9.004900680461545
 51
10.00000000000164
1001
REVIT
1002
{
1070
     3
1000
790271
1002
}
  0
ARC
  5
1AF
330
170
100
AcDbEntity
  8
M-PIPE
100
AcDbCircle
 10
715.7250011931818
 20
880.3396287299987
 30
0.0
 40
26.50000000000003
100
AcDbArc
 50
4.501085829480526
 51
5.000000000001758
1001
REVIT
1002
{
1070
     3
1000
790271
1002
}
  0
ARC
  5
1B0
330
170
100
AcDbEntity
  8
M-PIPE
100
AcDbCircle
 10
715.7250011931818
 20
880.3396287299987
 30
0.0
 40
26.50000000000007
100
AcDbArc
 50
355.0000000000013
 51
355.4989141705213
1001
REVIT
1002
{
1070
     3
1000
790271
1002
}
  0
ARC
  5
1B1
330
170
100
AcDbEntity
  8
M-PIPE
100
AcDbCircle
 10
715.7250011931818
 20
880.3396287299987
 30
0.0
 40
26.50000000000011
100
AcDbArc
 50
350.0000000000015
 51
350.9950993195408
1001
REVIT
1002
{
1070
     3
1000
790271
1002
}
  0
ARC
  5
1B2
330
170
100
AcDbEntity
  8
M-PIPE
100
AcDbCircle
 10
715.7250011931818
 20
880.3396287299987
 30
0.0
 40
26.5
100
AcDbArc
 50
345.0000000000011
 51
346.4895751335289
1001
REVIT
1002
{
1070
     3
1000
790271
1002
}
  0
ARC
  5
1B3
330
170
100
AcDbEntity
  8
M-PIPE
100
AcDbCircle
 10
715.7250011931818
 20
880.3396287299987
 30
0.0
 40
26.50000000000002
100
AcDbArc
 50
332.9728913627076
 51
341.9833361371155
1001
REVIT
1002
{
1070
     3
1000
790271
1002
}
  0
ARC
  5
1B4
330
170
100
AcDbEntity
  8
M-PIPE
100
AcDbCircle
 10
715.7250011931818
 20
880.3396287299987
 30
0.0
 40
26.50000000000007
100
AcDbArc
 50
328.4710753991546
 51
330.0000000000013
1001
REVIT
1002
{
1070
     3
1000
790271
1002
}
  0
ARC
  5
1B5
330
170
100
AcDbEntity
  8
M-PIPE
100
AcDbCircle
 10
715.7250011931818
 20
880.3396287299987
 30
0.0
 40
26.50000000000007
100
AcDbArc
 50
323.9735171897357
 51
325.0000000000013
1001
REVIT
1002
{
1070
     3
1000
790271
1002
}
  0
ARC
  5
1B6
330
170
100
AcDbEntity
  8
M-PIPE
100
AcDbCircle
 10
715.7250011931818
 20
880.3396287299987
 30
0.0
 40
26.49999999999999
100
AcDbArc
 50
319.4822353515832
 51
320.0000000000013
1001
REVIT
1002
{
1070
     3
1000
790271
1002
}
  0
ARC
  5
1B7
330
170
100
AcDbEntity
  8
M-PIPE
100
AcDbCircle
 10
715.7250011931818
 20
880.3396287299987
 30
0.0
 40
26.49999999999996
100
AcDbArc
 50
310.0000000000013
 51
310.517764648419
1001
REVIT
1002
{
1070
     3
1000
790271
1002
}
  0
ARC
  5
1B8
330
170
100
AcDbEntity
  8
M-PIPE
100
AcDbCircle
 10
715.7250011931818
 20
880.3396287299987
 30
0.0
 40
26.50000000000003
100
AcDbArc
 50
305.0000000000013
 51
306.0264828102656
1001
REVIT
1002
{
1070
     3
1000
790271
1002
}
  0
ARC
  5
1B9
330
170
100
AcDbEntity
  8
M-PIPE
100
AcDbCircle
 10
715.7250011931818
 20
880.3396287299987
 30
0.0
 40
26.49999999999995
100
AcDbArc
 50
300.0000000000011
 51
301.5289246008479
1001
REVIT
1002
{
1070
     3
1000
790271
1002
}
  0
ARC
  5
1BA
330
170
100
AcDbEntity
  8
M-PIPE
100
AcDbCircle
 10
715.7250011931818
 20
880.3396287299987
 30
0.0
 40
26.49999999999999
100
AcDbArc
 50
288.0166638628861
 51
297.027108637295
1001
REVIT
1002
{
1070
     3
1000
790271
1002
}
  0
ARC
  5
1BB
330
170
100
AcDbEntity
  8
M-PIPE
100
AcDbCircle
 10
715.7250011931818
 20
880.3396287299987
 30
0.0
 40
26.49999999999987
100
AcDbArc
 50
283.5104248664732
 51
285.0000000000013
1001
REVIT
1002
{
1070
     3
1000
790271
1002
}
  0
ARC
  5
1BC
330
170
100
AcDbEntity
  8
M-PIPE
100
AcDbCircle
 10
715.7250011931818
 20
880.3396287299987
 30
0.0
 40
26.49999999999988
100
AcDbArc
 50
279.0049006804616
 51
280.0000000000011
1001
REVIT
1002
{
1070
     3
1000
790271
1002
}
  0
ARC
  5
1BD
330
170
100
AcDbEntity
  8
M-PIPE
100
AcDbCircle
 10
715.7250011931818
 20
880.3396287299987
 30
0.0
 40
26.49999999999991
100
AcDbArc
 50
274.5010858294804
 51
275.0000000000011
1001
REVIT
1002
{
1070
     3
1000
790271
1002
}
  0
ARC
  5
1BE
330
170
100
AcDbEntity
  8
M-PIPE
100
AcDbCircle
 10
715.7250011931819
 20
880.3396287299987
 30
0.0
 40
26.49999999999988
100
AcDbArc
 50
90.0000000000011
 51
270.0000000000007
1001
REVIT
1002
{
1070
     3
1000
790271
1002
}
  0
ARC
  5
1BF
330
170
100
AcDbEntity
  8
M-PIPE
100
AcDbCircle
 10
715.7250011931819
 20
880.3396287299987
 30
0.0
 40
26.50000000000014
100
AcDbArc
 50
270.000000000001
 51
90.00000000000111
1001
REVIT
1002
{
1070
     3
1000
790271
1002
}
  0
ARC
  5
1C0
330
170
100
AcDbEntity
  8
M-PIPE
100
AcDbCircle
 10
715.7250011931822
 20
880.3396287299991
 30
0.0
 40
10.84999999999979
100
AcDbArc
 50
90.00000000000119
 51
270.0000000000014
1001
REVIT
1002
{
1070
     3
1000
790271
1002
}
  0
ARC
  5
1C1
330
170
100
AcDbEntity
  8
M-PIPE
100
AcDbCircle
 10
715.7250011931822
 20
880.3396287299991
 30
0.0
 40
10.84999999999962
100
AcDbArc
 50
270.0000000000011
 51
90.0000000000009
1001
REVIT
1002
{
1070
     3
1000
790271
1002
}
  0
LWPOLYLINE
  5
1C2
330
170
100
AcDbEntity
  8
P-SANR-FIXT
100
AcDbPolyline
 90
       80
 70
   128
 43
0.0
 10
875.5671016498663
 20
897.3396287300548
 10
875.4392450184157
 20
903.7316079023099
 10
875.0558796673997
 20
910.113361271439
 10
874.4176188995995
 20
916.4746793934192
 10
873.5254837960887
 20
922.8053855162645
 10
872.3809015827207
 20
929.0953518606571
 10
870.9857033468727
 20
935.3345158222337
 10
869.3421211080956
 20
941.5128960696069
 10
867.4527842473592
 20
947.6206085123637
 10
865.3207153006032
 20
953.6478821135062
 10
862.949325123326
 20
959.5850745210217
 10
860.3424074339413
 20
965.4226874935924
 10
857.5041327446394
 20
971.1513820957524
 10
854.4390416894566
 20
976.7619936381946
 10
851.1520377602305
 20
982.2455463393179
 10
847.6483794620573
 20
987.5932676845632
 10
843.9336719008071
 20
992.7966024605638
 10
840.013857816149
 20
997.8472264416643
 10
835.8952080744364
 20
1002.737059706903
 10
831.5843116366574
 20
1007.458279566165
 10
827.0880650175033
 20
1012.003333074816
 10
822.4136612524173
 20
1016.3649491168
 10
817.56857839027
 20
1020.53615003688
 10
812.5605675300782
 20
1024.510262803392
 10
807.3976404209
 20
1028.280929683675
 10
802.0880566447441
 20
1031.842118415086
 10
796.6403104030019
 20
1035.188131855336
 10
791.0631169275359
 20
1038.313617096697
 10
785.3653985381692
 20
1041.213574029519
 10
779.5562703688763
 20
1043.883363341333
 10
773.6450257855135
 20
1046.318713938765
 10
767.641121518416
 20
1048.515729780373
 10
761.5541625336462
 20
1050.470896109482
 10
755.3938866670985
 20
1052.181085077045
 10
749.1701490460366
 20
1053.643560745536
 10
742.8929063229944
 20
1054.855983465862
 10
736.5722007472554
 20
1055.816413620308
 10
730.218144099395
 20
1056.523314725507
 10
723.8409015145906
 20
1056.975555890488
 10
717.4506752205715
 20
1057.172413625862
 10
711.0576882162328
 20
1057.113573001244
 10
704.672167917017
 20
1056.799128149083
 10
698.3043297932311
 20
1056.229582114063
 10
691.9643610274733
 20
1055.405846048344
 10
685.6624042173145
 20
1054.329237753911
 10
679.4085411493052
 20
1053.001479574371
 10
673.2127766702675
 20
1051.42469563957
 10
667.085022681676
 20
1049.601408467441
 10
661.0350822827276
 20
1047.534534928513
 10
655.0726340874754
 20
1045.227381579539
 10
649.2072167411107
 20
1042.68363937371
 10
643.4482136601655
 20
1039.907377755921
 10
637.8048380210477
 20
1036.903038152521
 10
632.2861180209236
 20
1033.675426865984
 10
626.9008824345292
 20
1030.229707385849
 10
621.6577464900141
 20
1026.571392128236
 10
616.5650980864137
 20
1022.706333617159
 10
611.6310843747992
 20
1018.640715121733
 10
606.863598724576
 20
1014.381040764265
 10
602.2702680957758
 20
1009.934125115046
 10
597.8584408375458
 20
1005.307082290488
 10
593.6351749323597
 20
1000.507314572063
 10
589.6072267047503
 20
995.5425005642224
 10
585.781040012632
 20
990.4205829102762
 10
582.162735938503
 20
985.1497555858525
 10
578.7581029970177
 20
979.7384507902883
 10
575.5725878745996
 20
974.1953254569045
 10
572.6112867159043
 20
968.5292474037668
 10
569.8789369710753
 20
962.7492811470586
 10
567.3799098168341
 20
956.8646733997985
 10
565.11820316353
 20
950.8848382790658
 10
563.0974352593366
 20
944.8193422454234
 10
561.3208389018264
 20
938.6778887986222
 10
559.7912562661846
 20
932.4703029540694
 10
558.5111343583346
 20
926.2065155249024
 10
557.4825211002509
 20
919.8965472348042
 10
556.7070620537204
 20
913.5504926869845
 10
556.1859977877952
 20
907.178504214967
 10
555.9201618941466
 20
900.7907756410217
 10
555.8829007365388
 20
897.3396287300545
  0
LINE
  5
1C3
330
170
100
AcDbEntity
  8
P-SANR-FIXT
100
AcDbLine
 10
555.8829007365377
 20
897.3396287300545
 30
0.0
 11
556.2250011932014
 21
897.3396287300545
 31
0.0
  0
LINE
  5
1C4
330
170
100
AcDbEntity
  8
P-SANR-FIXT
100
AcDbLine
 10
556.2250011932014
 20
897.3396287300543
 30
0.0
 11
587.9872359165499
 21
897.3396287300547
 31
0.0
  0
LINE
  5
1C5
330
170
100
AcDbEntity
  8
P-SANR-FIXT
100
AcDbLine
 10
843.4627664698517
 20
897.339628730055
 30
0.0
 11
875.5671016498647
 21
897.339628730055
 31
0.0
  0
LINE
  5
1C6
330
170
100
AcDbEntity
  8
P-SANR-FIXT
100
AcDbLine
 10
587.9872359165499
 20
897.3396287300548
 30
0.0
 11
622.9635923925626
 21
897.3396287300548
 31
0.0
  0
LINE
  5
1C7
330
170
100
AcDbEntity
  8
P-SANR-FIXT
100
AcDbLine
 10
808.4864099938396
 20
897.3396287300552
 30
0.0
 11
843.4627664698524
 21
897.339628730055
 31
0.0
  0
LINE
  5
1C8
330
170
100
AcDbEntity
  8
P-SANR-FIXT
100
AcDbLine
 10
622.9635923925628
 20
897.3396287300547
 30
0.0
 11
648.2250011931967
 21
897.3396287300547
 31
0.0
  0
LINE
  5
1C9
330
170
100
AcDbEntity
  8
P-SANR-FIXT
100
AcDbLine
 10
783.2250011931965
 20
897.3396287300548
 30
0.0
 11
808.4864099938396
 21
897.339628730055
 31
0.0
  0
ARC
  5
1CA
330
170
100
AcDbEntity
  8
P-SANR-FIXT
100
AcDbCircle
 10
895.7250011932012
 20
897.3396287300566
 30
0.0
 40
10.00000000000277
100
AcDbArc
 50
145.8419327633205
 51
154.1580672366765
  0
LINE
  5
1CB
330
170
100
AcDbEntity
  8
P-SANR-FIXT
100
AcDbLine
 10
886.7250011932107
 20
901.698527673623
 30
0.0
 11
886.7250011932105
 21
892.9807297864906
 31
0.0
  0
ARC
  5
1CC
330
170
100
AcDbEntity
  8
P-SANR-FIXT
100
AcDbCircle
 10
895.7250011932012
 20
897.3396287300566
 30
0.0
 40
10.00000000000271
100
AcDbArc
 50
205.8419327633197
 51
214.1580672366757
  0
LINE
  5
1CD
330
170
100
AcDbEntity
  8
P-SANR-FIXT
100
AcDbLine
 10
887.4500839755482
 20
891.7248495677879
 30
0.0
 11
894.999918410863
 21
887.3659506242217
 31
0.0
  0
ARC
  5
1CE
330
170
100
AcDbEntity
  8
P-SANR-FIXT
100
AcDbCircle
 10
895.7250011932012
 20
897.3396287300566
 30
0.0
 40
10.0000000000028
100
AcDbArc
 50
265.8419327633192
 51
274.1580672366755
  0
LINE
  5
1CF
330
170
100
AcDbEntity
  8
P-SANR-FIXT
100
AcDbLine
 10
896.4500839755388
 20
887.3659506242216
 30
0.0
 11
903.9999184108538
 21
891.7248495677874
 31
0.0
  0
ARC
  5
1D0
330
170
100
AcDbEntity
  8
P-SANR-FIXT
100
AcDbCircle
 10
895.7250011932012
 20
897.3396287300566
 30
0.0
 40
10.0000000000028
100
AcDbArc
 50
325.8419327633194
 51
334.1580672366757
  0
LINE
  5
1D1
330
170
100
AcDbEntity
  8
P-SANR-FIXT
100
AcDbLine
 10
904.7250011931918
 20
892.9807297864902
 30
0.0
 11
904.7250011931922
 21
901.6985276736223
 31
0.0
  0
ARC
  5
1D2
330
170
100
AcDbEntity
  8
P-SANR-FIXT
100
AcDbCircle
 10
895.7250011932012
 20
897.3396287300566
 30
0.0
 40
10.00000000000277
100
AcDbArc
 50
25.84193276331967
 51
34.15806723667659
  0
LINE
  5
1D3
330
170
100
AcDbEntity
  8
P-SANR-FIXT
100
AcDbLine
 10
903.9999184108541
 20
902.9544078923251
 30
0.0
 11
896.4500839755395
 21
907.3133068358915
 31
0.0
  0
ARC
  5
1D4
330
170
100
AcDbEntity
  8
P-SANR-FIXT
100
AcDbCircle
 10
895.7250011932012
 20
897.3396287300566
 30
0.0
 40
10.00000000000268
100
AcDbArc
 50
85.84193276332019
 51
94.15806723667657
  0
LINE
  5
1D5
330
170
100
AcDbEntity
  8
P-SANR-FIXT
100
AcDbLine
 10
894.9999184108635
 20
907.3133068358915
 30
0.0
 11
887.4500839755485
 21
902.9544078923255
 31
0.0
  0
ARC
  5
1D6
330
170
100
AcDbEntity
  8
P-SANR-FIXT
100
AcDbCircle
 10
895.7250011932014
 20
897.3396287300552
 30
0.0
 40
12.50000000000005
100
AcDbArc
 50
359.9999999999994
 51
179.9999999999992
  0
ARC
  5
1D7
330
170
100
AcDbEntity
  8
P-SANR-FIXT
100
AcDbCircle
 10
895.7250011932014
 20
897.3396287300552
 30
0.0
 40
12.5
100
AcDbArc
 50
180.0
 51
0.0
  0
LWPOLYLINE
  5
1D8
330
170
100
AcDbEntity
  8
P-SANR-FIXT
100
AcDbPolyline
 90
       80
 70
   128
 43
0.0
 10
606.2250011932024
 20
897.3396287300541
 10
606.3125895138254
 20
892.9607966366177
 10
606.5752143530657
 20
888.5889697404296
 10
607.0124555672041
 20
884.2311420319177
 10
607.6236136635714
 20
879.8942851057942
 10
608.4077109195867
 20
875.585337007995
 10
609.3634929469053
 20
871.3111911362828
 10
610.4894306981731
 20
867.0786852122837
 10
611.7837229131752
 20
862.8945903425893
 10
613.2442990004687
 20
858.7656001864317
 10
614.8688223498865
 20
854.6983202472567
 10
616.6546940706165
 20
850.699257305327
 10
618.599057148871
 20
846.7748090082618
 10
620.6988010184998
 20
842.9312536361647
 10
622.9505665372336
 20
839.1747400577173
 10
625.3507513605929
 20
835.5112778932978
 10
627.8955157048727
 20
831.9467279008723
 10
630.5807884899762
 20
828.486792600032
 10
633.4022738522746
 20
825.1370071491775
 10
636.3554580170735
 20
821.9027304904486
 10
639.4356165196881
 20
818.7891367765564
 10
642.6378217635793
 20
815.8012070932452
 10
645.9569509034579
 20
812.943721490617
 10
649.3876940407433
 20
810.2212513360719
 10
652.9245627182684
 20
807.6381520010945
 10
656.5618987006414
 20
805.1985558935895
 10
660.2938830262135
 20
802.9063658469086
 10
664.1145453161782
 20
800.7652488761522
 10
668.0177733259028
 20
798.7786303117268
 10
671.9973227232159
 20
796.9496883195454
 10
676.0468270780071
 20
795.2813488166428
 10
680.1598080471566
 20
793.7762807903297
 10
684.3296857385034
 20
792.4368920283837
 10
688.5497892372678
 20
791.265325267104
 10
692.8133672780923
 20
790.2634547633868
 10
697.1135990456263
 20
789.4328832963176
 10
701.4436050863759
 20
788.7749396030643
 10
705.7964583143607
 20
788.2906762531825
 10
710.1651950929758
 20
787.9808679647278
 10
714.5428263753225
 20
787.8460103648728
 10
718.9223488851938
 20
787.8863191970094
 10
723.2967563208226
 20
788.1017299756043
 10
727.6590505634686
 20
788.4918980893644
 10
732.0022528729171
 20
789.0561993525391
 10
736.3194150519731
 20
789.793731003485
 10
740.6036305620959
 20
790.7033131488915
 10
744.8480455723862
 20
791.7834906513612
 10
749.0458699242545
 20
793.0325354573144
 10
753.1903879942263
 20
794.448449361511
 10
757.2749694375058
 20
796.0289672037496
 10
761.293079795115
 20
797.771560492642
 10
765.2382909476329
 20
799.6734414506589
 10
769.1042913988153
 20
801.7315674739812
 10
772.8848963726434
 20
803.9426460000145
 10
776.5740577076448
 20
806.3031397747884
 10
780.1658735326632
 20
808.8092725118089
 10
783.6545977085911
 20
811.4570349333105
 10
787.034649020969
 20
814.2421911842433
 10
790.3006201087361
 20
817.1602856087419
 10
793.447286114855
 20
820.2066498782201
 10
796.4696130449692
 20
823.3764104597032
 10
799.3627658207191
 20
826.6644964124406
 10
802.1221160148364
 20
830.065647500329
 10
804.743249255641
 20
833.5744226071675
 10
807.221972289092
 20
837.1852084412838
 10
809.5543196871027
 20
840.8922285156041
 10
811.7365601913766
 20
844.6895523887972
 10
813.7652026826273
 20
848.5711051527196
 10
815.6370017656222
 20
852.5306771509686
 10
817.3489629611248
 20
856.5619339130108
 10
818.8983474964208
 20
860.6584262879827
 10
820.2826766867719
 20
864.8136007619564
 10
821.4997359007812
 20
869.0208099421631
 10
822.5475781033315
 20
873.2733231914041
 10
823.4245269704265
 20
877.5643373956359
 10
824.1291795709516
 20
881.8869878474989
 10
824.6604086110634
 20
886.2343592283865
 10
825.0173642376211
 20
890.5994966714791
 10
825.1994753977683
 20
894.9754168880467
 10
825.2250011932027
 20
897.3396287300541
  0
LINE
  5
1D9
330
170
100
AcDbEntity
  8
P-SANR-FIXT
100
AcDbLine
 10
566.4988720482552
 20
954.499628730054
 30
0.0
 11
469.2250011932022
 21
954.4996287300532
 31
0.0
  0
LINE
  5
1DA
330
170
100
AcDbEntity
  8
P-SANR-FIXT
100
AcDbLine
 10
469.2250011932025
 20
840.1796287300529
 30
0.0
 11
622.2549039895902
 21
840.1796287300536
 31
0.0
  0
LINE
  5
1DB
330
170
100
AcDbEntity
  8
P-SANR-FIXT
100
AcDbLine
 10
469.2250011932019
 20
1007.339628730053
 30
0.0
 11
451.2250011932017
 21
1007.339628730053
 31
0.0
  0
LINE
  5
1DC
330
170
100
AcDbEntity
  8
P-SANR-FIXT
100
AcDbLine
 10
451.2250011932027
 20
787.339628730053
 30
0.0
 11
469.2250011932027
 21
787.3396287300533
 31
0.0
  0
LINE
  5
1DD
330
170
100
AcDbEntity
  8
P-SANR-FIXT
100
AcDbLine
 10
962.2250011932026
 20
954.4996287300532
 30
0.0
 11
864.9478656188625
 21
954.4996287300531
 31
0.0
  0
LINE
  5
1DE
330
170
100
AcDbEntity
  8
P-SANR-FIXT
100
AcDbLine
 10
809.1950983968168
 20
840.1796287300561
 30
0.0
 11
962.2250011932031
 21
840.1796287300566
 31
0.0
  0
LINE
  5
1DF
330
170
100
AcDbEntity
  8
P-SANR-FIXT
100
AcDbLine
 10
980.2250011932034
 20
1007.339628730055
 30
0.0
 11
962.2250011932024
 21
1007.339628730055
 31
0.0
  0
LINE
  5
1E0
330
170
100
AcDbEntity
  8
P-SANR-FIXT
100
AcDbLine
 10
962.2250011932033
 20
787.339628730055
 30
0.0
 11
980.2250011932041
 21
787.339628730055
 31
0.0
  0
SPLINE
  5
1E1
330
170
100
AcDbEntity
  8
P-SANR-FIXT
100
AcDbSpline
210
0.0
220
0.0
230
1.0
 70
     8
 71
     3
 72
    29
 73
    25
 74
     0
 42
0.000000001
 43
0.0000000001
 40
-1.0
 40
-1.0
 40
-1.0
 40
-1.0
 40
-0.9444444444444444
 40
-0.9166666666666666
 40
-0.8888888888888889
 40
-0.861111111111111
 40
-0.8333333333333332
 40
-0.8055555555555555
 40
-0.7916666666666668
 40
-0.7777777777777778
 40
-0.7638888888888889
 40
-0.75
 40
-0.7222222222222223
 40
-0.6944444444444445
 40
-0.6805555555555556
 40
-0.6666666666666666
 40
-0.6527777777777777
 40
-0.6388888888888889
 40
-0.6111111111111112
 40
-0.5833333333333334
 40
-0.5555555555555556
 40
-0.5277777777777778
 40
-0.5
 40
-0.4999921097588681
 40
-0.4999921097588681
 40
-0.4999921097588681
 40
-0.4999921097588681
 10
606.2250011932012
 20
897.3396287300538
 30
0.0
 10
606.2958315988299
 20
893.9292079648366
 30
0.0
 10
606.5734849852632
 20
888.8414907374841
 30
0.0
 10
607.2961067789261
 20
882.2723293962742
 30
0.0
 10
607.9950783185061
 20
877.486792323795
 30
0.0
 10
608.9278688319248
 20
872.8867355850217
 30
0.0
 10
610.0810567021795
 20
868.501779949171
 30
0.0
 10
611.1301521718026
 20
865.0404810168998
 30
0.0
 10
611.9837139735905
 20
862.3975385690204
 30
0.0
 10
612.6084750332457
 20
860.4792623793258
 30
0.0
 10
613.2497307500377
 20
858.6332402301197
 30
0.0
 10
614.1652367342332
 20
856.2764582657566
 30
0.0
 10
615.36148386955
 20
853.5240096468465
 30
0.0
 10
616.5368680216085
 20
851.0353984032347
 30
0.0
 10
617.4109092282772
 20
849.2081642470845
 30
0.0
 10
618.0081567884854
 20
847.9207493347617
 30
0.0
 10
618.5780896300314
 20
846.7211910650696
 30
0.0
 10
619.3452682469371
 20
845.2462479282216
 30
0.0
 10
620.2569718631198
 20
843.6409623396034
 30
0.0
 10
621.1893071801918
 20
842.1156597195027
 30
0.0
 10
621.833097143606
 20
841.0093851705834
 30
0.0
 10
622.1728709820142
 20
840.3322879067781
 30
0.0
 10
622.2548888935197
 20
840.1796499535661
 30
0.0
 10
622.2549039879606
 20
840.1796287302335
 30
0.0
 10
622.2549039889409
 20
840.1796287303602
 30
0.0
  0
LINE
  5
1E2
330
170
100
AcDbEntity
  8
P-SANR-FIXT
100
AcDbLine
 10
469.2250011932008
 20
1007.339628730053
 30
0.0
 11
469.2250011932012
 21
897.3396287300543
 31
0.0
  0
LINE
  5
1E3
330
170
100
AcDbEntity
  8
P-SANR-FIXT
100
AcDbLine
 10
469.2250011932012
 20
897.3396287300538
 30
0.0
 11
469.2250011932016
 21
787.3396287300534
 31
0.0
  0
LINE
  5
1E4
330
170
100
AcDbEntity
  8
P-SANR-FIXT
100
AcDbLine
 10
451.2250011932009
 20
1007.339628730053
 30
0.0
 11
451.2250011932013
 21
897.3396287300543
 31
0.0
  0
LINE
  5
1E5
330
170
100
AcDbEntity
  8
P-SANR-FIXT
100
AcDbLine
 10
451.2250011932013
 20
897.3396287300538
 30
0.0
 11
451.2250011932017
 21
787.3396287300534
 31
0.0
  0
SPLINE
  5
1E6
330
170
100
AcDbEntity
  8
P-SANR-FIXT
100
AcDbSpline
210
0.0
220
0.0
230
1.0
 70
     8
 71
     3
 72
     8
 73
     4
 74
     0
 42
0.000000001
 43
0.0000000001
 40
0.0311595056752626
 40
0.0311595056752626
 40
0.0311595056752626
 40
0.0311595056752626
 40
0.037037037037037
 40
0.037037037037037
 40
0.037037037037037
 40
0.037037037037037
 10
908.6150666274768
 20
898.6145424884034
 30
0.0
 10
908.6071642103805
 20
898.6944076861146
 30
0.0
 10
908.5985242451922
 20
898.7741933396394
 30
0.0
 10
908.5891496584428
 20
898.8538860267309
 30
0.0
  0
SPLINE
  5
1E7
330
170
100
AcDbEntity
  8
P-SANR-FIXT
100
AcDbSpline
210
0.0
220
0.0
230
1.0
 70
     8
 71
     3
 72
     8
 73
     4
 74
     0
 42
0.000000001
 43
0.0000000001
 40
0.0623932452276278
 40
0.0623932452276278
 40
0.0623932452276278
 40
0.0623932452276278
 40
0.0740740740740741
 40
0.0740740740740741
 40
0.0740740740740741
 40
0.0740740740740741
 10
908.4270391822231
 20
899.879022271801
 30
0.0
 10
908.3959198132273
 20
900.0353105284981
 30
0.0
 10
908.3619488196822
 20
900.1910028982642
 30
0.0
 10
908.3251491730843
 20
900.3459940245956
 30
0.0
  0
SPLINE
  5
1E8
330
170
100
AcDbEntity
  8
P-SANR-FIXT
100
AcDbSpline
210
0.0
220
0.0
230
1.0
 70
     8
 71
     3
 72
     8
 73
     4
 74
     0
 42
0.000000001
 43
0.0000000001
 40
0.1111111111111111
 40
0.1111111111111111
 40
0.1111111111111111
 40
0.1111111111111111
 40
0.1249556274742613
 40
0.1249556274742613
 40
0.1249556274742613
 40
0.1249556274742613
 10
907.8905184154983
 20
901.7958015508474
 30
0.0
 10
907.8259153056551
 20
901.9729762242368
 30
0.0
 10
907.757440881015
 20
902.148696524858
 30
0.0
 10
907.6851825714408
 20
902.3228057406706
 30
0.0
  0
SPLINE
  5
1E9
330
170
100
AcDbEntity
  8
P-SANR-FIXT
100
AcDbSpline
210
0.0
220
0.0
230
1.0
 70
     8
 71
     3
 72
     8
 73
     4
 74
     0
 42
0.000000001
 43
0.0000000001
 40
0.1481481481481481
 40
0.1481481481481481
 40
0.1481481481481481
 40
0.1481481481481481
 40
0.1562005108278573
 40
0.1562005108278573
 40
0.1562005108278573
 40
0.1562005108278573
 10
907.2905927060237
 20
903.1835155714979
 30
0.0
 10
907.2413342658744
 20
903.2813871018891
 30
0.0
 10
907.1908453170603
 20
903.3786248056395
 30
0.0
 10
907.1391430622737
 20
903.4751978481022
 30
0.0
  0
SPLINE
  5
1EA
330
170
100
AcDbEntity
  8
P-SANR-FIXT
100
AcDbSpline
210
0.0
220
0.0
230
1.0
 70
     8
 71
     3
 72
     8
 73
     4
 74
     0
 42
0.000000001
 43
0.0000000001
 40
0.1851851851851852
 40
0.1851851851851852
 40
0.1851851851851852
 40
0.1851851851851852
 40
0.187354530344033
 40
0.187354530344033
 40
0.187354530344033
 40
0.187354530344033
 10
906.5344809830003
 20
904.4908208022924
 30
0.0
 10
906.5182598641365
 20
904.5154466247202
 30
0.0
 10
906.5019552757496
 20
904.5400167713886
 30
0.0
 10
906.4855675655387
 20
904.5645307120366
 30
0.0
  0
SPLINE
  5
1EB
330
170
100
AcDbEntity
  8
P-SANR-FIXT
100
AcDbSpline
210
0.0
220
0.0
230
1.0
 70
     8
 71
     3
 72
     8
 73
     4
 74
     0
 42
0.000000001
 43
0.0000000001
 40
0.2187345619522568
 40
0.2187345619522568
 40
0.2187345619522568
 40
0.2187345619522568
 40
0.2222222222222222
 40
0.2222222222222222
 40
0.2222222222222222
 40
0.2222222222222222
 10
905.7234948458896
 20
905.591327700136
 30
0.0
 10
905.6934289557247
 20
905.6279298538365
 30
0.0
 10
905.6631655011262
 20
905.6643645584516
 30
0.0
 10
905.6327065416306
 20
905.7006292734502
 30
0.0
  0
SPLINE
  5
1EC
330
170
100
AcDbEntity
  8
P-SANR-FIXT
100
AcDbSpline
210
0.0
220
0.0
230
1.0
 70
     8
 71
     3
 72
     8
 73
     4
 74
     0
 42
0.000000001
 43
0.0000000001
 40
0.2503367192975021
 40
0.2503367192975021
 40
0.2503367192975021
 40
0.2503367192975021
 40
0.2592592592592593
 40
0.2592592592592593
 40
0.2592592592592593
 40
0.2592592592592593
 10
904.8590379233289
 20
906.5434790910844
 30
0.0
 10
904.7733822752524
 20
906.6289220370498
 30
0.0
 10
904.6865521361674
 20
906.7131504256201
 30
0.0
 10
904.5985752183502
 20
906.7961401981813
 30
0.0
  0
SPLINE
  5
1ED
330
170
100
AcDbEntity
  8
P-SANR-FIXT
100
AcDbSpline
210
0.0
220
0.0
230
1.0
 70
     8
 71
     3
 72
     8
 73
     4
 74
     0
 42
0.000000001
 43
0.0000000001
 40
0.2808907036111035
 40
0.2808907036111035
 40
0.2808907036111035
 40
0.2808907036111035
 40
0.2962962962962963
 40
0.2962962962962963
 40
0.2962962962962963
 40
0.2962962962962963
 10
903.9388864863182
 20
907.3775485205691
 30
0.0
 10
903.777667118703
 20
907.5102244117749
 30
0.0
 10
903.6132306986601
 20
907.6390334690628
 30
0.0
 10
903.4457265485039
 20
907.7638494386913
 30
0.0
  0
SPLINE
  5
1EE
330
170
100
AcDbEntity
  8
P-SANR-FIXT
100
AcDbSpline
210
0.0
220
0.0
230
1.0
 70
     8
 71
     3
 72
     8
 73
     4
 74
     0
 42
0.000000001
 43
0.0000000001
 40
0.3333333333333333
 40
0.3333333333333333
 40
0.3333333333333333
 40
0.3333333333333333
 40
0.3437687427250334
 40
0.3437687427250334
 40
0.3437687427250334
 40
0.3437687427250334
 10
902.1866599347051
 20
908.5930277070621
 30
0.0
 10
902.0638480387519
 20
908.6640565511117
 30
0.0
 10
901.9398153266847
 20
908.7331068218988
 30
0.0
 10
901.814637228519
 20
908.8001328196028
 30
0.0
  0
SPLINE
  5
1EF
330
170
100
AcDbEntity
  8
P-SANR-FIXT
100
AcDbSpline
210
0.0
220
0.0
230
1.0
 70
     8
 71
     3
 72
     8
 73
     4
 74
     0
 42
0.000000001
 43
0.0000000001
 40
0.3703703703703703
 40
0.3703703703703703
 40
0.3703703703703703
 40
0.3703703703703703
 40
0.3751507147179327
 40
0.3751507147179327
 40
0.3751507147179327
 40
0.3751507147179327
 10
900.8362585736726
 20
909.2725038326504
 30
0.0
 10
900.7764661523822
 20
909.2983485909213
 30
0.0
 10
900.7164741241568
 20
909.3237464971238
 30
0.0
 10
900.6562899444224
 20
909.3486943869898
 30
0.0
  0
SPLINE
  5
1F0
330
170
100
AcDbEntity
  8
P-SANR-FIXT
100
AcDbSpline
210
0.0
220
0.0
230
1.0
 70
     8
 71
     3
 72
     8
 73
     4
 74
     0
 42
0.000000001
 43
0.0000000001
 40
0.4064205709719706
 40
0.4064205709719706
 40
0.4064205709719706
 40
0.4064205709719706
 40
0.4074074074074074
 40
0.4074074074074074
 40
0.4074074074074074
 40
0.4074074074074074
 10
899.4526346810989
 20
909.7796523983216
 30
0.0
 10
899.4397562299729
 20
909.7835610929816
 30
0.0
 10
899.4268716031264
 20
909.7874498333039
 30
0.0
 10
899.4139808624774
 20
909.7913185973876
 30
0.0
  0
SPLINE
  5
1F1
330
170
100
AcDbEntity
  8
P-SANR-FIXT
100
AcDbSpline
210
0.0
220
0.0
230
1.0
 70
     8
 71
     3
 72
     8
 73
     4
 74
     0
 42
0.000000001
 43
0.0000000001
 40
0.4375519264471819
 40
0.4375519264471819
 40
0.4375519264471819
 40
0.4375519264471819
 40
0.4444444444444445
 40
0.4444444444444445
 40
0.4444444444444445
 40
0.4444444444444445
 10
898.2173257298075
 20
910.0893080908297
 30
0.0
 10
898.1250856350168
 20
910.1076626671458
 30
0.0
 10
898.0326395514593
 20
910.125010125434
 30
0.0
 10
897.9400085861746
 20
910.1413429918389
 30
0.0
  0
SPLINE
  5
1F2
330
170
100
AcDbEntity
  8
P-SANR-FIXT
100
AcDbSpline
210
0.0
220
0.0
230
1.0
 70
     8
 71
     3
 72
     8
 73
     4
 74
     0
 42
0.000000001
 43
0.0000000001
 40
0.468743736915908
 40
0.468743736915908
 40
0.468743736915908
 40
0.468743736915908
 40
0.4814814814814815
 40
0.4814814814814815
 40
0.4814814814814815
 40
0.4814814814814815
 10
896.9544273040215
 20
910.2762606382068
 30
0.0
 10
896.7813619896896
 20
910.2932269716831
 30
0.0
 10
896.6079435578093
 20
910.3067296314279
 30
0.0
 10
896.4343178805957
 20
910.3167694029741
 30
0.0
  0
SPLINE
  5
1F3
330
170
100
AcDbEntity
  8
P-SANR-FIXT
100
AcDbSpline
210
0.0
220
0.0
230
1.0
 70
     8
 71
     3
 72
     8
 73
     4
 74
     0
 42
0.000000001
 43
0.0000000001
 40
0.5185185185185186
 40
0.5185185185185186
 40
0.5185185185185186
 40
0.5185185185185186
 40
0.5311695592103535
 40
0.5311695592103535
 40
0.5311695592103535
 40
0.5311695592103535
 10
894.9181131238505
 20
910.3165352965762
 30
0.0
 10
894.745697139251
 20
910.3065126321912
 30
0.0
 10
894.5734951868402
 20
910.2930762445886
 30
0.0
 10
894.4016501441131
 20
910.2762269340024
 30
0.0
  0
SPLINE
  5
1F4
330
170
100
AcDbEntity
  8
P-SANR-FIXT
100
AcDbSpline
210
0.0
220
0.0
230
1.0
 70
     8
 71
     3
 72
     8
 73
     4
 74
     0
 42
0.000000001
 43
0.0000000001
 40
0.5555555555555556
 40
0.5555555555555556
 40
0.5555555555555556
 40
0.5555555555555556
 40
0.5623684526753551
 40
0.5623684526753551
 40
0.5623684526753551
 40
0.5623684526753551
 10
893.4129124362911
 20
910.1407539397978
 30
0.0
 10
893.3213965968745
 20
910.1245961064513
 30
0.0
 10
893.2300641194901
 20
910.1074489534626
 30
0.0
 10
893.1389350420626
 20
910.0893194096704
 30
0.0
  0
SPLINE
  5
1F5
330
170
100
AcDbEntity
  8
P-SANR-FIXT
100
AcDbSpline
210
0.0
220
0.0
230
1.0
 70
     8
 71
     3
 72
     8
 73
     4
 74
     0
 42
0.000000001
 43
0.0000000001
 40
0.5925925925925926
 40
0.5925925925925926
 40
0.5925925925925926
 40
0.5925925925925926
 40
0.5935164517737177
 40
0.5935164517737177
 40
0.5935164517737177
 40
0.5935164517737177
 10
891.9398639783453
 20
909.7906354147669
 30
0.0
 10
891.9278046714126
 20
909.7870134790797
 30
0.0
 10
891.9157507373634
 20
909.7833740454182
 30
0.0
 10
891.903702226298
 20
909.7797171309631
 30
0.0
  0
SPLINE
  5
1F6
330
170
100
AcDbEntity
  8
P-SANR-FIXT
100
AcDbSpline
210
0.0
220
0.0
230
1.0
 70
     8
 71
     3
 72
     8
 73
     4
 74
     0
 42
0.000000001
 43
0.0000000001
 40
0.6248102337721982
 40
0.6248102337721982
 40
0.6248102337721982
 40
0.6248102337721982
 40
0.6296296296296296
 40
0.6296296296296296
 40
0.6296296296296296
 40
0.6296296296296296
 10
890.6999598468987
 20
909.3486291360386
 30
0.0
 10
890.639323652341
 20
909.3234864369721
 30
0.0
 10
890.5788812748339
 20
909.2978868427055
 30
0.0
 10
890.5186398045708
 20
909.2718338638032
 30
0.0
  0
SPLINE
  5
1F7
330
170
100
AcDbEntity
  8
P-SANR-FIXT
100
AcDbSpline
210
0.0
220
0.0
230
1.0
 70
     8
 71
     3
 72
     8
 73
     4
 74
     0
 42
0.000000001
 43
0.0000000001
 40
0.656200950094859
 40
0.656200950094859
 40
0.656200950094859
 40
0.656200950094859
 40
0.6666666666666666
 40
0.6666666666666666
 40
0.6666666666666666
 40
0.6666666666666666
 10
889.5417381094324
 20
908.8001561117124
 30
0.0
 10
889.4161979992109
 20
908.7329548331814
 30
0.0
 10
889.2917909519058
 20
908.6637059782539
 30
0.0
 10
889.1685877236378
 20
908.5924465510847
 30
0.0
  0
SPLINE
  5
1F8
330
170
100
AcDbEntity
  8
P-SANR-FIXT
100
AcDbSpline
210
0.0
220
0.0
230
1.0
 70
     8
 71
     3
 72
     8
 73
     4
 74
     0
 42
0.000000001
 43
0.0000000001
 40
0.7037037037037035
 40
0.7037037037037035
 40
0.7037037037037035
 40
0.7037037037037035
 40
0.7190264821752191
 40
0.7190264821752191
 40
0.7190264821752191
 40
0.7190264821752191
 10
887.9085087967567
 20
907.7623414999449
 30
0.0
 10
887.7417048491738
 20
907.6379962300343
 30
0.0
 10
887.5779414643444
 20
907.5096710650591
 30
0.0
 10
887.4173461366401
 20
907.3775202013049
 30
0.0
  0
SPLINE
  5
1F9
330
170
100
AcDbEntity
  8
P-SANR-FIXT
100
AcDbSpline
210
0.0
220
0.0
230
1.0
 70
     8
 71
     3
 72
     8
 73
     4
 74
     0
 42
0.000000001
 43
0.0000000001
 40
0.7407407407407405
 40
0.7407407407407405
 40
0.7407407407407405
 40
0.7407407407407405
 40
0.749546235621037
 40
0.749546235621037
 40
0.749546235621037
 40
0.749546235621037
 10
886.7543075640245
 20
906.7929606714082
 30
0.0
 10
886.667405096642
 20
906.7109258885679
 30
0.0
 10
886.5816075462266
 20
906.6276987092571
 30
0.0
 10
886.4970085146309
 20
906.5432784403279
 30
0.0
  0
SPLINE
  5
1FA
330
170
100
AcDbEntity
  8
P-SANR-FIXT
100
AcDbSpline
210
0.0
220
0.0
230
1.0
 70
     8
 71
     3
 72
     8
 73
     4
 74
     0
 42
0.000000001
 43
0.0000000001
 40
0.7777777777777778
 40
0.7777777777777778
 40
0.7777777777777778
 40
0.7777777777777778
 40
0.7811330323010575
 40
0.7811330323010575
 40
0.7811330323010575
 40
0.7811330323010575
 10
885.7198790480788
 20
905.6962616522714
 30
0.0
 10
885.690591668213
 20
905.6613611307172
 30
0.0
 10
885.6614594626645
 20
905.6263165335415
 30
0.0
 10
885.6324942748871
 20
905.5911262582664
 30
0.0
  0
SPLINE
  5
1FB
330
170
100
AcDbEntity
  8
P-SANR-FIXT
100
AcDbSpline
210
0.0
220
0.0
230
1.0
 70
     8
 71
     3
 72
     8
 73
     4
 74
     0
 42
0.000000001
 43
0.0000000001
 40
0.8125256640144883
 40
0.8125256640144883
 40
0.8125256640144883
 40
0.8125256640144883
 40
0.8148148148148145
 40
0.8148148148148145
 40
0.8148148148148145
 40
0.8148148148148145
 10
884.8707601137389
 20
904.5646428776612
 30
0.0
 10
884.8534875869368
 20
904.5388059256657
 30
0.0
 10
884.8363524981422
 20
904.512893151495
 30
0.0
 10
884.8193404434688
 20
904.4869097234307
 30
0.0
  0
SPLINE
  5
1FC
330
170
100
AcDbEntity
  8
P-SANR-FIXT
100
AcDbSpline
210
0.0
220
0.0
230
1.0
 70
     8
 71
     3
 72
     8
 73
     4
 74
     0
 42
0.000000001
 43
0.0000000001
 40
0.843724983182626
 40
0.843724983182626
 40
0.843724983182626
 40
0.843724983182626
 40
0.8518518518518513
 40
0.8518518518518513
 40
0.8518518518518513
 40
0.8518518518518513
 10
884.2170986837015
 20
903.4751884736646
 30
0.0
 10
884.1649875899323
 20
903.3778550028586
 30
0.0
 10
884.1128176845419
 20
903.2801685336638
 30
0.0
 10
884.0613031580229
 20
903.1819847801903
 30
0.0
  0
SPLINE
  5
1FD
330
170
100
AcDbEntity
  8
P-SANR-FIXT
100
AcDbSpline
210
0.0
220
0.0
230
1.0
 70
     8
 71
     3
 72
     8
 73
     4
 74
     0
 42
0.000000001
 43
0.0000000001
 40
0.8750076569289339
 40
0.8750076569289339
 40
0.8750076569289339
 40
0.8750076569289339
 40
0.8888888888888889
 40
0.8888888888888889
 40
0.8888888888888889
 40
0.8888888888888889
 10
883.671076880514
 20
902.3228530017926
 30
0.0
 10
883.5987080667027
 20
902.1484733079526
 30
0.0
 10
883.526537126835
 20
901.9731425012931
 30
0.0
 10
883.4654296428732
 20
901.7949674343082
 30
0.0
  0
SPLINE
  5
1FE
330
170
100
AcDbEntity
  8
P-SANR-FIXT
100
AcDbSpline
210
0.0
220
0.0
230
1.0
 70
     8
 71
     3
 72
     8
 73
     4
 74
     0
 42
0.000000001
 43
0.0000000001
 40
0.9259259259259254
 40
0.9259259259259254
 40
0.9259259259259254
 40
0.9259259259259254
 40
0.9376052959973165
 40
0.9376052959973165
 40
0.9376052959973165
 40
0.9376052959973165
 10
883.0311419675293
 20
900.3459930094527
 30
0.0
 10
882.9943611341402
 20
900.191072769331
 30
0.0
 10
882.9653081983368
 20
900.0349004798325
 30
0.0
 10
882.941687162936
 20
899.8778382408572
 30
0.0
  0
SPLINE
  5
1FF
330
170
100
AcDbEntity
  8
P-SANR-FIXT
100
AcDbSpline
210
0.0
220
0.0
230
1.0
 70
     8
 71
     3
 72
     8
 73
     4
 74
     0
 42
0.000000001
 43
0.0000000001
 40
0.9629629629629622
 40
0.9629629629629622
 40
0.9629629629629622
 40
0.9629629629629622
 40
0.9688433815815098
 40
0.9688433815815098
 40
0.9688433815815098
 40
0.9688433815815098
 10
882.7671559192904
 20
898.8540977079242
 30
0.0
 10
882.7577733995633
 20
898.7743641706684
 30
0.0
 10
882.7503817084265
 20
898.6944595586022
 30
0.0
 10
882.7443858104855
 20
898.6144337558597
 30
0.0
  0
SPLINE
  5
200
330
170
100
AcDbEntity
  8
P-SANR-FIXT
100
AcDbSpline
210
0.0
220
0.0
230
1.0
 70
     8
 71
     3
 72
     8
 73
     4
 74
     0
 42
0.000000001
 43
0.0000000001
 40
0.0311566184184813
 40
0.0311566184184813
 40
0.0311566184184813
 40
0.0311566184184813
 40
0.037037037037037
 40
0.037037037037037
 40
0.037037037037037
 40
0.037037037037037
 10
882.7412166426212
 20
896.0646313106737
 30
0.0
 10
882.7491259386368
 20
895.9847216644005
 30
0.0
 10
882.7577733989615
 20
895.9048932860879
 30
0.0
 10
882.7671559186368
 20
895.8251597485428
 30
0.0
  0
SPLINE
  5
201
330
170
100
AcDbEntity
  8
P-SANR-FIXT
100
AcDbSpline
210
0.0
220
0.0
230
1.0
 70
     8
 71
     3
 72
     8
 73
     4
 74
     0
 42
0.000000001
 43
0.0000000001
 40
0.0623947040026745
 40
0.0623947040026745
 40
0.0623947040026745
 40
0.0623947040026745
 40
0.0740740740740741
 40
0.0740740740740741
 40
0.0740740740740741
 40
0.0740740740740741
 10
882.9292912924962
 20
894.8000528744742
 30
0.0
 10
882.9604027992431
 20
894.6438162743943
 30
0.0
 10
882.9943611328333
 20
894.4881846834926
 30
0.0
 10
883.0311419662221
 20
894.3332644433708
 30
0.0
  0
SPLINE
  5
202
330
170
100
AcDbEntity
  8
P-SANR-FIXT
100
AcDbSpline
210
0.0
220
0.0
230
1.0
 70
     8
 71
     3
 72
     8
 73
     4
 74
     0
 42
0.000000001
 43
0.0000000001
 40
0.1111111111111111
 40
0.1111111111111111
 40
0.1111111111111111
 40
0.1111111111111111
 40
0.1249923430710623
 40
0.1249923430710623
 40
0.1249923430710623
 40
0.1249923430710623
 10
883.465429642873
 20
892.8842900258024
 30
0.0
 10
883.5301298199153
 20
892.7067964855169
 30
0.0
 10
883.5987080675291
 20
892.5307841567665
 30
0.0
 10
883.6710768817535
 20
892.3564044652316
 30
0.0
  0
SPLINE
  5
203
330
170
100
AcDbEntity
  8
P-SANR-FIXT
100
AcDbSpline
210
0.0
220
0.0
230
1.0
 70
     8
 71
     3
 72
     8
 73
     4
 74
     0
 42
0.000000001
 43
0.0000000001
 40
0.1481481481481481
 40
0.1481481481481481
 40
0.1481481481481481
 40
0.1481481481481481
 40
0.1562750168173659
 40
0.1562750168173659
 40
0.1562750168173659
 40
0.1562750168173659
 10
884.0644779559248
 20
891.4980687391572
 30
0.0
 10
884.1141081622852
 20
891.3994125119147
 30
0.0
 10
884.1649875919815
 20
891.3014024686788
 30
0.0
 10
884.2170986854624
 20
891.2040689962665
 30
0.0
  0
SPLINE
  5
204
330
170
100
AcDbEntity
  8
P-SANR-FIXT
100
AcDbSpline
210
0.0
220
0.0
230
1.0
 70
     8
 71
     3
 72
     8
 73
     4
 74
     0
 42
0.000000001
 43
0.0000000001
 40
0.1851851851851852
 40
0.1851851851851852
 40
0.1851851851851852
 40
0.1851851851851852
 40
0.1874743359855218
 40
0.1874743359855218
 40
0.1874743359855218
 40
0.1874743359855218
 10
884.8192210533008
 20
890.1923104469851
 30
0.0
 10
884.8363077799985
 20
890.1663503311494
 30
0.0
 10
884.853487583833
 20
890.1404515171391
 30
0.0
 10
884.8707601107875
 20
890.1146145659923
 30
0.0
  0
SPLINE
  5
205
330
170
100
AcDbEntity
  8
P-SANR-FIXT
100
AcDbSpline
210
0.0
220
0.0
230
1.0
 70
     8
 71
     3
 72
     8
 73
     4
 74
     0
 42
0.000000001
 43
0.0000000001
 40
0.2188669676989526
 40
0.2188669676989526
 40
0.2188669676989526
 40
0.2188669676989526
 40
0.2222222222222222
 40
0.2222222222222222
 40
0.2222222222222222
 40
0.2222222222222222
 10
885.6325685842254
 20
889.0881586319872
 30
0.0
 10
885.6614876378259
 20
889.0529513395952
 30
0.0
 10
885.6905916709658
 20
889.0178963447418
 30
0.0
 10
885.7198790480788
 20
888.9829958078392
 30
0.0
  0
SPLINE
  5
206
330
170
100
AcDbEntity
  8
P-SANR-FIXT
100
AcDbSpline
210
0.0
220
0.0
230
1.0
 70
     8
 71
     3
 72
     8
 73
     4
 74
     0
 42
0.000000001
 43
0.0000000001
 40
0.2504537643789541
 40
0.2504537643789541
 40
0.2504537643789541
 40
0.2504537643789541
 40
0.2592592592592593
 40
0.2592592592592593
 40
0.2592592592592593
 40
0.2592592592592593
 10
886.4970118310221
 20
888.1359804513886
 30
0.0
 10
886.5816301072699
 20
888.0515685082851
 30
0.0
 10
886.6674051713051
 20
887.9683319878873
 30
0.0
 10
886.7543076721617
 20
887.8862973917383
 30
0.0
  0
SPLINE
  5
207
330
170
100
AcDbEntity
  8
P-SANR-FIXT
100
AcDbSpline
210
0.0
220
0.0
230
1.0
 70
     8
 71
     3
 72
     8
 73
     4
 74
     0
 42
0.000000001
 43
0.0000000001
 40
0.2809735178247785
 40
0.2809735178247785
 40
0.2809735178247785
 40
0.2809735178247785
 40
0.2962962962962963
 40
0.2962962962962963
 40
0.2962962962962963
 40
0.2962962962962963
 10
887.4173375771507
 20
887.3017324896432
 30
0.0
 10
887.5779248239892
 20
887.1695765865091
 30
0.0
 10
887.7417041950264
 20
887.0412575821596
 30
0.0
 10
887.9085082008817
 20
886.9169126370685
 30
0.0
  0
SPLINE
  5
208
330
170
100
AcDbEntity
  8
P-SANR-FIXT
100
AcDbSpline
210
0.0
220
0.0
230
1.0
 70
     8
 71
     3
 72
     8
 73
     4
 74
     0
 42
0.000000001
 43
0.0000000001
 40
0.3333333333333333
 40
0.3333333333333333
 40
0.3333333333333333
 40
0.3333333333333333
 40
0.3437990499051375
 40
0.3437990499051375
 40
0.3437990499051375
 40
0.3437990499051375
 10
889.1685877236378
 20
886.0868109090256
 30
0.0
 10
889.2917885603949
 20
886.0155417862923
 30
0.0
 10
889.416193589256
 20
885.9462780345522
 30
0.0
 10
889.541730896742
 20
885.87906113842
 30
0.0
  0
SPLINE
  5
209
330
170
100
AcDbEntity
  8
P-SANR-FIXT
100
AcDbSpline
210
0.0
220
0.0
230
1.0
 70
     8
 71
     3
 72
     8
 73
     4
 74
     0
 42
0.000000001
 43
0.0000000001
 40
0.3703703703703703
 40
0.3703703703703703
 40
0.3703703703703703
 40
0.3703703703703703
 40
0.3751897662278017
 40
0.3751897662278017
 40
0.3751897662278017
 40
0.3751897662278017
 10
890.5186254410004
 20
885.4073452463625
 30
0.0
 10
890.578868012982
 20
885.3812976799256
 30
0.0
 10
890.6393116131809
 20
885.3557044702716
 30
0.0
 10
890.699949032732
 20
885.3305686148397
 30
0.0
  0
SPLINE
  5
20A
330
170
100
AcDbEntity
  8
P-SANR-FIXT
100
AcDbSpline
210
0.0
220
0.0
230
1.0
 70
     8
 71
     3
 72
     8
 73
     4
 74
     0
 42
0.000000001
 43
0.0000000001
 40
0.4064835482262822
 40
0.4064835482262822
 40
0.4064835482262822
 40
0.4064835482262822
 40
0.4074074074074074
 40
0.4074074074074074
 40
0.4074074074074074
 40
0.4074074074074074
 10
891.9037087787456
 20
884.8995739861161
 30
0.0
 10
891.9157573226232
 20
884.8959172102404
 30
0.0
 10
891.9278112870006
 20
884.8922778965366
 30
0.0
 10
891.9398706220503
 20
884.8886560629956
 30
0.0
  0
SPLINE
  5
20B
330
170
100
AcDbEntity
  8
P-SANR-FIXT
100
AcDbSpline
210
0.0
220
0.0
230
1.0
 70
     8
 71
     3
 72
     8
 73
     4
 74
     0
 42
0.000000001
 43
0.0000000001
 40
0.4376315473246415
 40
0.4376315473246415
 40
0.4376315473246415
 40
0.4376315473246415
 40
0.4444444444444445
 40
0.4444444444444445
 40
0.4444444444444445
 40
0.4444444444444445
 10
893.1389370822039
 20
884.5899460376193
 30
0.0
 10
893.2300654382563
 20
884.5718135266572
 30
0.0
 10
893.3213972204081
 20
884.5546636120337
 30
0.0
 10
893.4129124362913
 20
884.5385035203127
 30
0.0
  0
SPLINE
  5
20C
330
170
100
AcDbEntity
  8
P-SANR-FIXT
100
AcDbSpline
210
0.0
220
0.0
230
1.0
 70
     8
 71
     3
 72
     8
 73
     4
 74
     0
 42
0.000000001
 43
0.0000000001
 40
0.4688304407896423
 40
0.4688304407896423
 40
0.4688304407896423
 40
0.4688304407896423
 40
0.4814814814814815
 40
0.4814814814814815
 40
0.4814814814814815
 40
0.4814814814814815
 10
894.4016447576048
 20
884.4030210255771
 30
0.0
 10
894.5734891747163
 20
884.3861722413107
 30
0.0
 10
894.7456905967433
 20
884.3727372700472
 30
0.0
 10
894.9181061137876
 20
884.362716475371
 30
0.0
  0
SPLINE
  5
20D
330
170
100
AcDbEntity
  8
P-SANR-FIXT
100
AcDbSpline
210
0.0
220
0.0
230
1.0
 70
     8
 71
     3
 72
     8
 73
     4
 74
     0
 42
0.000000001
 43
0.0000000001
 40
0.5185185185185186
 40
0.5185185185185186
 40
0.5185185185185186
 40
0.5185185185185186
 40
0.5312562630840921
 40
0.5312562630840921
 40
0.5312562630840921
 40
0.5312562630840921
 10
896.4343106819645
 20
884.3625010131678
 30
0.0
 10
896.6079367979434
 20
884.3725422508354
 30
0.0
 10
896.7813557434524
 20
884.3860457738916
 30
0.0
 10
896.9544216870138
 20
884.4030119222193
 30
0.0
  0
SPLINE
  5
20E
330
170
100
AcDbEntity
  8
P-SANR-FIXT
100
AcDbSpline
210
0.0
220
0.0
230
1.0
 70
     8
 71
     3
 72
     8
 73
     4
 74
     0
 42
0.000000001
 43
0.0000000001
 40
0.5555555555555556
 40
0.5555555555555556
 40
0.5555555555555556
 40
0.5555555555555556
 40
0.5624480735528225
 40
0.5624480735528225
 40
0.5624480735528225
 40
0.5624480735528225
 10
897.9400085861744
 20
884.5379144682715
 30
0.0
 10
898.0326402346703
 20
884.5542443735912
 30
0.0
 10
898.125087084589
 20
884.5715883137659
 30
0.0
 10
898.2173279755263
 20
884.5899391698953
 30
0.0
  0
SPLINE
  5
20F
330
170
100
AcDbEntity
  8
P-SANR-FIXT
100
AcDbSpline
210
0.0
220
0.0
230
1.0
 70
     8
 71
     3
 72
     8
 73
     4
 74
     0
 42
0.000000001
 43
0.0000000001
 40
0.5925925925925926
 40
0.5925925925925926
 40
0.5925925925925926
 40
0.5925925925925926
 40
0.5935794290280294
 40
0.5935794290280294
 40
0.5935794290280294
 40
0.5935794290280294
 10
899.4139882562745
 20
884.8878975761374
 30
0.0
 10
899.426878964384
 20
884.8917664816001
 30
0.0
 10
899.439763555703
 20
884.8956553879244
 30
0.0
 10
899.4526419679626
 20
884.8995642743348
 30
0.0
  0
SPLINE
  5
210
330
170
100
AcDbEntity
  8
P-SANR-FIXT
100
AcDbSpline
210
0.0
220
0.0
230
1.0
 70
     8
 71
     3
 72
     8
 73
     4
 74
     0
 42
0.000000001
 43
0.0000000001
 40
0.6248492852820672
 40
0.6248492852820672
 40
0.6248492852820672
 40
0.6248492852820672
 40
0.6296296296296296
 40
0.6296296296296296
 40
0.6296296296296296
 40
0.6296296296296296
 10
900.6562777890708
 20
885.330634857326
 30
0.0
 10
900.7164606069688
 20
885.3555908612136
 30
0.0
 10
900.7764512875429
 20
885.3809963206401
 30
0.0
 10
900.8362425017134
 20
885.4068474777598
 30
0.0
  0
SPLINE
  5
211
330
170
100
AcDbEntity
  8
P-SANR-FIXT
100
AcDbSpline
210
0.0
220
0.0
230
1.0
 70
     8
 71
     3
 72
     8
 73
     4
 74
     0
 42
0.000000001
 43
0.0000000001
 40
0.6562312572749665
 40
0.6562312572749665
 40
0.6562312572749665
 40
0.6562312572749665
 40
0.6666666666666666
 40
0.6666666666666666
 40
0.6666666666666666
 40
0.6666666666666666
 10
901.8146291632074
 20
885.8791726148375
 30
0.0
 10
901.9398103964151
 20
885.9461799709769
 30
0.0
 10
902.0638454536499
 20
886.0152123973925
 30
0.0
 10
902.1866599347049
 20
886.0862297530482
 30
0.0
  0
SPLINE
  5
212
330
170
100
AcDbEntity
  8
P-SANR-FIXT
100
AcDbSpline
210
0.0
220
0.0
230
1.0
 70
     8
 71
     3
 72
     8
 73
     4
 74
     0
 42
0.000000001
 43
0.0000000001
 40
0.7037037037037035
 40
0.7037037037037035
 40
0.7037037037037035
 40
0.7037037037037035
 40
0.7191092963888963
 40
0.7191092963888963
 40
0.7191092963888963
 40
0.7191092963888963
 10
903.4457258799111
 20
886.9154119994059
 30
0.0
 10
903.6132299643332
 20
887.0402283599768
 30
0.0
 10
903.7776502864932
 20
887.1690433223546
 30
0.0
 10
903.9388780570165
 20
887.3017137692183
 30
0.0
  0
SPLINE
  5
213
330
170
100
AcDbEntity
  8
P-SANR-FIXT
100
AcDbSpline
210
0.0
220
0.0
230
1.0
 70
     8
 71
     3
 72
     8
 73
     4
 74
     0
 42
0.000000001
 43
0.0000000001
 40
0.7407407407407405
 40
0.7407407407407405
 40
0.7407407407407405
 40
0.7407407407407405
 40
0.7496632807024976
 40
0.7496632807024976
 40
0.7496632807024976
 40
0.7496632807024976
 10
904.5985753396834
 20
887.8831165400502
 30
0.0
 10
904.6865522194419
 20
887.9661065390642
 30
0.0
 10
904.7734054183347
 20
888.0503253641796
 30
0.0
 10
904.8590404478462
 20
888.1357772735626
 30
0.0
  0
SPLINE
  5
214
330
170
100
AcDbEntity
  8
P-SANR-FIXT
100
AcDbSpline
210
0.0
220
0.0
230
1.0
 70
     8
 71
     3
 72
     8
 73
     4
 74
     0
 42
0.000000001
 43
0.0000000001
 40
0.7777777777777778
 40
0.7777777777777778
 40
0.7777777777777778
 40
0.7777777777777778
 40
0.7812654380477336
 40
0.7812654380477336
 40
0.7812654380477336
 40
0.7812654380477336
 10
905.6327065416306
 20
888.9786281866602
 30
0.0
 10
905.6631655043366
 20
889.0148928825599
 30
0.0
 10
905.6934594045646
 20
889.0513163678075
 30
0.0
 10
905.7235747159623
 20
889.0879003215491
 30
0.0
  0
SPLINE
  5
215
330
170
100
AcDbEntity
  8
P-SANR-FIXT
100
AcDbSpline
210
0.0
220
0.0
230
1.0
 70
     8
 71
     3
 72
     8
 73
     4
 74
     0
 42
0.000000001
 43
0.0000000001
 40
0.8126454696559763
 40
0.8126454696559763
 40
0.8126454696559763
 40
0.8126454696559763
 40
0.8148148148148145
 40
0.8148148148148145
 40
0.8148148148148145
 40
0.8148148148148145
 10
906.4855675622009
 20
890.1147267679309
 30
0.0
 10
906.5019552722551
 20
890.1392407095093
 30
0.0
 10
906.5182195773289
 20
890.1638233327609
 30
0.0
 10
906.5343728020989
 20
890.1884701827523
 30
0.0
  0
SPLINE
  5
216
330
170
100
AcDbEntity
  8
P-SANR-FIXT
100
AcDbSpline
210
0.0
220
0.0
230
1.0
 70
     8
 71
     3
 72
     8
 73
     4
 74
     0
 42
0.000000001
 43
0.0000000001
 40
0.8437994891721444
 40
0.8437994891721444
 40
0.8437994891721444
 40
0.8437994891721444
 40
0.8518518518518513
 40
0.8518518518518513
 40
0.8518518518518513
 40
0.8518518518518513
 10
907.1391430642586
 20
891.2040596001999
 30
0.0
 10
907.1908453193632
 20
891.3006326407721
 30
0.0
 10
907.2426039403476
 20
891.3975562814144
 30
0.0
 10
907.2937214853324
 20
891.4949679491051
 30
0.0
  0
SPLINE
  5
217
330
170
100
AcDbEntity
  8
P-SANR-FIXT
100
AcDbSpline
210
0.0
220
0.0
230
1.0
 70
     8
 71
     3
 72
     8
 73
     4
 74
     0
 42
0.000000001
 43
0.0000000001
 40
0.8750443725257381
 40
0.8750443725257381
 40
0.8750443725257381
 40
0.8750443725257381
 40
0.8888888888888889
 40
0.8888888888888889
 40
0.8888888888888889
 40
0.8888888888888889
 10
907.6851825728281
 20
892.3564517111854
 30
0.0
 10
907.7574408819396
 20
892.5305609297515
 30
0.0
 10
907.8294941717153
 20
892.705613927754
 30
0.0
 10
907.8905184154983
 20
892.883455909263
 30
0.0
  0
SPLINE
  5
218
330
170
100
AcDbEntity
  8
P-SANR-FIXT
100
AcDbSpline
210
0.0
220
0.0
230
1.0
 70
     8
 71
     3
 72
     8
 73
     4
 74
     0
 42
0.000000001
 43
0.0000000001
 40
0.9259259259259254
 40
0.9259259259259254
 40
0.9259259259259254
 40
0.9259259259259254
 40
0.9376067547723801
 40
0.9376067547723801
 40
0.9376067547723801
 40
0.9376067547723801
 10
908.3251491716181
 20
894.3332634442381
 30
0.0
 10
908.3619488182158
 20
894.4882545705695
 30
0.0
 10
908.3910125614764
 20
894.6444767618629
 30
0.0
 10
908.4146389203118
 20
894.8015740170198
 30
0.0
  0
SPLINE
  5
219
330
170
100
AcDbEntity
  8
P-SANR-FIXT
100
AcDbSpline
210
0.0
220
0.0
230
1.0
 70
     8
 71
     3
 72
     8
 73
     4
 74
     0
 42
0.000000001
 43
0.0000000001
 40
0.9629629629629622
 40
0.9629629629629622
 40
0.9629629629629622
 40
0.9629629629629622
 40
0.9688404943247451
 40
0.9688404943247451
 40
0.9688404943247451
 40
0.9688404943247451
 10
908.5891496577097
 20
895.8253714377411
 30
0.0
 10
908.5985242445174
 20
895.9050641244866
 30
0.0
 10
908.6059101487382
 20
895.9849237545254
 30
0.0
 10
908.6119014772636
 20
896.0649016867128
 30
0.0
  0
ARC
  5
21A
330
170
100
AcDbEntity
  8
P-SANR-FIXT
100
AcDbCircle
 10
895.6781261932007
 20
897.3396287300552
 30
0.0
 40
12.99999999999994
100
AcDbArc
 50
0.0000000000007506
 51
180.0000000000002
  0
ARC
  5
21B
330
170
100
AcDbEntity
  8
P-SANR-FIXT
100
AcDbCircle
 10
895.6781261932007
 20
897.3396287300552
 30
0.0
 40
12.99999999999988
100
AcDbArc
 50
180.0
 51
0.0
  0
ARC
  5
21C
330
170
100
AcDbEntity
  8
P-SANR-FIXT
100
AcDbCircle
 10
895.7562511932001
 20
897.3396287300545
 30
0.0
 40
12.99999999999998
100
AcDbArc
 50
123.7499999999999
 51
124.1788604164328
  0
ARC
  5
21D
330
170
100
AcDbEntity
  8
P-SANR-FIXT
100
AcDbCircle
 10
895.7562511932001
 20
897.3396287300545
 30
0.0
 40
13.00000000000011
100
AcDbArc
 50
118.1249999999992
 51
118.5266001243488
  0
ARC
  5
21E
330
170
100
AcDbEntity
  8
P-SANR-FIXT
100
AcDbCircle
 10
895.7562511932001
 20
897.3396287300545
 30
0.0
 40
12.99999999999979
100
AcDbArc
 50
241.4733998756509
 51
241.8749999999998
  0
ARC
  5
21F
330
170
100
AcDbEntity
  8
P-SANR-FIXT
100
AcDbCircle
 10
895.7562511932001
 20
897.3396287300545
 30
0.0
 40
12.99999999999984
100
AcDbArc
 50
235.8211395835666
 51
236.2499999999994
  0
SPLINE
  5
220
330
170
100
AcDbEntity
  8
P-SANR-FIXT
100
AcDbSpline
210
0.0
220
0.0
230
1.0
 70
     8
 71
     3
 72
    29
 73
    25
 74
     0
 42
0.000000001
 43
0.0000000001
 40
-0.5000078902411318
 40
-0.5000078902411318
 40
-0.5000078902411318
 40
-0.5000078902411318
 40
-0.5
 40
-0.4722222222222223
 40
-0.4444444444444445
 40
-0.4166666666666666
 40
-0.3888888888888888
 40
-0.3611111111111111
 40
-0.3472222222222222
 40
-0.3333333333333333
 40
-0.3194444444444444
 40
-0.3055555555555556
 40
-0.2777777777777778
 40
-0.25
 40
-0.2361111111111111
 40
-0.2222222222222222
 40
-0.2083333333333333
 40
-0.1944444444444444
 40
-0.1666666666666666
 40
-0.1388888888888889
 40
-0.1111111111111111
 40
-0.0833333333333333
 40
-0.0555555555555556
 40
0.0
 40
0.0
 40
0.0
 40
0.0
 10
809.1950983974632
 20
840.1796287303627
 30
0.0
 10
809.1950983984435
 20
840.1796287302362
 30
0.0
 10
809.1951134929072
 20
840.1796499535782
 30
0.0
 10
809.2771314358666
 20
840.3322877309303
 30
0.0
 10
809.6169052427992
 20
841.0093851705852
 30
0.0
 10
810.2606952062116
 20
842.1156597195054
 30
0.0
 10
811.193030523284
 20
843.6409623396057
 30
0.0
 10
812.1047341394666
 20
845.2462479282241
 30
0.0
 10
812.8719127563721
 20
846.7211910650719
 30
0.0
 10
813.4418455979183
 20
847.9207493347642
 30
0.0
 10
814.0390931581263
 20
849.2081642470868
 30
0.0
 10
814.9131343647949
 20
851.035398403237
 30
0.0
 10
816.0885185168535
 20
853.5240096468486
 30
0.0
 10
817.28476565217
 20
856.2764582657589
 30
0.0
 10
818.2002716363655
 20
858.6332402301218
 30
0.0
 10
818.8415273531575
 20
860.4792623793278
 30
0.0
 10
819.4662884128126
 20
862.3975385690224
 30
0.0
 10
820.3198502146005
 20
865.0404810169016
 30
0.0
 10
821.3689456842233
 20
868.5017799491729
 30
0.0
 10
822.5221335544778
 20
872.8867355850233
 30
0.0
 10
823.4549240678967
 20
877.4867923237968
 30
0.0
 10
824.1538956074766
 20
882.2723293962756
 30
0.0
 10
824.8765174011392
 20
888.8414907374853
 30
0.0
 10
825.1541707875727
 20
893.9292079648376
 30
0.0
 10
825.2250011932012
 20
897.3396287300547
 30
0.0
  0
LINE
  5
221
330
170
100
AcDbEntity
  8
P-SANR-FIXT
100
AcDbLine
 10
980.2250011932018
 20
1007.339628730055
 30
0.0
 11
980.2250011932022
 21
897.3396287300563
 31
0.0
  0
LINE
  5
222
330
170
100
AcDbEntity
  8
P-SANR-FIXT
100
AcDbLine
 10
980.2250011932022
 20
897.3396287300557
 30
0.0
 11
980.2250011932027
 21
787.3396287300553
 31
0.0
  0
LINE
  5
223
330
170
100
AcDbEntity
  8
P-SANR-FIXT
100
AcDbLine
 10
962.2250011932008
 20
1007.339628730055
 30
0.0
 11
962.2250011932012
 21
897.3396287300563
 31
0.0
  0
LINE
  5
224
330
170
100
AcDbEntity
  8
P-SANR-FIXT
100
AcDbLine
 10
962.2250011932012
 20
897.3396287300557
 30
0.0
 11
962.2250011932017
 21
787.3396287300553
 31
0.0
  0
ENDBLK
  5
226
330
170
100
AcDbEntity
  8
0
100
AcDbBlockEnd
  0
BLOCK
  5
2B9
330
228
100
AcDbEntity
  8
0
100
AcDbBlockBegin
  2
Automatic flow rate regulator valve_Caleffi_121 DN15 - 1_2__-V2-Est - Idraulica
 70
     0
 10
0.0
 20
0.0
 30
0.0
  3
Automatic flow rate regulator valve_Caleffi_121 DN15 - 1_2__-V2-Est - Idraulica
  1

  0
LINE
  5
229
330
228
100
AcDbEntity
  8
M-PIPE
100
AcDbLine
 10
1567.114353943088
 20
1255.98255885001
 30
0.0
 11
1559.792023472752
 21
1255.982558850011
 31
0.0
1001
REVIT
1002
{
1070
     3
1000
790271
1002
}
  0
LINE
  5
22A
330
228
100
AcDbEntity
  8
M-PIPE
100
AcDbLine
 10
1559.792023472752
 20
1255.982558850011
 30
0.0
 11
1542.114353943089
 21
1255.982558850011
 31
0.0
1001
REVIT
1002
{
1070
     3
1000
790271
1002
}
  0
LINE
  5
22B
330
228
100
AcDbEntity
  8
M-PIPE
100
AcDbLine
 10
1542.114353943089
 20
1255.982558850011
 30
0.0
 11
1524.436684413425
 21
1255.982558850011
 31
0.0
1001
REVIT
1002
{
1070
     3
1000
790271
1002
}
  0
LINE
  5
22C
330
228
100
AcDbEntity
  8
M-PIPE
100
AcDbLine
 10
1524.436684413425
 20
1255.982558850011
 30
0.0
 11
1517.114353943088
 21
1255.98255885001
 31
0.0
1001
REVIT
1002
{
1070
     3
1000
790271
1002
}
  0
LINE
  5
22D
330
228
100
AcDbEntity
  8
M-PIPE
100
AcDbLine
 10
1567.114353943088
 20
1273.98255885001
 30
0.0
 11
1567.114353943088
 21
1255.98255885001
 31
0.0
1001
REVIT
1002
{
1070
     3
1000
790271
1002
}
  0
LINE
  5
22E
330
228
100
AcDbEntity
  8
M-PIPE
100
AcDbLine
 10
1559.792023472752
 20
1273.98255885001
 30
0.0
 11
1559.792023472752
 21
1255.98255885001
 31
0.0
1001
REVIT
1002
{
1070
     3
1000
790271
1002
}
  0
LINE
  5
22F
330
228
100
AcDbEntity
  8
M-PIPE
100
AcDbLine
 10
1542.114353943089
 20
1273.98255885001
 30
0.0
 11
1542.114353943089
 21
1255.982558850011
 31
0.0
1001
REVIT
1002
{
1070
     3
1000
790271
1002
}
  0
LINE
  5
230
330
228
100
AcDbEntity
  8
M-PIPE
100
AcDbLine
 10
1524.436684413425
 20
1273.98255885001
 30
0.0
 11
1524.436684413425
 21
1255.98255885001
 31
0.0
1001
REVIT
1002
{
1070
     3
1000
790271
1002
}
  0
LINE
  5
231
330
228
100
AcDbEntity
  8
M-PIPE
100
AcDbLine
 10
1517.114353943088
 20
1273.98255885001
 30
0.0
 11
1517.114353943088
 21
1255.98255885001
 31
0.0
1001
REVIT
1002
{
1070
     3
1000
790271
1002
}
  0
LINE
  5
232
330
228
100
AcDbEntity
  8
M-PIPE
100
AcDbLine
 10
1514.114353943091
 20
1319.982558850011
 30
0.0
 11
1514.114353943091
 21
1273.982558850011
 31
0.0
1001
REVIT
1002
{
1070
     3
1000
790271
1002
}
  0
LINE
  5
233
330
228
100
AcDbEntity
  8
M-PIPE
100
AcDbLine
 10
1570.114353943115
 20
1273.98255885001
 30
0.0
 11
1570.114353943115
 21
1286.572387805586
 31
0.0
1001
REVIT
1002
{
1070
     3
1000
790271
1002
}
  0
LINE
  5
234
330
228
100
AcDbEntity
  8
M-PIPE
100
AcDbLine
 10
1570.114353943115
 20
1307.392729894436
 30
0.0
 11
1570.114353943115
 21
1319.982558850011
 31
0.0
1001
REVIT
1002
{
1070
     3
1000
790271
1002
}
  0
LINE
  5
235
330
228
100
AcDbEntity
  8
M-PIPE
100
AcDbLine
 10
1570.114353943113
 20
1319.98255885001
 30
0.0
 11
1514.114353943088
 21
1319.982558850011
 31
0.0
1001
REVIT
1002
{
1070
     3
1000
790271
1002
}
  0
LINE
  5
236
330
228
100
AcDbEntity
  8
M-PIPE
100
AcDbLine
 10
1514.114353943088
 20
1273.982558850011
 30
0.0
 11
1570.114353943112
 21
1273.98255885001
 31
0.0
1001
REVIT
1002
{
1070
     3
1000
790271
1002
}
  0
LINE
  5
237
330
228
100
AcDbEntity
  8
M-PIPE
100
AcDbLine
 10
1567.114353943089
 20
1319.982558850011
 30
0.0
 11
1567.114353943089
 21
1337.982558850011
 31
0.0
1001
REVIT
1002
{
1070
     3
1000
790271
1002
}
  0
LINE
  5
238
330
228
100
AcDbEntity
  8
M-PIPE
100
AcDbLine
 10
1517.114353943088
 20
1337.982558850011
 30
0.0
 11
1524.436684413425
 21
1337.982558850012
 31
0.0
1001
REVIT
1002
{
1070
     3
1000
790271
1002
}
  0
LINE
  5
239
330
228
100
AcDbEntity
  8
M-PIPE
100
AcDbLine
 10
1524.436684413425
 20
1337.982558850012
 30
0.0
 11
1542.114353943089
 21
1337.982558850012
 31
0.0
1001
REVIT
1002
{
1070
     3
1000
790271
1002
}
  0
LINE
  5
23A
330
228
100
AcDbEntity
  8
M-PIPE
100
AcDbLine
 10
1542.114353943089
 20
1337.982558850012
 30
0.0
 11
1559.792023472752
 21
1337.982558850012
 31
0.0
1001
REVIT
1002
{
1070
     3
1000
790271
1002
}
  0
LINE
  5
23B
330
228
100
AcDbEntity
  8
M-PIPE
100
AcDbLine
 10
1567.114353943089
 20
1337.982558850011
 30
0.0
 11
1559.792023472752
 21
1337.982558850012
 31
0.0
1001
REVIT
1002
{
1070
     3
1000
790271
1002
}
  0
LINE
  5
23C
330
228
100
AcDbEntity
  8
M-PIPE
100
AcDbLine
 10
1559.792023472752
 20
1337.982558850011
 30
0.0
 11
1559.792023472752
 21
1319.982558850011
 31
0.0
1001
REVIT
1002
{
1070
     3
1000
790271
1002
}
  0
LINE
  5
23D
330
228
100
AcDbEntity
  8
M-PIPE
100
AcDbLine
 10
1542.114353943089
 20
1337.982558850012
 30
0.0
 11
1542.114353943089
 21
1319.982558850011
 31
0.0
1001
REVIT
1002
{
1070
     3
1000
790271
1002
}
  0
LINE
  5
23E
330
228
100
AcDbEntity
  8
M-PIPE
100
AcDbLine
 10
1524.436684413425
 20
1337.982558850011
 30
0.0
 11
1524.436684413425
 21
1319.982558850011
 31
0.0
1001
REVIT
1002
{
1070
     3
1000
790271
1002
}
  0
LINE
  5
23F
330
228
100
AcDbEntity
  8
M-PIPE
100
AcDbLine
 10
1517.114353943088
 20
1337.982558850011
 30
0.0
 11
1517.114353943088
 21
1319.982558850011
 31
0.0
1001
REVIT
1002
{
1070
     3
1000
790271
1002
}
  0
LINE
  5
240
330
228
100
AcDbEntity
  8
M-PIPE
100
AcDbLine
 10
1579.114353943103
 20
1282.982558850011
 30
0.0
 11
1601.114353943103
 21
1282.982558850011
 31
0.0
1001
REVIT
1002
{
1070
     3
1000
790271
1002
}
  0
LINE
  5
241
330
228
100
AcDbEntity
  8
M-PIPE
100
AcDbLine
 10
1601.114353943103
 20
1310.982558850011
 30
0.0
 11
1579.114353943103
 21
1310.982558850011
 31
0.0
1001
REVIT
1002
{
1070
     3
1000
790271
1002
}
  0
LINE
  5
242
330
228
100
AcDbEntity
  8
M-PIPE
100
AcDbLine
 10
1579.114353943101
 20
1310.982558850011
 30
0.0
 11
1579.114353943101
 21
1282.982558850011
 31
0.0
1001
REVIT
1002
{
1070
     3
1000
790271
1002
}
  0
LINE
  5
243
330
228
100
AcDbEntity
  8
M-PIPE
100
AcDbLine
 10
1601.1143539431
 20
1282.982558850011
 30
0.0
 11
1601.114353943101
 21
1310.982558850011
 31
0.0
1001
REVIT
1002
{
1070
     3
1000
790271
1002
}
  0
LINE
  5
244
330
228
100
AcDbEntity
  8
M-PIPE
100
AcDbLine
 10
1570.085366810842
 20
1286.482558850011
 30
0.0
 11
1579.114353943103
 21
1286.482558850011
 31
0.0
1001
REVIT
1002
{
1070
     3
1000
790271
1002
}
  0
LINE
  5
245
330
228
100
AcDbEntity
  8
M-PIPE
100
AcDbLine
 10
1579.114353943103
 20
1307.48255885001
 30
0.0
 11
1570.085366810843
 21
1307.482558850011
 31
0.0
1001
REVIT
1002
{
1070
     3
1000
790271
1002
}
  0
LINE
  5
246
330
228
100
AcDbEntity
  8
P-SANR-FIXT
100
AcDbLine
 10
1541.216495598276
 20
2524.984043225
 30
0.0
 11
1550.165424770715
 21
2524.984043225
 31
0.0
  0
LINE
  5
247
330
228
100
AcDbEntity
  8
P-SANR-FIXT
100
AcDbLine
 10
1550.165424770715
 20
2524.984043225
 30
0.0
 11
1568.063283115594
 21
2524.984043225
 31
0.0
  0
LINE
  5
248
330
228
100
AcDbEntity
  8
P-SANR-FIXT
100
AcDbLine
 10
1568.063283115594
 20
2524.984043225
 30
0.0
 11
1577.012212288033
 21
2524.984043225
 31
0.0
  0
LINE
  5
249
330
228
100
AcDbEntity
  8
P-SANR-FIXT
100
AcDbLine
 10
1577.012212288033
 20
2524.984043225
 30
0.0
 11
1577.012212288033
 21
2514.484043225
 31
0.0
  0
LINE
  5
24A
330
228
100
AcDbEntity
  8
P-SANR-FIXT
100
AcDbLine
 10
1541.216495598276
 20
2514.484043225
 30
0.0
 11
1541.216495598276
 21
2524.984043225
 31
0.0
  0
LINE
  5
24B
330
228
100
AcDbEntity
  8
P-SANR-FIXT
100
AcDbLine
 10
1550.165424770715
 20
2514.484043225
 30
0.0
 11
1550.165424770715
 21
2524.984043225
 31
0.0
  0
LINE
  5
24C
330
228
100
AcDbEntity
  8
P-SANR-FIXT
100
AcDbLine
 10
1568.063283115594
 20
2514.484043225
 30
0.0
 11
1568.063283115594
 21
2524.984043225
 31
0.0
  0
LINE
  5
24D
330
228
100
AcDbEntity
  8
M-PIPE
100
AcDbLine
 10
1587.36435394316
 20
2396.984043225002
 30
0.0
 11
1590.646906275382
 21
2490.984043225001
 31
0.0
1001
REVIT
1002
{
1070
     3
1000
790271
1002
}
  0
LINE
  5
24E
330
228
100
AcDbEntity
  8
M-PIPE
100
AcDbLine
 10
1493.581801610935
 20
2490.984043225001
 30
0.0
 11
1496.864353943159
 21
2396.984043225001
 31
0.0
1001
REVIT
1002
{
1070
     3
1000
790271
1002
}
  0
LINE
  5
24F
330
228
100
AcDbEntity
  8
M-PIPE
100
AcDbLine
 10
1601.910814660753
 20
2490.984043225001
 30
0.0
 11
1601.910814660753
 21
2504.984043225001
 31
0.0
1001
REVIT
1002
{
1070
     3
1000
790271
1002
}
  0
LINE
  5
250
330
228
100
AcDbEntity
  8
M-PIPE
100
AcDbLine
 10
1482.317893225543
 20
2504.984043225001
 30
0.0
 11
1482.317893225543
 21
2490.984043225001
 31
0.0
1001
REVIT
1002
{
1070
     3
1000
790271
1002
}
  0
LINE
  5
251
330
228
100
AcDbEntity
  8
M-PIPE
100
AcDbLine
 10
1552.114353943149
 20
2490.984043225001
 30
0.0
 11
1552.114353943149
 21
2504.984043225001
 31
0.0
1001
REVIT
1002
{
1070
     3
1000
790271
1002
}
  0
LINE
  5
252
330
228
100
AcDbEntity
  8
M-PIPE
100
AcDbLine
 10
1532.114353943148
 20
2504.984043225001
 30
0.0
 11
1532.114353943148
 21
2490.984043225001
 31
0.0
1001
REVIT
1002
{
1070
     3
1000
790271
1002
}
  0
LINE
  5
253
330
228
100
AcDbEntity
  8
M-PIPE
100
AcDbLine
 10
1585.614353943159
 20
2504.984043225002
 30
0.0
 11
1585.614353943159
 21
2514.484043225002
 31
0.0
1001
REVIT
1002
{
1070
     3
1000
790271
1002
}
  0
LINE
  5
254
330
228
100
AcDbEntity
  8
M-PIPE
100
AcDbLine
 10
1532.614353943159
 20
2514.484043225002
 30
0.0
 11
1532.614353943159
 21
2504.984043225002
 31
0.0
1001
REVIT
1002
{
1070
     3
1000
790271
1002
}
  0
LINE
  5
255
330
228
100
AcDbEntity
  8
M-PIPE
100
AcDbLine
 10
1569.964353943159
 20
2524.984043225002
 30
0.0
 11
1569.964353943159
 21
2534.984043225068
 31
0.0
1001
REVIT
1002
{
1070
     3
1000
790271
1002
}
  0
LINE
  5
256
330
228
100
AcDbEntity
  8
M-PIPE
100
AcDbLine
 10
1548.264353943159
 20
2534.984043225068
 30
0.0
 11
1548.264353943159
 21
2524.984043225002
 31
0.0
1001
REVIT
1002
{
1070
     3
1000
790271
1002
}
  0
LINE
  5
257
330
228
100
AcDbEntity
  8
M-PIPE
100
AcDbLine
 10
1565.20836471073
 20
2376.984043225
 30
0.0
 11
1553.661359326938
 21
2376.984043225
 31
0.0
1001
REVIT
1002
{
1070
     3
1000
790271
1002
}
  0
LINE
  5
258
330
228
100
AcDbEntity
  8
M-PIPE
100
AcDbLine
 10
1553.661359326938
 20
2376.984043225
 30
0.0
 11
1548.464353943099
 21
2376.984043225
 31
0.0
1001
REVIT
1002
{
1070
     3
1000
790271
1002
}
  0
LINE
  5
259
330
228
100
AcDbEntity
  8
M-PIPE
100
AcDbLine
 10
1542.114353943099
 20
2376.984043225
 30
0.0
 11
1530.567348559353
 21
2376.984043225
 31
0.0
1001
REVIT
1002
{
1070
     3
1000
790271
1002
}
  0
LINE
  5
25A
330
228
100
AcDbEntity
  8
M-PIPE
100
AcDbLine
 10
1530.567348559353
 20
2376.984043225
 30
0.0
 11
1519.02034317556
 21
2376.984043225
 31
0.0
1001
REVIT
1002
{
1070
     3
1000
790271
1002
}
  0
LINE
  5
25B
330
228
100
AcDbEntity
  8
M-PIPE
100
AcDbLine
 10
1565.20836471073
 20
2396.984043225
 30
0.0
 11
1565.20836471073
 21
2376.984043225
 31
0.0
1001
REVIT
1002
{
1070
     3
1000
790271
1002
}
  0
LINE
  5
25C
330
228
100
AcDbEntity
  8
M-PIPE
100
AcDbLine
 10
1519.02034317556
 20
2376.984043225
 30
0.0
 11
1519.02034317556
 21
2396.984043225
 31
0.0
1001
REVIT
1002
{
1070
     3
1000
790271
1002
}
  0
LINE
  5
25D
330
228
100
AcDbEntity
  8
M-PIPE
100
AcDbLine
 10
1530.567348559353
 20
2376.984043225
 30
0.0
 11
1530.567348559352
 21
2396.984043225
 31
0.0
1001
REVIT
1002
{
1070
     3
1000
790271
1002
}
  0
LINE
  5
25E
330
228
100
AcDbEntity
  8
M-PIPE
100
AcDbLine
 10
1553.661359326938
 20
2376.984043225
 30
0.0
 11
1553.661359326938
 21
2396.984043225
 31
0.0
1001
REVIT
1002
{
1070
     3
1000
790271
1002
}
  0
LINE
  5
25F
330
228
100
AcDbEntity
  8
M-PIPE
100
AcDbLine
 10
1496.864353943157
 20
2396.984043225
 30
0.0
 11
1587.364353943157
 21
2396.984043225001
 31
0.0
1001
REVIT
1002
{
1070
     3
1000
790271
1002
}
  0
LINE
  5
260
330
228
100
AcDbEntity
  8
M-PIPE
100
AcDbLine
 10
1552.106402437725
 20
2504.984043225001
 30
0.0
 11
1586.176688554246
 21
2504.984043225001
 31
0.0
1001
REVIT
1002
{
1070
     3
1000
790271
1002
}
  0
LINE
  5
261
330
228
100
AcDbEntity
  8
M-PIPE
100
AcDbLine
 10
1586.176688554247
 20
2504.984043225001
 30
0.0
 11
1601.91081466075
 21
2504.984043225001
 31
0.0
1001
REVIT
1002
{
1070
     3
1000
790271
1002
}
  0
LINE
  5
262
330
228
100
AcDbEntity
  8
M-PIPE
100
AcDbLine
 10
1601.91081466075
 20
2504.984043225001
 30
0.0
 11
1601.909905159538
 21
2504.984043225001
 31
0.0
1001
REVIT
1002
{
1070
     3
1000
790271
1002
}
  0
LINE
  5
263
330
228
100
AcDbEntity
  8
M-PIPE
100
AcDbLine
 10
1482.318802726767
 20
2504.984043225001
 30
0.0
 11
1482.317893225555
 21
2504.984043225001
 31
0.0
1001
REVIT
1002
{
1070
     3
1000
790271
1002
}
  0
LINE
  5
264
330
228
100
AcDbEntity
  8
M-PIPE
100
AcDbLine
 10
1482.317893225541
 20
2504.984043225001
 30
0.0
 11
1498.052019332044
 21
2504.984043225001
 31
0.0
1001
REVIT
1002
{
1070
     3
1000
790271
1002
}
  0
LINE
  5
265
330
228
100
AcDbEntity
  8
M-PIPE
100
AcDbLine
 10
1498.052019332043
 20
2504.984043225001
 30
0.0
 11
1532.122305448567
 21
2504.984043225001
 31
0.0
1001
REVIT
1002
{
1070
     3
1000
790271
1002
}
  0
LINE
  5
266
330
228
100
AcDbEntity
  8
M-PIPE
100
AcDbLine
 10
1532.114353943146
 20
2504.984043225001
 30
0.0
 11
1552.114353943146
 21
2504.984043225001
 31
0.0
1001
REVIT
1002
{
1070
     3
1000
790271
1002
}
  0
LINE
  5
267
330
228
100
AcDbEntity
  8
M-PIPE
100
AcDbLine
 10
1552.114353943146
 20
2490.984043225
 30
0.0
 11
1532.114353943146
 21
2490.984043225
 31
0.0
1001
REVIT
1002
{
1070
     3
1000
790271
1002
}
  0
LINE
  5
268
330
228
100
AcDbEntity
  8
M-PIPE
100
AcDbLine
 10
1532.122305448567
 20
2490.984043225
 30
0.0
 11
1498.052019332044
 21
2490.984043225
 31
0.0
1001
REVIT
1002
{
1070
     3
1000
790271
1002
}
  0
LINE
  5
269
330
228
100
AcDbEntity
  8
M-PIPE
100
AcDbLine
 10
1498.052019332044
 20
2490.984043225
 30
0.0
 11
1482.317893225541
 21
2490.984043225
 31
0.0
1001
REVIT
1002
{
1070
     3
1000
790271
1002
}
  0
LINE
  5
26A
330
228
100
AcDbEntity
  8
M-PIPE
100
AcDbLine
 10
1482.317893225555
 20
2490.984043225
 30
0.0
 11
1482.318802726767
 21
2490.984043225
 31
0.0
1001
REVIT
1002
{
1070
     3
1000
790271
1002
}
  0
LINE
  5
26B
330
228
100
AcDbEntity
  8
M-PIPE
100
AcDbLine
 10
1601.909905159538
 20
2490.984043225
 30
0.0
 11
1601.91081466075
 21
2490.984043225
 31
0.0
1001
REVIT
1002
{
1070
     3
1000
790271
1002
}
  0
LINE
  5
26C
330
228
100
AcDbEntity
  8
M-PIPE
100
AcDbLine
 10
1601.91081466075
 20
2490.984043225
 30
0.0
 11
1586.176688554247
 21
2490.984043225
 31
0.0
1001
REVIT
1002
{
1070
     3
1000
790271
1002
}
  0
LINE
  5
26D
330
228
100
AcDbEntity
  8
M-PIPE
100
AcDbLine
 10
1586.176688554247
 20
2490.984043225
 30
0.0
 11
1552.106402437725
 21
2490.984043225
 31
0.0
1001
REVIT
1002
{
1070
     3
1000
790271
1002
}
  0
LINE
  5
26E
330
228
100
AcDbEntity
  8
M-PIPE
100
AcDbLine
 10
1586.176688554247
 20
2490.984043225
 30
0.0
 11
1586.176688554247
 21
2504.984043225001
 31
0.0
1001
REVIT
1002
{
1070
     3
1000
790271
1002
}
  0
LINE
  5
26F
330
228
100
AcDbEntity
  8
M-PIPE
100
AcDbLine
 10
1498.052019332043
 20
2490.984043225
 30
0.0
 11
1498.052019332043
 21
2504.984043225001
 31
0.0
1001
REVIT
1002
{
1070
     3
1000
790271
1002
}
  0
LINE
  5
270
330
228
100
AcDbEntity
  8
M-PIPE
100
AcDbLine
 10
1585.614353943156
 20
2514.484043225
 30
0.0
 11
1532.614353943156
 21
2514.484043225
 31
0.0
1001
REVIT
1002
{
1070
     3
1000
790271
1002
}
  0
LINE
  5
271
330
228
100
AcDbEntity
  8
M-PIPE
100
AcDbLine
 10
1569.964353943156
 20
2534.984043225066
 30
0.0
 11
1548.264353943157
 21
2534.984043225066
 31
0.0
1001
REVIT
1002
{
1070
     3
1000
790271
1002
}
  0
ARC
  5
272
330
228
100
AcDbEntity
  8
M-PIPE
100
AcDbCircle
 10
1542.1143539431
 20
2351.004043225001
 30
0.0
 40
15.08124999999227
100
AcDbArc
 50
220.246825600221
 51
245.0989376296156
1001
REVIT
1002
{
1070
     3
1000
790271
1002
}
  0
LWPOLYLINE
  5
273
330
228
100
AcDbEntity
  8
M-PIPE
100
AcDbPolyline
 90
       11
 70
   128
 43
0.0
 10
1530.603314402145
 20
2341.260323696563
 10
1528.703508430593
 20
2344.105251721995
 10
1527.493742299627
 20
2347.305149237197
 10
1527.036263152976
 20
2350.695369145964
 10
1527.3546100611
 20
2354.101471529264
 10
1528.432402845021
 20
2357.348199253351
 10
1530.21418489985
 20
2360.268495626755
 10
1532.608276651476
 20
2362.712100112801
 10
1535.491492825033
 20
2364.553279815048
 10
1538.71548080346
 20
2365.697298920827
 10
1542.114353943099
 20
2366.085293224994
1001
REVIT
1002
{
1070
     3
1000
790271
1002
}
  0
ARC
  5
274
330
228
100
AcDbEntity
  8
M-PIPE
100
AcDbCircle
 10
1542.1143539431
 20
2351.004043225001
 30
0.0
 40
15.08124999999222
100
AcDbArc
 50
40.24682560021629
 51
65.09893762962248
1001
REVIT
1002
{
1070
     3
1000
790271
1002
}
  0
LWPOLYLINE
  5
275
330
228
100
AcDbEntity
  8
M-PIPE
100
AcDbPolyline
 90
       11
 70
   128
 43
0.0
 10
1553.625393484054
 20
2360.747762753439
 10
1555.525199455606
 20
2357.902834728007
 10
1556.734965586572
 20
2354.702937212805
 10
1557.192444733223
 20
2351.312717304037
 10
1556.874097825099
 20
2347.906614920738
 10
1555.796305041178
 20
2344.659887196651
 10
1554.014522986349
 20
2341.739590823248
 10
1551.620431234723
 20
2339.295986337202
 10
1548.737215061166
 20
2337.454806634954
 10
1545.513227082739
 20
2336.310787529176
 10
1542.1143539431
 20
2335.922793225009
1001
REVIT
1002
{
1070
     3
1000
790271
1002
}
  0
LWPOLYLINE
  5
276
330
228
100
AcDbEntity
  8
M-PIPE
100
AcDbPolyline
 90
       12
 70
   128
 43
0.0
 10
1542.114353943099
 20
2362.910293224993
 10
1539.400665206856
 20
2362.596915280929
 10
1536.829827527325
 20
2361.67327795029
 10
1534.537172150961
 20
2360.188002346818
 10
1532.643386553381
 20
2358.219274736547
 10
1531.248161340288
 20
2355.870730741262
 10
1530.424942442817
 20
2353.265999864589
 10
1530.217064856555
 20
2350.542197521876
 10
1530.635471447744
 20
2347.842707159327
 10
1531.658136910796
 20
2345.309632418282
 10
1533.23122720052
 20
2343.076316669576
 10
1535.271933405493
 20
2341.260323696564
1001
REVIT
1002
{
1070
     3
1000
790271
1002
}
  0
LWPOLYLINE
  5
277
330
228
100
AcDbEntity
  8
M-PIPE
100
AcDbPolyline
 90
       12
 70
   128
 43
0.0
 10
1542.1143539431
 20
2339.097793225009
 10
1544.828042679343
 20
2339.411171169074
 10
1547.398880358874
 20
2340.334808499712
 10
1549.691535735238
 20
2341.820084103185
 10
1551.585321332818
 20
2343.788811713455
 10
1552.980546545911
 20
2346.137355708741
 10
1553.803765443382
 20
2348.742086585412
 10
1554.011643029644
 20
2351.465888928126
 10
1553.593236438455
 20
2354.165379290675
 10
1552.570570975404
 20
2356.69845403172
 10
1550.997480685679
 20
2358.931769780426
 10
1548.956774480707
 20
2360.747762753439
1001
REVIT
1002
{
1070
     3
1000
790271
1002
}
  0
ARC
  5
278
330
228
100
AcDbEntity
  8
M-PIPE
100
AcDbCircle
 10
1542.1143539431
 20
2351.004043225001
 30
0.0
 40
11.90624999999221
100
AcDbArc
 50
234.9219701748862
 51
269.9999999999997
1001
REVIT
1002
{
1070
     3
1000
790271
1002
}
  0
LINE
  5
279
330
228
100
AcDbEntity
  8
M-PIPE
100
AcDbLine
 10
1535.271933405493
 20
2341.260323696564
 30
0.0
 11
1530.603314402145
 21
2341.260323696563
 31
0.0
1001
REVIT
1002
{
1070
     3
1000
790271
1002
}
  0
ARC
  5
27A
330
228
100
AcDbEntity
  8
M-PIPE
100
AcDbCircle
 10
1542.1143539431
 20
2351.004043225001
 30
0.0
 40
11.90624999999228
100
AcDbArc
 50
54.92197017488451
 51
90.0
1001
REVIT
1002
{
1070
     3
1000
790271
1002
}
  0
LINE
  5
27B
330
228
100
AcDbEntity
  8
M-PIPE
100
AcDbLine
 10
1548.956774480707
 20
2360.747762753439
 30
0.0
 11
1553.625393484054
 21
2360.747762753438
 31
0.0
1001
REVIT
1002
{
1070
     3
1000
790271
1002
}
  0
LINE
  5
27C
330
228
100
AcDbEntity
  8
M-PIPE
100
AcDbLine
 10
1542.114353943099
 20
2317.666543225001
 30
0.0
 11
1542.114353943099
 21
2339.097793225009
 31
0.0
1001
REVIT
1002
{
1070
     3
1000
790271
1002
}
  0
LINE
  5
27D
330
228
100
AcDbEntity
  8
M-PIPE
100
AcDbLine
 10
1542.114353943099
 20
2384.341543225017
 30
0.0
 11
1542.114353943099
 21
2362.910293224993
 31
0.0
1001
REVIT
1002
{
1070
     3
1000
790271
1002
}
  0
LINE
  5
27E
330
228
100
AcDbEntity
  8
M-PIPE
100
AcDbLine
 10
1535.764353943099
 20
2337.324803422942
 30
0.0
 11
1535.764353943099
 21
2317.666543225001
 31
0.0
1001
REVIT
1002
{
1070
     3
1000
790271
1002
}
  0
LINE
  5
27F
330
228
100
AcDbEntity
  8
M-PIPE
100
AcDbLine
 10
1535.764353943099
 20
2317.666543225001
 30
0.0
 11
1542.114353943099
 21
2317.666543225001
 31
0.0
1001
REVIT
1002
{
1070
     3
1000
790271
1002
}
  0
LINE
  5
280
330
228
100
AcDbEntity
  8
M-PIPE
100
AcDbLine
 10
1548.464353943099
 20
2364.683283027062
 30
0.0
 11
1548.464353943099
 21
2384.341543225017
 31
0.0
1001
REVIT
1002
{
1070
     3
1000
790271
1002
}
  0
LINE
  5
281
330
228
100
AcDbEntity
  8
M-PIPE
100
AcDbLine
 10
1548.464353943099
 20
2384.341543225017
 30
0.0
 11
1542.114353943099
 21
2384.341543225017
 31
0.0
1001
REVIT
1002
{
1070
     3
1000
790271
1002
}
  0
LINE
  5
282
330
228
100
AcDbEntity
  8
M-PIPE
100
AcDbLine
 10
1560.767478943119
 20
2333.888808850011
 30
0.0
 11
1560.767478943119
 21
2368.119277600011
 31
0.0
1001
REVIT
1002
{
1070
     3
1000
790271
1002
}
  0
LINE
  5
283
330
228
100
AcDbEntity
  8
M-PIPE
100
AcDbLine
 10
1523.461228943084
 20
2368.119277600011
 30
0.0
 11
1523.461228943084
 21
2333.888808850011
 31
0.0
1001
REVIT
1002
{
1070
     3
1000
790271
1002
}
  0
LINE
  5
284
330
228
100
AcDbEntity
  8
M-PIPE
100
AcDbLine
 10
1560.767478943116
 20
2333.88880885001
 30
0.0
 11
1542.1143539431
 21
2333.88880885001
 31
0.0
1001
REVIT
1002
{
1070
     3
1000
790271
1002
}
  0
LINE
  5
285
330
228
100
AcDbEntity
  8
M-PIPE
100
AcDbLine
 10
1535.756810317914
 20
2333.88880885001
 30
0.0
 11
1523.461228943082
 21
2333.88880885001
 31
0.0
1001
REVIT
1002
{
1070
     3
1000
790271
1002
}
  0
LINE
  5
286
330
228
100
AcDbEntity
  8
M-PIPE
100
AcDbLine
 10
1560.767478943116
 20
2368.11927760001
 30
0.0
 11
1548.471897568284
 21
2368.11927760001
 31
0.0
1001
REVIT
1002
{
1070
     3
1000
790271
1002
}
  0
LINE
  5
287
330
228
100
AcDbEntity
  8
M-PIPE
100
AcDbLine
 10
1542.114353943099
 20
2368.11927760001
 30
0.0
 11
1523.461228943082
 21
2368.11927760001
 31
0.0
1001
REVIT
1002
{
1070
     3
1000
790271
1002
}
  0
LINE
  5
288
330
228
100
AcDbEntity
  8
M-PIPE
100
AcDbLine
 10
1556.997166443099
 20
2376.984043225002
 30
0.0
 11
1556.997166443099
 21
2368.11927760001
 31
0.0
1001
REVIT
1002
{
1070
     3
1000
790271
1002
}
  0
LINE
  5
289
330
228
100
AcDbEntity
  8
M-PIPE
100
AcDbLine
 10
1535.949691159343
 20
2376.984043225002
 30
0.0
 11
1535.949691159343
 21
2368.11927760001
 31
0.0
1001
REVIT
1002
{
1070
     3
1000
790271
1002
}
  0
LINE
  5
28A
330
228
100
AcDbEntity
  8
M-PIPE
100
AcDbLine
 10
1527.231541443099
 20
2376.984043225002
 30
0.0
 11
1527.231541443099
 21
2368.11927760001
 31
0.0
1001
REVIT
1002
{
1070
     3
1000
790271
1002
}
  0
LINE
  5
28B
330
228
100
AcDbEntity
  8
M-PIPE
100
AcDbLine
 10
1558.485447693099
 20
2321.98255885001
 30
0.0
 11
1548.895483005231
 21
2321.98255885001
 31
0.0
1001
REVIT
1002
{
1070
     3
1000
790271
1002
}
  0
LINE
  5
28C
330
228
100
AcDbEntity
  8
M-PIPE
100
AcDbLine
 10
1548.895483005231
 20
2321.98255885001
 30
0.0
 11
1542.114353943099
 21
2321.98255885001
 31
0.0
1001
REVIT
1002
{
1070
     3
1000
790271
1002
}
  0
LINE
  5
28D
330
228
100
AcDbEntity
  8
M-PIPE
100
AcDbLine
 10
1535.764353943099
 20
2321.98255885001
 30
0.0
 11
1535.333224880967
 21
2321.98255885001
 31
0.0
1001
REVIT
1002
{
1070
     3
1000
790271
1002
}
  0
LINE
  5
28E
330
228
100
AcDbEntity
  8
M-PIPE
100
AcDbLine
 10
1535.333224880967
 20
2321.98255885001
 30
0.0
 11
1525.743260193099
 21
2321.98255885001
 31
0.0
1001
REVIT
1002
{
1070
     3
1000
790271
1002
}
  0
LINE
  5
28F
330
228
100
AcDbEntity
  8
M-PIPE
100
AcDbLine
 10
1558.485447693099
 20
2333.88880885001
 30
0.0
 11
1558.485447693099
 21
2321.98255885001
 31
0.0
1001
REVIT
1002
{
1070
     3
1000
790271
1002
}
  0
LINE
  5
290
330
228
100
AcDbEntity
  8
M-PIPE
100
AcDbLine
 10
1548.895483005231
 20
2333.88880885001
 30
0.0
 11
1548.895483005231
 21
2321.98255885001
 31
0.0
1001
REVIT
1002
{
1070
     3
1000
790271
1002
}
  0
LINE
  5
291
330
228
100
AcDbEntity
  8
M-PIPE
100
AcDbLine
 10
1535.333224880967
 20
2333.88880885001
 30
0.0
 11
1535.333224880967
 21
2321.98255885001
 31
0.0
1001
REVIT
1002
{
1070
     3
1000
790271
1002
}
  0
LINE
  5
292
330
228
100
AcDbEntity
  8
M-PIPE
100
AcDbLine
 10
1525.743260193099
 20
2333.88880885001
 30
0.0
 11
1525.743260193099
 21
2321.98255885001
 31
0.0
1001
REVIT
1002
{
1070
     3
1000
790271
1002
}
  0
ARC
  5
293
330
228
100
AcDbEntity
  8
M-PIPE
100
AcDbCircle
 10
1542.114353943099
 20
2351.004043225001
 30
0.0
 40
4.762499999999818
100
AcDbArc
 50
90.0
 51
269.9999999999997
1001
REVIT
1002
{
1070
     3
1000
790271
1002
}
  0
ARC
  5
294
330
228
100
AcDbEntity
  8
M-PIPE
100
AcDbCircle
 10
1542.114353943099
 20
2351.004043225001
 30
0.0
 40
4.762500000000045
100
AcDbArc
 50
269.9999999999997
 51
90.0
1001
REVIT
1002
{
1070
     3
1000
790271
1002
}
  0
LWPOLYLINE
  5
295
330
228
100
AcDbEntity
  8
P-SANR-FIXT
100
AcDbPolyline
 90
       32
 70
   128
 43
0.0
 10
1449.559261518066
 20
1349.982558850009
 10
1447.9596881506
 20
1350.01455458357
 10
1446.362673759299
 20
1350.110490597905
 10
1444.770773226509
 20
1350.270213415855
 10
1443.186533253496
 20
1350.493467514984
 10
1441.612488286263
 20
1350.77989573636
 10
1440.05115646098
 20
1351.129039855929
 10
1438.505035575501
 20
1351.540341317579
 10
1436.976599093421
 20
1352.013142126712
 10
1435.468292187062
 20
1352.546685902892
 10
1433.98252782572
 20
1353.140119089894
 10
1432.521682915426
 20
1353.792492321211
 10
1431.088094496407
 20
1354.502761938838
 10
1429.684056004316
 20
1355.269791662903
 10
1428.31181360123
 20
1356.092354409473
 10
1426.973562582265
 20
1356.969134253622
 10
1425.67144386357
 20
1357.898728534638
 10
1424.407540557327
 20
1358.879650099972
 10
1423.183874639207
 20
1359.910329684374
 10
1422.002403713644
 20
1360.989118420373
 10
1420.865017882085
 20
1362.114290476123
 10
1419.773536719232
 20
1363.284045816357
 10
1418.729706362107
 20
1364.496513082066
 10
1417.735196716611
 20
1365.749752584271
 10
1416.791598786026
 20
1367.041759407111
 10
1415.90042212575
 20
1368.370466615284
 10
1415.063092428332
 20
1369.733748560698
 10
1414.280949242668
 20
1371.12942428306
 10
1413.555243831005
 20
1372.555260998941
 10
1412.887137167195
 20
1374.008977673758
 10
1412.277698079377
 20
1375.488248670943
 10
1411.843689157353
 20
1376.658310221894
  0
LWPOLYLINE
  5
296
330
228
100
AcDbEntity
  8
P-SANR-FIXT
100
AcDbPolyline
 90
       36
 70
   128
 43
0.0
 10
1521.214353943101
 20
1349.982558850009
 10
1520.113765384465
 20
1349.982558850009
 10
1516.53623134807
 20
1349.982558850009
 10
1512.999616851452
 20
1349.982558850009
 10
1509.509579723367
 20
1349.982558850009
 10
1506.071703278721
 20
1349.982558850009
 10
1502.691487386448
 20
1349.982558850009
 10
1499.374339670903
 20
1349.982558850009
 10
1496.12556686081
 20
1349.982558850009
 10
1492.950366299631
 20
1349.982558850009
 10
1489.853817630924
 20
1349.982558850009
 10
1486.840874671995
 20
1349.982558850009
 10
1483.916357488855
 20
1349.982558850009
 10
1481.08494468513
 20
1349.982558850009
 10
1478.351165917306
 20
1349.982558850009
 10
1475.719394648234
 20
1349.982558850009
 10
1473.193841150531
 20
1349.982558850009
 10
1470.778545771039
 20
1349.982558850009
 10
1468.477372467127
 20
1349.982558850009
 10
1466.294002625193
 20
1349.982558850009
 10
1464.231929171221
 20
1349.982558850009
 10
1462.294450982853
 20
1349.982558850009
 10
1460.484667611883
 20
1349.982558850009
 10
1458.80547432564
 20
1349.982558850009
 10
1457.25955747517
 20
1349.982558850009
 10
1455.849390197659
 20
1349.982558850009
 10
1454.577228459929
 20
1349.982558850009
 10
1453.445107449382
 20
1349.982558850009
 10
1452.454838318128
 20
1349.982558850009
 10
1451.60800528553
 20
1349.982558850009
 10
1450.905963103793
 20
1349.982558850009
 10
1450.349834890646
 20
1349.982558850009
 10
1449.940510332598
 20
1349.982558850009
 10
1449.678644261621
 20
1349.982558850009
 10
1449.564655607568
 20
1349.982558850009
 10
1449.559261518066
 20
1349.982558850009
  0
LWPOLYLINE
  5
297
330
228
100
AcDbEntity
  8
P-SANR-FIXT
100
AcDbPolyline
 90
       41
 70
   128
 43
0.0
 10
1449.559261518066
 20
1349.982558850009
 10
1449.633295719989
 20
1349.982558850009
 10
1449.855279886829
 20
1349.982558850009
 10
1450.224858891273
 20
1349.982558850009
 10
1450.741441485753
 20
1349.982558850009
 10
1451.404201248317
 20
1349.982558850009
 10
1452.212077904724
 20
1349.982558850009
 10
1453.163779024665
 20
1349.982558850009
 10
1454.257782089364
 20
1349.982558850009
 10
1455.492336927293
 20
1349.982558850009
 10
1456.865468514069
 20
1349.982558850009
 10
1458.374980132073
 20
1349.982558850009
 10
1460.018456884727
 20
1349.982558850009
 10
1461.793269559818
 20
1349.982558850009
 10
1463.696578835671
 20
1349.982558850009
 10
1465.725339823463
 20
1349.982558850009
 10
1467.876306938392
 20
1349.982558850009
 10
1470.146039091923
 20
1349.982558850009
 10
1472.530905196795
 20
1349.982558850009
 10
1475.027089975983
 20
1349.982558850009
 10
1477.630600066332
 20
1349.982558850009
 10
1480.337270407084
 20
1349.982558850009
 10
1483.142770903085
 20
1349.982558850009
 10
1486.042613352017
 20
1349.982558850009
 10
1489.03215862456
 20
1349.982558850009
 10
1492.106624086017
 20
1349.982558850009
 10
1495.261091247497
 20
1349.982558850009
 10
1498.490513634461
 20
1349.982558850009
 10
1501.789724859995
 20
1349.982558850009
 10
1505.153446889934
 20
1349.982558850009
 10
1508.576298486585
 20
1349.982558850009
 10
1512.052803817563
 20
1349.982558850009
 10
1515.577401215953
 20
1349.982558850009
 10
1519.144452077792
 20
1349.982558850009
 10
1522.748249882631
 20
1349.982558850009
 10
1526.383029322751
 20
1349.982558850009
 10
1530.042975526428
 20
1349.982558850009
 10
1533.72223336048
 20
1349.982558850009
 10
1537.414916797242
 20
1349.982558850009
 10
1541.115118330943
 20
1349.982558850009
 10
1542.114353943102
 20
1349.982558850009
  0
LWPOLYLINE
  5
298
330
228
100
AcDbEntity
  8
P-SANR-FIXT
100
AcDbPolyline
 90
       10
 70
   128
 43
0.0
 10
1411.843689157354
 20
1376.658310221891
 10
1405.412143796253
 20
1396.0924175356
 10
1399.762899997433
 20
1415.7681728531
 10
1394.904995345864
 20
1435.654099163154
 10
1390.846201452691
 20
1455.718383225771
 10
1387.593011522313
 20
1475.928926466602
 10
1385.150629964643
 20
1496.253396327817
 10
1383.522964069158
 20
1516.659277993291
 10
1382.712617754073
 20
1537.113926405382
 10
1382.614353943103
 20
1547.14255885001
  0
LINE
  5
299
330
228
100
AcDbEntity
  8
P-SANR-FIXT
100
AcDbLine
 10
1382.614353943102
 20
2152.142558850006
 30
0.0
 11
1382.614353943102
 21
1547.142558850013
 31
0.0
  0
LWPOLYLINE
  5
29A
330
228
100
AcDbEntity
  8
P-SANR-FIXT
100
AcDbPolyline
 90
       15
 70
   128
 43
0.0
 10
1382.614353943103
 20
2152.142558850006
 10
1382.289873518733
 20
2162.361763117568
 10
1382.37431181867
 20
2172.585768867832
 10
1382.867533759648
 20
2182.798219872604
 10
1383.768750291774
 20
2192.982778388817
 10
1385.076519660848
 20
2203.123151295434
 10
1386.788749714854
 20
2213.203116158969
 10
1388.902701250962
 20
2223.206547185918
 10
1391.414992397667
 20
2233.117441020588
 10
1394.321604025061
 20
2242.919942347059
 10
1397.617886174585
 20
2252.598369254292
 10
1401.298565497968
 20
2262.137238323861
 10
1405.357753693462
 20
2271.521289400102
 10
1409.788956925869
 20
2280.735510003117
 10
1414.376588666451
 20
2289.390147254109
  0
LWPOLYLINE
  5
29B
330
228
100
AcDbEntity
  8
P-SANR-FIXT
100
AcDbPolyline
 90
       28
 70
   128
 43
0.0
 10
1414.376588666451
 20
2289.390147254109
 10
1415.180662559468
 20
2290.773304461168
 10
1416.039404814919
 20
2292.123200910372
 10
1416.951441628384
 20
2293.437677055365
 10
1417.915313935521
 20
2294.71463001472
 10
1418.929479746251
 20
2295.952016936105
 10
1419.992316611622
 20
2297.147858264409
 10
1421.102124219375
 20
2298.300240908604
 10
1422.257127114086
 20
2299.40732130229
 10
1423.455477537508
 20
2300.467328352999
 10
1424.695258384601
 20
2301.478566275573
 10
1425.97448627048
 20
2302.439417305057
 10
1427.291114703415
 20
2303.348344284774
 10
1428.64303735878
 20
2304.20389312545
 10
1430.028091448721
 20
2305.004695131446
 10
1431.444061182156
 20
2305.749469190383
 10
1432.88868130957
 20
2306.437023822643
 10
1434.359640746927
 20
2307.066259087485
 10
1435.854586272917
 20
2307.636168342713
 10
1437.371126293601
 20
2308.145839855095
 10
1438.906834668458
 20
2308.594458258935
 10
1440.459254591689
 20
2308.981305860486
 10
1442.025902522582
 20
2309.30576378611
 10
1443.604272158648
 20
2309.567312972339
 10
1445.191838445169
 20
2309.765534996269
 10
1446.786061614751
 20
2309.900112744947
 10
1448.384391250404
 20
2309.970830922685
 10
1449.352945142464
 20
2309.982558850011
  0
LWPOLYLINE
  5
29C
330
228
100
AcDbEntity
  8
P-SANR-FIXT
100
AcDbPolyline
 90
       41
 70
   128
 43
0.0
 10
1542.114353943102
 20
2309.982558850011
 10
1538.40488696695
 20
2309.982558850011
 10
1534.70135434665
 20
2309.982558850011
 10
1531.009680944348
 20
2309.982558850011
 10
1527.335772649974
 20
2309.982558850011
 10
1523.685506933072
 20
2309.982558850011
 10
1520.064723440109
 20
2309.982558850011
 10
1516.479214652281
 20
2309.982558850011
 10
1512.93471661878
 20
2309.982558850011
 10
1509.43689978034
 20
2309.982558850011
 10
1505.991359897743
 20
2309.982558850011
 10
1502.60360909979
 20
2309.982558850011
 10
1499.279067065077
 20
2309.982558850011
 10
1496.023052351661
 20
2309.982558850011
 10
1492.840773888507
 20
2309.982558850011
 10
1489.737322642302
 20
2309.982558850011
 10
1486.717663473008
 20
2309.982558850011
 10
1483.786627191135
 20
2309.982558850011
 10
1480.948902829482
 20
2309.982558850011
 10
1478.209030141676
 20
2309.982558850011
 10
1475.571392339543
 20
2309.982558850011
 10
1473.040209080903
 20
2309.982558850011
 10
1470.619529719009
 20
2309.982558850011
 10
1468.313226824459
 20
2309.982558850011
 10
1466.124989989897
 20
2309.982558850011
 10
1464.058319927461
 20
2309.982558850011
 10
1462.116522868384
 20
2309.982558850011
 10
1460.302705273733
 20
2309.982558850011
 10
1458.619768864732
 20
2309.982558850011
 10
1457.070405980628
 20
2309.982558850011
 10
1455.657095271523
 20
2309.982558850011
 10
1454.382097733061
 20
2309.982558850011
 10
1453.247453089318
 20
2309.982558850011
 10
1452.25497652968
 20
2309.982558850011
 10
1451.406255804926
 20
2309.982558850011
 10
1450.702648687164
 20
2309.982558850011
 10
1450.145280797687
 20
2309.982558850011
 10
1449.735043806221
 20
2309.982558850011
 10
1449.472594004439
 20
2309.982558850011
 10
1449.358351256037
 20
2309.982558850011
 10
1449.352945142464
 20
2309.982558850011
  0
LWPOLYLINE
  5
29D
330
228
100
AcDbEntity
  8
P-SANR-FIXT
100
AcDbPolyline
 90
       37
 70
   128
 43
0.0
 10
1449.352945142464
 20
2309.982558850011
 10
1449.427144375482
 20
2309.982558850011
 10
1449.649623371591
 20
2309.982558850011
 10
1450.020026211858
 20
2309.982558850011
 10
1450.537760330752
 20
2309.982558850011
 10
1451.201997464128
 20
2309.982558850011
 10
1452.011674974269
 20
2309.982558850011
 10
1452.96549754988
 20
2309.982558850011
 10
1454.061939278312
 20
2309.982558850011
 10
1455.299246086694
 20
2309.982558850011
 10
1456.675438548078
 20
2309.982558850011
 10
1458.188315048098
 20
2309.982558850011
 10
1459.835455307082
 20
2309.982558850011
 10
1461.614224251989
 20
2309.982558850011
 10
1463.521776231957
 20
2309.982558850011
 10
1465.55505957074
 20
2309.982558850011
 10
1467.710821448739
 20
2309.982558850011
 10
1469.985613106824
 20
2309.982558850011
 10
1472.375795363602
 20
2309.982558850011
 10
1474.877544437342
 20
2309.982558850011
 10
1477.486858063202
 20
2309.982558850011
 10
1480.199561896007
 20
2309.982558850011
 10
1483.011316188304
 20
2309.982558850011
 10
1485.917622733032
 20
2309.982558850011
 10
1488.913832059699
 20
2309.982558850011
 10
1491.995150872541
 20
2309.982558850011
 10
1495.156649718768
 20
2309.982558850011
 10
1498.393270874646
 20
2309.982558850011
 10
1501.699836436766
 20
2309.982558850011
 10
1505.071056605593
 20
2309.982558850011
 10
1508.50153814801
 20
2309.982558850011
 10
1511.985793025349
 20
2309.982558850011
 10
1515.518247173072
 20
2309.982558850011
 10
1519.093249418094
 20
2309.982558850011
 10
1522.705080519448
 20
2309.982558850011
 10
1526.347962317857
 20
2309.982558850011
 10
1528.914353943102
 20
2309.982558850011
  0
LINE
  5
29E
330
228
100
AcDbEntity
  8
P-SANR-FIXT
100
AcDbLine
 10
1542.1143539431
 20
1349.982558850009
 30
0.0
 11
1542.1143539431
 21
1376.658310221894
 31
0.0
  0
LINE
  5
29F
330
228
100
AcDbEntity
  8
P-SANR-FIXT
100
AcDbLine
 10
1542.1143539431
 20
1376.658310221891
 30
0.0
 11
1542.1143539431
 21
1534.973741151996
 31
0.0
  0
LINE
  5
2A0
330
228
100
AcDbEntity
  8
P-SANR-FIXT
100
AcDbLine
 10
1542.1143539431
 20
1754.982558850009
 30
0.0
 11
1542.1143539431
 21
1984.98255885001
 31
0.0
  0
LINE
  5
2A1
330
228
100
AcDbEntity
  8
P-SANR-FIXT
100
AcDbLine
 10
1448.083877774722
 20
2152.142558850005
 30
0.0
 11
1382.6143539431
 21
2152.142558850005
 31
0.0
  0
LINE
  5
2A2
330
228
100
AcDbEntity
  8
P-SANR-FIXT
100
AcDbLine
 10
1542.1143539431
 20
2204.987665880775
 30
0.0
 11
1542.1143539431
 21
2289.390147254108
 31
0.0
  0
LINE
  5
2A3
330
228
100
AcDbEntity
  8
P-SANR-FIXT
100
AcDbLine
 10
1542.1143539431
 20
2289.390147254108
 30
0.0
 11
1542.1143539431
 21
2309.98255885001
 31
0.0
  0
LINE
  5
2A4
330
228
100
AcDbEntity
  8
P-SANR-FIXT
100
AcDbLine
 10
1651.614353943103
 20
1438.382558850009
 30
0.0
 11
1651.614353943103
 21
1634.992564386025
 31
0.0
  0
LINE
  5
2A5
330
228
100
AcDbEntity
  8
P-SANR-FIXT
100
AcDbLine
 10
1651.614353943103
 20
1654.972553313996
 30
0.0
 11
1651.614353943103
 21
2084.992564386027
 31
0.0
  0
LINE
  5
2A6
330
228
100
AcDbEntity
  8
P-SANR-FIXT
100
AcDbLine
 10
1651.614353943103
 20
2104.972553313997
 30
0.0
 11
1651.614353943103
 21
2217.782558850011
 31
0.0
  0
LWPOLYLINE
  5
2A7
330
228
100
AcDbEntity
  8
P-SANR-FIXT
100
AcDbPolyline
 90
       41
 70
   128
 43
0.0
 10
1651.614353943103
 20
1438.382558850009
 10
1651.582358209542
 20
1436.782985482544
 10
1651.486422195208
 20
1435.185971091242
 10
1651.326699377257
 20
1433.594070558452
 10
1651.103445278128
 20
1432.009830585439
 10
1650.817017056752
 20
1430.435785618207
 10
1650.467872937184
 20
1428.874453792924
 10
1650.056571475533
 20
1427.328332907445
 10
1649.5837706664
 20
1425.799896425364
 10
1649.05022689022
 20
1424.291589519005
 10
1648.456793703218
 20
1422.805825157663
 10
1647.804420471901
 20
1421.344980247369
 10
1647.094150854274
 20
1419.91139182835
 10
1646.327121130209
 20
1418.507353336259
 10
1645.504558383639
 20
1417.135110933173
 10
1644.62777853949
 20
1415.796859914208
 10
1643.698184258474
 20
1414.494741195514
 10
1642.71726269314
 20
1413.23083788927
 10
1641.686583108738
 20
1412.00717197115
 10
1640.607794372739
 20
1410.825701045587
 10
1639.482622316989
 20
1409.688315214028
 10
1638.312866976755
 20
1408.596834051175
 10
1637.100399711046
 20
1407.55300369405
 10
1635.847160208841
 20
1406.558494048555
 10
1634.555153386001
 20
1405.614896117969
 10
1633.226446177828
 20
1404.723719457693
 10
1631.863164232414
 20
1403.886389760276
 10
1630.467488510052
 20
1403.104246574611
 10
1629.041651794171
 20
1402.378541162949
 10
1627.587935119353
 20
1401.710434499139
 10
1626.108664122169
 20
1401.10099541132
 10
1624.606205320653
 20
1400.551198872028
 10
1623.082962328381
 20
1400.06192443844
 10
1621.541372009197
 20
1399.633954845278
 10
1619.983900578759
 20
1399.267974752597
 10
1618.413039659112
 20
1398.964569650471
 10
1616.831302292628
 20
1398.724224922342
 10
1615.241218921674
 20
1398.547325068504
 10
1613.645333340446
 20
1398.434153090986
 10
1612.046198625433
 20
1398.38489004081
 10
1611.614353943102
 20
1398.382558850009
  0
LWPOLYLINE
  5
2A8
330
228
100
AcDbEntity
  8
P-SANR-FIXT
100
AcDbPolyline
 90
       41
 70
   128
 43
0.0
 10
1542.114353943102
 20
1398.382558850009
 10
1544.893612669073
 20
1398.382558850009
 10
1547.66842517396
 20
1398.382558850009
 10
1550.434352349682
 20
1398.382558850009
 10
1553.186969302793
 20
1398.382558850009
 10
1555.921872433359
 20
1398.382558850009
 10
1558.634686479788
 20
1398.382558850009
 10
1561.321071518309
 20
1398.382558850009
 10
1563.976729905922
 20
1398.382558850009
 10
1566.597413155721
 20
1398.382558850009
 10
1569.178928733554
 20
1398.382558850009
 10
1571.717146765189
 20
1398.382558850009
 10
1574.208006643235
 20
1398.382558850009
 10
1576.647523523242
 20
1398.382558850009
 10
1579.031794698604
 20
1398.382558850009
 10
1581.357005844057
 20
1398.382558850009
 10
1583.619437117789
 20
1398.382558850009
 10
1585.815469112386
 20
1398.382558850009
 10
1587.94158864512
 20
1398.382558850009
 10
1589.994394378286
 20
1398.382558850009
 10
1591.97060226062
 20
1398.382558850009
 10
1593.867050781077
 20
1398.382558850009
 10
1595.680706026581
 20
1398.382558850009
 10
1597.40866653563
 20
1398.382558850009
 10
1599.048167940022
 20
1398.382558850009
 10
1600.596587387251
 20
1398.382558850009
 10
1602.051447736515
 20
1398.382558850009
 10
1603.410421521607
 20
1398.382558850009
 10
1604.67133467437
 20
1398.382558850009
 10
1605.83217000274
 20
1398.382558850009
 10
1606.891070417825
 20
1398.382558850009
 10
1607.846341904846
 20
1398.382558850009
 10
1608.696456233204
 20
1398.382558850009
 10
1609.440053401322
 20
1398.382558850009
 10
1610.075943812357
 20
1398.382558850009
 10
1610.603110177301
 20
1398.382558850009
 10
1611.020709142425
 20
1398.382558850009
 10
1611.328072638469
 20
1398.382558850009
 10
1611.524708949406
 20
1398.382558850009
 10
1611.610303499085
 20
1398.382558850009
 10
1611.614353943103
 20
1398.382558850009
  0
LWPOLYLINE
  5
2A9
330
228
100
AcDbEntity
  8
P-SANR-FIXT
100
AcDbPolyline
 90
       33
 70
   128
 43
0.0
 10
1611.614353943103
 20
1398.382558850009
 10
1611.558761356041
 20
1398.382558850009
 10
1611.392072531135
 20
1398.382558850009
 10
1611.114554134946
 20
1398.382558850009
 10
1610.726650137709
 20
1398.382558850009
 10
1610.228981103069
 20
1398.382558850009
 10
1609.622343195319
 20
1398.382558850009
 10
1608.907706905701
 20
1398.382558850009
 10
1608.086215499833
 20
1398.382558850009
 10
1607.159183188719
 20
1398.382558850009
 10
1606.128093026303
 20
1398.382558850009
 10
1604.99459453689
 20
1398.382558850009
 10
1603.760501076263
 20
1398.382558850009
 10
1602.427786930699
 20
1398.382558850009
 10
1600.998584158535
 20
1398.382558850009
 10
1599.475179179325
 20
1398.382558850009
 10
1597.860009116061
 20
1398.382558850009
 10
1596.155657896292
 20
1398.382558850009
 10
1594.364852118395
 20
1398.382558850009
 10
1592.490456689596
 20
1398.382558850009
 10
1590.535470242731
 20
1398.382558850009
 10
1588.503020339074
 20
1398.382558850009
 10
1586.396358464904
 20
1398.382558850009
 10
1584.218854829823
 20
1398.382558850009
 10
1581.973992975139
 20
1398.382558850009
 10
1579.665364200939
 20
1398.382558850009
 10
1577.296661820781
 20
1398.382558850009
 10
1574.871675253178
 20
1398.382558850009
 10
1572.394283959335
 20
1398.382558850009
 10
1569.868451236839
 20
1398.382558850009
 10
1567.298217879232
 20
1398.382558850009
 10
1564.687695711598
 20
1398.382558850009
 10
1563.014353943104
 20
1398.382558850009
  0
LINE
  5
2AA
330
228
100
AcDbEntity
  8
P-SANR-FIXT
100
AcDbLine
 10
1563.014353943104
 20
1337.982558850012
 30
0.0
 11
1563.014353943104
 21
1398.382558850009
 31
0.0
  0
LINE
  5
2AB
330
228
100
AcDbEntity
  8
P-SANR-FIXT
100
AcDbLine
 10
1555.314353943103
 20
2257.782558850011
 30
0.0
 11
1555.314353943103
 21
2321.982558850011
 31
0.0
  0
LWPOLYLINE
  5
2AC
330
228
100
AcDbEntity
  8
P-SANR-FIXT
100
AcDbPolyline
 90
       41
 70
   128
 43
0.0
 10
1611.614353943103
 20
2257.782558850011
 10
1613.213927310568
 20
2257.75056311645
 10
1614.81094170187
 20
2257.654627102116
 10
1616.402842234659
 20
2257.494904284166
 10
1617.987082207672
 20
2257.271650185036
 10
1619.561127174905
 20
2256.985221963661
 10
1621.122459000188
 20
2256.636077844092
 10
1622.668579885667
 20
2256.224776382442
 10
1624.197016367747
 20
2255.751975573308
 10
1625.705323274106
 20
2255.218431797128
 10
1627.191087635449
 20
2254.624998610126
 10
1628.651932545742
 20
2253.97262537881
 10
1630.085520964762
 20
2253.262355761183
 10
1631.489559456852
 20
2252.495326037116
 10
1632.861801859938
 20
2251.672763290547
 10
1634.200052878904
 20
2250.795983446398
 10
1635.502171597599
 20
2249.866389165382
 10
1636.766074903841
 20
2248.885467600048
 10
1637.989740821961
 20
2247.854788015647
 10
1639.171211747525
 20
2246.775999279647
 10
1640.308597579084
 20
2245.650827223897
 10
1641.400078741937
 20
2244.481071883663
 10
1642.443909099062
 20
2243.268604617954
 10
1643.438418744558
 20
2242.015365115749
 10
1644.382016675143
 20
2240.723358292909
 10
1645.273193335419
 20
2239.394651084737
 10
1646.110523032836
 20
2238.031369139322
 10
1646.8926662185
 20
2236.63569341696
 10
1647.618371630163
 20
2235.209856701079
 10
1648.286478293973
 20
2233.756140026262
 10
1648.895917381792
 20
2232.276869029078
 10
1649.445713921084
 20
2230.774410227562
 10
1649.934988354672
 20
2229.251167235289
 10
1650.362957947833
 20
2227.709576916106
 10
1650.728938040515
 20
2226.152105485668
 10
1651.032343142641
 20
2224.58124456602
 10
1651.27268787077
 20
2222.999507199537
 10
1651.449587724609
 20
2221.409423828583
 10
1651.562759702126
 20
2219.813538247354
 10
1651.612022752301
 20
2218.214403532341
 10
1651.614353943103
 20
2217.782558850011
  0
LWPOLYLINE
  5
2AD
330
228
100
AcDbEntity
  8
P-SANR-FIXT
100
AcDbPolyline
 90
       37
 70
   128
 43
0.0
 10
1555.314353943103
 20
2257.782558850011
 10
1555.92187243336
 20
2257.782558850011
 10
1558.634686479789
 20
2257.782558850011
 10
1561.321071518309
 20
2257.782558850011
 10
1563.976729905923
 20
2257.782558850011
 10
1566.597413155722
 20
2257.782558850011
 10
1569.178928733554
 20
2257.782558850011
 10
1571.71714676519
 20
2257.782558850011
 10
1574.208006643236
 20
2257.782558850011
 10
1576.647523523243
 20
2257.782558850011
 10
1579.031794698604
 20
2257.782558850011
 10
1581.357005844058
 20
2257.782558850011
 10
1583.619437117789
 20
2257.782558850011
 10
1585.815469112387
 20
2257.782558850011
 10
1587.94158864512
 20
2257.782558850011
 10
1589.994394378287
 20
2257.782558850011
 10
1591.97060226062
 20
2257.782558850011
 10
1593.867050781078
 20
2257.782558850011
 10
1595.680706026581
 20
2257.782558850011
 10
1597.408666535631
 20
2257.782558850011
 10
1599.048167940023
 20
2257.782558850011
 10
1600.596587387252
 20
2257.782558850011
 10
1602.051447736515
 20
2257.782558850011
 10
1603.410421521607
 20
2257.782558850011
 10
1604.67133467437
 20
2257.782558850011
 10
1605.832170002741
 20
2257.782558850011
 10
1606.891070417825
 20
2257.782558850011
 10
1607.846341904846
 20
2257.782558850011
 10
1608.696456233204
 20
2257.782558850011
 10
1609.440053401322
 20
2257.782558850011
 10
1610.075943812357
 20
2257.782558850011
 10
1610.603110177301
 20
2257.782558850011
 10
1611.020709142425
 20
2257.782558850011
 10
1611.328072638469
 20
2257.782558850011
 10
1611.524708949406
 20
2257.782558850011
 10
1611.610303499085
 20
2257.782558850011
 10
1611.614353943103
 20
2257.782558850011
  0
LWPOLYLINE
  5
2AE
330
228
100
AcDbEntity
  8
P-SANR-FIXT
100
AcDbPolyline
 90
       41
 70
   128
 43
0.0
 10
1611.614353943103
 20
2257.782558850011
 10
1611.558761356041
 20
2257.782558850011
 10
1611.392072531135
 20
2257.782558850011
 10
1611.114554134946
 20
2257.782558850011
 10
1610.726650137709
 20
2257.782558850011
 10
1610.228981103069
 20
2257.782558850011
 10
1609.622343195319
 20
2257.782558850011
 10
1608.907706905701
 20
2257.782558850011
 10
1608.086215499832
 20
2257.782558850011
 10
1607.159183188719
 20
2257.782558850011
 10
1606.128093026303
 20
2257.782558850011
 10
1604.99459453689
 20
2257.782558850011
 10
1603.760501076263
 20
2257.782558850011
 10
1602.427786930699
 20
2257.782558850011
 10
1600.998584158535
 20
2257.782558850011
 10
1599.475179179325
 20
2257.782558850011
 10
1597.860009116061
 20
2257.782558850011
 10
1596.155657896292
 20
2257.782558850011
 10
1594.364852118395
 20
2257.782558850011
 10
1592.490456689595
 20
2257.782558850011
 10
1590.53547024273
 20
2257.782558850011
 10
1588.503020339073
 20
2257.782558850011
 10
1586.396358464903
 20
2257.782558850011
 10
1584.218854829823
 20
2257.782558850011
 10
1581.973992975138
 20
2257.782558850011
 10
1579.665364200938
 20
2257.782558850011
 10
1577.29666182078
 20
2257.782558850011
 10
1574.871675253177
 20
2257.782558850011
 10
1572.394283959334
 20
2257.782558850011
 10
1569.868451236838
 20
2257.782558850011
 10
1567.298217879231
 20
2257.782558850011
 10
1564.687695711597
 20
2257.782558850011
 10
1562.041061012523
 20
2257.782558850011
 10
1559.362547832942
 20
2257.782558850011
 10
1556.656441222556
 20
2257.782558850011
 10
1553.927070374669
 20
2257.782558850011
 10
1551.178801700403
 20
2257.782558850011
 10
1548.416031843371
 20
2257.782558850011
 10
1545.643180645986
 20
2257.782558850011
 10
1542.864684078652
 20
2257.782558850011
 10
1542.114353943102
 20
2257.782558850011
  0
LINE
  5
2AF
330
228
100
AcDbEntity
  8
P-SANR-FIXT
100
AcDbLine
 10
1521.214353943101
 20
1349.982558850009
 30
0.0
 11
1521.214353943101
 21
1337.982558850011
 31
0.0
  0
LINE
  5
2B0
330
228
100
AcDbEntity
  8
P-SANR-FIXT
100
AcDbLine
 10
1528.914353943102
 20
2321.982558850011
 30
0.0
 11
1528.914353943102
 21
2309.982558850011
 31
0.0
  0
ARC
  5
2B1
330
228
100
AcDbEntity
  8
P-SANR-FIXT
100
AcDbCircle
 10
1542.1143539431
 20
2094.98255885001
 30
0.0
 40
110.0000000000003
100
AcDbArc
 50
90.00000000000067
 51
269.9999999999999
  0
ARC
  5
2B2
330
228
100
AcDbEntity
  8
P-SANR-FIXT
100
AcDbCircle
 10
1542.1143539431
 20
2094.98255885001
 30
0.0
 40
50.8
100
AcDbArc
 50
90.00000000000063
 51
270.0
  0
ARC
  5
2B3
330
228
100
AcDbEntity
  8
P-SANR-FIXT
100
AcDbCircle
 10
1542.1143539431
 20
2094.98255885001
 30
0.0
 40
109.9999999999995
100
AcDbArc
 50
269.9999999999997
 51
90.00000000000005
  0
ARC
  5
2B4
330
228
100
AcDbEntity
  8
P-SANR-FIXT
100
AcDbCircle
 10
1542.1143539431
 20
2094.98255885001
 30
0.0
 40
50.7999999999995
100
AcDbArc
 50
269.9999999999997
 51
89.99999999999923
  0
ARC
  5
2B5
330
228
100
AcDbEntity
  8
P-SANR-FIXT
100
AcDbCircle
 10
1542.1143539431
 20
1644.982558850009
 30
0.0
 40
110.0000000000002
100
AcDbArc
 50
90.00000000000053
 51
269.9999999999998
  0
ARC
  5
2B6
330
228
100
AcDbEntity
  8
P-SANR-FIXT
100
AcDbCircle
 10
1542.1143539431
 20
1644.982558850009
 30
0.0
 40
50.80000000000018
100
AcDbArc
 50
90.00000000000053
 51
269.9999999999999
  0
ARC
  5
2B7
330
228
100
AcDbEntity
  8
P-SANR-FIXT
100
AcDbCircle
 10
1542.1143539431
 20
1644.982558850009
 30
0.0
 40
110.0000000000002
100
AcDbArc
 50
269.9999999999998
 51
90.00000000000019
  0
ARC
  5
2B8
330
228
100
AcDbEntity
  8
P-SANR-FIXT
100
AcDbCircle
 10
1542.1143539431
 20
1644.982558850009
 30
0.0
 40
50.80000000000018
100
AcDbArc
 50
269.9999999999999
 51
89.99999999999948
  0
ENDBLK
  5
2BA
330
228
100
AcDbEntity
  8
0
100
AcDbBlockEnd
  0
ENDSEC
  0
SECTION
  2
ENTITIES
  0
INSERT
  5
16F
330
71
100
AcDbEntity
  8
P-SANR-FIXT
100
AcDbBlockReference
  2
Automatic flow rate regulator valve_Caleffi_121 DN15 - 1_2__-859151-Est - Idraulica
 10
0.0
 20
0.0
 30
0.0
1001
REVIT
1002
{
1070
     1
1000
863131
1002
}
1002
{
1070
     5
1000
859151
1002
}
1002
{
1070
     2
1000
-2001160
1002
}
  0
INSERT
  5
227
330
71
100
AcDbEntity
  8
P-SANR-FIXT
100
AcDbBlockReference
  2
Automatic flow rate regulator valve_Caleffi_121 DN15 - 1_2__-V1-Est - Idraulica
 10
0.0
 20
0.0
 30
0.0
1001
REVIT
1002
{
1070
     1
1000
863152
1002
}
1002
{
1070
     5
1000
859151
1002
}
1002
{
1070
     2
1000
-2001160
1002
}
  0
INSERT
  5
2BB
330
71
100
AcDbEntity
  8
P-SANR-FIXT
100
AcDbBlockReference
  2
Automatic flow rate regulator valve_Caleffi_121 DN15 - 1_2__-V2-Est - Idraulica
 10
0.0
 20
0.0
 30
0.0
1001
REVIT
1002
{
1070
     1
1000
863172
1002
}
1002
{
1070
     5
1000
859151
1002
}
1002
{
1070
     2
1000
-2001160
1002
}
  0
ENDSEC
  0
SECTION
  2
OBJECTS
  0
DICTIONARY
  5
C
330
0
100
AcDbDictionary
281
     1
  3
ACAD_CIP_PREVIOUS_PRODUCT_INFO
350
7A
  3
ACAD_COLOR
350
63
  3
ACAD_DETAILVIEWSTYLE
350
6B
  3
ACAD_GROUP
350
D
  3
ACAD_IMAGE_VARS
350
7B
  3
ACAD_LAYOUT
350
62
  3
ACAD_MATERIAL
350
10
  3
ACAD_MLEADERSTYLE
350
66
  3
ACAD_MLINESTYLE
350
5F
  3
ACAD_PLOTSETTINGS
350
61
  3
ACAD_PLOTSTYLENAME
350
E
  3
ACAD_SCALELIST
350
42
  3
ACAD_SECTIONVIEWSTYLE
350
68
  3
ACAD_TABLESTYLE
350
64
  3
ACAD_VISUALSTYLE
350
29
  3
ACDB_RECOMPOSE_DATA
350
2C6
  3
AcDbVariableDictionary
350
7C
  3
REVIT_DICTIONARY
350
2BD
  0
DICTIONARY
  5
2C2
330
71
100
AcDbDictionary
280
     1
281
     1
  3
ACAD_SORTENTS
360
2C3
  0
XRECORD
  5
7A
102
{ACAD_REACTORS
330
C
102
}
330
C
100
AcDbXrecord
280
     1
300
RVT
300
2013
300
RVT2013
  0
DICTIONARY
  5
63
102
{ACAD_REACTORS
330
C
102
}
330
C
100
AcDbDictionary
281
     1
  0
DICTIONARY
  5
6B
102
{ACAD_REACTORS
330
C
102
}
330
C
100
AcDbDictionary
281
     1
  3
Imperial24
350
6C
  0
DICTIONARY
  5
D
102
{ACAD_REACTORS
330
C
102
}
330
C
100
AcDbDictionary
281
     1
  0
RASTERVARIABLES
  5
7B
102
{ACAD_REACTORS
330
C
102
}
330
C
100
AcDbRasterVariables
 90
        0
 70
     0
 71
     1
 72
     1
  0
DICTIONARY
  5
62
102
{ACAD_REACTORS
330
C
102
}
330
C
100
AcDbDictionary
281
     1
  3
Layout1
350
70
  3
Layout2
350
78
  3
Model
350
74
  0
DICTIONARY
  5
10
102
{ACAD_REACTORS
330
C
102
}
330
C
100
AcDbDictionary
281
     1
  3
ByBlock
350
19
  3
ByLayer
350
11
  3
Global
350
21
  0
DICTIONARY
  5
66
102
{ACAD_REACTORS
330
C
102
}
330
C
100
AcDbDictionary
281
     1
  3
Standard
350
67
  0
DICTIONARY
  5
5F
102
{ACAD_REACTORS
330
C
102
}
330
C
100
AcDbDictionary
281
     1
  3
Standard
350
60
  0
DICTIONARY
  5
61
102
{ACAD_REACTORS
330
C
102
}
330
C
100
AcDbDictionary
281
     1
  0
ACDBDICTIONARYWDFLT
  5
E
102
{ACAD_REACTORS
330
C
102
}
330
C
100
AcDbDictionary
281
     1
  3
Normal
350
F
100
AcDbDictionaryWithDefault
340
F
  0
DICTIONARY
  5
42
102
{ACAD_REACTORS
330
C
102
}
330
C
100
AcDbDictionary
281
     1
  3
A0
350
43
  3
A1
350
44
  3
A2
350
45
  3
A3
350
46
  3
A4
350
47
  3
A5
350
48
  3
A6
350
49
  3
A7
350
4A
  3
A8
350
4B
  3
A9
350
4C
  3
B0
350
4D
  3
B1
350
4E
  3
B2
350
4F
  3
B3
350
50
  3
B4
350
51
  3
B5
350
52
  3
B6
350
53
  0
DICTIONARY
  5
68
102
{ACAD_REACTORS
330
C
102
}
330
C
100
AcDbDictionary
281
     1
  3
Imperial24
350
6A
  0
DICTIONARY
  5
64
102
{ACAD_REACTORS
330
C
102
}
330
C
100
AcDbDictionary
281
     1
  3
Standard
350
65
  0
DICTIONARY
  5
29
102
{ACAD_REACTORS
330
C
102
}
330
C
100
AcDbDictionary
281
     1
  3
2dWireframe
350
2F
  3
Basic
350
2E
  3
Brighten
350
35
  3
ColorChange
350
39
  3
Conceptual
350
32
  3
Dim
350
34
  3
EdgeColorOff
350
41
  3
Facepattern
350
38
  3
Flat
350
2A
  3
FlatWithEdges
350
2B
  3
Gouraud
350
2C
  3
GouraudWithEdges
350
2D
  3
Hidden
350
31
  3
JitterOff
350
3F
  3
Linepattern
350
37
  3
OverhangOff
350
40
  3
Realistic
350
33
  3
Shaded
350
3E
  3
Shaded with edges
350
3D
  3
Shades of Gray
350
3A
  3
Sketchy
350
3B
  3
Thicken
350
36
  3
Wireframe
350
30
  3
X-Ray
350
3C
  0
XRECORD
  5
2C6
102
{ACAD_REACTORS
330
C
102
}
330
C
100
AcDbXrecord
280
     1
 90
        1
330
65
  0
DICTIONARY
  5
7C
102
{ACAD_REACTORS
330
C
102
}
330
C
100
AcDbDictionary
281
     1
  3
CANNOSCALE
350
81
  3
CMLEADERSTYLE
350
7E
  3
CTABLESTYLE
350
7D
  3
CVIEWDETAILSTYLE
350
7F
  3
CVIEWSECTIONSTYLE
350
80
  0
DICTIONARY
  5
2BD
102
{ACAD_REACTORS
330
C
102
}
330
C
100
AcDbDictionary
281
     1
  3
DRAWING_TOOL
350
2C1
  3
REVIT_CATEGORY_MAPPING
350
2BF
  3
REVIT_SUB_CATEGORY_MAPPING
350
2C0
  3
REVIT_TYPE_MAPPING
350
2BE
  0
SORTENTSTABLE
  5
2C3
102
{ACAD_REACTORS
330
2C2
102
}
330
2C2
100
AcDbSortentsTable
330
71
  0
ACDBDETAILVIEWSTYLE
  5
6C
102
{ACAD_REACTORS
330
6B
102
}
330
6B
100
AcDbModelDocViewStyle
 70
     0
  3
Imperial24
290
     1
100
AcDbDetailViewStyle
 70
     0
 71
     0
 90
        3
 71
     1
340
55
 62
   256
 40
0.24
340
0
 62
   256
 40
0.24
300

 40
0.36
280
     3
 71
     2
340
5D
 90
       25
 62
   256
 71
     3
340
55
 62
   256
 40
0.24
 90
        1
 40
0.75
 90
        1
300
%<\AcVar ViewType \f "%tc1">% %<\AcVar ViewDetailId>%\PSCALA %<\AcVar ViewScale \f "%sn">%
 71
     4
340
5D
 90
       25
 62
   256
340
5D
 90
       25
 62
   256
280
     0
  0
LAYOUT
  5
70
102
{ACAD_REACTORS
330
62
102
}
330
62
100
AcDbPlotSettings
  1

  2

  4

  6

 40
0.0
 41
0.0
 42
0.0
 43
0.0
 44
0.0
 45
0.0
 46
0.0
 47
0.0
 48
0.0
 49
0.0
140
0.0
141
0.0
142
1.0
143
1.0
 70
   688
 72
     0
 73
     0
 74
     5
  7

 75
    16
147
1.0
 76
     0
 77
     2
 78
   300
148
0.0
149
0.0
100
AcDbLayout
  1
Layout1
 70
     1
 71
     1
 10
0.0
 20
0.0
 11
12.0
 21
9.0
 12
0.0
 22
0.0
 32
0.0
 14
0.0
 24
0.0
 34
0.0
 15
0.0
 25
0.0
 35
0.0
146
0.0
 13
0.0
 23
0.0
 33
0.0
 16
1.0
 26
0.0
 36
0.0
 17
0.0
 27
1.0
 37
0.0
 76
     0
330
6D
  0
LAYOUT
  5
78
102
{ACAD_REACTORS
330
62
102
}
330
62
100
AcDbPlotSettings
  1

  2

  4

  6

 40
0.0
 41
0.0
 42
0.0
 43
0.0
 44
0.0
 45
0.0
 46
0.0
 47
0.0
 48
0.0
 49
0.0
140
0.0
141
0.0
142
1.0
143
1.0
 70
   688
 72
     0
 73
     0
 74
     5
  7

 75
    16
147
1.0
 76
     0
 77
     2
 78
   300
148
0.0
149
0.0
100
AcDbLayout
  1
Layout2
 70
     1
 71
     2
 10
0.0
 20
0.0
 11
12.0
 21
9.0
 12
0.0
 22
0.0
 32
0.0
 14
0.0
 24
0.0
 34
0.0
 15
0.0
 25
0.0
 35
0.0
146
0.0
 13
0.0
 23
0.0
 33
0.0
 16
1.0
 26
0.0
 36
0.0
 17
0.0
 27
1.0
 37
0.0
 76
     0
330
75
  0
LAYOUT
  5
74
102
{ACAD_REACTORS
330
62
102
}
330
62
100
AcDbPlotSettings
  1

  2

  4

  6

 40
0.0
 41
0.0
 42
0.0
 43
0.0
 44
0.0
 45
0.0
 46
0.0
 47
0.0
 48
0.0
 49
0.0
140
0.0
141
0.0
142
1.0
143
1.0
 70
  1712
 72
     0
 73
     0
 74
     0
  7

 75
     0
147
1.0
 76
     0
 77
     2
 78
   300
148
0.0
149
0.0
100
AcDbLayout
  1
Model
 70
     1
 71
     0
 10
0.0
 20
0.0
 11
12.0
 21
9.0
 12
0.0
 22
0.0
 32
0.0
 14
0.0
 24
0.0
 34
0.0
 15
0.0
 25
0.0
 35
0.0
146
0.0
 13
0.0
 23
0.0
 33
0.0
 16
1.0
 26
0.0
 36
0.0
 17
0.0
 27
1.0
 37
0.0
 76
     0
330
71
  0
MATERIAL
  5
19
102
{ACAD_XDICTIONARY
360
1A
102
}
102
{ACAD_REACTORS
330
10
102
}
330
10
100
AcDbMaterial
  1
ByBlock
 72
     0
 43
0.0208333333333333
 43
0.0
 43
0.0
 43
0.0
 43
0.0
 43
0.0208333333333333
 43
0.0
 43
0.0
 43
0.0
 43
0.0
 43
1.0
 43
0.0
 43
0.0
 43
0.0
 43
0.0
 43
1.0
 77
     0
 47
0.0208333333333333
 47
0.0
 47
0.0
 47
0.0
 47
0.0
 47
0.0208333333333333
 47
0.0
 47
0.0
 47
0.0
 47
0.0
 47
1.0
 47
0.0
 47
0.0
 47
0.0
 47
0.0
 47
1.0
171
     0
 49
0.0208333333333333
 49
0.0
 49
0.0
 49
0.0
 49
0.0
 49
0.0208333333333333
 49
0.0
 49
0.0
 49
0.0
 49
0.0
 49
1.0
 49
0.0
 49
0.0
 49
0.0
 49
0.0
 49
1.0
175
     0
142
0.0208333333333333
142
0.0
142
0.0
142
0.0
142
0.0
142
0.0208333333333333
142
0.0
142
0.0
142
0.0
142
0.0
142
1.0
142
0.0
142
0.0
142
0.0
142
0.0
142
1.0
179
     0
144
0.0208333333333333
144
0.0
144
0.0
144
0.0
144
0.0
144
0.0208333333333333
144
0.0
144
0.0
144
0.0
144
0.0
144
1.0
144
0.0
144
0.0
144
0.0
144
0.0
144
1.0
147
0.0208333333333333
147
0.0
147
0.0
147
0.0
147
0.0
147
0.0208333333333333
147
0.0
147
0.0
147
0.0
147
0.0
147
1.0
147
0.0
147
0.0
147
0.0
147
0.0
147
1.0
  0
MATERIAL
  5
11
102
{ACAD_XDICTIONARY
360
12
102
}
102
{ACAD_REACTORS
330
10
102
}
330
10
100
AcDbMaterial
  1
ByLayer
 72
     0
 43
0.0208333333333333
 43
0.0
 43
0.0
 43
0.0
 43
0.0
 43
0.0208333333333333
 43
0.0
 43
0.0
 43
0.0
 43
0.0
 43
1.0
 43
0.0
 43
0.0
 43
0.0
 43
0.0
 43
1.0
 77
     0
 47
0.0208333333333333
 47
0.0
 47
0.0
 47
0.0
 47
0.0
 47
0.0208333333333333
 47
0.0
 47
0.0
 47
0.0
 47
0.0
 47
1.0
 47
0.0
 47
0.0
 47
0.0
 47
0.0
 47
1.0
171
     0
 49
0.0208333333333333
 49
0.0
 49
0.0
 49
0.0
 49
0.0
 49
0.0208333333333333
 49
0.0
 49
0.0
 49
0.0
 49
0.0
 49
1.0
 49
0.0
 49
0.0
 49
0.0
 49
0.0
 49
1.0
175
     0
142
0.0208333333333333
142
0.0
142
0.0
142
0.0
142
0.0
142
0.0208333333333333
142
0.0
142
0.0
142
0.0
142
0.0
142
1.0
142
0.0
142
0.0
142
0.0
142
0.0
142
1.0
179
     0
144
0.0208333333333333
144
0.0
144
0.0
144
0.0
144
0.0
144
0.0208333333333333
144
0.0
144
0.0
144
0.0
144
0.0
144
1.0
144
0.0
144
0.0
144
0.0
144
0.0
144
1.0
147
0.0208333333333333
147
0.0
147
0.0
147
0.0
147
0.0
147
0.0208333333333333
147
0.0
147
0.0
147
0.0
147
0.0
147
1.0
147
0.0
147
0.0
147
0.0
147
0.0
147
1.0
  0
MATERIAL
  5
21
102
{ACAD_XDICTIONARY
360
22
102
}
102
{ACAD_REACTORS
330
10
102
}
330
10
100
AcDbMaterial
  1
Global
 72
     0
 43
0.0208333333333333
 43
0.0
 43
0.0
 43
0.0
 43
0.0
 43
0.0208333333333333
 43
0.0
 43
0.0
 43
0.0
 43
0.0
 43
1.0
 43
0.0
 43
0.0
 43
0.0
 43
0.0
 43
1.0
 77
     0
 47
0.0208333333333333
 47
0.0
 47
0.0
 47
0.0
 47
0.0
 47
0.0208333333333333
 47
0.0
 47
0.0
 47
0.0
 47
0.0
 47
1.0
 47
0.0
 47
0.0
 47
0.0
 47
0.0
 47
1.0
171
     0
 49
0.0208333333333333
 49
0.0
 49
0.0
 49
0.0
 49
0.0
 49
0.0208333333333333
 49
0.0
 49
0.0
 49
0.0
 49
0.0
 49
1.0
 49
0.0
 49
0.0
 49
0.0
 49
0.0
 49
1.0
175
     0
142
0.0208333333333333
142
0.0
142
0.0
142
0.0
142
0.0
142
0.0208333333333333
142
0.0
142
0.0
142
0.0
142
0.0
142
1.0
142
0.0
142
0.0
142
0.0
142
0.0
142
1.0
179
     0
144
0.0208333333333333
144
0.0
144
0.0
144
0.0
144
0.0
144
0.0208333333333333
144
0.0
144
0.0
144
0.0
144
0.0
144
1.0
144
0.0
144
0.0
144
0.0
144
0.0
144
1.0
147
0.0208333333333333
147
0.0
147
0.0
147
0.0
147
0.0
147
0.0208333333333333
147
0.0
147
0.0
147
0.0
147
0.0
147
1.0
147
0.0
147
0.0
147
0.0
147
0.0
147
1.0
  0
MLEADERSTYLE
  5
67
102
{ACAD_REACTORS
330
66
102
}
330
66
100
AcDbMLeaderStyle
179
     2
170
     2
171
     1
172
     0
 90
        2
 40
0.0
 41
0.0
173
     1
 91
-1056964608
340
5B
 92
       -2
290
     1
 42
0.09
291
     1
 43
0.36
  3
Standard
 44
0.18
300

342
55
174
     1
178
     6
175
     1
176
     0
 93
-1056964608
 45
0.18
292
     0
297
     0
 46
0.18
 94
-1056964608
 47
1.0
 49
1.0
140
1.0
293
     1
141
0.0
294
     1
177
     0
142
1.0
295
     1
296
     0
143
0.125
271
     0
272
     9
273
     9
298
     1
  0
MLINESTYLE
  5
60
102
{ACAD_REACTORS
330
5F
102
}
330
5F
100
AcDbMlineStyle
  2
STANDARD
 70
     0
  3

 62
   256
 51
90.0
 52
90.0
 71
     2
 49
0.5
 62
   256
  6
BYLAYER
 49
-0.5
 62
   256
  6
BYLAYER
  0
ACDBPLACEHOLDER
  5
F
102
{ACAD_REACTORS
330
E
102
}
330
E
  0
SCALE
  5
43
102
{ACAD_REACTORS
330
42
102
}
330
42
100
AcDbScale
 70
     0
300
1:1
140
1.0
141
1.0
290
     1
  0
SCALE
  5
44
102
{ACAD_REACTORS
330
42
102
}
330
42
100
AcDbScale
 70
     0
300
1/128" = 1'-0"
140
0.0078125
141
12.0
290
     0
  0
SCALE
  5
45
102
{ACAD_REACTORS
330
42
102
}
330
42
100
AcDbScale
 70
     0
300
1/64" = 1'-0"
140
0.015625
141
12.0
290
     0
  0
SCALE
  5
46
102
{ACAD_REACTORS
330
42
102
}
330
42
100
AcDbScale
 70
     0
300
1/32" = 1'-0"
140
0.03125
141
12.0
290
     0
  0
SCALE
  5
47
102
{ACAD_REACTORS
330
42
102
}
330
42
100
AcDbScale
 70
     0
300
1/16" = 1'-0"
140
0.0625
141
12.0
290
     0
  0
SCALE
  5
48
102
{ACAD_REACTORS
330
42
102
}
330
42
100
AcDbScale
 70
     0
300
3/32" = 1'-0"
140
0.09375
141
12.0
290
     0
  0
SCALE
  5
49
102
{ACAD_REACTORS
330
42
102
}
330
42
100
AcDbScale
 70
     0
300
1/8" = 1'-0"
140
0.125
141
12.0
290
     0
  0
SCALE
  5
4A
102
{ACAD_REACTORS
330
42
102
}
330
42
100
AcDbScale
 70
     0
300
3/16" = 1'-0"
140
0.1875
141
12.0
290
     0
  0
SCALE
  5
4B
102
{ACAD_REACTORS
330
42
102
}
330
42
100
AcDbScale
 70
     0
300
1/4" = 1'-0"
140
0.25
141
12.0
290
     0
  0
SCALE
  5
4C
102
{ACAD_REACTORS
330
42
102
}
330
42
100
AcDbScale
 70
     0
300
3/8" = 1'-0"
140
0.375
141
12.0
290
     0
  0
SCALE
  5
4D
102
{ACAD_REACTORS
330
42
102
}
330
42
100
AcDbScale
 70
     0
300
1/2" = 1'-0"
140
0.5
141
12.0
290
     0
  0
SCALE
  5
4E
102
{ACAD_REACTORS
330
42
102
}
330
42
100
AcDbScale
 70
     0
300
3/4" = 1'-0"
140
0.75
141
12.0
290
     0
  0
SCALE
  5
4F
102
{ACAD_REACTORS
330
42
102
}
330
42
100
AcDbScale
 70
     0
300
1" = 1'-0"
140
1.0
141
12.0
290
     0
  0
SCALE
  5
50
102
{ACAD_REACTORS
330
42
102
}
330
42
100
AcDbScale
 70
     0
300
1-1/2" = 1'-0"
140
1.5
141
12.0
290
     0
  0
SCALE
  5
51
102
{ACAD_REACTORS
330
42
102
}
330
42
100
AcDbScale
 70
     0
300
3" = 1'-0"
140
3.0
141
12.0
290
     0
  0
SCALE
  5
52
102
{ACAD_REACTORS
330
42
102
}
330
42
100
AcDbScale
 70
     0
300
6" = 1'-0"
140
6.0
141
12.0
290
     0
  0
SCALE
  5
53
102
{ACAD_REACTORS
330
42
102
}
330
42
100
AcDbScale
 70
     0
300
1'-0" = 1'-0"
140
12.0
141
12.0
290
     0
  0
ACDBSECTIONVIEWSTYLE
  5
6A
102
{ACAD_REACTORS
330
68
102
}
330
68
100
AcDbModelDocViewStyle
 70
     0
  3
Imperial24
290
     1
100
AcDbSectionViewStyle
 70
     0
 71
     0
 90
       78
 71
     1
340
55
 62
   256
 40
0.24
340
0
340
0
 62
   256
 40
0.24
300
I, O, Q, S, X, Z
 40
0.48
 90
        3
 40
0.18
 90
        1
 71
     2
340
69
 90
       25
 62
   256
340
5D
 90
       50
 62
   256
 40
0.24
 40
0.0
 40
0.24
 71
     3
340
55
 62
   256
 40
0.24
 90
        1
 40
0.75
 90
        1
300
%<\AcVar ViewType \f "%tc1">% %<\AcVar ViewSectionStartId>%-%<\AcVar ViewSectionEndId>%\PSCALA %<\AcVar ViewScale \f "%sn">%
 71
     4
 62
   256
 62
   257
300
ANSI31
 40
1.0
 90
        0
290
     0
290
     0
 90
        6
 40
0.0
 40
1.570796326794896
 40
0.2617993877991494
 40
1.308996938995747
 40
-0.2617993877991494
 40
1.832595714594046
  0
TABLESTYLE
  5
65
102
{ACAD_XDICTIONARY
360
2C4
102
}
102
{ACAD_REACTORS
330
64
102
}
330
64
100
AcDbTableStyle
280
     0
  3
Standard
 70
     0
 71
     0
 40
0.06
 41
0.06
280
     0
281
     0
  7
Standard
140
0.18
170
     2
 62
     0
 63
     7
283
     0
 90
      512
 91
        0
  1

274
    -2
284
     1
 64
     0
275
    -2
285
     1
 65
     0
276
    -2
286
     1
 66
     0
277
    -2
287
     1
 67
     0
278
    -2
288
     1
 68
     0
279
    -2
289
     1
 69
     0
  7
Standard
140
0.25
170
     5
 62
     0
 63
     7
283
     0
 90
      512
 91
        0
  1

274
    -2
284
     1
 64
     0
275
    -2
285
     1
 65
     0
276
    -2
286
     1
 66
     0
277
    -2
287
     1
 67
     0
278
    -2
288
     1
 68
     0
279
    -2
289
     1
 69
     0
  7
Standard
140
0.18
170
     5
 62
     0
 63
     7
283
     0
 90
      512
 91
        0
  1

274
    -2
284
     1
 64
     0
275
    -2
285
     1
 65
     0
276
    -2
286
     1
 66
     0
277
    -2
287
     1
 67
     0
278
    -2
288
     1
 68
     0
279
    -2
289
     1
 69
     0
  0
VISUALSTYLE
  5
2F
102
{ACAD_REACTORS
330
29
102
}
330
29
100
AcDbVisualStyle
  2
2dWireframe
 70
     4
177
     3
291
     0
 70
    58
 90
        0
176
     1
 90
        2
176
     1
 90
        0
176
     1
 90
        0
176
     1
 40
0.6
176
     1
 40
30.0
176
     1
 62
     7
420
 16777215
176
     1
 90
        1
176
     1
 90
        4
176
     1
 62
     7
176
     1
 62
   257
176
     1
 90
        1
176
     1
 90
        1
176
     1
 40
1.0
176
     1
 90
        0
176
     1
 62
   257
176
     1
 40
1.0
176
     1
 90
        1
176
     1
 90
        6
176
     1
 90
        2
176
     1
 62
     7
176
     1
 90
        5
176
     1
 90
        0
176
     1
 90
        0
176
     1
290
     0
176
     1
 90
        1
176
     1
 40
0.0
176
     1
 90
        0
176
     1
290
     1
176
     1
290
     1
176
     1
290
     0
176
     1
290
     0
176
     1
290
     0
176
     1
290
     0
176
     1
290
     0
176
     1
290
     0
176
     1
290
     0
176
     1
 90
       50
176
     1
 40
0.0
176
     1
 40
1.0
176
     1
 90
        0
176
     1
 62
    18
420
        0
176
     1
 90
       50
176
     1
 90
        3
176
     1
 62
     5
420
      255
176
     1
290
     0
176
     1
 90
       50
176
     1
 90
       50
176
     1
 90
       50
176
     1
290
     0
176
     1
 90
       50
176
     1
 62
   256
176
     0
 40
1.0
176
     0
 90
        2
176
     1
  1
strokes_ogs.tif
176
     1
290
     0
176
     1
 40
1.0
176
     1
 40
1.0
176
     1
  0
VISUALSTYLE
  5
2E
102
{ACAD_REACTORS
330
29
102
}
330
29
100
AcDbVisualStyle
  2
Basic
 70
     7
177
     3
291
     1
 70
    58
 90
        1
176
     1
 90
        0
176
     1
 90
        1
176
     1
 90
        0
176
     1
 40
0.6
176
     1
 40
30.0
176
     1
 62
     7
420
 16777215
176
     1
 90
        0
176
     1
 90
        4
176
     1
 62
     7
176
     1
 62
   257
176
     1
 90
        1
176
     1
 90
        1
176
     1
 40
1.0
176
     1
 90
        8
176
     1
 62
     7
176
     1
 40
1.0
176
     1
 90
        1
176
     1
 90
        6
176
     1
 90
        2
176
     1
 62
     7
176
     1
 90
        5
176
     1
 90
        0
176
     1
 90
        0
176
     1
290
     0
176
     1
 90
        1
176
     1
 40
0.0
176
     1
 90
        0
176
     1
290
     0
176
     1
290
     1
176
     1
290
     1
176
     1
290
     0
176
     1
290
     0
176
     1
290
     0
176
     1
290
     0
176
     1
290
     0
176
     1
290
     0
176
     1
 90
       50
176
     1
 40
0.0
176
     1
 40
1.0
176
     1
 90
        0
176
     1
 62
    18
420
        0
176
     1
 90
       50
176
     1
 90
        3
176
     1
 62
     5
420
      255
176
     1
290
     0
176
     1
 90
       50
176
     1
 90
       50
176
     1
 90
       50
176
     1
290
     0
176
     1
 90
       50
176
     1
 62
   256
176
     0
 40
1.0
176
     0
 90
        2
176
     1
  1
strokes_ogs.tif
176
     1
290
     0
176
     1
 40
1.0
176
     1
 40
1.0
176
     1
  0
VISUALSTYLE
  5
35
102
{ACAD_REACTORS
330
29
102
}
330
29
100
AcDbVisualStyle
  2
Brighten
 70
    12
177
     3
291
     1
 70
    58
 90
        2
176
     1
 90
        2
176
     1
 90
        0
176
     1
 90
        0
176
     1
 40
0.6
176
     1
 40
30.0
176
     1
 62
     7
420
 16777215
176
     1
 90
        1
176
     1
 90
        4
176
     1
 62
     7
176
     1
 62
   257
176
     1
 90
        1
176
     1
 90
        1
176
     1
 40
1.0
176
     1
 90
        8
176
     1
 62
     7
176
     1
 40
1.0
176
     1
 90
        1
176
     1
 90
        6
176
     1
 90
        2
176
     1
 62
     7
176
     1
 90
        5
176
     1
 90
        0
176
     1
 90
        0
176
     1
290
     0
176
     1
 90
        1
176
     1
 40
50.0
176
     1
 90
        0
176
     1
290
     0
176
     1
290
     1
176
     1
290
     1
176
     1
290
     0
176
     1
290
     0
176
     1
290
     0
176
     1
290
     0
176
     1
290
     0
176
     1
290
     0
176
     1
 90
       50
176
     1
 40
0.0
176
     1
 40
1.0
176
     1
 90
        0
176
     1
 62
    18
420
        0
176
     1
 90
       50
176
     1
 90
        3
176
     1
 62
     5
420
      255
176
     1
290
     0
176
     1
 90
       50
176
     1
 90
       50
176
     1
 90
       50
176
     1
290
     0
176
     1
 90
       50
176
     1
 62
   256
176
     0
 40
1.0
176
     0
 90
        2
176
     1
  1
strokes_ogs.tif
176
     1
290
     0
176
     1
 40
1.0
176
     1
 40
1.0
176
     1
  0
VISUALSTYLE
  5
39
102
{ACAD_REACTORS
330
29
102
}
330
29
100
AcDbVisualStyle
  2
ColorChange
 70
    16
177
     3
291
     1
 70
    58
 90
        2
176
     1
 90
        2
176
     1
 90
        3
176
     1
 90
        0
176
     1
 40
0.6
176
     1
 40
30.0
176
     1
 62
     8
420
  8421504
176
     1
 90
        1
176
     1
 90
        4
176
     1
 62
     7
176
     1
 62
   257
176
     1
 90
        1
176
     1
 90
        1
176
     1
 40
1.0
176
     1
 90
        8
176
     1
 62
     8
420
  8421504
176
     1
 40
1.0
176
     1
 90
        1
176
     1
 90
        6
176
     1
 90
        2
176
     1
 62
     7
176
     1
 90
        5
176
     1
 90
        0
176
     1
 90
        0
176
     1
290
     0
176
     1
 90
        1
176
     1
 40
0.0
176
     1
 90
        0
176
     1
290
     0
176
     1
290
     1
176
     1
290
     1
176
     1
290
     0
176
     1
290
     0
176
     1
290
     0
176
     1
290
     0
176
     1
290
     0
176
     1
290
     0
176
     1
 90
       50
176
     1
 40
0.0
176
     1
 40
1.0
176
     1
 90
        0
176
     1
 62
    18
420
        0
176
     1
 90
       50
176
     1
 90
        3
176
     1
 62
     5
420
      255
176
     1
290
     0
176
     1
 90
       50
176
     1
 90
       50
176
     1
 90
       50
176
     1
290
     0
176
     1
 90
       50
176
     1
 62
   256
176
     0
 40
1.0
176
     0
 90
        2
176
     1
  1
strokes_ogs.tif
176
     1
290
     0
176
     1
 40
1.0
176
     1
 40
1.0
176
     1
  0
VISUALSTYLE
  5
32
102
{ACAD_REACTORS
330
29
102
}
330
29
100
AcDbVisualStyle
  2
Conceptual
 70
     9
177
     3
291
     0
 70
    58
 90
        3
176
     1
 90
        2
176
     1
 90
        0
176
     1
 90
        0
176
     1
 40
0.6
176
     1
 40
30.0
176
     1
 62
     7
420
 16777215
176
     1
 90
        2
176
     1
 90
        2
176
     1
 62
     7
176
     1
 62
   257
176
     1
 90
        1
176
     1
 90
        1
176
     1
 40
179.0
176
     1
 90
        8
176
     1
 62
     7
176
     1
 40
1.0
176
     1
 90
        1
176
     1
 90
        6
176
     1
 90
        2
176
     1
 62
     7
176
     1
 90
        3
176
     1
 90
        0
176
     1
 90
        0
176
     1
290
     0
176
     1
 90
        1
176
     1
 40
0.0
176
     1
 90
        0
176
     1
290
     0
176
     1
290
     1
176
     1
290
     1
176
     1
290
     0
176
     1
290
     0
176
     1
290
     0
176
     1
290
     0
176
     1
290
     0
176
     1
290
     0
176
     1
 90
       50
176
     1
 40
0.0
176
     1
 40
1.0
176
     1
 90
        0
176
     1
 62
    18
420
        0
176
     1
 90
       50
176
     1
 90
        3
176
     1
 62
     5
420
      255
176
     1
290
     0
176
     1
 90
       50
176
     1
 90
       50
176
     1
 90
       50
176
     1
290
     0
176
     1
 90
       50
176
     1
 62
   256
176
     0
 40
1.0
176
     0
 90
        2
176
     1
  1
strokes_ogs.tif
176
     1
290
     0
176
     1
 40
1.0
176
     1
 40
1.0
176
     1
  0
VISUALSTYLE
  5
34
102
{ACAD_REACTORS
330
29
102
}
330
29
100
AcDbVisualStyle
  2
Dim
 70
    11
177
     3
291
     1
 70
    58
 90
        2
176
     1
 90
        2
176
     1
 90
        0
176
     1
 90
        0
176
     1
 40
0.6
176
     1
 40
30.0
176
     1
 62
     7
420
 16777215
176
     1
 90
        1
176
     1
 90
        4
176
     1
 62
     7
176
     1
 62
   257
176
     1
 90
        1
176
     1
 90
        1
176
     1
 40
1.0
176
     1
 90
        8
176
     1
 62
     7
176
     1
 40
1.0
176
     1
 90
        1
176
     1
 90
        6
176
     1
 90
        2
176
     1
 62
     7
176
     1
 90
        5
176
     1
 90
        0
176
     1
 90
        0
176
     1
290
     0
176
     1
 90
        1
176
     1
 40
-50.0
176
     1
 90
        0
176
     1
290
     0
176
     1
290
     1
176
     1
290
     1
176
     1
290
     0
176
     1
290
     0
176
     1
290
     0
176
     1
290
     0
176
     1
290
     0
176
     1
290
     0
176
     1
 90
       50
176
     1
 40
0.0
176
     1
 40
1.0
176
     1
 90
        0
176
     1
 62
    18
420
        0
176
     1
 90
       50
176
     1
 90
        3
176
     1
 62
     5
420
      255
176
     1
290
     0
176
     1
 90
       50
176
     1
 90
       50
176
     1
 90
       50
176
     1
290
     0
176
     1
 90
       50
176
     1
 62
   256
176
     0
 40
1.0
176
     0
 90
        2
176
     1
  1
strokes_ogs.tif
176
     1
290
     0
176
     1
 40
1.0
176
     1
 40
1.0
176
     1
  0
VISUALSTYLE
  5
41
102
{ACAD_REACTORS
330
29
102
}
330
29
100
AcDbVisualStyle
  2
EdgeColorOff
 70
    22
177
     3
291
     1
 70
    58
 90
        2
176
     0
 90
        2
176
     0
 90
        0
176
     0
 90
        0
176
     0
 40
0.6
176
     0
 40
30.0
176
     0
 62
     7
420
 16777215
176
     0
 90
        1
176
     0
 90
        4
176
     0
 62
     7
176
     0
 62
   257
176
     0
 90
        1
176
     0
 90
        1
176
     0
 40
1.0
176
     0
 90
        8
176
     2
 62
     7
176
     0
 40
1.0
176
     0
 90
        1
176
     0
 90
        6
176
     0
 90
        2
176
     0
 62
     7
176
     0
 90
        5
176
     0
 90
        0
176
     0
 90
        0
176
     0
290
     0
176
     0
 90
        1
176
     0
 40
0.0
176
     0
 90
        0
176
     0
290
     0
176
     0
290
     1
176
     0
290
     1
176
     0
290
     0
176
     0
290
     0
176
     0
290
     0
176
     0
290
     0
176
     0
290
     0
176
     0
290
     0
176
     0
 90
       50
176
     0
 40
0.0
176
     0
 40
1.0
176
     0
 90
        0
176
     0
 62
    18
420
        0
176
     0
 90
       50
176
     0
 90
        3
176
     0
 62
     5
420
      255
176
     0
290
     0
176
     0
 90
       50
176
     0
 90
       50
176
     0
 90
       50
176
     0
290
     0
176
     0
 90
       50
176
     0
 62
   256
176
     0
 40
1.0
176
     0
 90
        2
176
     0
  1
strokes_ogs.tif
176
     0
290
     0
176
     0
 40
1.0
176
     0
 40
1.0
176
     0
  0
VISUALSTYLE
  5
38
102
{ACAD_REACTORS
330
29
102
}
330
29
100
AcDbVisualStyle
  2
Facepattern
 70
    15
177
     3
291
     1
 70
    58
 90
        2
176
     1
 90
        2
176
     1
 90
        0
176
     1
 90
        0
176
     1
 40
0.6
176
     1
 40
30.0
176
     1
 62
     7
420
 16777215
176
     1
 90
        1
176
     1
 90
        4
176
     1
 62
     7
176
     1
 62
   257
176
     1
 90
        1
176
     1
 90
        1
176
     1
 40
1.0
176
     1
 90
        8
176
     1
 62
     7
176
     1
 40
1.0
176
     1
 90
        1
176
     1
 90
        6
176
     1
 90
        2
176
     1
 62
     7
176
     1
 90
        5
176
     1
 90
        0
176
     1
 90
        0
176
     1
290
     0
176
     1
 90
        1
176
     1
 40
0.0
176
     1
 90
        0
176
     1
290
     0
176
     1
290
     1
176
     1
290
     1
176
     1
290
     0
176
     1
290
     0
176
     1
290
     0
176
     1
290
     0
176
     1
290
     0
176
     1
290
     0
176
     1
 90
       50
176
     1
 40
0.0
176
     1
 40
1.0
176
     1
 90
        0
176
     1
 62
    18
420
        0
176
     1
 90
       50
176
     1
 90
        3
176
     1
 62
     5
420
      255
176
     1
290
     0
176
     1
 90
       50
176
     1
 90
       50
176
     1
 90
       50
176
     1
290
     0
176
     1
 90
       50
176
     1
 62
   256
176
     0
 40
1.0
176
     0
 90
        2
176
     1
  1
strokes_ogs.tif
176
     1
290
     0
176
     1
 40
1.0
176
     1
 40
1.0
176
     1
  0
VISUALSTYLE
  5
2A
102
{ACAD_REACTORS
330
29
102
}
330
29
100
AcDbVisualStyle
  2
Flat
 70
     0
177
     3
291
     1
 70
    58
 90
        2
176
     1
 90
        1
176
     1
 90
        1
176
     1
 90
        2
176
     1
 40
0.6
176
     1
 40
30.0
176
     1
 62
     7
420
 16777215
176
     1
 90
        0
176
     1
 90
        0
176
     1
 62
     7
176
     1
 62
   257
176
     1
 90
        1
176
     1
 90
        1
176
     1
 40
1.0
176
     1
 90
        8
176
     1
 62
     7
176
     1
 40
1.0
176
     1
 90
        1
176
     1
 90
        6
176
     1
 90
        2
176
     1
 62
     7
176
     1
 90
        5
176
     1
 90
        0
176
     1
 90
        0
176
     1
290
     0
176
     1
 90
       13
176
     1
 40
0.0
176
     1
 90
        0
176
     1
290
     0
176
     1
290
     1
176
     1
290
     1
176
     1
290
     0
176
     1
290
     0
176
     1
290
     0
176
     1
290
     0
176
     1
290
     0
176
     1
290
     0
176
     1
 90
       50
176
     1
 40
0.0
176
     1
 40
1.0
176
     1
 90
        0
176
     1
 62
    18
420
        0
176
     1
 90
       50
176
     1
 90
        3
176
     1
 62
     5
420
      255
176
     1
290
     0
176
     1
 90
       50
176
     1
 90
       50
176
     1
 90
       50
176
     1
290
     0
176
     1
 90
       50
176
     1
 62
   256
176
     0
 40
1.0
176
     0
 90
        2
176
     1
  1
strokes_ogs.tif
176
     1
290
     0
176
     1
 40
1.0
176
     1
 40
1.0
176
     1
  0
VISUALSTYLE
  5
2B
102
{ACAD_REACTORS
330
29
102
}
330
29
100
AcDbVisualStyle
  2
FlatWithEdges
 70
     1
177
     3
291
     1
 70
    58
 90
        2
176
     1
 90
        1
176
     1
 90
        1
176
     1
 90
        2
176
     1
 40
0.6
176
     1
 40
30.0
176
     1
 62
     7
420
 16777215
176
     1
 90
        1
176
     1
 90
        0
176
     1
 62
     7
176
     1
 62
   257
176
     1
 90
        1
176
     1
 90
        1
176
     1
 40
1.0
176
     1
 90
        0
176
     1
 62
   257
176
     1
 40
1.0
176
     1
 90
        1
176
     1
 90
        6
176
     1
 90
        2
176
     1
 62
     7
176
     1
 90
        5
176
     1
 90
        0
176
     1
 90
        0
176
     1
290
     0
176
     1
 90
       13
176
     1
 40
0.0
176
     1
 90
        0
176
     1
290
     0
176
     1
290
     1
176
     1
290
     1
176
     1
290
     0
176
     1
290
     0
176
     1
290
     0
176
     1
290
     0
176
     1
290
     0
176
     1
290
     0
176
     1
 90
       50
176
     1
 40
0.0
176
     1
 40
1.0
176
     1
 90
        0
176
     1
 62
    18
420
        0
176
     1
 90
       50
176
     1
 90
        3
176
     1
 62
     5
420
      255
176
     1
290
     0
176
     1
 90
       50
176
     1
 90
       50
176
     1
 90
       50
176
     1
290
     0
176
     1
 90
       50
176
     1
 62
   256
176
     0
 40
1.0
176
     0
 90
        2
176
     1
  1
strokes_ogs.tif
176
     1
290
     0
176
     1
 40
1.0
176
     1
 40
1.0
176
     1
  0
VISUALSTYLE
  5
2C
102
{ACAD_REACTORS
330
29
102
}
330
29
100
AcDbVisualStyle
  2
Gouraud
 70
     2
177
     3
291
     1
 70
    58
 90
        2
176
     1
 90
        2
176
     1
 90
        1
176
     1
 90
        2
176
     1
 40
0.6
176
     1
 40
30.0
176
     1
 62
     7
420
 16777215
176
     1
 90
        0
176
     1
 90
        0
176
     1
 62
     7
176
     1
 62
   257
176
     1
 90
        1
176
     1
 90
        1
176
     1
 40
1.0
176
     1
 90
        0
176
     1
 62
     7
176
     1
 40
1.0
176
     1
 90
        1
176
     1
 90
        6
176
     1
 90
        2
176
     1
 62
     7
176
     1
 90
        5
176
     1
 90
        0
176
     1
 90
        0
176
     1
290
     0
176
     1
 90
       13
176
     1
 40
0.0
176
     1
 90
        0
176
     1
290
     0
176
     1
290
     1
176
     1
290
     1
176
     1
290
     0
176
     1
290
     0
176
     1
290
     0
176
     1
290
     0
176
     1
290
     0
176
     1
290
     0
176
     1
 90
       50
176
     1
 40
0.0
176
     1
 40
1.0
176
     1
 90
        0
176
     1
 62
    18
420
        0
176
     1
 90
       50
176
     1
 90
        3
176
     1
 62
     5
420
      255
176
     1
290
     0
176
     1
 90
       50
176
     1
 90
       50
176
     1
 90
       50
176
     1
290
     0
176
     1
 90
       50
176
     1
 62
   256
176
     0
 40
1.0
176
     0
 90
        2
176
     1
  1
strokes_ogs.tif
176
     1
290
     0
176
     1
 40
1.0
176
     1
 40
1.0
176
     1
  0
VISUALSTYLE
  5
2D
102
{ACAD_REACTORS
330
29
102
}
330
29
100
AcDbVisualStyle
  2
GouraudWithEdges
 70
     3
177
     3
291
     1
 70
    58
 90
        2
176
     1
 90
        2
176
     1
 90
        1
176
     1
 90
        2
176
     1
 40
0.6
176
     1
 40
30.0
176
     1
 62
     7
420
 16777215
176
     1
 90
        1
176
     1
 90
        0
176
     1
 62
     7
176
     1
 62
   257
176
     1
 90
        1
176
     1
 90
        1
176
     1
 40
1.0
176
     1
 90
        0
176
     1
 62
   257
176
     1
 40
1.0
176
     1
 90
        1
176
     1
 90
        6
176
     1
 90
        2
176
     1
 62
     7
176
     1
 90
        5
176
     1
 90
        0
176
     1
 90
        0
176
     1
290
     0
176
     1
 90
       13
176
     1
 40
0.0
176
     1
 90
        0
176
     1
290
     0
176
     1
290
     1
176
     1
290
     1
176
     1
290
     0
176
     1
290
     0
176
     1
290
     0
176
     1
290
     0
176
     1
290
     0
176
     1
290
     0
176
     1
 90
       50
176
     1
 40
0.0
176
     1
 40
1.0
176
     1
 90
        0
176
     1
 62
    18
420
        0
176
     1
 90
       50
176
     1
 90
        3
176
     1
 62
     5
420
      255
176
     1
290
     0
176
     1
 90
       50
176
     1
 90
       50
176
     1
 90
       50
176
     1
290
     0
176
     1
 90
       50
176
     1
 62
   256
176
     0
 40
1.0
176
     0
 90
        2
176
     1
  1
strokes_ogs.tif
176
     1
290
     0
176
     1
 40
1.0
176
     1
 40
1.0
176
     1
  0
VISUALSTYLE
  5
31
102
{ACAD_REACTORS
330
29
102
}
330
29
100
AcDbVisualStyle
  2
Hidden
 70
     6
177
     3
291
     0
 70
    58
 90
        1
176
     1
 90
        2
176
     1
 90
        2
176
     1
 90
        0
176
     1
 40
0.6
176
     1
 40
30.0
176
     1
 62
     7
420
 16777215
176
     1
 90
        2
176
     1
 90
        2
176
     1
 62
     7
176
     1
 62
   257
176
     1
 90
        2
176
     1
 90
        1
176
     1
 40
40.0
176
     1
 90
        0
176
     1
 62
   257
176
     1
 40
1.0
176
     1
 90
        1
176
     1
 90
        6
176
     1
 90
        2
176
     1
 62
     7
176
     1
 90
        3
176
     1
 90
        0
176
     1
 90
        0
176
     1
290
     0
176
     1
 90
        1
176
     1
 40
0.0
176
     1
 90
        0
176
     1
290
     0
176
     1
290
     1
176
     1
290
     1
176
     1
290
     0
176
     1
290
     0
176
     1
290
     0
176
     1
290
     0
176
     1
290
     0
176
     1
290
     0
176
     1
 90
       50
176
     1
 40
0.0
176
     1
 40
1.0
176
     1
 90
        0
176
     1
 62
    18
420
        0
176
     1
 90
       50
176
     1
 90
        3
176
     1
 62
     5
420
      255
176
     1
290
     0
176
     1
 90
       50
176
     1
 90
       50
176
     1
 90
       50
176
     1
290
     0
176
     1
 90
       50
176
     1
 62
   256
176
     0
 40
1.0
176
     0
 90
        2
176
     1
  1
strokes_ogs.tif
176
     1
290
     0
176
     1
 40
1.0
176
     1
 40
1.0
176
     1
  0
VISUALSTYLE
  5
3F
102
{ACAD_REACTORS
330
29
102
}
330
29
100
AcDbVisualStyle
  2
JitterOff
 70
    20
177
     3
291
     1
 70
    58
 90
        2
176
     0
 90
        2
176
     0
 90
        0
176
     0
 90
        0
176
     0
 40
0.6
176
     0
 40
30.0
176
     0
 62
     7
420
 16777215
176
     0
 90
        1
176
     0
 90
        4
176
     0
 62
     7
176
     0
 62
   257
176
     0
 90
        1
176
     0
 90
        1
176
     0
 40
1.0
176
     0
 90
       10
176
     2
 62
     7
176
     0
 40
1.0
176
     0
 90
        1
176
     0
 90
        6
176
     0
 90
        2
176
     0
 62
     7
176
     0
 90
        5
176
     0
 90
        0
176
     0
 90
        0
176
     0
290
     0
176
     0
 90
        1
176
     0
 40
0.0
176
     0
 90
        0
176
     0
290
     0
176
     0
290
     1
176
     0
290
     1
176
     0
290
     0
176
     0
290
     0
176
     0
290
     0
176
     0
290
     0
176
     0
290
     0
176
     0
290
     0
176
     0
 90
       50
176
     0
 40
0.0
176
     0
 40
1.0
176
     0
 90
        0
176
     0
 62
    18
420
        0
176
     0
 90
       50
176
     0
 90
        3
176
     0
 62
     5
420
      255
176
     0
290
     0
176
     0
 90
       50
176
     0
 90
       50
176
     0
 90
       50
176
     0
290
     0
176
     0
 90
       50
176
     0
 62
   256
176
     0
 40
1.0
176
     0
 90
        2
176
     0
  1
strokes_ogs.tif
176
     0
290
     0
176
     0
 40
1.0
176
     0
 40
1.0
176
     0
  0
VISUALSTYLE
  5
37
102
{ACAD_REACTORS
330
29
102
}
330
29
100
AcDbVisualStyle
  2
Linepattern
 70
    14
177
     3
291
     1
 70
    58
 90
        2
176
     1
 90
        2
176
     1
 90
        0
176
     1
 90
        0
176
     1
 40
0.6
176
     1
 40
30.0
176
     1
 62
     7
420
 16777215
176
     1
 90
        1
176
     1
 90
        4
176
     1
 62
     7
176
     1
 62
   257
176
     1
 90
        7
176
     1
 90
        7
176
     1
 40
1.0
176
     1
 90
        8
176
     1
 62
     7
176
     1
 40
1.0
176
     1
 90
        1
176
     1
 90
        6
176
     1
 90
        2
176
     1
 62
     7
176
     1
 90
        5
176
     1
 90
        0
176
     1
 90
        0
176
     1
290
     0
176
     1
 90
        1
176
     1
 40
0.0
176
     1
 90
        0
176
     1
290
     0
176
     1
290
     1
176
     1
290
     1
176
     1
290
     0
176
     1
290
     0
176
     1
290
     0
176
     1
290
     0
176
     1
290
     0
176
     1
290
     0
176
     1
 90
       50
176
     1
 40
0.0
176
     1
 40
1.0
176
     1
 90
        0
176
     1
 62
    18
420
        0
176
     1
 90
       50
176
     1
 90
        3
176
     1
 62
     5
420
      255
176
     1
290
     0
176
     1
 90
       50
176
     1
 90
       50
176
     1
 90
       50
176
     1
290
     0
176
     1
 90
       50
176
     1
 62
   256
176
     0
 40
1.0
176
     0
 90
        2
176
     1
  1
strokes_ogs.tif
176
     1
290
     0
176
     1
 40
1.0
176
     1
 40
1.0
176
     1
  0
VISUALSTYLE
  5
40
102
{ACAD_REACTORS
330
29
102
}
330
29
100
AcDbVisualStyle
  2
OverhangOff
 70
    21
177
     3
291
     1
 70
    58
 90
        2
176
     0
 90
        2
176
     0
 90
        0
176
     0
 90
        0
176
     0
 40
0.6
176
     0
 40
30.0
176
     0
 62
     7
420
 16777215
176
     0
 90
        1
176
     0
 90
        4
176
     0
 62
     7
176
     0
 62
   257
176
     0
 90
        1
176
     0
 90
        1
176
     0
 40
1.0
176
     0
 90
        9
176
     2
 62
     7
176
     0
 40
1.0
176
     0
 90
        1
176
     0
 90
        6
176
     0
 90
        2
176
     0
 62
     7
176
     0
 90
        5
176
     0
 90
        0
176
     0
 90
        0
176
     0
290
     0
176
     0
 90
        1
176
     0
 40
0.0
176
     0
 90
        0
176
     0
290
     0
176
     0
290
     1
176
     0
290
     1
176
     0
290
     0
176
     0
290
     0
176
     0
290
     0
176
     0
290
     0
176
     0
290
     0
176
     0
290
     0
176
     0
 90
       50
176
     0
 40
0.0
176
     0
 40
1.0
176
     0
 90
        0
176
     0
 62
    18
420
        0
176
     0
 90
       50
176
     0
 90
        3
176
     0
 62
     5
420
      255
176
     0
290
     0
176
     0
 90
       50
176
     0
 90
       50
176
     0
 90
       50
176
     0
290
     0
176
     0
 90
       50
176
     0
 62
   256
176
     0
 40
1.0
176
     0
 90
        2
176
     0
  1
strokes_ogs.tif
176
     0
290
     0
176
     0
 40
1.0
176
     0
 40
1.0
176
     0
  0
VISUALSTYLE
  5
33
102
{ACAD_REACTORS
330
29
102
}
330
29
100
AcDbVisualStyle
  2
Realistic
 70
     8
177
     3
291
     0
 70
    58
 90
        2
176
     1
 90
        3
176
     1
 90
        0
176
     1
 90
        2
176
     1
 40
0.6
176
     1
 40
30.0
176
     1
 62
     7
420
 16777215
176
     1
 90
        0
176
     1
 90
        0
176
     1
 62
     7
176
     1
 62
   257
176
     1
 90
        1
176
     1
 90
        1
176
     1
 40
1.0
176
     1
 90
        8
176
     1
 62
   257
176
     1
 40
1.0
176
     1
 90
        1
176
     1
 90
        6
176
     1
 90
        2
176
     1
 62
     7
176
     1
 90
        3
176
     1
 90
        0
176
     1
 90
        0
176
     1
290
     0
176
     1
 90
       13
176
     1
 40
0.0
176
     1
 90
        0
176
     1
290
     0
176
     1
290
     1
176
     1
290
     1
176
     1
290
     0
176
     1
290
     0
176
     1
290
     0
176
     1
290
     0
176
     1
290
     0
176
     1
290
     0
176
     1
 90
       50
176
     1
 40
0.0
176
     1
 40
1.0
176
     1
 90
        0
176
     1
 62
    18
420
        0
176
     1
 90
       50
176
     1
 90
        3
176
     1
 62
     5
420
      255
176
     1
290
     0
176
     1
 90
       50
176
     1
 90
       50
176
     1
 90
       50
176
     1
290
     0
176
     1
 90
       50
176
     1
 62
   256
176
     0
 40
1.0
176
     0
 90
        2
176
     1
  1
strokes_ogs.tif
176
     1
290
     0
176
     1
 40
1.0
176
     1
 40
1.0
176
     1
  0
VISUALSTYLE
  5
3E
102
{ACAD_REACTORS
330
29
102
}
330
29
100
AcDbVisualStyle
  2
Shaded
 70
    27
177
     3
291
     0
 70
    58
 90
        2
176
     1
 90
        2
176
     1
 90
        1
176
     1
 90
        2
176
     1
 40
0.6
176
     1
 40
30.0
176
     1
 62
     7
420
 16777215
176
     1
 90
        0
176
     1
 90
        4
176
     1
 62
     7
176
     1
 62
   257
176
     1
 90
        1
176
     1
 90
        1
176
     1
 40
1.0
176
     1
 90
        8
176
     1
 62
   257
176
     1
 40
1.0
176
     1
 90
        1
176
     1
 90
        6
176
     1
 90
        2
176
     1
 62
     8
420
  7895160
176
     1
 90
        3
176
     1
 90
        0
176
     1
 90
        0
176
     1
290
     0
176
     1
 90
        5
176
     1
 40
0.0
176
     1
 90
        0
176
     1
290
     0
176
     1
290
     1
176
     1
290
     1
176
     1
290
     0
176
     1
290
     0
176
     1
290
     0
176
     1
290
     0
176
     1
290
     0
176
     1
290
     0
176
     1
 90
       50
176
     1
 40
0.0
176
     1
 40
1.0
176
     1
 90
        0
176
     1
 62
    18
420
        0
176
     1
 90
       50
176
     1
 90
        3
176
     1
 62
     5
420
      255
176
     1
290
     0
176
     1
 90
       50
176
     1
 90
       50
176
     1
 90
       50
176
     1
290
     0
176
     1
 90
       50
176
     1
 62
   256
176
     0
 40
1.0
176
     0
 90
        2
176
     1
  1
strokes_ogs.tif
176
     1
290
     0
176
     1
 40
1.0
176
     1
 40
1.0
176
     1
  0
VISUALSTYLE
  5
3D
102
{ACAD_REACTORS
330
29
102
}
330
29
100
AcDbVisualStyle
  2
Shaded with edges
 70
    26
177
     3
291
     0
 70
    58
 90
        2
176
     1
 90
        2
176
     1
 90
        1
176
     1
 90
        2
176
     1
 40
0.6
176
     1
 40
30.0
176
     1
 62
     7
420
 16777215
176
     1
 90
        1
176
     1
 90
       10
176
     1
 62
     7
176
     1
 62
   257
176
     1
 90
        2
176
     1
 90
        1
176
     1
 40
1.0
176
     1
 90
        8
176
     1
 62
   257
176
     1
 40
1.0
176
     1
 90
        1
176
     1
 90
        6
176
     1
 90
        2
176
     1
 62
     7
176
     1
 90
        3
176
     1
 90
        0
176
     1
 90
        0
176
     1
290
     0
176
     1
 90
        5
176
     1
 40
0.0
176
     1
 90
        0
176
     1
290
     0
176
     1
290
     1
176
     1
290
     1
176
     1
290
     0
176
     1
290
     0
176
     1
290
     0
176
     1
290
     0
176
     1
290
     0
176
     1
290
     0
176
     1
 90
       50
176
     1
 40
0.0
176
     1
 40
1.0
176
     1
 90
        0
176
     1
 62
    18
420
        0
176
     1
 90
       50
176
     1
 90
        3
176
     1
 62
     5
420
      255
176
     1
290
     0
176
     1
 90
       50
176
     1
 90
       50
176
     1
 90
       50
176
     1
290
     0
176
     1
 90
       50
176
     1
 62
   256
176
     0
 40
1.0
176
     0
 90
        2
176
     1
  1
strokes_ogs.tif
176
     1
290
     0
176
     1
 40
1.0
176
     1
 40
1.0
176
     1
  0
VISUALSTYLE
  5
3A
102
{ACAD_REACTORS
330
29
102
}
330
29
100
AcDbVisualStyle
  2
Shades of Gray
 70
    23
177
     3
291
     0
 70
    58
 90
        2
176
     1
 90
        2
176
     1
 90
        3
176
     1
 90
        0
176
     1
 40
0.6
176
     1
 40
30.0
176
     1
 62
     7
420
 16777215
176
     1
 90
        2
176
     1
 90
        2
176
     1
 62
     7
176
     1
 62
     7
176
     1
 90
        1
176
     1
 90
        1
176
     1
 40
40.0
176
     1
 90
        8
176
     1
 62
     7
176
     1
 40
1.0
176
     1
 90
        1
176
     1
 90
        6
176
     1
 90
        2
176
     1
 62
     7
176
     1
 90
        3
176
     1
 90
        0
176
     1
 90
        0
176
     1
290
     0
176
     1
 90
        1
176
     1
 40
0.0
176
     1
 90
        0
176
     1
290
     0
176
     1
290
     1
176
     1
290
     1
176
     1
290
     0
176
     1
290
     0
176
     1
290
     0
176
     1
290
     0
176
     1
290
     0
176
     1
290
     0
176
     1
 90
       50
176
     1
 40
0.0
176
     1
 40
1.0
176
     1
 90
        0
176
     1
 62
    18
420
        0
176
     1
 90
       50
176
     1
 90
        3
176
     1
 62
     5
420
      255
176
     1
290
     0
176
     1
 90
       50
176
     1
 90
       50
176
     1
 90
       50
176
     1
290
     0
176
     1
 90
       50
176
     1
 62
   256
176
     0
 40
1.0
176
     0
 90
        2
176
     1
  1
strokes_ogs.tif
176
     1
290
     0
176
     1
 40
1.0
176
     1
 40
1.0
176
     1
  0
VISUALSTYLE
  5
3B
102
{ACAD_REACTORS
330
29
102
}
330
29
100
AcDbVisualStyle
  2
Sketchy
 70
    24
177
     3
291
     0
 70
    58
 90
        1
176
     1
 90
        2
176
     1
 90
        2
176
     1
 90
        0
176
     1
 40
0.6
176
     1
 40
30.0
176
     1
 62
     7
420
 16777215
176
     1
 90
        2
176
     1
 90
        2
176
     1
 62
     7
176
     1
 62
     7
176
     1
 90
        1
176
     1
 90
        1
176
     1
 40
40.0
176
     1
 90
       11
176
     1
 62
     7
176
     1
 40
1.0
176
     1
 90
        1
176
     1
 90
        6
176
     1
 90
        2
176
     1
 62
     7
176
     1
 90
        6
176
     1
 90
        0
176
     1
 90
        0
176
     1
290
     0
176
     1
 90
        1
176
     1
 40
0.0
176
     1
 90
        0
176
     1
290
     0
176
     1
290
     1
176
     1
290
     1
176
     1
290
     0
176
     1
290
     0
176
     1
290
     0
176
     1
290
     0
176
     1
290
     0
176
     1
290
     0
176
     1
 90
       50
176
     1
 40
0.0
176
     1
 40
1.0
176
     1
 90
        0
176
     1
 62
    18
420
        0
176
     1
 90
       50
176
     1
 90
        3
176
     1
 62
     5
420
      255
176
     1
290
     0
176
     1
 90
       50
176
     1
 90
       50
176
     1
 90
       50
176
     1
290
     0
176
     1
 90
       50
176
     1
 62
   256
176
     0
 40
1.0
176
     0
 90
        2
176
     1
  1
strokes_ogs.tif
176
     1
290
     0
176
     1
 40
1.0
176
     1
 40
1.0
176
     1
  0
VISUALSTYLE
  5
36
102
{ACAD_REACTORS
330
29
102
}
330
29
100
AcDbVisualStyle
  2
Thicken
 70
    13
177
     3
291
     1
 70
    58
 90
        2
176
     1
 90
        2
176
     1
 90
        0
176
     1
 90
        0
176
     1
 40
0.6
176
     1
 40
30.0
176
     1
 62
     7
420
 16777215
176
     1
 90
        1
176
     1
 90
        4
176
     1
 62
     7
176
     1
 62
   257
176
     1
 90
        1
176
     1
 90
        1
176
     1
 40
1.0
176
     1
 90
       12
176
     1
 62
     7
176
     1
 40
1.0
176
     1
 90
        1
176
     1
 90
        6
176
     1
 90
        2
176
     1
 62
     7
176
     1
 90
        5
176
     1
 90
        0
176
     1
 90
        0
176
     1
290
     0
176
     1
 90
        1
176
     1
 40
0.0
176
     1
 90
        0
176
     1
290
     0
176
     1
290
     1
176
     1
290
     1
176
     1
290
     0
176
     1
290
     0
176
     1
290
     0
176
     1
290
     0
176
     1
290
     0
176
     1
290
     0
176
     1
 90
       50
176
     1
 40
0.0
176
     1
 40
1.0
176
     1
 90
        0
176
     1
 62
    18
420
        0
176
     1
 90
       50
176
     1
 90
        3
176
     1
 62
     5
420
      255
176
     1
290
     0
176
     1
 90
       50
176
     1
 90
       50
176
     1
 90
       50
176
     1
290
     0
176
     1
 90
       50
176
     1
 62
   256
176
     0
 40
1.0
176
     0
 90
        2
176
     1
  1
strokes_ogs.tif
176
     1
290
     0
176
     1
 40
1.0
176
     1
 40
1.0
176
     1
  0
VISUALSTYLE
  5
30
102
{ACAD_REACTORS
330
29
102
}
330
29
100
AcDbVisualStyle
  2
Wireframe
 70
     5
177
     3
291
     0
 70
    58
 90
        0
176
     1
 90
        2
176
     1
 90
        0
176
     1
 90
        0
176
     1
 40
0.6
176
     1
 40
30.0
176
     1
 62
     7
420
 16777215
176
     1
 90
        1
176
     1
 90
        4
176
     1
 62
     7
176
     1
 62
   257
176
     1
 90
        1
176
     1
 90
        1
176
     1
 40
1.0
176
     1
 90
        0
176
     1
 62
   257
176
     1
 40
1.0
176
     1
 90
        1
176
     1
 90
        6
176
     1
 90
        2
176
     1
 62
     7
176
     1
 90
        3
176
     1
 90
        0
176
     1
 90
        0
176
     1
290
     0
176
     1
 90
        1
176
     1
 40
0.0
176
     1
 90
        0
176
     1
290
     0
176
     1
290
     1
176
     1
290
     1
176
     1
290
     0
176
     1
290
     0
176
     1
290
     0
176
     1
290
     0
176
     1
290
     0
176
     1
290
     0
176
     1
 90
       50
176
     1
 40
0.0
176
     1
 40
1.0
176
     1
 90
        0
176
     1
 62
    18
420
        0
176
     1
 90
       50
176
     1
 90
        3
176
     1
 62
     5
420
      255
176
     1
290
     0
176
     1
 90
       50
176
     1
 90
       50
176
     1
 90
       50
176
     1
290
     0
176
     1
 90
       50
176
     1
 62
   256
176
     0
 40
1.0
176
     0
 90
        2
176
     1
  1
strokes_ogs.tif
176
     1
290
     0
176
     1
 40
1.0
176
     1
 40
1.0
176
     1
  0
VISUALSTYLE
  5
3C
102
{ACAD_REACTORS
330
29
102
}
330
29
100
AcDbVisualStyle
  2
X-Ray
 70
    25
177
     3
291
     0
 70
    58
 90
        2
176
     1
 90
        2
176
     1
 90
        1
176
     1
 90
        1
176
     1
 40
0.5
176
     1
 40
30.0
176
     1
 62
     7
420
 16777215
176
     1
 90
        1
176
     1
 90
        0
176
     1
 62
     7
176
     1
 62
   257
176
     1
 90
        1
176
     1
 90
        1
176
     1
 40
1.0
176
     1
 90
        8
176
     1
 62
     7
176
     1
 40
1.0
176
     1
 90
        1
176
     1
 90
        6
176
     1
 90
        2
176
     1
 62
     7
176
     1
 90
        3
176
     1
 90
        0
176
     1
 90
        0
176
     1
290
     0
176
     1
 90
       13
176
     1
 40
0.0
176
     1
 90
        0
176
     1
290
     0
176
     1
290
     1
176
     1
290
     1
176
     1
290
     0
176
     1
290
     0
176
     1
290
     0
176
     1
290
     0
176
     1
290
     0
176
     1
290
     0
176
     1
 90
       50
176
     1
 40
0.0
176
     1
 40
1.0
176
     1
 90
        0
176
     1
 62
    18
420
        0
176
     1
 90
       50
176
     1
 90
        3
176
     1
 62
     5
420
      255
176
     1
290
     0
176
     1
 90
       50
176
     1
 90
       50
176
     1
 90
       50
176
     1
290
     0
176
     1
 90
       50
176
     1
 62
   256
176
     0
 40
1.0
176
     0
 90
        2
176
     1
  1
strokes_ogs.tif
176
     1
290
     0
176
     1
 40
1.0
176
     1
 40
1.0
176
     1
  0
DICTIONARYVAR
  5
81
102
{ACAD_REACTORS
330
7C
102
}
330
7C
100
DictionaryVariables
280
     0
  1
1:1
  0
DICTIONARYVAR
  5
7E
102
{ACAD_REACTORS
330
7C
102
}
330
7C
100
DictionaryVariables
280
     0
  1
STANDARD
  0
DICTIONARYVAR
  5
7D
102
{ACAD_REACTORS
330
7C
102
}
330
7C
100
DictionaryVariables
280
     0
  1
STANDARD
  0
DICTIONARYVAR
  5
7F
102
{ACAD_REACTORS
330
7C
102
}
330
7C
100
DictionaryVariables
280
     0
  1
Imperial24
  0
DICTIONARYVAR
  5
80
102
{ACAD_REACTORS
330
7C
102
}
330
7C
100
DictionaryVariables
280
     0
  1
Imperial24
  0
XRECORD
  5
2C1
102
{ACAD_REACTORS
330
2BD
102
}
330
2BD
100
AcDbXrecord
280
     1
  1
BUILDING_ID
  1
Progetto per messa in tavola DXF, DWG
  1
FLOOR_ID
  1
694395
  0
XRECORD
  5
2BF
102
{ACAD_REACTORS
330
2BD
102
}
330
2BD
100
AcDbXrecord
280
     1
  1
-2001160
  1
Apparecchi idraulici
  0
XRECORD
  5
2C0
102
{ACAD_REACTORS
330
2BD
102
}
330
2BD
100
AcDbXrecord
280
     1
  1
790271
  1
Body
  0
XRECORD
  5
2BE
102
{ACAD_REACTORS
330
2BD
102
}
330
2BD
100
AcDbXrecord
280
     1
  1
859151
  1
Automatic flow rate regulator valve_Caleffi_121 DN15 : 1/2''
  0
DICTIONARY
  5
1A
330
19
100
AcDbDictionary
280
     1
281
     1
  3
BUMPTILE
360
1C
  3
DIFFUSETILE
360
1B
  3
OPACITYTILE
360
1F
  3
REFLECTIONTILE
360
1E
  3
REFRACTIONTILE
360
20
  3
SPECULARTILE
360
1D
  0
DICTIONARY
  5
12
330
11
100
AcDbDictionary
280
     1
281
     1
  3
BUMPTILE
360
14
  3
DIFFUSETILE
360
13
  3
OPACITYTILE
360
17
  3
REFLECTIONTILE
360
16
  3
REFRACTIONTILE
360
18
  3
SPECULARTILE
360
15
  0
DICTIONARY
  5
22
330
21
100
AcDbDictionary
280
     1
281
     1
  3
BUMPTILE
360
24
  3
DIFFUSETILE
360
23
  3
OPACITYTILE
360
27
  3
REFLECTIONTILE
360
26
  3
REFRACTIONTILE
360
28
  3
SPECULARTILE
360
25
  0
DICTIONARY
  5
2C4
330
65
100
AcDbDictionary
280
     1
281
     1
  3
ACAD_ROUNDTRIP_2008_TABLESTYLE_CELLSTYLEMAP
360
2C5
  0
XRECORD
  5
1C
102
{ACAD_REACTORS
330
1A
102
}
330
1A
100
AcDbXrecord
280
     1
270
     1
271
     1
  0
XRECORD
  5
1B
102
{ACAD_REACTORS
330
1A
102
}
330
1A
100
AcDbXrecord
280
     1
270
     1
271
     1
  0
XRECORD
  5
1F
102
{ACAD_REACTORS
330
1A
102
}
330
1A
100
AcDbXrecord
280
     1
270
     1
271
     1
  0
XRECORD
  5
1E
102
{ACAD_REACTORS
330
1A
102
}
330
1A
100
AcDbXrecord
280
     1
270
     1
271
     1
  0
XRECORD
  5
20
102
{ACAD_REACTORS
330
1A
102
}
330
1A
100
AcDbXrecord
280
     1
270
     1
271
     1
  0
XRECORD
  5
1D
102
{ACAD_REACTORS
330
1A
102
}
330
1A
100
AcDbXrecord
280
     1
270
     1
271
     1
  0
XRECORD
  5
14
102
{ACAD_REACTORS
330
12
102
}
330
12
100
AcDbXrecord
280
     1
270
     1
271
     1
  0
XRECORD
  5
13
102
{ACAD_REACTORS
330
12
102
}
330
12
100
AcDbXrecord
280
     1
270
     1
271
     1
  0
XRECORD
  5
17
102
{ACAD_REACTORS
330
12
102
}
330
12
100
AcDbXrecord
280
     1
270
     1
271
     1
  0
XRECORD
  5
16
102
{ACAD_REACTORS
330
12
102
}
330
12
100
AcDbXrecord
280
     1
270
     1
271
     1
  0
XRECORD
  5
18
102
{ACAD_REACTORS
330
12
102
}
330
12
100
AcDbXrecord
280
     1
270
     1
271
     1
  0
XRECORD
  5
15
102
{ACAD_REACTORS
330
12
102
}
330
12
100
AcDbXrecord
280
     1
270
     1
271
     1
  0
XRECORD
  5
24
102
{ACAD_REACTORS
330
22
102
}
330
22
100
AcDbXrecord
280
     1
270
     1
271
     1
  0
XRECORD
  5
23
102
{ACAD_REACTORS
330
22
102
}
330
22
100
AcDbXrecord
280
     1
270
     1
271
     1
  0
XRECORD
  5
27
102
{ACAD_REACTORS
330
22
102
}
330
22
100
AcDbXrecord
280
     1
270
     1
271
     1
  0
XRECORD
  5
26
102
{ACAD_REACTORS
330
22
102
}
330
22
100
AcDbXrecord
280
     1
270
     1
271
     1
  0
XRECORD
  5
28
102
{ACAD_REACTORS
330
22
102
}
330
22
100
AcDbXrecord
280
     1
270
     1
271
     1
  0
XRECORD
  5
25
102
{ACAD_REACTORS
330
22
102
}
330
22
100
AcDbXrecord
280
     1
270
     1
271
     1
  0
CELLSTYLEMAP
  5
2C5
102
{ACAD_REACTORS
330
2C4
102
}
330
2C4
100
AcDbCellStyleMap
 90
        3
300
CELLSTYLE
  1
TABLEFORMAT_BEGIN
 90
        5
170
     1
 91
        0
 92
    32768
 62
   257
 93
        1
300
CONTENTFORMAT
  1
CONTENTFORMAT_BEGIN
 90
        0
 91
        0
 92
      512
 93
        0
300

 40
0.0
140
1.0
 94
        5
 62
     0
340
55
144
0.25
309
CONTENTFORMAT_END
171
     0
 94
        0
309
TABLEFORMAT_END
  1
CELLSTYLE_BEGIN
 90
        1
 91
        1
300
_TITLE
309
CELLSTYLE_END
300
CELLSTYLE
  1
TABLEFORMAT_BEGIN
 90
        5
170
     1
 91
        0
 92
        0
 62
   257
 93
        1
300
CONTENTFORMAT
  1
CONTENTFORMAT_BEGIN
 90
        0
 91
        0
 92
      512
 93
        0
300

 40
0.0
140
1.0
 94
        5
 62
     0
340
55
144
0.18
309
CONTENTFORMAT_END
171
     0
 94
        0
309
TABLEFORMAT_END
  1
CELLSTYLE_BEGIN
 90
        2
 91
        1
300
_HEADER
309
CELLSTYLE_END
300
CELLSTYLE
  1
TABLEFORMAT_BEGIN
 90
        5
170
     1
 91
        0
 92
        0
 62
   257
 93
        1
300
CONTENTFORMAT
  1
CONTENTFORMAT_BEGIN
 90
        0
 91
        0
 92
      512
 93
        0
300

 40
0.0
140
1.0
 94
        2
 62
     0
340
55
144
0.18
309
CONTENTFORMAT_END
171
     0
 94
        0
309
TABLEFORMAT_END
  1
CELLSTYLE_BEGIN
 90
        3
 91
        2
300
_DATA
309
CELLSTYLE_END
  0
ENDSEC
  0
EOF
