  0
SECTION
  2
HEADER
  9
$ACADVER
  1
AC1027
  9
$ACADMAINTVER
 70
    20
  9
$DWGCODEPAGE
  3
ANSI_1252
  9
$REQUIREDVERSIONS
160
                 0
  9
$INSBASE
 10
0.0
 20
0.0
 30
0.0
  9
$EXTMIN
 10
485.6664074432006
 20
914.8396287300537
 30
-0.00000001
  9
$EXTMAX
 10
1634.6143539531
 20
2493.001484375052
 30
0.00000001
  9
$LIMMIN
 10
0.0
 20
0.0
  9
$LIMMAX
 10
12.0
 20
9.0
  9
$ORTHOMODE
 70
     0
  9
$REGENMODE
 70
     1
  9
$FILLMODE
 70
     1
  9
$QTEXTMODE
 70
     0
  9
$MIRRTEXT
 70
     0
  9
$LTSCALE
 40
1.0
  9
$ATTMODE
 70
     1
  9
$TEXTSIZE
 40
0.2
  9
$TRACEWID
 40
0.05
  9
$TEXTSTYLE
  7
Standard
  9
$CLAYER
  8
0
  9
$CELTYPE
  6
ByLayer
  9
$CECOLOR
 62
   256
  9
$CELTSCALE
 40
1.0
  9
$DISPSILH
 70
     0
  9
$DIMSCALE
 40
1.0
  9
$DIMASZ
 40
0.18
  9
$DIMEXO
 40
0.0625
  9
$DIMDLI
 40
0.38
  9
$DIMRND
 40
0.0
  9
$DIMDLE
 40
0.0
  9
$DIMEXE
 40
0.18
  9
$DIMTP
 40
0.0
  9
$DIMTM
 40
0.0
  9
$DIMTXT
 40
0.18
  9
$DIMCEN
 40
0.09
  9
$DIMTSZ
 40
0.0
  9
$DIMTOL
 70
     0
  9
$DIMLIM
 70
     0
  9
$DIMTIH
 70
     1
  9
$DIMTOH
 70
     1
  9
$DIMSE1
 70
     0
  9
$DIMSE2
 70
     0
  9
$DIMTAD
 70
     0
  9
$DIMZIN
 70
     0
  9
$DIMBLK
  1

  9
$DIMASO
 70
     1
  9
$DIMSHO
 70
     1
  9
$DIMPOST
  1

  9
$DIMAPOST
  1

  9
$DIMALT
 70
     0
  9
$DIMALTD
 70
     2
  9
$DIMALTF
 40
25.4
  9
$DIMLFAC
 40
1.0
  9
$DIMTOFL
 70
     0
  9
$DIMTVP
 40
0.0
  9
$DIMTIX
 70
     0
  9
$DIMSOXD
 70
     0
  9
$DIMSAH
 70
     0
  9
$DIMBLK1
  1

  9
$DIMBLK2
  1

  9
$DIMSTYLE
  2
Standard
  9
$DIMCLRD
 70
     0
  9
$DIMCLRE
 70
     0
  9
$DIMCLRT
 70
     0
  9
$DIMTFAC
 40
1.0
  9
$DIMGAP
 40
0.09
  9
$DIMJUST
 70
     0
  9
$DIMSD1
 70
     0
  9
$DIMSD2
 70
     0
  9
$DIMTOLJ
 70
     1
  9
$DIMTZIN
 70
     0
  9
$DIMALTZ
 70
     0
  9
$DIMALTTZ
 70
     0
  9
$DIMUPT
 70
     0
  9
$DIMDEC
 70
     4
  9
$DIMTDEC
 70
     4
  9
$DIMALTU
 70
     2
  9
$DIMALTTD
 70
     2
  9
$DIMTXSTY
  7
Standard
  9
$DIMAUNIT
 70
     0
  9
$DIMADEC
 70
     0
  9
$DIMALTRND
 40
0.0
  9
$DIMAZIN
 70
     0
  9
$DIMDSEP
 70
    46
  9
$DIMATFIT
 70
     3
  9
$DIMFRAC
 70
     0
  9
$DIMLDRBLK
  1

  9
$DIMLUNIT
 70
     2
  9
$DIMLWD
 70
    -2
  9
$DIMLWE
 70
    -2
  9
$DIMTMOVE
 70
     0
  9
$DIMFXL
 40
1.0
  9
$DIMFXLON
 70
     0
  9
$DIMJOGANG
 40
0.7853981633974483
  9
$DIMTFILL
 70
     0
  9
$DIMTFILLCLR
 70
     0
  9
$DIMARCSYM
 70
     0
  9
$DIMLTYPE
  6

  9
$DIMLTEX1
  6

  9
$DIMLTEX2
  6

  9
$DIMTXTDIRECTION
 70
     0
  9
$LUNITS
 70
     2
  9
$LUPREC
 70
     4
  9
$SKETCHINC
 40
0.1
  9
$FILLETRAD
 40
0.0
  9
$AUNITS
 70
     0
  9
$AUPREC
 70
     0
  9
$MENU
  1
.
  9
$ELEVATION
 40
0.0
  9
$PELEVATION
 40
0.0
  9
$THICKNESS
 40
0.0
  9
$LIMCHECK
 70
     0
  9
$CHAMFERA
 40
0.0
  9
$CHAMFERB
 40
0.0
  9
$CHAMFERC
 40
0.0
  9
$CHAMFERD
 40
0.0
  9
$SKPOLY
 70
     0
  9
$TDCREATE
 40
2457548.659485648
  9
$TDUCREATE
 40
2457548.576152315
  9
$TDUPDATE
 40
2457548.659485648
  9
$TDUUPDATE
 40
2457548.576152315
  9
$TDINDWG
 40
0.0000308912
  9
$TDUSRTIMER
 40
0.0000308912
  9
$USRTIMER
 70
     1
  9
$ANGBASE
 50
0.0
  9
$ANGDIR
 70
     0
  9
$PDMODE
 70
     0
  9
$PDSIZE
 40
0.0
  9
$PLINEWID
 40
0.0
  9
$SPLFRAME
 70
     0
  9
$SPLINETYPE
 70
     6
  9
$SPLINESEGS
 70
     8
  9
$HANDSEED
  5
28F
  9
$SURFTAB1
 70
     6
  9
$SURFTAB2
 70
     6
  9
$SURFTYPE
 70
     6
  9
$SURFU
 70
     6
  9
$SURFV
 70
     6
  9
$UCSBASE
  2

  9
$UCSNAME
  2

  9
$UCSORG
 10
0.0
 20
0.0
 30
0.0
  9
$UCSXDIR
 10
1.0
 20
0.0
 30
0.0
  9
$UCSYDIR
 10
0.0
 20
1.0
 30
0.0
  9
$UCSORTHOREF
  2

  9
$UCSORTHOVIEW
 70
     0
  9
$UCSORGTOP
 10
0.0
 20
0.0
 30
0.0
  9
$UCSORGBOTTOM
 10
0.0
 20
0.0
 30
0.0
  9
$UCSORGLEFT
 10
0.0
 20
0.0
 30
0.0
  9
$UCSORGRIGHT
 10
0.0
 20
0.0
 30
0.0
  9
$UCSORGFRONT
 10
0.0
 20
0.0
 30
0.0
  9
$UCSORGBACK
 10
0.0
 20
0.0
 30
0.0
  9
$PUCSBASE
  2

  9
$PUCSNAME
  2

  9
$PUCSORG
 10
0.0
 20
0.0
 30
0.0
  9
$PUCSXDIR
 10
1.0
 20
0.0
 30
0.0
  9
$PUCSYDIR
 10
0.0
 20
1.0
 30
0.0
  9
$PUCSORTHOREF
  2

  9
$PUCSORTHOVIEW
 70
     0
  9
$PUCSORGTOP
 10
0.0
 20
0.0
 30
0.0
  9
$PUCSORGBOTTOM
 10
0.0
 20
0.0
 30
0.0
  9
$PUCSORGLEFT
 10
0.0
 20
0.0
 30
0.0
  9
$PUCSORGRIGHT
 10
0.0
 20
0.0
 30
0.0
  9
$PUCSORGFRONT
 10
0.0
 20
0.0
 30
0.0
  9
$PUCSORGBACK
 10
0.0
 20
0.0
 30
0.0
  9
$USERI1
 70
     0
  9
$USERI2
 70
     0
  9
$USERI3
 70
     0
  9
$USERI4
 70
     0
  9
$USERI5
 70
     0
  9
$USERR1
 40
0.0
  9
$USERR2
 40
0.0
  9
$USERR3
 40
0.0
  9
$USERR4
 40
0.0
  9
$USERR5
 40
0.0
  9
$WORLDVIEW
 70
     1
  9
$SHADEDGE
 70
     3
  9
$SHADEDIF
 70
    70
  9
$TILEMODE
 70
     1
  9
$MAXACTVP
 70
    64
  9
$PINSBASE
 10
0.0
 20
0.0
 30
0.0
  9
$PLIMCHECK
 70
     0
  9
$PEXTMIN
 10
1.000000000000000E+20
 20
1.000000000000000E+20
 30
1.000000000000000E+20
  9
$PEXTMAX
 10
-1.000000000000000E+20
 20
-1.000000000000000E+20
 30
-1.000000000000000E+20
  9
$PLIMMIN
 10
0.0
 20
0.0
  9
$PLIMMAX
 10
12.0
 20
9.0
  9
$UNITMODE
 70
     0
  9
$VISRETAIN
 70
     1
  9
$PLINEGEN
 70
     0
  9
$PSLTSCALE
 70
     1
  9
$TREEDEPTH
 70
  3020
  9
$CMLSTYLE
  2
Standard
  9
$CMLJUST
 70
     0
  9
$CMLSCALE
 40
1.0
  9
$PROXYGRAPHICS
 70
     1
  9
$MEASUREMENT
 70
     1
  9
$CELWEIGHT
370
    -1
  9
$ENDCAPS
280
     0
  9
$JOINSTYLE
280
     0
  9
$LWDISPLAY
290
     0
  9
$INSUNITS
 70
     4
  9
$HYPERLINKBASE
  1

  9
$STYLESHEET
  1

  9
$XEDIT
290
     1
  9
$CEPSNTYPE
380
     0
  9
$PSTYLEMODE
290
     1
  9
$FINGERPRINTGUID
  2
{8F31FB0C-8FBE-4198-A804-5331C9BD1889}
  9
$VERSIONGUID
  2
{43C23674-0215-47BE-B0CC-3CD1D7099270}
  9
$EXTNAMES
290
     1
  9
$PSVPSCALE
 40
0.0
  9
$OLESTARTUP
290
     0
  9
$SORTENTS
280
   127
  9
$INDEXCTL
280
     0
  9
$HIDETEXT
280
     1
  9
$XCLIPFRAME
280
     2
  9
$HALOGAP
280
     0
  9
$OBSCOLOR
 70
   257
  9
$OBSLTYPE
280
     0
  9
$INTERSECTIONDISPLAY
280
     0
  9
$INTERSECTIONCOLOR
 70
   257
  9
$DIMASSOC
280
     2
  9
$PROJECTNAME
  1

  9
$CAMERADISPLAY
290
     0
  9
$LENSLENGTH
 40
50.0
  9
$CAMERAHEIGHT
 40
0.0
  9
$STEPSPERSEC
 40
2.0
  9
$STEPSIZE
 40
6.0
  9
$3DDWFPREC
 40
2.0
  9
$PSOLWIDTH
 40
0.25
  9
$PSOLHEIGHT
 40
4.0
  9
$LOFTANG1
 40
1.570796326794896
  9
$LOFTANG2
 40
1.570796326794896
  9
$LOFTMAG1
 40
0.0
  9
$LOFTMAG2
 40
0.0
  9
$LOFTPARAM
 70
     7
  9
$LOFTNORMALS
280
     1
  9
$LATITUDE
 40
37.795
  9
$LONGITUDE
 40
-122.394
  9
$NORTHDIRECTION
 40
0.0
  9
$TIMEZONE
 70
 -8000
  9
$LIGHTGLYPHDISPLAY
280
     1
  9
$TILEMODELIGHTSYNCH
280
     1
  9
$CMATERIAL
347
11
  9
$SOLIDHIST
280
     0
  9
$SHOWHIST
280
     1
  9
$DWFFRAME
280
     2
  9
$DGNFRAME
280
     0
  9
$REALWORLDSCALE
290
     1
  9
$INTERFERECOLOR
 62
     1
  9
$INTERFEREOBJVS
345
33
  9
$INTERFEREVPVS
346
30
  9
$CSHADOW
280
     0
  9
$SHADOWPLANELOCATION
 40
0.0
  0
ENDSEC
  0
SECTION
  2
CLASSES
  0
CLASS
  1
ACDBDICTIONARYWDFLT
  2
AcDbDictionaryWithDefault
  3
ObjectDBX Classes
 90
        0
 91
        1
280
     0
281
     0
  0
CLASS
  1
MATERIAL
  2
AcDbMaterial
  3
ObjectDBX Classes
 90
     1153
 91
        3
280
     0
281
     0
  0
CLASS
  1
VISUALSTYLE
  2
AcDbVisualStyle
  3
ObjectDBX Classes
 90
     4095
 91
       24
280
     0
281
     0
  0
CLASS
  1
SCALE
  2
AcDbScale
  3
ObjectDBX Classes
 90
     1153
 91
       17
280
     0
281
     0
  0
CLASS
  1
TABLESTYLE
  2
AcDbTableStyle
  3
ObjectDBX Classes
 90
     4095
 91
        1
280
     0
281
     0
  0
CLASS
  1
MLEADERSTYLE
  2
AcDbMLeaderStyle
  3
ACDB_MLEADERSTYLE_CLASS
 90
     4095
 91
        1
280
     0
281
     0
  0
CLASS
  1
ACDBSECTIONVIEWSTYLE
  2
AcDbSectionViewStyle
  3
ObjectDBX Classes
 90
     1025
 91
        1
280
     0
281
     0
  0
CLASS
  1
ACDBDETAILVIEWSTYLE
  2
AcDbDetailViewStyle
  3
ObjectDBX Classes
 90
     1025
 91
        1
280
     0
281
     0
  0
CLASS
  1
RASTERVARIABLES
  2
AcDbRasterVariables
  3
ISM
 90
        0
 91
        1
280
     0
281
     0
  0
CLASS
  1
DICTIONARYVAR
  2
AcDbDictionaryVar
  3
ObjectDBX Classes
 90
        0
 91
        5
280
     0
281
     0
  0
CLASS
  1
CELLSTYLEMAP
  2
AcDbCellStyleMap
  3
ObjectDBX Classes
 90
     1152
 91
        2
280
     0
281
     0
  0
CLASS
  1
SORTENTSTABLE
  2
AcDbSortentsTable
  3
ObjectDBX Classes
 90
        0
 91
        1
280
     0
281
     0
  0
ENDSEC
  0
SECTION
  2
TABLES
  0
TABLE
  2
VPORT
  5
8
330
0
100
AcDbSymbolTable
 70
     1
  0
VPORT
  5
57
330
8
100
AcDbSymbolTableRecord
100
AcDbViewportTableRecord
  2
*Active
 70
     0
 10
0.0
 20
0.0
 11
1.0
 21
1.0
 12
1060.14038069815
 22
1703.920556552553
 13
0.0
 23
0.0
 14
1.0
 24
1.0
 15
0.0
 25
0.0
 16
0.0
 26
0.0
 36
1.0
 17
0.0
 27
0.0
 37
0.0
 40
1578.161855644998
 41
0.7280292210841215
 42
50.0
 43
0.0
 44
0.0
 50
0.0
 51
0.0
 71
     0
 72
  1000
 73
     1
 74
     1
 75
     0
 76
     0
 77
     0
 78
     0
281
     0
 65
     1
110
0.0
120
0.0
130
0.0
111
1.0
121
0.0
131
0.0
112
0.0
122
1.0
132
0.0
 79
     0
146
0.0
 60
     3
 61
     5
292
     1
282
     1
141
0.0
142
0.0
 63
   250
421
  3355443
  0
ENDTAB
  0
TABLE
  2
LTYPE
  5
5
330
0
100
AcDbSymbolTable
 70
     3
  0
LTYPE
  5
5B
330
5
100
AcDbSymbolTableRecord
100
AcDbLinetypeTableRecord
  2
ByBlock
 70
     0
  3

 72
    65
 73
     0
 40
0.0
  0
LTYPE
  5
5C
330
5
100
AcDbSymbolTableRecord
100
AcDbLinetypeTableRecord
  2
ByLayer
 70
     0
  3

 72
    65
 73
     0
 40
0.0
  0
LTYPE
  5
5D
330
5
100
AcDbSymbolTableRecord
100
AcDbLinetypeTableRecord
  2
Continuous
 70
     0
  3
Solid line
 72
    65
 73
     0
 40
0.0
  0
LTYPE
  5
69
330
5
100
AcDbSymbolTableRecord
100
AcDbLinetypeTableRecord
  2
PHANTOM2
 70
     0
  3
___ _ _ ___ _ _ ___ _ _ ___ _ _
 72
    65
 73
     6
 40
1.25
 49
0.625
 74
     0
 49
-0.125
 74
     0
 49
0.125
 74
     0
 49
-0.125
 74
     0
 49
0.125
 74
     0
 49
-0.125
 74
     0
  0
LTYPE
  5
86
330
5
100
AcDbSymbolTableRecord
100
AcDbLinetypeTableRecord
  2
Nascosto 1_5 mm
 70
     0
  3

 72
    65
 73
     2
 40
2.2
 49
1.5
 74
     0
 49
-0.7000000000000001
 74
     0
  0
ENDTAB
  0
TABLE
  2
LAYER
  5
2
330
0
100
AcDbSymbolTable
 70
     4
  0
LAYER
  5
54
330
2
100
AcDbSymbolTableRecord
100
AcDbLayerTableRecord
  2
0
 70
     0
 62
     7
  6
Continuous
370
    -3
390
F
347
21
348
0
  0
LAYER
  5
85
330
2
100
AcDbSymbolTableRecord
100
AcDbLayerTableRecord
  2
P-SANR-FIXT
 70
     0
 62
     6
  6
Continuous
370
    18
390
F
347
21
348
0
  0
LAYER
  5
88
330
2
100
AcDbSymbolTableRecord
100
AcDbLayerTableRecord
  2
M-PIPE
 70
     0
 62
     3
  6
Continuous
370
    18
390
F
347
21
348
0
  0
ENDTAB
  0
TABLE
  2
STYLE
  5
3
330
0
100
AcDbSymbolTable
 70
     2
  0
STYLE
  5
55
330
3
100
AcDbSymbolTableRecord
100
AcDbTextStyleTableRecord
  2
Standard
 70
     0
 40
0.0
 41
1.0
 50
0.0
 71
     0
 42
0.2
  3
txt
  4

  0
STYLE
  5
5A
330
3
100
AcDbSymbolTableRecord
100
AcDbTextStyleTableRecord
  2
Annotative
 70
     0
 40
0.0
 41
1.0
 50
0.0
 71
     0
 42
0.2
  3
txt
  4

1001
AcadAnnotative
1000
AnnotativeData
1002
{
1070
     1
1070
     1
1002
}
  0
ENDTAB
  0
TABLE
  2
VIEW
  5
6
330
0
100
AcDbSymbolTable
 70
     0
  0
ENDTAB
  0
TABLE
  2
UCS
  5
7
330
0
100
AcDbSymbolTable
 70
     0
  0
ENDTAB
  0
TABLE
  2
APPID
  5
9
330
0
100
AcDbSymbolTable
 70
     3
  0
APPID
  5
56
330
9
100
AcDbSymbolTableRecord
100
AcDbRegAppTableRecord
  2
ACAD
 70
     0
  0
APPID
  5
5E
330
9
100
AcDbSymbolTableRecord
100
AcDbRegAppTableRecord
  2
AcadAnnotative
 70
     0
  0
APPID
  5
79
330
9
100
AcDbSymbolTableRecord
100
AcDbRegAppTableRecord
  2
REVIT
 70
     0
  0
ENDTAB
  0
TABLE
  2
DIMSTYLE
  5
A
330
0
100
AcDbSymbolTable
 70
     2
100
AcDbDimStyleTable
 71
     0
  0
DIMSTYLE
105
58
330
A
100
AcDbSymbolTableRecord
100
AcDbDimStyleTableRecord
  2
Standard
 70
     0
340
55
  0
DIMSTYLE
105
59
330
A
100
AcDbSymbolTableRecord
100
AcDbDimStyleTableRecord
  2
Annotative
 70
     0
340
55
1001
AcadAnnotative
1000
AnnotativeData
1002
{
1070
     1
1070
     1
1002
}
  0
ENDTAB
  0
TABLE
  2
BLOCK_RECORD
  5
1
330
0
100
AcDbSymbolTable
 70
     4
  0
BLOCK_RECORD
  5
71
102
{ACAD_XDICTIONARY
360
28A
102
}
330
1
100
AcDbSymbolTableRecord
100
AcDbBlockTableRecord
  2
*Model_Space
340
74
 70
     0
280
     1
281
     0
  0
BLOCK_RECORD
  5
6D
330
1
100
AcDbSymbolTableRecord
100
AcDbBlockTableRecord
  2
*Paper_Space
340
70
 70
     0
280
     1
281
     0
  0
BLOCK_RECORD
  5
75
330
1
100
AcDbSymbolTableRecord
100
AcDbBlockTableRecord
  2
*Paper_Space0
340
78
 70
     0
280
     1
281
     0
  0
BLOCK_RECORD
  5
87
330
1
100
AcDbSymbolTableRecord
100
AcDbBlockTableRecord
  2
Automatic flow rate regulator valve_Caleffi_121 DN15 - 1_2__-859151-Est - Idraulica
340
0
102
{BLKREFS
331
16E
102
}
 70
     0
280
     1
281
     0
  0
BLOCK_RECORD
  5
16F
330
1
100
AcDbSymbolTableRecord
100
AcDbBlockTableRecord
  2
Automatic flow rate regulator valve_Caleffi_121 DN15 - 1_2__-V1-Est - Idraulica
340
0
102
{BLKREFS
331
1ED
102
}
 70
     0
280
     1
281
     0
  0
BLOCK_RECORD
  5
1EE
330
1
100
AcDbSymbolTableRecord
100
AcDbBlockTableRecord
  2
Automatic flow rate regulator valve_Caleffi_121 DN15 - 1_2__-V2-Est - Idraulica
340
0
102
{BLKREFS
331
283
102
}
 70
     0
280
     1
281
     0
  0
ENDTAB
  0
ENDSEC
  0
SECTION
  2
BLOCKS
  0
BLOCK
  5
72
330
71
100
AcDbEntity
  8
0
100
AcDbBlockBegin
  2
*Model_Space
 70
     0
 10
0.0
 20
0.0
 30
0.0
  3
*Model_Space
  1

  0
ENDBLK
  5
73
330
71
100
AcDbEntity
  8
0
100
AcDbBlockEnd
  0
BLOCK
  5
6E
330
6D
100
AcDbEntity
 67
     1
  8
0
100
AcDbBlockBegin
  2
*Paper_Space
 70
     0
 10
0.0
 20
0.0
 30
0.0
  3
*Paper_Space
  1

  0
ENDBLK
  5
6F
330
6D
100
AcDbEntity
 67
     1
  8
0
100
AcDbBlockEnd
  0
BLOCK
  5
76
330
75
100
AcDbEntity
 67
     1
  8
0
100
AcDbBlockBegin
  2
*Paper_Space0
 70
     0
 10
0.0
 20
0.0
 30
0.0
  3
*Paper_Space0
  1

  0
ENDBLK
  5
77
330
75
100
AcDbEntity
 67
     1
  8
0
100
AcDbBlockEnd
  0
BLOCK
  5
16C
330
87
100
AcDbEntity
  8
0
100
AcDbBlockBegin
  2
Automatic flow rate regulator valve_Caleffi_121 DN15 - 1_2__-859151-Est - Idraulica
 70
     0
 10
0.0
 20
0.0
 30
0.0
  3
Automatic flow rate regulator valve_Caleffi_121 DN15 - 1_2__-859151-Est - Idraulica
  1

  0
ARC
  5
89
330
87
100
AcDbEntity
  8
M-PIPE
100
AcDbCircle
 10
715.6664074432009
 20
1464.999999999995
 30
0.0
 40
14.00000000000014
100
AcDbArc
 50
269.9999999999992
 51
319.9947991151398
1001
REVIT
1002
{
1070
     3
1000
790271
1002
}
  0
LINE
  5
8A
330
87
100
AcDbEntity
  8
M-PIPE
100
AcDbLine
 10
828.666407443201
 20
1455.999999999995
 30
0.0
 11
828.666407443201
 21
1473.999999999994
 31
0.0
1001
REVIT
1002
{
1070
     3
1000
790271
1002
}
  0
ARC
  5
8B
330
87
100
AcDbEntity
  8
M-PIPE
100
AcDbCircle
 10
715.6664074432009
 20
1464.999999999995
 30
0.0
 40
14.00000000000035
100
AcDbArc
 50
40.0052008848607
 51
89.99999999999932
1001
REVIT
1002
{
1070
     3
1000
790271
1002
}
  0
ARC
  5
8C
330
87
100
AcDbEntity
  8
M-PIPE
100
AcDbCircle
 10
715.6664074432009
 20
1464.999999999995
 30
0.0
 40
13.99999999999954
100
AcDbArc
 50
89.99999999999745
 51
269.999999999998
1001
REVIT
1002
{
1070
     3
1000
790271
1002
}
  0
LINE
  5
8D
330
87
100
AcDbEntity
  8
M-PIPE
100
AcDbLine
 10
726.3902127379644
 20
1455.999999999995
 30
0.0
 11
828.666407443201
 21
1455.999999999995
 31
0.0
1001
REVIT
1002
{
1070
     3
1000
790271
1002
}
  0
LINE
  5
8E
330
87
100
AcDbEntity
  8
M-PIPE
100
AcDbLine
 10
828.666407443201
 20
1473.999999999994
 30
0.0
 11
726.3902127379647
 21
1473.999999999995
 31
0.0
1001
REVIT
1002
{
1070
     3
1000
790271
1002
}
  0
LINE
  5
8F
330
87
100
AcDbEntity
  8
M-PIPE
100
AcDbLine
 10
733.3440769728483
 20
1423.999999999995
 30
0.0
 11
715.6664074431845
 21
1423.999999999995
 31
0.0
1001
REVIT
1002
{
1070
     3
1000
790271
1002
}
  0
LINE
  5
90
330
87
100
AcDbEntity
  8
M-PIPE
100
AcDbLine
 10
715.6664074431845
 20
1423.999999999995
 30
0.0
 11
697.9887379135209
 21
1423.999999999995
 31
0.0
1001
REVIT
1002
{
1070
     3
1000
790271
1002
}
  0
LINE
  5
91
330
87
100
AcDbEntity
  8
M-PIPE
100
AcDbLine
 10
697.9887379135209
 20
1423.999999999995
 30
0.0
 11
690.6664074431844
 21
1423.999999999995
 31
0.0
1001
REVIT
1002
{
1070
     3
1000
790271
1002
}
  0
LINE
  5
92
330
87
100
AcDbEntity
  8
M-PIPE
100
AcDbLine
 10
740.6664074431844
 20
1423.999999999995
 30
0.0
 11
733.3440769728483
 21
1423.999999999995
 31
0.0
1001
REVIT
1002
{
1070
     3
1000
790271
1002
}
  0
LINE
  5
93
330
87
100
AcDbEntity
  8
M-PIPE
100
AcDbLine
 10
733.3440769728483
 20
1423.999999999995
 30
0.0
 11
733.3440769728484
 21
1441.999999999995
 31
0.0
1001
REVIT
1002
{
1070
     3
1000
790271
1002
}
  0
LINE
  5
94
330
87
100
AcDbEntity
  8
M-PIPE
100
AcDbLine
 10
715.6664074431846
 20
1441.999999999995
 30
0.0
 11
715.6664074431845
 21
1423.999999999995
 31
0.0
1001
REVIT
1002
{
1070
     3
1000
790271
1002
}
  0
LINE
  5
95
330
87
100
AcDbEntity
  8
M-PIPE
100
AcDbLine
 10
697.9887379135209
 20
1441.999999999995
 30
0.0
 11
697.9887379135209
 21
1423.999999999995
 31
0.0
1001
REVIT
1002
{
1070
     3
1000
790271
1002
}
  0
LINE
  5
96
330
87
100
AcDbEntity
  8
M-PIPE
100
AcDbLine
 10
690.6664074431844
 20
1441.999999999995
 30
0.0
 11
690.6664074431844
 21
1423.999999999995
 31
0.0
1001
REVIT
1002
{
1070
     3
1000
790271
1002
}
  0
LINE
  5
97
330
87
100
AcDbEntity
  8
M-PIPE
100
AcDbLine
 10
740.6664074431845
 20
1441.999999999995
 30
0.0
 11
740.6664074431844
 21
1423.999999999995
 31
0.0
1001
REVIT
1002
{
1070
     3
1000
790271
1002
}
  0
LINE
  5
98
330
87
100
AcDbEntity
  8
M-PIPE
100
AcDbLine
 10
743.6664074432139
 20
1441.999999999995
 30
0.0
 11
743.6664074432142
 21
1455.999999999995
 31
0.0
1001
REVIT
1002
{
1070
     3
1000
790271
1002
}
  0
LINE
  5
99
330
87
100
AcDbEntity
  8
M-PIPE
100
AcDbLine
 10
743.6664074432143
 20
1473.999999999995
 30
0.0
 11
743.6664074432147
 21
1487.999999999995
 31
0.0
1001
REVIT
1002
{
1070
     3
1000
790271
1002
}
  0
LINE
  5
9A
330
87
100
AcDbEntity
  8
M-PIPE
100
AcDbLine
 10
687.6664074431901
 20
1487.999999999995
 30
0.0
 11
687.6664074431893
 21
1441.999999999996
 31
0.0
1001
REVIT
1002
{
1070
     3
1000
790271
1002
}
  0
LINE
  5
9B
330
87
100
AcDbEntity
  8
M-PIPE
100
AcDbLine
 10
743.6664074432134
 20
1487.999999999995
 30
0.0
 11
715.6664074432013
 21
1487.999999999995
 31
0.0
1001
REVIT
1002
{
1070
     3
1000
790271
1002
}
  0
LINE
  5
9C
330
87
100
AcDbEntity
  8
M-PIPE
100
AcDbLine
 10
715.6664074432013
 20
1487.999999999995
 30
0.0
 11
687.6664074431888
 21
1487.999999999995
 31
0.0
1001
REVIT
1002
{
1070
     3
1000
790271
1002
}
  0
LINE
  5
9D
330
87
100
AcDbEntity
  8
M-PIPE
100
AcDbLine
 10
715.6664074432003
 20
1441.999999999995
 30
0.0
 11
743.6664074432126
 21
1441.999999999995
 31
0.0
1001
REVIT
1002
{
1070
     3
1000
790271
1002
}
  0
LINE
  5
9E
330
87
100
AcDbEntity
  8
M-PIPE
100
AcDbLine
 10
687.666407443188
 20
1441.999999999995
 30
0.0
 11
715.6664074432003
 21
1441.999999999995
 31
0.0
1001
REVIT
1002
{
1070
     3
1000
790271
1002
}
  0
LINE
  5
9F
330
87
100
AcDbEntity
  8
M-PIPE
100
AcDbLine
 10
715.6664074431849
 20
1487.999999999995
 30
0.0
 11
715.6664074431849
 21
1505.999999999995
 31
0.0
1001
REVIT
1002
{
1070
     3
1000
790271
1002
}
  0
LINE
  5
A0
330
87
100
AcDbEntity
  8
M-PIPE
100
AcDbLine
 10
733.3440769728484
 20
1505.999999999995
 30
0.0
 11
740.6664074431846
 21
1505.999999999995
 31
0.0
1001
REVIT
1002
{
1070
     3
1000
790271
1002
}
  0
LINE
  5
A1
330
87
100
AcDbEntity
  8
M-PIPE
100
AcDbLine
 10
690.6664074431846
 20
1505.999999999995
 30
0.0
 11
697.9887379135211
 21
1505.999999999995
 31
0.0
1001
REVIT
1002
{
1070
     3
1000
790271
1002
}
  0
LINE
  5
A2
330
87
100
AcDbEntity
  8
M-PIPE
100
AcDbLine
 10
715.6664074431849
 20
1505.999999999995
 30
0.0
 11
697.9887379135211
 21
1505.999999999995
 31
0.0
1001
REVIT
1002
{
1070
     3
1000
790271
1002
}
  0
LINE
  5
A3
330
87
100
AcDbEntity
  8
M-PIPE
100
AcDbLine
 10
715.6664074431849
 20
1505.999999999995
 30
0.0
 11
733.3440769728484
 21
1505.999999999995
 31
0.0
1001
REVIT
1002
{
1070
     3
1000
790271
1002
}
  0
LINE
  5
A4
330
87
100
AcDbEntity
  8
M-PIPE
100
AcDbLine
 10
733.3440769728484
 20
1487.999999999995
 30
0.0
 11
733.3440769728484
 21
1505.999999999995
 31
0.0
1001
REVIT
1002
{
1070
     3
1000
790271
1002
}
  0
LINE
  5
A5
330
87
100
AcDbEntity
  8
M-PIPE
100
AcDbLine
 10
697.9887379135211
 20
1505.999999999995
 30
0.0
 11
697.988737913521
 21
1487.999999999995
 31
0.0
1001
REVIT
1002
{
1070
     3
1000
790271
1002
}
  0
LINE
  5
A6
330
87
100
AcDbEntity
  8
M-PIPE
100
AcDbLine
 10
690.6664074431846
 20
1505.999999999995
 30
0.0
 11
690.6664074431845
 21
1487.999999999995
 31
0.0
1001
REVIT
1002
{
1070
     3
1000
790271
1002
}
  0
LINE
  5
A7
330
87
100
AcDbEntity
  8
M-PIPE
100
AcDbLine
 10
740.6664074431846
 20
1505.999999999995
 30
0.0
 11
740.6664074431845
 21
1487.999999999995
 31
0.0
1001
REVIT
1002
{
1070
     3
1000
790271
1002
}
  0
LINE
  5
A8
330
87
100
AcDbEntity
  8
M-PIPE
100
AcDbLine
 10
715.6664074431972
 20
2483.001484374985
 30
0.0
 11
731.1664074431972
 21
2483.001484374985
 31
0.0
1001
REVIT
1002
{
1070
     3
1000
790271
1002
}
  0
LINE
  5
A9
330
87
100
AcDbEntity
  8
M-PIPE
100
AcDbLine
 10
700.1664074431971
 20
2483.001484374985
 30
0.0
 11
715.6664074431972
 21
2483.001484374985
 31
0.0
1001
REVIT
1002
{
1070
     3
1000
790271
1002
}
  0
LINE
  5
AA
330
87
100
AcDbEntity
  8
M-PIPE
100
AcDbLine
 10
715.6664074431972
 20
2483.001484374985
 30
0.0
 11
715.6664074431973
 21
2472.501484374985
 31
0.0
1001
REVIT
1002
{
1070
     3
1000
790271
1002
}
  0
LINE
  5
AB
330
87
100
AcDbEntity
  8
M-PIPE
100
AcDbLine
 10
731.1664074431972
 20
2472.501484374985
 30
0.0
 11
731.1664074431972
 21
2483.001484374985
 31
0.0
1001
REVIT
1002
{
1070
     3
1000
790271
1002
}
  0
LINE
  5
AC
330
87
100
AcDbEntity
  8
M-PIPE
100
AcDbLine
 10
700.1664074431971
 20
2472.501484374985
 30
0.0
 11
700.1664074431971
 21
2483.001484374985
 31
0.0
1001
REVIT
1002
{
1070
     3
1000
790271
1002
}
  0
LINE
  5
AD
330
87
100
AcDbEntity
  8
M-PIPE
100
AcDbLine
 10
667.1338551109592
 20
2449.001484374985
 30
0.0
 11
670.4164074431818
 21
2355.001484374986
 31
0.0
1001
REVIT
1002
{
1070
     3
1000
790271
1002
}
  0
LINE
  5
AE
330
87
100
AcDbEntity
  8
M-PIPE
100
AcDbLine
 10
760.9164074431817
 20
2355.001484374986
 30
0.0
 11
764.1989597754062
 21
2449.001484374987
 31
0.0
1001
REVIT
1002
{
1070
     3
1000
790271
1002
}
  0
LINE
  5
AF
330
87
100
AcDbEntity
  8
M-PIPE
100
AcDbLine
 10
676.9164074431983
 20
2463.001484374986
 30
0.0
 11
676.9164074431984
 21
2449.001484374985
 31
0.0
1001
REVIT
1002
{
1070
     3
1000
790271
1002
}
  0
LINE
  5
B0
330
87
100
AcDbEntity
  8
M-PIPE
100
AcDbLine
 10
754.4164074431985
 20
2449.001484374987
 30
0.0
 11
754.4164074431985
 21
2463.001484374987
 31
0.0
1001
REVIT
1002
{
1070
     3
1000
790271
1002
}
  0
LINE
  5
B1
330
87
100
AcDbEntity
  8
M-PIPE
100
AcDbLine
 10
783.166407443198
 20
2449.001484374987
 30
0.0
 11
783.1664074431979
 21
2463.001484374987
 31
0.0
1001
REVIT
1002
{
1070
     3
1000
790271
1002
}
  0
LINE
  5
B2
330
87
100
AcDbEntity
  8
M-PIPE
100
AcDbLine
 10
648.1664074431977
 20
2463.001484374986
 30
0.0
 11
648.166407443198
 21
2449.001484374985
 31
0.0
1001
REVIT
1002
{
1070
     3
1000
790271
1002
}
  0
LINE
  5
B3
330
87
100
AcDbEntity
  8
M-PIPE
100
AcDbLine
 10
689.1664074431834
 20
2472.501484374987
 30
0.0
 11
689.1664074431831
 21
2463.001484374987
 31
0.0
1001
REVIT
1002
{
1070
     3
1000
790271
1002
}
  0
LINE
  5
B4
330
87
100
AcDbEntity
  8
M-PIPE
100
AcDbLine
 10
742.1664074431832
 20
2463.001484374987
 30
0.0
 11
742.1664074431833
 21
2472.501484374986
 31
0.0
1001
REVIT
1002
{
1070
     3
1000
790271
1002
}
  0
LINE
  5
B5
330
87
100
AcDbEntity
  8
M-PIPE
100
AcDbLine
 10
704.8164074431838
 20
2493.001484375052
 30
0.0
 11
704.8164074431836
 21
2483.001484374986
 31
0.0
1001
REVIT
1002
{
1070
     3
1000
790271
1002
}
  0
LINE
  5
B6
330
87
100
AcDbEntity
  8
M-PIPE
100
AcDbLine
 10
726.5164074431833
 20
2483.001484374986
 30
0.0
 11
726.5164074431834
 21
2493.001484375052
 31
0.0
1001
REVIT
1002
{
1070
     3
1000
790271
1002
}
  0
LINE
  5
B7
330
87
100
AcDbEntity
  8
M-PIPE
100
AcDbLine
 10
715.6664074431973
 20
2335.001484374985
 30
0.0
 11
695.666407443197
 21
2335.001484374985
 31
0.0
1001
REVIT
1002
{
1070
     3
1000
790271
1002
}
  0
LINE
  5
B8
330
87
100
AcDbEntity
  8
M-PIPE
100
AcDbLine
 10
735.666407443197
 20
2335.001484374985
 30
0.0
 11
715.6664074431973
 21
2335.001484374985
 31
0.0
1001
REVIT
1002
{
1070
     3
1000
790271
1002
}
  0
LINE
  5
B9
330
87
100
AcDbEntity
  8
M-PIPE
100
AcDbLine
 10
715.6664074431972
 20
2355.001484374985
 30
0.0
 11
715.6664074431973
 21
2335.001484374985
 31
0.0
1001
REVIT
1002
{
1070
     3
1000
790271
1002
}
  0
LINE
  5
BA
330
87
100
AcDbEntity
  8
M-PIPE
100
AcDbLine
 10
735.666407443197
 20
2335.001484374985
 30
0.0
 11
735.666407443197
 21
2355.001484374985
 31
0.0
1001
REVIT
1002
{
1070
     3
1000
790271
1002
}
  0
LINE
  5
BB
330
87
100
AcDbEntity
  8
M-PIPE
100
AcDbLine
 10
695.666407443197
 20
2335.001484374985
 30
0.0
 11
695.6664074431969
 21
2355.001484374985
 31
0.0
1001
REVIT
1002
{
1070
     3
1000
790271
1002
}
  0
LINE
  5
BC
330
87
100
AcDbEntity
  8
M-PIPE
100
AcDbLine
 10
670.4164074431804
 20
2355.001484374986
 30
0.0
 11
715.6664074431811
 21
2355.001484374986
 31
0.0
1001
REVIT
1002
{
1070
     3
1000
790271
1002
}
  0
LINE
  5
BD
330
87
100
AcDbEntity
  8
M-PIPE
100
AcDbLine
 10
715.6664074431811
 20
2355.001484374986
 30
0.0
 11
760.9164074431804
 21
2355.001484374984
 31
0.0
1001
REVIT
1002
{
1070
     3
1000
790271
1002
}
  0
LINE
  5
BE
330
87
100
AcDbEntity
  8
M-PIPE
100
AcDbLine
 10
659.0359726605879
 20
2463.001484374985
 30
0.0
 11
676.8911333383515
 21
2463.001484374985
 31
0.0
1001
REVIT
1002
{
1070
     3
1000
790271
1002
}
  0
LINE
  5
BF
330
87
100
AcDbEntity
  8
M-PIPE
100
AcDbLine
 10
676.9164074431969
 20
2463.001484374985
 30
0.0
 11
695.9786399792769
 21
2463.001484374985
 31
0.0
1001
REVIT
1002
{
1070
     3
1000
790271
1002
}
  0
LINE
  5
C0
330
87
100
AcDbEntity
  8
M-PIPE
100
AcDbLine
 10
695.9786399792768
 20
2463.001484374985
 30
0.0
 11
735.3541749071161
 21
2463.001484374985
 31
0.0
1001
REVIT
1002
{
1070
     3
1000
790271
1002
}
  0
LINE
  5
C1
330
87
100
AcDbEntity
  8
M-PIPE
100
AcDbLine
 10
735.354174907117
 20
2463.001484374985
 30
0.0
 11
754.4164074431972
 21
2463.001484374985
 31
0.0
1001
REVIT
1002
{
1070
     3
1000
790271
1002
}
  0
LINE
  5
C2
330
87
100
AcDbEntity
  8
M-PIPE
100
AcDbLine
 10
754.4416815480428
 20
2463.001484374985
 30
0.0
 11
772.2968422258051
 21
2463.001484374985
 31
0.0
1001
REVIT
1002
{
1070
     3
1000
790271
1002
}
  0
LINE
  5
C3
330
87
100
AcDbEntity
  8
M-PIPE
100
AcDbLine
 10
772.2968422258052
 20
2463.001484374985
 30
0.0
 11
783.1664074431966
 21
2463.001484374985
 31
0.0
1001
REVIT
1002
{
1070
     3
1000
790271
1002
}
  0
LINE
  5
C4
330
87
100
AcDbEntity
  8
M-PIPE
100
AcDbLine
 10
648.1664074431967
 20
2463.001484374985
 30
0.0
 11
659.0359726605877
 21
2463.001484374985
 31
0.0
1001
REVIT
1002
{
1070
     3
1000
790271
1002
}
  0
LINE
  5
C5
330
87
100
AcDbEntity
  8
M-PIPE
100
AcDbLine
 10
659.0359726605878
 20
2449.001484374985
 30
0.0
 11
648.1664074431967
 21
2449.001484374985
 31
0.0
1001
REVIT
1002
{
1070
     3
1000
790271
1002
}
  0
LINE
  5
C6
330
87
100
AcDbEntity
  8
M-PIPE
100
AcDbLine
 10
783.1664074431966
 20
2449.001484374985
 30
0.0
 11
772.2968422258053
 21
2449.001484374985
 31
0.0
1001
REVIT
1002
{
1070
     3
1000
790271
1002
}
  0
LINE
  5
C7
330
87
100
AcDbEntity
  8
M-PIPE
100
AcDbLine
 10
772.2968422258052
 20
2449.001484374985
 30
0.0
 11
754.4416815480429
 21
2449.001484374985
 31
0.0
1001
REVIT
1002
{
1070
     3
1000
790271
1002
}
  0
LINE
  5
C8
330
87
100
AcDbEntity
  8
M-PIPE
100
AcDbLine
 10
754.4164074431972
 20
2449.001484374985
 30
0.0
 11
735.354174907117
 21
2449.001484374985
 31
0.0
1001
REVIT
1002
{
1070
     3
1000
790271
1002
}
  0
LINE
  5
C9
330
87
100
AcDbEntity
  8
M-PIPE
100
AcDbLine
 10
735.3541749071164
 20
2449.001484374985
 30
0.0
 11
695.9786399792772
 21
2449.001484374985
 31
0.0
1001
REVIT
1002
{
1070
     3
1000
790271
1002
}
  0
LINE
  5
CA
330
87
100
AcDbEntity
  8
M-PIPE
100
AcDbLine
 10
695.9786399792772
 20
2449.001484374985
 30
0.0
 11
676.916407443197
 21
2449.001484374985
 31
0.0
1001
REVIT
1002
{
1070
     3
1000
790271
1002
}
  0
LINE
  5
CB
330
87
100
AcDbEntity
  8
M-PIPE
100
AcDbLine
 10
676.8911333383516
 20
2449.001484374985
 30
0.0
 11
659.035972660588
 21
2449.001484374985
 31
0.0
1001
REVIT
1002
{
1070
     3
1000
790271
1002
}
  0
LINE
  5
CC
330
87
100
AcDbEntity
  8
M-PIPE
100
AcDbLine
 10
659.035972660588
 20
2463.001484374985
 30
0.0
 11
659.035972660588
 21
2449.001484374985
 31
0.0
1001
REVIT
1002
{
1070
     3
1000
790271
1002
}
  0
LINE
  5
CD
330
87
100
AcDbEntity
  8
M-PIPE
100
AcDbLine
 10
695.9786399792768
 20
2449.001484374985
 30
0.0
 11
695.9786399792768
 21
2463.001484374985
 31
0.0
1001
REVIT
1002
{
1070
     3
1000
790271
1002
}
  0
LINE
  5
CE
330
87
100
AcDbEntity
  8
M-PIPE
100
AcDbLine
 10
735.354174907117
 20
2449.001484374985
 30
0.0
 11
735.354174907117
 21
2463.001484374985
 31
0.0
1001
REVIT
1002
{
1070
     3
1000
790271
1002
}
  0
LINE
  5
CF
330
87
100
AcDbEntity
  8
M-PIPE
100
AcDbLine
 10
772.2968422258052
 20
2449.001484374985
 30
0.0
 11
772.2968422258052
 21
2463.001484374985
 31
0.0
1001
REVIT
1002
{
1070
     3
1000
790271
1002
}
  0
LINE
  5
D0
330
87
100
AcDbEntity
  8
M-PIPE
100
AcDbLine
 10
715.6664074431827
 20
2472.501484374985
 30
0.0
 11
689.166407443182
 21
2472.501484374985
 31
0.0
1001
REVIT
1002
{
1070
     3
1000
790271
1002
}
  0
LINE
  5
D1
330
87
100
AcDbEntity
  8
M-PIPE
100
AcDbLine
 10
742.166407443182
 20
2472.501484374985
 30
0.0
 11
715.6664074431827
 21
2472.501484374985
 31
0.0
1001
REVIT
1002
{
1070
     3
1000
790271
1002
}
  0
LINE
  5
D2
330
87
100
AcDbEntity
  8
M-PIPE
100
AcDbLine
 10
715.6664074431825
 20
2493.001484375051
 30
0.0
 11
704.8164074431825
 21
2493.001484375051
 31
0.0
1001
REVIT
1002
{
1070
     3
1000
790271
1002
}
  0
LINE
  5
D3
330
87
100
AcDbEntity
  8
M-PIPE
100
AcDbLine
 10
726.5164074431821
 20
2493.001484375051
 30
0.0
 11
715.6664074431825
 21
2493.001484375051
 31
0.0
1001
REVIT
1002
{
1070
     3
1000
790271
1002
}
  0
LINE
  5
D4
330
87
100
AcDbEntity
  8
M-PIPE
100
AcDbLine
 10
734.3195324431577
 20
2291.906249999995
 30
0.0
 11
734.3195324431577
 21
2326.136718749995
 31
0.0
1001
REVIT
1002
{
1070
     3
1000
790271
1002
}
  0
LINE
  5
D5
330
87
100
AcDbEntity
  8
M-PIPE
100
AcDbLine
 10
697.0132824431233
 20
2326.136718749995
 30
0.0
 11
697.0132824431234
 21
2320.133984374987
 31
0.0
1001
REVIT
1002
{
1070
     3
1000
790271
1002
}
  0
LINE
  5
D6
330
87
100
AcDbEntity
  8
M-PIPE
100
AcDbLine
 10
697.0132824431234
 20
2297.908984374987
 30
0.0
 11
697.0132824431234
 21
2291.906249999995
 31
0.0
1001
REVIT
1002
{
1070
     3
1000
790271
1002
}
  0
LINE
  5
D7
330
87
100
AcDbEntity
  8
M-PIPE
100
AcDbLine
 10
688.6789074430072
 20
2297.908984374987
 30
0.0
 11
697.0132824431234
 21
2297.908984374987
 31
0.0
1001
REVIT
1002
{
1070
     3
1000
790271
1002
}
  0
LINE
  5
D8
330
87
100
AcDbEntity
  8
M-PIPE
100
AcDbLine
 10
697.0132824431234
 20
2320.133984374987
 30
0.0
 11
688.6789074430072
 21
2320.133984374987
 31
0.0
1001
REVIT
1002
{
1070
     3
1000
790271
1002
}
  0
LINE
  5
D9
330
87
100
AcDbEntity
  8
M-PIPE
100
AcDbLine
 10
734.3195324431564
 20
2291.906249999994
 30
0.0
 11
715.6664074431395
 21
2291.906249999994
 31
0.0
1001
REVIT
1002
{
1070
     3
1000
790271
1002
}
  0
LINE
  5
DA
330
87
100
AcDbEntity
  8
M-PIPE
100
AcDbLine
 10
715.6664074431395
 20
2291.906249999994
 30
0.0
 11
697.013282443122
 21
2291.906249999994
 31
0.0
1001
REVIT
1002
{
1070
     3
1000
790271
1002
}
  0
SPLINE
  5
DB
330
87
100
AcDbEntity
  8
M-PIPE
100
AcDbSpline
210
0.0
220
0.0
230
1.0
 70
     8
 71
     3
 72
    27
 73
    23
 74
     0
 42
0.000000001
 43
0.0000000001
 40
0.0
 40
0.0
 40
0.0
 40
0.0
 40
0.0555555555555556
 40
0.1111111111111111
 40
0.2222222222222222
 40
0.2777777777777778
 40
0.3333333333333333
 40
0.3472222222222222
 40
0.3611111111111111
 40
0.3888888888888888
 40
0.4444444444444445
 40
0.4722222222222223
 40
0.5
 40
0.5277777777777778
 40
0.5555555555555556
 40
0.6111111111111112
 40
0.6388888888888889
 40
0.6666666666666666
 40
0.7777777777777777
 40
0.8888888888888889
 40
0.9444444444444444
 40
1.0
 40
1.0
 40
1.0
 40
1.0
 10
697.013282443122
 20
2320.133984374986
 30
0.0
 10
697.013282443122
 20
2320.120611252035
 30
0.0
 10
697.0896860016946
 20
2319.989723239826
 30
0.0
 10
697.4926632829274
 20
2319.328403129208
 30
0.0
 10
698.2288427404886
 20
2317.99116348362
 30
0.0
 10
699.0702406894051
 20
2316.207814520082
 30
0.0
 10
699.5367254216118
 20
2315.036838559446
 30
0.0
 10
699.8105525386432
 20
2314.208731597531
 30
0.0
 10
699.9901863057191
 20
2313.633339506477
 30
0.0
 10
700.2845406777738
 20
2312.579478402115
 30
0.0
 10
700.5374864841812
 20
2311.324283392154
 30
0.0
 10
700.6527238563887
 20
2310.033183396285
 30
0.0
 10
700.6835448243455
 20
2309.02327438934
 30
0.0
 10
700.6530113705159
 20
2308.013311402177
 30
0.0
 10
700.5379261182923
 20
2306.721857789348
 30
0.0
 10
700.2854541237024
 20
2305.466506329831
 30
0.0
 10
699.9474838124233
 20
2304.259120316208
 30
0.0
 10
699.4060973011722
 20
2302.570975013416
 30
0.0
 10
698.4121924632577
 20
2300.38602201948
 30
0.0
 10
697.4931091557486
 20
2298.715295681491
 30
0.0
 10
697.0896562609271
 20
2298.053060346753
 30
0.0
 10
697.013282443122
 20
2297.922263901361
 30
0.0
 10
697.013282443122
 20
2297.908984374986
 30
0.0
1001
REVIT
1002
{
1070
     3
1000
790271
1002
}
  0
LINE
  5
DC
330
87
100
AcDbEntity
  8
M-PIPE
100
AcDbLine
 10
734.3195324431563
 20
2326.136718749994
 30
0.0
 11
715.6664074431395
 21
2326.136718749994
 31
0.0
1001
REVIT
1002
{
1070
     3
1000
790271
1002
}
  0
LINE
  5
DD
330
87
100
AcDbEntity
  8
M-PIPE
100
AcDbLine
 10
715.6664074431394
 20
2326.136718749994
 30
0.0
 11
697.0132824431219
 21
2326.136718749994
 31
0.0
1001
REVIT
1002
{
1070
     3
1000
790271
1002
}
  0
LINE
  5
DE
330
87
100
AcDbEntity
  8
M-PIPE
100
AcDbLine
 10
700.7835949431696
 20
2326.136718749994
 30
0.0
 11
700.7835949431695
 21
2335.001484374987
 31
0.0
1001
REVIT
1002
{
1070
     3
1000
790271
1002
}
  0
LINE
  5
DF
330
87
100
AcDbEntity
  8
M-PIPE
100
AcDbLine
 10
730.5492199431707
 20
2335.001484374987
 30
0.0
 11
730.5492199431707
 21
2326.136718749994
 31
0.0
1001
REVIT
1002
{
1070
     3
1000
790271
1002
}
  0
LINE
  5
E0
330
87
100
AcDbEntity
  8
M-PIPE
100
AcDbLine
 10
721.8310702269263
 20
2335.001484374987
 30
0.0
 11
721.8310702269263
 21
2326.136718749994
 31
0.0
1001
REVIT
1002
{
1070
     3
1000
790271
1002
}
  0
LINE
  5
E1
330
87
100
AcDbEntity
  8
M-PIPE
100
AcDbLine
 10
709.501744659414
 20
2335.001484374987
 30
0.0
 11
709.501744659414
 21
2326.136718749994
 31
0.0
1001
REVIT
1002
{
1070
     3
1000
790271
1002
}
  0
LINE
  5
E2
330
87
100
AcDbEntity
  8
M-PIPE
100
AcDbLine
 10
732.0375011931398
 20
2279.999999999994
 30
0.0
 11
722.447536505271
 21
2279.999999999994
 31
0.0
1001
REVIT
1002
{
1070
     3
1000
790271
1002
}
  0
LINE
  5
E3
330
87
100
AcDbEntity
  8
M-PIPE
100
AcDbLine
 10
722.447536505271
 20
2279.999999999994
 30
0.0
 11
708.8852783810076
 21
2279.999999999994
 31
0.0
1001
REVIT
1002
{
1070
     3
1000
790271
1002
}
  0
LINE
  5
E4
330
87
100
AcDbEntity
  8
M-PIPE
100
AcDbLine
 10
708.8852783810076
 20
2279.999999999994
 30
0.0
 11
699.2953136931387
 21
2279.999999999994
 31
0.0
1001
REVIT
1002
{
1070
     3
1000
790271
1002
}
  0
LINE
  5
E5
330
87
100
AcDbEntity
  8
M-PIPE
100
AcDbLine
 10
732.0375011931398
 20
2291.906249999994
 30
0.0
 11
732.0375011931398
 21
2279.999999999994
 31
0.0
1001
REVIT
1002
{
1070
     3
1000
790271
1002
}
  0
LINE
  5
E6
330
87
100
AcDbEntity
  8
M-PIPE
100
AcDbLine
 10
722.447536505271
 20
2291.906249999994
 30
0.0
 11
722.447536505271
 21
2279.999999999994
 31
0.0
1001
REVIT
1002
{
1070
     3
1000
790271
1002
}
  0
LINE
  5
E7
330
87
100
AcDbEntity
  8
M-PIPE
100
AcDbLine
 10
708.8852783810076
 20
2291.906249999994
 30
0.0
 11
708.8852783810076
 21
2279.999999999994
 31
0.0
1001
REVIT
1002
{
1070
     3
1000
790271
1002
}
  0
LINE
  5
E8
330
87
100
AcDbEntity
  8
M-PIPE
100
AcDbLine
 10
699.2953136931387
 20
2291.906249999994
 30
0.0
 11
699.2953136931387
 21
2279.999999999994
 31
0.0
1001
REVIT
1002
{
1070
     3
1000
790271
1002
}
  0
LINE
  5
E9
330
87
100
AcDbEntity
  8
M-PIPE
100
AcDbLine
 10
677.4865382427671
 20
2293.940234374995
 30
0.0
 11
688.6789074430071
 21
2293.940234374995
 31
0.0
1001
REVIT
1002
{
1070
     3
1000
790271
1002
}
  0
LINE
  5
EA
330
87
100
AcDbEntity
  8
M-PIPE
100
AcDbLine
 10
688.678907443007
 20
2324.102734374979
 30
0.0
 11
677.4865382427682
 21
2324.102734374979
 31
0.0
1001
REVIT
1002
{
1070
     3
1000
790271
1002
}
  0
LINE
  5
EB
330
87
100
AcDbEntity
  8
M-PIPE
100
AcDbLine
 10
688.6789074430057
 20
2324.102734374978
 30
0.0
 11
688.6789074430057
 21
2293.940234374994
 31
0.0
1001
REVIT
1002
{
1070
     3
1000
790271
1002
}
  0
LINE
  5
EC
330
87
100
AcDbEntity
  8
M-PIPE
100
AcDbLine
 10
678.4682363520903
 20
2322.700724177046
 30
0.0
 11
660.1039074431333
 21
2322.700724177046
 31
0.0
1001
REVIT
1002
{
1070
     3
1000
790271
1002
}
  0
LINE
  5
ED
330
87
100
AcDbEntity
  8
M-PIPE
100
AcDbLine
 10
660.1039074431333
 20
2322.700724177046
 30
0.0
 11
660.1039074431334
 21
2318.765203903423
 31
0.0
1001
REVIT
1002
{
1070
     3
1000
790271
1002
}
  0
LWPOLYLINE
  5
EE
330
87
100
AcDbEntity
  8
M-PIPE
100
AcDbPolyline
 90
       11
 70
   128
 43
0.0
 10
660.1039074431334
 20
2318.765203903423
 10
662.0959474922044
 20
2315.920275877992
 10
664.3365398538472
 20
2312.72037836279
 10
666.7103973901553
 20
2309.330158454022
 10
669.0953759548554
 20
2305.924056070723
 10
671.3687591817756
 20
2302.677328346636
 10
673.4135727162392
 20
2299.757031973232
 10
675.1246029977717
 20
2297.313427487186
 10
676.4138109044839
 20
2295.472247784939
 10
677.2148617062058
 20
2294.328228679161
 10
677.4865382427659
 20
2293.940234374994
1001
REVIT
1002
{
1070
     3
1000
790271
1002
}
  0
LWPOLYLINE
  5
EF
330
87
100
AcDbEntity
  8
M-PIPE
100
AcDbPolyline
 90
        6
 70
   128
 43
0.0
 10
666.925118541058
 20
2309.021710189034
 10
666.6031454643281
 20
2308.55963867186
 10
664.7129419631473
 20
2305.860148309312
 10
662.9392639346185
 20
2303.327073568266
 10
661.3754794121724
 20
2301.093757819561
 10
660.1039074431333
 20
2299.277764846548
1001
REVIT
1002
{
1070
     3
1000
790271
1002
}
  0
LINE
  5
F0
330
87
100
AcDbEntity
  8
M-PIPE
100
AcDbLine
 10
660.1039074431333
 20
2297.115234374993
 30
0.0
 11
675.2633793089501
 21
2297.115234374993
 31
0.0
1001
REVIT
1002
{
1070
     3
1000
790271
1002
}
  0
LINE
  5
F1
330
87
100
AcDbEntity
  8
M-PIPE
100
AcDbLine
 10
660.1039074431333
 20
2299.277764846548
 30
0.0
 11
660.1039074431333
 21
2297.115234374993
 31
0.0
1001
REVIT
1002
{
1070
     3
1000
790271
1002
}
  0
LINE
  5
F2
330
87
100
AcDbEntity
  8
M-PIPE
100
AcDbLine
 10
660.1039074431967
 20
2275.683984374986
 30
0.0
 11
660.1039074431333
 21
2297.115234374993
 31
0.0
1001
REVIT
1002
{
1070
     3
1000
790271
1002
}
  0
LINE
  5
F3
330
87
100
AcDbEntity
  8
M-PIPE
100
AcDbLine
 10
660.1039074431967
 20
2275.683984374986
 30
0.0
 11
675.0930844820544
 21
2275.683984374986
 31
0.0
1001
REVIT
1002
{
1070
     3
1000
790271
1002
}
  0
LINE
  5
F4
330
87
100
AcDbEntity
  8
M-PIPE
100
AcDbLine
 10
675.0930844820544
 20
2275.683984374986
 30
0.0
 11
675.0930844820544
 21
2290.522028159015
 31
0.0
1001
REVIT
1002
{
1070
     3
1000
790271
1002
}
  0
LINE
  5
F5
330
87
100
AcDbEntity
  8
M-PIPE
100
AcDbLine
 10
675.0930844820544
 20
2290.522028159015
 30
0.0
 11
677.4865382427659
 21
2293.940234374994
 31
0.0
1001
REVIT
1002
{
1070
     3
1000
790271
1002
}
  0
LINE
  5
F6
330
87
100
AcDbEntity
  8
M-PIPE
100
AcDbLine
 10
675.093084482981
 20
2342.358984375002
 30
0.0
 11
660.1039074431963
 21
2342.358984375001
 31
0.0
1001
REVIT
1002
{
1070
     3
1000
790271
1002
}
  0
LINE
  5
F7
330
87
100
AcDbEntity
  8
M-PIPE
100
AcDbLine
 10
660.1039074431333
 20
2322.700724177046
 30
0.0
 11
660.1039074431963
 21
2342.358984375001
 31
0.0
1001
REVIT
1002
{
1070
     3
1000
790271
1002
}
  0
LINE
  5
F8
330
87
100
AcDbEntity
  8
M-PIPE
100
AcDbLine
 10
678.4682363520903
 20
2322.700724177046
 30
0.0
 11
675.093084482981
 21
2327.520940590952
 31
0.0
1001
REVIT
1002
{
1070
     3
1000
790271
1002
}
  0
LINE
  5
F9
330
87
100
AcDbEntity
  8
M-PIPE
100
AcDbLine
 10
675.093084482981
 20
2327.520940590952
 30
0.0
 11
675.093084482981
 21
2342.358984375002
 31
0.0
1001
REVIT
1002
{
1070
     3
1000
790271
1002
}
  0
LWPOLYLINE
  5
FA
330
87
100
AcDbEntity
  8
P-SANR-FIXT
100
AcDbPolyline
 90
       29
 70
   128
 43
0.0
 10
643.3418066541142
 20
1514.999999999994
 10
641.7422332866489
 20
1515.031995733555
 10
640.1452188953473
 20
1515.127931747889
 10
638.5533183625575
 20
1515.28765456584
 10
636.9690783895443
 20
1515.510908664969
 10
635.3950334223116
 20
1515.797336886344
 10
633.8337015970288
 20
1516.146481005913
 10
632.2875807115496
 20
1516.557782467564
 10
630.7591442294694
 20
1517.030583276696
 10
629.2508373231105
 20
1517.564127052877
 10
627.765072961768
 20
1518.157560239879
 10
626.3042280514741
 20
1518.809933471195
 10
624.8706396324548
 20
1519.520203088823
 10
623.4666011403646
 20
1520.287232812888
 10
622.0943587372787
 20
1521.109795559457
 10
620.7561077183128
 20
1521.986575403607
 10
619.4539889996183
 20
1522.916169684622
 10
618.1900856933753
 20
1523.897091249957
 10
616.9664197752551
 20
1524.927770834358
 10
615.7849488496919
 20
1526.006559570358
 10
614.6475630181331
 20
1527.131731626107
 10
613.5560818552797
 20
1528.301486966342
 10
612.5122514981552
 20
1529.513954232051
 10
611.5177418526593
 20
1530.767193734256
 10
610.574143922074
 20
1532.059200557096
 10
609.6829672617981
 20
1533.387907765269
 10
608.8456375643804
 20
1534.751189710683
 10
608.0634943787162
 20
1536.146865433044
 10
607.9079417112143
 20
1536.44087245562
  0
LWPOLYLINE
  5
FB
330
87
100
AcDbEntity
  8
P-SANR-FIXT
100
AcDbPolyline
 90
       29
 70
   128
 43
0.0
 10
823.4248731751886
 20
1536.440872455619
 10
822.6543627090606
 20
1535.038741111395
 10
821.8283982702244
 20
1533.668543523217
 10
820.9483012255855
 20
1532.332471714934
 10
820.0154795426719
 20
1531.032663116425
 10
819.0314255371843
 20
1529.771197144172
 10
817.9977134856112
 20
1528.550091874629
 10
816.9159971067221
 20
1527.371300815741
 10
815.7880069159693
 20
1526.23670978174
 10
814.6155474570326
 20
1525.148133876247
 10
813.4004944149349
 20
1524.107314588494
 10
812.1447916153464
 20
1523.11591700731
 10
810.8504479148772
 20
1522.17552715734
 10
809.5195339873367
 20
1521.287649461738
 10
808.1541790110948
 20
1520.453704335412
 10
806.7565672628539
 20
1519.675025912666
 10
805.32893462327
 20
1518.952859912867
 10
803.873565000021
 20
1518.288361647562
 10
802.3927866740415
 20
1517.682594172221
 10
800.8889685747709
 20
1517.136526585584
 10
799.3645164903703
 20
1516.651032479298
 10
797.821869218976
 20
1516.22688854037
 10
796.2634946671413
 20
1515.864773308621
 10
794.6918859017139
 20
1515.565266091175
 10
793.1095571614599
 20
1515.328846035688
 10
791.5190398348177
 20
1515.155891363816
 10
789.9228784102183
 20
1515.046678766139
 10
788.3236264054445
 20
1515.001382959515
 10
787.9910082322886
 20
1514.999999999994
  0
LWPOLYLINE
  5
FC
330
87
100
AcDbEntity
  8
P-SANR-FIXT
100
AcDbPolyline
 90
        5
 70
   128
 43
0.0
 10
787.9910082322892
 20
1514.999999999994
 10
787.9331562658705
 20
1514.999999999994
 10
787.7596929174196
 20
1514.999999999994
 10
787.470895691291
 20
1514.999999999994
 10
787.2385055498378
 20
1514.999999999994
  0
LWPOLYLINE
  5
FD
330
87
100
AcDbEntity
  8
P-SANR-FIXT
100
AcDbPolyline
 90
        5
 70
   128
 43
0.0
 10
644.0655953423819
 20
1514.999999999994
 10
643.7147192852708
 20
1514.999999999994
 10
643.4789505803374
 20
1514.999999999994
 10
643.3586664072152
 20
1514.999999999994
 10
643.3418066541137
 20
1514.999999999994
  0
LWPOLYLINE
  5
FE
330
87
100
AcDbEntity
  8
P-SANR-FIXT
100
AcDbPolyline
 90
       14
 70
   128
 43
0.0
 10
607.907941711215
 20
1536.440872455618
 10
603.8056029604445
 20
1544.669539660184
 10
600.035604565869
 20
1553.055674603916
 10
596.6039777206965
 20
1561.585861259849
 10
593.5162122958383
 20
1570.246453149012
 10
590.7772480572852
 20
1579.023595171874
 10
588.3914667635385
 20
1587.903245773558
 10
586.3626851557283
 20
1596.871199407324
 10
584.6941488516431
 20
1605.913109260421
 10
583.3885271534346
 20
1615.01451020592
 10
582.4479087773019
 20
1624.160841943839
 10
581.8737985119923
 20
1633.337472294509
 10
581.66711481146
 20
1642.529720606946
 10
581.6664074432012
 20
1643.099999999996
  0
LWPOLYLINE
  5
FF
330
87
100
AcDbEntity
  8
P-SANR-FIXT
100
AcDbPolyline
 90
       14
 70
   128
 43
0.0
 10
849.6664074432022
 20
1643.099999999995
 10
849.4825282700789
 20
1633.907267237684
 10
848.9311849181609
 20
1624.729240886781
 10
848.0132594191978
 20
1615.580603831573
 10
846.7302202581741
 20
1606.475991939743
 10
845.084120024047
 20
1597.429970648104
 10
843.0775921260416
 20
1588.457011661009
 10
840.7138465807586
 20
1579.571469798706
 10
837.9966648768313
 20
1570.787560032696
 10
834.9303939253518
 20
1562.119334744802
 10
831.5199391057396
 20
1553.580661246362
 10
827.7707564181806
 20
1545.185199593488
 10
823.6888437551925
 20
1536.946380733887
 10
823.4248731751881
 20
1536.440872455618
  0
LWPOLYLINE
  5
100
330
87
100
AcDbEntity
  8
P-SANR-FIXT
100
AcDbPolyline
 90
       16
 70
   128
 43
0.0
 10
581.6664074432019
 20
2133.099999999995
 10
581.5971491380952
 20
2141.747860093143
 10
581.8737683995096
 20
2150.391572414113
 10
582.4958226956359
 20
2159.017308867086
 10
583.4623168722978
 20
2167.611270113798
 10
584.7717047449874
 20
2176.159707649531
 10
586.4218915724292
 20
2184.6489457978
 10
588.4102374077212
 20
2193.065403588507
 10
590.7335613216837
 20
2201.395616484604
 10
593.3881464916711
 20
2209.626257922473
 10
596.3697461476924
 20
2217.74416063159
 10
599.6735903663386
 20
2225.736337699348
 10
603.2943937016424
 20
2233.590003347346
 10
607.2263636406646
 20
2241.292593385906
 10
611.4632098702774
 20
2248.831785314096
 10
612.5279839148248
 20
2250.621030906604
  0
LWPOLYLINE
  5
101
330
87
100
AcDbEntity
  8
P-SANR-FIXT
100
AcDbPolyline
 90
       16
 70
   128
 43
0.0
 10
818.8048309715805
 20
2250.621030906603
 10
823.1140796467999
 20
2243.122987377882
 10
827.1200396142921
 20
2235.458617498868
 10
830.8163021926679
 20
2227.64018262639
 10
834.1969541502963
 20
2219.6801905884
 10
837.2565871652119
 20
2211.591375674117
 10
839.9903064772779
 20
2203.386678261883
 10
842.3937387187574
 20
2195.079224117315
 10
844.463038910769
 20
2186.682303394882
 10
846.1948966144325
 20
2178.209349376492
 10
847.5865412268651
 20
2169.673916981108
 10
848.6357464135556
 20
2161.089661079767
 10
849.3408336700239
 20
2152.470314650702
 10
849.7006750070701
 20
2143.829666809502
 10
849.7146947553165
 20
2135.181540749473
 10
849.6664074432029
 20
2133.099999999995
  0
LWPOLYLINE
  5
102
330
87
100
AcDbEntity
  8
P-SANR-FIXT
100
AcDbPolyline
 90
       27
 70
   128
 43
0.0
 10
612.5279839148255
 20
2250.621030906605
 10
613.3800215255716
 20
2251.975169228471
 10
614.2855286869962
 20
2253.294151967356
 10
615.2430567808058
 20
2254.575869032249
 10
616.2510739663116
 20
2255.818269949262
 10
617.3079676310496
 20
2257.01936714196
 10
618.4120469706146
 20
2258.177239111056
 10
619.5615456935874
 20
2259.290033508397
 10
620.7546248472249
 20
2260.355970100332
 10
621.989375759391
 20
2261.373343615701
 10
623.2638230920259
 20
2262.340526473909
 10
624.575928001265
 20
2263.255971388702
 10
625.9235913991544
 20
2264.118213843502
 10
627.3046573117432
 20
2264.925874434318
 10
628.7169163281833
 20
2265.677661076493
 10
630.1581091353143
 20
2266.372371071776
 10
631.6259301320827
 20
2267.008893032368
 10
633.1180311180122
 20
2267.586208658918
 10
634.6320250498231
 20
2268.103394369577
 10
636.1654898601929
 20
2268.559622777536
 10
637.7159723325465
 20
2268.954164014664
 10
639.28099202568
 20
2269.286386899148
 10
640.8580452419377
 20
2269.555759945243
 10
642.4446090325936
 20
2269.761852213536
 10
644.0381452340314
 20
2269.904334000364
 10
645.636104528265
 20
2269.982977365262
 10
646.8029468520581
 20
2269.999999999995
  0
LWPOLYLINE
  5
103
330
87
100
AcDbEntity
  8
P-SANR-FIXT
100
AcDbPolyline
 90
       27
 70
   128
 43
0.0
 10
784.5298680343472
 20
2269.999999999995
 10
786.1294414018125
 20
2269.968004266434
 10
787.7264557931141
 20
2269.8720682521
 10
789.3183563259039
 20
2269.71234543415
 10
790.902596298917
 20
2269.48909133502
 10
792.4766412661496
 20
2269.202663113645
 10
794.0379730914326
 20
2268.853518994076
 10
795.5840939769118
 20
2268.442217532426
 10
797.1125304589921
 20
2267.969416723293
 10
798.6208373653509
 20
2267.435872947112
 10
800.1066017266932
 20
2266.842439760111
 10
801.5674466369873
 20
2266.190066528793
 10
803.0010350560065
 20
2265.479796911167
 10
804.4050735480967
 20
2264.712767187101
 10
805.7773159511825
 20
2263.890204440532
 10
807.1155669701486
 20
2263.013424596382
 10
808.4176856888429
 20
2262.083830315367
 10
809.6815889950859
 20
2261.102908750032
 10
810.9052549132064
 20
2260.072229165631
 10
812.0867258387693
 20
2258.993440429632
 10
813.2241116703282
 20
2257.868268373881
 10
814.3155928331816
 20
2256.698513033648
 10
815.3594231903062
 20
2255.486045767938
 10
816.3539328358021
 20
2254.232806265733
 10
817.2975307663872
 20
2252.940799442893
 10
818.1887074266631
 20
2251.61209223472
 10
818.8048309715798
 20
2250.621030906605
  0
LWPOLYLINE
  5
104
330
87
100
AcDbEntity
  8
P-SANR-FIXT
100
AcDbPolyline
 90
        5
 70
   128
 43
0.0
 10
646.8029468520578
 20
2269.999999999995
 10
646.8580302754868
 20
2269.999999999995
 10
647.0231924240464
 20
2269.999999999995
 10
647.2981690735318
 20
2269.999999999995
 10
647.5525954596173
 20
2269.999999999995
  0
LWPOLYLINE
  5
105
330
87
100
AcDbEntity
  8
P-SANR-FIXT
100
AcDbPolyline
 90
        6
 70
   128
 43
0.0
 10
783.7972027727854
 20
2269.999999999995
 10
783.8407167183763
 20
2269.999999999995
 10
784.1748013765374
 20
2269.999999999995
 10
784.3992872187498
 20
2269.999999999995
 10
784.5138151155533
 20
2269.999999999995
 10
784.5298680343473
 20
2269.999999999995
  0
ARC
  5
106
330
87
100
AcDbEntity
  8
P-SANR-FIXT
100
AcDbCircle
 10
643.3418066541126
 20
1554.999999999994
 30
0.0
 40
40.0
100
AcDbArc
 50
207.6441121972004
 51
269.9999999999999
  0
ARC
  5
107
330
87
100
AcDbEntity
  8
P-SANR-FIXT
100
AcDbCircle
 10
787.9910082322878
 20
1554.999999999994
 30
0.0
 40
39.99999999999994
100
AcDbArc
 50
269.9999999999995
 51
332.355887802799
  0
LINE
  5
108
330
87
100
AcDbEntity
  8
P-SANR-FIXT
100
AcDbLine
 10
787.9910082322873
 20
1514.999999999994
 30
0.0
 11
736.666407443203
 21
1514.999999999994
 31
0.0
  0
LINE
  5
109
330
87
100
AcDbEntity
  8
P-SANR-FIXT
100
AcDbLine
 10
694.6664074431997
 20
1514.999999999994
 30
0.0
 11
643.3418066541129
 21
1514.999999999994
 31
0.0
  0
ARC
  5
10A
330
87
100
AcDbEntity
  8
P-SANR-FIXT
100
AcDbCircle
 10
811.5460228278314
 20
1643.099999999996
 30
0.0
 40
229.8796153846315
100
AcDbArc
 50
179.9999999999999
 51
207.6441121972004
  0
ARC
  5
10B
330
87
100
AcDbEntity
  8
P-SANR-FIXT
100
AcDbCircle
 10
619.7867920585691
 20
1643.099999999997
 30
0.0
 40
229.8796153846312
100
AcDbArc
 50
332.355887802799
 51
359.9999999999996
  0
LINE
  5
10C
330
87
100
AcDbEntity
  8
P-SANR-FIXT
100
AcDbLine
 10
581.6664074432
 20
1643.099999999997
 30
0.0
 11
581.6664074432001
 21
1726.899999999994
 31
0.0
  0
LINE
  5
10D
330
87
100
AcDbEntity
  8
P-SANR-FIXT
100
AcDbLine
 10
581.6664074432002
 20
1803.099999999994
 30
0.0
 11
581.6664074432006
 21
2056.899999999994
 31
0.0
  0
LINE
  5
10E
330
87
100
AcDbEntity
  8
P-SANR-FIXT
100
AcDbLine
 10
849.6664074432013
 20
2056.899999999996
 30
0.0
 11
849.6664074432009
 21
1803.092496008951
 31
0.0
  0
LINE
  5
10F
330
87
100
AcDbEntity
  8
P-SANR-FIXT
100
AcDbLine
 10
849.6664074432008
 20
1726.899999999995
 30
0.0
 11
849.6664074432006
 21
1643.099999999996
 31
0.0
  0
ARC
  5
110
330
87
100
AcDbEntity
  8
P-SANR-FIXT
100
AcDbCircle
 10
797.7994536503026
 20
2139.155156807061
 30
0.0
 40
216.2178498337254
100
AcDbArc
 50
148.967395160098
 51
181.6047717349677
  0
ARC
  5
111
330
87
100
AcDbEntity
  8
P-SANR-FIXT
100
AcDbCircle
 10
633.5333612360996
 20
2139.155156807062
 30
0.0
 40
216.2178498337255
100
AcDbArc
 50
358.3952282650316
 51
31.03260483990212
  0
ARC
  5
112
330
87
100
AcDbEntity
  8
P-SANR-FIXT
100
AcDbCircle
 10
646.8029468520568
 20
2229.999999999994
 30
0.0
 40
40.0
100
AcDbArc
 50
89.99999999999984
 51
148.9673951600962
  0
ARC
  5
113
330
87
100
AcDbEntity
  8
P-SANR-FIXT
100
AcDbCircle
 10
784.5298680343457
 20
2229.999999999994
 30
0.0
 40
40.00000000000023
100
AcDbArc
 50
31.03260483990371
 51
90.0000000000004
  0
LINE
  5
114
330
87
100
AcDbEntity
  8
P-SANR-FIXT
100
AcDbLine
 10
646.802946852057
 20
2269.999999999994
 30
0.0
 11
702.466407443201
 21
2269.999999999994
 31
0.0
  0
LINE
  5
115
330
87
100
AcDbEntity
  8
P-SANR-FIXT
100
AcDbLine
 10
728.8664074432016
 20
2269.999999999994
 30
0.0
 11
784.5298680343456
 21
2269.999999999994
 31
0.0
  0
LINE
  5
116
330
87
100
AcDbEntity
  8
P-SANR-FIXT
100
AcDbLine
 10
859.6664074432093
 20
1841.000000000021
 30
0.0
 11
860.3914902255469
 21
1841.000000000021
 31
0.0
  0
LINE
  5
117
330
87
100
AcDbEntity
  8
P-SANR-FIXT
100
AcDbLine
 10
860.3914902255469
 20
1841.000000000021
 30
0.0
 11
867.9413246608632
 21
1841.000000000021
 31
0.0
  0
LINE
  5
118
330
87
100
AcDbEntity
  8
P-SANR-FIXT
100
AcDbLine
 10
867.9413246608632
 20
1841.000000000021
 30
0.0
 11
869.3914902255386
 21
1841.000000000021
 31
0.0
  0
LINE
  5
119
330
87
100
AcDbEntity
  8
P-SANR-FIXT
100
AcDbLine
 10
869.3914902255386
 20
1841.000000000021
 30
0.0
 11
876.9413246608552
 21
1841.000000000021
 31
0.0
  0
LINE
  5
11A
330
87
100
AcDbEntity
  8
P-SANR-FIXT
100
AcDbLine
 10
876.941324660855
 20
1841.000000000021
 30
0.0
 11
877.6664074431929
 21
1841.000000000021
 31
0.0
  0
LINE
  5
11B
330
87
100
AcDbEntity
  8
P-SANR-FIXT
100
AcDbLine
 10
859.6664074432093
 20
1837.600000000021
 30
0.0
 11
859.6664074432093
 21
1841.000000000021
 31
0.0
  0
LINE
  5
11C
330
87
100
AcDbEntity
  8
P-SANR-FIXT
100
AcDbLine
 10
860.3914902255469
 20
1837.600000000021
 30
0.0
 11
860.3914902255469
 21
1841.000000000021
 31
0.0
  0
LINE
  5
11D
330
87
100
AcDbEntity
  8
P-SANR-FIXT
100
AcDbLine
 10
867.9413246608632
 20
1837.600000000021
 30
0.0
 11
867.9413246608632
 21
1841.000000000021
 31
0.0
  0
LINE
  5
11E
330
87
100
AcDbEntity
  8
P-SANR-FIXT
100
AcDbLine
 10
869.3914902255386
 20
1837.600000000021
 30
0.0
 11
869.3914902255386
 21
1841.000000000021
 31
0.0
  0
LINE
  5
11F
330
87
100
AcDbEntity
  8
P-SANR-FIXT
100
AcDbLine
 10
876.941324660855
 20
1837.600000000021
 30
0.0
 11
876.941324660855
 21
1841.000000000021
 31
0.0
  0
LINE
  5
120
330
87
100
AcDbEntity
  8
P-SANR-FIXT
100
AcDbLine
 10
877.6664074431929
 20
1837.600000000021
 30
0.0
 11
877.6664074431929
 21
1841.000000000021
 31
0.0
  0
LINE
  5
121
330
87
100
AcDbEntity
  8
P-SANR-FIXT
100
AcDbLine
 10
856.1664074431982
 20
1837.600000000021
 30
0.0
 11
856.1664074431982
 21
1833.099999999994
 31
0.0
  0
LINE
  5
122
330
87
100
AcDbEntity
  8
P-SANR-FIXT
100
AcDbLine
 10
881.166407443206
 20
1833.099999999994
 30
0.0
 11
881.166407443206
 21
1837.600000000021
 31
0.0
  0
LINE
  5
123
330
87
100
AcDbEntity
  8
P-SANR-FIXT
100
AcDbLine
 10
856.1664074431966
 20
1837.600000000021
 30
0.0
 11
881.1664074432044
 21
1837.600000000021
 31
0.0
  0
LINE
  5
124
330
87
100
AcDbEntity
  8
P-SANR-FIXT
100
AcDbLine
 10
856.1664074431988
 20
2167.60000000002
 30
0.0
 11
856.1664074431988
 21
2163.099999999995
 31
0.0
  0
LINE
  5
125
330
87
100
AcDbEntity
  8
P-SANR-FIXT
100
AcDbLine
 10
881.1664074432068
 20
2163.099999999995
 30
0.0
 11
881.1664074432068
 21
2167.60000000002
 31
0.0
  0
LINE
  5
126
330
87
100
AcDbEntity
  8
P-SANR-FIXT
100
AcDbLine
 10
856.1664074431972
 20
2167.600000000019
 30
0.0
 11
881.1664074432052
 21
2167.600000000019
 31
0.0
  0
LINE
  5
127
330
87
100
AcDbEntity
  8
P-SANR-FIXT
100
AcDbLine
 10
859.6664074432093
 20
2171.900000000017
 30
0.0
 11
860.3914902255469
 21
2171.900000000017
 31
0.0
  0
LINE
  5
128
330
87
100
AcDbEntity
  8
P-SANR-FIXT
100
AcDbLine
 10
860.3914902255469
 20
2171.900000000017
 30
0.0
 11
867.9413246608632
 21
2171.900000000017
 31
0.0
  0
LINE
  5
129
330
87
100
AcDbEntity
  8
P-SANR-FIXT
100
AcDbLine
 10
867.9413246608632
 20
2171.900000000017
 30
0.0
 11
869.3914902255386
 21
2171.900000000017
 31
0.0
  0
LINE
  5
12A
330
87
100
AcDbEntity
  8
P-SANR-FIXT
100
AcDbLine
 10
869.3914902255386
 20
2171.900000000017
 30
0.0
 11
876.9413246608552
 21
2171.900000000017
 31
0.0
  0
LINE
  5
12B
330
87
100
AcDbEntity
  8
P-SANR-FIXT
100
AcDbLine
 10
876.941324660855
 20
2171.900000000017
 30
0.0
 11
877.6664074431929
 21
2171.900000000017
 31
0.0
  0
LINE
  5
12C
330
87
100
AcDbEntity
  8
P-SANR-FIXT
100
AcDbLine
 10
859.6664074432093
 20
2167.600000000017
 30
0.0
 11
859.6664074432093
 21
2171.900000000017
 31
0.0
  0
LINE
  5
12D
330
87
100
AcDbEntity
  8
P-SANR-FIXT
100
AcDbLine
 10
860.3914902255469
 20
2167.600000000017
 30
0.0
 11
860.3914902255469
 21
2171.900000000017
 31
0.0
  0
LINE
  5
12E
330
87
100
AcDbEntity
  8
P-SANR-FIXT
100
AcDbLine
 10
867.9413246608632
 20
2167.600000000017
 30
0.0
 11
867.9413246608632
 21
2171.900000000017
 31
0.0
  0
LINE
  5
12F
330
87
100
AcDbEntity
  8
P-SANR-FIXT
100
AcDbLine
 10
869.3914902255386
 20
2167.600000000017
 30
0.0
 11
869.3914902255386
 21
2171.900000000017
 31
0.0
  0
LINE
  5
130
330
87
100
AcDbEntity
  8
P-SANR-FIXT
100
AcDbLine
 10
876.941324660855
 20
2167.600000000017
 30
0.0
 11
876.941324660855
 21
2171.900000000017
 31
0.0
  0
LINE
  5
131
330
87
100
AcDbEntity
  8
P-SANR-FIXT
100
AcDbLine
 10
877.6664074431929
 20
2167.600000000017
 30
0.0
 11
877.6664074431929
 21
2171.900000000017
 31
0.0
  0
LINE
  5
132
330
87
100
AcDbEntity
  8
P-SANR-FIXT
100
AcDbLine
 10
799.6664074432028
 20
1603.999999999994
 30
0.0
 11
799.6664074432028
 21
1726.899999999996
 31
0.0
  0
LINE
  5
133
330
87
100
AcDbEntity
  8
P-SANR-FIXT
100
AcDbLine
 10
799.6664074432028
 20
1803.099999999993
 30
0.0
 11
799.6664074432028
 21
2056.899999999997
 31
0.0
  0
LINE
  5
134
330
87
100
AcDbEntity
  8
P-SANR-FIXT
100
AcDbLine
 10
799.6664074432028
 20
2133.099999999993
 30
0.0
 11
799.6664074432028
 21
2176.999999999995
 31
0.0
  0
LINE
  5
135
330
87
100
AcDbEntity
  8
P-SANR-FIXT
100
AcDbLine
 10
631.6664074432026
 20
2176.999999999995
 30
0.0
 11
631.6664074432026
 21
2133.099999999995
 31
0.0
  0
LINE
  5
136
330
87
100
AcDbEntity
  8
P-SANR-FIXT
100
AcDbLine
 10
631.6664074432026
 20
2056.899999999995
 30
0.0
 11
631.6664074432026
 21
1803.099999999994
 31
0.0
  0
LINE
  5
137
330
87
100
AcDbEntity
  8
P-SANR-FIXT
100
AcDbLine
 10
631.6664074432026
 20
1726.899999999994
 30
0.0
 11
631.6664074432026
 21
1603.999999999994
 31
0.0
  0
LWPOLYLINE
  5
138
330
87
100
AcDbEntity
  8
P-SANR-FIXT
100
AcDbPolyline
 90
       80
 70
   128
 43
0.0
 10
671.6664074432027
 20
1563.999999999994
 10
671.7016027501195
 20
1563.999999999994
 10
671.8071323658872
 20
1563.999999999994
 10
671.9828274656324
 20
1563.999999999994
 10
672.228406974675
 20
1563.999999999994
 10
672.5434780181879
 20
1563.999999999994
 10
672.9275365497133
 20
1563.999999999994
 10
673.3799681575286
 20
1563.999999999994
 10
673.9000490475752
 20
1563.999999999994
 10
674.4869472013736
 20
1563.999999999994
 10
675.1397237070757
 20
1563.999999999994
 10
675.8573342615241
 20
1563.999999999994
 10
676.6386308409141
 20
1563.999999999994
 10
677.482363537386
 20
1563.999999999994
 10
678.3871825586124
 20
1563.999999999994
 10
679.3516403871769
 20
1563.999999999994
 10
680.3741940962937
 20
1563.999999999994
 10
681.4532078181619
 20
1563.999999999994
 10
682.5869553610033
 20
1563.999999999994
 10
683.7736229706028
 20
1563.999999999994
 10
685.0113122319275
 20
1563.999999999994
 10
686.2980431061851
 20
1563.999999999994
 10
687.6317570984651
 20
1563.999999999994
 10
689.0103205508902
 20
1563.999999999994
 10
690.4315280560145
 20
1563.999999999994
 10
691.8931059850045
 20
1563.999999999994
 10
693.3927161249604
 20
1563.999999999994
 10
694.9279594195582
 20
1563.999999999994
 10
696.4963798070274
 20
1563.999999999994
 10
698.0954681493267
 20
1563.999999999994
 10
699.722666246229
 20
1563.999999999994
 10
701.3753709278965
 20
1563.999999999994
 10
703.0509382193967
 20
1563.999999999994
 10
704.7466875704984
 20
1563.999999999994
 10
706.4599061439803
 20
1563.999999999994
 10
708.1878531555921
 20
1563.999999999994
 10
709.9277642587243
 20
1563.999999999994
 10
711.6768559667731
 20
1563.999999999994
 10
713.4323301061254
 20
1563.999999999994
 10
715.1913782926389
 20
1563.999999999994
 10
716.9511864244595
 20
1563.999999999994
 10
718.7089391839816
 20
1563.999999999994
 10
720.4618245417572
 20
1563.999999999994
 10
722.2070382551429
 20
1563.999999999994
 10
723.9417883544896
 20
1563.999999999994
 10
725.6632996096986
 20
1563.999999999994
 10
727.368817969998
 20
1563.999999999994
 10
729.0556149698355
 20
1563.999999999994
 10
730.7209920938423
 20
1563.999999999994
 10
732.3622850938817
 20
1563.999999999994
 10
733.9768682512771
 20
1563.999999999994
 10
735.5621585774031
 20
1563.999999999994
 10
737.1156199459147
 20
1563.999999999994
 10
738.63476715001
 20
1563.999999999994
 10
740.1171698782298
 20
1563.999999999994
 10
741.5604566024379
 20
1563.999999999994
 10
742.9623183717607
 20
1563.999999999994
 10
744.320512506415
 20
1563.999999999994
 10
745.6328661855175
 20
1563.999999999994
 10
746.8972799231361
 20
1563.999999999994
 10
748.1117309270177
 20
1563.999999999994
 10
749.2742763346249
 20
1563.999999999994
 10
750.3830563213023
 20
1563.999999999994
 10
751.436297075598
 20
1563.999999999994
 10
752.4323136369848
 20
1563.999999999994
 10
753.3695125914365
 20
1563.999999999994
 10
754.2463946205513
 20
1563.999999999994
 10
755.0615569001404
 20
1563.999999999994
 10
755.8136953444489
 20
1563.999999999994
 10
756.5016066924134
 20
1563.999999999994
 10
757.1241904326239
 20
1563.999999999994
 10
757.6804505639064
 20
1563.999999999994
 10
758.1694971887137
 20
1563.999999999994
 10
758.5905479367705
 20
1563.999999999994
 10
758.9429292166991
 20
1563.999999999994
 10
759.2260772936224
 20
1563.999999999994
 10
759.439539191019
 20
1563.999999999994
 10
759.5829734153892
 20
1563.999999999994
 10
759.6561505025715
 20
1563.999999999994
 10
759.6664074432027
 20
1563.999999999994
  0
LINE
  5
139
330
87
100
AcDbEntity
  8
P-SANR-FIXT
100
AcDbLine
 10
736.6664074432043
 20
1505.999999999995
 30
0.0
 11
736.6664074432043
 21
1563.999999999994
 31
0.0
  0
LINE
  5
13A
330
87
100
AcDbEntity
  8
P-SANR-FIXT
100
AcDbLine
 10
694.6664074432011
 20
1563.999999999994
 30
0.0
 11
694.6664074432011
 21
1505.999999999996
 31
0.0
  0
LINE
  5
13B
330
87
100
AcDbEntity
  8
P-SANR-FIXT
100
AcDbLine
 10
728.8664074432031
 20
2216.999999999995
 30
0.0
 11
728.8664074432031
 21
2279.999999999995
 31
0.0
  0
LINE
  5
13C
330
87
100
AcDbEntity
  8
P-SANR-FIXT
100
AcDbLine
 10
702.4664074432023
 20
2279.999999999995
 30
0.0
 11
702.4664074432023
 21
2216.999999999995
 31
0.0
  0
LINE
  5
13D
330
87
100
AcDbEntity
  8
P-SANR-FIXT
100
AcDbLine
 10
945.666407443203
 20
2177.499999999995
 30
0.0
 11
929.666407443203
 21
2177.499999999995
 31
0.0
  0
LINE
  5
13E
330
87
100
AcDbEntity
  8
P-SANR-FIXT
100
AcDbLine
 10
929.666407443203
 20
2012.499999999995
 30
0.0
 11
945.666407443203
 21
2012.499999999995
 31
0.0
  0
LINE
  5
13F
330
87
100
AcDbEntity
  8
P-SANR-FIXT
100
AcDbLine
 10
929.666407443203
 20
2133.099999999993
 30
0.0
 11
881.5843554365704
 21
2133.099999999993
 31
0.0
  0
LINE
  5
140
330
87
100
AcDbEntity
  8
P-SANR-FIXT
100
AcDbLine
 10
855.7484594498347
 20
2133.099999999993
 30
0.0
 11
799.6664074432028
 21
2133.099999999993
 31
0.0
  0
LINE
  5
141
330
87
100
AcDbEntity
  8
P-SANR-FIXT
100
AcDbLine
 10
799.6664074432028
 20
2056.899999999997
 30
0.0
 11
929.666407443203
 21
2056.899999999997
 31
0.0
  0
LINE
  5
142
330
87
100
AcDbEntity
  8
P-SANR-FIXT
100
AcDbLine
 10
945.6664074432024
 20
1847.499999999994
 30
0.0
 11
929.6664074432023
 21
1847.499999999994
 31
0.0
  0
LINE
  5
143
330
87
100
AcDbEntity
  8
P-SANR-FIXT
100
AcDbLine
 10
929.6664074432023
 20
1682.499999999994
 30
0.0
 11
945.6664074432024
 21
1682.499999999994
 31
0.0
  0
LINE
  5
144
330
87
100
AcDbEntity
  8
P-SANR-FIXT
100
AcDbLine
 10
929.6664074432023
 20
1803.099999999993
 30
0.0
 11
881.58435543657
 21
1803.099999999993
 31
0.0
  0
LINE
  5
145
330
87
100
AcDbEntity
  8
P-SANR-FIXT
100
AcDbLine
 10
855.7484594498342
 20
1803.099999999993
 30
0.0
 11
799.6664074432028
 21
1803.099999999993
 31
0.0
  0
LINE
  5
146
330
87
100
AcDbEntity
  8
P-SANR-FIXT
100
AcDbLine
 10
799.6664074432028
 20
1726.899999999996
 30
0.0
 11
929.6664074432023
 21
1726.899999999996
 31
0.0
  0
LWPOLYLINE
  5
147
330
87
100
AcDbEntity
  8
P-SANR-FIXT
100
AcDbPolyline
 90
       41
 70
   128
 43
0.0
 10
671.666407443203
 20
1563.999999999994
 10
670.0668340757377
 20
1564.031995733555
 10
668.4698196844362
 20
1564.127931747889
 10
666.8779191516462
 20
1564.287654565839
 10
665.2936791786332
 20
1564.510908664969
 10
663.7196342114005
 20
1564.797336886344
 10
662.1583023861175
 20
1565.146481005912
 10
660.6121815006384
 20
1565.557782467563
 10
659.0837450185581
 20
1566.030583276696
 10
657.5754381121993
 20
1566.564127052877
 10
656.0896737508569
 20
1567.157560239879
 10
654.6288288405628
 20
1567.809933471195
 10
653.1952404215435
 20
1568.520203088822
 10
651.7912019294533
 20
1569.287232812888
 10
650.4189595263676
 20
1570.109795559457
 10
649.0807085074014
 20
1570.986575403607
 10
647.7785897887072
 20
1571.916169684622
 10
646.5146864824641
 20
1572.897091249957
 10
645.2910205643438
 20
1573.927770834358
 10
644.1095496387807
 20
1575.006559570357
 10
642.9721638072219
 20
1576.131731626107
 10
641.8806826443683
 20
1577.301486966341
 10
640.836852287244
 20
1578.51395423205
 10
639.8423426417483
 20
1579.767193734255
 10
638.8987447111628
 20
1581.059200557096
 10
638.0075680508869
 20
1582.387907765268
 10
637.1702383534691
 20
1583.751189710682
 10
636.3880951678048
 20
1585.146865433044
 10
635.6623897561425
 20
1586.572702148925
 10
634.9942830923321
 20
1588.026418823743
 10
634.3848440045136
 20
1589.505689820927
 10
633.8350474652211
 20
1591.008148622443
 10
633.3457730316336
 20
1592.531391614716
 10
632.9178034384719
 20
1594.072981933899
 10
632.5518233457899
 20
1595.630453364337
 10
632.2484182436643
 20
1597.201314283984
 10
632.008073515535
 20
1598.783051650468
 10
631.8311736616971
 20
1600.373135021421
 10
631.7180016841791
 20
1601.96902060265
 10
631.6687386340039
 20
1603.568155317663
 10
631.6664074432026
 20
1603.999999999994
  0
LWPOLYLINE
  5
148
330
87
100
AcDbEntity
  8
P-SANR-FIXT
100
AcDbPolyline
 90
       41
 70
   128
 43
0.0
 10
799.6664074432028
 20
1603.999999999994
 10
799.634411709642
 20
1602.400426632528
 10
799.5384756953074
 20
1600.803412241227
 10
799.3787528773573
 20
1599.211511708437
 10
799.1554987782279
 20
1597.627271735424
 10
798.8690705568524
 20
1596.053226768191
 10
798.5199264372838
 20
1594.491894942908
 10
798.1086249756335
 20
1592.945774057429
 10
797.6358241665003
 20
1591.417337575349
 10
797.10228039032
 20
1589.90903066899
 10
796.5088472033181
 20
1588.423266307648
 10
795.8564739720011
 20
1586.962421397354
 10
795.146204354374
 20
1585.528832978334
 10
794.3791746303086
 20
1584.124794486245
 10
793.5566118837392
 20
1582.752552083159
 10
792.6798320395898
 20
1581.414301064192
 10
791.7502377585743
 20
1580.112182345498
 10
790.7693161932398
 20
1578.848279039255
 10
789.7386366088384
 20
1577.624613121135
 10
788.6598478728386
 20
1576.443142195572
 10
787.5346758170891
 20
1575.305756364013
 10
786.364920476855
 20
1574.214275201159
 10
785.1524532111458
 20
1573.170444844035
 10
783.8992137089412
 20
1572.175935198539
 10
782.6072068861008
 20
1571.232337267954
 10
781.278499677928
 20
1570.341160607678
 10
779.9152177325136
 20
1569.50383091026
 10
778.519542010152
 20
1568.721687724596
 10
777.0937052942708
 20
1567.995982312934
 10
775.6399886194534
 20
1567.327875649123
 10
774.1607176222693
 20
1566.718436561305
 10
772.6582588207535
 20
1566.168640022012
 10
771.1350158284806
 20
1565.679365588425
 10
769.5934255092973
 20
1565.251395995263
 10
768.0359540788592
 20
1564.885415902582
 10
766.465093159212
 20
1564.582010800456
 10
764.8833557927281
 20
1564.341666072326
 10
763.2932724217747
 20
1564.164766218488
 10
761.6973868405456
 20
1564.05159424097
 10
760.0982521255332
 20
1564.002331190795
 10
759.6664074432023
 20
1563.999999999994
  0
LWPOLYLINE
  5
149
330
87
100
AcDbEntity
  8
P-SANR-FIXT
100
AcDbPolyline
 90
        5
 70
   128
 43
0.0
 10
759.6664074432027
 20
1563.999999999994
 10
759.6312121362859
 20
1563.999999999994
 10
759.5256825205182
 20
1563.999999999994
 10
759.3499874207727
 20
1563.999999999994
 10
759.2831858356346
 20
1563.999999999994
  0
LWPOLYLINE
  5
14A
330
87
100
AcDbEntity
  8
P-SANR-FIXT
100
AcDbPolyline
 90
        5
 70
   128
 43
0.0
 10
672.0512753738788
 20
1563.999999999994
 10
671.8932756953862
 20
1563.999999999994
 10
671.7498414710161
 20
1563.999999999994
 10
671.6766643838337
 20
1563.999999999994
 10
671.6664074432027
 20
1563.999999999994
  0
LWPOLYLINE
  5
14B
330
87
100
AcDbEntity
  8
P-SANR-FIXT
100
AcDbPolyline
 90
       41
 70
   128
 43
0.0
 10
631.6664074432026
 20
2176.999999999995
 10
631.6984031767634
 20
2178.59957336746
 10
631.7943391910978
 20
2180.196587758762
 10
631.954062009048
 20
2181.788488291552
 10
632.1773161081774
 20
2183.372728264565
 10
632.4637443295529
 20
2184.946773231798
 10
632.8128884491214
 20
2186.508105057081
 10
633.2241899107716
 20
2188.054225942559
 10
633.6969907199049
 20
2189.58266242464
 10
634.2305344960853
 20
2191.090969330999
 10
634.8239676830871
 20
2192.576733692341
 10
635.4763409144041
 20
2194.037578602635
 10
636.1866105320311
 20
2195.471167021654
 10
636.9536402560965
 20
2196.875205513745
 10
637.7762030026659
 20
2198.247447916831
 10
638.6529828468154
 20
2199.585698935797
 10
639.5825771278309
 20
2200.887817654491
 10
640.5634986931654
 20
2202.151720960733
 10
641.5941782775669
 20
2203.375386878854
 10
642.6729670135664
 20
2204.556857804417
 10
643.798139069316
 20
2205.694243635976
 10
644.9678944095502
 20
2206.785724798829
 10
646.1803616752595
 20
2207.829555155953
 10
647.4336011774641
 20
2208.824064801449
 10
648.7256080003042
 20
2209.767662732035
 10
650.054315208477
 20
2210.658839392311
 10
651.4175971538914
 20
2211.496169089729
 10
652.8132728762531
 20
2212.278312275393
 10
654.2391095921341
 20
2213.004017687055
 10
655.6928262669518
 20
2213.672124350866
 10
657.1720972641358
 20
2214.281563438684
 10
658.6745560656514
 20
2214.831359977977
 10
660.1977990579244
 20
2215.320634411564
 10
661.7393893771077
 20
2215.748604004726
 10
663.2968608075458
 20
2216.114584097408
 10
664.8677217271929
 20
2216.417989199534
 10
666.4494590936769
 20
2216.658333927663
 10
668.0395424646303
 20
2216.8352337815
 10
669.6354280458595
 20
2216.948405759018
 10
671.2345627608719
 20
2216.997668809193
 10
671.6664074432027
 20
2216.999999999995
  0
LWPOLYLINE
  5
14C
330
87
100
AcDbEntity
  8
P-SANR-FIXT
100
AcDbPolyline
 90
       41
 70
   128
 43
0.0
 10
759.6664074432027
 20
2216.999999999995
 10
761.2659808106682
 20
2216.968004266434
 10
762.8629952019697
 20
2216.8720682521
 10
764.4548957347596
 20
2216.712345434149
 10
766.0391357077725
 20
2216.48909133502
 10
767.6131806750052
 20
2216.202663113644
 10
769.1745125002881
 20
2215.853518994076
 10
770.7206333857673
 20
2215.442217532426
 10
772.2490698678475
 20
2214.969416723293
 10
773.7573767742063
 20
2214.435872947112
 10
775.2431411355487
 20
2213.84243976011
 10
776.7039860458427
 20
2213.190066528794
 10
778.137574464862
 20
2212.479796911166
 10
779.5416129569521
 20
2211.712767187101
 10
780.913855360038
 20
2210.890204440531
 10
782.2521063790043
 20
2210.013424596382
 10
783.5542250976986
 20
2209.083830315366
 10
784.8181284039413
 20
2208.102908750032
 10
786.0417943220617
 20
2207.072229165631
 10
787.2232652476248
 20
2205.993440429631
 10
788.3606510791837
 20
2204.868268373882
 10
789.4521322420371
 20
2203.698513033647
 10
790.4959625991615
 20
2202.486045767939
 10
791.4904722446574
 20
2201.232806265734
 10
792.4340701752425
 20
2199.940799442893
 10
793.3252468355187
 20
2198.61209223472
 10
794.1625765329364
 20
2197.248810289306
 10
794.9447197186007
 20
2195.853134566945
 10
795.6704251302631
 20
2194.427297851063
 10
796.3385317940734
 20
2192.973581176246
 10
796.9479708818917
 20
2191.494310179062
 10
797.4977674211844
 20
2189.991851377546
 10
797.9870418547719
 20
2188.468608385273
 10
798.4150114479332
 20
2186.92701806609
 10
798.7809915406154
 20
2185.369546635651
 10
799.0843966427413
 20
2183.798685716005
 10
799.3247413708702
 20
2182.216948349521
 10
799.5016412247083
 20
2180.626864978567
 10
799.614813202226
 20
2179.030979397338
 10
799.6640762524013
 20
2177.431844682326
 10
799.6664074432028
 20
2176.999999999995
  0
LWPOLYLINE
  5
14D
330
87
100
AcDbEntity
  8
P-SANR-FIXT
100
AcDbPolyline
 90
        5
 70
   128
 43
0.0
 10
671.6664074432027
 20
2216.999999999995
 10
671.7016027501195
 20
2216.999999999995
 10
671.8071323658872
 20
2216.999999999995
 10
671.9828274656324
 20
2216.999999999995
 10
672.04962905077
 20
2216.999999999995
  0
LWPOLYLINE
  5
14E
330
87
100
AcDbEntity
  8
P-SANR-FIXT
100
AcDbPolyline
 90
        5
 70
   128
 43
0.0
 10
759.2815395125269
 20
2216.999999999995
 10
759.439539191019
 20
2216.999999999995
 10
759.5829734153892
 20
2216.999999999995
 10
759.6561505025715
 20
2216.999999999995
 10
759.6664074432027
 20
2216.999999999995
  0
LWPOLYLINE
  5
14F
330
87
100
AcDbEntity
  8
P-SANR-FIXT
100
AcDbPolyline
 90
       80
 70
   128
 43
0.0
 10
759.6664074432027
 20
2216.999999999995
 10
759.6312121362859
 20
2216.999999999995
 10
759.5256825205182
 20
2216.999999999995
 10
759.3499874207729
 20
2216.999999999995
 10
759.1044079117303
 20
2216.999999999995
 10
758.7893368682175
 20
2216.999999999995
 10
758.405278336692
 20
2216.999999999995
 10
757.9528467288767
 20
2216.999999999995
 10
757.4327658388303
 20
2216.999999999995
 10
756.8458676850318
 20
2216.999999999995
 10
756.1930911793297
 20
2216.999999999995
 10
755.4754806248812
 20
2216.999999999995
 10
754.6941840454913
 20
2216.999999999995
 10
753.8504513490193
 20
2216.999999999995
 10
752.9456323277929
 20
2216.999999999995
 10
751.9811744992284
 20
2216.999999999995
 10
750.9586207901115
 20
2216.999999999995
 10
749.8796070682435
 20
2216.999999999995
 10
748.745859525402
 20
2216.999999999995
 10
747.5591919158026
 20
2216.999999999995
 10
746.3215026544778
 20
2216.999999999995
 10
745.0347717802203
 20
2216.999999999995
 10
743.7010577879402
 20
2216.999999999995
 10
742.3224943355148
 20
2216.999999999995
 10
740.9012868303908
 20
2216.999999999995
 10
739.4397089014009
 20
2216.999999999995
 10
737.9400987614449
 20
2216.999999999995
 10
736.4048554668472
 20
2216.999999999995
 10
734.8364350793779
 20
2216.999999999995
 10
733.2373467370788
 20
2216.999999999995
 10
731.6101486401763
 20
2216.999999999995
 10
729.9574439585089
 20
2216.999999999995
 10
728.2818766670086
 20
2216.999999999995
 10
726.5861273159071
 20
2216.999999999995
 10
724.8729087424251
 20
2216.999999999995
 10
723.1449617308132
 20
2216.999999999995
 10
721.4050506276809
 20
2216.999999999995
 10
719.6559589196322
 20
2216.999999999995
 10
717.9004847802802
 20
2216.999999999995
 10
716.1414365937664
 20
2216.999999999995
 10
714.3816284619459
 20
2216.999999999995
 10
712.6238757024239
 20
2216.999999999995
 10
710.8709903446481
 20
2216.999999999995
 10
709.1257766312626
 20
2216.999999999995
 10
707.3910265319158
 20
2216.999999999995
 10
705.6695152767067
 20
2216.999999999995
 10
703.9639969164073
 20
2216.999999999995
 10
702.2771999165698
 20
2216.999999999995
 10
700.6118227925631
 20
2216.999999999995
 10
698.9705297925237
 20
2216.999999999995
 10
697.3559466351283
 20
2216.999999999995
 10
695.7706563090024
 20
2216.999999999995
 10
694.2171949404908
 20
2216.999999999995
 10
692.6980477363954
 20
2216.999999999995
 10
691.2156450081757
 20
2216.999999999995
 10
689.7723582839674
 20
2216.999999999995
 10
688.3704965146446
 20
2216.999999999995
 10
687.0123023799906
 20
2216.999999999995
 10
685.6999487008877
 20
2216.999999999995
 10
684.435534963269
 20
2216.999999999995
 10
683.2210839593877
 20
2216.999999999995
 10
682.0585385517805
 20
2216.999999999995
 10
680.9497585651031
 20
2216.999999999995
 10
679.8965178108074
 20
2216.999999999995
 10
678.9005012494206
 20
2216.999999999995
 10
677.9633022949688
 20
2216.999999999995
 10
677.086420265854
 20
2216.999999999995
 10
676.2712579862649
 20
2216.999999999995
 10
675.5191195419563
 20
2216.999999999995
 10
674.8312081939919
 20
2216.999999999995
 10
674.2086244537817
 20
2216.999999999995
 10
673.652364322499
 20
2216.999999999995
 10
673.1633176976917
 20
2216.999999999995
 10
672.7422669496347
 20
2216.999999999995
 10
672.3898856697062
 20
2216.999999999995
 10
672.1067375927828
 20
2216.999999999995
 10
671.8932756953862
 20
2216.999999999995
 10
671.7498414710161
 20
2216.999999999995
 10
671.6766643838337
 20
2216.999999999995
 10
671.6664074432027
 20
2216.999999999995
  0
LINE
  5
150
330
87
100
AcDbEntity
  8
P-SANR-FIXT
100
AcDbLine
 10
631.6664074432026
 20
2133.099999999995
 30
0.0
 11
501.6664074432028
 21
2133.099999999995
 31
0.0
  0
LINE
  5
151
330
87
100
AcDbEntity
  8
P-SANR-FIXT
100
AcDbLine
 10
501.6664074432028
 20
2056.899999999995
 30
0.0
 11
631.6664074432026
 21
2056.899999999995
 31
0.0
  0
LINE
  5
152
330
87
100
AcDbEntity
  8
P-SANR-FIXT
100
AcDbLine
 10
501.6664074432025
 20
2187.499999999995
 30
0.0
 11
485.6664074432023
 21
2187.499999999995
 31
0.0
  0
LINE
  5
153
330
87
100
AcDbEntity
  8
P-SANR-FIXT
100
AcDbLine
 10
485.6664074432023
 20
2002.499999999995
 30
0.0
 11
501.6664074432025
 21
2002.499999999995
 31
0.0
  0
LINE
  5
154
330
87
100
AcDbEntity
  8
P-SANR-FIXT
100
AcDbLine
 10
881.6664074432027
 20
2133.099999999995
 30
0.0
 11
881.6664074432027
 21
2163.099999999995
 31
0.0
  0
LINE
  5
155
330
87
100
AcDbEntity
  8
P-SANR-FIXT
100
AcDbLine
 10
855.6664074432028
 20
2163.099999999995
 30
0.0
 11
855.6664074432028
 21
2133.099999999995
 31
0.0
  0
LINE
  5
156
330
87
100
AcDbEntity
  8
P-SANR-FIXT
100
AcDbLine
 10
881.6664074432022
 20
1803.099999999994
 30
0.0
 11
881.6664074432022
 21
1833.099999999994
 31
0.0
  0
LINE
  5
157
330
87
100
AcDbEntity
  8
P-SANR-FIXT
100
AcDbLine
 10
855.6664074432022
 20
1833.099999999994
 30
0.0
 11
855.6664074432022
 21
1803.099999999994
 31
0.0
  0
LINE
  5
158
330
87
100
AcDbEntity
  8
P-SANR-FIXT
100
AcDbLine
 10
631.6664074432026
 20
1803.099999999994
 30
0.0
 11
501.6664074432021
 21
1803.099999999994
 31
0.0
  0
LINE
  5
159
330
87
100
AcDbEntity
  8
P-SANR-FIXT
100
AcDbLine
 10
501.6664074432021
 20
1726.899999999994
 30
0.0
 11
631.6664074432026
 21
1726.899999999994
 31
0.0
  0
LINE
  5
15A
330
87
100
AcDbEntity
  8
P-SANR-FIXT
100
AcDbLine
 10
501.6664074432018
 20
1857.499999999994
 30
0.0
 11
485.6664074432016
 21
1857.499999999994
 31
0.0
  0
LINE
  5
15B
330
87
100
AcDbEntity
  8
P-SANR-FIXT
100
AcDbLine
 10
485.6664074432016
 20
1672.499999999994
 30
0.0
 11
501.6664074432018
 21
1672.499999999994
 31
0.0
  0
SPLINE
  5
15C
330
87
100
AcDbEntity
  8
P-SANR-FIXT
100
AcDbSpline
210
0.0
220
0.0
230
1.0
 70
     8
 71
     3
 72
    34
 73
    30
 74
     0
 42
0.000000001
 43
0.0000000001
 40
0.0
 40
0.0
 40
0.0
 40
0.0
 40
0.0555555555555556
 40
0.1111111111111111
 40
0.1666666666666666
 40
0.1944444444444444
 40
0.2222222222222222
 40
0.25
 40
0.2777777777777778
 40
0.3055555555555556
 40
0.3333333333333333
 40
0.3611111111111111
 40
0.3888888888888888
 40
0.4166666666666666
 40
0.4444444444444445
 40
0.4791666666666666
 40
0.5138888888888889
 40
0.5486111111111111
 40
0.5833333333333333
 40
0.6180555555555555
 40
0.6527777777777777
 40
0.6875
 40
0.7222222222222223
 40
0.7569444444444445
 40
0.7916666666666668
 40
0.8263888888888889
 40
0.861111111111111
 40
0.9305555555555555
 40
1.0
 40
1.0
 40
1.0
 40
1.0
 10
631.6664074432013
 20
2133.099999999995
 30
0.0
 10
631.6664074432013
 20
2133.064772697872
 30
0.0
 10
631.8615483921695
 20
2132.633641785707
 30
0.0
 10
632.6331277688447
 20
2130.949992440674
 30
0.0
 10
633.6297954060498
 20
2128.570133971701
 30
0.0
 10
634.5807505153612
 20
2126.162772825792
 30
0.0
 10
635.3277749019095
 20
2124.176983621885
 30
0.0
 10
636.1007080177174
 20
2121.976753744772
 30
0.0
 10
636.8979685564755
 20
2119.536596900886
 30
0.0
 10
637.6813644464288
 20
2116.912665068909
 30
0.0
 10
638.4060582883771
 20
2114.169900998014
 30
0.0
 10
639.0677103698704
 20
2111.256446083167
 30
0.0
 10
639.6694546740811
 20
2108.148443077398
 30
0.0
 10
640.1694540629912
 20
2104.931267270557
 30
0.0
 10
640.5603769306515
 20
2101.439387940555
 30
0.0
 10
640.7839464551736
 20
2097.569892900894
 30
0.0
 10
640.8064008959811
 20
2093.275111411474
 30
0.0
 10
640.6081925615043
 20
2089.078122624838
 30
0.0
 10
640.1822018667237
 20
2085.060806616883
 30
0.0
 10
639.5348823090277
 20
2081.043312937967
 30
0.0
 10
638.7458666643888
 20
2077.232090775919
 30
0.0
 10
637.8758252098427
 20
2073.751844890208
 30
0.0
 10
636.8962934754106
 20
2070.439640890105
 30
0.0
 10
635.8966890251892
 20
2067.413475215907
 30
0.0
 10
634.947444836449
 20
2064.784716006837
 30
0.0
 10
634.0321825121916
 20
2062.435588723876
 30
0.0
 10
632.9473700887644
 20
2059.774806951537
 30
0.0
 10
631.9703719466502
 20
2057.590550494728
 30
0.0
 10
631.6664074432013
 20
2056.944611352334
 30
0.0
 10
631.6664074432013
 20
2056.899999999994
 30
0.0
  0
SPLINE
  5
15D
330
87
100
AcDbEntity
  8
P-SANR-FIXT
100
AcDbSpline
210
0.0
220
0.0
230
1.0
 70
     8
 71
     3
 72
    34
 73
    30
 74
     0
 42
0.000000001
 43
0.0000000001
 40
0.0
 40
0.0
 40
0.0
 40
0.0
 40
0.0555555555555556
 40
0.1111111111111111
 40
0.1666666666666666
 40
0.1944444444444444
 40
0.2222222222222222
 40
0.25
 40
0.2777777777777778
 40
0.3055555555555556
 40
0.3333333333333333
 40
0.3611111111111111
 40
0.3888888888888888
 40
0.4166666666666666
 40
0.4444444444444445
 40
0.4791666666666666
 40
0.5138888888888889
 40
0.5486111111111111
 40
0.5833333333333333
 40
0.6180555555555555
 40
0.6527777777777777
 40
0.6875
 40
0.7222222222222223
 40
0.7569444444444445
 40
0.7916666666666668
 40
0.8263888888888889
 40
0.861111111111111
 40
0.9305555555555555
 40
1.0
 40
1.0
 40
1.0
 40
1.0
 10
631.6664074432013
 20
1803.099999999994
 30
0.0
 10
631.6664074432013
 20
1803.064772697872
 30
0.0
 10
631.8615483921695
 20
1802.633641785706
 30
0.0
 10
632.6331277688447
 20
1800.949992440674
 30
0.0
 10
633.6297954060498
 20
1798.570133971701
 30
0.0
 10
634.5807505153612
 20
1796.162772825792
 30
0.0
 10
635.3277749019095
 20
1794.176983621885
 30
0.0
 10
636.1007080177172
 20
1791.976753744772
 30
0.0
 10
636.8979685564755
 20
1789.536596900886
 30
0.0
 10
637.6813644464288
 20
1786.912665068909
 30
0.0
 10
638.406058288377
 20
1784.169900998014
 30
0.0
 10
639.0677103698703
 20
1781.256446083167
 30
0.0
 10
639.6694546740811
 20
1778.148443077397
 30
0.0
 10
640.1694540629912
 20
1774.931267270557
 30
0.0
 10
640.5603769306515
 20
1771.439387940555
 30
0.0
 10
640.7839464551736
 20
1767.569892900894
 30
0.0
 10
640.8064008959811
 20
1763.275111411475
 30
0.0
 10
640.6081925615043
 20
1759.078122624839
 30
0.0
 10
640.1822018667237
 20
1755.060806616882
 30
0.0
 10
639.5348823090277
 20
1751.043312937967
 30
0.0
 10
638.7458666643888
 20
1747.232090775919
 30
0.0
 10
637.8758252098427
 20
1743.751844890207
 30
0.0
 10
636.8962934754106
 20
1740.439640890105
 30
0.0
 10
635.896689025189
 20
1737.413475215907
 30
0.0
 10
634.947444836449
 20
1734.784716006837
 30
0.0
 10
634.0321825121916
 20
1732.435588723876
 30
0.0
 10
632.9473700887644
 20
1729.774806951537
 30
0.0
 10
631.9703719466502
 20
1727.590550494728
 30
0.0
 10
631.6664074432013
 20
1726.944611352333
 30
0.0
 10
631.6664074432013
 20
1726.899999999994
 30
0.0
  0
SPLINE
  5
15E
330
87
100
AcDbEntity
  8
P-SANR-FIXT
100
AcDbSpline
210
0.0
220
0.0
230
1.0
 70
     8
 71
     3
 72
    34
 73
    30
 74
     0
 42
0.000000001
 43
0.0000000001
 40
0.0
 40
0.0
 40
0.0
 40
0.0
 40
0.0555555555555556
 40
0.1111111111111111
 40
0.1666666666666666
 40
0.1944444444444444
 40
0.2222222222222222
 40
0.25
 40
0.2777777777777778
 40
0.3055555555555556
 40
0.3333333333333333
 40
0.3611111111111111
 40
0.3888888888888888
 40
0.4166666666666666
 40
0.4444444444444445
 40
0.4791666666666666
 40
0.5138888888888889
 40
0.5486111111111111
 40
0.5833333333333333
 40
0.6180555555555555
 40
0.6527777777777777
 40
0.6875
 40
0.7222222222222223
 40
0.7569444444444445
 40
0.7916666666666668
 40
0.8263888888888889
 40
0.861111111111111
 40
0.9305555555555555
 40
1.0
 40
1.0
 40
1.0
 40
1.0
 10
799.6664074432013
 20
1726.899999999995
 30
0.0
 10
799.6664074432013
 20
1726.935227302117
 30
0.0
 10
799.4712664942331
 20
1727.366358214284
 30
0.0
 10
798.6996871175582
 20
1729.050007559315
 30
0.0
 10
797.7030194803532
 20
1731.429866028289
 30
0.0
 10
796.7520643710419
 20
1733.837227174198
 30
0.0
 10
796.0050399844935
 20
1735.823016378104
 30
0.0
 10
795.2321068686859
 20
1738.023246255217
 30
0.0
 10
794.4348463299278
 20
1740.463403099104
 30
0.0
 10
793.6514504399747
 20
1743.08733493108
 30
0.0
 10
792.9267565980264
 20
1745.830099001975
 30
0.0
 10
792.2651045165333
 20
1748.743553916822
 30
0.0
 10
791.6633602123226
 20
1751.851556922591
 30
0.0
 10
791.1633608234125
 20
1755.068732729432
 30
0.0
 10
790.7724379557527
 20
1758.560612059433
 30
0.0
 10
790.5488684312303
 20
1762.430107099094
 30
0.0
 10
790.5264139904231
 20
1766.724888588513
 30
0.0
 10
790.7246223248996
 20
1770.921877375149
 30
0.0
 10
791.15061301968
 20
1774.939193383104
 30
0.0
 10
791.7979325773758
 20
1778.95668706202
 30
0.0
 10
792.5869482220148
 20
1782.767909224068
 30
0.0
 10
793.4569896765605
 20
1786.248155109779
 30
0.0
 10
794.4365214109928
 20
1789.560359109881
 30
0.0
 10
795.436125861214
 20
1792.586524784079
 30
0.0
 10
796.3853700499542
 20
1795.215283993149
 30
0.0
 10
797.3006323742112
 20
1797.56441127611
 30
0.0
 10
798.3854447976385
 20
1800.225193048449
 30
0.0
 10
799.3624429397524
 20
1802.409449505258
 30
0.0
 10
799.6664074432013
 20
1803.055388647653
 30
0.0
 10
799.6664074432013
 20
1803.099999999992
 30
0.0
  0
SPLINE
  5
15F
330
87
100
AcDbEntity
  8
P-SANR-FIXT
100
AcDbSpline
210
0.0
220
0.0
230
1.0
 70
     8
 71
     3
 72
    34
 73
    30
 74
     0
 42
0.000000001
 43
0.0000000001
 40
0.0
 40
0.0
 40
0.0
 40
0.0
 40
0.0555555555555556
 40
0.1111111111111111
 40
0.1666666666666666
 40
0.1944444444444444
 40
0.2222222222222222
 40
0.25
 40
0.2777777777777778
 40
0.3055555555555556
 40
0.3333333333333333
 40
0.3611111111111111
 40
0.3888888888888888
 40
0.4166666666666666
 40
0.4444444444444445
 40
0.4791666666666666
 40
0.5138888888888889
 40
0.5486111111111111
 40
0.5833333333333333
 40
0.6180555555555555
 40
0.6527777777777777
 40
0.6875
 40
0.7222222222222223
 40
0.7569444444444445
 40
0.7916666666666668
 40
0.8263888888888889
 40
0.861111111111111
 40
0.9305555555555555
 40
1.0
 40
1.0
 40
1.0
 40
1.0
 10
799.6664074432013
 20
2056.899999999996
 30
0.0
 10
799.6664074432013
 20
2056.935227302117
 30
0.0
 10
799.4712664942331
 20
2057.366358214284
 30
0.0
 10
798.6996871175582
 20
2059.050007559316
 30
0.0
 10
797.7030194803532
 20
2061.429866028289
 30
0.0
 10
796.7520643710419
 20
2063.837227174198
 30
0.0
 10
796.0050399844935
 20
2065.823016378105
 30
0.0
 10
795.2321068686859
 20
2068.023246255218
 30
0.0
 10
794.4348463299278
 20
2070.463403099104
 30
0.0
 10
793.6514504399747
 20
2073.08733493108
 30
0.0
 10
792.9267565980264
 20
2075.830099001975
 30
0.0
 10
792.2651045165333
 20
2078.743553916822
 30
0.0
 10
791.6633602123226
 20
2081.851556922591
 30
0.0
 10
791.1633608234127
 20
2085.068732729432
 30
0.0
 10
790.7724379557527
 20
2088.560612059433
 30
0.0
 10
790.5488684312305
 20
2092.430107099095
 30
0.0
 10
790.5264139904229
 20
2096.724888588513
 30
0.0
 10
790.7246223248997
 20
2100.921877375149
 30
0.0
 10
791.15061301968
 20
2104.939193383105
 30
0.0
 10
791.7979325773758
 20
2108.95668706202
 30
0.0
 10
792.5869482220149
 20
2112.767909224068
 30
0.0
 10
793.4569896765605
 20
2116.248155109779
 30
0.0
 10
794.4365214109928
 20
2119.560359109881
 30
0.0
 10
795.4361258612141
 20
2122.586524784079
 30
0.0
 10
796.3853700499542
 20
2125.21528399315
 30
0.0
 10
797.3006323742114
 20
2127.564411276111
 30
0.0
 10
798.3854447976385
 20
2130.225193048449
 30
0.0
 10
799.3624429397524
 20
2132.409449505258
 30
0.0
 10
799.6664074432013
 20
2133.055388647653
 30
0.0
 10
799.6664074432013
 20
2133.099999999992
 30
0.0
  0
LINE
  5
160
330
87
100
AcDbEntity
  8
P-SANR-FIXT
100
AcDbLine
 10
945.6664074432012
 20
2177.499999999994
 30
0.0
 11
945.6664074432012
 21
2012.499999999994
 31
0.0
  0
LINE
  5
161
330
87
100
AcDbEntity
  8
P-SANR-FIXT
100
AcDbLine
 10
945.6664074432007
 20
1847.499999999994
 30
0.0
 11
945.6664074432007
 21
1682.499999999994
 31
0.0
  0
LINE
  5
162
330
87
100
AcDbEntity
  8
P-SANR-FIXT
100
AcDbLine
 10
929.6664074432014
 20
2177.499999999994
 30
0.0
 11
929.6664074432014
 21
2012.499999999994
 31
0.0
  0
LINE
  5
163
330
87
100
AcDbEntity
  8
P-SANR-FIXT
100
AcDbLine
 10
501.6664074432013
 20
2187.499999999994
 30
0.0
 11
501.6664074432013
 21
2002.499999999994
 31
0.0
  0
LINE
  5
164
330
87
100
AcDbEntity
  8
P-SANR-FIXT
100
AcDbLine
 10
485.6664074432013
 20
2187.499999999994
 30
0.0
 11
485.6664074432013
 21
2002.499999999994
 31
0.0
  0
LINE
  5
165
330
87
100
AcDbEntity
  8
P-SANR-FIXT
100
AcDbLine
 10
855.6664074432012
 20
2133.099999999994
 30
0.0
 11
881.6664074432011
 21
2133.099999999994
 31
0.0
  0
LINE
  5
166
330
87
100
AcDbEntity
  8
P-SANR-FIXT
100
AcDbLine
 10
881.6664074432011
 20
2163.099999999994
 30
0.0
 11
855.6664074432012
 21
2163.099999999994
 31
0.0
  0
LINE
  5
167
330
87
100
AcDbEntity
  8
P-SANR-FIXT
100
AcDbLine
 10
855.6664074432008
 20
1803.099999999994
 30
0.0
 11
881.6664074432006
 21
1803.099999999994
 31
0.0
  0
LINE
  5
168
330
87
100
AcDbEntity
  8
P-SANR-FIXT
100
AcDbLine
 10
881.6664074432006
 20
1833.099999999994
 30
0.0
 11
855.6664074432008
 21
1833.099999999994
 31
0.0
  0
LINE
  5
169
330
87
100
AcDbEntity
  8
P-SANR-FIXT
100
AcDbLine
 10
929.6664074432005
 20
1847.499999999994
 30
0.0
 11
929.6664074432005
 21
1682.499999999994
 31
0.0
  0
LINE
  5
16A
330
87
100
AcDbEntity
  8
P-SANR-FIXT
100
AcDbLine
 10
501.6664074432005
 20
1857.499999999994
 30
0.0
 11
501.6664074432005
 21
1672.499999999994
 31
0.0
  0
LINE
  5
16B
330
87
100
AcDbEntity
  8
P-SANR-FIXT
100
AcDbLine
 10
485.6664074432006
 20
1857.499999999994
 30
0.0
 11
485.6664074432006
 21
1672.499999999994
 31
0.0
  0
ENDBLK
  5
16D
330
87
100
AcDbEntity
  8
0
100
AcDbBlockEnd
  0
BLOCK
  5
1EB
330
16F
100
AcDbEntity
  8
0
100
AcDbBlockBegin
  2
Automatic flow rate regulator valve_Caleffi_121 DN15 - 1_2__-V1-Est - Idraulica
 70
     0
 10
0.0
 20
0.0
 30
0.0
  3
Automatic flow rate regulator valve_Caleffi_121 DN15 - 1_2__-V1-Est - Idraulica
  1

  0
LINE
  5
170
330
16F
100
AcDbEntity
  8
M-PIPE
100
AcDbLine
 10
828.7250011932011
 20
948.3396287300537
 30
0.0
 11
828.7250011932009
 21
956.3396287300538
 31
0.0
1001
REVIT
1002
{
1070
     3
1000
790271
1002
}
  0
LINE
  5
171
330
16F
100
AcDbEntity
  8
M-PIPE
100
AcDbLine
 10
828.7250011932009
 20
956.3396287300538
 30
0.0
 11
782.3702335861486
 21
956.3396287300536
 31
0.0
1001
REVIT
1002
{
1070
     3
1000
790271
1002
}
  0
LINE
  5
172
330
16F
100
AcDbEntity
  8
M-PIPE
100
AcDbLine
 10
828.7250011932011
 20
948.3396287300537
 30
0.0
 11
775.4857264505115
 21
948.3396287300536
 31
0.0
1001
REVIT
1002
{
1070
     3
1000
790271
1002
}
  0
LINE
  5
173
330
16F
100
AcDbEntity
  8
M-PIPE
100
AcDbLine
 10
715.7250011931971
 20
972.4417703851214
 30
0.0
 11
731.225001193197
 21
981.3906995575607
 31
0.0
1001
REVIT
1002
{
1070
     3
1000
790271
1002
}
  0
LINE
  5
174
330
16F
100
AcDbEntity
  8
M-PIPE
100
AcDbLine
 10
731.225001193197
 20
981.3906995575607
 30
0.0
 11
731.2250011931967
 21
999.2885579024392
 31
0.0
1001
REVIT
1002
{
1070
     3
1000
790271
1002
}
  0
LINE
  5
175
330
16F
100
AcDbEntity
  8
M-PIPE
100
AcDbLine
 10
731.2250011931967
 20
999.2885579024392
 30
0.0
 11
715.7250011931965
 21
1008.237487074878
 31
0.0
1001
REVIT
1002
{
1070
     3
1000
790271
1002
}
  0
LINE
  5
176
330
16F
100
AcDbEntity
  8
M-PIPE
100
AcDbLine
 10
715.7250011931965
 20
1008.237487074878
 30
0.0
 11
700.2250011931967
 21
999.2885579024386
 31
0.0
1001
REVIT
1002
{
1070
     3
1000
790271
1002
}
  0
LINE
  5
177
330
16F
100
AcDbEntity
  8
M-PIPE
100
AcDbLine
 10
700.2250011931967
 20
999.2885579024386
 30
0.0
 11
700.225001193197
 21
981.3906995575601
 31
0.0
1001
REVIT
1002
{
1070
     3
1000
790271
1002
}
  0
LINE
  5
178
330
16F
100
AcDbEntity
  8
M-PIPE
100
AcDbLine
 10
700.225001193197
 20
981.3906995575601
 30
0.0
 11
715.7250011931971
 21
972.4417703851214
 31
0.0
1001
REVIT
1002
{
1070
     3
1000
790271
1002
}
  0
ARC
  5
179
330
16F
100
AcDbEntity
  8
M-PIPE
100
AcDbCircle
 10
715.7250011931965
 20
1007.339628730009
 30
0.0
 40
57.50000000000003
100
AcDbArc
 50
189.9770839511122
 51
230.0229160488875
1001
REVIT
1002
{
1070
     3
1000
790271
1002
}
  0
ARC
  5
17A
330
16F
100
AcDbEntity
  8
M-PIPE
100
AcDbCircle
 10
686.9750011931967
 20
957.5431680124033
 30
0.0
 40
9.999999999999873
100
AcDbArc
 50
145.0114580244436
 51
334.9885419755552
1001
REVIT
1002
{
1070
     3
1000
790271
1002
}
  0
ARC
  5
17B
330
16F
100
AcDbEntity
  8
M-PIPE
100
AcDbCircle
 10
715.7250011931965
 20
1007.339628730009
 30
0.0
 40
57.49999999999999
100
AcDbArc
 50
249.9770839511116
 51
290.0229160488871
1001
REVIT
1002
{
1070
     3
1000
790271
1002
}
  0
ARC
  5
17C
330
16F
100
AcDbEntity
  8
M-PIPE
100
AcDbCircle
 10
744.4750011931969
 20
957.5431680124038
 30
0.0
 40
9.999999999999998
100
AcDbArc
 50
205.011458024443
 51
34.98854197555598
1001
REVIT
1002
{
1070
     3
1000
790271
1002
}
  0
ARC
  5
17D
330
16F
100
AcDbEntity
  8
M-PIPE
100
AcDbCircle
 10
715.7250011931965
 20
1007.339628730009
 30
0.0
 40
57.50000000000005
100
AcDbArc
 50
309.9770839511111
 51
350.0229160488872
1001
REVIT
1002
{
1070
     3
1000
790271
1002
}
  0
ARC
  5
17E
330
16F
100
AcDbEntity
  8
M-PIPE
100
AcDbCircle
 10
773.2250011931965
 20
1007.33962873001
 30
0.0
 40
10.00000000000007
100
AcDbArc
 50
265.0114580244439
 51
94.98854197555514
1001
REVIT
1002
{
1070
     3
1000
790271
1002
}
  0
ARC
  5
17F
330
16F
100
AcDbEntity
  8
M-PIPE
100
AcDbCircle
 10
715.7250011931965
 20
1007.339628730009
 30
0.0
 40
57.50000000000004
100
AcDbArc
 50
9.977083951112188
 51
50.02291604890304
1001
REVIT
1002
{
1070
     3
1000
790271
1002
}
  0
ARC
  5
180
330
16F
100
AcDbEntity
  8
M-PIPE
100
AcDbCircle
 10
744.4750011931961
 20
1057.136089447614
 30
0.0
 40
9.999999999984421
100
AcDbArc
 50
325.0114580244512
 51
154.9885419755146
1001
REVIT
1002
{
1070
     3
1000
790271
1002
}
  0
ARC
  5
181
330
16F
100
AcDbEntity
  8
M-PIPE
100
AcDbCircle
 10
715.7250011932052
 20
1007.339628729948
 30
0.0
 40
57.50000000006032
100
AcDbArc
 50
69.97708395112529
 51
110.0229160488758
1001
REVIT
1002
{
1070
     3
1000
790271
1002
}
  0
ARC
  5
182
330
16F
100
AcDbEntity
  8
M-PIPE
100
AcDbCircle
 10
686.975001193196
 20
1057.136089447613
 30
0.0
 40
9.999999999999593
100
AcDbArc
 50
25.01145802444395
 51
214.9885419755547
1001
REVIT
1002
{
1070
     3
1000
790271
1002
}
  0
ARC
  5
183
330
16F
100
AcDbEntity
  8
M-PIPE
100
AcDbCircle
 10
715.7250011931965
 20
1007.339628730009
 30
0.0
 40
57.49999999999994
100
AcDbArc
 50
129.9770839511118
 51
170.0229160488885
1001
REVIT
1002
{
1070
     3
1000
790271
1002
}
  0
ARC
  5
184
330
16F
100
AcDbEntity
  8
M-PIPE
100
AcDbCircle
 10
658.2250011931964
 20
1007.339628730008
 30
0.0
 40
9.999999999999971
100
AcDbArc
 50
85.01145802444355
 51
274.9885419755548
1001
REVIT
1002
{
1070
     3
1000
790271
1002
}
  0
ARC
  5
185
330
16F
100
AcDbEntity
  8
M-PIPE
100
AcDbCircle
 10
715.7250011931818
 20
990.3396287299976
 30
0.0
 40
26.50000000000006
100
AcDbArc
 50
265.0000000000006
 51
265.4989141705218
1001
REVIT
1002
{
1070
     3
1000
790271
1002
}
  0
ARC
  5
186
330
16F
100
AcDbEntity
  8
M-PIPE
100
AcDbCircle
 10
715.7250011931818
 20
990.3396287299976
 30
0.0
 40
26.49999999999999
100
AcDbArc
 50
260.0000000000009
 51
260.9950993195408
1001
REVIT
1002
{
1070
     3
1000
790271
1002
}
  0
ARC
  5
187
330
16F
100
AcDbEntity
  8
M-PIPE
100
AcDbCircle
 10
715.7250011931818
 20
990.3396287299976
 30
0.0
 40
26.50000000000003
100
AcDbArc
 50
255.0000000000006
 51
256.489575133529
1001
REVIT
1002
{
1070
     3
1000
790271
1002
}
  0
ARC
  5
188
330
16F
100
AcDbEntity
  8
M-PIPE
100
AcDbCircle
 10
715.7250011931818
 20
990.3396287299976
 30
0.0
 40
26.50000000000009
100
AcDbArc
 50
242.9728913627072
 51
251.9833361371158
1001
REVIT
1002
{
1070
     3
1000
790271
1002
}
  0
ARC
  5
189
330
16F
100
AcDbEntity
  8
M-PIPE
100
AcDbCircle
 10
715.7250011931818
 20
990.3396287299976
 30
0.0
 40
26.49999999999992
100
AcDbArc
 50
238.4710753991543
 51
240.0000000000009
1001
REVIT
1002
{
1070
     3
1000
790271
1002
}
  0
ARC
  5
18A
330
16F
100
AcDbEntity
  8
M-PIPE
100
AcDbCircle
 10
715.7250011931818
 20
990.3396287299976
 30
0.0
 40
26.49999999999995
100
AcDbArc
 50
233.9735171897365
 51
235.000000000001
1001
REVIT
1002
{
1070
     3
1000
790271
1002
}
  0
ARC
  5
18B
330
16F
100
AcDbEntity
  8
M-PIPE
100
AcDbCircle
 10
715.7250011931818
 20
990.3396287299976
 30
0.0
 40
26.50000000000005
100
AcDbArc
 50
229.4822353515836
 51
230.0000000000009
1001
REVIT
1002
{
1070
     3
1000
790271
1002
}
  0
ARC
  5
18C
330
16F
100
AcDbEntity
  8
M-PIPE
100
AcDbCircle
 10
715.7250011931818
 20
990.3396287299976
 30
0.0
 40
26.5
100
AcDbArc
 50
220.0000000000009
 51
220.5177646484179
1001
REVIT
1002
{
1070
     3
1000
790271
1002
}
  0
ARC
  5
18D
330
16F
100
AcDbEntity
  8
M-PIPE
100
AcDbCircle
 10
715.7250011931818
 20
990.3396287299976
 30
0.0
 40
26.49999999999999
100
AcDbArc
 50
215.000000000001
 51
216.0264828102651
1001
REVIT
1002
{
1070
     3
1000
790271
1002
}
  0
ARC
  5
18E
330
16F
100
AcDbEntity
  8
M-PIPE
100
AcDbCircle
 10
715.7250011931818
 20
990.3396287299976
 30
0.0
 40
26.50000000000002
100
AcDbArc
 50
210.0000000000006
 51
211.5289246008472
1001
REVIT
1002
{
1070
     3
1000
790271
1002
}
  0
ARC
  5
18F
330
16F
100
AcDbEntity
  8
M-PIPE
100
AcDbCircle
 10
715.7250011931818
 20
990.3396287299976
 30
0.0
 40
26.49999999999993
100
AcDbArc
 50
198.0166638628857
 51
207.0271086372943
1001
REVIT
1002
{
1070
     3
1000
790271
1002
}
  0
ARC
  5
190
330
16F
100
AcDbEntity
  8
M-PIPE
100
AcDbCircle
 10
715.7250011931818
 20
990.3396287299976
 30
0.0
 40
26.49999999999995
100
AcDbArc
 50
193.510424866473
 51
195.0000000000009
1001
REVIT
1002
{
1070
     3
1000
790271
1002
}
  0
ARC
  5
191
330
16F
100
AcDbEntity
  8
M-PIPE
100
AcDbCircle
 10
715.7250011931818
 20
990.3396287299976
 30
0.0
 40
26.49999999999988
100
AcDbArc
 50
189.0049006804614
 51
190.0000000000008
1001
REVIT
1002
{
1070
     3
1000
790271
1002
}
  0
ARC
  5
192
330
16F
100
AcDbEntity
  8
M-PIPE
100
AcDbCircle
 10
715.7250011931818
 20
990.3396287299976
 30
0.0
 40
26.4999999999999
100
AcDbArc
 50
184.5010858294801
 51
185.0000000000009
1001
REVIT
1002
{
1070
     3
1000
790271
1002
}
  0
ARC
  5
193
330
16F
100
AcDbEntity
  8
M-PIPE
100
AcDbCircle
 10
715.7250011931818
 20
990.3396287299976
 30
0.0
 40
26.50000000000006
100
AcDbArc
 50
175.0000000000014
 51
175.4989141705221
1001
REVIT
1002
{
1070
     3
1000
790271
1002
}
  0
ARC
  5
194
330
16F
100
AcDbEntity
  8
M-PIPE
100
AcDbCircle
 10
715.7250011931818
 20
990.3396287299976
 30
0.0
 40
26.50000000000003
100
AcDbArc
 50
170.0000000000014
 51
170.9950993195409
1001
REVIT
1002
{
1070
     3
1000
790271
1002
}
  0
ARC
  5
195
330
16F
100
AcDbEntity
  8
M-PIPE
100
AcDbCircle
 10
715.7250011931818
 20
990.3396287299976
 30
0.0
 40
26.50000000000005
100
AcDbArc
 50
165.0000000000014
 51
166.4895751335291
1001
REVIT
1002
{
1070
     3
1000
790271
1002
}
  0
ARC
  5
196
330
16F
100
AcDbEntity
  8
M-PIPE
100
AcDbCircle
 10
715.7250011931818
 20
990.3396287299976
 30
0.0
 40
26.50000000000009
100
AcDbArc
 50
152.9728913627072
 51
161.9833361371162
1001
REVIT
1002
{
1070
     3
1000
790271
1002
}
  0
ARC
  5
197
330
16F
100
AcDbEntity
  8
M-PIPE
100
AcDbCircle
 10
715.7250011931818
 20
990.3396287299976
 30
0.0
 40
26.49999999999998
100
AcDbArc
 50
148.4710753991541
 51
150.0000000000013
1001
REVIT
1002
{
1070
     3
1000
790271
1002
}
  0
ARC
  5
198
330
16F
100
AcDbEntity
  8
M-PIPE
100
AcDbCircle
 10
715.7250011931818
 20
990.3396287299976
 30
0.0
 40
26.50000000000002
100
AcDbArc
 50
143.9735171897367
 51
145.0000000000013
1001
REVIT
1002
{
1070
     3
1000
790271
1002
}
  0
ARC
  5
199
330
16F
100
AcDbEntity
  8
M-PIPE
100
AcDbCircle
 10
715.7250011931818
 20
990.3396287299976
 30
0.0
 40
26.49999999999997
100
AcDbArc
 50
139.4822353515831
 51
140.0000000000012
1001
REVIT
1002
{
1070
     3
1000
790271
1002
}
  0
ARC
  5
19A
330
16F
100
AcDbEntity
  8
M-PIPE
100
AcDbCircle
 10
715.7250011931818
 20
990.3396287299976
 30
0.0
 40
26.49999999999997
100
AcDbArc
 50
130.0000000000013
 51
130.5177646484191
1001
REVIT
1002
{
1070
     3
1000
790271
1002
}
  0
ARC
  5
19B
330
16F
100
AcDbEntity
  8
M-PIPE
100
AcDbCircle
 10
715.7250011931818
 20
990.3396287299976
 30
0.0
 40
26.49999999999989
100
AcDbArc
 50
125.0000000000015
 51
126.0264828102656
1001
REVIT
1002
{
1070
     3
1000
790271
1002
}
  0
ARC
  5
19C
330
16F
100
AcDbEntity
  8
M-PIPE
100
AcDbCircle
 10
715.7250011931818
 20
990.3396287299976
 30
0.0
 40
26.49999999999986
100
AcDbArc
 50
120.0000000000014
 51
121.5289246008476
1001
REVIT
1002
{
1070
     3
1000
790271
1002
}
  0
ARC
  5
19D
330
16F
100
AcDbEntity
  8
M-PIPE
100
AcDbCircle
 10
715.7250011931818
 20
990.3396287299976
 30
0.0
 40
26.49999999999993
100
AcDbArc
 50
108.0166638628865
 51
117.027108637295
1001
REVIT
1002
{
1070
     3
1000
790271
1002
}
  0
ARC
  5
19E
330
16F
100
AcDbEntity
  8
M-PIPE
100
AcDbCircle
 10
715.7250011931818
 20
990.3396287299976
 30
0.0
 40
26.49999999999991
100
AcDbArc
 50
103.5104248664727
 51
105.0000000000011
1001
REVIT
1002
{
1070
     3
1000
790271
1002
}
  0
ARC
  5
19F
330
16F
100
AcDbEntity
  8
M-PIPE
100
AcDbCircle
 10
715.7250011931818
 20
990.3396287299976
 30
0.0
 40
26.49999999999999
100
AcDbArc
 50
99.00490068046108
 51
100.0000000000014
1001
REVIT
1002
{
1070
     3
1000
790271
1002
}
  0
ARC
  5
1A0
330
16F
100
AcDbEntity
  8
M-PIPE
100
AcDbCircle
 10
715.7250011931818
 20
990.3396287299976
 30
0.0
 40
26.50000000000002
100
AcDbArc
 50
94.50108582948029
 51
95.00000000000127
1001
REVIT
1002
{
1070
     3
1000
790271
1002
}
  0
ARC
  5
1A1
330
16F
100
AcDbEntity
  8
M-PIPE
100
AcDbCircle
 10
715.7250011931818
 20
990.3396287299976
 30
0.0
 40
26.50000000000009
100
AcDbArc
 50
85.00000000000122
 51
85.49891417052146
1001
REVIT
1002
{
1070
     3
1000
790271
1002
}
  0
ARC
  5
1A2
330
16F
100
AcDbEntity
  8
M-PIPE
100
AcDbCircle
 10
715.7250011931818
 20
990.3396287299976
 30
0.0
 40
26.50000000000005
100
AcDbArc
 50
80.00000000000113
 51
80.99509931954044
1001
REVIT
1002
{
1070
     3
1000
790271
1002
}
  0
ARC
  5
1A3
330
16F
100
AcDbEntity
  8
M-PIPE
100
AcDbCircle
 10
715.7250011931818
 20
990.3396287299976
 30
0.0
 40
26.50000000000008
100
AcDbArc
 50
75.00000000000134
 51
76.4895751335289
1001
REVIT
1002
{
1070
     3
1000
790271
1002
}
  0
ARC
  5
1A4
330
16F
100
AcDbEntity
  8
M-PIPE
100
AcDbCircle
 10
715.7250011931818
 20
990.3396287299976
 30
0.0
 40
26.50000000000005
100
AcDbArc
 50
62.97289136270702
 51
71.9833361371157
1001
REVIT
1002
{
1070
     3
1000
790271
1002
}
  0
ARC
  5
1A5
330
16F
100
AcDbEntity
  8
M-PIPE
100
AcDbCircle
 10
715.7250011931818
 20
990.3396287299976
 30
0.0
 40
26.50000000000008
100
AcDbArc
 50
58.47107539915405
 51
60.00000000000131
1001
REVIT
1002
{
1070
     3
1000
790271
1002
}
  0
ARC
  5
1A6
330
16F
100
AcDbEntity
  8
M-PIPE
100
AcDbCircle
 10
715.7250011931818
 20
990.3396287299976
 30
0.0
 40
26.50000000000011
100
AcDbArc
 50
53.97351718973625
 51
55.00000000000138
1001
REVIT
1002
{
1070
     3
1000
790271
1002
}
  0
ARC
  5
1A7
330
16F
100
AcDbEntity
  8
M-PIPE
100
AcDbCircle
 10
715.7250011931818
 20
990.3396287299976
 30
0.0
 40
26.50000000000014
100
AcDbArc
 50
49.48223535158343
 51
50.00000000000138
1001
REVIT
1002
{
1070
     3
1000
790271
1002
}
  0
ARC
  5
1A8
330
16F
100
AcDbEntity
  8
M-PIPE
100
AcDbCircle
 10
715.7250011931818
 20
990.3396287299976
 30
0.0
 40
26.49999999999999
100
AcDbArc
 50
40.0000000000014
 51
40.51776464841867
1001
REVIT
1002
{
1070
     3
1000
790271
1002
}
  0
ARC
  5
1A9
330
16F
100
AcDbEntity
  8
M-PIPE
100
AcDbCircle
 10
715.7250011931818
 20
990.3396287299976
 30
0.0
 40
26.50000000000003
100
AcDbArc
 50
35.00000000000166
 51
36.02648281026596
1001
REVIT
1002
{
1070
     3
1000
790271
1002
}
  0
ARC
  5
1AA
330
16F
100
AcDbEntity
  8
M-PIPE
100
AcDbCircle
 10
715.7250011931818
 20
990.3396287299976
 30
0.0
 40
26.50000000000006
100
AcDbArc
 50
30.00000000000163
 51
31.52892460084727
1001
REVIT
1002
{
1070
     3
1000
790271
1002
}
  0
ARC
  5
1AB
330
16F
100
AcDbEntity
  8
M-PIPE
100
AcDbCircle
 10
715.7250011931818
 20
990.3396287299976
 30
0.0
 40
26.50000000000008
100
AcDbArc
 50
18.01666386288665
 51
27.02710863729465
1001
REVIT
1002
{
1070
     3
1000
790271
1002
}
  0
ARC
  5
1AC
330
16F
100
AcDbEntity
  8
M-PIPE
100
AcDbCircle
 10
715.7250011931818
 20
990.3396287299976
 30
0.0
 40
26.49999999999998
100
AcDbArc
 50
13.51042486647314
 51
15.0000000000016
1001
REVIT
1002
{
1070
     3
1000
790271
1002
}
  0
ARC
  5
1AD
330
16F
100
AcDbEntity
  8
M-PIPE
100
AcDbCircle
 10
715.7250011931818
 20
990.3396287299976
 30
0.0
 40
26.49999999999999
100
AcDbArc
 50
9.004900680461545
 51
10.00000000000164
1001
REVIT
1002
{
1070
     3
1000
790271
1002
}
  0
ARC
  5
1AE
330
16F
100
AcDbEntity
  8
M-PIPE
100
AcDbCircle
 10
715.7250011931818
 20
990.3396287299976
 30
0.0
 40
26.50000000000003
100
AcDbArc
 50
4.501085829480548
 51
5.000000000001516
1001
REVIT
1002
{
1070
     3
1000
790271
1002
}
  0
ARC
  5
1AF
330
16F
100
AcDbEntity
  8
M-PIPE
100
AcDbCircle
 10
715.7250011931818
 20
990.3396287299976
 30
0.0
 40
26.50000000000009
100
AcDbArc
 50
355.0000000000013
 51
355.4989141705213
1001
REVIT
1002
{
1070
     3
1000
790271
1002
}
  0
ARC
  5
1B0
330
16F
100
AcDbEntity
  8
M-PIPE
100
AcDbCircle
 10
715.7250011931818
 20
990.3396287299976
 30
0.0
 40
26.50000000000014
100
AcDbArc
 50
350.0000000000012
 51
350.9950993195405
1001
REVIT
1002
{
1070
     3
1000
790271
1002
}
  0
ARC
  5
1B1
330
16F
100
AcDbEntity
  8
M-PIPE
100
AcDbCircle
 10
715.7250011931818
 20
990.3396287299976
 30
0.0
 40
26.50000000000003
100
AcDbArc
 50
345.000000000001
 51
346.4895751335289
1001
REVIT
1002
{
1070
     3
1000
790271
1002
}
  0
ARC
  5
1B2
330
16F
100
AcDbEntity
  8
M-PIPE
100
AcDbCircle
 10
715.7250011931818
 20
990.3396287299976
 30
0.0
 40
26.49999999999998
100
AcDbArc
 50
332.9728913627072
 51
341.9833361371157
1001
REVIT
1002
{
1070
     3
1000
790271
1002
}
  0
ARC
  5
1B3
330
16F
100
AcDbEntity
  8
M-PIPE
100
AcDbCircle
 10
715.7250011931818
 20
990.3396287299976
 30
0.0
 40
26.50000000000002
100
AcDbArc
 50
328.4710753991547
 51
330.000000000001
1001
REVIT
1002
{
1070
     3
1000
790271
1002
}
  0
ARC
  5
1B4
330
16F
100
AcDbEntity
  8
M-PIPE
100
AcDbCircle
 10
715.7250011931818
 20
990.3396287299976
 30
0.0
 40
26.49999999999998
100
AcDbArc
 50
323.9735171897359
 51
325.0000000000012
1001
REVIT
1002
{
1070
     3
1000
790271
1002
}
  0
ARC
  5
1B5
330
16F
100
AcDbEntity
  8
M-PIPE
100
AcDbCircle
 10
715.7250011931818
 20
990.3396287299976
 30
0.0
 40
26.50000000000007
100
AcDbArc
 50
319.4822353515838
 51
320.0000000000011
1001
REVIT
1002
{
1070
     3
1000
790271
1002
}
  0
ARC
  5
1B6
330
16F
100
AcDbEntity
  8
M-PIPE
100
AcDbCircle
 10
715.7250011931818
 20
990.3396287299976
 30
0.0
 40
26.49999999999988
100
AcDbArc
 50
310.0000000000012
 51
310.5177646484189
1001
REVIT
1002
{
1070
     3
1000
790271
1002
}
  0
ARC
  5
1B7
330
16F
100
AcDbEntity
  8
M-PIPE
100
AcDbCircle
 10
715.7250011931818
 20
990.3396287299976
 30
0.0
 40
26.49999999999991
100
AcDbArc
 50
305.0000000000011
 51
306.0264828102662
1001
REVIT
1002
{
1070
     3
1000
790271
1002
}
  0
ARC
  5
1B8
330
16F
100
AcDbEntity
  8
M-PIPE
100
AcDbCircle
 10
715.7250011931818
 20
990.3396287299976
 30
0.0
 40
26.49999999999999
100
AcDbArc
 50
300.0000000000012
 51
301.5289246008476
1001
REVIT
1002
{
1070
     3
1000
790271
1002
}
  0
ARC
  5
1B9
330
16F
100
AcDbEntity
  8
M-PIPE
100
AcDbCircle
 10
715.7250011931818
 20
990.3396287299976
 30
0.0
 40
26.49999999999993
100
AcDbArc
 50
288.0166638628864
 51
297.0271086372948
1001
REVIT
1002
{
1070
     3
1000
790271
1002
}
  0
ARC
  5
1BA
330
16F
100
AcDbEntity
  8
M-PIPE
100
AcDbCircle
 10
715.7250011931818
 20
990.3396287299976
 30
0.0
 40
26.49999999999998
100
AcDbArc
 50
283.5104248664731
 51
285.0000000000012
1001
REVIT
1002
{
1070
     3
1000
790271
1002
}
  0
ARC
  5
1BB
330
16F
100
AcDbEntity
  8
M-PIPE
100
AcDbCircle
 10
715.7250011931818
 20
990.3396287299976
 30
0.0
 40
26.49999999999988
100
AcDbArc
 50
279.0049006804617
 51
280.0000000000011
1001
REVIT
1002
{
1070
     3
1000
790271
1002
}
  0
ARC
  5
1BC
330
16F
100
AcDbEntity
  8
M-PIPE
100
AcDbCircle
 10
715.7250011931818
 20
990.3396287299976
 30
0.0
 40
26.49999999999991
100
AcDbArc
 50
274.50108582948
 51
275.0000000000011
1001
REVIT
1002
{
1070
     3
1000
790271
1002
}
  0
ARC
  5
1BD
330
16F
100
AcDbEntity
  8
M-PIPE
100
AcDbCircle
 10
715.7250011931819
 20
990.3396287299976
 30
0.0
 40
26.50000000000011
100
AcDbArc
 50
90.00000000000124
 51
270.0000000000009
1001
REVIT
1002
{
1070
     3
1000
790271
1002
}
  0
ARC
  5
1BE
330
16F
100
AcDbEntity
  8
M-PIPE
100
AcDbCircle
 10
715.7250011931819
 20
990.3396287299976
 30
0.0
 40
26.50000000000013
100
AcDbArc
 50
270.000000000001
 51
90.0000000000011
1001
REVIT
1002
{
1070
     3
1000
790271
1002
}
  0
ARC
  5
1BF
330
16F
100
AcDbEntity
  8
M-PIPE
100
AcDbCircle
 10
715.725001193182
 20
990.339628729998
 30
0.0
 40
10.84999999999961
100
AcDbArc
 50
90.0
 51
270.0000000000014
1001
REVIT
1002
{
1070
     3
1000
790271
1002
}
  0
ARC
  5
1C0
330
16F
100
AcDbEntity
  8
M-PIPE
100
AcDbCircle
 10
715.725001193182
 20
990.339628729998
 30
0.0
 40
10.84999999999985
100
AcDbArc
 50
270.0000000000023
 51
90.0000000000009
1001
REVIT
1002
{
1070
     3
1000
790271
1002
}
  0
LWPOLYLINE
  5
1C1
330
16F
100
AcDbEntity
  8
P-SANR-FIXT
100
AcDbPolyline
 90
       80
 70
   128
 43
0.0
 10
849.8098048198265
 20
1007.339628730056
 10
849.7025512785414
 20
1012.701590751629
 10
849.3809622374731
 20
1018.054974777794
 10
848.8455521704848
 20
1023.3912165361
 10
848.0971776194689
 20
1028.701779178073
 10
847.1370358240628
 20
1033.978166936344
 10
845.9666628063194
 20
1039.21193871607
 10
844.5879309134012
 20
1044.394721598883
 10
843.0030458222228
 20
1049.51822423777
 10
841.2145430108395
 20
1054.574250121465
 10
839.2252837022223
 20
1059.554710687116
 10
837.0384502869125
 20
1064.451638260259
 10
834.6575412318752
 20
1069.257198801399
 10
832.086365483698
 20
1073.963704438802
 10
829.3290363750896
 20
1078.56362576745
 10
826.3899650444255
 20
1083.04960389448
 10
823.2738533788657
 20
1087.414462211847
 10
819.9856864923408
 20
1091.651217877362
 10
816.53072475043
 20
1095.753092985756
 10
812.9144953549019
 20
1099.713525411873
 10
809.1427835013684
 20
1103.52617930868
 10
805.2216231242054
 20
1107.184955243264
 10
801.1572872435476
 20
1110.683999954628
 10
796.9562779297913
 20
1114.017715717655
 10
792.6253159016717
 20
1117.18076929828
 10
788.1713297745436
 20
1120.168100485524
 10
783.6014449760782
 20
1122.974930186749
 10
778.922972347096
 20
1125.596768073191
 10
774.1433964457822
 20
1128.029419763529
 10
769.2703635739908
 20
1130.268993533996
 10
764.3116695447913
 20
1132.311906544309
 10
759.2752472108326
 20
1134.154890569449
 10
754.1691537734692
 20
1135.794997228127
 10
749.0015578929591
 20
1137.229602699558
 10
743.7807266203496
 20
1138.456411921021
 10
738.5150121719591
 20
1139.473462259467
 10
733.2128385676121
 20
1140.279126651314
 10
727.8826881540059
 20
1140.8721162054
 10
722.5330880347638
 20
1141.251482264938
 10
717.1725964288896
 20
1141.416617925159
 10
711.8097889794425
 20
1141.367259004232
 10
706.4532450343363
 20
1141.103484465903
 10
701.1115339212152
 20
1140.625716293164
 10
695.793201238356
 20
1139.934718813173
 10
690.5067551835339
 20
1139.031597474493
 10
685.2606529427216
 20
1137.91779707861
 10
680.0632871603959
 20
1136.59509946856
 10
674.9229725130962
 20
1135.065620678358
 10
669.8479324077159
 20
1133.331807547797
 10
664.8462858258064
 20
1131.396433808026
 10
659.9260343349376
 20
1129.26259564417
 10
655.0950492878975
 20
1126.933706742098
 10
650.3610592302057
 20
1124.413492827249
 10
645.7316375360907
 20
1121.70598570427
 10
641.2141902927061
 20
1118.815516806987
 10
636.8159444519701
 20
1115.746710269036
 10
632.5439362689859
 20
1112.504475526233
 10
628.405000045533
 20
1109.093999462527
 10
624.4057571966429
 20
1105.52073811209
 10
620.5526056577477
 20
1101.790407930828
 10
616.8517096493476
 20
1097.90897665127
 10
613.3089898155739
 20
1093.882653735469
 10
609.9301137524202
 20
1089.717880441186
 10
606.7204869407994
 20
1085.421319517255
 10
603.6852440989265
 20
1080.999844544604
 10
600.8292409678642
 20
1076.46052893999
 10
598.1570465433742
 20
1071.810634640047
 10
595.6729357664979
 20
1067.057600483728
 10
593.3808826845631
 20
1062.209030311759
 10
591.2845540935552
 20
1057.272680802106
 10
589.3873036720274
 20
1052.256449060955
 10
587.6921666159285
 20
1047.168359989017
 10
586.2018547829386
 20
1042.016553443409
 10
584.9187523540742
 20
1036.809271215609
 10
583.8449120195076
 20
1031.554843846353
 10
582.9820516947005
 20
1026.261677298549
 10
582.3315517721052
 20
1020.938239509523
 10
581.8944529128323
 20
1015.593046844132
 10
581.6714543818134
 20
1010.234650470394
 10
581.6401975665786
 20
1007.339628730054
  0
LINE
  5
1C2
330
16F
100
AcDbEntity
  8
P-SANR-FIXT
100
AcDbLine
 10
581.7250011932006
 20
1007.339628730054
 30
0.0
 11
612.5865776648236
 21
1007.339628730055
 31
0.0
  0
LINE
  5
1C3
330
16F
100
AcDbEntity
  8
P-SANR-FIXT
100
AcDbLine
 10
818.863424721578
 20
1007.339628730055
 30
0.0
 11
849.7250011932015
 21
1007.339628730055
 31
0.0
  0
LINE
  5
1C4
330
16F
100
AcDbEntity
  8
P-SANR-FIXT
100
AcDbLine
 10
612.5865776648242
 20
1007.339628730055
 30
0.0
 11
646.8615406020568
 21
1007.339628730055
 31
0.0
  0
LINE
  5
1C5
330
16F
100
AcDbEntity
  8
P-SANR-FIXT
100
AcDbLine
 10
784.5884617843455
 20
1007.339628730055
 30
0.0
 11
818.863424721578
 21
1007.339628730055
 31
0.0
  0
LINE
  5
1C6
330
16F
100
AcDbEntity
  8
P-SANR-FIXT
100
AcDbLine
 10
646.8615406020569
 20
1007.339628730055
 30
0.0
 11
648.2250011931966
 21
1007.339628730055
 31
0.0
  0
LINE
  5
1C7
330
16F
100
AcDbEntity
  8
P-SANR-FIXT
100
AcDbLine
 10
783.2250011931964
 20
1007.339628730055
 30
0.0
 11
784.5884617843455
 21
1007.339628730055
 31
0.0
  0
ARC
  5
1C8
330
16F
100
AcDbEntity
  8
P-SANR-FIXT
100
AcDbCircle
 10
868.7250011932011
 20
1007.339628730055
 30
0.0
 40
12.50000000000386
100
AcDbArc
 50
0.0
 51
179.9999999999995
  0
ARC
  5
1C9
330
16F
100
AcDbEntity
  8
P-SANR-FIXT
100
AcDbCircle
 10
868.7250011932011
 20
1007.339628730055
 30
0.0
 40
12.50000000000398
100
AcDbArc
 50
180.0
 51
0.0
  0
ARC
  5
1CA
330
16F
100
AcDbEntity
  8
P-SANR-FIXT
100
AcDbCircle
 10
868.7250011932011
 20
1007.339628730055
 30
0.0
 40
10.00000000000397
100
AcDbArc
 50
145.8419327633223
 51
154.1580672366752
  0
LINE
  5
1CB
330
16F
100
AcDbEntity
  8
P-SANR-FIXT
100
AcDbLine
 10
859.7250011932095
 20
1011.698527673623
 30
0.0
 11
859.7250011932093
 21
1002.980729786489
 31
0.0
  0
ARC
  5
1CC
330
16F
100
AcDbEntity
  8
P-SANR-FIXT
100
AcDbCircle
 10
868.7250011932011
 20
1007.339628730055
 30
0.0
 40
10.00000000000398
100
AcDbArc
 50
205.8419327633211
 51
214.1580672366741
  0
LINE
  5
1CD
330
16F
100
AcDbEntity
  8
P-SANR-FIXT
100
AcDbLine
 10
860.450083975547
 20
1001.724849567786
 30
0.0
 11
867.9999184108632
 21
997.3659506242192
 31
0.0
  0
ARC
  5
1CE
330
16F
100
AcDbEntity
  8
P-SANR-FIXT
100
AcDbCircle
 10
868.7250011932011
 20
1007.339628730055
 30
0.0
 40
10.00000000000413
100
AcDbArc
 50
265.8419327633217
 51
274.1580672366743
  0
LINE
  5
1CF
330
16F
100
AcDbEntity
  8
P-SANR-FIXT
100
AcDbLine
 10
869.4500839755384
 20
997.365950624219
 30
0.0
 11
876.999918410855
 21
1001.724849567786
 31
0.0
  0
ARC
  5
1D0
330
16F
100
AcDbEntity
  8
P-SANR-FIXT
100
AcDbCircle
 10
868.7250011932011
 20
1007.339628730055
 30
0.0
 40
10.00000000000409
100
AcDbArc
 50
325.8419327633209
 51
334.1580672366746
  0
LINE
  5
1D1
330
16F
100
AcDbEntity
  8
P-SANR-FIXT
100
AcDbLine
 10
877.7250011931927
 20
1002.980729786488
 30
0.0
 11
877.7250011931931
 21
1011.698527673622
 31
0.0
  0
ARC
  5
1D2
330
16F
100
AcDbEntity
  8
P-SANR-FIXT
100
AcDbCircle
 10
868.7250011932011
 20
1007.339628730055
 30
0.0
 40
10.00000000000414
100
AcDbArc
 50
25.84193276332164
 51
34.15806723667503
  0
LINE
  5
1D3
330
16F
100
AcDbEntity
  8
P-SANR-FIXT
100
AcDbLine
 10
876.9999184108554
 20
1012.954407892324
 30
0.0
 11
869.4500839755392
 21
1017.313306835891
 31
0.0
  0
ARC
  5
1D4
330
16F
100
AcDbEntity
  8
P-SANR-FIXT
100
AcDbCircle
 10
868.7250011932011
 20
1007.339628730055
 30
0.0
 40
10.00000000000403
100
AcDbArc
 50
85.84193276332142
 51
94.15806723667465
  0
LINE
  5
1D5
330
16F
100
AcDbEntity
  8
P-SANR-FIXT
100
AcDbLine
 10
867.9999184108638
 20
1017.313306835892
 30
0.0
 11
860.4500839755472
 21
1012.954407892325
 31
0.0
  0
LINE
  5
1D6
330
16F
100
AcDbEntity
  8
P-SANR-FIXT
100
AcDbLine
 10
929.7250011932034
 20
924.8396287300552
 30
0.0
 11
945.7250011932032
 21
924.8396287300552
 31
0.0
  0
LINE
  5
1D7
330
16F
100
AcDbEntity
  8
P-SANR-FIXT
100
AcDbLine
 10
790.622942931204
 20
969.2396287300566
 30
0.0
 11
929.725001193203
 21
969.2396287300569
 31
0.0
  0
LWPOLYLINE
  5
1D8
330
16F
100
AcDbEntity
  8
P-SANR-FIXT
100
AcDbPolyline
 90
       80
 70
   128
 43
0.0
 10
631.7250011932026
 20
1007.339628730055
 10
631.7921922336806
 20
1003.980524658378
 10
631.9936578637825
 20
1000.626794436644
 10
632.3290757814779
 20
997.2838033177859
 10
632.79790938965
 20
993.9568993744583
 10
633.3994086545384
 20
990.6514049432699
 10
634.1326113056322
 20
987.3726081101757
 10
634.996344375098
 20
984.1257542506692
 10
635.9892260742777
 20
980.9160376383008
 10
637.1096680042561
 20
977.7485931349472
 10
638.3558776969603
 20
974.6284879761281
 10
639.7258614827257
 20
971.5607136645109
 10
641.2174276797427
 20
968.5501779845703
 10
642.8281901002801
 20
965.6016971511808
 10
644.5555718680757
 20
962.7199881047005
 10
646.3968095407897
 20
959.909660964872
 10
648.348957530922
 20
957.1752116556139
 10
650.4088928181247
 20
954.5210147125029
 10
652.5733199453677
 20
951.9513162844507
 10
654.8387762909668
 20
949.470227340768
 10
657.201637608041
 20
947.0817170944949
 10
659.6581238225329
 20
944.7896066525025
 10
662.2043050805221
 20
942.5975629025414
 10
664.8361080351519
 20
940.5090926470002
 10
667.5493223631165
 20
938.5275369927708
 10
670.339607500279
 20
936.6560660061917
 10
673.2024995856493
 20
934.8976736416144
 10
676.1334186026085
 20
933.255172951719
 10
679.1276757059588
 20
931.7311915872283
 10
682.1804807230757
 20
930.3281675932264
 10
685.2869498171621
 20
929.0483455088077
 10
688.4421133003455
 20
927.8937727762935
 10
691.6409235841184
 20
926.86629646576
 10
694.8782632544034
 20
925.9675603201204
 10
698.1489532583236
 20
925.1990021254883
 10
701.4477611895825
 20
924.561851411024
 10
704.7694096591986
 20
924.0571274819533
 10
708.1085847382008
 20
923.6856377888932
 10
711.4599444587822
 20
923.4479766361058
 10
714.8181273603082
 20
923.3445242307377
 10
718.1777610665111
 20
923.3754460745686
 10
721.5334708801441
 20
923.5406926992443
 10
724.8798883813519
 20
923.8399997454164
 10
728.2116600159975
 20
924.2728883856598
 10
731.5234556602047
 20
924.8386660904946
 10
734.8099771474221
 20
925.5364277362867
 10
738.0659667443572
 20
926.365057053249
 10
741.2862155622288
 20
927.3232284112408
 10
744.4655718898783
 20
928.4094089404876
 10
747.5989494354079
 20
929.6218609838488
 10
750.6813354631629
 20
930.9586448766976
 10
753.7077988130395
 20
932.417622049971
 10
756.673497789289
 20
933.9964584514232
 10
759.5736879061984
 20
935.6926282796134
 10
762.4037294782543
 20
937.5034180246457
 10
765.1590950426521
 20
939.4259308092093
 10
767.8353766022681
 20
941.4570910229638
 10
770.4282926775167
 20
943.5936492428574
 10
772.933695155804
 20
945.8321874315142
 10
775.3475759276211
 20
948.1691244053601
 10
777.6660732986677
 20
950.600721563758
 10
779.8854781677361
 20
953.1230888699679
 10
782.0022399604835
 20
955.7321910743752
 10
784.0129723095936
 20
958.4238541700322
 10
785.9144584722411
 20
961.1937720701765
 10
787.7036564761945
 20
964.0375134970522
 10
789.3777039863226
 20
966.9505290710089
 10
790.9339228837202
 20
969.928158588538
 10
792.3698235501273
 20
972.965638477606
 10
793.6831088507869
 20
976.0581094183507
 10
794.8716778093705
 20
979.2006241169591
 10
795.9336289690917
 20
982.3881552202811
 10
796.8672634346328
 20
985.6156033585216
 10
797.671087590014
 20
988.8778053031453
 10
798.3438154880595
 20
992.1695422269394
 10
798.8843709076402
 20
995.4855480530261
 10
799.2918890753974
 20
998.8205178794604
 10
799.5657180491949
 20
1002.169116465942
 10
799.7054197610887
 20
1005.525986769063
 10
799.7250011932028
 20
1007.339628730054
  0
LINE
  5
1D9
330
16F
100
AcDbEntity
  8
P-SANR-FIXT
100
AcDbLine
 10
945.7250011932028
 20
1089.839628730055
 30
0.0
 11
929.7250011932028
 21
1089.839628730056
 31
0.0
  0
LINE
  5
1DA
330
16F
100
AcDbEntity
  8
P-SANR-FIXT
100
AcDbLine
 10
929.7250011932028
 20
1045.439628730054
 30
0.0
 11
844.1829353997402
 21
1045.439628730053
 31
0.0
  0
LINE
  5
1DB
330
16F
100
AcDbEntity
  8
P-SANR-FIXT
100
AcDbLine
 10
587.256160923145
 20
1045.439628730054
 30
0.0
 11
501.7250011932023
 21
1045.439628730054
 31
0.0
  0
LINE
  5
1DC
330
16F
100
AcDbEntity
  8
P-SANR-FIXT
100
AcDbLine
 10
501.7250011932026
 20
969.2396287300534
 30
0.0
 11
640.8270594552026
 21
969.2396287300541
 31
0.0
  0
LINE
  5
1DD
330
16F
100
AcDbEntity
  8
P-SANR-FIXT
100
AcDbLine
 10
501.7250011932022
 20
1099.839628730054
 30
0.0
 11
485.7250011932022
 21
1099.839628730054
 31
0.0
  0
LINE
  5
1DE
330
16F
100
AcDbEntity
  8
P-SANR-FIXT
100
AcDbLine
 10
485.7250011932028
 20
914.8396287300538
 30
0.0
 11
501.7250011932029
 21
914.8396287300537
 31
0.0
  0
SPLINE
  5
1DF
330
16F
100
AcDbEntity
  8
P-SANR-FIXT
100
AcDbSpline
210
0.0
220
0.0
230
1.0
 70
     8
 71
     3
 72
    22
 73
    18
 74
     0
 42
0.000000001
 43
0.0000000001
 40
0.0
 40
0.0
 40
0.0
 40
0.0
 40
0.0555555555555556
 40
0.1111111111111111
 40
0.1666666666666666
 40
0.1944444444444444
 40
0.2222222222222222
 40
0.25
 40
0.2777777777777778
 40
0.3055555555555556
 40
0.3333333333333333
 40
0.3611111111111111
 40
0.3888888888888888
 40
0.4166666666666666
 40
0.4444444444444445
 40
0.4791666666666666
 40
0.4814814814814812
 40
0.4814814814814812
 40
0.4814814814814812
 40
0.4814814814814812
 10
631.7250011932012
 20
1007.339628730055
 30
0.0
 10
631.7250011932012
 20
1005.010017414965
 30
0.0
 10
631.9201421421695
 20
1000.471401042728
 30
0.0
 10
632.6917215188444
 20
994.1274158577002
 30
0.0
 10
633.6883891560495
 20
989.0959547429879
 30
0.0
 10
634.6393442653611
 20
985.3459373060347
 30
0.0
 10
635.3863686519095
 20
982.7644841954329
 30
0.0
 10
636.1593017677172
 20
980.3711217279355
 30
0.0
 10
636.9565623064755
 20
978.1286390597907
 30
0.0
 10
637.7399581964287
 20
976.1032900202856
 30
0.0
 10
638.464652038377
 20
974.3568473204335
 30
0.0
 10
639.1263041198702
 20
972.8515021385758
 30
0.0
 10
639.728048424081
 20
971.548150074884
 30
0.0
 10
640.228047812991
 20
970.5085279887635
 30
0.0
 10
640.6189706806511
 20
969.7197844177811
 30
0.0
 10
640.7680170303328
 20
969.4257788561445
 30
0.0
 10
640.812020750875
 20
969.3390338080888
 30
0.0
 10
640.8146100034843
 20
969.333929930914
 30
0.0
  0
SPLINE
  5
1E0
330
16F
100
AcDbEntity
  8
P-SANR-FIXT
100
AcDbSpline
210
0.0
220
0.0
230
1.0
 70
     8
 71
     3
 72
    20
 73
    16
 74
     0
 42
0.000000001
 43
0.0000000001
 40
0.5
 40
0.5
 40
0.5
 40
0.5
 40
0.5138888888888889
 40
0.5486111111111111
 40
0.5833333333333333
 40
0.6180555555555555
 40
0.6527777777777777
 40
0.6875
 40
0.7222222222222223
 40
0.7569444444444445
 40
0.7916666666666668
 40
0.8263888888888889
 40
0.861111111111111
 40
0.9305555555555555
 40
1.0
 40
1.0
 40
1.0
 40
1.0
 10
790.604248942901
 20
969.2725732019358
 30
0.0
 10
790.6042353578217
 20
969.2725531415323
 30
0.0
 10
790.624649407318
 20
969.3127876076752
 30
0.0
 10
790.7832160748995
 20
969.6248308102793
 30
0.0
 10
791.2092067696798
 20
970.4800630640994
 30
0.0
 10
791.8565263273757
 20
971.8293291506215
 30
0.0
 10
792.6455419720148
 20
973.5664611693039
 30
0.0
 10
793.5155834265605
 20
975.6124290965907
 30
0.0
 10
794.4951151609926
 20
978.1155874709117
 30
0.0
 10
795.4947196112141
 20
980.9580926864159
 30
0.0
 10
796.443963799954
 20
984.0116151710635
 30
0.0
 10
797.3592261242113
 20
987.4299191194261
 30
0.0
 10
798.4440385476383
 20
992.3451474698067
 30
0.0
 10
799.4210366897523
 20
998.8012219655665
 30
0.0
 10
799.7250011932012
 20
1004.427591961805
 30
0.0
 10
799.7250011932012
 20
1007.339628730054
 30
0.0
  0
LINE
  5
1E1
330
16F
100
AcDbEntity
  8
P-SANR-FIXT
100
AcDbLine
 10
945.7250011932012
 20
1007.339628730056
 30
0.0
 11
945.7250011932014
 21
924.8396287300554
 31
0.0
  0
LINE
  5
1E2
330
16F
100
AcDbEntity
  8
P-SANR-FIXT
100
AcDbLine
 10
945.7250011932009
 20
1089.839628730056
 30
0.0
 11
945.7250011932012
 21
1007.339628730056
 31
0.0
  0
LINE
  5
1E3
330
16F
100
AcDbEntity
  8
P-SANR-FIXT
100
AcDbLine
 10
929.725001193201
 20
1089.839628730056
 30
0.0
 11
929.7250011932014
 21
1007.339628730056
 31
0.0
  0
LINE
  5
1E4
330
16F
100
AcDbEntity
  8
P-SANR-FIXT
100
AcDbLine
 10
929.7250011932014
 20
1007.339628730056
 30
0.0
 11
929.7250011932016
 21
924.8396287300554
 31
0.0
  0
LINE
  5
1E5
330
16F
100
AcDbEntity
  8
P-SANR-FIXT
100
AcDbLine
 10
501.7250011932008
 20
1099.839628730054
 30
0.0
 11
501.7250011932012
 21
1007.339628730054
 31
0.0
  0
LINE
  5
1E6
330
16F
100
AcDbEntity
  8
P-SANR-FIXT
100
AcDbLine
 10
501.7250011932012
 20
1007.339628730054
 30
0.0
 11
501.7250011932016
 21
914.8396287300538
 31
0.0
  0
LINE
  5
1E7
330
16F
100
AcDbEntity
  8
P-SANR-FIXT
100
AcDbLine
 10
485.7250011932009
 20
1099.839628730054
 30
0.0
 11
485.7250011932013
 21
1007.339628730054
 31
0.0
  0
LINE
  5
1E8
330
16F
100
AcDbEntity
  8
P-SANR-FIXT
100
AcDbLine
 10
485.7250011932013
 20
1007.339628730054
 30
0.0
 11
485.7250011932016
 21
914.8396287300538
 31
0.0
  0
ARC
  5
1E9
330
16F
100
AcDbEntity
  8
P-SANR-FIXT
100
AcDbCircle
 10
868.7250011932011
 20
1007.339628730055
 30
0.0
 40
12.99999999999994
100
AcDbArc
 50
0.0000000000012531
 51
180.0000000000002
  0
ARC
  5
1EA
330
16F
100
AcDbEntity
  8
P-SANR-FIXT
100
AcDbCircle
 10
868.7250011932011
 20
1007.339628730055
 30
0.0
 40
13.00000000000002
100
AcDbArc
 50
179.9999999999997
 51
0.0000000000002544
  0
ENDBLK
  5
1EC
330
16F
100
AcDbEntity
  8
0
100
AcDbBlockEnd
  0
BLOCK
  5
281
330
1EE
100
AcDbEntity
  8
0
100
AcDbBlockBegin
  2
Automatic flow rate regulator valve_Caleffi_121 DN15 - 1_2__-V2-Est - Idraulica
 70
     0
 10
0.0
 20
0.0
 30
0.0
  3
Automatic flow rate regulator valve_Caleffi_121 DN15 - 1_2__-V2-Est - Idraulica
  1

  0
LINE
  5
1EF
330
1EE
100
AcDbEntity
  8
M-PIPE
100
AcDbLine
 10
1579.114353943103
 20
1450.982558850011
 30
0.0
 11
1601.114353943103
 21
1450.982558850011
 31
0.0
1001
REVIT
1002
{
1070
     3
1000
790271
1002
}
  0
LINE
  5
1F0
330
1EE
100
AcDbEntity
  8
M-PIPE
100
AcDbLine
 10
1601.114353943103
 20
1478.982558850011
 30
0.0
 11
1579.114353943103
 21
1478.982558850011
 31
0.0
1001
REVIT
1002
{
1070
     3
1000
790271
1002
}
  0
LINE
  5
1F1
330
1EE
100
AcDbEntity
  8
M-PIPE
100
AcDbLine
 10
1579.114353943101
 20
1478.982558850011
 30
0.0
 11
1579.114353943101
 21
1450.982558850011
 31
0.0
1001
REVIT
1002
{
1070
     3
1000
790271
1002
}
  0
LINE
  5
1F2
330
1EE
100
AcDbEntity
  8
M-PIPE
100
AcDbLine
 10
1601.1143539431
 20
1450.982558850011
 30
0.0
 11
1601.114353943101
 21
1478.982558850011
 31
0.0
1001
REVIT
1002
{
1070
     3
1000
790271
1002
}
  0
LINE
  5
1F3
330
1EE
100
AcDbEntity
  8
M-PIPE
100
AcDbLine
 10
1570.085366810842
 20
1454.482558850011
 30
0.0
 11
1579.114353943103
 21
1454.482558850011
 31
0.0
1001
REVIT
1002
{
1070
     3
1000
790271
1002
}
  0
LINE
  5
1F4
330
1EE
100
AcDbEntity
  8
M-PIPE
100
AcDbLine
 10
1579.114353943103
 20
1475.482558850011
 30
0.0
 11
1570.085366810842
 21
1475.482558850011
 31
0.0
1001
REVIT
1002
{
1070
     3
1000
790271
1002
}
  0
LINE
  5
1F5
330
1EE
100
AcDbEntity
  8
M-PIPE
100
AcDbLine
 10
1567.114353943088
 20
1423.98255885001
 30
0.0
 11
1559.792023472752
 21
1423.98255885001
 31
0.0
1001
REVIT
1002
{
1070
     3
1000
790271
1002
}
  0
LINE
  5
1F6
330
1EE
100
AcDbEntity
  8
M-PIPE
100
AcDbLine
 10
1559.792023472752
 20
1423.98255885001
 30
0.0
 11
1542.114353943089
 21
1423.98255885001
 31
0.0
1001
REVIT
1002
{
1070
     3
1000
790271
1002
}
  0
LINE
  5
1F7
330
1EE
100
AcDbEntity
  8
M-PIPE
100
AcDbLine
 10
1542.114353943089
 20
1423.98255885001
 30
0.0
 11
1524.436684413425
 21
1423.98255885001
 31
0.0
1001
REVIT
1002
{
1070
     3
1000
790271
1002
}
  0
LINE
  5
1F8
330
1EE
100
AcDbEntity
  8
M-PIPE
100
AcDbLine
 10
1524.436684413425
 20
1423.98255885001
 30
0.0
 11
1517.114353943088
 21
1423.98255885001
 31
0.0
1001
REVIT
1002
{
1070
     3
1000
790271
1002
}
  0
LINE
  5
1F9
330
1EE
100
AcDbEntity
  8
M-PIPE
100
AcDbLine
 10
1567.114353943088
 20
1441.98255885001
 30
0.0
 11
1567.114353943088
 21
1423.98255885001
 31
0.0
1001
REVIT
1002
{
1070
     3
1000
790271
1002
}
  0
LINE
  5
1FA
330
1EE
100
AcDbEntity
  8
M-PIPE
100
AcDbLine
 10
1559.792023472752
 20
1441.982558850011
 30
0.0
 11
1559.792023472752
 21
1423.98255885001
 31
0.0
1001
REVIT
1002
{
1070
     3
1000
790271
1002
}
  0
LINE
  5
1FB
330
1EE
100
AcDbEntity
  8
M-PIPE
100
AcDbLine
 10
1542.114353943089
 20
1441.982558850011
 30
0.0
 11
1542.114353943089
 21
1423.98255885001
 31
0.0
1001
REVIT
1002
{
1070
     3
1000
790271
1002
}
  0
LINE
  5
1FC
330
1EE
100
AcDbEntity
  8
M-PIPE
100
AcDbLine
 10
1524.436684413425
 20
1441.982558850011
 30
0.0
 11
1524.436684413425
 21
1423.98255885001
 31
0.0
1001
REVIT
1002
{
1070
     3
1000
790271
1002
}
  0
LINE
  5
1FD
330
1EE
100
AcDbEntity
  8
M-PIPE
100
AcDbLine
 10
1517.114353943088
 20
1441.98255885001
 30
0.0
 11
1517.114353943088
 21
1423.98255885001
 31
0.0
1001
REVIT
1002
{
1070
     3
1000
790271
1002
}
  0
LINE
  5
1FE
330
1EE
100
AcDbEntity
  8
M-PIPE
100
AcDbLine
 10
1514.114353943091
 20
1487.982558850011
 30
0.0
 11
1514.114353943091
 21
1441.982558850011
 31
0.0
1001
REVIT
1002
{
1070
     3
1000
790271
1002
}
  0
LINE
  5
1FF
330
1EE
100
AcDbEntity
  8
M-PIPE
100
AcDbLine
 10
1570.114353943115
 20
1441.982558850011
 30
0.0
 11
1570.114353943115
 21
1454.572387805586
 31
0.0
1001
REVIT
1002
{
1070
     3
1000
790271
1002
}
  0
LINE
  5
200
330
1EE
100
AcDbEntity
  8
M-PIPE
100
AcDbLine
 10
1570.114353943115
 20
1475.392729894436
 30
0.0
 11
1570.114353943115
 21
1487.982558850011
 31
0.0
1001
REVIT
1002
{
1070
     3
1000
790271
1002
}
  0
LINE
  5
201
330
1EE
100
AcDbEntity
  8
M-PIPE
100
AcDbLine
 10
1570.114353943113
 20
1487.982558850011
 30
0.0
 11
1514.114353943088
 21
1487.982558850011
 31
0.0
1001
REVIT
1002
{
1070
     3
1000
790271
1002
}
  0
LINE
  5
202
330
1EE
100
AcDbEntity
  8
M-PIPE
100
AcDbLine
 10
1514.114353943088
 20
1441.982558850011
 30
0.0
 11
1570.114353943112
 21
1441.98255885001
 31
0.0
1001
REVIT
1002
{
1070
     3
1000
790271
1002
}
  0
LINE
  5
203
330
1EE
100
AcDbEntity
  8
M-PIPE
100
AcDbLine
 10
1567.114353943089
 20
1487.982558850011
 30
0.0
 11
1567.114353943089
 21
1505.982558850011
 31
0.0
1001
REVIT
1002
{
1070
     3
1000
790271
1002
}
  0
LINE
  5
204
330
1EE
100
AcDbEntity
  8
M-PIPE
100
AcDbLine
 10
1517.114353943088
 20
1505.982558850011
 30
0.0
 11
1524.436684413425
 21
1505.982558850011
 31
0.0
1001
REVIT
1002
{
1070
     3
1000
790271
1002
}
  0
LINE
  5
205
330
1EE
100
AcDbEntity
  8
M-PIPE
100
AcDbLine
 10
1524.436684413425
 20
1505.982558850011
 30
0.0
 11
1542.114353943089
 21
1505.982558850011
 31
0.0
1001
REVIT
1002
{
1070
     3
1000
790271
1002
}
  0
LINE
  5
206
330
1EE
100
AcDbEntity
  8
M-PIPE
100
AcDbLine
 10
1542.114353943089
 20
1505.982558850011
 30
0.0
 11
1559.792023472752
 21
1505.982558850011
 31
0.0
1001
REVIT
1002
{
1070
     3
1000
790271
1002
}
  0
LINE
  5
207
330
1EE
100
AcDbEntity
  8
M-PIPE
100
AcDbLine
 10
1567.114353943089
 20
1505.982558850011
 30
0.0
 11
1559.792023472752
 21
1505.982558850011
 31
0.0
1001
REVIT
1002
{
1070
     3
1000
790271
1002
}
  0
LINE
  5
208
330
1EE
100
AcDbEntity
  8
M-PIPE
100
AcDbLine
 10
1559.792023472752
 20
1505.982558850011
 30
0.0
 11
1559.792023472752
 21
1487.982558850011
 31
0.0
1001
REVIT
1002
{
1070
     3
1000
790271
1002
}
  0
LINE
  5
209
330
1EE
100
AcDbEntity
  8
M-PIPE
100
AcDbLine
 10
1542.114353943089
 20
1505.982558850011
 30
0.0
 11
1542.114353943089
 21
1487.982558850011
 31
0.0
1001
REVIT
1002
{
1070
     3
1000
790271
1002
}
  0
LINE
  5
20A
330
1EE
100
AcDbEntity
  8
M-PIPE
100
AcDbLine
 10
1524.436684413425
 20
1505.982558850011
 30
0.0
 11
1524.436684413425
 21
1487.982558850011
 31
0.0
1001
REVIT
1002
{
1070
     3
1000
790271
1002
}
  0
LINE
  5
20B
330
1EE
100
AcDbEntity
  8
M-PIPE
100
AcDbLine
 10
1517.114353943088
 20
1505.982558850011
 30
0.0
 11
1517.114353943088
 21
1487.982558850011
 31
0.0
1001
REVIT
1002
{
1070
     3
1000
790271
1002
}
  0
LINE
  5
20C
330
1EE
100
AcDbEntity
  8
M-PIPE
100
AcDbLine
 10
1541.216495598277
 20
2482.984043225
 30
0.0
 11
1550.165424770717
 21
2482.984043225
 31
0.0
1001
REVIT
1002
{
1070
     3
1000
790271
1002
}
  0
LINE
  5
20D
330
1EE
100
AcDbEntity
  8
M-PIPE
100
AcDbLine
 10
1550.165424770717
 20
2482.984043225
 30
0.0
 11
1568.063283115595
 21
2482.984043225
 31
0.0
1001
REVIT
1002
{
1070
     3
1000
790271
1002
}
  0
LINE
  5
20E
330
1EE
100
AcDbEntity
  8
M-PIPE
100
AcDbLine
 10
1568.063283115595
 20
2482.984043225
 30
0.0
 11
1577.012212288034
 21
2482.984043225
 31
0.0
1001
REVIT
1002
{
1070
     3
1000
790271
1002
}
  0
LINE
  5
20F
330
1EE
100
AcDbEntity
  8
M-PIPE
100
AcDbLine
 10
1577.012212288034
 20
2482.984043225
 30
0.0
 11
1577.012212288034
 21
2472.484043225001
 31
0.0
1001
REVIT
1002
{
1070
     3
1000
790271
1002
}
  0
LINE
  5
210
330
1EE
100
AcDbEntity
  8
M-PIPE
100
AcDbLine
 10
1541.216495598277
 20
2472.484043225001
 30
0.0
 11
1541.216495598277
 21
2482.984043225
 31
0.0
1001
REVIT
1002
{
1070
     3
1000
790271
1002
}
  0
LINE
  5
211
330
1EE
100
AcDbEntity
  8
M-PIPE
100
AcDbLine
 10
1550.165424770717
 20
2472.484043225001
 30
0.0
 11
1550.165424770717
 21
2482.984043225
 31
0.0
1001
REVIT
1002
{
1070
     3
1000
790271
1002
}
  0
LINE
  5
212
330
1EE
100
AcDbEntity
  8
M-PIPE
100
AcDbLine
 10
1568.063283115595
 20
2472.484043225001
 30
0.0
 11
1568.063283115595
 21
2482.984043225
 31
0.0
1001
REVIT
1002
{
1070
     3
1000
790271
1002
}
  0
LINE
  5
213
330
1EE
100
AcDbEntity
  8
M-PIPE
100
AcDbLine
 10
1587.364353943161
 20
2354.984043225003
 30
0.0
 11
1590.646906275383
 21
2448.984043225002
 31
0.0
1001
REVIT
1002
{
1070
     3
1000
790271
1002
}
  0
LINE
  5
214
330
1EE
100
AcDbEntity
  8
M-PIPE
100
AcDbLine
 10
1493.581801610936
 20
2448.984043225002
 30
0.0
 11
1496.864353943161
 21
2354.984043225001
 31
0.0
1001
REVIT
1002
{
1070
     3
1000
790271
1002
}
  0
LINE
  5
215
330
1EE
100
AcDbEntity
  8
M-PIPE
100
AcDbLine
 10
1601.910814660754
 20
2448.984043225002
 30
0.0
 11
1601.910814660754
 21
2462.984043225002
 31
0.0
1001
REVIT
1002
{
1070
     3
1000
790271
1002
}
  0
LINE
  5
216
330
1EE
100
AcDbEntity
  8
M-PIPE
100
AcDbLine
 10
1482.317893225544
 20
2462.984043225002
 30
0.0
 11
1482.317893225544
 21
2448.984043225002
 31
0.0
1001
REVIT
1002
{
1070
     3
1000
790271
1002
}
  0
LINE
  5
217
330
1EE
100
AcDbEntity
  8
M-PIPE
100
AcDbLine
 10
1552.11435394315
 20
2448.984043225002
 30
0.0
 11
1552.11435394315
 21
2462.984043225002
 31
0.0
1001
REVIT
1002
{
1070
     3
1000
790271
1002
}
  0
LINE
  5
218
330
1EE
100
AcDbEntity
  8
M-PIPE
100
AcDbLine
 10
1532.11435394315
 20
2462.984043225002
 30
0.0
 11
1532.11435394315
 21
2448.984043225002
 31
0.0
1001
REVIT
1002
{
1070
     3
1000
790271
1002
}
  0
LINE
  5
219
330
1EE
100
AcDbEntity
  8
M-PIPE
100
AcDbLine
 10
1585.61435394316
 20
2462.984043225002
 30
0.0
 11
1585.61435394316
 21
2472.484043225002
 31
0.0
1001
REVIT
1002
{
1070
     3
1000
790271
1002
}
  0
LINE
  5
21A
330
1EE
100
AcDbEntity
  8
M-PIPE
100
AcDbLine
 10
1532.61435394316
 20
2472.484043225002
 30
0.0
 11
1532.61435394316
 21
2462.984043225002
 31
0.0
1001
REVIT
1002
{
1070
     3
1000
790271
1002
}
  0
LINE
  5
21B
330
1EE
100
AcDbEntity
  8
M-PIPE
100
AcDbLine
 10
1569.96435394316
 20
2482.984043225002
 30
0.0
 11
1569.96435394316
 21
2492.984043225068
 31
0.0
1001
REVIT
1002
{
1070
     3
1000
790271
1002
}
  0
LINE
  5
21C
330
1EE
100
AcDbEntity
  8
M-PIPE
100
AcDbLine
 10
1548.26435394316
 20
2492.984043225068
 30
0.0
 11
1548.26435394316
 21
2482.984043225002
 31
0.0
1001
REVIT
1002
{
1070
     3
1000
790271
1002
}
  0
LINE
  5
21D
330
1EE
100
AcDbEntity
  8
M-PIPE
100
AcDbLine
 10
1565.208364710731
 20
2334.984043225
 30
0.0
 11
1553.661359326939
 21
2334.984043225
 31
0.0
1001
REVIT
1002
{
1070
     3
1000
790271
1002
}
  0
LINE
  5
21E
330
1EE
100
AcDbEntity
  8
M-PIPE
100
AcDbLine
 10
1553.661359326939
 20
2334.984043225
 30
0.0
 11
1548.4643539431
 21
2334.984043225
 31
0.0
1001
REVIT
1002
{
1070
     3
1000
790271
1002
}
  0
LINE
  5
21F
330
1EE
100
AcDbEntity
  8
M-PIPE
100
AcDbLine
 10
1542.114353943101
 20
2334.984043225
 30
0.0
 11
1530.567348559354
 21
2334.984043225
 31
0.0
1001
REVIT
1002
{
1070
     3
1000
790271
1002
}
  0
LINE
  5
220
330
1EE
100
AcDbEntity
  8
M-PIPE
100
AcDbLine
 10
1530.567348559354
 20
2334.984043225
 30
0.0
 11
1519.020343175561
 21
2334.984043225
 31
0.0
1001
REVIT
1002
{
1070
     3
1000
790271
1002
}
  0
LINE
  5
221
330
1EE
100
AcDbEntity
  8
M-PIPE
100
AcDbLine
 10
1565.208364710731
 20
2354.984043225
 30
0.0
 11
1565.208364710731
 21
2334.984043225
 31
0.0
1001
REVIT
1002
{
1070
     3
1000
790271
1002
}
  0
LINE
  5
222
330
1EE
100
AcDbEntity
  8
M-PIPE
100
AcDbLine
 10
1519.020343175561
 20
2334.984043225
 30
0.0
 11
1519.020343175561
 21
2354.984043225
 31
0.0
1001
REVIT
1002
{
1070
     3
1000
790271
1002
}
  0
LINE
  5
223
330
1EE
100
AcDbEntity
  8
M-PIPE
100
AcDbLine
 10
1530.567348559354
 20
2334.984043225
 30
0.0
 11
1530.567348559354
 21
2354.984043225
 31
0.0
1001
REVIT
1002
{
1070
     3
1000
790271
1002
}
  0
LINE
  5
224
330
1EE
100
AcDbEntity
  8
M-PIPE
100
AcDbLine
 10
1553.661359326939
 20
2334.984043225
 30
0.0
 11
1553.661359326939
 21
2354.984043225
 31
0.0
1001
REVIT
1002
{
1070
     3
1000
790271
1002
}
  0
LINE
  5
225
330
1EE
100
AcDbEntity
  8
M-PIPE
100
AcDbLine
 10
1496.864353943158
 20
2354.984043225
 30
0.0
 11
1587.364353943158
 21
2354.984043225001
 31
0.0
1001
REVIT
1002
{
1070
     3
1000
790271
1002
}
  0
LINE
  5
226
330
1EE
100
AcDbEntity
  8
M-PIPE
100
AcDbLine
 10
1552.106402437726
 20
2462.984043225001
 30
0.0
 11
1586.176688554248
 21
2462.984043225001
 31
0.0
1001
REVIT
1002
{
1070
     3
1000
790271
1002
}
  0
LINE
  5
227
330
1EE
100
AcDbEntity
  8
M-PIPE
100
AcDbLine
 10
1586.176688554248
 20
2462.984043225001
 30
0.0
 11
1601.910814660752
 21
2462.984043225001
 31
0.0
1001
REVIT
1002
{
1070
     3
1000
790271
1002
}
  0
LINE
  5
228
330
1EE
100
AcDbEntity
  8
M-PIPE
100
AcDbLine
 10
1601.910814660751
 20
2462.984043225001
 30
0.0
 11
1601.90990515954
 21
2462.984043225001
 31
0.0
1001
REVIT
1002
{
1070
     3
1000
790271
1002
}
  0
LINE
  5
229
330
1EE
100
AcDbEntity
  8
M-PIPE
100
AcDbLine
 10
1482.318802726769
 20
2462.984043225001
 30
0.0
 11
1482.317893225557
 21
2462.984043225001
 31
0.0
1001
REVIT
1002
{
1070
     3
1000
790271
1002
}
  0
LINE
  5
22A
330
1EE
100
AcDbEntity
  8
M-PIPE
100
AcDbLine
 10
1482.317893225542
 20
2462.984043225001
 30
0.0
 11
1498.052019332045
 21
2462.984043225001
 31
0.0
1001
REVIT
1002
{
1070
     3
1000
790271
1002
}
  0
LINE
  5
22B
330
1EE
100
AcDbEntity
  8
M-PIPE
100
AcDbLine
 10
1498.052019332045
 20
2462.984043225001
 30
0.0
 11
1532.122305448568
 21
2462.984043225001
 31
0.0
1001
REVIT
1002
{
1070
     3
1000
790271
1002
}
  0
LINE
  5
22C
330
1EE
100
AcDbEntity
  8
M-PIPE
100
AcDbLine
 10
1532.114353943147
 20
2462.984043225001
 30
0.0
 11
1552.114353943147
 21
2462.984043225001
 31
0.0
1001
REVIT
1002
{
1070
     3
1000
790271
1002
}
  0
LINE
  5
22D
330
1EE
100
AcDbEntity
  8
M-PIPE
100
AcDbLine
 10
1552.114353943147
 20
2448.984043225
 30
0.0
 11
1532.114353943147
 21
2448.984043225
 31
0.0
1001
REVIT
1002
{
1070
     3
1000
790271
1002
}
  0
LINE
  5
22E
330
1EE
100
AcDbEntity
  8
M-PIPE
100
AcDbLine
 10
1532.122305448568
 20
2448.984043225
 30
0.0
 11
1498.052019332045
 21
2448.984043225
 31
0.0
1001
REVIT
1002
{
1070
     3
1000
790271
1002
}
  0
LINE
  5
22F
330
1EE
100
AcDbEntity
  8
M-PIPE
100
AcDbLine
 10
1498.052019332045
 20
2448.984043225
 30
0.0
 11
1482.317893225542
 21
2448.984043225
 31
0.0
1001
REVIT
1002
{
1070
     3
1000
790271
1002
}
  0
LINE
  5
230
330
1EE
100
AcDbEntity
  8
M-PIPE
100
AcDbLine
 10
1482.317893225557
 20
2448.984043225
 30
0.0
 11
1482.318802726769
 21
2448.984043225
 31
0.0
1001
REVIT
1002
{
1070
     3
1000
790271
1002
}
  0
LINE
  5
231
330
1EE
100
AcDbEntity
  8
M-PIPE
100
AcDbLine
 10
1601.90990515954
 20
2448.984043225
 30
0.0
 11
1601.910814660751
 21
2448.984043225
 31
0.0
1001
REVIT
1002
{
1070
     3
1000
790271
1002
}
  0
LINE
  5
232
330
1EE
100
AcDbEntity
  8
M-PIPE
100
AcDbLine
 10
1601.910814660752
 20
2448.984043225
 30
0.0
 11
1586.176688554248
 21
2448.984043225
 31
0.0
1001
REVIT
1002
{
1070
     3
1000
790271
1002
}
  0
LINE
  5
233
330
1EE
100
AcDbEntity
  8
M-PIPE
100
AcDbLine
 10
1586.176688554248
 20
2448.984043225
 30
0.0
 11
1552.106402437726
 21
2448.984043225
 31
0.0
1001
REVIT
1002
{
1070
     3
1000
790271
1002
}
  0
LINE
  5
234
330
1EE
100
AcDbEntity
  8
M-PIPE
100
AcDbLine
 10
1586.176688554248
 20
2448.984043225
 30
0.0
 11
1586.176688554248
 21
2462.984043225001
 31
0.0
1001
REVIT
1002
{
1070
     3
1000
790271
1002
}
  0
LINE
  5
235
330
1EE
100
AcDbEntity
  8
M-PIPE
100
AcDbLine
 10
1498.052019332045
 20
2448.984043225
 30
0.0
 11
1498.052019332045
 21
2462.984043225001
 31
0.0
1001
REVIT
1002
{
1070
     3
1000
790271
1002
}
  0
LINE
  5
236
330
1EE
100
AcDbEntity
  8
M-PIPE
100
AcDbLine
 10
1585.614353943158
 20
2472.484043225001
 30
0.0
 11
1532.614353943158
 21
2472.484043225001
 31
0.0
1001
REVIT
1002
{
1070
     3
1000
790271
1002
}
  0
LINE
  5
237
330
1EE
100
AcDbEntity
  8
M-PIPE
100
AcDbLine
 10
1569.964353943157
 20
2492.984043225066
 30
0.0
 11
1548.264353943158
 21
2492.984043225066
 31
0.0
1001
REVIT
1002
{
1070
     3
1000
790271
1002
}
  0
LINE
  5
238
330
1EE
100
AcDbEntity
  8
M-PIPE
100
AcDbLine
 10
1560.76747894312
 20
2291.888808850011
 30
0.0
 11
1560.76747894312
 21
2326.119277600011
 31
0.0
1001
REVIT
1002
{
1070
     3
1000
790271
1002
}
  0
LINE
  5
239
330
1EE
100
AcDbEntity
  8
M-PIPE
100
AcDbLine
 10
1523.461228943085
 20
2326.119277600011
 30
0.0
 11
1523.461228943085
 21
2291.888808850011
 31
0.0
1001
REVIT
1002
{
1070
     3
1000
790271
1002
}
  0
LINE
  5
23A
330
1EE
100
AcDbEntity
  8
M-PIPE
100
AcDbLine
 10
1560.767478943117
 20
2291.888808850009
 30
0.0
 11
1542.114353943101
 21
2291.888808850009
 31
0.0
1001
REVIT
1002
{
1070
     3
1000
790271
1002
}
  0
LINE
  5
23B
330
1EE
100
AcDbEntity
  8
M-PIPE
100
AcDbLine
 10
1535.756810317915
 20
2291.888808850009
 30
0.0
 11
1523.461228943083
 21
2291.888808850009
 31
0.0
1001
REVIT
1002
{
1070
     3
1000
790271
1002
}
  0
LINE
  5
23C
330
1EE
100
AcDbEntity
  8
M-PIPE
100
AcDbLine
 10
1560.767478943117
 20
2326.119277600009
 30
0.0
 11
1548.471897568285
 21
2326.119277600009
 31
0.0
1001
REVIT
1002
{
1070
     3
1000
790271
1002
}
  0
LINE
  5
23D
330
1EE
100
AcDbEntity
  8
M-PIPE
100
AcDbLine
 10
1542.1143539431
 20
2326.119277600009
 30
0.0
 11
1523.461228943083
 21
2326.119277600009
 31
0.0
1001
REVIT
1002
{
1070
     3
1000
790271
1002
}
  0
LINE
  5
23E
330
1EE
100
AcDbEntity
  8
M-PIPE
100
AcDbLine
 10
1556.9971664431
 20
2334.984043225002
 30
0.0
 11
1556.9971664431
 21
2326.119277600009
 31
0.0
1001
REVIT
1002
{
1070
     3
1000
790271
1002
}
  0
LINE
  5
23F
330
1EE
100
AcDbEntity
  8
M-PIPE
100
AcDbLine
 10
1535.949691159344
 20
2334.984043225002
 30
0.0
 11
1535.949691159344
 21
2326.119277600009
 31
0.0
1001
REVIT
1002
{
1070
     3
1000
790271
1002
}
  0
LINE
  5
240
330
1EE
100
AcDbEntity
  8
M-PIPE
100
AcDbLine
 10
1527.2315414431
 20
2334.984043225002
 30
0.0
 11
1527.2315414431
 21
2326.119277600009
 31
0.0
1001
REVIT
1002
{
1070
     3
1000
790271
1002
}
  0
LINE
  5
241
330
1EE
100
AcDbEntity
  8
M-PIPE
100
AcDbLine
 10
1558.4854476931
 20
2279.98255885001
 30
0.0
 11
1548.895483005232
 21
2279.98255885001
 31
0.0
1001
REVIT
1002
{
1070
     3
1000
790271
1002
}
  0
LINE
  5
242
330
1EE
100
AcDbEntity
  8
M-PIPE
100
AcDbLine
 10
1548.895483005232
 20
2279.98255885001
 30
0.0
 11
1542.1143539431
 21
2279.98255885001
 31
0.0
1001
REVIT
1002
{
1070
     3
1000
790271
1002
}
  0
LINE
  5
243
330
1EE
100
AcDbEntity
  8
M-PIPE
100
AcDbLine
 10
1535.7643539431
 20
2279.98255885001
 30
0.0
 11
1535.333224880969
 21
2279.98255885001
 31
0.0
1001
REVIT
1002
{
1070
     3
1000
790271
1002
}
  0
LINE
  5
244
330
1EE
100
AcDbEntity
  8
M-PIPE
100
AcDbLine
 10
1535.333224880969
 20
2279.98255885001
 30
0.0
 11
1525.7432601931
 21
2279.98255885001
 31
0.0
1001
REVIT
1002
{
1070
     3
1000
790271
1002
}
  0
LINE
  5
245
330
1EE
100
AcDbEntity
  8
M-PIPE
100
AcDbLine
 10
1558.4854476931
 20
2291.888808850009
 30
0.0
 11
1558.4854476931
 21
2279.98255885001
 31
0.0
1001
REVIT
1002
{
1070
     3
1000
790271
1002
}
  0
LINE
  5
246
330
1EE
100
AcDbEntity
  8
M-PIPE
100
AcDbLine
 10
1548.895483005232
 20
2291.888808850009
 30
0.0
 11
1548.895483005232
 21
2279.98255885001
 31
0.0
1001
REVIT
1002
{
1070
     3
1000
790271
1002
}
  0
LINE
  5
247
330
1EE
100
AcDbEntity
  8
M-PIPE
100
AcDbLine
 10
1535.333224880969
 20
2291.888808850009
 30
0.0
 11
1535.333224880969
 21
2279.98255885001
 31
0.0
1001
REVIT
1002
{
1070
     3
1000
790271
1002
}
  0
LINE
  5
248
330
1EE
100
AcDbEntity
  8
M-PIPE
100
AcDbLine
 10
1525.7432601931
 20
2291.888808850009
 30
0.0
 11
1525.7432601931
 21
2279.98255885001
 31
0.0
1001
REVIT
1002
{
1070
     3
1000
790271
1002
}
  0
ARC
  5
249
330
1EE
100
AcDbEntity
  8
M-PIPE
100
AcDbCircle
 10
1542.114353943101
 20
2309.004043225002
 30
0.0
 40
4.762499999999818
100
AcDbArc
 50
90.0
 51
269.9999999999997
1001
REVIT
1002
{
1070
     3
1000
790271
1002
}
  0
ARC
  5
24A
330
1EE
100
AcDbEntity
  8
M-PIPE
100
AcDbCircle
 10
1542.114353943101
 20
2309.004043225002
 30
0.0
 40
4.762500000000272
100
AcDbArc
 50
269.9999999999997
 51
90.0
1001
REVIT
1002
{
1070
     3
1000
790271
1002
}
  0
ARC
  5
24B
330
1EE
100
AcDbEntity
  8
M-PIPE
100
AcDbCircle
 10
1542.114353943101
 20
2309.004043225002
 30
0.0
 40
15.08124999999227
100
AcDbArc
 50
220.2468256002214
 51
245.0989376296159
1001
REVIT
1002
{
1070
     3
1000
790271
1002
}
  0
LWPOLYLINE
  5
24C
330
1EE
100
AcDbEntity
  8
M-PIPE
100
AcDbPolyline
 90
       11
 70
   128
 43
0.0
 10
1530.603314402147
 20
2299.260323696564
 10
1528.703508430594
 20
2302.105251721995
 10
1527.493742299628
 20
2305.305149237197
 10
1527.036263152978
 20
2308.695369145965
 10
1527.354610061101
 20
2312.101471529264
 10
1528.432402845022
 20
2315.348199253351
 10
1530.214184899852
 20
2318.268495626755
 10
1532.608276651477
 20
2320.712100112801
 10
1535.491492825034
 20
2322.553279815048
 10
1538.715480803461
 20
2323.697298920827
 10
1542.114353943101
 20
2324.085293224994
1001
REVIT
1002
{
1070
     3
1000
790271
1002
}
  0
ARC
  5
24D
330
1EE
100
AcDbEntity
  8
M-PIPE
100
AcDbCircle
 10
1542.114353943101
 20
2309.004043225002
 30
0.0
 40
15.08124999999222
100
AcDbArc
 50
40.24682560021705
 51
65.09893762962235
1001
REVIT
1002
{
1070
     3
1000
790271
1002
}
  0
LWPOLYLINE
  5
24E
330
1EE
100
AcDbEntity
  8
M-PIPE
100
AcDbPolyline
 90
       11
 70
   128
 43
0.0
 10
1553.625393484056
 20
2318.747762753439
 10
1555.525199455608
 20
2315.902834728007
 10
1556.734965586574
 20
2312.702937212805
 10
1557.192444733224
 20
2309.312717304038
 10
1556.8740978251
 20
2305.906614920739
 10
1555.79630504118
 20
2302.659887196652
 10
1554.01452298635
 20
2299.739590823248
 10
1551.620431234724
 20
2297.295986337202
 10
1548.737215061167
 20
2295.454806634955
 10
1545.51322708274
 20
2294.310787529176
 10
1542.114353943101
 20
2293.922793225009
1001
REVIT
1002
{
1070
     3
1000
790271
1002
}
  0
LWPOLYLINE
  5
24F
330
1EE
100
AcDbEntity
  8
M-PIPE
100
AcDbPolyline
 90
       12
 70
   128
 43
0.0
 10
1542.114353943101
 20
2320.910293224994
 10
1539.400665206857
 20
2320.596915280929
 10
1536.829827527327
 20
2319.67327795029
 10
1534.537172150962
 20
2318.188002346818
 10
1532.643386553382
 20
2316.219274736548
 10
1531.24816134029
 20
2313.870730741262
 10
1530.424942442818
 20
2311.26599986459
 10
1530.217064856556
 20
2308.542197521877
 10
1530.635471447745
 20
2305.842707159328
 10
1531.658136910797
 20
2303.309632418282
 10
1533.231227200522
 20
2301.076316669576
 10
1535.271933405494
 20
2299.260323696564
1001
REVIT
1002
{
1070
     3
1000
790271
1002
}
  0
LWPOLYLINE
  5
250
330
1EE
100
AcDbEntity
  8
M-PIPE
100
AcDbPolyline
 90
       12
 70
   128
 43
0.0
 10
1542.114353943101
 20
2297.09779322501
 10
1544.828042679345
 20
2297.411171169074
 10
1547.398880358875
 20
2298.334808499713
 10
1549.691535735239
 20
2299.820084103185
 10
1551.585321332819
 20
2301.788811713455
 10
1552.980546545912
 20
2304.137355708741
 10
1553.803765443383
 20
2306.742086585413
 10
1554.011643029646
 20
2309.465888928126
 10
1553.593236438457
 20
2312.165379290675
 10
1552.570570975405
 20
2314.69845403172
 10
1550.99748068568
 20
2316.931769780426
 10
1548.956774480708
 20
2318.747762753439
1001
REVIT
1002
{
1070
     3
1000
790271
1002
}
  0
ARC
  5
251
330
1EE
100
AcDbEntity
  8
M-PIPE
100
AcDbCircle
 10
1542.114353943101
 20
2309.004043225002
 30
0.0
 40
11.90624999999221
100
AcDbArc
 50
234.9219701748862
 51
269.9999999999997
1001
REVIT
1002
{
1070
     3
1000
790271
1002
}
  0
LINE
  5
252
330
1EE
100
AcDbEntity
  8
M-PIPE
100
AcDbLine
 10
1535.271933405494
 20
2299.260323696564
 30
0.0
 11
1530.603314402147
 21
2299.260323696564
 31
0.0
1001
REVIT
1002
{
1070
     3
1000
790271
1002
}
  0
ARC
  5
253
330
1EE
100
AcDbEntity
  8
M-PIPE
100
AcDbCircle
 10
1542.114353943101
 20
2309.004043225002
 30
0.0
 40
11.90624999999228
100
AcDbArc
 50
54.92197017488451
 51
90.0
1001
REVIT
1002
{
1070
     3
1000
790271
1002
}
  0
LINE
  5
254
330
1EE
100
AcDbEntity
  8
M-PIPE
100
AcDbLine
 10
1548.956774480708
 20
2318.747762753439
 30
0.0
 11
1553.625393484056
 21
2318.747762753438
 31
0.0
1001
REVIT
1002
{
1070
     3
1000
790271
1002
}
  0
LINE
  5
255
330
1EE
100
AcDbEntity
  8
M-PIPE
100
AcDbLine
 10
1542.1143539431
 20
2275.666543225002
 30
0.0
 11
1542.1143539431
 21
2297.09779322501
 31
0.0
1001
REVIT
1002
{
1070
     3
1000
790271
1002
}
  0
LINE
  5
256
330
1EE
100
AcDbEntity
  8
M-PIPE
100
AcDbLine
 10
1542.1143539431
 20
2342.341543225018
 30
0.0
 11
1542.1143539431
 21
2320.910293224994
 31
0.0
1001
REVIT
1002
{
1070
     3
1000
790271
1002
}
  0
LINE
  5
257
330
1EE
100
AcDbEntity
  8
M-PIPE
100
AcDbLine
 10
1535.7643539431
 20
2295.324803422942
 30
0.0
 11
1535.7643539431
 21
2275.666543225002
 31
0.0
1001
REVIT
1002
{
1070
     3
1000
790271
1002
}
  0
LINE
  5
258
330
1EE
100
AcDbEntity
  8
M-PIPE
100
AcDbLine
 10
1535.7643539431
 20
2275.666543225002
 30
0.0
 11
1542.1143539431
 21
2275.666543225002
 31
0.0
1001
REVIT
1002
{
1070
     3
1000
790271
1002
}
  0
LINE
  5
259
330
1EE
100
AcDbEntity
  8
M-PIPE
100
AcDbLine
 10
1548.4643539431
 20
2322.683283027062
 30
0.0
 11
1548.4643539431
 21
2342.341543225018
 31
0.0
1001
REVIT
1002
{
1070
     3
1000
790271
1002
}
  0
LINE
  5
25A
330
1EE
100
AcDbEntity
  8
M-PIPE
100
AcDbLine
 10
1548.4643539431
 20
2342.341543225018
 30
0.0
 11
1542.1143539431
 21
2342.341543225018
 31
0.0
1001
REVIT
1002
{
1070
     3
1000
790271
1002
}
  0
LWPOLYLINE
  5
25B
330
1EE
100
AcDbEntity
  8
P-SANR-FIXT
100
AcDbPolyline
 90
       29
 70
   128
 43
0.0
 10
1469.789753154015
 20
1514.98255885001
 10
1468.19017978655
 20
1515.014554583571
 10
1466.593165395249
 20
1515.110490597905
 10
1465.001264862459
 20
1515.270213415855
 10
1463.417024889446
 20
1515.493467514985
 10
1461.842979922213
 20
1515.77989573636
 10
1460.28164809693
 20
1516.129039855928
 10
1458.735527211451
 20
1516.540341317579
 10
1457.207090729371
 20
1517.013142126712
 10
1455.698783823012
 20
1517.546685902892
 10
1454.213019461669
 20
1518.140119089895
 10
1452.752174551375
 20
1518.792492321211
 10
1451.318586132356
 20
1519.502761938838
 10
1449.914547640266
 20
1520.269791662904
 10
1448.54230523718
 20
1521.092354409473
 10
1447.204054218214
 20
1521.969134253622
 10
1445.901935499519
 20
1522.898728534638
 10
1444.638032193276
 20
1523.879650099972
 10
1443.414366275156
 20
1524.910329684374
 10
1442.232895349593
 20
1525.989118420373
 10
1441.095509518034
 20
1527.114290476123
 10
1440.004028355181
 20
1528.284045816357
 10
1438.960197998057
 20
1529.496513082066
 10
1437.965688352561
 20
1530.749752584271
 10
1437.022090421975
 20
1532.041759407112
 10
1436.130913761699
 20
1533.370466615284
 10
1435.293584064282
 20
1534.733748560699
 10
1434.511440878617
 20
1536.12942428306
 10
1434.355888211115
 20
1536.423431305635
  0
LWPOLYLINE
  5
25C
330
1EE
100
AcDbEntity
  8
P-SANR-FIXT
100
AcDbPolyline
 90
       34
 70
   128
 43
0.0
 10
1521.114353943101
 20
1514.98255885001
 10
1519.363453024945
 20
1514.98255885001
 10
1516.6362606532
 20
1514.98255885001
 10
1513.949827795681
 20
1514.98255885001
 10
1511.308452171887
 20
1514.98255885001
 10
1508.716359419351
 20
1514.98255885001
 10
1506.177696333528
 20
1514.98255885001
 10
1503.696524233801
 20
1514.98255885001
 10
1501.276812466243
 20
1514.98255885001
 10
1498.922432053505
 20
1514.98255885001
 10
1496.637149502004
 20
1514.98255885001
 10
1494.424620776322
 20
1514.98255885001
 10
1492.28838545044
 20
1514.98255885001
 10
1490.231861045174
 20
1514.98255885001
 10
1488.25833756087
 20
1514.98255885001
 10
1486.370972214105
 20
1514.98255885001
 10
1484.572784386821
 20
1514.98255885001
 10
1482.866650795946
 20
1514.98255885001
 10
1481.255300891271
 20
1514.98255885001
 10
1479.741312488906
 20
1514.98255885001
 10
1478.327107647329
 20
1514.98255885001
 10
1477.014948792606
 20
1514.98255885001
 10
1475.80693509899
 20
1514.98255885001
 10
1474.704999130697
 20
1514.98255885001
 10
1473.710903750208
 20
1514.98255885001
 10
1472.82623929807
 20
1514.98255885001
 10
1472.052421048688
 20
1514.98255885001
 10
1471.390686946189
 20
1514.98255885001
 10
1470.842095623973
 20
1514.98255885001
 10
1470.40752471113
 20
1514.98255885001
 10
1470.087669428419
 20
1514.98255885001
 10
1469.883041476056
 20
1514.98255885001
 10
1469.793968215117
 20
1514.98255885001
 10
1469.789753154015
 20
1514.98255885001
  0
LWPOLYLINE
  5
25D
330
1EE
100
AcDbEntity
  8
P-SANR-FIXT
100
AcDbPolyline
 90
       41
 70
   128
 43
0.0
 10
1469.789753154015
 20
1514.98255885001
 10
1469.847605120434
 20
1514.98255885001
 10
1470.021068468884
 20
1514.98255885001
 10
1470.309865695013
 20
1514.98255885001
 10
1470.713534784865
 20
1514.98255885001
 10
1471.231429954008
 20
1514.98255885001
 10
1471.862722680648
 20
1514.98255885001
 10
1472.606403031094
 20
1514.98255885001
 10
1473.461281275428
 20
1514.98255885001
 10
1474.425989790821
 20
1514.98255885001
 10
1475.498985249443
 20
1514.98255885001
 10
1476.678551087456
 20
1514.98255885001
 10
1477.962800251143
 20
1514.98255885001
 10
1479.349678215803
 20
1514.98255885001
 10
1480.836966272543
 20
1514.98255885001
 10
1482.422285077744
 20
1514.98255885001
 10
1484.1030984595
 20
1514.98255885001
 10
1485.876717474956
 20
1514.98255885001
 10
1487.740304712038
 20
1514.98255885001
 10
1489.690878828711
 20
1514.98255885001
 10
1491.72531932249
 20
1514.98255885001
 10
1493.840371522574
 20
1514.98255885001
 10
1496.03265179663
 20
1514.98255885001
 10
1498.298652963882
 20
1514.98255885001
 10
1500.634749905849
 20
1514.98255885001
 10
1503.037205365766
 20
1514.98255885001
 10
1505.502175927393
 20
1514.98255885001
 10
1508.025718163663
 20
1514.98255885001
 10
1510.603794945326
 20
1514.98255885001
 10
1513.232281899492
 20
1514.98255885001
 10
1515.906974007747
 20
1514.98255885001
 10
1518.623592333289
 20
1514.98255885001
 10
1521.377790866312
 20
1514.98255885001
 10
1524.165163476693
 20
1514.98255885001
 10
1526.981250962865
 20
1514.98255885001
 10
1529.821548185581
 20
1514.98255885001
 10
1532.681511275184
 20
1514.98255885001
 10
1535.556564900824
 20
1514.98255885001
 10
1538.44210959001
 20
1514.98255885001
 10
1541.333529086791
 20
1514.98255885001
 10
1542.114353943102
 20
1514.98255885001
  0
LWPOLYLINE
  5
25E
330
1EE
100
AcDbEntity
  8
P-SANR-FIXT
100
AcDbPolyline
 90
       14
 70
   128
 43
0.0
 10
1434.355888211116
 20
1536.423431305634
 10
1430.253549460346
 20
1544.6520985102
 10
1426.48355106577
 20
1553.038233453932
 10
1423.051924220598
 20
1561.568420109865
 10
1419.964158795739
 20
1570.229011999027
 10
1417.225194557187
 20
1579.00615402189
 10
1414.83941326344
 20
1587.885804623574
 10
1412.810631655629
 20
1596.85375825734
 10
1411.142095351544
 20
1605.895668110437
 10
1409.836473653336
 20
1614.997069055936
 10
1408.895855277203
 20
1624.143400793855
 10
1408.321745011894
 20
1633.320031144525
 10
1408.115061311361
 20
1642.512279456962
 10
1408.114353943102
 20
1643.082558850012
  0
LINE
  5
25F
330
1EE
100
AcDbEntity
  8
P-SANR-FIXT
100
AcDbLine
 10
1408.114353943102
 20
2133.082558850012
 30
0.0
 11
1408.114353943102
 21
1643.082558850013
 31
0.0
  0
LWPOLYLINE
  5
260
330
1EE
100
AcDbEntity
  8
P-SANR-FIXT
100
AcDbPolyline
 90
       16
 70
   128
 43
0.0
 10
1408.114353943102
 20
2133.082558850011
 10
1408.045095637995
 20
2141.730418943158
 10
1408.32171489941
 20
2150.374131264129
 10
1408.943769195536
 20
2158.999867717103
 10
1409.910263372198
 20
2167.593828963813
 10
1411.219651244888
 20
2176.142266499547
 10
1412.86983807233
 20
2184.631504647815
 10
1414.858183907621
 20
2193.047962438523
 10
1417.181507821584
 20
2201.378175334619
 10
1419.836092991571
 20
2209.608816772488
 10
1422.817692647592
 20
2217.726719481606
 10
1426.121536866238
 20
2225.718896549365
 10
1429.742340201543
 20
2233.572562197362
 10
1433.674310140564
 20
2241.275152235921
 10
1437.911156370178
 20
2248.814344164112
 10
1438.975930414725
 20
2250.603589756619
  0
LWPOLYLINE
  5
261
330
1EE
100
AcDbEntity
  8
P-SANR-FIXT
100
AcDbPolyline
 90
       27
 70
   128
 43
0.0
 10
1438.975930414726
 20
2250.60358975662
 10
1439.827968025472
 20
2251.957728078486
 10
1440.733475186896
 20
2253.276710817372
 10
1441.691003280706
 20
2254.558427882265
 10
1442.699020466212
 20
2255.800828799277
 10
1443.75591413095
 20
2257.001925991975
 10
1444.859993470515
 20
2258.159797961071
 10
1446.009492193487
 20
2259.272592358413
 10
1447.202571347125
 20
2260.338528950347
 10
1448.437322259291
 20
2261.355902465717
 10
1449.711769591926
 20
2262.323085323924
 10
1451.023874501165
 20
2263.238530238718
 10
1452.371537899054
 20
2264.100772693518
 10
1453.752603811643
 20
2264.908433284333
 10
1455.164862828083
 20
2265.660219926509
 10
1456.606055635214
 20
2266.354929921791
 10
1458.073876631982
 20
2266.991451882383
 10
1459.565977617912
 20
2267.568767508933
 10
1461.079971549723
 20
2268.085953219593
 10
1462.613436360093
 20
2268.542181627551
 10
1464.163918832446
 20
2268.93672286468
 10
1465.72893852558
 20
2269.268945749164
 10
1467.305991741838
 20
2269.538318795258
 10
1468.892555532494
 20
2269.744411063551
 10
1470.486091733931
 20
2269.886892850379
 10
1472.084051028165
 20
2269.965536215277
 10
1473.250893351958
 20
2269.982558850011
  0
LWPOLYLINE
  5
262
330
1EE
100
AcDbEntity
  8
P-SANR-FIXT
100
AcDbPolyline
 90
       41
 70
   128
 43
0.0
 10
1542.114353943102
 20
2269.982558850011
 10
1539.360550004275
 20
2269.982558850011
 10
1536.611151564303
 20
2269.982558850011
 10
1533.870557074183
 20
2269.982558850011
 10
1531.14315090047
 20
2269.982558850011
 10
1528.433296311228
 20
2269.982558850011
 10
1525.745328495726
 20
2269.982558850011
 10
1523.083547629068
 20
2269.982558850011
 10
1520.452211992822
 20
2269.982558850011
 10
1517.855531162688
 20
2269.982558850011
 10
1515.297659274062
 20
2269.982558850011
 10
1512.782688376316
 20
2269.982558850011
 10
1510.31464188639
 20
2269.982558850011
 10
1507.897468152177
 20
2269.982558850011
 10
1505.535034136017
 20
2269.982558850011
 10
1503.231119228377
 20
2269.982558850011
 10
1500.989409201632
 20
2269.982558850011
 10
1498.81349031362
 20
2269.982558850011
 10
1496.70684357039
 20
2269.982558850011
 10
1494.672839157337
 20
2269.982558850011
 10
1492.714731047626
 20
2269.982558850011
 10
1490.835651796522
 20
2269.982558850011
 10
1489.03860752998
 20
2269.982558850011
 10
1487.326473135477
 20
2269.982558850011
 10
1485.701987662809
 20
2269.982558850011
 10
1484.167749942192
 20
2269.982558850011
 10
1482.726214426694
 20
2269.982558850011
 10
1481.379687265628
 20
2269.982558850011
 10
1480.130322615209
 20
2269.982558850011
 10
1478.980119192359
 20
2269.982558850011
 10
1477.930917077192
 20
2269.982558850011
 10
1476.984394769274
 20
2269.982558850011
 10
1476.142066502384
 20
2269.982558850011
 10
1475.405279822061
 20
2269.982558850011
 10
1474.775213429823
 20
2269.982558850011
 10
1474.252875297488
 20
2269.982558850011
 10
1473.839101054643
 20
2269.982558850011
 10
1473.534552651809
 20
2269.982558850011
 10
1473.339717301463
 20
2269.982558850011
 10
1473.254906698605
 20
2269.982558850011
 10
1473.250893351958
 20
2269.982558850011
  0
LWPOLYLINE
  5
263
330
1EE
100
AcDbEntity
  8
P-SANR-FIXT
100
AcDbPolyline
 90
       36
 70
   128
 43
0.0
 10
1473.250893351958
 20
2269.982558850011
 10
1473.305976775387
 20
2269.982558850011
 10
1473.471138923946
 20
2269.982558850011
 10
1473.746115573432
 20
2269.982558850011
 10
1474.130466819862
 20
2269.982558850011
 10
1474.623577783234
 20
2269.982558850011
 10
1475.224659591197
 20
2269.982558850011
 10
1475.932750641083
 20
2269.982558850011
 10
1476.746718138264
 20
2269.982558850011
 10
1477.66525990838
 20
2269.982558850011
 10
1478.686906480544
 20
2269.982558850011
 10
1479.810023438182
 20
2269.982558850011
 10
1481.032814033746
 20
2269.982558850011
 10
1482.353322063131
 20
2269.982558850011
 10
1483.769434995184
 20
2269.982558850011
 10
1485.278887351302
 20
2269.982558850011
 10
1486.879264329713
 20
2269.982558850011
 10
1488.568005668649
 20
2269.982558850011
 10
1490.342409742212
 20
2269.982558850011
 10
1492.199637882404
 20
2269.982558850011
 10
1494.136718920388
 20
2269.982558850011
 10
1496.150553939726
 20
2269.982558850011
 10
1498.237921233981
 20
2269.982558850011
 10
1500.395481460764
 20
2269.982558850011
 10
1502.619782983968
 20
2269.982558850011
 10
1504.907267395648
 20
2269.982558850011
 10
1507.254275208714
 20
2269.982558850011
 10
1509.657051711336
 20
2269.982558850011
 10
1512.111752973673
 20
2269.982558850011
 10
1514.614451997348
 20
2269.982558850011
 10
1517.161144997803
 20
2269.982558850011
 10
1519.747757809503
 20
2269.982558850011
 10
1522.370152403731
 20
2269.982558850011
 10
1525.02413350855
 20
2269.982558850011
 10
1527.705455320345
 20
2269.982558850011
 10
1528.914353943102
 20
2269.982558850011
  0
LINE
  5
264
330
1EE
100
AcDbEntity
  8
P-SANR-FIXT
100
AcDbLine
 10
1542.1143539431
 20
1514.98255885001
 30
0.0
 11
1542.1143539431
 21
1536.423431305635
 31
0.0
  0
LINE
  5
265
330
1EE
100
AcDbEntity
  8
P-SANR-FIXT
100
AcDbLine
 10
1542.1143539431
 20
1536.423431305634
 30
0.0
 11
1542.1143539431
 21
1643.082558850011
 31
0.0
  0
LINE
  5
266
330
1EE
100
AcDbEntity
  8
P-SANR-FIXT
100
AcDbLine
 10
1542.1143539431
 20
1643.082558850013
 30
0.0
 11
1542.1143539431
 21
1672.482558850009
 31
0.0
  0
LINE
  5
267
330
1EE
100
AcDbEntity
  8
P-SANR-FIXT
100
AcDbLine
 10
1542.1143539431
 20
1857.482558850009
 30
0.0
 11
1542.1143539431
 21
2002.48255885001
 31
0.0
  0
LINE
  5
268
330
1EE
100
AcDbEntity
  8
P-SANR-FIXT
100
AcDbLine
 10
1457.816467492136
 20
2133.08255885001
 30
0.0
 11
1408.1143539431
 21
2133.08255885001
 31
0.0
  0
LINE
  5
269
330
1EE
100
AcDbEntity
  8
P-SANR-FIXT
100
AcDbLine
 10
1542.1143539431
 20
2187.497038512548
 30
0.0
 11
1542.1143539431
 21
2250.603589756619
 31
0.0
  0
LINE
  5
26A
330
1EE
100
AcDbEntity
  8
P-SANR-FIXT
100
AcDbLine
 10
1542.1143539431
 20
2250.603589756619
 30
0.0
 11
1542.1143539431
 21
2269.98255885001
 31
0.0
  0
LINE
  5
26B
330
1EE
100
AcDbEntity
  8
P-SANR-FIXT
100
AcDbLine
 10
1626.114353943103
 20
1603.98255885001
 30
0.0
 11
1626.114353943103
 21
1726.292407897124
 31
0.0
  0
LINE
  5
26C
330
1EE
100
AcDbEntity
  8
P-SANR-FIXT
100
AcDbLine
 10
1626.114353943103
 20
1803.672709802896
 30
0.0
 11
1626.114353943103
 21
2056.292407897124
 31
0.0
  0
LINE
  5
26D
330
1EE
100
AcDbEntity
  8
P-SANR-FIXT
100
AcDbLine
 10
1626.114353943103
 20
2133.672709802897
 30
0.0
 11
1626.114353943103
 21
2176.982558850011
 31
0.0
  0
LWPOLYLINE
  5
26E
330
1EE
100
AcDbEntity
  8
P-SANR-FIXT
100
AcDbPolyline
 90
       41
 70
   128
 43
0.0
 10
1626.114353943103
 20
1603.98255885001
 10
1626.082358209542
 20
1602.382985482544
 10
1625.986422195208
 20
1600.785971091243
 10
1625.826699377257
 20
1599.194070558453
 10
1625.603445278128
 20
1597.60983058544
 10
1625.317017056752
 20
1596.035785618207
 10
1624.967872937184
 20
1594.474453792924
 10
1624.556571475533
 20
1592.928332907445
 10
1624.0837706664
 20
1591.399896425365
 10
1623.55022689022
 20
1589.891589519006
 10
1622.956793703218
 20
1588.405825157663
 10
1622.304420471901
 20
1586.944980247369
 10
1621.594150854274
 20
1585.51139182835
 10
1620.827121130209
 20
1584.10735333626
 10
1620.004558383639
 20
1582.735110933174
 10
1619.12777853949
 20
1581.396859914208
 10
1618.198184258474
 20
1580.094741195514
 10
1617.217262693139
 20
1578.830837889271
 10
1616.186583108738
 20
1577.60717197115
 10
1615.107794372739
 20
1576.425701045588
 10
1613.982622316989
 20
1575.288315214028
 10
1612.812866976755
 20
1574.196834051175
 10
1611.600399711045
 20
1573.153003694051
 10
1610.347160208841
 20
1572.158494048555
 10
1609.055153386001
 20
1571.21489611797
 10
1607.726446177828
 20
1570.323719457694
 10
1606.363164232413
 20
1569.486389760276
 10
1604.967488510052
 20
1568.704246574611
 10
1603.541651794171
 20
1567.978541162949
 10
1602.087935119353
 20
1567.310434499139
 10
1600.608664122169
 20
1566.700995411321
 10
1599.106205320653
 20
1566.151198872028
 10
1597.582962328381
 20
1565.66192443844
 10
1596.041372009197
 20
1565.233954845279
 10
1594.483900578759
 20
1564.867974752597
 10
1592.913039659112
 20
1564.564569650471
 10
1591.331302292628
 20
1564.324224922342
 10
1589.741218921675
 20
1564.147325068504
 10
1588.145333340446
 20
1564.034153090986
 10
1586.546198625433
 20
1563.984890040811
 10
1586.114353943102
 20
1563.98255885001
  0
LWPOLYLINE
  5
26F
330
1EE
100
AcDbEntity
  8
P-SANR-FIXT
100
AcDbPolyline
 90
       41
 70
   128
 43
0.0
 10
1542.114353943103
 20
1563.98255885001
 10
1543.873884647314
 20
1563.98255885001
 10
1545.630600477746
 20
1563.98255885001
 10
1547.381691063815
 20
1563.98255885001
 10
1549.124355034129
 20
1563.98255885001
 10
1550.855804498085
 20
1563.98255885001
 10
1552.573269505896
 20
1563.98255885001
 10
1554.274002479924
 20
1563.98255885001
 10
1555.955282610212
 20
1563.98255885001
 10
1557.614420207207
 20
1563.98255885001
 10
1559.248761004683
 20
1563.98255885001
 10
1560.855690406006
 20
1563.98255885001
 10
1562.432637666928
 20
1563.98255885001
 10
1563.977080008227
 20
1563.98255885001
 10
1565.486546651621
 20
1563.98255885001
 10
1566.958622772484
 20
1563.98255885001
 10
1568.390953363048
 20
1563.98255885001
 10
1569.781246999915
 20
1563.98255885001
 10
1571.127279509847
 20
1563.98255885001
 10
1572.426897527967
 20
1563.98255885001
 10
1573.678021942682
 20
1563.98255885001
 10
1574.878651221821
 20
1563.98255885001
 10
1576.026864614657
 20
1563.98255885001
 10
1577.120825224703
 20
1563.98255885001
 10
1578.158782948347
 20
1563.98255885001
 10
1579.13907727465
 20
1563.98255885001
 10
1580.060139941809
 20
1563.98255885001
 10
1580.92049744604
 20
1563.98255885001
 10
1581.718773398869
 20
1563.98255885001
 10
1582.453690729061
 20
1563.98255885001
 10
1583.124073725661
 20
1563.98255885001
 10
1583.728849918882
 20
1563.98255885001
 10
1584.267051795829
 20
1563.98255885001
 10
1584.737818348306
 20
1563.98255885001
 10
1585.140396450257
 20
1563.98255885001
 10
1585.474142062595
 20
1563.98255885001
 10
1585.738521263537
 20
1563.98255885001
 10
1585.933111102758
 20
1563.98255885001
 10
1586.057600278028
 20
1563.98255885001
 10
1586.111789633221
 20
1563.98255885001
 10
1586.114353943103
 20
1563.98255885001
  0
LWPOLYLINE
  5
270
330
1EE
100
AcDbEntity
  8
P-SANR-FIXT
100
AcDbPolyline
 90
       28
 70
   128
 43
0.0
 10
1586.114353943103
 20
1563.98255885001
 10
1586.079158636186
 20
1563.98255885001
 10
1585.973629020418
 20
1563.98255885001
 10
1585.797933920673
 20
1563.98255885001
 10
1585.55235441163
 20
1563.98255885001
 10
1585.237283368117
 20
1563.98255885001
 10
1584.853224836592
 20
1563.98255885001
 10
1584.400793228777
 20
1563.98255885001
 10
1583.88071233873
 20
1563.98255885001
 10
1583.293814184932
 20
1563.98255885001
 10
1582.64103767923
 20
1563.98255885001
 10
1581.923427124781
 20
1563.98255885001
 10
1581.142130545392
 20
1563.98255885001
 10
1580.298397848919
 20
1563.98255885001
 10
1579.393578827694
 20
1563.98255885001
 10
1578.429120999129
 20
1563.98255885001
 10
1577.406567290012
 20
1563.98255885001
 10
1576.327553568144
 20
1563.98255885001
 10
1575.193806025302
 20
1563.98255885001
 10
1574.007138415703
 20
1563.98255885001
 10
1572.769449154378
 20
1563.98255885001
 10
1571.482718280121
 20
1563.98255885001
 10
1570.14900428784
 20
1563.98255885001
 10
1568.770440835415
 20
1563.98255885001
 10
1567.349233330291
 20
1563.98255885001
 10
1565.887655401301
 20
1563.98255885001
 10
1564.388045261345
 20
1563.98255885001
 10
1563.114353943104
 20
1563.98255885001
  0
LINE
  5
271
330
1EE
100
AcDbEntity
  8
P-SANR-FIXT
100
AcDbLine
 10
1563.114353943104
 20
1505.982558850011
 30
0.0
 11
1563.114353943104
 21
1563.98255885001
 31
0.0
  0
LINE
  5
272
330
1EE
100
AcDbEntity
  8
P-SANR-FIXT
100
AcDbLine
 10
1555.314353943103
 20
2216.982558850011
 30
0.0
 11
1555.314353943103
 21
2279.982558850011
 31
0.0
  0
LINE
  5
273
330
1EE
100
AcDbEntity
  8
P-SANR-FIXT
100
AcDbLine
 10
1498.128745299387
 20
2216.982558850011
 30
0.0
 11
1498.116918252984
 21
2216.982558850011
 31
0.0
  0
LWPOLYLINE
  5
274
330
1EE
100
AcDbEntity
  8
P-SANR-FIXT
100
AcDbPolyline
 90
       41
 70
   128
 43
0.0
 10
1586.114353943103
 20
2216.982558850011
 10
1587.713927310568
 20
2216.95056311645
 10
1589.31094170187
 20
2216.854627102116
 10
1590.90284223466
 20
2216.694904284165
 10
1592.487082207673
 20
2216.471650185036
 10
1594.061127174905
 20
2216.185221963661
 10
1595.622459000188
 20
2215.836077844092
 10
1597.168579885667
 20
2215.424776382441
 10
1598.697016367747
 20
2214.951975573308
 10
1600.205323274106
 20
2214.418431797128
 10
1601.691087635449
 20
2213.824998610126
 10
1603.151932545743
 20
2213.172625378809
 10
1604.585520964762
 20
2212.462355761182
 10
1605.989559456852
 20
2211.695326037117
 10
1607.361801859938
 20
2210.872763290547
 10
1608.700052878904
 20
2209.995983446398
 10
1610.002171597599
 20
2209.066389165383
 10
1611.266074903841
 20
2208.085467600048
 10
1612.489740821962
 20
2207.054788015646
 10
1613.671211747525
 20
2205.975999279647
 10
1614.808597579084
 20
2204.850827223897
 10
1615.900078741937
 20
2203.681071883663
 10
1616.943909099061
 20
2202.468604617954
 10
1617.938418744557
 20
2201.215365115749
 10
1618.882016675143
 20
2199.923358292909
 10
1619.773193335419
 20
2198.594651084736
 10
1620.610523032836
 20
2197.231369139322
 10
1621.392666218501
 20
2195.83569341696
 10
1622.118371630163
 20
2194.40985670108
 10
1622.786478293973
 20
2192.956140026261
 10
1623.395917381792
 20
2191.476869029077
 10
1623.945713921084
 20
2189.974410227562
 10
1624.434988354671
 20
2188.451167235289
 10
1624.862957947833
 20
2186.909576916105
 10
1625.228938040515
 20
2185.352105485668
 10
1625.532343142641
 20
2183.78124456602
 10
1625.77268787077
 20
2182.199507199537
 10
1625.949587724608
 20
2180.609423828583
 10
1626.062759702126
 20
2179.013538247354
 10
1626.112022752301
 20
2177.414403532342
 10
1626.114353943103
 20
2176.982558850011
  0
LWPOLYLINE
  5
275
330
1EE
100
AcDbEntity
  8
P-SANR-FIXT
100
AcDbPolyline
 90
       34
 70
   128
 43
0.0
 10
1555.314353943103
 20
2216.982558850011
 10
1555.955282610212
 20
2216.982558850011
 10
1557.614420207207
 20
2216.982558850011
 10
1559.248761004684
 20
2216.982558850011
 10
1560.855690406007
 20
2216.982558850011
 10
1562.432637666928
 20
2216.982558850011
 10
1563.977080008227
 20
2216.982558850011
 10
1565.486546651622
 20
2216.982558850011
 10
1566.958622772484
 20
2216.982558850011
 10
1568.390953363048
 20
2216.982558850011
 10
1569.781246999916
 20
2216.982558850011
 10
1571.127279509848
 20
2216.982558850011
 10
1572.426897527967
 20
2216.982558850011
 10
1573.678021942682
 20
2216.982558850011
 10
1574.878651221821
 20
2216.982558850011
 10
1576.026864614657
 20
2216.982558850011
 10
1577.120825224703
 20
2216.982558850011
 10
1578.158782948347
 20
2216.982558850011
 10
1579.139077274651
 20
2216.982558850011
 10
1580.06013994181
 20
2216.982558850011
 10
1580.92049744604
 20
2216.982558850011
 10
1581.718773398869
 20
2216.982558850011
 10
1582.453690729061
 20
2216.982558850011
 10
1583.124073725661
 20
2216.982558850011
 10
1583.728849918883
 20
2216.982558850011
 10
1584.267051795829
 20
2216.982558850011
 10
1584.737818348307
 20
2216.982558850011
 10
1585.140396450257
 20
2216.982558850011
 10
1585.474142062595
 20
2216.982558850011
 10
1585.738521263537
 20
2216.982558850011
 10
1585.933111102758
 20
2216.982558850011
 10
1586.057600278028
 20
2216.982558850011
 10
1586.111789633221
 20
2216.982558850011
 10
1586.114353943103
 20
2216.982558850011
  0
LWPOLYLINE
  5
276
330
1EE
100
AcDbEntity
  8
P-SANR-FIXT
100
AcDbPolyline
 90
       41
 70
   128
 43
0.0
 10
1586.114353943103
 20
2216.982558850011
 10
1586.079158636186
 20
2216.982558850011
 10
1585.973629020418
 20
2216.982558850011
 10
1585.797933920673
 20
2216.982558850011
 10
1585.55235441163
 20
2216.982558850011
 10
1585.237283368117
 20
2216.982558850011
 10
1584.853224836592
 20
2216.982558850011
 10
1584.400793228777
 20
2216.982558850011
 10
1583.88071233873
 20
2216.982558850011
 10
1583.293814184932
 20
2216.982558850011
 10
1582.64103767923
 20
2216.982558850011
 10
1581.923427124781
 20
2216.982558850011
 10
1581.142130545391
 20
2216.982558850011
 10
1580.298397848919
 20
2216.982558850011
 10
1579.393578827693
 20
2216.982558850011
 10
1578.429120999128
 20
2216.982558850011
 10
1577.406567290012
 20
2216.982558850011
 10
1576.327553568144
 20
2216.982558850011
 10
1575.193806025302
 20
2216.982558850011
 10
1574.007138415702
 20
2216.982558850011
 10
1572.769449154378
 20
2216.982558850011
 10
1571.48271828012
 20
2216.982558850011
 10
1570.14900428784
 20
2216.982558850011
 10
1568.770440835415
 20
2216.982558850011
 10
1567.349233330291
 20
2216.982558850011
 10
1565.887655401301
 20
2216.982558850011
 10
1564.388045261345
 20
2216.982558850011
 10
1562.852801966747
 20
2216.982558850011
 10
1561.284381579278
 20
2216.982558850011
 10
1559.685293236978
 20
2216.982558850011
 10
1558.058095140076
 20
2216.982558850011
 10
1556.405390458408
 20
2216.982558850011
 10
1554.729823166908
 20
2216.982558850011
 10
1553.034073815807
 20
2216.982558850011
 10
1551.320855242325
 20
2216.982558850011
 10
1549.592908230713
 20
2216.982558850011
 10
1547.85299712758
 20
2216.982558850011
 10
1546.103905419532
 20
2216.982558850011
 10
1544.34843128018
 20
2216.982558850011
 10
1542.589383093666
 20
2216.982558850011
 10
1542.114353943103
 20
2216.982558850011
  0
LINE
  5
277
330
1EE
100
AcDbEntity
  8
P-SANR-FIXT
100
AcDbLine
 10
1521.114353943101
 20
1514.98255885001
 30
0.0
 11
1521.114353943101
 21
1505.982558850011
 31
0.0
  0
LINE
  5
278
330
1EE
100
AcDbEntity
  8
P-SANR-FIXT
100
AcDbLine
 10
1528.914353943102
 20
2279.982558850011
 30
0.0
 11
1528.914353943102
 21
2269.982558850011
 31
0.0
  0
ARC
  5
279
330
1EE
100
AcDbEntity
  8
P-SANR-FIXT
100
AcDbCircle
 10
1542.1143539431
 20
2094.98255885001
 30
0.0
 40
92.50000000000047
100
AcDbArc
 50
90.00000000000049
 51
270.0
  0
ARC
  5
27A
330
1EE
100
AcDbEntity
  8
P-SANR-FIXT
100
AcDbCircle
 10
1542.1143539431
 20
2094.98255885001
 30
0.0
 40
31.75000000000055
100
AcDbArc
 50
90.00000000000081
 51
270.0000000000001
  0
ARC
  5
27B
330
1EE
100
AcDbEntity
  8
P-SANR-FIXT
100
AcDbCircle
 10
1542.1143539431
 20
2094.98255885001
 30
0.0
 40
92.5
100
AcDbArc
 50
269.9999999999998
 51
90.0
  0
ARC
  5
27C
330
1EE
100
AcDbEntity
  8
P-SANR-FIXT
100
AcDbCircle
 10
1542.1143539431
 20
2094.98255885001
 30
0.0
 40
31.74999999999989
100
AcDbArc
 50
269.9999999999994
 51
89.99999999999939
  0
ARC
  5
27D
330
1EE
100
AcDbEntity
  8
P-SANR-FIXT
100
AcDbCircle
 10
1542.1143539431
 20
1764.982558850009
 30
0.0
 40
92.50000000000012
100
AcDbArc
 50
90.00000000000035
 51
269.9999999999998
  0
ARC
  5
27E
330
1EE
100
AcDbEntity
  8
P-SANR-FIXT
100
AcDbCircle
 10
1542.1143539431
 20
1764.982558850009
 30
0.0
 40
31.75000000000011
100
AcDbArc
 50
90.00000000000062
 51
269.9999999999998
  0
ARC
  5
27F
330
1EE
100
AcDbEntity
  8
P-SANR-FIXT
100
AcDbCircle
 10
1542.1143539431
 20
1764.982558850009
 30
0.0
 40
92.5
100
AcDbArc
 50
269.9999999999998
 51
90.0
  0
ARC
  5
280
330
1EE
100
AcDbEntity
  8
P-SANR-FIXT
100
AcDbCircle
 10
1542.1143539431
 20
1764.982558850009
 30
0.0
 40
31.75
100
AcDbArc
 50
269.9999999999997
 51
89.99999999999959
  0
ENDBLK
  5
282
330
1EE
100
AcDbEntity
  8
0
100
AcDbBlockEnd
  0
ENDSEC
  0
SECTION
  2
ENTITIES
  0
INSERT
  5
16E
330
71
100
AcDbEntity
  8
P-SANR-FIXT
100
AcDbBlockReference
  2
Automatic flow rate regulator valve_Caleffi_121 DN15 - 1_2__-859151-Est - Idraulica
 10
0.0
 20
0.0
 30
0.0
1001
REVIT
1002
{
1070
     1
1000
863131
1002
}
1002
{
1070
     5
1000
859151
1002
}
1002
{
1070
     2
1000
-2001160
1002
}
  0
INSERT
  5
1ED
330
71
100
AcDbEntity
  8
P-SANR-FIXT
100
AcDbBlockReference
  2
Automatic flow rate regulator valve_Caleffi_121 DN15 - 1_2__-V1-Est - Idraulica
 10
0.0
 20
0.0
 30
0.0
1001
REVIT
1002
{
1070
     1
1000
863152
1002
}
1002
{
1070
     5
1000
859151
1002
}
1002
{
1070
     2
1000
-2001160
1002
}
  0
INSERT
  5
283
330
71
100
AcDbEntity
  8
P-SANR-FIXT
100
AcDbBlockReference
  2
Automatic flow rate regulator valve_Caleffi_121 DN15 - 1_2__-V2-Est - Idraulica
 10
0.0
 20
0.0
 30
0.0
1001
REVIT
1002
{
1070
     1
1000
863172
1002
}
1002
{
1070
     5
1000
859151
1002
}
1002
{
1070
     2
1000
-2001160
1002
}
  0
ENDSEC
  0
SECTION
  2
OBJECTS
  0
DICTIONARY
  5
C
330
0
100
AcDbDictionary
281
     1
  3
ACAD_CIP_PREVIOUS_PRODUCT_INFO
350
7A
  3
ACAD_COLOR
350
63
  3
ACAD_DETAILVIEWSTYLE
350
6B
  3
ACAD_GROUP
350
D
  3
ACAD_IMAGE_VARS
350
7B
  3
ACAD_LAYOUT
350
62
  3
ACAD_MATERIAL
350
10
  3
ACAD_MLEADERSTYLE
350
66
  3
ACAD_MLINESTYLE
350
5F
  3
ACAD_PLOTSETTINGS
350
61
  3
ACAD_PLOTSTYLENAME
350
E
  3
ACAD_SCALELIST
350
42
  3
ACAD_SECTIONVIEWSTYLE
350
68
  3
ACAD_TABLESTYLE
350
64
  3
ACAD_VISUALSTYLE
350
29
  3
ACDB_RECOMPOSE_DATA
350
28E
  3
AcDbVariableDictionary
350
7C
  3
REVIT_DICTIONARY
350
285
  0
DICTIONARY
  5
28A
330
71
100
AcDbDictionary
280
     1
281
     1
  3
ACAD_SORTENTS
360
28B
  0
XRECORD
  5
7A
102
{ACAD_REACTORS
330
C
102
}
330
C
100
AcDbXrecord
280
     1
300
RVT
300
2013
300
RVT2013
  0
DICTIONARY
  5
63
102
{ACAD_REACTORS
330
C
102
}
330
C
100
AcDbDictionary
281
     1
  0
DICTIONARY
  5
6B
102
{ACAD_REACTORS
330
C
102
}
330
C
100
AcDbDictionary
281
     1
  3
Imperial24
350
6C
  0
DICTIONARY
  5
D
102
{ACAD_REACTORS
330
C
102
}
330
C
100
AcDbDictionary
281
     1
  0
RASTERVARIABLES
  5
7B
102
{ACAD_REACTORS
330
C
102
}
330
C
100
AcDbRasterVariables
 90
        0
 70
     0
 71
     1
 72
     1
  0
DICTIONARY
  5
62
102
{ACAD_REACTORS
330
C
102
}
330
C
100
AcDbDictionary
281
     1
  3
Layout1
350
70
  3
Layout2
350
78
  3
Model
350
74
  0
DICTIONARY
  5
10
102
{ACAD_REACTORS
330
C
102
}
330
C
100
AcDbDictionary
281
     1
  3
ByBlock
350
19
  3
ByLayer
350
11
  3
Global
350
21
  0
DICTIONARY
  5
66
102
{ACAD_REACTORS
330
C
102
}
330
C
100
AcDbDictionary
281
     1
  3
Standard
350
67
  0
DICTIONARY
  5
5F
102
{ACAD_REACTORS
330
C
102
}
330
C
100
AcDbDictionary
281
     1
  3
Standard
350
60
  0
DICTIONARY
  5
61
102
{ACAD_REACTORS
330
C
102
}
330
C
100
AcDbDictionary
281
     1
  0
ACDBDICTIONARYWDFLT
  5
E
102
{ACAD_REACTORS
330
C
102
}
330
C
100
AcDbDictionary
281
     1
  3
Normal
350
F
100
AcDbDictionaryWithDefault
340
F
  0
DICTIONARY
  5
42
102
{ACAD_REACTORS
330
C
102
}
330
C
100
AcDbDictionary
281
     1
  3
A0
350
43
  3
A1
350
44
  3
A2
350
45
  3
A3
350
46
  3
A4
350
47
  3
A5
350
48
  3
A6
350
49
  3
A7
350
4A
  3
A8
350
4B
  3
A9
350
4C
  3
B0
350
4D
  3
B1
350
4E
  3
B2
350
4F
  3
B3
350
50
  3
B4
350
51
  3
B5
350
52
  3
B6
350
53
  0
DICTIONARY
  5
68
102
{ACAD_REACTORS
330
C
102
}
330
C
100
AcDbDictionary
281
     1
  3
Imperial24
350
6A
  0
DICTIONARY
  5
64
102
{ACAD_REACTORS
330
C
102
}
330
C
100
AcDbDictionary
281
     1
  3
Standard
350
65
  0
DICTIONARY
  5
29
102
{ACAD_REACTORS
330
C
102
}
330
C
100
AcDbDictionary
281
     1
  3
2dWireframe
350
2F
  3
Basic
350
2E
  3
Brighten
350
35
  3
ColorChange
350
39
  3
Conceptual
350
32
  3
Dim
350
34
  3
EdgeColorOff
350
41
  3
Facepattern
350
38
  3
Flat
350
2A
  3
FlatWithEdges
350
2B
  3
Gouraud
350
2C
  3
GouraudWithEdges
350
2D
  3
Hidden
350
31
  3
JitterOff
350
3F
  3
Linepattern
350
37
  3
OverhangOff
350
40
  3
Realistic
350
33
  3
Shaded
350
3E
  3
Shaded with edges
350
3D
  3
Shades of Gray
350
3A
  3
Sketchy
350
3B
  3
Thicken
350
36
  3
Wireframe
350
30
  3
X-Ray
350
3C
  0
XRECORD
  5
28E
102
{ACAD_REACTORS
330
C
102
}
330
C
100
AcDbXrecord
280
     1
 90
        1
330
65
  0
DICTIONARY
  5
7C
102
{ACAD_REACTORS
330
C
102
}
330
C
100
AcDbDictionary
281
     1
  3
CANNOSCALE
350
81
  3
CMLEADERSTYLE
350
7E
  3
CTABLESTYLE
350
7D
  3
CVIEWDETAILSTYLE
350
7F
  3
CVIEWSECTIONSTYLE
350
80
  0
DICTIONARY
  5
285
102
{ACAD_REACTORS
330
C
102
}
330
C
100
AcDbDictionary
281
     1
  3
DRAWING_TOOL
350
289
  3
REVIT_CATEGORY_MAPPING
350
287
  3
REVIT_SUB_CATEGORY_MAPPING
350
288
  3
REVIT_TYPE_MAPPING
350
286
  0
SORTENTSTABLE
  5
28B
102
{ACAD_REACTORS
330
28A
102
}
330
28A
100
AcDbSortentsTable
330
71
  0
ACDBDETAILVIEWSTYLE
  5
6C
102
{ACAD_REACTORS
330
6B
102
}
330
6B
100
AcDbModelDocViewStyle
 70
     0
  3
Imperial24
290
     1
100
AcDbDetailViewStyle
 70
     0
 71
     0
 90
        3
 71
     1
340
55
 62
   256
 40
0.24
340
0
 62
   256
 40
0.24
300

 40
0.36
280
     3
 71
     2
340
5D
 90
       25
 62
   256
 71
     3
340
55
 62
   256
 40
0.24
 90
        1
 40
0.75
 90
        1
300
%<\AcVar ViewType \f "%tc1">% %<\AcVar ViewDetailId>%\PSCALA %<\AcVar ViewScale \f "%sn">%
 71
     4
340
5D
 90
       25
 62
   256
340
5D
 90
       25
 62
   256
280
     0
  0
LAYOUT
  5
70
102
{ACAD_REACTORS
330
62
102
}
330
62
100
AcDbPlotSettings
  1

  2

  4

  6

 40
0.0
 41
0.0
 42
0.0
 43
0.0
 44
0.0
 45
0.0
 46
0.0
 47
0.0
 48
0.0
 49
0.0
140
0.0
141
0.0
142
1.0
143
1.0
 70
   688
 72
     0
 73
     0
 74
     5
  7

 75
    16
147
1.0
 76
     0
 77
     2
 78
   300
148
0.0
149
0.0
100
AcDbLayout
  1
Layout1
 70
     1
 71
     1
 10
0.0
 20
0.0
 11
12.0
 21
9.0
 12
0.0
 22
0.0
 32
0.0
 14
0.0
 24
0.0
 34
0.0
 15
0.0
 25
0.0
 35
0.0
146
0.0
 13
0.0
 23
0.0
 33
0.0
 16
1.0
 26
0.0
 36
0.0
 17
0.0
 27
1.0
 37
0.0
 76
     0
330
6D
  0
LAYOUT
  5
78
102
{ACAD_REACTORS
330
62
102
}
330
62
100
AcDbPlotSettings
  1

  2

  4

  6

 40
0.0
 41
0.0
 42
0.0
 43
0.0
 44
0.0
 45
0.0
 46
0.0
 47
0.0
 48
0.0
 49
0.0
140
0.0
141
0.0
142
1.0
143
1.0
 70
   688
 72
     0
 73
     0
 74
     5
  7

 75
    16
147
1.0
 76
     0
 77
     2
 78
   300
148
0.0
149
0.0
100
AcDbLayout
  1
Layout2
 70
     1
 71
     2
 10
0.0
 20
0.0
 11
12.0
 21
9.0
 12
0.0
 22
0.0
 32
0.0
 14
0.0
 24
0.0
 34
0.0
 15
0.0
 25
0.0
 35
0.0
146
0.0
 13
0.0
 23
0.0
 33
0.0
 16
1.0
 26
0.0
 36
0.0
 17
0.0
 27
1.0
 37
0.0
 76
     0
330
75
  0
LAYOUT
  5
74
102
{ACAD_REACTORS
330
62
102
}
330
62
100
AcDbPlotSettings
  1

  2

  4

  6

 40
0.0
 41
0.0
 42
0.0
 43
0.0
 44
0.0
 45
0.0
 46
0.0
 47
0.0
 48
0.0
 49
0.0
140
0.0
141
0.0
142
1.0
143
1.0
 70
  1712
 72
     0
 73
     0
 74
     0
  7

 75
     0
147
1.0
 76
     0
 77
     2
 78
   300
148
0.0
149
0.0
100
AcDbLayout
  1
Model
 70
     1
 71
     0
 10
0.0
 20
0.0
 11
12.0
 21
9.0
 12
0.0
 22
0.0
 32
0.0
 14
0.0
 24
0.0
 34
0.0
 15
0.0
 25
0.0
 35
0.0
146
0.0
 13
0.0
 23
0.0
 33
0.0
 16
1.0
 26
0.0
 36
0.0
 17
0.0
 27
1.0
 37
0.0
 76
     0
330
71
  0
MATERIAL
  5
19
102
{ACAD_XDICTIONARY
360
1A
102
}
102
{ACAD_REACTORS
330
10
102
}
330
10
100
AcDbMaterial
  1
ByBlock
 72
     0
 43
0.0208333333333333
 43
0.0
 43
0.0
 43
0.0
 43
0.0
 43
0.0208333333333333
 43
0.0
 43
0.0
 43
0.0
 43
0.0
 43
1.0
 43
0.0
 43
0.0
 43
0.0
 43
0.0
 43
1.0
 77
     0
 47
0.0208333333333333
 47
0.0
 47
0.0
 47
0.0
 47
0.0
 47
0.0208333333333333
 47
0.0
 47
0.0
 47
0.0
 47
0.0
 47
1.0
 47
0.0
 47
0.0
 47
0.0
 47
0.0
 47
1.0
171
     0
 49
0.0208333333333333
 49
0.0
 49
0.0
 49
0.0
 49
0.0
 49
0.0208333333333333
 49
0.0
 49
0.0
 49
0.0
 49
0.0
 49
1.0
 49
0.0
 49
0.0
 49
0.0
 49
0.0
 49
1.0
175
     0
142
0.0208333333333333
142
0.0
142
0.0
142
0.0
142
0.0
142
0.0208333333333333
142
0.0
142
0.0
142
0.0
142
0.0
142
1.0
142
0.0
142
0.0
142
0.0
142
0.0
142
1.0
179
     0
144
0.0208333333333333
144
0.0
144
0.0
144
0.0
144
0.0
144
0.0208333333333333
144
0.0
144
0.0
144
0.0
144
0.0
144
1.0
144
0.0
144
0.0
144
0.0
144
0.0
144
1.0
147
0.0208333333333333
147
0.0
147
0.0
147
0.0
147
0.0
147
0.0208333333333333
147
0.0
147
0.0
147
0.0
147
0.0
147
1.0
147
0.0
147
0.0
147
0.0
147
0.0
147
1.0
  0
MATERIAL
  5
11
102
{ACAD_XDICTIONARY
360
12
102
}
102
{ACAD_REACTORS
330
10
102
}
330
10
100
AcDbMaterial
  1
ByLayer
 72
     0
 43
0.0208333333333333
 43
0.0
 43
0.0
 43
0.0
 43
0.0
 43
0.0208333333333333
 43
0.0
 43
0.0
 43
0.0
 43
0.0
 43
1.0
 43
0.0
 43
0.0
 43
0.0
 43
0.0
 43
1.0
 77
     0
 47
0.0208333333333333
 47
0.0
 47
0.0
 47
0.0
 47
0.0
 47
0.0208333333333333
 47
0.0
 47
0.0
 47
0.0
 47
0.0
 47
1.0
 47
0.0
 47
0.0
 47
0.0
 47
0.0
 47
1.0
171
     0
 49
0.0208333333333333
 49
0.0
 49
0.0
 49
0.0
 49
0.0
 49
0.0208333333333333
 49
0.0
 49
0.0
 49
0.0
 49
0.0
 49
1.0
 49
0.0
 49
0.0
 49
0.0
 49
0.0
 49
1.0
175
     0
142
0.0208333333333333
142
0.0
142
0.0
142
0.0
142
0.0
142
0.0208333333333333
142
0.0
142
0.0
142
0.0
142
0.0
142
1.0
142
0.0
142
0.0
142
0.0
142
0.0
142
1.0
179
     0
144
0.0208333333333333
144
0.0
144
0.0
144
0.0
144
0.0
144
0.0208333333333333
144
0.0
144
0.0
144
0.0
144
0.0
144
1.0
144
0.0
144
0.0
144
0.0
144
0.0
144
1.0
147
0.0208333333333333
147
0.0
147
0.0
147
0.0
147
0.0
147
0.0208333333333333
147
0.0
147
0.0
147
0.0
147
0.0
147
1.0
147
0.0
147
0.0
147
0.0
147
0.0
147
1.0
  0
MATERIAL
  5
21
102
{ACAD_XDICTIONARY
360
22
102
}
102
{ACAD_REACTORS
330
10
102
}
330
10
100
AcDbMaterial
  1
Global
 72
     0
 43
0.0208333333333333
 43
0.0
 43
0.0
 43
0.0
 43
0.0
 43
0.0208333333333333
 43
0.0
 43
0.0
 43
0.0
 43
0.0
 43
1.0
 43
0.0
 43
0.0
 43
0.0
 43
0.0
 43
1.0
 77
     0
 47
0.0208333333333333
 47
0.0
 47
0.0
 47
0.0
 47
0.0
 47
0.0208333333333333
 47
0.0
 47
0.0
 47
0.0
 47
0.0
 47
1.0
 47
0.0
 47
0.0
 47
0.0
 47
0.0
 47
1.0
171
     0
 49
0.0208333333333333
 49
0.0
 49
0.0
 49
0.0
 49
0.0
 49
0.0208333333333333
 49
0.0
 49
0.0
 49
0.0
 49
0.0
 49
1.0
 49
0.0
 49
0.0
 49
0.0
 49
0.0
 49
1.0
175
     0
142
0.0208333333333333
142
0.0
142
0.0
142
0.0
142
0.0
142
0.0208333333333333
142
0.0
142
0.0
142
0.0
142
0.0
142
1.0
142
0.0
142
0.0
142
0.0
142
0.0
142
1.0
179
     0
144
0.0208333333333333
144
0.0
144
0.0
144
0.0
144
0.0
144
0.0208333333333333
144
0.0
144
0.0
144
0.0
144
0.0
144
1.0
144
0.0
144
0.0
144
0.0
144
0.0
144
1.0
147
0.0208333333333333
147
0.0
147
0.0
147
0.0
147
0.0
147
0.0208333333333333
147
0.0
147
0.0
147
0.0
147
0.0
147
1.0
147
0.0
147
0.0
147
0.0
147
0.0
147
1.0
  0
MLEADERSTYLE
  5
67
102
{ACAD_REACTORS
330
66
102
}
330
66
100
AcDbMLeaderStyle
179
     2
170
     2
171
     1
172
     0
 90
        2
 40
0.0
 41
0.0
173
     1
 91
-1056964608
340
5B
 92
       -2
290
     1
 42
0.09
291
     1
 43
0.36
  3
Standard
 44
0.18
300

342
55
174
     1
178
     6
175
     1
176
     0
 93
-1056964608
 45
0.18
292
     0
297
     0
 46
0.18
 94
-1056964608
 47
1.0
 49
1.0
140
1.0
293
     1
141
0.0
294
     1
177
     0
142
1.0
295
     1
296
     0
143
0.125
271
     0
272
     9
273
     9
298
     1
  0
MLINESTYLE
  5
60
102
{ACAD_REACTORS
330
5F
102
}
330
5F
100
AcDbMlineStyle
  2
STANDARD
 70
     0
  3

 62
   256
 51
90.0
 52
90.0
 71
     2
 49
0.5
 62
   256
  6
BYLAYER
 49
-0.5
 62
   256
  6
BYLAYER
  0
ACDBPLACEHOLDER
  5
F
102
{ACAD_REACTORS
330
E
102
}
330
E
  0
SCALE
  5
43
102
{ACAD_REACTORS
330
42
102
}
330
42
100
AcDbScale
 70
     0
300
1:1
140
1.0
141
1.0
290
     1
  0
SCALE
  5
44
102
{ACAD_REACTORS
330
42
102
}
330
42
100
AcDbScale
 70
     0
300
1/128" = 1'-0"
140
0.0078125
141
12.0
290
     0
  0
SCALE
  5
45
102
{ACAD_REACTORS
330
42
102
}
330
42
100
AcDbScale
 70
     0
300
1/64" = 1'-0"
140
0.015625
141
12.0
290
     0
  0
SCALE
  5
46
102
{ACAD_REACTORS
330
42
102
}
330
42
100
AcDbScale
 70
     0
300
1/32" = 1'-0"
140
0.03125
141
12.0
290
     0
  0
SCALE
  5
47
102
{ACAD_REACTORS
330
42
102
}
330
42
100
AcDbScale
 70
     0
300
1/16" = 1'-0"
140
0.0625
141
12.0
290
     0
  0
SCALE
  5
48
102
{ACAD_REACTORS
330
42
102
}
330
42
100
AcDbScale
 70
     0
300
3/32" = 1'-0"
140
0.09375
141
12.0
290
     0
  0
SCALE
  5
49
102
{ACAD_REACTORS
330
42
102
}
330
42
100
AcDbScale
 70
     0
300
1/8" = 1'-0"
140
0.125
141
12.0
290
     0
  0
SCALE
  5
4A
102
{ACAD_REACTORS
330
42
102
}
330
42
100
AcDbScale
 70
     0
300
3/16" = 1'-0"
140
0.1875
141
12.0
290
     0
  0
SCALE
  5
4B
102
{ACAD_REACTORS
330
42
102
}
330
42
100
AcDbScale
 70
     0
300
1/4" = 1'-0"
140
0.25
141
12.0
290
     0
  0
SCALE
  5
4C
102
{ACAD_REACTORS
330
42
102
}
330
42
100
AcDbScale
 70
     0
300
3/8" = 1'-0"
140
0.375
141
12.0
290
     0
  0
SCALE
  5
4D
102
{ACAD_REACTORS
330
42
102
}
330
42
100
AcDbScale
 70
     0
300
1/2" = 1'-0"
140
0.5
141
12.0
290
     0
  0
SCALE
  5
4E
102
{ACAD_REACTORS
330
42
102
}
330
42
100
AcDbScale
 70
     0
300
3/4" = 1'-0"
140
0.75
141
12.0
290
     0
  0
SCALE
  5
4F
102
{ACAD_REACTORS
330
42
102
}
330
42
100
AcDbScale
 70
     0
300
1" = 1'-0"
140
1.0
141
12.0
290
     0
  0
SCALE
  5
50
102
{ACAD_REACTORS
330
42
102
}
330
42
100
AcDbScale
 70
     0
300
1-1/2" = 1'-0"
140
1.5
141
12.0
290
     0
  0
SCALE
  5
51
102
{ACAD_REACTORS
330
42
102
}
330
42
100
AcDbScale
 70
     0
300
3" = 1'-0"
140
3.0
141
12.0
290
     0
  0
SCALE
  5
52
102
{ACAD_REACTORS
330
42
102
}
330
42
100
AcDbScale
 70
     0
300
6" = 1'-0"
140
6.0
141
12.0
290
     0
  0
SCALE
  5
53
102
{ACAD_REACTORS
330
42
102
}
330
42
100
AcDbScale
 70
     0
300
1'-0" = 1'-0"
140
12.0
141
12.0
290
     0
  0
ACDBSECTIONVIEWSTYLE
  5
6A
102
{ACAD_REACTORS
330
68
102
}
330
68
100
AcDbModelDocViewStyle
 70
     0
  3
Imperial24
290
     1
100
AcDbSectionViewStyle
 70
     0
 71
     0
 90
       78
 71
     1
340
55
 62
   256
 40
0.24
340
0
340
0
 62
   256
 40
0.24
300
I, O, Q, S, X, Z
 40
0.48
 90
        3
 40
0.18
 90
        1
 71
     2
340
69
 90
       25
 62
   256
340
5D
 90
       50
 62
   256
 40
0.24
 40
0.0
 40
0.24
 71
     3
340
55
 62
   256
 40
0.24
 90
        1
 40
0.75
 90
        1
300
%<\AcVar ViewType \f "%tc1">% %<\AcVar ViewSectionStartId>%-%<\AcVar ViewSectionEndId>%\PSCALA %<\AcVar ViewScale \f "%sn">%
 71
     4
 62
   256
 62
   257
300
ANSI31
 40
1.0
 90
        0
290
     0
290
     0
 90
        6
 40
0.0
 40
1.570796326794896
 40
0.2617993877991494
 40
1.308996938995747
 40
-0.2617993877991494
 40
1.832595714594046
  0
TABLESTYLE
  5
65
102
{ACAD_XDICTIONARY
360
28C
102
}
102
{ACAD_REACTORS
330
64
102
}
330
64
100
AcDbTableStyle
280
     0
  3
Standard
 70
     0
 71
     0
 40
0.06
 41
0.06
280
     0
281
     0
  7
Standard
140
0.18
170
     2
 62
     0
 63
     7
283
     0
 90
      512
 91
        0
  1

274
    -2
284
     1
 64
     0
275
    -2
285
     1
 65
     0
276
    -2
286
     1
 66
     0
277
    -2
287
     1
 67
     0
278
    -2
288
     1
 68
     0
279
    -2
289
     1
 69
     0
  7
Standard
140
0.25
170
     5
 62
     0
 63
     7
283
     0
 90
      512
 91
        0
  1

274
    -2
284
     1
 64
     0
275
    -2
285
     1
 65
     0
276
    -2
286
     1
 66
     0
277
    -2
287
     1
 67
     0
278
    -2
288
     1
 68
     0
279
    -2
289
     1
 69
     0
  7
Standard
140
0.18
170
     5
 62
     0
 63
     7
283
     0
 90
      512
 91
        0
  1

274
    -2
284
     1
 64
     0
275
    -2
285
     1
 65
     0
276
    -2
286
     1
 66
     0
277
    -2
287
     1
 67
     0
278
    -2
288
     1
 68
     0
279
    -2
289
     1
 69
     0
  0
VISUALSTYLE
  5
2F
102
{ACAD_REACTORS
330
29
102
}
330
29
100
AcDbVisualStyle
  2
2dWireframe
 70
     4
177
     3
291
     0
 70
    58
 90
        0
176
     1
 90
        2
176
     1
 90
        0
176
     1
 90
        0
176
     1
 40
0.6
176
     1
 40
30.0
176
     1
 62
     7
420
 16777215
176
     1
 90
        1
176
     1
 90
        4
176
     1
 62
     7
176
     1
 62
   257
176
     1
 90
        1
176
     1
 90
        1
176
     1
 40
1.0
176
     1
 90
        0
176
     1
 62
   257
176
     1
 40
1.0
176
     1
 90
        1
176
     1
 90
        6
176
     1
 90
        2
176
     1
 62
     7
176
     1
 90
        5
176
     1
 90
        0
176
     1
 90
        0
176
     1
290
     0
176
     1
 90
        1
176
     1
 40
0.0
176
     1
 90
        0
176
     1
290
     1
176
     1
290
     1
176
     1
290
     0
176
     1
290
     0
176
     1
290
     0
176
     1
290
     0
176
     1
290
     0
176
     1
290
     0
176
     1
290
     0
176
     1
 90
       50
176
     1
 40
0.0
176
     1
 40
1.0
176
     1
 90
        0
176
     1
 62
    18
420
        0
176
     1
 90
       50
176
     1
 90
        3
176
     1
 62
     5
420
      255
176
     1
290
     0
176
     1
 90
       50
176
     1
 90
       50
176
     1
 90
       50
176
     1
290
     0
176
     1
 90
       50
176
     1
 62
   256
176
     0
 40
1.0
176
     0
 90
        2
176
     1
  1
strokes_ogs.tif
176
     1
290
     0
176
     1
 40
1.0
176
     1
 40
1.0
176
     1
  0
VISUALSTYLE
  5
2E
102
{ACAD_REACTORS
330
29
102
}
330
29
100
AcDbVisualStyle
  2
Basic
 70
     7
177
     3
291
     1
 70
    58
 90
        1
176
     1
 90
        0
176
     1
 90
        1
176
     1
 90
        0
176
     1
 40
0.6
176
     1
 40
30.0
176
     1
 62
     7
420
 16777215
176
     1
 90
        0
176
     1
 90
        4
176
     1
 62
     7
176
     1
 62
   257
176
     1
 90
        1
176
     1
 90
        1
176
     1
 40
1.0
176
     1
 90
        8
176
     1
 62
     7
176
     1
 40
1.0
176
     1
 90
        1
176
     1
 90
        6
176
     1
 90
        2
176
     1
 62
     7
176
     1
 90
        5
176
     1
 90
        0
176
     1
 90
        0
176
     1
290
     0
176
     1
 90
        1
176
     1
 40
0.0
176
     1
 90
        0
176
     1
290
     0
176
     1
290
     1
176
     1
290
     1
176
     1
290
     0
176
     1
290
     0
176
     1
290
     0
176
     1
290
     0
176
     1
290
     0
176
     1
290
     0
176
     1
 90
       50
176
     1
 40
0.0
176
     1
 40
1.0
176
     1
 90
        0
176
     1
 62
    18
420
        0
176
     1
 90
       50
176
     1
 90
        3
176
     1
 62
     5
420
      255
176
     1
290
     0
176
     1
 90
       50
176
     1
 90
       50
176
     1
 90
       50
176
     1
290
     0
176
     1
 90
       50
176
     1
 62
   256
176
     0
 40
1.0
176
     0
 90
        2
176
     1
  1
strokes_ogs.tif
176
     1
290
     0
176
     1
 40
1.0
176
     1
 40
1.0
176
     1
  0
VISUALSTYLE
  5
35
102
{ACAD_REACTORS
330
29
102
}
330
29
100
AcDbVisualStyle
  2
Brighten
 70
    12
177
     3
291
     1
 70
    58
 90
        2
176
     1
 90
        2
176
     1
 90
        0
176
     1
 90
        0
176
     1
 40
0.6
176
     1
 40
30.0
176
     1
 62
     7
420
 16777215
176
     1
 90
        1
176
     1
 90
        4
176
     1
 62
     7
176
     1
 62
   257
176
     1
 90
        1
176
     1
 90
        1
176
     1
 40
1.0
176
     1
 90
        8
176
     1
 62
     7
176
     1
 40
1.0
176
     1
 90
        1
176
     1
 90
        6
176
     1
 90
        2
176
     1
 62
     7
176
     1
 90
        5
176
     1
 90
        0
176
     1
 90
        0
176
     1
290
     0
176
     1
 90
        1
176
     1
 40
50.0
176
     1
 90
        0
176
     1
290
     0
176
     1
290
     1
176
     1
290
     1
176
     1
290
     0
176
     1
290
     0
176
     1
290
     0
176
     1
290
     0
176
     1
290
     0
176
     1
290
     0
176
     1
 90
       50
176
     1
 40
0.0
176
     1
 40
1.0
176
     1
 90
        0
176
     1
 62
    18
420
        0
176
     1
 90
       50
176
     1
 90
        3
176
     1
 62
     5
420
      255
176
     1
290
     0
176
     1
 90
       50
176
     1
 90
       50
176
     1
 90
       50
176
     1
290
     0
176
     1
 90
       50
176
     1
 62
   256
176
     0
 40
1.0
176
     0
 90
        2
176
     1
  1
strokes_ogs.tif
176
     1
290
     0
176
     1
 40
1.0
176
     1
 40
1.0
176
     1
  0
VISUALSTYLE
  5
39
102
{ACAD_REACTORS
330
29
102
}
330
29
100
AcDbVisualStyle
  2
ColorChange
 70
    16
177
     3
291
     1
 70
    58
 90
        2
176
     1
 90
        2
176
     1
 90
        3
176
     1
 90
        0
176
     1
 40
0.6
176
     1
 40
30.0
176
     1
 62
     8
420
  8421504
176
     1
 90
        1
176
     1
 90
        4
176
     1
 62
     7
176
     1
 62
   257
176
     1
 90
        1
176
     1
 90
        1
176
     1
 40
1.0
176
     1
 90
        8
176
     1
 62
     8
420
  8421504
176
     1
 40
1.0
176
     1
 90
        1
176
     1
 90
        6
176
     1
 90
        2
176
     1
 62
     7
176
     1
 90
        5
176
     1
 90
        0
176
     1
 90
        0
176
     1
290
     0
176
     1
 90
        1
176
     1
 40
0.0
176
     1
 90
        0
176
     1
290
     0
176
     1
290
     1
176
     1
290
     1
176
     1
290
     0
176
     1
290
     0
176
     1
290
     0
176
     1
290
     0
176
     1
290
     0
176
     1
290
     0
176
     1
 90
       50
176
     1
 40
0.0
176
     1
 40
1.0
176
     1
 90
        0
176
     1
 62
    18
420
        0
176
     1
 90
       50
176
     1
 90
        3
176
     1
 62
     5
420
      255
176
     1
290
     0
176
     1
 90
       50
176
     1
 90
       50
176
     1
 90
       50
176
     1
290
     0
176
     1
 90
       50
176
     1
 62
   256
176
     0
 40
1.0
176
     0
 90
        2
176
     1
  1
strokes_ogs.tif
176
     1
290
     0
176
     1
 40
1.0
176
     1
 40
1.0
176
     1
  0
VISUALSTYLE
  5
32
102
{ACAD_REACTORS
330
29
102
}
330
29
100
AcDbVisualStyle
  2
Conceptual
 70
     9
177
     3
291
     0
 70
    58
 90
        3
176
     1
 90
        2
176
     1
 90
        0
176
     1
 90
        0
176
     1
 40
0.6
176
     1
 40
30.0
176
     1
 62
     7
420
 16777215
176
     1
 90
        2
176
     1
 90
        2
176
     1
 62
     7
176
     1
 62
   257
176
     1
 90
        1
176
     1
 90
        1
176
     1
 40
179.0
176
     1
 90
        8
176
     1
 62
     7
176
     1
 40
1.0
176
     1
 90
        1
176
     1
 90
        6
176
     1
 90
        2
176
     1
 62
     7
176
     1
 90
        3
176
     1
 90
        0
176
     1
 90
        0
176
     1
290
     0
176
     1
 90
        1
176
     1
 40
0.0
176
     1
 90
        0
176
     1
290
     0
176
     1
290
     1
176
     1
290
     1
176
     1
290
     0
176
     1
290
     0
176
     1
290
     0
176
     1
290
     0
176
     1
290
     0
176
     1
290
     0
176
     1
 90
       50
176
     1
 40
0.0
176
     1
 40
1.0
176
     1
 90
        0
176
     1
 62
    18
420
        0
176
     1
 90
       50
176
     1
 90
        3
176
     1
 62
     5
420
      255
176
     1
290
     0
176
     1
 90
       50
176
     1
 90
       50
176
     1
 90
       50
176
     1
290
     0
176
     1
 90
       50
176
     1
 62
   256
176
     0
 40
1.0
176
     0
 90
        2
176
     1
  1
strokes_ogs.tif
176
     1
290
     0
176
     1
 40
1.0
176
     1
 40
1.0
176
     1
  0
VISUALSTYLE
  5
34
102
{ACAD_REACTORS
330
29
102
}
330
29
100
AcDbVisualStyle
  2
Dim
 70
    11
177
     3
291
     1
 70
    58
 90
        2
176
     1
 90
        2
176
     1
 90
        0
176
     1
 90
        0
176
     1
 40
0.6
176
     1
 40
30.0
176
     1
 62
     7
420
 16777215
176
     1
 90
        1
176
     1
 90
        4
176
     1
 62
     7
176
     1
 62
   257
176
     1
 90
        1
176
     1
 90
        1
176
     1
 40
1.0
176
     1
 90
        8
176
     1
 62
     7
176
     1
 40
1.0
176
     1
 90
        1
176
     1
 90
        6
176
     1
 90
        2
176
     1
 62
     7
176
     1
 90
        5
176
     1
 90
        0
176
     1
 90
        0
176
     1
290
     0
176
     1
 90
        1
176
     1
 40
-50.0
176
     1
 90
        0
176
     1
290
     0
176
     1
290
     1
176
     1
290
     1
176
     1
290
     0
176
     1
290
     0
176
     1
290
     0
176
     1
290
     0
176
     1
290
     0
176
     1
290
     0
176
     1
 90
       50
176
     1
 40
0.0
176
     1
 40
1.0
176
     1
 90
        0
176
     1
 62
    18
420
        0
176
     1
 90
       50
176
     1
 90
        3
176
     1
 62
     5
420
      255
176
     1
290
     0
176
     1
 90
       50
176
     1
 90
       50
176
     1
 90
       50
176
     1
290
     0
176
     1
 90
       50
176
     1
 62
   256
176
     0
 40
1.0
176
     0
 90
        2
176
     1
  1
strokes_ogs.tif
176
     1
290
     0
176
     1
 40
1.0
176
     1
 40
1.0
176
     1
  0
VISUALSTYLE
  5
41
102
{ACAD_REACTORS
330
29
102
}
330
29
100
AcDbVisualStyle
  2
EdgeColorOff
 70
    22
177
     3
291
     1
 70
    58
 90
        2
176
     0
 90
        2
176
     0
 90
        0
176
     0
 90
        0
176
     0
 40
0.6
176
     0
 40
30.0
176
     0
 62
     7
420
 16777215
176
     0
 90
        1
176
     0
 90
        4
176
     0
 62
     7
176
     0
 62
   257
176
     0
 90
        1
176
     0
 90
        1
176
     0
 40
1.0
176
     0
 90
        8
176
     2
 62
     7
176
     0
 40
1.0
176
     0
 90
        1
176
     0
 90
        6
176
     0
 90
        2
176
     0
 62
     7
176
     0
 90
        5
176
     0
 90
        0
176
     0
 90
        0
176
     0
290
     0
176
     0
 90
        1
176
     0
 40
0.0
176
     0
 90
        0
176
     0
290
     0
176
     0
290
     1
176
     0
290
     1
176
     0
290
     0
176
     0
290
     0
176
     0
290
     0
176
     0
290
     0
176
     0
290
     0
176
     0
290
     0
176
     0
 90
       50
176
     0
 40
0.0
176
     0
 40
1.0
176
     0
 90
        0
176
     0
 62
    18
420
        0
176
     0
 90
       50
176
     0
 90
        3
176
     0
 62
     5
420
      255
176
     0
290
     0
176
     0
 90
       50
176
     0
 90
       50
176
     0
 90
       50
176
     0
290
     0
176
     0
 90
       50
176
     0
 62
   256
176
     0
 40
1.0
176
     0
 90
        2
176
     0
  1
strokes_ogs.tif
176
     0
290
     0
176
     0
 40
1.0
176
     0
 40
1.0
176
     0
  0
VISUALSTYLE
  5
38
102
{ACAD_REACTORS
330
29
102
}
330
29
100
AcDbVisualStyle
  2
Facepattern
 70
    15
177
     3
291
     1
 70
    58
 90
        2
176
     1
 90
        2
176
     1
 90
        0
176
     1
 90
        0
176
     1
 40
0.6
176
     1
 40
30.0
176
     1
 62
     7
420
 16777215
176
     1
 90
        1
176
     1
 90
        4
176
     1
 62
     7
176
     1
 62
   257
176
     1
 90
        1
176
     1
 90
        1
176
     1
 40
1.0
176
     1
 90
        8
176
     1
 62
     7
176
     1
 40
1.0
176
     1
 90
        1
176
     1
 90
        6
176
     1
 90
        2
176
     1
 62
     7
176
     1
 90
        5
176
     1
 90
        0
176
     1
 90
        0
176
     1
290
     0
176
     1
 90
        1
176
     1
 40
0.0
176
     1
 90
        0
176
     1
290
     0
176
     1
290
     1
176
     1
290
     1
176
     1
290
     0
176
     1
290
     0
176
     1
290
     0
176
     1
290
     0
176
     1
290
     0
176
     1
290
     0
176
     1
 90
       50
176
     1
 40
0.0
176
     1
 40
1.0
176
     1
 90
        0
176
     1
 62
    18
420
        0
176
     1
 90
       50
176
     1
 90
        3
176
     1
 62
     5
420
      255
176
     1
290
     0
176
     1
 90
       50
176
     1
 90
       50
176
     1
 90
       50
176
     1
290
     0
176
     1
 90
       50
176
     1
 62
   256
176
     0
 40
1.0
176
     0
 90
        2
176
     1
  1
strokes_ogs.tif
176
     1
290
     0
176
     1
 40
1.0
176
     1
 40
1.0
176
     1
  0
VISUALSTYLE
  5
2A
102
{ACAD_REACTORS
330
29
102
}
330
29
100
AcDbVisualStyle
  2
Flat
 70
     0
177
     3
291
     1
 70
    58
 90
        2
176
     1
 90
        1
176
     1
 90
        1
176
     1
 90
        2
176
     1
 40
0.6
176
     1
 40
30.0
176
     1
 62
     7
420
 16777215
176
     1
 90
        0
176
     1
 90
        0
176
     1
 62
     7
176
     1
 62
   257
176
     1
 90
        1
176
     1
 90
        1
176
     1
 40
1.0
176
     1
 90
        8
176
     1
 62
     7
176
     1
 40
1.0
176
     1
 90
        1
176
     1
 90
        6
176
     1
 90
        2
176
     1
 62
     7
176
     1
 90
        5
176
     1
 90
        0
176
     1
 90
        0
176
     1
290
     0
176
     1
 90
       13
176
     1
 40
0.0
176
     1
 90
        0
176
     1
290
     0
176
     1
290
     1
176
     1
290
     1
176
     1
290
     0
176
     1
290
     0
176
     1
290
     0
176
     1
290
     0
176
     1
290
     0
176
     1
290
     0
176
     1
 90
       50
176
     1
 40
0.0
176
     1
 40
1.0
176
     1
 90
        0
176
     1
 62
    18
420
        0
176
     1
 90
       50
176
     1
 90
        3
176
     1
 62
     5
420
      255
176
     1
290
     0
176
     1
 90
       50
176
     1
 90
       50
176
     1
 90
       50
176
     1
290
     0
176
     1
 90
       50
176
     1
 62
   256
176
     0
 40
1.0
176
     0
 90
        2
176
     1
  1
strokes_ogs.tif
176
     1
290
     0
176
     1
 40
1.0
176
     1
 40
1.0
176
     1
  0
VISUALSTYLE
  5
2B
102
{ACAD_REACTORS
330
29
102
}
330
29
100
AcDbVisualStyle
  2
FlatWithEdges
 70
     1
177
     3
291
     1
 70
    58
 90
        2
176
     1
 90
        1
176
     1
 90
        1
176
     1
 90
        2
176
     1
 40
0.6
176
     1
 40
30.0
176
     1
 62
     7
420
 16777215
176
     1
 90
        1
176
     1
 90
        0
176
     1
 62
     7
176
     1
 62
   257
176
     1
 90
        1
176
     1
 90
        1
176
     1
 40
1.0
176
     1
 90
        0
176
     1
 62
   257
176
     1
 40
1.0
176
     1
 90
        1
176
     1
 90
        6
176
     1
 90
        2
176
     1
 62
     7
176
     1
 90
        5
176
     1
 90
        0
176
     1
 90
        0
176
     1
290
     0
176
     1
 90
       13
176
     1
 40
0.0
176
     1
 90
        0
176
     1
290
     0
176
     1
290
     1
176
     1
290
     1
176
     1
290
     0
176
     1
290
     0
176
     1
290
     0
176
     1
290
     0
176
     1
290
     0
176
     1
290
     0
176
     1
 90
       50
176
     1
 40
0.0
176
     1
 40
1.0
176
     1
 90
        0
176
     1
 62
    18
420
        0
176
     1
 90
       50
176
     1
 90
        3
176
     1
 62
     5
420
      255
176
     1
290
     0
176
     1
 90
       50
176
     1
 90
       50
176
     1
 90
       50
176
     1
290
     0
176
     1
 90
       50
176
     1
 62
   256
176
     0
 40
1.0
176
     0
 90
        2
176
     1
  1
strokes_ogs.tif
176
     1
290
     0
176
     1
 40
1.0
176
     1
 40
1.0
176
     1
  0
VISUALSTYLE
  5
2C
102
{ACAD_REACTORS
330
29
102
}
330
29
100
AcDbVisualStyle
  2
Gouraud
 70
     2
177
     3
291
     1
 70
    58
 90
        2
176
     1
 90
        2
176
     1
 90
        1
176
     1
 90
        2
176
     1
 40
0.6
176
     1
 40
30.0
176
     1
 62
     7
420
 16777215
176
     1
 90
        0
176
     1
 90
        0
176
     1
 62
     7
176
     1
 62
   257
176
     1
 90
        1
176
     1
 90
        1
176
     1
 40
1.0
176
     1
 90
        0
176
     1
 62
     7
176
     1
 40
1.0
176
     1
 90
        1
176
     1
 90
        6
176
     1
 90
        2
176
     1
 62
     7
176
     1
 90
        5
176
     1
 90
        0
176
     1
 90
        0
176
     1
290
     0
176
     1
 90
       13
176
     1
 40
0.0
176
     1
 90
        0
176
     1
290
     0
176
     1
290
     1
176
     1
290
     1
176
     1
290
     0
176
     1
290
     0
176
     1
290
     0
176
     1
290
     0
176
     1
290
     0
176
     1
290
     0
176
     1
 90
       50
176
     1
 40
0.0
176
     1
 40
1.0
176
     1
 90
        0
176
     1
 62
    18
420
        0
176
     1
 90
       50
176
     1
 90
        3
176
     1
 62
     5
420
      255
176
     1
290
     0
176
     1
 90
       50
176
     1
 90
       50
176
     1
 90
       50
176
     1
290
     0
176
     1
 90
       50
176
     1
 62
   256
176
     0
 40
1.0
176
     0
 90
        2
176
     1
  1
strokes_ogs.tif
176
     1
290
     0
176
     1
 40
1.0
176
     1
 40
1.0
176
     1
  0
VISUALSTYLE
  5
2D
102
{ACAD_REACTORS
330
29
102
}
330
29
100
AcDbVisualStyle
  2
GouraudWithEdges
 70
     3
177
     3
291
     1
 70
    58
 90
        2
176
     1
 90
        2
176
     1
 90
        1
176
     1
 90
        2
176
     1
 40
0.6
176
     1
 40
30.0
176
     1
 62
     7
420
 16777215
176
     1
 90
        1
176
     1
 90
        0
176
     1
 62
     7
176
     1
 62
   257
176
     1
 90
        1
176
     1
 90
        1
176
     1
 40
1.0
176
     1
 90
        0
176
     1
 62
   257
176
     1
 40
1.0
176
     1
 90
        1
176
     1
 90
        6
176
     1
 90
        2
176
     1
 62
     7
176
     1
 90
        5
176
     1
 90
        0
176
     1
 90
        0
176
     1
290
     0
176
     1
 90
       13
176
     1
 40
0.0
176
     1
 90
        0
176
     1
290
     0
176
     1
290
     1
176
     1
290
     1
176
     1
290
     0
176
     1
290
     0
176
     1
290
     0
176
     1
290
     0
176
     1
290
     0
176
     1
290
     0
176
     1
 90
       50
176
     1
 40
0.0
176
     1
 40
1.0
176
     1
 90
        0
176
     1
 62
    18
420
        0
176
     1
 90
       50
176
     1
 90
        3
176
     1
 62
     5
420
      255
176
     1
290
     0
176
     1
 90
       50
176
     1
 90
       50
176
     1
 90
       50
176
     1
290
     0
176
     1
 90
       50
176
     1
 62
   256
176
     0
 40
1.0
176
     0
 90
        2
176
     1
  1
strokes_ogs.tif
176
     1
290
     0
176
     1
 40
1.0
176
     1
 40
1.0
176
     1
  0
VISUALSTYLE
  5
31
102
{ACAD_REACTORS
330
29
102
}
330
29
100
AcDbVisualStyle
  2
Hidden
 70
     6
177
     3
291
     0
 70
    58
 90
        1
176
     1
 90
        2
176
     1
 90
        2
176
     1
 90
        0
176
     1
 40
0.6
176
     1
 40
30.0
176
     1
 62
     7
420
 16777215
176
     1
 90
        2
176
     1
 90
        2
176
     1
 62
     7
176
     1
 62
   257
176
     1
 90
        2
176
     1
 90
        1
176
     1
 40
40.0
176
     1
 90
        0
176
     1
 62
   257
176
     1
 40
1.0
176
     1
 90
        1
176
     1
 90
        6
176
     1
 90
        2
176
     1
 62
     7
176
     1
 90
        3
176
     1
 90
        0
176
     1
 90
        0
176
     1
290
     0
176
     1
 90
        1
176
     1
 40
0.0
176
     1
 90
        0
176
     1
290
     0
176
     1
290
     1
176
     1
290
     1
176
     1
290
     0
176
     1
290
     0
176
     1
290
     0
176
     1
290
     0
176
     1
290
     0
176
     1
290
     0
176
     1
 90
       50
176
     1
 40
0.0
176
     1
 40
1.0
176
     1
 90
        0
176
     1
 62
    18
420
        0
176
     1
 90
       50
176
     1
 90
        3
176
     1
 62
     5
420
      255
176
     1
290
     0
176
     1
 90
       50
176
     1
 90
       50
176
     1
 90
       50
176
     1
290
     0
176
     1
 90
       50
176
     1
 62
   256
176
     0
 40
1.0
176
     0
 90
        2
176
     1
  1
strokes_ogs.tif
176
     1
290
     0
176
     1
 40
1.0
176
     1
 40
1.0
176
     1
  0
VISUALSTYLE
  5
3F
102
{ACAD_REACTORS
330
29
102
}
330
29
100
AcDbVisualStyle
  2
JitterOff
 70
    20
177
     3
291
     1
 70
    58
 90
        2
176
     0
 90
        2
176
     0
 90
        0
176
     0
 90
        0
176
     0
 40
0.6
176
     0
 40
30.0
176
     0
 62
     7
420
 16777215
176
     0
 90
        1
176
     0
 90
        4
176
     0
 62
     7
176
     0
 62
   257
176
     0
 90
        1
176
     0
 90
        1
176
     0
 40
1.0
176
     0
 90
       10
176
     2
 62
     7
176
     0
 40
1.0
176
     0
 90
        1
176
     0
 90
        6
176
     0
 90
        2
176
     0
 62
     7
176
     0
 90
        5
176
     0
 90
        0
176
     0
 90
        0
176
     0
290
     0
176
     0
 90
        1
176
     0
 40
0.0
176
     0
 90
        0
176
     0
290
     0
176
     0
290
     1
176
     0
290
     1
176
     0
290
     0
176
     0
290
     0
176
     0
290
     0
176
     0
290
     0
176
     0
290
     0
176
     0
290
     0
176
     0
 90
       50
176
     0
 40
0.0
176
     0
 40
1.0
176
     0
 90
        0
176
     0
 62
    18
420
        0
176
     0
 90
       50
176
     0
 90
        3
176
     0
 62
     5
420
      255
176
     0
290
     0
176
     0
 90
       50
176
     0
 90
       50
176
     0
 90
       50
176
     0
290
     0
176
     0
 90
       50
176
     0
 62
   256
176
     0
 40
1.0
176
     0
 90
        2
176
     0
  1
strokes_ogs.tif
176
     0
290
     0
176
     0
 40
1.0
176
     0
 40
1.0
176
     0
  0
VISUALSTYLE
  5
37
102
{ACAD_REACTORS
330
29
102
}
330
29
100
AcDbVisualStyle
  2
Linepattern
 70
    14
177
     3
291
     1
 70
    58
 90
        2
176
     1
 90
        2
176
     1
 90
        0
176
     1
 90
        0
176
     1
 40
0.6
176
     1
 40
30.0
176
     1
 62
     7
420
 16777215
176
     1
 90
        1
176
     1
 90
        4
176
     1
 62
     7
176
     1
 62
   257
176
     1
 90
        7
176
     1
 90
        7
176
     1
 40
1.0
176
     1
 90
        8
176
     1
 62
     7
176
     1
 40
1.0
176
     1
 90
        1
176
     1
 90
        6
176
     1
 90
        2
176
     1
 62
     7
176
     1
 90
        5
176
     1
 90
        0
176
     1
 90
        0
176
     1
290
     0
176
     1
 90
        1
176
     1
 40
0.0
176
     1
 90
        0
176
     1
290
     0
176
     1
290
     1
176
     1
290
     1
176
     1
290
     0
176
     1
290
     0
176
     1
290
     0
176
     1
290
     0
176
     1
290
     0
176
     1
290
     0
176
     1
 90
       50
176
     1
 40
0.0
176
     1
 40
1.0
176
     1
 90
        0
176
     1
 62
    18
420
        0
176
     1
 90
       50
176
     1
 90
        3
176
     1
 62
     5
420
      255
176
     1
290
     0
176
     1
 90
       50
176
     1
 90
       50
176
     1
 90
       50
176
     1
290
     0
176
     1
 90
       50
176
     1
 62
   256
176
     0
 40
1.0
176
     0
 90
        2
176
     1
  1
strokes_ogs.tif
176
     1
290
     0
176
     1
 40
1.0
176
     1
 40
1.0
176
     1
  0
VISUALSTYLE
  5
40
102
{ACAD_REACTORS
330
29
102
}
330
29
100
AcDbVisualStyle
  2
OverhangOff
 70
    21
177
     3
291
     1
 70
    58
 90
        2
176
     0
 90
        2
176
     0
 90
        0
176
     0
 90
        0
176
     0
 40
0.6
176
     0
 40
30.0
176
     0
 62
     7
420
 16777215
176
     0
 90
        1
176
     0
 90
        4
176
     0
 62
     7
176
     0
 62
   257
176
     0
 90
        1
176
     0
 90
        1
176
     0
 40
1.0
176
     0
 90
        9
176
     2
 62
     7
176
     0
 40
1.0
176
     0
 90
        1
176
     0
 90
        6
176
     0
 90
        2
176
     0
 62
     7
176
     0
 90
        5
176
     0
 90
        0
176
     0
 90
        0
176
     0
290
     0
176
     0
 90
        1
176
     0
 40
0.0
176
     0
 90
        0
176
     0
290
     0
176
     0
290
     1
176
     0
290
     1
176
     0
290
     0
176
     0
290
     0
176
     0
290
     0
176
     0
290
     0
176
     0
290
     0
176
     0
290
     0
176
     0
 90
       50
176
     0
 40
0.0
176
     0
 40
1.0
176
     0
 90
        0
176
     0
 62
    18
420
        0
176
     0
 90
       50
176
     0
 90
        3
176
     0
 62
     5
420
      255
176
     0
290
     0
176
     0
 90
       50
176
     0
 90
       50
176
     0
 90
       50
176
     0
290
     0
176
     0
 90
       50
176
     0
 62
   256
176
     0
 40
1.0
176
     0
 90
        2
176
     0
  1
strokes_ogs.tif
176
     0
290
     0
176
     0
 40
1.0
176
     0
 40
1.0
176
     0
  0
VISUALSTYLE
  5
33
102
{ACAD_REACTORS
330
29
102
}
330
29
100
AcDbVisualStyle
  2
Realistic
 70
     8
177
     3
291
     0
 70
    58
 90
        2
176
     1
 90
        3
176
     1
 90
        0
176
     1
 90
        2
176
     1
 40
0.6
176
     1
 40
30.0
176
     1
 62
     7
420
 16777215
176
     1
 90
        0
176
     1
 90
        0
176
     1
 62
     7
176
     1
 62
   257
176
     1
 90
        1
176
     1
 90
        1
176
     1
 40
1.0
176
     1
 90
        8
176
     1
 62
   257
176
     1
 40
1.0
176
     1
 90
        1
176
     1
 90
        6
176
     1
 90
        2
176
     1
 62
     7
176
     1
 90
        3
176
     1
 90
        0
176
     1
 90
        0
176
     1
290
     0
176
     1
 90
       13
176
     1
 40
0.0
176
     1
 90
        0
176
     1
290
     0
176
     1
290
     1
176
     1
290
     1
176
     1
290
     0
176
     1
290
     0
176
     1
290
     0
176
     1
290
     0
176
     1
290
     0
176
     1
290
     0
176
     1
 90
       50
176
     1
 40
0.0
176
     1
 40
1.0
176
     1
 90
        0
176
     1
 62
    18
420
        0
176
     1
 90
       50
176
     1
 90
        3
176
     1
 62
     5
420
      255
176
     1
290
     0
176
     1
 90
       50
176
     1
 90
       50
176
     1
 90
       50
176
     1
290
     0
176
     1
 90
       50
176
     1
 62
   256
176
     0
 40
1.0
176
     0
 90
        2
176
     1
  1
strokes_ogs.tif
176
     1
290
     0
176
     1
 40
1.0
176
     1
 40
1.0
176
     1
  0
VISUALSTYLE
  5
3E
102
{ACAD_REACTORS
330
29
102
}
330
29
100
AcDbVisualStyle
  2
Shaded
 70
    27
177
     3
291
     0
 70
    58
 90
        2
176
     1
 90
        2
176
     1
 90
        1
176
     1
 90
        2
176
     1
 40
0.6
176
     1
 40
30.0
176
     1
 62
     7
420
 16777215
176
     1
 90
        0
176
     1
 90
        4
176
     1
 62
     7
176
     1
 62
   257
176
     1
 90
        1
176
     1
 90
        1
176
     1
 40
1.0
176
     1
 90
        8
176
     1
 62
   257
176
     1
 40
1.0
176
     1
 90
        1
176
     1
 90
        6
176
     1
 90
        2
176
     1
 62
     8
420
  7895160
176
     1
 90
        3
176
     1
 90
        0
176
     1
 90
        0
176
     1
290
     0
176
     1
 90
        5
176
     1
 40
0.0
176
     1
 90
        0
176
     1
290
     0
176
     1
290
     1
176
     1
290
     1
176
     1
290
     0
176
     1
290
     0
176
     1
290
     0
176
     1
290
     0
176
     1
290
     0
176
     1
290
     0
176
     1
 90
       50
176
     1
 40
0.0
176
     1
 40
1.0
176
     1
 90
        0
176
     1
 62
    18
420
        0
176
     1
 90
       50
176
     1
 90
        3
176
     1
 62
     5
420
      255
176
     1
290
     0
176
     1
 90
       50
176
     1
 90
       50
176
     1
 90
       50
176
     1
290
     0
176
     1
 90
       50
176
     1
 62
   256
176
     0
 40
1.0
176
     0
 90
        2
176
     1
  1
strokes_ogs.tif
176
     1
290
     0
176
     1
 40
1.0
176
     1
 40
1.0
176
     1
  0
VISUALSTYLE
  5
3D
102
{ACAD_REACTORS
330
29
102
}
330
29
100
AcDbVisualStyle
  2
Shaded with edges
 70
    26
177
     3
291
     0
 70
    58
 90
        2
176
     1
 90
        2
176
     1
 90
        1
176
     1
 90
        2
176
     1
 40
0.6
176
     1
 40
30.0
176
     1
 62
     7
420
 16777215
176
     1
 90
        1
176
     1
 90
       10
176
     1
 62
     7
176
     1
 62
   257
176
     1
 90
        2
176
     1
 90
        1
176
     1
 40
1.0
176
     1
 90
        8
176
     1
 62
   257
176
     1
 40
1.0
176
     1
 90
        1
176
     1
 90
        6
176
     1
 90
        2
176
     1
 62
     7
176
     1
 90
        3
176
     1
 90
        0
176
     1
 90
        0
176
     1
290
     0
176
     1
 90
        5
176
     1
 40
0.0
176
     1
 90
        0
176
     1
290
     0
176
     1
290
     1
176
     1
290
     1
176
     1
290
     0
176
     1
290
     0
176
     1
290
     0
176
     1
290
     0
176
     1
290
     0
176
     1
290
     0
176
     1
 90
       50
176
     1
 40
0.0
176
     1
 40
1.0
176
     1
 90
        0
176
     1
 62
    18
420
        0
176
     1
 90
       50
176
     1
 90
        3
176
     1
 62
     5
420
      255
176
     1
290
     0
176
     1
 90
       50
176
     1
 90
       50
176
     1
 90
       50
176
     1
290
     0
176
     1
 90
       50
176
     1
 62
   256
176
     0
 40
1.0
176
     0
 90
        2
176
     1
  1
strokes_ogs.tif
176
     1
290
     0
176
     1
 40
1.0
176
     1
 40
1.0
176
     1
  0
VISUALSTYLE
  5
3A
102
{ACAD_REACTORS
330
29
102
}
330
29
100
AcDbVisualStyle
  2
Shades of Gray
 70
    23
177
     3
291
     0
 70
    58
 90
        2
176
     1
 90
        2
176
     1
 90
        3
176
     1
 90
        0
176
     1
 40
0.6
176
     1
 40
30.0
176
     1
 62
     7
420
 16777215
176
     1
 90
        2
176
     1
 90
        2
176
     1
 62
     7
176
     1
 62
     7
176
     1
 90
        1
176
     1
 90
        1
176
     1
 40
40.0
176
     1
 90
        8
176
     1
 62
     7
176
     1
 40
1.0
176
     1
 90
        1
176
     1
 90
        6
176
     1
 90
        2
176
     1
 62
     7
176
     1
 90
        3
176
     1
 90
        0
176
     1
 90
        0
176
     1
290
     0
176
     1
 90
        1
176
     1
 40
0.0
176
     1
 90
        0
176
     1
290
     0
176
     1
290
     1
176
     1
290
     1
176
     1
290
     0
176
     1
290
     0
176
     1
290
     0
176
     1
290
     0
176
     1
290
     0
176
     1
290
     0
176
     1
 90
       50
176
     1
 40
0.0
176
     1
 40
1.0
176
     1
 90
        0
176
     1
 62
    18
420
        0
176
     1
 90
       50
176
     1
 90
        3
176
     1
 62
     5
420
      255
176
     1
290
     0
176
     1
 90
       50
176
     1
 90
       50
176
     1
 90
       50
176
     1
290
     0
176
     1
 90
       50
176
     1
 62
   256
176
     0
 40
1.0
176
     0
 90
        2
176
     1
  1
strokes_ogs.tif
176
     1
290
     0
176
     1
 40
1.0
176
     1
 40
1.0
176
     1
  0
VISUALSTYLE
  5
3B
102
{ACAD_REACTORS
330
29
102
}
330
29
100
AcDbVisualStyle
  2
Sketchy
 70
    24
177
     3
291
     0
 70
    58
 90
        1
176
     1
 90
        2
176
     1
 90
        2
176
     1
 90
        0
176
     1
 40
0.6
176
     1
 40
30.0
176
     1
 62
     7
420
 16777215
176
     1
 90
        2
176
     1
 90
        2
176
     1
 62
     7
176
     1
 62
     7
176
     1
 90
        1
176
     1
 90
        1
176
     1
 40
40.0
176
     1
 90
       11
176
     1
 62
     7
176
     1
 40
1.0
176
     1
 90
        1
176
     1
 90
        6
176
     1
 90
        2
176
     1
 62
     7
176
     1
 90
        6
176
     1
 90
        0
176
     1
 90
        0
176
     1
290
     0
176
     1
 90
        1
176
     1
 40
0.0
176
     1
 90
        0
176
     1
290
     0
176
     1
290
     1
176
     1
290
     1
176
     1
290
     0
176
     1
290
     0
176
     1
290
     0
176
     1
290
     0
176
     1
290
     0
176
     1
290
     0
176
     1
 90
       50
176
     1
 40
0.0
176
     1
 40
1.0
176
     1
 90
        0
176
     1
 62
    18
420
        0
176
     1
 90
       50
176
     1
 90
        3
176
     1
 62
     5
420
      255
176
     1
290
     0
176
     1
 90
       50
176
     1
 90
       50
176
     1
 90
       50
176
     1
290
     0
176
     1
 90
       50
176
     1
 62
   256
176
     0
 40
1.0
176
     0
 90
        2
176
     1
  1
strokes_ogs.tif
176
     1
290
     0
176
     1
 40
1.0
176
     1
 40
1.0
176
     1
  0
VISUALSTYLE
  5
36
102
{ACAD_REACTORS
330
29
102
}
330
29
100
AcDbVisualStyle
  2
Thicken
 70
    13
177
     3
291
     1
 70
    58
 90
        2
176
     1
 90
        2
176
     1
 90
        0
176
     1
 90
        0
176
     1
 40
0.6
176
     1
 40
30.0
176
     1
 62
     7
420
 16777215
176
     1
 90
        1
176
     1
 90
        4
176
     1
 62
     7
176
     1
 62
   257
176
     1
 90
        1
176
     1
 90
        1
176
     1
 40
1.0
176
     1
 90
       12
176
     1
 62
     7
176
     1
 40
1.0
176
     1
 90
        1
176
     1
 90
        6
176
     1
 90
        2
176
     1
 62
     7
176
     1
 90
        5
176
     1
 90
        0
176
     1
 90
        0
176
     1
290
     0
176
     1
 90
        1
176
     1
 40
0.0
176
     1
 90
        0
176
     1
290
     0
176
     1
290
     1
176
     1
290
     1
176
     1
290
     0
176
     1
290
     0
176
     1
290
     0
176
     1
290
     0
176
     1
290
     0
176
     1
290
     0
176
     1
 90
       50
176
     1
 40
0.0
176
     1
 40
1.0
176
     1
 90
        0
176
     1
 62
    18
420
        0
176
     1
 90
       50
176
     1
 90
        3
176
     1
 62
     5
420
      255
176
     1
290
     0
176
     1
 90
       50
176
     1
 90
       50
176
     1
 90
       50
176
     1
290
     0
176
     1
 90
       50
176
     1
 62
   256
176
     0
 40
1.0
176
     0
 90
        2
176
     1
  1
strokes_ogs.tif
176
     1
290
     0
176
     1
 40
1.0
176
     1
 40
1.0
176
     1
  0
VISUALSTYLE
  5
30
102
{ACAD_REACTORS
330
29
102
}
330
29
100
AcDbVisualStyle
  2
Wireframe
 70
     5
177
     3
291
     0
 70
    58
 90
        0
176
     1
 90
        2
176
     1
 90
        0
176
     1
 90
        0
176
     1
 40
0.6
176
     1
 40
30.0
176
     1
 62
     7
420
 16777215
176
     1
 90
        1
176
     1
 90
        4
176
     1
 62
     7
176
     1
 62
   257
176
     1
 90
        1
176
     1
 90
        1
176
     1
 40
1.0
176
     1
 90
        0
176
     1
 62
   257
176
     1
 40
1.0
176
     1
 90
        1
176
     1
 90
        6
176
     1
 90
        2
176
     1
 62
     7
176
     1
 90
        3
176
     1
 90
        0
176
     1
 90
        0
176
     1
290
     0
176
     1
 90
        1
176
     1
 40
0.0
176
     1
 90
        0
176
     1
290
     0
176
     1
290
     1
176
     1
290
     1
176
     1
290
     0
176
     1
290
     0
176
     1
290
     0
176
     1
290
     0
176
     1
290
     0
176
     1
290
     0
176
     1
 90
       50
176
     1
 40
0.0
176
     1
 40
1.0
176
     1
 90
        0
176
     1
 62
    18
420
        0
176
     1
 90
       50
176
     1
 90
        3
176
     1
 62
     5
420
      255
176
     1
290
     0
176
     1
 90
       50
176
     1
 90
       50
176
     1
 90
       50
176
     1
290
     0
176
     1
 90
       50
176
     1
 62
   256
176
     0
 40
1.0
176
     0
 90
        2
176
     1
  1
strokes_ogs.tif
176
     1
290
     0
176
     1
 40
1.0
176
     1
 40
1.0
176
     1
  0
VISUALSTYLE
  5
3C
102
{ACAD_REACTORS
330
29
102
}
330
29
100
AcDbVisualStyle
  2
X-Ray
 70
    25
177
     3
291
     0
 70
    58
 90
        2
176
     1
 90
        2
176
     1
 90
        1
176
     1
 90
        1
176
     1
 40
0.5
176
     1
 40
30.0
176
     1
 62
     7
420
 16777215
176
     1
 90
        1
176
     1
 90
        0
176
     1
 62
     7
176
     1
 62
   257
176
     1
 90
        1
176
     1
 90
        1
176
     1
 40
1.0
176
     1
 90
        8
176
     1
 62
     7
176
     1
 40
1.0
176
     1
 90
        1
176
     1
 90
        6
176
     1
 90
        2
176
     1
 62
     7
176
     1
 90
        3
176
     1
 90
        0
176
     1
 90
        0
176
     1
290
     0
176
     1
 90
       13
176
     1
 40
0.0
176
     1
 90
        0
176
     1
290
     0
176
     1
290
     1
176
     1
290
     1
176
     1
290
     0
176
     1
290
     0
176
     1
290
     0
176
     1
290
     0
176
     1
290
     0
176
     1
290
     0
176
     1
 90
       50
176
     1
 40
0.0
176
     1
 40
1.0
176
     1
 90
        0
176
     1
 62
    18
420
        0
176
     1
 90
       50
176
     1
 90
        3
176
     1
 62
     5
420
      255
176
     1
290
     0
176
     1
 90
       50
176
     1
 90
       50
176
     1
 90
       50
176
     1
290
     0
176
     1
 90
       50
176
     1
 62
   256
176
     0
 40
1.0
176
     0
 90
        2
176
     1
  1
strokes_ogs.tif
176
     1
290
     0
176
     1
 40
1.0
176
     1
 40
1.0
176
     1
  0
DICTIONARYVAR
  5
81
102
{ACAD_REACTORS
330
7C
102
}
330
7C
100
DictionaryVariables
280
     0
  1
1:1
  0
DICTIONARYVAR
  5
7E
102
{ACAD_REACTORS
330
7C
102
}
330
7C
100
DictionaryVariables
280
     0
  1
STANDARD
  0
DICTIONARYVAR
  5
7D
102
{ACAD_REACTORS
330
7C
102
}
330
7C
100
DictionaryVariables
280
     0
  1
STANDARD
  0
DICTIONARYVAR
  5
7F
102
{ACAD_REACTORS
330
7C
102
}
330
7C
100
DictionaryVariables
280
     0
  1
Imperial24
  0
DICTIONARYVAR
  5
80
102
{ACAD_REACTORS
330
7C
102
}
330
7C
100
DictionaryVariables
280
     0
  1
Imperial24
  0
XRECORD
  5
289
102
{ACAD_REACTORS
330
285
102
}
330
285
100
AcDbXrecord
280
     1
  1
BUILDING_ID
  1
Progetto per messa in tavola DXF, DWG
  1
FLOOR_ID
  1
694395
  0
XRECORD
  5
287
102
{ACAD_REACTORS
330
285
102
}
330
285
100
AcDbXrecord
280
     1
  1
-2001160
  1
Apparecchi idraulici
  0
XRECORD
  5
288
102
{ACAD_REACTORS
330
285
102
}
330
285
100
AcDbXrecord
280
     1
  1
790271
  1
Body
  0
XRECORD
  5
286
102
{ACAD_REACTORS
330
285
102
}
330
285
100
AcDbXrecord
280
     1
  1
859151
  1
Automatic flow rate regulator valve_Caleffi_121 DN15 : 1/2''
  0
DICTIONARY
  5
1A
330
19
100
AcDbDictionary
280
     1
281
     1
  3
BUMPTILE
360
1C
  3
DIFFUSETILE
360
1B
  3
OPACITYTILE
360
1F
  3
REFLECTIONTILE
360
1E
  3
REFRACTIONTILE
360
20
  3
SPECULARTILE
360
1D
  0
DICTIONARY
  5
12
330
11
100
AcDbDictionary
280
     1
281
     1
  3
BUMPTILE
360
14
  3
DIFFUSETILE
360
13
  3
OPACITYTILE
360
17
  3
REFLECTIONTILE
360
16
  3
REFRACTIONTILE
360
18
  3
SPECULARTILE
360
15
  0
DICTIONARY
  5
22
330
21
100
AcDbDictionary
280
     1
281
     1
  3
BUMPTILE
360
24
  3
DIFFUSETILE
360
23
  3
OPACITYTILE
360
27
  3
REFLECTIONTILE
360
26
  3
REFRACTIONTILE
360
28
  3
SPECULARTILE
360
25
  0
DICTIONARY
  5
28C
330
65
100
AcDbDictionary
280
     1
281
     1
  3
ACAD_ROUNDTRIP_2008_TABLESTYLE_CELLSTYLEMAP
360
28D
  0
XRECORD
  5
1C
102
{ACAD_REACTORS
330
1A
102
}
330
1A
100
AcDbXrecord
280
     1
270
     1
271
     1
  0
XRECORD
  5
1B
102
{ACAD_REACTORS
330
1A
102
}
330
1A
100
AcDbXrecord
280
     1
270
     1
271
     1
  0
XRECORD
  5
1F
102
{ACAD_REACTORS
330
1A
102
}
330
1A
100
AcDbXrecord
280
     1
270
     1
271
     1
  0
XRECORD
  5
1E
102
{ACAD_REACTORS
330
1A
102
}
330
1A
100
AcDbXrecord
280
     1
270
     1
271
     1
  0
XRECORD
  5
20
102
{ACAD_REACTORS
330
1A
102
}
330
1A
100
AcDbXrecord
280
     1
270
     1
271
     1
  0
XRECORD
  5
1D
102
{ACAD_REACTORS
330
1A
102
}
330
1A
100
AcDbXrecord
280
     1
270
     1
271
     1
  0
XRECORD
  5
14
102
{ACAD_REACTORS
330
12
102
}
330
12
100
AcDbXrecord
280
     1
270
     1
271
     1
  0
XRECORD
  5
13
102
{ACAD_REACTORS
330
12
102
}
330
12
100
AcDbXrecord
280
     1
270
     1
271
     1
  0
XRECORD
  5
17
102
{ACAD_REACTORS
330
12
102
}
330
12
100
AcDbXrecord
280
     1
270
     1
271
     1
  0
XRECORD
  5
16
102
{ACAD_REACTORS
330
12
102
}
330
12
100
AcDbXrecord
280
     1
270
     1
271
     1
  0
XRECORD
  5
18
102
{ACAD_REACTORS
330
12
102
}
330
12
100
AcDbXrecord
280
     1
270
     1
271
     1
  0
XRECORD
  5
15
102
{ACAD_REACTORS
330
12
102
}
330
12
100
AcDbXrecord
280
     1
270
     1
271
     1
  0
XRECORD
  5
24
102
{ACAD_REACTORS
330
22
102
}
330
22
100
AcDbXrecord
280
     1
270
     1
271
     1
  0
XRECORD
  5
23
102
{ACAD_REACTORS
330
22
102
}
330
22
100
AcDbXrecord
280
     1
270
     1
271
     1
  0
XRECORD
  5
27
102
{ACAD_REACTORS
330
22
102
}
330
22
100
AcDbXrecord
280
     1
270
     1
271
     1
  0
XRECORD
  5
26
102
{ACAD_REACTORS
330
22
102
}
330
22
100
AcDbXrecord
280
     1
270
     1
271
     1
  0
XRECORD
  5
28
102
{ACAD_REACTORS
330
22
102
}
330
22
100
AcDbXrecord
280
     1
270
     1
271
     1
  0
XRECORD
  5
25
102
{ACAD_REACTORS
330
22
102
}
330
22
100
AcDbXrecord
280
     1
270
     1
271
     1
  0
CELLSTYLEMAP
  5
28D
102
{ACAD_REACTORS
330
28C
102
}
330
28C
100
AcDbCellStyleMap
 90
        3
300
CELLSTYLE
  1
TABLEFORMAT_BEGIN
 90
        5
170
     1
 91
        0
 92
    32768
 62
   257
 93
        1
300
CONTENTFORMAT
  1
CONTENTFORMAT_BEGIN
 90
        0
 91
        0
 92
      512
 93
        0
300

 40
0.0
140
1.0
 94
        5
 62
     0
340
55
144
0.25
309
CONTENTFORMAT_END
171
     0
 94
        0
309
TABLEFORMAT_END
  1
CELLSTYLE_BEGIN
 90
        1
 91
        1
300
_TITLE
309
CELLSTYLE_END
300
CELLSTYLE
  1
TABLEFORMAT_BEGIN
 90
        5
170
     1
 91
        0
 92
        0
 62
   257
 93
        1
300
CONTENTFORMAT
  1
CONTENTFORMAT_BEGIN
 90
        0
 91
        0
 92
      512
 93
        0
300

 40
0.0
140
1.0
 94
        5
 62
     0
340
55
144
0.18
309
CONTENTFORMAT_END
171
     0
 94
        0
309
TABLEFORMAT_END
  1
CELLSTYLE_BEGIN
 90
        2
 91
        1
300
_HEADER
309
CELLSTYLE_END
300
CELLSTYLE
  1
TABLEFORMAT_BEGIN
 90
        5
170
     1
 91
        0
 92
        0
 62
   257
 93
        1
300
CONTENTFORMAT
  1
CONTENTFORMAT_BEGIN
 90
        0
 91
        0
 92
      512
 93
        0
300

 40
0.0
140
1.0
 94
        2
 62
     0
340
55
144
0.18
309
CONTENTFORMAT_END
171
     0
 94
        0
309
TABLEFORMAT_END
  1
CELLSTYLE_BEGIN
 90
        3
 91
        2
300
_DATA
309
CELLSTYLE_END
  0
ENDSEC
  0
EOF
