  0
SECTION
  2
HEADER
  9
$ACADVER
  1
AC1027
  9
$ACADMAINTVER
 70
    20
  9
$DWGCODEPAGE
  3
ANSI_1252
  9
$REQUIREDVERSIONS
160
                 0
  9
$INSBASE
 10
0.0
 20
0.0
 30
0.0
  9
$EXTMIN
 10
485.6664074432008
 20
923.3445242307377
 30
-0.00000001
  9
$EXTMAX
 10
1486.114353943103
 20
2493.001484375052
 30
0.00000001
  9
$LIMMIN
 10
0.0
 20
0.0
  9
$LIMMAX
 10
12.0
 20
9.0
  9
$ORTHOMODE
 70
     0
  9
$REGENMODE
 70
     1
  9
$FILLMODE
 70
     1
  9
$QTEXTMODE
 70
     0
  9
$MIRRTEXT
 70
     0
  9
$LTSCALE
 40
1.0
  9
$ATTMODE
 70
     1
  9
$TEXTSIZE
 40
0.2
  9
$TRACEWID
 40
0.05
  9
$TEXTSTYLE
  7
Standard
  9
$CLAYER
  8
0
  9
$CELTYPE
  6
ByLayer
  9
$CECOLOR
 62
   256
  9
$CELTSCALE
 40
1.0
  9
$DISPSILH
 70
     0
  9
$DIMSCALE
 40
1.0
  9
$DIMASZ
 40
0.18
  9
$DIMEXO
 40
0.0625
  9
$DIMDLI
 40
0.38
  9
$DIMRND
 40
0.0
  9
$DIMDLE
 40
0.0
  9
$DIMEXE
 40
0.18
  9
$DIMTP
 40
0.0
  9
$DIMTM
 40
0.0
  9
$DIMTXT
 40
0.18
  9
$DIMCEN
 40
0.09
  9
$DIMTSZ
 40
0.0
  9
$DIMTOL
 70
     0
  9
$DIMLIM
 70
     0
  9
$DIMTIH
 70
     1
  9
$DIMTOH
 70
     1
  9
$DIMSE1
 70
     0
  9
$DIMSE2
 70
     0
  9
$DIMTAD
 70
     0
  9
$DIMZIN
 70
     0
  9
$DIMBLK
  1

  9
$DIMASO
 70
     1
  9
$DIMSHO
 70
     1
  9
$DIMPOST
  1

  9
$DIMAPOST
  1

  9
$DIMALT
 70
     0
  9
$DIMALTD
 70
     2
  9
$DIMALTF
 40
25.4
  9
$DIMLFAC
 40
1.0
  9
$DIMTOFL
 70
     0
  9
$DIMTVP
 40
0.0
  9
$DIMTIX
 70
     0
  9
$DIMSOXD
 70
     0
  9
$DIMSAH
 70
     0
  9
$DIMBLK1
  1

  9
$DIMBLK2
  1

  9
$DIMSTYLE
  2
Standard
  9
$DIMCLRD
 70
     0
  9
$DIMCLRE
 70
     0
  9
$DIMCLRT
 70
     0
  9
$DIMTFAC
 40
1.0
  9
$DIMGAP
 40
0.09
  9
$DIMJUST
 70
     0
  9
$DIMSD1
 70
     0
  9
$DIMSD2
 70
     0
  9
$DIMTOLJ
 70
     1
  9
$DIMTZIN
 70
     0
  9
$DIMALTZ
 70
     0
  9
$DIMALTTZ
 70
     0
  9
$DIMUPT
 70
     0
  9
$DIMDEC
 70
     4
  9
$DIMTDEC
 70
     4
  9
$DIMALTU
 70
     2
  9
$DIMALTTD
 70
     2
  9
$DIMTXSTY
  7
Standard
  9
$DIMAUNIT
 70
     0
  9
$DIMADEC
 70
     0
  9
$DIMALTRND
 40
0.0
  9
$DIMAZIN
 70
     0
  9
$DIMDSEP
 70
    46
  9
$DIMATFIT
 70
     3
  9
$DIMFRAC
 70
     0
  9
$DIMLDRBLK
  1

  9
$DIMLUNIT
 70
     2
  9
$DIMLWD
 70
    -2
  9
$DIMLWE
 70
    -2
  9
$DIMTMOVE
 70
     0
  9
$DIMFXL
 40
1.0
  9
$DIMFXLON
 70
     0
  9
$DIMJOGANG
 40
0.7853981633974483
  9
$DIMTFILL
 70
     0
  9
$DIMTFILLCLR
 70
     0
  9
$DIMARCSYM
 70
     0
  9
$DIMLTYPE
  6

  9
$DIMLTEX1
  6

  9
$DIMLTEX2
  6

  9
$DIMTXTDIRECTION
 70
     0
  9
$LUNITS
 70
     2
  9
$LUPREC
 70
     4
  9
$SKETCHINC
 40
0.1
  9
$FILLETRAD
 40
0.0
  9
$AUNITS
 70
     0
  9
$AUPREC
 70
     0
  9
$MENU
  1
.
  9
$ELEVATION
 40
0.0
  9
$PELEVATION
 40
0.0
  9
$THICKNESS
 40
0.0
  9
$LIMCHECK
 70
     0
  9
$CHAMFERA
 40
0.0
  9
$CHAMFERB
 40
0.0
  9
$CHAMFERC
 40
0.0
  9
$CHAMFERD
 40
0.0
  9
$SKPOLY
 70
     0
  9
$TDCREATE
 40
2457548.630408473
  9
$TDUCREATE
 40
2457548.547075139
  9
$TDUPDATE
 40
2457548.630408473
  9
$TDUUPDATE
 40
2457548.547075139
  9
$TDINDWG
 40
0.0000216898
  9
$TDUSRTIMER
 40
0.0000216898
  9
$USRTIMER
 70
     1
  9
$ANGBASE
 50
0.0
  9
$ANGDIR
 70
     0
  9
$PDMODE
 70
     0
  9
$PDSIZE
 40
0.0
  9
$PLINEWID
 40
0.0
  9
$SPLFRAME
 70
     0
  9
$SPLINETYPE
 70
     6
  9
$SPLINESEGS
 70
     8
  9
$HANDSEED
  5
293
  9
$SURFTAB1
 70
     6
  9
$SURFTAB2
 70
     6
  9
$SURFTYPE
 70
     6
  9
$SURFU
 70
     6
  9
$SURFV
 70
     6
  9
$UCSBASE
  2

  9
$UCSNAME
  2

  9
$UCSORG
 10
0.0
 20
0.0
 30
0.0
  9
$UCSXDIR
 10
1.0
 20
0.0
 30
0.0
  9
$UCSYDIR
 10
0.0
 20
1.0
 30
0.0
  9
$UCSORTHOREF
  2

  9
$UCSORTHOVIEW
 70
     0
  9
$UCSORGTOP
 10
0.0
 20
0.0
 30
0.0
  9
$UCSORGBOTTOM
 10
0.0
 20
0.0
 30
0.0
  9
$UCSORGLEFT
 10
0.0
 20
0.0
 30
0.0
  9
$UCSORGRIGHT
 10
0.0
 20
0.0
 30
0.0
  9
$UCSORGFRONT
 10
0.0
 20
0.0
 30
0.0
  9
$UCSORGBACK
 10
0.0
 20
0.0
 30
0.0
  9
$PUCSBASE
  2

  9
$PUCSNAME
  2

  9
$PUCSORG
 10
0.0
 20
0.0
 30
0.0
  9
$PUCSXDIR
 10
1.0
 20
0.0
 30
0.0
  9
$PUCSYDIR
 10
0.0
 20
1.0
 30
0.0
  9
$PUCSORTHOREF
  2

  9
$PUCSORTHOVIEW
 70
     0
  9
$PUCSORGTOP
 10
0.0
 20
0.0
 30
0.0
  9
$PUCSORGBOTTOM
 10
0.0
 20
0.0
 30
0.0
  9
$PUCSORGLEFT
 10
0.0
 20
0.0
 30
0.0
  9
$PUCSORGRIGHT
 10
0.0
 20
0.0
 30
0.0
  9
$PUCSORGFRONT
 10
0.0
 20
0.0
 30
0.0
  9
$PUCSORGBACK
 10
0.0
 20
0.0
 30
0.0
  9
$USERI1
 70
     0
  9
$USERI2
 70
     0
  9
$USERI3
 70
     0
  9
$USERI4
 70
     0
  9
$USERI5
 70
     0
  9
$USERR1
 40
0.0
  9
$USERR2
 40
0.0
  9
$USERR3
 40
0.0
  9
$USERR4
 40
0.0
  9
$USERR5
 40
0.0
  9
$WORLDVIEW
 70
     1
  9
$SHADEDGE
 70
     3
  9
$SHADEDIF
 70
    70
  9
$TILEMODE
 70
     1
  9
$MAXACTVP
 70
    64
  9
$PINSBASE
 10
0.0
 20
0.0
 30
0.0
  9
$PLIMCHECK
 70
     0
  9
$PEXTMIN
 10
1.000000000000000E+20
 20
1.000000000000000E+20
 30
1.000000000000000E+20
  9
$PEXTMAX
 10
-1.000000000000000E+20
 20
-1.000000000000000E+20
 30
-1.000000000000000E+20
  9
$PLIMMIN
 10
0.0
 20
0.0
  9
$PLIMMAX
 10
12.0
 20
9.0
  9
$UNITMODE
 70
     0
  9
$VISRETAIN
 70
     1
  9
$PLINEGEN
 70
     0
  9
$PSLTSCALE
 70
     1
  9
$TREEDEPTH
 70
  3020
  9
$CMLSTYLE
  2
Standard
  9
$CMLJUST
 70
     0
  9
$CMLSCALE
 40
1.0
  9
$PROXYGRAPHICS
 70
     1
  9
$MEASUREMENT
 70
     1
  9
$CELWEIGHT
370
    -1
  9
$ENDCAPS
280
     0
  9
$JOINSTYLE
280
     0
  9
$LWDISPLAY
290
     0
  9
$INSUNITS
 70
     4
  9
$HYPERLINKBASE
  1

  9
$STYLESHEET
  1

  9
$XEDIT
290
     1
  9
$CEPSNTYPE
380
     0
  9
$PSTYLEMODE
290
     1
  9
$FINGERPRINTGUID
  2
{F4ABE9CA-5C3E-4EEC-89B1-892BC63A0D51}
  9
$VERSIONGUID
  2
{7C63ABCA-20F5-4D58-A90F-2117A0A7275B}
  9
$EXTNAMES
290
     1
  9
$PSVPSCALE
 40
0.0
  9
$OLESTARTUP
290
     0
  9
$SORTENTS
280
   127
  9
$INDEXCTL
280
     0
  9
$HIDETEXT
280
     1
  9
$XCLIPFRAME
280
     2
  9
$HALOGAP
280
     0
  9
$OBSCOLOR
 70
   257
  9
$OBSLTYPE
280
     0
  9
$INTERSECTIONDISPLAY
280
     0
  9
$INTERSECTIONCOLOR
 70
   257
  9
$DIMASSOC
280
     2
  9
$PROJECTNAME
  1

  9
$CAMERADISPLAY
290
     0
  9
$LENSLENGTH
 40
50.0
  9
$CAMERAHEIGHT
 40
0.0
  9
$STEPSPERSEC
 40
2.0
  9
$STEPSIZE
 40
6.0
  9
$3DDWFPREC
 40
2.0
  9
$PSOLWIDTH
 40
0.25
  9
$PSOLHEIGHT
 40
4.0
  9
$LOFTANG1
 40
1.570796326794896
  9
$LOFTANG2
 40
1.570796326794896
  9
$LOFTMAG1
 40
0.0
  9
$LOFTMAG2
 40
0.0
  9
$LOFTPARAM
 70
     7
  9
$LOFTNORMALS
280
     1
  9
$LATITUDE
 40
37.795
  9
$LONGITUDE
 40
-122.394
  9
$NORTHDIRECTION
 40
0.0
  9
$TIMEZONE
 70
 -8000
  9
$LIGHTGLYPHDISPLAY
280
     1
  9
$TILEMODELIGHTSYNCH
280
     1
  9
$CMATERIAL
347
11
  9
$SOLIDHIST
280
     0
  9
$SHOWHIST
280
     1
  9
$DWFFRAME
280
     2
  9
$DGNFRAME
280
     0
  9
$REALWORLDSCALE
290
     1
  9
$INTERFERECOLOR
 62
     1
  9
$INTERFEREOBJVS
345
33
  9
$INTERFEREVPVS
346
30
  9
$CSHADOW
280
     0
  9
$SHADOWPLANELOCATION
 40
0.0
  0
ENDSEC
  0
SECTION
  2
CLASSES
  0
CLASS
  1
ACDBDICTIONARYWDFLT
  2
AcDbDictionaryWithDefault
  3
ObjectDBX Classes
 90
        0
 91
        1
280
     0
281
     0
  0
CLASS
  1
MATERIAL
  2
AcDbMaterial
  3
ObjectDBX Classes
 90
     1153
 91
        3
280
     0
281
     0
  0
CLASS
  1
VISUALSTYLE
  2
AcDbVisualStyle
  3
ObjectDBX Classes
 90
     4095
 91
       24
280
     0
281
     0
  0
CLASS
  1
SCALE
  2
AcDbScale
  3
ObjectDBX Classes
 90
     1153
 91
       17
280
     0
281
     0
  0
CLASS
  1
TABLESTYLE
  2
AcDbTableStyle
  3
ObjectDBX Classes
 90
     4095
 91
        1
280
     0
281
     0
  0
CLASS
  1
MLEADERSTYLE
  2
AcDbMLeaderStyle
  3
ACDB_MLEADERSTYLE_CLASS
 90
     4095
 91
        1
280
     0
281
     0
  0
CLASS
  1
ACDBSECTIONVIEWSTYLE
  2
AcDbSectionViewStyle
  3
ObjectDBX Classes
 90
     1025
 91
        1
280
     0
281
     0
  0
CLASS
  1
ACDBDETAILVIEWSTYLE
  2
AcDbDetailViewStyle
  3
ObjectDBX Classes
 90
     1025
 91
        1
280
     0
281
     0
  0
CLASS
  1
RASTERVARIABLES
  2
AcDbRasterVariables
  3
ISM
 90
        0
 91
        1
280
     0
281
     0
  0
CLASS
  1
DICTIONARYVAR
  2
AcDbDictionaryVar
  3
ObjectDBX Classes
 90
        0
 91
        5
280
     0
281
     0
  0
CLASS
  1
CELLSTYLEMAP
  2
AcDbCellStyleMap
  3
ObjectDBX Classes
 90
     1152
 91
        2
280
     0
281
     0
  0
CLASS
  1
SORTENTSTABLE
  2
AcDbSortentsTable
  3
ObjectDBX Classes
 90
        0
 91
        1
280
     0
281
     0
  0
ENDSEC
  0
SECTION
  2
TABLES
  0
TABLE
  2
VPORT
  5
8
330
0
100
AcDbSymbolTable
 70
     1
  0
VPORT
  5
57
330
8
100
AcDbSymbolTableRecord
100
AcDbViewportTableRecord
  2
*Active
 70
     0
 10
0.0
 20
0.0
 11
1.0
 21
1.0
 12
985.890380693152
 22
1708.173004302895
 13
0.0
 23
0.0
 14
1.0
 24
1.0
 15
0.0
 25
0.0
 16
0.0
 26
0.0
 36
1.0
 17
0.0
 27
0.0
 37
0.0
 40
1569.656960144314
 41
0.6373672540578048
 42
50.0
 43
0.0
 44
0.0
 50
0.0
 51
0.0
 71
     0
 72
  1000
 73
     1
 74
     1
 75
     0
 76
     0
 77
     0
 78
     0
281
     0
 65
     1
110
0.0
120
0.0
130
0.0
111
1.0
121
0.0
131
0.0
112
0.0
122
1.0
132
0.0
 79
     0
146
0.0
 60
     3
 61
     5
292
     1
282
     1
141
0.0
142
0.0
 63
   250
421
  3355443
  0
ENDTAB
  0
TABLE
  2
LTYPE
  5
5
330
0
100
AcDbSymbolTable
 70
     3
  0
LTYPE
  5
5B
330
5
100
AcDbSymbolTableRecord
100
AcDbLinetypeTableRecord
  2
ByBlock
 70
     0
  3

 72
    65
 73
     0
 40
0.0
  0
LTYPE
  5
5C
330
5
100
AcDbSymbolTableRecord
100
AcDbLinetypeTableRecord
  2
ByLayer
 70
     0
  3

 72
    65
 73
     0
 40
0.0
  0
LTYPE
  5
5D
330
5
100
AcDbSymbolTableRecord
100
AcDbLinetypeTableRecord
  2
Continuous
 70
     0
  3
Solid line
 72
    65
 73
     0
 40
0.0
  0
LTYPE
  5
69
330
5
100
AcDbSymbolTableRecord
100
AcDbLinetypeTableRecord
  2
PHANTOM2
 70
     0
  3
___ _ _ ___ _ _ ___ _ _ ___ _ _
 72
    65
 73
     6
 40
1.25
 49
0.625
 74
     0
 49
-0.125
 74
     0
 49
0.125
 74
     0
 49
-0.125
 74
     0
 49
0.125
 74
     0
 49
-0.125
 74
     0
  0
LTYPE
  5
86
330
5
100
AcDbSymbolTableRecord
100
AcDbLinetypeTableRecord
  2
Nascosto 1_5 mm
 70
     0
  3

 72
    65
 73
     2
 40
2.2
 49
1.5
 74
     0
 49
-0.7000000000000001
 74
     0
  0
ENDTAB
  0
TABLE
  2
LAYER
  5
2
330
0
100
AcDbSymbolTable
 70
     4
  0
LAYER
  5
54
330
2
100
AcDbSymbolTableRecord
100
AcDbLayerTableRecord
  2
0
 70
     0
 62
     7
  6
Continuous
370
    -3
390
F
347
21
348
0
  0
LAYER
  5
85
330
2
100
AcDbSymbolTableRecord
100
AcDbLayerTableRecord
  2
P-SANR-FIXT
 70
     0
 62
     6
  6
Continuous
370
    18
390
F
347
21
348
0
  0
LAYER
  5
88
330
2
100
AcDbSymbolTableRecord
100
AcDbLayerTableRecord
  2
M-PIPE
 70
     0
 62
     3
  6
Continuous
370
    18
390
F
347
21
348
0
  0
ENDTAB
  0
TABLE
  2
STYLE
  5
3
330
0
100
AcDbSymbolTable
 70
     2
  0
STYLE
  5
55
330
3
100
AcDbSymbolTableRecord
100
AcDbTextStyleTableRecord
  2
Standard
 70
     0
 40
0.0
 41
1.0
 50
0.0
 71
     0
 42
0.2
  3
txt
  4

  0
STYLE
  5
5A
330
3
100
AcDbSymbolTableRecord
100
AcDbTextStyleTableRecord
  2
Annotative
 70
     0
 40
0.0
 41
1.0
 50
0.0
 71
     0
 42
0.2
  3
txt
  4

1001
AcadAnnotative
1000
AnnotativeData
1002
{
1070
     1
1070
     1
1002
}
  0
ENDTAB
  0
TABLE
  2
VIEW
  5
6
330
0
100
AcDbSymbolTable
 70
     0
  0
ENDTAB
  0
TABLE
  2
UCS
  5
7
330
0
100
AcDbSymbolTable
 70
     0
  0
ENDTAB
  0
TABLE
  2
APPID
  5
9
330
0
100
AcDbSymbolTable
 70
     3
  0
APPID
  5
56
330
9
100
AcDbSymbolTableRecord
100
AcDbRegAppTableRecord
  2
ACAD
 70
     0
  0
APPID
  5
5E
330
9
100
AcDbSymbolTableRecord
100
AcDbRegAppTableRecord
  2
AcadAnnotative
 70
     0
  0
APPID
  5
79
330
9
100
AcDbSymbolTableRecord
100
AcDbRegAppTableRecord
  2
REVIT
 70
     0
  0
ENDTAB
  0
TABLE
  2
DIMSTYLE
  5
A
330
0
100
AcDbSymbolTable
 70
     2
100
AcDbDimStyleTable
 71
     0
  0
DIMSTYLE
105
58
330
A
100
AcDbSymbolTableRecord
100
AcDbDimStyleTableRecord
  2
Standard
 70
     0
340
55
  0
DIMSTYLE
105
59
330
A
100
AcDbSymbolTableRecord
100
AcDbDimStyleTableRecord
  2
Annotative
 70
     0
340
55
1001
AcadAnnotative
1000
AnnotativeData
1002
{
1070
     1
1070
     1
1002
}
  0
ENDTAB
  0
TABLE
  2
BLOCK_RECORD
  5
1
330
0
100
AcDbSymbolTable
 70
     4
  0
BLOCK_RECORD
  5
71
102
{ACAD_XDICTIONARY
360
28E
102
}
330
1
100
AcDbSymbolTableRecord
100
AcDbBlockTableRecord
  2
*Model_Space
340
74
 70
     0
280
     1
281
     0
  0
BLOCK_RECORD
  5
6D
330
1
100
AcDbSymbolTableRecord
100
AcDbBlockTableRecord
  2
*Paper_Space
340
70
 70
     0
280
     1
281
     0
  0
BLOCK_RECORD
  5
75
330
1
100
AcDbSymbolTableRecord
100
AcDbBlockTableRecord
  2
*Paper_Space0
340
78
 70
     0
280
     1
281
     0
  0
BLOCK_RECORD
  5
87
330
1
100
AcDbSymbolTableRecord
100
AcDbBlockTableRecord
  2
Automatic flow rate regulator valve_Caleffi_121 DN15 - 1_2__-859151-Est - Idraulica
340
0
102
{BLKREFS
331
171
102
}
 70
     0
280
     1
281
     0
  0
BLOCK_RECORD
  5
172
330
1
100
AcDbSymbolTableRecord
100
AcDbBlockTableRecord
  2
Automatic flow rate regulator valve_Caleffi_121 DN15 - 1_2__-V1-Est - Idraulica
340
0
102
{BLKREFS
331
1F1
102
}
 70
     0
280
     1
281
     0
  0
BLOCK_RECORD
  5
1F2
330
1
100
AcDbSymbolTableRecord
100
AcDbBlockTableRecord
  2
Automatic flow rate regulator valve_Caleffi_121 DN15 - 1_2__-V2-Est - Idraulica
340
0
102
{BLKREFS
331
287
102
}
 70
     0
280
     1
281
     0
  0
ENDTAB
  0
ENDSEC
  0
SECTION
  2
BLOCKS
  0
BLOCK
  5
72
330
71
100
AcDbEntity
  8
0
100
AcDbBlockBegin
  2
*Model_Space
 70
     0
 10
0.0
 20
0.0
 30
0.0
  3
*Model_Space
  1

  0
ENDBLK
  5
73
330
71
100
AcDbEntity
  8
0
100
AcDbBlockEnd
  0
BLOCK
  5
6E
330
6D
100
AcDbEntity
 67
     1
  8
0
100
AcDbBlockBegin
  2
*Paper_Space
 70
     0
 10
0.0
 20
0.0
 30
0.0
  3
*Paper_Space
  1

  0
ENDBLK
  5
6F
330
6D
100
AcDbEntity
 67
     1
  8
0
100
AcDbBlockEnd
  0
BLOCK
  5
76
330
75
100
AcDbEntity
 67
     1
  8
0
100
AcDbBlockBegin
  2
*Paper_Space0
 70
     0
 10
0.0
 20
0.0
 30
0.0
  3
*Paper_Space0
  1

  0
ENDBLK
  5
77
330
75
100
AcDbEntity
 67
     1
  8
0
100
AcDbBlockEnd
  0
BLOCK
  5
16F
330
87
100
AcDbEntity
  8
0
100
AcDbBlockBegin
  2
Automatic flow rate regulator valve_Caleffi_121 DN15 - 1_2__-859151-Est - Idraulica
 70
     0
 10
0.0
 20
0.0
 30
0.0
  3
Automatic flow rate regulator valve_Caleffi_121 DN15 - 1_2__-859151-Est - Idraulica
  1

  0
ARC
  5
89
330
87
100
AcDbEntity
  8
M-PIPE
100
AcDbCircle
 10
715.6664074432009
 20
1464.999999999995
 30
0.0
 40
14.00000000000014
100
AcDbArc
 50
269.9999999999992
 51
319.9947991151398
1001
REVIT
1002
{
1070
     3
1000
790271
1002
}
  0
LINE
  5
8A
330
87
100
AcDbEntity
  8
M-PIPE
100
AcDbLine
 10
828.666407443201
 20
1455.999999999995
 30
0.0
 11
828.666407443201
 21
1473.999999999994
 31
0.0
1001
REVIT
1002
{
1070
     3
1000
790271
1002
}
  0
ARC
  5
8B
330
87
100
AcDbEntity
  8
M-PIPE
100
AcDbCircle
 10
715.6664074432009
 20
1464.999999999995
 30
0.0
 40
14.00000000000035
100
AcDbArc
 50
40.0052008848607
 51
89.99999999999932
1001
REVIT
1002
{
1070
     3
1000
790271
1002
}
  0
ARC
  5
8C
330
87
100
AcDbEntity
  8
M-PIPE
100
AcDbCircle
 10
715.6664074432009
 20
1464.999999999995
 30
0.0
 40
13.99999999999954
100
AcDbArc
 50
89.99999999999745
 51
269.999999999998
1001
REVIT
1002
{
1070
     3
1000
790271
1002
}
  0
LINE
  5
8D
330
87
100
AcDbEntity
  8
M-PIPE
100
AcDbLine
 10
726.3902127379644
 20
1455.999999999995
 30
0.0
 11
828.666407443201
 21
1455.999999999995
 31
0.0
1001
REVIT
1002
{
1070
     3
1000
790271
1002
}
  0
LINE
  5
8E
330
87
100
AcDbEntity
  8
M-PIPE
100
AcDbLine
 10
828.666407443201
 20
1473.999999999994
 30
0.0
 11
726.3902127379647
 21
1473.999999999995
 31
0.0
1001
REVIT
1002
{
1070
     3
1000
790271
1002
}
  0
LINE
  5
8F
330
87
100
AcDbEntity
  8
M-PIPE
100
AcDbLine
 10
733.3440769728483
 20
1423.999999999995
 30
0.0
 11
715.6664074431845
 21
1423.999999999995
 31
0.0
1001
REVIT
1002
{
1070
     3
1000
790271
1002
}
  0
LINE
  5
90
330
87
100
AcDbEntity
  8
M-PIPE
100
AcDbLine
 10
715.6664074431845
 20
1423.999999999995
 30
0.0
 11
697.9887379135209
 21
1423.999999999995
 31
0.0
1001
REVIT
1002
{
1070
     3
1000
790271
1002
}
  0
LINE
  5
91
330
87
100
AcDbEntity
  8
M-PIPE
100
AcDbLine
 10
697.9887379135209
 20
1423.999999999995
 30
0.0
 11
690.6664074431844
 21
1423.999999999995
 31
0.0
1001
REVIT
1002
{
1070
     3
1000
790271
1002
}
  0
LINE
  5
92
330
87
100
AcDbEntity
  8
M-PIPE
100
AcDbLine
 10
740.6664074431844
 20
1423.999999999995
 30
0.0
 11
733.3440769728483
 21
1423.999999999995
 31
0.0
1001
REVIT
1002
{
1070
     3
1000
790271
1002
}
  0
LINE
  5
93
330
87
100
AcDbEntity
  8
M-PIPE
100
AcDbLine
 10
733.3440769728483
 20
1423.999999999995
 30
0.0
 11
733.3440769728484
 21
1441.999999999995
 31
0.0
1001
REVIT
1002
{
1070
     3
1000
790271
1002
}
  0
LINE
  5
94
330
87
100
AcDbEntity
  8
M-PIPE
100
AcDbLine
 10
715.6664074431846
 20
1441.999999999995
 30
0.0
 11
715.6664074431845
 21
1423.999999999995
 31
0.0
1001
REVIT
1002
{
1070
     3
1000
790271
1002
}
  0
LINE
  5
95
330
87
100
AcDbEntity
  8
M-PIPE
100
AcDbLine
 10
697.9887379135209
 20
1441.999999999995
 30
0.0
 11
697.9887379135209
 21
1423.999999999995
 31
0.0
1001
REVIT
1002
{
1070
     3
1000
790271
1002
}
  0
LINE
  5
96
330
87
100
AcDbEntity
  8
M-PIPE
100
AcDbLine
 10
690.6664074431844
 20
1441.999999999995
 30
0.0
 11
690.6664074431844
 21
1423.999999999995
 31
0.0
1001
REVIT
1002
{
1070
     3
1000
790271
1002
}
  0
LINE
  5
97
330
87
100
AcDbEntity
  8
M-PIPE
100
AcDbLine
 10
740.6664074431845
 20
1441.999999999995
 30
0.0
 11
740.6664074431844
 21
1423.999999999995
 31
0.0
1001
REVIT
1002
{
1070
     3
1000
790271
1002
}
  0
LINE
  5
98
330
87
100
AcDbEntity
  8
M-PIPE
100
AcDbLine
 10
743.666407443214
 20
1441.999999999995
 30
0.0
 11
743.6664074432142
 21
1455.999999999995
 31
0.0
1001
REVIT
1002
{
1070
     3
1000
790271
1002
}
  0
LINE
  5
99
330
87
100
AcDbEntity
  8
M-PIPE
100
AcDbLine
 10
743.6664074432144
 20
1473.999999999995
 30
0.0
 11
743.6664074432147
 21
1487.999999999995
 31
0.0
1001
REVIT
1002
{
1070
     3
1000
790271
1002
}
  0
LINE
  5
9A
330
87
100
AcDbEntity
  8
M-PIPE
100
AcDbLine
 10
687.6664074431902
 20
1487.999999999996
 30
0.0
 11
687.6664074431894
 21
1441.999999999996
 31
0.0
1001
REVIT
1002
{
1070
     3
1000
790271
1002
}
  0
LINE
  5
9B
330
87
100
AcDbEntity
  8
M-PIPE
100
AcDbLine
 10
743.6664074432134
 20
1487.999999999995
 30
0.0
 11
715.6664074432013
 21
1487.999999999995
 31
0.0
1001
REVIT
1002
{
1070
     3
1000
790271
1002
}
  0
LINE
  5
9C
330
87
100
AcDbEntity
  8
M-PIPE
100
AcDbLine
 10
715.6664074432013
 20
1487.999999999995
 30
0.0
 11
687.6664074431888
 21
1487.999999999995
 31
0.0
1001
REVIT
1002
{
1070
     3
1000
790271
1002
}
  0
LINE
  5
9D
330
87
100
AcDbEntity
  8
M-PIPE
100
AcDbLine
 10
715.6664074432003
 20
1441.999999999995
 30
0.0
 11
743.6664074432126
 21
1441.999999999995
 31
0.0
1001
REVIT
1002
{
1070
     3
1000
790271
1002
}
  0
LINE
  5
9E
330
87
100
AcDbEntity
  8
M-PIPE
100
AcDbLine
 10
687.666407443188
 20
1441.999999999995
 30
0.0
 11
715.6664074432003
 21
1441.999999999995
 31
0.0
1001
REVIT
1002
{
1070
     3
1000
790271
1002
}
  0
LINE
  5
9F
330
87
100
AcDbEntity
  8
M-PIPE
100
AcDbLine
 10
715.6664074431849
 20
1487.999999999995
 30
0.0
 11
715.6664074431849
 21
1505.999999999995
 31
0.0
1001
REVIT
1002
{
1070
     3
1000
790271
1002
}
  0
LINE
  5
A0
330
87
100
AcDbEntity
  8
M-PIPE
100
AcDbLine
 10
733.3440769728484
 20
1505.999999999995
 30
0.0
 11
740.6664074431846
 21
1505.999999999995
 31
0.0
1001
REVIT
1002
{
1070
     3
1000
790271
1002
}
  0
LINE
  5
A1
330
87
100
AcDbEntity
  8
M-PIPE
100
AcDbLine
 10
690.6664074431846
 20
1505.999999999995
 30
0.0
 11
697.9887379135211
 21
1505.999999999995
 31
0.0
1001
REVIT
1002
{
1070
     3
1000
790271
1002
}
  0
LINE
  5
A2
330
87
100
AcDbEntity
  8
M-PIPE
100
AcDbLine
 10
715.6664074431849
 20
1505.999999999995
 30
0.0
 11
697.9887379135211
 21
1505.999999999995
 31
0.0
1001
REVIT
1002
{
1070
     3
1000
790271
1002
}
  0
LINE
  5
A3
330
87
100
AcDbEntity
  8
M-PIPE
100
AcDbLine
 10
715.6664074431849
 20
1505.999999999995
 30
0.0
 11
733.3440769728484
 21
1505.999999999995
 31
0.0
1001
REVIT
1002
{
1070
     3
1000
790271
1002
}
  0
LINE
  5
A4
330
87
100
AcDbEntity
  8
M-PIPE
100
AcDbLine
 10
733.3440769728484
 20
1487.999999999995
 30
0.0
 11
733.3440769728484
 21
1505.999999999995
 31
0.0
1001
REVIT
1002
{
1070
     3
1000
790271
1002
}
  0
LINE
  5
A5
330
87
100
AcDbEntity
  8
M-PIPE
100
AcDbLine
 10
697.9887379135211
 20
1505.999999999995
 30
0.0
 11
697.988737913521
 21
1487.999999999995
 31
0.0
1001
REVIT
1002
{
1070
     3
1000
790271
1002
}
  0
LINE
  5
A6
330
87
100
AcDbEntity
  8
M-PIPE
100
AcDbLine
 10
690.6664074431846
 20
1505.999999999995
 30
0.0
 11
690.6664074431845
 21
1487.999999999995
 31
0.0
1001
REVIT
1002
{
1070
     3
1000
790271
1002
}
  0
LINE
  5
A7
330
87
100
AcDbEntity
  8
M-PIPE
100
AcDbLine
 10
740.6664074431846
 20
1505.999999999995
 30
0.0
 11
740.6664074431845
 21
1487.999999999995
 31
0.0
1001
REVIT
1002
{
1070
     3
1000
790271
1002
}
  0
LINE
  5
A8
330
87
100
AcDbEntity
  8
P-SANR-FIXT
100
AcDbLine
 10
715.6664074431972
 20
2483.001484374985
 30
0.0
 11
731.1664074431972
 21
2483.001484374985
 31
0.0
  0
LINE
  5
A9
330
87
100
AcDbEntity
  8
P-SANR-FIXT
100
AcDbLine
 10
700.1664074431971
 20
2483.001484374985
 30
0.0
 11
715.6664074431972
 21
2483.001484374985
 31
0.0
  0
LINE
  5
AA
330
87
100
AcDbEntity
  8
P-SANR-FIXT
100
AcDbLine
 10
715.6664074431972
 20
2483.001484374985
 30
0.0
 11
715.6664074431973
 21
2472.501484374985
 31
0.0
  0
LINE
  5
AB
330
87
100
AcDbEntity
  8
P-SANR-FIXT
100
AcDbLine
 10
731.1664074431972
 20
2472.501484374985
 30
0.0
 11
731.1664074431972
 21
2483.001484374985
 31
0.0
  0
LINE
  5
AC
330
87
100
AcDbEntity
  8
P-SANR-FIXT
100
AcDbLine
 10
700.1664074431971
 20
2472.501484374985
 30
0.0
 11
700.1664074431971
 21
2483.001484374985
 31
0.0
  0
LINE
  5
AD
330
87
100
AcDbEntity
  8
M-PIPE
100
AcDbLine
 10
667.1338551109593
 20
2449.001484374987
 30
0.0
 11
670.4164074431818
 21
2355.001484374986
 31
0.0
1001
REVIT
1002
{
1070
     3
1000
790271
1002
}
  0
LINE
  5
AE
330
87
100
AcDbEntity
  8
M-PIPE
100
AcDbLine
 10
760.916407443182
 20
2355.001484374986
 30
0.0
 11
764.1989597754064
 21
2449.001484374987
 31
0.0
1001
REVIT
1002
{
1070
     3
1000
790271
1002
}
  0
LINE
  5
AF
330
87
100
AcDbEntity
  8
M-PIPE
100
AcDbLine
 10
676.9164074431983
 20
2463.001484374987
 30
0.0
 11
676.9164074431983
 21
2449.001484374987
 31
0.0
1001
REVIT
1002
{
1070
     3
1000
790271
1002
}
  0
LINE
  5
B0
330
87
100
AcDbEntity
  8
M-PIPE
100
AcDbLine
 10
754.4164074431987
 20
2449.001484374987
 30
0.0
 11
754.4164074431986
 21
2463.001484374987
 31
0.0
1001
REVIT
1002
{
1070
     3
1000
790271
1002
}
  0
LINE
  5
B1
330
87
100
AcDbEntity
  8
M-PIPE
100
AcDbLine
 10
783.166407443198
 20
2449.001484374987
 30
0.0
 11
783.166407443198
 21
2463.001484374987
 31
0.0
1001
REVIT
1002
{
1070
     3
1000
790271
1002
}
  0
LINE
  5
B2
330
87
100
AcDbEntity
  8
M-PIPE
100
AcDbLine
 10
648.1664074431978
 20
2463.001484374986
 30
0.0
 11
648.1664074431978
 21
2449.001484374985
 31
0.0
1001
REVIT
1002
{
1070
     3
1000
790271
1002
}
  0
LINE
  5
B3
330
87
100
AcDbEntity
  8
M-PIPE
100
AcDbLine
 10
689.1664074431834
 20
2472.501484374987
 30
0.0
 11
689.1664074431832
 21
2463.001484374987
 31
0.0
1001
REVIT
1002
{
1070
     3
1000
790271
1002
}
  0
LINE
  5
B4
330
87
100
AcDbEntity
  8
M-PIPE
100
AcDbLine
 10
742.1664074431833
 20
2463.001484374987
 30
0.0
 11
742.1664074431833
 21
2472.501484374986
 31
0.0
1001
REVIT
1002
{
1070
     3
1000
790271
1002
}
  0
LINE
  5
B5
330
87
100
AcDbEntity
  8
M-PIPE
100
AcDbLine
 10
704.8164074431839
 20
2493.001484375052
 30
0.0
 11
704.8164074431838
 21
2483.001484374986
 31
0.0
1001
REVIT
1002
{
1070
     3
1000
790271
1002
}
  0
LINE
  5
B6
330
87
100
AcDbEntity
  8
M-PIPE
100
AcDbLine
 10
726.5164074431833
 20
2483.001484374987
 30
0.0
 11
726.5164074431834
 21
2493.001484375052
 31
0.0
1001
REVIT
1002
{
1070
     3
1000
790271
1002
}
  0
LINE
  5
B7
330
87
100
AcDbEntity
  8
M-PIPE
100
AcDbLine
 10
715.6664074431973
 20
2335.001484374985
 30
0.0
 11
695.666407443197
 21
2335.001484374985
 31
0.0
1001
REVIT
1002
{
1070
     3
1000
790271
1002
}
  0
LINE
  5
B8
330
87
100
AcDbEntity
  8
M-PIPE
100
AcDbLine
 10
735.666407443197
 20
2335.001484374985
 30
0.0
 11
715.6664074431973
 21
2335.001484374985
 31
0.0
1001
REVIT
1002
{
1070
     3
1000
790271
1002
}
  0
LINE
  5
B9
330
87
100
AcDbEntity
  8
M-PIPE
100
AcDbLine
 10
715.6664074431972
 20
2355.001484374985
 30
0.0
 11
715.6664074431973
 21
2335.001484374985
 31
0.0
1001
REVIT
1002
{
1070
     3
1000
790271
1002
}
  0
LINE
  5
BA
330
87
100
AcDbEntity
  8
M-PIPE
100
AcDbLine
 10
735.666407443197
 20
2335.001484374985
 30
0.0
 11
735.666407443197
 21
2355.001484374985
 31
0.0
1001
REVIT
1002
{
1070
     3
1000
790271
1002
}
  0
LINE
  5
BB
330
87
100
AcDbEntity
  8
M-PIPE
100
AcDbLine
 10
695.666407443197
 20
2335.001484374985
 30
0.0
 11
695.6664074431969
 21
2355.001484374985
 31
0.0
1001
REVIT
1002
{
1070
     3
1000
790271
1002
}
  0
LINE
  5
BC
330
87
100
AcDbEntity
  8
M-PIPE
100
AcDbLine
 10
670.4164074431804
 20
2355.001484374986
 30
0.0
 11
715.6664074431811
 21
2355.001484374986
 31
0.0
1001
REVIT
1002
{
1070
     3
1000
790271
1002
}
  0
LINE
  5
BD
330
87
100
AcDbEntity
  8
M-PIPE
100
AcDbLine
 10
715.6664074431811
 20
2355.001484374986
 30
0.0
 11
760.9164074431804
 21
2355.001484374984
 31
0.0
1001
REVIT
1002
{
1070
     3
1000
790271
1002
}
  0
LINE
  5
BE
330
87
100
AcDbEntity
  8
M-PIPE
100
AcDbLine
 10
659.0359726605879
 20
2463.001484374985
 30
0.0
 11
676.8911333383514
 21
2463.001484374985
 31
0.0
1001
REVIT
1002
{
1070
     3
1000
790271
1002
}
  0
LINE
  5
BF
330
87
100
AcDbEntity
  8
M-PIPE
100
AcDbLine
 10
676.9164074431969
 20
2463.001484374985
 30
0.0
 11
695.9786399792769
 21
2463.001484374985
 31
0.0
1001
REVIT
1002
{
1070
     3
1000
790271
1002
}
  0
LINE
  5
C0
330
87
100
AcDbEntity
  8
M-PIPE
100
AcDbLine
 10
695.9786399792768
 20
2463.001484374985
 30
0.0
 11
735.3541749071161
 21
2463.001484374985
 31
0.0
1001
REVIT
1002
{
1070
     3
1000
790271
1002
}
  0
LINE
  5
C1
330
87
100
AcDbEntity
  8
M-PIPE
100
AcDbLine
 10
735.354174907117
 20
2463.001484374985
 30
0.0
 11
754.4164074431972
 21
2463.001484374985
 31
0.0
1001
REVIT
1002
{
1070
     3
1000
790271
1002
}
  0
LINE
  5
C2
330
87
100
AcDbEntity
  8
M-PIPE
100
AcDbLine
 10
754.4416815480428
 20
2463.001484374985
 30
0.0
 11
772.2968422258051
 21
2463.001484374985
 31
0.0
1001
REVIT
1002
{
1070
     3
1000
790271
1002
}
  0
LINE
  5
C3
330
87
100
AcDbEntity
  8
M-PIPE
100
AcDbLine
 10
772.2968422258052
 20
2463.001484374985
 30
0.0
 11
783.1664074431966
 21
2463.001484374985
 31
0.0
1001
REVIT
1002
{
1070
     3
1000
790271
1002
}
  0
LINE
  5
C4
330
87
100
AcDbEntity
  8
M-PIPE
100
AcDbLine
 10
648.1664074431967
 20
2463.001484374985
 30
0.0
 11
659.0359726605877
 21
2463.001484374985
 31
0.0
1001
REVIT
1002
{
1070
     3
1000
790271
1002
}
  0
LINE
  5
C5
330
87
100
AcDbEntity
  8
M-PIPE
100
AcDbLine
 10
659.0359726605878
 20
2449.001484374985
 30
0.0
 11
648.1664074431967
 21
2449.001484374985
 31
0.0
1001
REVIT
1002
{
1070
     3
1000
790271
1002
}
  0
LINE
  5
C6
330
87
100
AcDbEntity
  8
M-PIPE
100
AcDbLine
 10
783.1664074431966
 20
2449.001484374985
 30
0.0
 11
772.2968422258053
 21
2449.001484374985
 31
0.0
1001
REVIT
1002
{
1070
     3
1000
790271
1002
}
  0
LINE
  5
C7
330
87
100
AcDbEntity
  8
M-PIPE
100
AcDbLine
 10
772.2968422258052
 20
2449.001484374985
 30
0.0
 11
754.4416815480429
 21
2449.001484374985
 31
0.0
1001
REVIT
1002
{
1070
     3
1000
790271
1002
}
  0
LINE
  5
C8
330
87
100
AcDbEntity
  8
M-PIPE
100
AcDbLine
 10
754.4164074431972
 20
2449.001484374985
 30
0.0
 11
735.354174907117
 21
2449.001484374985
 31
0.0
1001
REVIT
1002
{
1070
     3
1000
790271
1002
}
  0
LINE
  5
C9
330
87
100
AcDbEntity
  8
M-PIPE
100
AcDbLine
 10
735.3541749071164
 20
2449.001484374985
 30
0.0
 11
695.9786399792772
 21
2449.001484374985
 31
0.0
1001
REVIT
1002
{
1070
     3
1000
790271
1002
}
  0
LINE
  5
CA
330
87
100
AcDbEntity
  8
M-PIPE
100
AcDbLine
 10
695.9786399792772
 20
2449.001484374985
 30
0.0
 11
676.916407443197
 21
2449.001484374985
 31
0.0
1001
REVIT
1002
{
1070
     3
1000
790271
1002
}
  0
LINE
  5
CB
330
87
100
AcDbEntity
  8
M-PIPE
100
AcDbLine
 10
676.8911333383518
 20
2449.001484374985
 30
0.0
 11
659.035972660588
 21
2449.001484374985
 31
0.0
1001
REVIT
1002
{
1070
     3
1000
790271
1002
}
  0
LINE
  5
CC
330
87
100
AcDbEntity
  8
M-PIPE
100
AcDbLine
 10
659.035972660588
 20
2463.001484374985
 30
0.0
 11
659.035972660588
 21
2449.001484374985
 31
0.0
1001
REVIT
1002
{
1070
     3
1000
790271
1002
}
  0
LINE
  5
CD
330
87
100
AcDbEntity
  8
M-PIPE
100
AcDbLine
 10
695.9786399792768
 20
2449.001484374985
 30
0.0
 11
695.9786399792768
 21
2463.001484374985
 31
0.0
1001
REVIT
1002
{
1070
     3
1000
790271
1002
}
  0
LINE
  5
CE
330
87
100
AcDbEntity
  8
M-PIPE
100
AcDbLine
 10
735.354174907117
 20
2449.001484374985
 30
0.0
 11
735.354174907117
 21
2463.001484374985
 31
0.0
1001
REVIT
1002
{
1070
     3
1000
790271
1002
}
  0
LINE
  5
CF
330
87
100
AcDbEntity
  8
M-PIPE
100
AcDbLine
 10
772.2968422258052
 20
2449.001484374985
 30
0.0
 11
772.2968422258052
 21
2463.001484374985
 31
0.0
1001
REVIT
1002
{
1070
     3
1000
790271
1002
}
  0
LINE
  5
D0
330
87
100
AcDbEntity
  8
M-PIPE
100
AcDbLine
 10
715.6664074431827
 20
2472.501484374985
 30
0.0
 11
689.166407443182
 21
2472.501484374985
 31
0.0
1001
REVIT
1002
{
1070
     3
1000
790271
1002
}
  0
LINE
  5
D1
330
87
100
AcDbEntity
  8
M-PIPE
100
AcDbLine
 10
742.166407443182
 20
2472.501484374985
 30
0.0
 11
715.6664074431827
 21
2472.501484374985
 31
0.0
1001
REVIT
1002
{
1070
     3
1000
790271
1002
}
  0
LINE
  5
D2
330
87
100
AcDbEntity
  8
M-PIPE
100
AcDbLine
 10
715.6664074431825
 20
2493.001484375051
 30
0.0
 11
704.8164074431825
 21
2493.001484375051
 31
0.0
1001
REVIT
1002
{
1070
     3
1000
790271
1002
}
  0
LINE
  5
D3
330
87
100
AcDbEntity
  8
M-PIPE
100
AcDbLine
 10
726.5164074431821
 20
2493.001484375051
 30
0.0
 11
715.6664074431825
 21
2493.001484375051
 31
0.0
1001
REVIT
1002
{
1070
     3
1000
790271
1002
}
  0
LINE
  5
D4
330
87
100
AcDbEntity
  8
M-PIPE
100
AcDbLine
 10
734.3195324431579
 20
2291.906249999995
 30
0.0
 11
734.3195324431579
 21
2326.136718749995
 31
0.0
1001
REVIT
1002
{
1070
     3
1000
790271
1002
}
  0
LINE
  5
D5
330
87
100
AcDbEntity
  8
M-PIPE
100
AcDbLine
 10
697.0132824431233
 20
2326.136718749995
 30
0.0
 11
697.0132824431233
 21
2320.133984374987
 31
0.0
1001
REVIT
1002
{
1070
     3
1000
790271
1002
}
  0
LINE
  5
D6
330
87
100
AcDbEntity
  8
M-PIPE
100
AcDbLine
 10
697.0132824431234
 20
2297.908984374987
 30
0.0
 11
697.0132824431234
 21
2291.906249999995
 31
0.0
1001
REVIT
1002
{
1070
     3
1000
790271
1002
}
  0
LINE
  5
D7
330
87
100
AcDbEntity
  8
M-PIPE
100
AcDbLine
 10
688.6789074430074
 20
2297.908984374987
 30
0.0
 11
697.0132824431234
 21
2297.908984374987
 31
0.0
1001
REVIT
1002
{
1070
     3
1000
790271
1002
}
  0
LINE
  5
D8
330
87
100
AcDbEntity
  8
M-PIPE
100
AcDbLine
 10
697.0132824431234
 20
2320.133984374987
 30
0.0
 11
688.6789074430074
 21
2320.133984374987
 31
0.0
1001
REVIT
1002
{
1070
     3
1000
790271
1002
}
  0
LINE
  5
D9
330
87
100
AcDbEntity
  8
M-PIPE
100
AcDbLine
 10
734.3195324431564
 20
2291.906249999994
 30
0.0
 11
715.6664074431395
 21
2291.906249999994
 31
0.0
1001
REVIT
1002
{
1070
     3
1000
790271
1002
}
  0
LINE
  5
DA
330
87
100
AcDbEntity
  8
M-PIPE
100
AcDbLine
 10
715.6664074431395
 20
2291.906249999994
 30
0.0
 11
697.013282443122
 21
2291.906249999994
 31
0.0
1001
REVIT
1002
{
1070
     3
1000
790271
1002
}
  0
SPLINE
  5
DB
330
87
100
AcDbEntity
  8
M-PIPE
100
AcDbSpline
210
0.0
220
0.0
230
1.0
 70
     8
 71
     3
 72
    27
 73
    23
 74
     0
 42
0.000000001
 43
0.0000000001
 40
0.0
 40
0.0
 40
0.0
 40
0.0
 40
0.0555555555555556
 40
0.1111111111111111
 40
0.2222222222222222
 40
0.2777777777777778
 40
0.3333333333333333
 40
0.3472222222222222
 40
0.3611111111111111
 40
0.3888888888888888
 40
0.4444444444444445
 40
0.4722222222222223
 40
0.5
 40
0.5277777777777778
 40
0.5555555555555556
 40
0.6111111111111112
 40
0.6388888888888889
 40
0.6666666666666666
 40
0.7777777777777777
 40
0.8888888888888889
 40
0.9444444444444444
 40
1.0
 40
1.0
 40
1.0
 40
1.0
 10
697.013282443122
 20
2320.133984374986
 30
0.0
 10
697.013282443122
 20
2320.120611252035
 30
0.0
 10
697.0896860016946
 20
2319.989723239826
 30
0.0
 10
697.4926632829274
 20
2319.328403129208
 30
0.0
 10
698.2288427404886
 20
2317.99116348362
 30
0.0
 10
699.0702406894051
 20
2316.207814520082
 30
0.0
 10
699.5367254216118
 20
2315.036838559446
 30
0.0
 10
699.8105525386432
 20
2314.208731597531
 30
0.0
 10
699.9901863057191
 20
2313.633339506477
 30
0.0
 10
700.2845406777738
 20
2312.579478402115
 30
0.0
 10
700.5374864841812
 20
2311.324283392154
 30
0.0
 10
700.6527238563887
 20
2310.033183396285
 30
0.0
 10
700.6835448243455
 20
2309.02327438934
 30
0.0
 10
700.6530113705159
 20
2308.013311402177
 30
0.0
 10
700.5379261182923
 20
2306.721857789348
 30
0.0
 10
700.2854541237024
 20
2305.466506329831
 30
0.0
 10
699.9474838124233
 20
2304.259120316208
 30
0.0
 10
699.4060973011722
 20
2302.570975013416
 30
0.0
 10
698.4121924632577
 20
2300.38602201948
 30
0.0
 10
697.4931091557486
 20
2298.715295681491
 30
0.0
 10
697.0896562609271
 20
2298.053060346753
 30
0.0
 10
697.013282443122
 20
2297.922263901361
 30
0.0
 10
697.013282443122
 20
2297.908984374986
 30
0.0
1001
REVIT
1002
{
1070
     3
1000
790271
1002
}
  0
LINE
  5
DC
330
87
100
AcDbEntity
  8
M-PIPE
100
AcDbLine
 10
734.3195324431563
 20
2326.136718749994
 30
0.0
 11
715.6664074431395
 21
2326.136718749994
 31
0.0
1001
REVIT
1002
{
1070
     3
1000
790271
1002
}
  0
LINE
  5
DD
330
87
100
AcDbEntity
  8
M-PIPE
100
AcDbLine
 10
715.6664074431394
 20
2326.136718749994
 30
0.0
 11
697.0132824431219
 21
2326.136718749994
 31
0.0
1001
REVIT
1002
{
1070
     3
1000
790271
1002
}
  0
LINE
  5
DE
330
87
100
AcDbEntity
  8
M-PIPE
100
AcDbLine
 10
700.7835949431696
 20
2326.136718749994
 30
0.0
 11
700.7835949431695
 21
2335.001484374987
 31
0.0
1001
REVIT
1002
{
1070
     3
1000
790271
1002
}
  0
LINE
  5
DF
330
87
100
AcDbEntity
  8
M-PIPE
100
AcDbLine
 10
730.5492199431707
 20
2335.001484374987
 30
0.0
 11
730.5492199431707
 21
2326.136718749994
 31
0.0
1001
REVIT
1002
{
1070
     3
1000
790271
1002
}
  0
LINE
  5
E0
330
87
100
AcDbEntity
  8
M-PIPE
100
AcDbLine
 10
721.8310702269263
 20
2335.001484374987
 30
0.0
 11
721.8310702269263
 21
2326.136718749994
 31
0.0
1001
REVIT
1002
{
1070
     3
1000
790271
1002
}
  0
LINE
  5
E1
330
87
100
AcDbEntity
  8
M-PIPE
100
AcDbLine
 10
709.501744659414
 20
2335.001484374987
 30
0.0
 11
709.501744659414
 21
2326.136718749994
 31
0.0
1001
REVIT
1002
{
1070
     3
1000
790271
1002
}
  0
LINE
  5
E2
330
87
100
AcDbEntity
  8
M-PIPE
100
AcDbLine
 10
732.0375011931398
 20
2279.999999999994
 30
0.0
 11
722.447536505271
 21
2279.999999999994
 31
0.0
1001
REVIT
1002
{
1070
     3
1000
790271
1002
}
  0
LINE
  5
E3
330
87
100
AcDbEntity
  8
M-PIPE
100
AcDbLine
 10
722.447536505271
 20
2279.999999999994
 30
0.0
 11
708.8852783810076
 21
2279.999999999994
 31
0.0
1001
REVIT
1002
{
1070
     3
1000
790271
1002
}
  0
LINE
  5
E4
330
87
100
AcDbEntity
  8
M-PIPE
100
AcDbLine
 10
708.8852783810076
 20
2279.999999999994
 30
0.0
 11
699.2953136931387
 21
2279.999999999994
 31
0.0
1001
REVIT
1002
{
1070
     3
1000
790271
1002
}
  0
LINE
  5
E5
330
87
100
AcDbEntity
  8
M-PIPE
100
AcDbLine
 10
732.0375011931398
 20
2291.906249999994
 30
0.0
 11
732.0375011931398
 21
2279.999999999994
 31
0.0
1001
REVIT
1002
{
1070
     3
1000
790271
1002
}
  0
LINE
  5
E6
330
87
100
AcDbEntity
  8
M-PIPE
100
AcDbLine
 10
722.447536505271
 20
2291.906249999994
 30
0.0
 11
722.447536505271
 21
2279.999999999994
 31
0.0
1001
REVIT
1002
{
1070
     3
1000
790271
1002
}
  0
LINE
  5
E7
330
87
100
AcDbEntity
  8
M-PIPE
100
AcDbLine
 10
708.8852783810076
 20
2291.906249999994
 30
0.0
 11
708.8852783810076
 21
2279.999999999994
 31
0.0
1001
REVIT
1002
{
1070
     3
1000
790271
1002
}
  0
LINE
  5
E8
330
87
100
AcDbEntity
  8
M-PIPE
100
AcDbLine
 10
699.2953136931387
 20
2291.906249999994
 30
0.0
 11
699.2953136931387
 21
2279.999999999994
 31
0.0
1001
REVIT
1002
{
1070
     3
1000
790271
1002
}
  0
LINE
  5
E9
330
87
100
AcDbEntity
  8
M-PIPE
100
AcDbLine
 10
677.4865382427673
 20
2293.940234374995
 30
0.0
 11
688.6789074430072
 21
2293.940234374995
 31
0.0
1001
REVIT
1002
{
1070
     3
1000
790271
1002
}
  0
LINE
  5
EA
330
87
100
AcDbEntity
  8
M-PIPE
100
AcDbLine
 10
688.678907443007
 20
2324.102734374979
 30
0.0
 11
677.4865382427682
 21
2324.102734374979
 31
0.0
1001
REVIT
1002
{
1070
     3
1000
790271
1002
}
  0
LINE
  5
EB
330
87
100
AcDbEntity
  8
M-PIPE
100
AcDbLine
 10
688.6789074430057
 20
2324.102734374978
 30
0.0
 11
688.6789074430057
 21
2293.940234374994
 31
0.0
1001
REVIT
1002
{
1070
     3
1000
790271
1002
}
  0
LINE
  5
EC
330
87
100
AcDbEntity
  8
M-PIPE
100
AcDbLine
 10
678.4682363520903
 20
2322.700724177046
 30
0.0
 11
660.1039074431333
 21
2322.700724177046
 31
0.0
1001
REVIT
1002
{
1070
     3
1000
790271
1002
}
  0
LINE
  5
ED
330
87
100
AcDbEntity
  8
M-PIPE
100
AcDbLine
 10
660.1039074431333
 20
2322.700724177046
 30
0.0
 11
660.1039074431334
 21
2318.765203903423
 31
0.0
1001
REVIT
1002
{
1070
     3
1000
790271
1002
}
  0
LWPOLYLINE
  5
EE
330
87
100
AcDbEntity
  8
M-PIPE
100
AcDbPolyline
 90
       11
 70
   128
 43
0.0
 10
660.1039074431334
 20
2318.765203903423
 10
662.0959474922044
 20
2315.920275877992
 10
664.3365398538472
 20
2312.72037836279
 10
666.7103973901553
 20
2309.330158454022
 10
669.0953759548554
 20
2305.924056070723
 10
671.3687591817756
 20
2302.677328346636
 10
673.4135727162392
 20
2299.757031973232
 10
675.1246029977717
 20
2297.313427487186
 10
676.4138109044839
 20
2295.472247784939
 10
677.2148617062058
 20
2294.328228679161
 10
677.4865382427659
 20
2293.940234374994
1001
REVIT
1002
{
1070
     3
1000
790271
1002
}
  0
LWPOLYLINE
  5
EF
330
87
100
AcDbEntity
  8
M-PIPE
100
AcDbPolyline
 90
        6
 70
   128
 43
0.0
 10
666.9251185410582
 20
2309.021710189034
 10
666.6031454643281
 20
2308.55963867186
 10
664.7129419631473
 20
2305.860148309312
 10
662.9392639346185
 20
2303.327073568266
 10
661.3754794121724
 20
2301.093757819561
 10
660.1039074431333
 20
2299.277764846548
1001
REVIT
1002
{
1070
     3
1000
790271
1002
}
  0
LINE
  5
F0
330
87
100
AcDbEntity
  8
M-PIPE
100
AcDbLine
 10
660.1039074431333
 20
2297.115234374993
 30
0.0
 11
675.2633793089501
 21
2297.115234374993
 31
0.0
1001
REVIT
1002
{
1070
     3
1000
790271
1002
}
  0
LINE
  5
F1
330
87
100
AcDbEntity
  8
M-PIPE
100
AcDbLine
 10
660.1039074431333
 20
2299.277764846548
 30
0.0
 11
660.1039074431333
 21
2297.115234374993
 31
0.0
1001
REVIT
1002
{
1070
     3
1000
790271
1002
}
  0
LINE
  5
F2
330
87
100
AcDbEntity
  8
M-PIPE
100
AcDbLine
 10
660.1039074431967
 20
2275.683984374986
 30
0.0
 11
660.1039074431333
 21
2297.115234374993
 31
0.0
1001
REVIT
1002
{
1070
     3
1000
790271
1002
}
  0
LINE
  5
F3
330
87
100
AcDbEntity
  8
M-PIPE
100
AcDbLine
 10
660.1039074431967
 20
2275.683984374986
 30
0.0
 11
675.0930844820544
 21
2275.683984374986
 31
0.0
1001
REVIT
1002
{
1070
     3
1000
790271
1002
}
  0
LINE
  5
F4
330
87
100
AcDbEntity
  8
M-PIPE
100
AcDbLine
 10
675.0930844820544
 20
2275.683984374986
 30
0.0
 11
675.0930844820544
 21
2290.522028159015
 31
0.0
1001
REVIT
1002
{
1070
     3
1000
790271
1002
}
  0
LINE
  5
F5
330
87
100
AcDbEntity
  8
M-PIPE
100
AcDbLine
 10
675.0930844820544
 20
2290.522028159015
 30
0.0
 11
677.4865382427659
 21
2293.940234374994
 31
0.0
1001
REVIT
1002
{
1070
     3
1000
790271
1002
}
  0
LINE
  5
F6
330
87
100
AcDbEntity
  8
M-PIPE
100
AcDbLine
 10
675.093084482981
 20
2342.358984375002
 30
0.0
 11
660.1039074431963
 21
2342.358984375001
 31
0.0
1001
REVIT
1002
{
1070
     3
1000
790271
1002
}
  0
LINE
  5
F7
330
87
100
AcDbEntity
  8
M-PIPE
100
AcDbLine
 10
660.1039074431333
 20
2322.700724177046
 30
0.0
 11
660.1039074431963
 21
2342.358984375001
 31
0.0
1001
REVIT
1002
{
1070
     3
1000
790271
1002
}
  0
LINE
  5
F8
330
87
100
AcDbEntity
  8
M-PIPE
100
AcDbLine
 10
678.4682363520903
 20
2322.700724177046
 30
0.0
 11
675.093084482981
 21
2327.520940590952
 31
0.0
1001
REVIT
1002
{
1070
     3
1000
790271
1002
}
  0
LINE
  5
F9
330
87
100
AcDbEntity
  8
M-PIPE
100
AcDbLine
 10
675.093084482981
 20
2327.520940590952
 30
0.0
 11
675.093084482981
 21
2342.358984375002
 31
0.0
1001
REVIT
1002
{
1070
     3
1000
790271
1002
}
  0
LWPOLYLINE
  5
FA
330
87
100
AcDbEntity
  8
P-SANR-FIXT
100
AcDbPolyline
 90
       21
 70
   128
 43
0.0
 10
631.7160154299362
 20
1514.999999999994
 10
630.9162287462036
 20
1515.015997866775
 10
630.1177215505528
 20
1515.063965873941
 10
629.3217712841578
 20
1515.143827282916
 10
628.5296512976513
 20
1515.255454332481
 10
627.7426288140351
 20
1515.398668443169
 10
626.9619629013937
 20
1515.573240502953
 10
626.188902458654
 20
1515.778891233779
 10
625.4246842176138
 20
1516.015291638345
 10
624.6705307644344
 20
1516.282063526435
 10
623.9276485837632
 20
1516.578780119936
 10
623.1972261286162
 20
1516.904966735595
 10
622.4804319191065
 20
1517.260101544408
 10
621.7784126730617
 20
1517.643616406441
 10
621.0922914715187
 20
1518.054897779726
 10
620.4231659620355
 20
1518.4932877018
 10
619.7721066026883
 20
1518.958084842308
 10
619.1401549495668
 20
1519.448545624975
 10
618.5283219905068
 20
1519.963885417176
 10
617.9375865277251
 20
1520.503279785176
 10
617.8590827709721
 20
1520.578300471681
  0
LWPOLYLINE
  5
FB
330
87
100
AcDbEntity
  8
P-SANR-FIXT
100
AcDbPolyline
 90
       21
 70
   128
 43
0.0
 10
813.473732115432
 20
1520.578300471681
 10
812.8859338853217
 20
1520.03570678217
 10
812.2769078707232
 20
1519.517052769595
 10
811.6476283833412
 20
1519.023168169737
 10
810.9991021361157
 20
1518.554843092597
 10
810.3323666326982
 20
1518.112826758397
 10
809.6484885076641
 20
1517.697826298978
 10
808.9485618201278
 20
1517.310505626548
 10
808.2337063034795
 20
1516.951484371557
 10
807.5050655740513
 20
1516.621336891427
 10
806.7638053015754
 20
1516.320591351699
 10
806.0111113443605
 20
1516.049728881079
 10
805.2481878521723
 20
1515.809182801741
 10
804.4762553398495
 20
1515.599337936099
 10
803.6965487347419
 20
1515.42052999117
 10
802.9103154010895
 20
1515.273045021525
 10
802.1188131445047
 20
1515.157118971653
 10
801.3233081997537
 20
1515.072937298504
 10
800.5250732050489
 20
1515.020634674798
 10
799.7253851661015
 20
1515.000294773574
 10
799.6167994564679
 20
1514.999999999994
  0
LWPOLYLINE
  5
FC
330
87
100
AcDbEntity
  8
P-SANR-FIXT
100
AcDbPolyline
 90
        4
 70
   128
 43
0.0
 10
799.616799456468
 20
1514.999999999994
 10
799.5496480970882
 20
1514.999999999994
 10
799.3483014467992
 20
1514.999999999994
 10
799.0814062986604
 20
1514.999999999994
  0
LWPOLYLINE
  5
FD
330
87
100
AcDbEntity
  8
P-SANR-FIXT
100
AcDbPolyline
 90
        5
 70
   128
 43
0.0
 10
632.2497905092777
 20
1514.999999999994
 10
632.1488717641678
 20
1514.999999999994
 10
631.8752045058951
 20
1514.999999999994
 10
631.7355852978189
 20
1514.999999999994
 10
631.7160154299362
 20
1514.999999999994
  0
LWPOLYLINE
  5
FE
330
87
100
AcDbEntity
  8
P-SANR-FIXT
100
AcDbPolyline
 90
       17
 70
   128
 43
0.0
 10
581.666407443203
 20
2125.199999999995
 10
581.2332459426644
 20
2133.840436740593
 10
581.1459562374632
 20
2142.491283893399
 10
581.4046779725067
 20
2151.138701948381
 10
582.0089972482097
 20
2159.768856881338
 10
582.957947282646
 20
2168.367942285378
 10
584.2500099581923
 20
2176.922201458229
 10
585.8831182501931
 20
2185.417949410024
 10
587.8546595337589
 20
2193.841594756371
 10
590.161479763409
 20
2202.179661461663
 10
592.7998885188716
 20
2210.418810397865
 10
595.7656649089683
 20
2218.545860684271
 10
599.0540643241402
 20
2226.547810774102
 10
602.6598260268108
 20
2234.411859254203
 10
606.5771815674442
 20
2242.125425324582
 10
610.799864012833
 20
2249.676168924998
 10
612.8013202759668
 20
2253.023256029687
  0
LWPOLYLINE
  5
FF
330
87
100
AcDbEntity
  8
P-SANR-FIXT
100
AcDbPolyline
 90
       17
 70
   128
 43
0.0
 10
818.5314946104394
 20
2253.023256029686
 10
822.8896257921427
 20
2245.549872019956
 10
826.9454152830727
 20
2237.90818715606
 10
830.6923746852334
 20
2230.110426503642
 10
834.1245096628895
 20
2222.169064816314
 10
837.2363295322271
 20
2214.096806578706
 10
840.0228560452744
 20
2205.90656568201
 10
842.479631354038
 20
2197.611444764501
 10
844.6027251421076
 20
2189.224714250118
 10
846.3887409123252
 20
2180.759791118608
 10
847.8348214204549
 20
2172.230217441229
 10
848.938653246164
 20
2163.649638716319
 10
849.6984704940032
 20
2155.031782039412
 10
850.1130576184618
 20
2146.390434142812
 10
850.1817513685807
 20
2137.739419339766
 10
849.9044418490141
 20
2129.092577408506
 10
849.6664074432031
 20
2125.199999999995
  0
LWPOLYLINE
  5
100
330
87
100
AcDbEntity
  8
P-SANR-FIXT
100
AcDbPolyline
 90
       27
 70
   128
 43
0.0
 10
612.8013202759676
 20
2253.023256029688
 10
613.3391813224433
 20
2253.866210458149
 10
613.9103213237944
 20
2254.686981907844
 10
614.5138265778554
 20
2255.484257319542
 10
615.1487316049607
 20
2256.25676122266
 10
615.8140206925063
 20
2257.003257775747
 10
616.5086295198728
 20
2257.722552743561
 10
617.2314468611117
 20
2258.413495407594
 10
617.9813163626699
 20
2259.074980406979
 10
618.7570383933084
 20
2259.705949506825
 10
619.5573719632569
 20
2260.30539329117
 10
620.3810367095321
 20
2260.872352777837
 10
621.2267149442458
 20
2261.40592095259
 10
622.0930537626241
 20
2261.905244220171
 10
622.9786672073666
 20
2262.369523769871
 10
623.8821384858829
 20
2262.798016853448
 10
624.8020222368572
 20
2263.190037973378
 10
625.7368468425195
 20
2263.544959979494
 10
626.6851167829194
 20
2263.8622150723
 10
627.6453150284391
 20
2264.141295711326
 10
628.615905466717
 20
2264.381755427081
 10
629.5953353601
 20
2264.583209535317
 10
630.582037829693
 20
2264.745335752434
 10
631.5744343620296
 20
2264.867874711071
 10
632.5709373343581
 20
2264.950630375034
 10
633.5699525544989
 20
2264.993470352914
 10
634.1413015876996
 20
2264.999999999995
  0
LWPOLYLINE
  5
101
330
87
100
AcDbEntity
  8
P-SANR-FIXT
100
AcDbPolyline
 90
       27
 70
   128
 43
0.0
 10
797.1915132987065
 20
2264.999999999995
 10
798.1912466533724
 20
2264.980002666519
 10
799.1893806479359
 20
2264.920042657561
 10
800.1843184809295
 20
2264.820215896341
 10
801.1744684640627
 20
2264.680682084385
 10
802.1582465685831
 20
2264.501664446026
 10
803.134078959385
 20
2264.283449371295
 10
804.1004045128095
 20
2264.026385957764
 10
805.0556773141094
 20
2263.730885452056
 10
805.998369130584
 20
2263.397420591943
 10
806.926971856423
 20
2263.026524850067
 10
807.8399999253566
 20
2262.618791580494
 10
808.7359926872437
 20
2262.174873069477
 10
809.6135167448
 20
2261.695479491936
 10
810.4711682467288
 20
2261.18137777533
 10
811.3075751335825
 20
2260.633390372737
 10
812.1213993327664
 20
2260.052393947102
 10
812.9113388991683
 20
2259.439317968768
 10
813.6761300979934
 20
2258.795143228518
 10
814.4145494264703
 20
2258.120900268517
 10
815.1254155711948
 20
2257.417667733674
 10
815.8075912979782
 20
2256.686570646028
 10
816.4599852711807
 20
2255.928778604959
 10
817.0815537996158
 20
2255.145503916081
 10
817.6713025062316
 20
2254.337999651806
 10
818.2282879189042
 20
2253.507557646698
 10
818.5314946104387
 20
2253.023256029687
  0
LWPOLYLINE
  5
102
330
87
100
AcDbEntity
  8
P-SANR-FIXT
100
AcDbPolyline
 90
        4
 70
   128
 43
0.0
 10
634.1413015876996
 20
2264.999999999995
 10
634.2065129768366
 20
2264.999999999995
 10
634.4020428199357
 20
2264.999999999995
 10
634.7275783109587
 20
2264.999999999995
  0
LWPOLYLINE
  5
103
330
87
100
AcDbEntity
  8
P-SANR-FIXT
100
AcDbPolyline
 90
        5
 70
   128
 43
0.0
 10
796.588284242298
 20
2264.999999999995
 10
796.7711619742853
 20
2264.999999999995
 10
797.0369231180371
 20
2264.999999999995
 10
797.172508794827
 20
2264.999999999995
 10
797.1915132987068
 20
2264.999999999995
  0
LWPOLYLINE
  5
104
330
87
100
AcDbEntity
  8
P-SANR-FIXT
100
AcDbPolyline
 90
       12
 70
   128
 43
0.0
 10
617.8590827709712
 20
1520.578300471681
 10
611.2057881678198
 20
1536.801325851
 10
605.2065634741161
 20
1553.277435361708
 10
599.8710061696034
 20
1569.980270743301
 10
595.2076520077773
 20
1586.883111022253
 10
591.2239613605012
 20
1603.958915259863
 10
587.926307283002
 20
1621.180365811994
 10
585.3199653183414
 20
1638.519912031478
 10
583.409105057673
 20
1655.949814343269
 10
582.1967834697856
 20
1673.442188621848
 10
581.684940010605
 20
1690.969050799878
 10
581.6664074432017
 20
1695.000000000016
  0
LWPOLYLINE
  5
105
330
87
100
AcDbEntity
  8
P-SANR-FIXT
100
AcDbPolyline
 90
       12
 70
   128
 43
0.0
 10
849.6664074432029
 20
1695.000000000015
 10
849.3157441345985
 20
1677.469172387539
 10
848.2643151952755
 20
1659.966390359532
 10
846.5138026872436
 20
1642.519654633512
 10
844.0670070570927
 20
1625.156876264868
 10
840.9278426558767
 20
1607.905831995129
 10
837.1013314769841
 20
1590.794119815099
 10
832.5935951220225
 20
1573.849114813963
 10
827.4118450075604
 20
1557.097925384981
 10
821.5643708284007
 20
1540.567349857843
 10
815.0605272958344
 20
1524.283833627057
 10
813.4737321154329
 20
1520.57830047168
  0
LINE
  5
106
330
87
100
AcDbEntity
  8
P-SANR-FIXT
100
AcDbLine
 10
799.6167994564663
 20
1514.999999999993
 30
0.0
 11
736.6664074432029
 21
1514.999999999993
 31
0.0
  0
LINE
  5
107
330
87
100
AcDbEntity
  8
P-SANR-FIXT
100
AcDbLine
 10
694.6664074431997
 20
1514.999999999993
 30
0.0
 11
631.7160154299349
 21
1514.999999999993
 31
0.0
  0
ARC
  5
108
330
87
100
AcDbEntity
  8
P-SANR-FIXT
100
AcDbCircle
 10
631.7160154299348
 20
1534.999999999994
 30
0.0
 40
19.99999999999976
100
AcDbArc
 50
226.1441308978982
 51
269.9999999999998
  0
ARC
  5
109
330
87
100
AcDbEntity
  8
P-SANR-FIXT
100
AcDbCircle
 10
799.6167994564664
 20
1534.999999999993
 30
0.0
 40
19.99999999999993
100
AcDbArc
 50
269.9999999999997
 51
313.8558691021021
  0
LINE
  5
10A
330
87
100
AcDbEntity
  8
P-SANR-FIXT
100
AcDbLine
 10
849.6664074432013
 20
1929.999999999993
 30
0.0
 11
849.6664074432009
 21
1795.197831636279
 31
0.0
  0
LINE
  5
10B
330
87
100
AcDbEntity
  8
P-SANR-FIXT
100
AcDbLine
 10
849.6664074432008
 20
1734.794684400965
 30
0.0
 11
849.6664074432008
 21
1695.000000000015
 31
0.0
  0
LINE
  5
10C
330
87
100
AcDbEntity
  8
P-SANR-FIXT
100
AcDbLine
 10
581.6664074432011
 20
1695.000000000015
 30
0.0
 11
581.6664074432011
 21
1734.794683995148
 31
0.0
  0
LINE
  5
10D
330
87
100
AcDbEntity
  8
P-SANR-FIXT
100
AcDbLine
 10
581.6664074432012
 20
1795.205315599024
 30
0.0
 11
581.6664074432013
 21
1929.999999999993
 31
0.0
  0
LINE
  5
10E
330
87
100
AcDbEntity
  8
P-SANR-FIXT
100
AcDbLine
 10
581.6664074432013
 20
1929.999999999993
 30
0.0
 11
581.6664074432016
 21
2064.794683995148
 31
0.0
  0
LINE
  5
10F
330
87
100
AcDbEntity
  8
P-SANR-FIXT
100
AcDbLine
 10
849.6664074432013
 20
2064.794684400965
 30
0.0
 11
849.6664074432013
 21
1929.999999999993
 31
0.0
  0
ARC
  5
110
330
87
100
AcDbEntity
  8
P-SANR-FIXT
100
AcDbCircle
 10
797.431942984021
 20
2140.347811973584
 30
0.0
 40
216.2966077746108
100
AcDbArc
 50
175.9841408329011
 51
184.0158591670982
  0
ARC
  5
111
330
87
100
AcDbEntity
  8
P-SANR-FIXT
100
AcDbCircle
 10
797.431942984021
 20
2140.347811973584
 30
0.0
 40
216.2966077746108
100
AcDbArc
 50
148.6053290562739
 51
175.9841408329011
  0
ARC
  5
112
330
87
100
AcDbEntity
  8
P-SANR-FIXT
100
AcDbCircle
 10
633.9008719023824
 20
2140.347811973585
 30
0.0
 40
216.2966077746108
100
AcDbArc
 50
355.9841408329013
 51
31.39467094372637
  0
ARC
  5
113
330
87
100
AcDbEntity
  8
P-SANR-FIXT
100
AcDbCircle
 10
634.1413015876985
 20
2239.999999999994
 30
0.0
 40
25.0
100
AcDbArc
 50
90.0
 51
148.6053290562707
  0
ARC
  5
114
330
87
100
AcDbEntity
  8
P-SANR-FIXT
100
AcDbCircle
 10
797.191513298705
 20
2239.999999999994
 30
0.0
 40
24.99999999999994
100
AcDbArc
 50
31.39467094372929
 51
90.00000000000014
  0
LINE
  5
115
330
87
100
AcDbEntity
  8
P-SANR-FIXT
100
AcDbLine
 10
634.1413015876985
 20
2264.999999999994
 30
0.0
 11
702.466407443201
 21
2264.999999999994
 31
0.0
  0
LINE
  5
116
330
87
100
AcDbEntity
  8
P-SANR-FIXT
100
AcDbLine
 10
728.8664074432018
 20
2264.999999999994
 30
0.0
 11
797.191513298705
 21
2264.999999999994
 31
0.0
  0
ARC
  5
117
330
87
100
AcDbEntity
  8
P-SANR-FIXT
100
AcDbCircle
 10
1020.053991759015
 20
1695.000000000018
 30
0.0
 40
438.387584315815
100
AcDbArc
 50
179.9999999999999
 51
203.4451507017501
  0
ARC
  5
118
330
87
100
AcDbEntity
  8
P-SANR-FIXT
100
AcDbCircle
 10
411.2788231273866
 20
1695.000000000019
 30
0.0
 40
438.3875843158143
100
AcDbArc
 50
336.5548492982494
 51
359.9999999999996
  0
LINE
  5
119
330
87
100
AcDbEntity
  8
P-SANR-FIXT
100
AcDbLine
 10
856.1664074431995
 20
1829.700000000019
 30
0.0
 11
856.1664074431995
 21
1825.200000000019
 31
0.0
  0
LINE
  5
11A
330
87
100
AcDbEntity
  8
P-SANR-FIXT
100
AcDbLine
 10
881.1664074432073
 20
1825.200000000019
 30
0.0
 11
881.1664074432073
 21
1829.700000000019
 31
0.0
  0
LINE
  5
11B
330
87
100
AcDbEntity
  8
P-SANR-FIXT
100
AcDbLine
 10
856.1664074431991
 20
2159.700000000019
 30
0.0
 11
856.1664074431991
 21
2155.20000000002
 31
0.0
  0
LINE
  5
11C
330
87
100
AcDbEntity
  8
P-SANR-FIXT
100
AcDbLine
 10
881.1664074432066
 20
2155.20000000002
 30
0.0
 11
881.1664074432066
 21
2159.700000000019
 31
0.0
  0
LINE
  5
11D
330
87
100
AcDbEntity
  8
P-SANR-FIXT
100
AcDbLine
 10
859.6664074432094
 20
1834.000000000017
 30
0.0
 11
860.3914902255475
 21
1834.000000000017
 31
0.0
  0
LINE
  5
11E
330
87
100
AcDbEntity
  8
P-SANR-FIXT
100
AcDbLine
 10
860.3914902255477
 20
1834.000000000017
 30
0.0
 11
867.941324660863
 21
1834.000000000017
 31
0.0
  0
LINE
  5
11F
330
87
100
AcDbEntity
  8
P-SANR-FIXT
100
AcDbLine
 10
867.941324660863
 20
1834.000000000017
 30
0.0
 11
869.3914902255391
 21
1834.000000000017
 31
0.0
  0
LINE
  5
120
330
87
100
AcDbEntity
  8
P-SANR-FIXT
100
AcDbLine
 10
869.3914902255391
 20
1834.000000000017
 30
0.0
 11
876.941324660855
 21
1834.000000000017
 31
0.0
  0
LINE
  5
121
330
87
100
AcDbEntity
  8
P-SANR-FIXT
100
AcDbLine
 10
876.941324660855
 20
1834.000000000017
 30
0.0
 11
877.6664074431931
 21
1834.000000000017
 31
0.0
  0
LINE
  5
122
330
87
100
AcDbEntity
  8
P-SANR-FIXT
100
AcDbLine
 10
859.6664074432094
 20
1829.700000000016
 30
0.0
 11
859.6664074432094
 21
1834.000000000017
 31
0.0
  0
LINE
  5
123
330
87
100
AcDbEntity
  8
P-SANR-FIXT
100
AcDbLine
 10
860.3914902255477
 20
1829.700000000016
 30
0.0
 11
860.3914902255477
 21
1834.000000000017
 31
0.0
  0
LINE
  5
124
330
87
100
AcDbEntity
  8
P-SANR-FIXT
100
AcDbLine
 10
867.941324660863
 20
1829.700000000016
 30
0.0
 11
867.941324660863
 21
1834.000000000017
 31
0.0
  0
LINE
  5
125
330
87
100
AcDbEntity
  8
P-SANR-FIXT
100
AcDbLine
 10
869.3914902255391
 20
1829.700000000016
 30
0.0
 11
869.3914902255391
 21
1834.000000000017
 31
0.0
  0
LINE
  5
126
330
87
100
AcDbEntity
  8
P-SANR-FIXT
100
AcDbLine
 10
876.941324660855
 20
1829.700000000016
 30
0.0
 11
876.941324660855
 21
1834.000000000017
 31
0.0
  0
LINE
  5
127
330
87
100
AcDbEntity
  8
P-SANR-FIXT
100
AcDbLine
 10
877.6664074431931
 20
1829.700000000016
 30
0.0
 11
877.6664074431931
 21
1834.000000000017
 31
0.0
  0
LINE
  5
128
330
87
100
AcDbEntity
  8
P-SANR-FIXT
100
AcDbLine
 10
881.1664074432057
 20
1829.700000000018
 30
0.0
 11
856.1664074431979
 21
1829.700000000018
 31
0.0
  0
LINE
  5
129
330
87
100
AcDbEntity
  8
P-SANR-FIXT
100
AcDbLine
 10
859.6664074432094
 20
2164.000000000017
 30
0.0
 11
860.3914902255477
 21
2164.000000000017
 31
0.0
  0
LINE
  5
12A
330
87
100
AcDbEntity
  8
P-SANR-FIXT
100
AcDbLine
 10
860.3914902255477
 20
2164.000000000017
 30
0.0
 11
867.941324660863
 21
2164.000000000017
 31
0.0
  0
LINE
  5
12B
330
87
100
AcDbEntity
  8
P-SANR-FIXT
100
AcDbLine
 10
867.941324660863
 20
2164.000000000017
 30
0.0
 11
869.3914902255391
 21
2164.000000000017
 31
0.0
  0
LINE
  5
12C
330
87
100
AcDbEntity
  8
P-SANR-FIXT
100
AcDbLine
 10
869.3914902255391
 20
2164.000000000017
 30
0.0
 11
876.941324660855
 21
2164.000000000017
 31
0.0
  0
LINE
  5
12D
330
87
100
AcDbEntity
  8
P-SANR-FIXT
100
AcDbLine
 10
876.941324660855
 20
2164.000000000017
 30
0.0
 11
877.6664074431931
 21
2164.000000000017
 31
0.0
  0
LINE
  5
12E
330
87
100
AcDbEntity
  8
P-SANR-FIXT
100
AcDbLine
 10
859.6664074432094
 20
2159.700000000017
 30
0.0
 11
859.6664074432094
 21
2164.000000000017
 31
0.0
  0
LINE
  5
12F
330
87
100
AcDbEntity
  8
P-SANR-FIXT
100
AcDbLine
 10
860.3914902255477
 20
2159.700000000017
 30
0.0
 11
860.3914902255477
 21
2164.000000000017
 31
0.0
  0
LINE
  5
130
330
87
100
AcDbEntity
  8
P-SANR-FIXT
100
AcDbLine
 10
867.941324660863
 20
2159.700000000017
 30
0.0
 11
867.941324660863
 21
2164.000000000017
 31
0.0
  0
LINE
  5
131
330
87
100
AcDbEntity
  8
P-SANR-FIXT
100
AcDbLine
 10
869.3914902255391
 20
2159.700000000017
 30
0.0
 11
869.3914902255391
 21
2164.000000000017
 31
0.0
  0
LINE
  5
132
330
87
100
AcDbEntity
  8
P-SANR-FIXT
100
AcDbLine
 10
876.941324660855
 20
2159.700000000017
 30
0.0
 11
876.941324660855
 21
2164.000000000017
 31
0.0
  0
LINE
  5
133
330
87
100
AcDbEntity
  8
P-SANR-FIXT
100
AcDbLine
 10
877.6664074431931
 20
2159.700000000017
 30
0.0
 11
877.6664074431931
 21
2164.000000000017
 31
0.0
  0
LINE
  5
134
330
87
100
AcDbEntity
  8
P-SANR-FIXT
100
AcDbLine
 10
881.1664074432052
 20
2159.700000000019
 30
0.0
 11
856.1664074431973
 21
2159.700000000019
 31
0.0
  0
LINE
  5
135
330
87
100
AcDbEntity
  8
P-SANR-FIXT
100
AcDbLine
 10
799.6664074432028
 20
1603.999999999994
 30
0.0
 11
799.6664074432028
 21
1734.799999999996
 31
0.0
  0
LINE
  5
136
330
87
100
AcDbEntity
  8
P-SANR-FIXT
100
AcDbLine
 10
799.6664074432028
 20
1795.199999999993
 30
0.0
 11
799.6664074432028
 21
2064.799999999996
 31
0.0
  0
LINE
  5
137
330
87
100
AcDbEntity
  8
P-SANR-FIXT
100
AcDbLine
 10
799.6664074432028
 20
2125.199999999994
 30
0.0
 11
799.6664074432028
 21
2176.999999999995
 31
0.0
  0
LINE
  5
138
330
87
100
AcDbEntity
  8
P-SANR-FIXT
100
AcDbLine
 10
631.6664074432027
 20
2176.999999999995
 30
0.0
 11
631.6664074432027
 21
2125.199999999995
 31
0.0
  0
LINE
  5
139
330
87
100
AcDbEntity
  8
P-SANR-FIXT
100
AcDbLine
 10
631.6664074432027
 20
2064.799999999995
 30
0.0
 11
631.6664074432027
 21
1795.199999999995
 31
0.0
  0
LINE
  5
13A
330
87
100
AcDbEntity
  8
P-SANR-FIXT
100
AcDbLine
 10
631.6664074432027
 20
1734.799999999994
 30
0.0
 11
631.6664074432027
 21
1603.999999999994
 31
0.0
  0
LWPOLYLINE
  5
13B
330
87
100
AcDbEntity
  8
P-SANR-FIXT
100
AcDbPolyline
 90
       80
 70
   128
 43
0.0
 10
671.6664074432024
 20
1563.999999999994
 10
671.7016027501196
 20
1563.999999999994
 10
671.8071323658874
 20
1563.999999999994
 10
671.9828274656324
 20
1563.999999999994
 10
672.2284069746751
 20
1563.999999999994
 10
672.5434780181879
 20
1563.999999999994
 10
672.9275365497133
 20
1563.999999999994
 10
673.3799681575288
 20
1563.999999999994
 10
673.9000490475752
 20
1563.999999999994
 10
674.4869472013736
 20
1563.999999999994
 10
675.1397237070757
 20
1563.999999999994
 10
675.8573342615243
 20
1563.999999999994
 10
676.6386308409143
 20
1563.999999999994
 10
677.482363537386
 20
1563.999999999994
 10
678.3871825586124
 20
1563.999999999994
 10
679.3516403871769
 20
1563.999999999994
 10
680.3741940962939
 20
1563.999999999994
 10
681.4532078181619
 20
1563.999999999994
 10
682.5869553610033
 20
1563.999999999994
 10
683.7736229706028
 20
1563.999999999994
 10
685.0113122319275
 20
1563.999999999994
 10
686.2980431061852
 20
1563.999999999994
 10
687.6317570984653
 20
1563.999999999994
 10
689.0103205508902
 20
1563.999999999994
 10
690.4315280560146
 20
1563.999999999994
 10
691.8931059850045
 20
1563.999999999994
 10
693.3927161249604
 20
1563.999999999994
 10
694.927959419558
 20
1563.999999999994
 10
696.4963798070274
 20
1563.999999999994
 10
698.0954681493268
 20
1563.999999999994
 10
699.7226662462293
 20
1563.999999999994
 10
701.3753709278967
 20
1563.999999999994
 10
703.0509382193967
 20
1563.999999999994
 10
704.7466875704984
 20
1563.999999999994
 10
706.4599061439803
 20
1563.999999999994
 10
708.1878531555921
 20
1563.999999999994
 10
709.9277642587245
 20
1563.999999999994
 10
711.6768559667733
 20
1563.999999999994
 10
713.4323301061255
 20
1563.999999999994
 10
715.1913782926391
 20
1563.999999999994
 10
716.9511864244597
 20
1563.999999999994
 10
718.7089391839816
 20
1563.999999999994
 10
720.4618245417572
 20
1563.999999999994
 10
722.2070382551429
 20
1563.999999999994
 10
723.9417883544896
 20
1563.999999999994
 10
725.6632996096986
 20
1563.999999999994
 10
727.3688179699981
 20
1563.999999999994
 10
729.0556149698355
 20
1563.999999999994
 10
730.7209920938425
 20
1563.999999999994
 10
732.3622850938817
 20
1563.999999999994
 10
733.9768682512771
 20
1563.999999999994
 10
735.5621585774031
 20
1563.999999999994
 10
737.1156199459147
 20
1563.999999999994
 10
738.63476715001
 20
1563.999999999994
 10
740.1171698782299
 20
1563.999999999994
 10
741.5604566024382
 20
1563.999999999994
 10
742.9623183717608
 20
1563.999999999994
 10
744.320512506415
 20
1563.999999999994
 10
745.6328661855176
 20
1563.999999999994
 10
746.8972799231362
 20
1563.999999999994
 10
748.1117309270177
 20
1563.999999999994
 10
749.2742763346251
 20
1563.999999999994
 10
750.3830563213023
 20
1563.999999999994
 10
751.4362970755982
 20
1563.999999999994
 10
752.4323136369848
 20
1563.999999999994
 10
753.3695125914365
 20
1563.999999999994
 10
754.2463946205513
 20
1563.999999999994
 10
755.0615569001404
 20
1563.999999999994
 10
755.8136953444489
 20
1563.999999999994
 10
756.5016066924136
 20
1563.999999999994
 10
757.1241904326239
 20
1563.999999999994
 10
757.6804505639064
 20
1563.999999999994
 10
758.1694971887137
 20
1563.999999999994
 10
758.5905479367705
 20
1563.999999999994
 10
758.9429292166991
 20
1563.999999999994
 10
759.2260772936224
 20
1563.999999999994
 10
759.439539191019
 20
1563.999999999994
 10
759.5829734153892
 20
1563.999999999994
 10
759.6561505025718
 20
1563.999999999994
 10
759.6664074432029
 20
1563.999999999994
  0
LINE
  5
13C
330
87
100
AcDbEntity
  8
P-SANR-FIXT
100
AcDbLine
 10
736.6664074432043
 20
1505.999999999996
 30
0.0
 11
736.6664074432043
 21
1563.999999999994
 31
0.0
  0
LINE
  5
13D
330
87
100
AcDbEntity
  8
P-SANR-FIXT
100
AcDbLine
 10
694.6664074432011
 20
1563.999999999994
 30
0.0
 11
694.6664074432011
 21
1505.999999999996
 31
0.0
  0
LINE
  5
13E
330
87
100
AcDbEntity
  8
P-SANR-FIXT
100
AcDbLine
 10
728.8664074432031
 20
2216.999999999995
 30
0.0
 11
728.8664074432031
 21
2279.999999999995
 31
0.0
  0
LINE
  5
13F
330
87
100
AcDbEntity
  8
P-SANR-FIXT
100
AcDbLine
 10
702.4664074432023
 20
2279.999999999995
 30
0.0
 11
702.4664074432023
 21
2216.999999999995
 31
0.0
  0
LINE
  5
140
330
87
100
AcDbEntity
  8
P-SANR-FIXT
100
AcDbLine
 10
945.666407443203
 20
2177.499999999995
 30
0.0
 11
929.666407443203
 21
2177.499999999995
 31
0.0
  0
LINE
  5
141
330
87
100
AcDbEntity
  8
P-SANR-FIXT
100
AcDbLine
 10
929.666407443203
 20
2012.499999999995
 30
0.0
 11
945.666407443203
 21
2012.499999999995
 31
0.0
  0
LINE
  5
142
330
87
100
AcDbEntity
  8
P-SANR-FIXT
100
AcDbLine
 10
929.666407443203
 20
2125.199999999994
 30
0.0
 11
881.6072222388536
 21
2125.199999999994
 31
0.0
  0
LINE
  5
143
330
87
100
AcDbEntity
  8
P-SANR-FIXT
100
AcDbLine
 10
855.7255926475519
 20
2125.199999999994
 30
0.0
 11
799.6664074432028
 21
2125.199999999994
 31
0.0
  0
LINE
  5
144
330
87
100
AcDbEntity
  8
P-SANR-FIXT
100
AcDbLine
 10
799.6664074432028
 20
2064.799999999996
 30
0.0
 11
929.666407443203
 21
2064.799999999996
 31
0.0
  0
LWPOLYLINE
  5
145
330
87
100
AcDbEntity
  8
P-SANR-FIXT
100
AcDbPolyline
 90
       41
 70
   128
 43
0.0
 10
671.666407443203
 20
1563.999999999994
 10
670.0668340757378
 20
1564.031995733555
 10
668.469819684436
 20
1564.127931747889
 10
666.8779191516462
 20
1564.287654565839
 10
665.2936791786332
 20
1564.510908664969
 10
663.7196342114005
 20
1564.797336886344
 10
662.1583023861176
 20
1565.146481005912
 10
660.6121815006384
 20
1565.557782467563
 10
659.0837450185582
 20
1566.030583276696
 10
657.5754381121994
 20
1566.564127052877
 10
656.0896737508571
 20
1567.157560239879
 10
654.6288288405629
 20
1567.809933471195
 10
653.1952404215436
 20
1568.520203088822
 10
651.7912019294534
 20
1569.287232812888
 10
650.4189595263676
 20
1570.109795559458
 10
649.0807085074014
 20
1570.986575403607
 10
647.7785897887073
 20
1571.916169684622
 10
646.5146864824641
 20
1572.897091249957
 10
645.2910205643441
 20
1573.927770834358
 10
644.1095496387807
 20
1575.006559570358
 10
642.972163807222
 20
1576.131731626107
 10
641.8806826443685
 20
1577.301486966342
 10
640.8368522872442
 20
1578.51395423205
 10
639.8423426417481
 20
1579.767193734255
 10
638.8987447111629
 20
1581.059200557096
 10
638.007568050887
 20
1582.387907765268
 10
637.1702383534692
 20
1583.751189710683
 10
636.388095167805
 20
1585.146865433044
 10
635.6623897561425
 20
1586.572702148925
 10
634.9942830923322
 20
1588.026418823743
 10
634.3848440045137
 20
1589.505689820927
 10
633.8350474652212
 20
1591.008148622443
 10
633.3457730316337
 20
1592.531391614716
 10
632.9178034384721
 20
1594.072981933899
 10
632.5518233457901
 20
1595.630453364337
 10
632.2484182436643
 20
1597.201314283984
 10
632.0080735155352
 20
1598.783051650468
 10
631.8311736616972
 20
1600.373135021421
 10
631.7180016841794
 20
1601.969020602651
 10
631.6687386340039
 20
1603.568155317663
 10
631.6664074432027
 20
1603.999999999994
  0
LWPOLYLINE
  5
146
330
87
100
AcDbEntity
  8
P-SANR-FIXT
100
AcDbPolyline
 90
       41
 70
   128
 43
0.0
 10
799.6664074432028
 20
1603.999999999994
 10
799.634411709642
 20
1602.400426632529
 10
799.5384756953074
 20
1600.803412241227
 10
799.3787528773573
 20
1599.211511708437
 10
799.1554987782279
 20
1597.627271735424
 10
798.8690705568524
 20
1596.053226768192
 10
798.519926437284
 20
1594.491894942908
 10
798.1086249756336
 20
1592.945774057429
 10
797.6358241665003
 20
1591.417337575349
 10
797.10228039032
 20
1589.90903066899
 10
796.5088472033182
 20
1588.423266307648
 10
795.8564739720011
 20
1586.962421397354
 10
795.146204354374
 20
1585.528832978334
 10
794.3791746303086
 20
1584.124794486245
 10
793.5566118837392
 20
1582.752552083159
 10
792.6798320395898
 20
1581.414301064192
 10
791.7502377585743
 20
1580.112182345498
 10
790.7693161932398
 20
1578.848279039255
 10
789.7386366088385
 20
1577.624613121135
 10
788.6598478728388
 20
1576.443142195572
 10
787.5346758170893
 20
1575.305756364013
 10
786.364920476855
 20
1574.21427520116
 10
785.1524532111458
 20
1573.170444844035
 10
783.8992137089412
 20
1572.175935198539
 10
782.6072068861009
 20
1571.232337267954
 10
781.2784996779281
 20
1570.341160607678
 10
779.9152177325137
 20
1569.503830910261
 10
778.5195420101522
 20
1568.721687724596
 10
777.0937052942711
 20
1567.995982312934
 10
775.6399886194535
 20
1567.327875649123
 10
774.1607176222695
 20
1566.718436561305
 10
772.6582588207535
 20
1566.168640022012
 10
771.1350158284807
 20
1565.679365588425
 10
769.5934255092975
 20
1565.251395995263
 10
768.0359540788592
 20
1564.885415902582
 10
766.465093159212
 20
1564.582010800456
 10
764.8833557927282
 20
1564.341666072327
 10
763.2932724217747
 20
1564.164766218488
 10
761.6973868405456
 20
1564.051594240971
 10
760.0982521255332
 20
1564.002331190795
 10
759.6664074432023
 20
1563.999999999994
  0
LWPOLYLINE
  5
147
330
87
100
AcDbEntity
  8
P-SANR-FIXT
100
AcDbPolyline
 90
        5
 70
   128
 43
0.0
 10
759.6664074432029
 20
1563.999999999994
 10
759.6312121362859
 20
1563.999999999994
 10
759.5256825205182
 20
1563.999999999994
 10
759.3499874207729
 20
1563.999999999994
 10
759.2831858356354
 20
1563.999999999994
  0
LWPOLYLINE
  5
148
330
87
100
AcDbEntity
  8
P-SANR-FIXT
100
AcDbPolyline
 90
        5
 70
   128
 43
0.0
 10
672.0512753738786
 20
1563.999999999994
 10
671.8932756953862
 20
1563.999999999994
 10
671.7498414710162
 20
1563.999999999994
 10
671.6766643838337
 20
1563.999999999994
 10
671.6664074432024
 20
1563.999999999994
  0
LWPOLYLINE
  5
149
330
87
100
AcDbEntity
  8
P-SANR-FIXT
100
AcDbPolyline
 90
       41
 70
   128
 43
0.0
 10
631.6664074432027
 20
2176.999999999995
 10
631.6984031767636
 20
2178.59957336746
 10
631.7943391910979
 20
2180.196587758762
 10
631.954062009048
 20
2181.788488291552
 10
632.1773161081775
 20
2183.372728264565
 10
632.463744329553
 20
2184.946773231798
 10
632.8128884491214
 20
2186.508105057081
 10
633.2241899107718
 20
2188.054225942559
 10
633.696990719905
 20
2189.58266242464
 10
634.2305344960851
 20
2191.090969330999
 10
634.8239676830872
 20
2192.576733692341
 10
635.4763409144041
 20
2194.037578602635
 10
636.1866105320313
 20
2195.471167021654
 10
636.9536402560965
 20
2196.875205513745
 10
637.776203002666
 20
2198.247447916831
 10
638.6529828468155
 20
2199.585698935797
 10
639.5825771278309
 20
2200.887817654491
 10
640.5634986931654
 20
2202.151720960733
 10
641.5941782775667
 20
2203.375386878854
 10
642.6729670135664
 20
2204.556857804417
 10
643.7981390693161
 20
2205.694243635976
 10
644.9678944095504
 20
2206.78572479883
 10
646.1803616752595
 20
2207.829555155953
 10
647.433601177464
 20
2208.82406480145
 10
648.7256080003042
 20
2209.767662732035
 10
650.0543152084771
 20
2210.658839392311
 10
651.4175971538914
 20
2211.496169089729
 10
652.8132728762531
 20
2212.278312275393
 10
654.2391095921342
 20
2213.004017687055
 10
655.6928262669519
 20
2213.672124350866
 10
657.1720972641358
 20
2214.281563438684
 10
658.6745560656516
 20
2214.831359977977
 10
660.1977990579245
 20
2215.320634411564
 10
661.7393893771077
 20
2215.748604004726
 10
663.2968608075458
 20
2216.114584097408
 10
664.867721727193
 20
2216.417989199534
 10
666.449459093677
 20
2216.658333927663
 10
668.0395424646303
 20
2216.835233781501
 10
669.6354280458595
 20
2216.948405759019
 10
671.2345627608718
 20
2216.997668809194
 10
671.6664074432027
 20
2216.999999999995
  0
LWPOLYLINE
  5
14A
330
87
100
AcDbEntity
  8
P-SANR-FIXT
100
AcDbPolyline
 90
       41
 70
   128
 43
0.0
 10
759.6664074432028
 20
2216.999999999995
 10
761.2659808106682
 20
2216.968004266434
 10
762.8629952019697
 20
2216.8720682521
 10
764.4548957347596
 20
2216.71234543415
 10
766.0391357077725
 20
2216.48909133502
 10
767.6131806750053
 20
2216.202663113644
 10
769.1745125002881
 20
2215.853518994077
 10
770.7206333857674
 20
2215.442217532426
 10
772.2490698678475
 20
2214.969416723293
 10
773.7573767742063
 20
2214.435872947112
 10
775.2431411355487
 20
2213.84243976011
 10
776.7039860458428
 20
2213.190066528794
 10
778.137574464862
 20
2212.479796911166
 10
779.5416129569525
 20
2211.712767187101
 10
780.913855360038
 20
2210.890204440532
 10
782.2521063790043
 20
2210.013424596382
 10
783.5542250976986
 20
2209.083830315366
 10
784.8181284039416
 20
2208.102908750032
 10
786.0417943220617
 20
2207.072229165631
 10
787.2232652476248
 20
2205.993440429631
 10
788.3606510791837
 20
2204.868268373882
 10
789.4521322420371
 20
2203.698513033647
 10
790.4959625991615
 20
2202.486045767939
 10
791.4904722446574
 20
2201.232806265734
 10
792.4340701752428
 20
2199.940799442893
 10
793.3252468355187
 20
2198.61209223472
 10
794.1625765329364
 20
2197.248810289306
 10
794.9447197186007
 20
2195.853134566945
 10
795.6704251302631
 20
2194.427297851063
 10
796.3385317940734
 20
2192.973581176246
 10
796.9479708818917
 20
2191.494310179062
 10
797.4977674211844
 20
2189.991851377546
 10
797.9870418547719
 20
2188.468608385273
 10
798.4150114479335
 20
2186.92701806609
 10
798.7809915406155
 20
2185.369546635651
 10
799.0843966427413
 20
2183.798685716005
 10
799.3247413708702
 20
2182.216948349521
 10
799.5016412247085
 20
2180.626864978568
 10
799.6148132022262
 20
2179.030979397338
 10
799.6640762524013
 20
2177.431844682326
 10
799.6664074432028
 20
2176.999999999995
  0
LWPOLYLINE
  5
14B
330
87
100
AcDbEntity
  8
P-SANR-FIXT
100
AcDbPolyline
 90
        5
 70
   128
 43
0.0
 10
671.6664074432024
 20
2216.999999999995
 10
671.7016027501196
 20
2216.999999999995
 10
671.8071323658874
 20
2216.999999999995
 10
671.9828274656324
 20
2216.999999999995
 10
672.0496290507701
 20
2216.999999999995
  0
LWPOLYLINE
  5
14C
330
87
100
AcDbEntity
  8
P-SANR-FIXT
100
AcDbPolyline
 90
        5
 70
   128
 43
0.0
 10
759.2815395125269
 20
2216.999999999995
 10
759.439539191019
 20
2216.999999999995
 10
759.5829734153892
 20
2216.999999999995
 10
759.6561505025718
 20
2216.999999999995
 10
759.6664074432029
 20
2216.999999999995
  0
LWPOLYLINE
  5
14D
330
87
100
AcDbEntity
  8
P-SANR-FIXT
100
AcDbPolyline
 90
       80
 70
   128
 43
0.0
 10
759.6664074432029
 20
2216.999999999995
 10
759.6312121362859
 20
2216.999999999995
 10
759.5256825205182
 20
2216.999999999995
 10
759.3499874207729
 20
2216.999999999995
 10
759.1044079117304
 20
2216.999999999995
 10
758.7893368682175
 20
2216.999999999995
 10
758.4052783366921
 20
2216.999999999995
 10
757.9528467288767
 20
2216.999999999995
 10
757.4327658388303
 20
2216.999999999995
 10
756.8458676850318
 20
2216.999999999995
 10
756.1930911793297
 20
2216.999999999995
 10
755.4754806248812
 20
2216.999999999995
 10
754.6941840454913
 20
2216.999999999995
 10
753.8504513490193
 20
2216.999999999995
 10
752.9456323277932
 20
2216.999999999995
 10
751.9811744992287
 20
2216.999999999995
 10
750.9586207901115
 20
2216.999999999995
 10
749.8796070682435
 20
2216.999999999995
 10
748.745859525402
 20
2216.999999999995
 10
747.5591919158026
 20
2216.999999999995
 10
746.321502654478
 20
2216.999999999995
 10
745.0347717802203
 20
2216.999999999995
 10
743.7010577879403
 20
2216.999999999995
 10
742.3224943355148
 20
2216.999999999995
 10
740.9012868303908
 20
2216.999999999995
 10
739.439708901401
 20
2216.999999999995
 10
737.940098761445
 20
2216.999999999995
 10
736.4048554668472
 20
2216.999999999995
 10
734.8364350793781
 20
2216.999999999995
 10
733.2373467370788
 20
2216.999999999995
 10
731.6101486401763
 20
2216.999999999995
 10
729.9574439585089
 20
2216.999999999995
 10
728.2818766670088
 20
2216.999999999995
 10
726.5861273159072
 20
2216.999999999995
 10
724.8729087424251
 20
2216.999999999995
 10
723.1449617308132
 20
2216.999999999995
 10
721.405050627681
 20
2216.999999999995
 10
719.6559589196322
 20
2216.999999999995
 10
717.9004847802802
 20
2216.999999999995
 10
716.1414365937664
 20
2216.999999999995
 10
714.3816284619459
 20
2216.999999999995
 10
712.623875702424
 20
2216.999999999995
 10
710.8709903446484
 20
2216.999999999995
 10
709.1257766312627
 20
2216.999999999995
 10
707.3910265319158
 20
2216.999999999995
 10
705.6695152767067
 20
2216.999999999995
 10
703.9639969164073
 20
2216.999999999995
 10
702.2771999165698
 20
2216.999999999995
 10
700.611822792563
 20
2216.999999999995
 10
698.9705297925238
 20
2216.999999999995
 10
697.3559466351283
 20
2216.999999999995
 10
695.7706563090026
 20
2216.999999999995
 10
694.2171949404906
 20
2216.999999999995
 10
692.6980477363955
 20
2216.999999999995
 10
691.2156450081757
 20
2216.999999999995
 10
689.7723582839674
 20
2216.999999999995
 10
688.3704965146446
 20
2216.999999999995
 10
687.0123023799906
 20
2216.999999999995
 10
685.6999487008879
 20
2216.999999999995
 10
684.4355349632692
 20
2216.999999999995
 10
683.2210839593878
 20
2216.999999999995
 10
682.0585385517804
 20
2216.999999999995
 10
680.9497585651032
 20
2216.999999999995
 10
679.8965178108074
 20
2216.999999999995
 10
678.9005012494206
 20
2216.999999999995
 10
677.9633022949688
 20
2216.999999999995
 10
677.0864202658542
 20
2216.999999999995
 10
676.2712579862649
 20
2216.999999999995
 10
675.5191195419563
 20
2216.999999999995
 10
674.831208193992
 20
2216.999999999995
 10
674.2086244537814
 20
2216.999999999995
 10
673.652364322499
 20
2216.999999999995
 10
673.1633176976917
 20
2216.999999999995
 10
672.7422669496349
 20
2216.999999999995
 10
672.3898856697062
 20
2216.999999999995
 10
672.1067375927831
 20
2216.999999999995
 10
671.8932756953862
 20
2216.999999999995
 10
671.7498414710162
 20
2216.999999999995
 10
671.6766643838337
 20
2216.999999999995
 10
671.6664074432024
 20
2216.999999999995
  0
LINE
  5
14E
330
87
100
AcDbEntity
  8
P-SANR-FIXT
100
AcDbLine
 10
631.6664074432027
 20
2125.199999999995
 30
0.0
 11
501.6664074432028
 21
2125.199999999995
 31
0.0
  0
LINE
  5
14F
330
87
100
AcDbEntity
  8
P-SANR-FIXT
100
AcDbLine
 10
501.6664074432028
 20
2064.799999999995
 30
0.0
 11
631.6664074432027
 21
2064.799999999995
 31
0.0
  0
LINE
  5
150
330
87
100
AcDbEntity
  8
P-SANR-FIXT
100
AcDbLine
 10
501.6664074432025
 20
2177.499999999995
 30
0.0
 11
485.6664074432026
 21
2177.499999999995
 31
0.0
  0
LINE
  5
151
330
87
100
AcDbEntity
  8
P-SANR-FIXT
100
AcDbLine
 10
485.6664074432026
 20
2012.499999999995
 30
0.0
 11
501.6664074432025
 21
2012.499999999995
 31
0.0
  0
LINE
  5
152
330
87
100
AcDbEntity
  8
P-SANR-FIXT
100
AcDbLine
 10
945.6664074432024
 20
1847.499999999994
 30
0.0
 11
929.6664074432024
 21
1847.499999999994
 31
0.0
  0
LINE
  5
153
330
87
100
AcDbEntity
  8
P-SANR-FIXT
100
AcDbLine
 10
929.6664074432024
 20
1682.499999999994
 30
0.0
 11
945.6664074432024
 21
1682.499999999994
 31
0.0
  0
LINE
  5
154
330
87
100
AcDbEntity
  8
P-SANR-FIXT
100
AcDbLine
 10
929.6664074432024
 20
1795.199999999993
 30
0.0
 11
881.6072222388534
 21
1795.199999999993
 31
0.0
  0
LINE
  5
155
330
87
100
AcDbEntity
  8
P-SANR-FIXT
100
AcDbLine
 10
855.7255926475516
 20
1795.199999999993
 30
0.0
 11
799.6664074432028
 21
1795.199999999993
 31
0.0
  0
LINE
  5
156
330
87
100
AcDbEntity
  8
P-SANR-FIXT
100
AcDbLine
 10
799.6664074432028
 20
1734.799999999996
 30
0.0
 11
929.6664074432024
 21
1734.799999999996
 31
0.0
  0
LINE
  5
157
330
87
100
AcDbEntity
  8
P-SANR-FIXT
100
AcDbLine
 10
631.6664074432027
 20
1795.199999999995
 30
0.0
 11
501.6664074432025
 21
1795.199999999995
 31
0.0
  0
LINE
  5
158
330
87
100
AcDbEntity
  8
P-SANR-FIXT
100
AcDbLine
 10
501.6664074432025
 20
1734.799999999994
 30
0.0
 11
631.6664074432027
 21
1734.799999999994
 31
0.0
  0
LINE
  5
159
330
87
100
AcDbEntity
  8
P-SANR-FIXT
100
AcDbLine
 10
501.6664074432021
 20
1847.499999999994
 30
0.0
 11
485.666407443202
 21
1847.499999999994
 31
0.0
  0
LINE
  5
15A
330
87
100
AcDbEntity
  8
P-SANR-FIXT
100
AcDbLine
 10
485.666407443202
 20
1682.499999999994
 30
0.0
 11
501.6664074432021
 21
1682.499999999994
 31
0.0
  0
LINE
  5
15B
330
87
100
AcDbEntity
  8
P-SANR-FIXT
100
AcDbLine
 10
881.6664074432027
 20
2125.199999999995
 30
0.0
 11
881.6664074432027
 21
2155.199999999995
 31
0.0
  0
LINE
  5
15C
330
87
100
AcDbEntity
  8
P-SANR-FIXT
100
AcDbLine
 10
855.6664074432028
 20
2155.199999999995
 30
0.0
 11
855.6664074432028
 21
2125.199999999995
 31
0.0
  0
LINE
  5
15D
330
87
100
AcDbEntity
  8
P-SANR-FIXT
100
AcDbLine
 10
881.6664074432022
 20
1795.199999999995
 30
0.0
 11
881.6664074432022
 21
1825.199999999994
 31
0.0
  0
LINE
  5
15E
330
87
100
AcDbEntity
  8
P-SANR-FIXT
100
AcDbLine
 10
855.6664074432022
 20
1825.199999999994
 30
0.0
 11
855.6664074432022
 21
1795.199999999995
 31
0.0
  0
SPLINE
  5
15F
330
87
100
AcDbEntity
  8
P-SANR-FIXT
100
AcDbSpline
210
0.0
220
0.0
230
1.0
 70
     8
 71
     3
 72
    31
 73
    27
 74
     0
 42
0.000000001
 43
0.0000000001
 40
0.0
 40
0.0
 40
0.0
 40
0.0
 40
0.0555555555555556
 40
0.1111111111111111
 40
0.1666666666666666
 40
0.1944444444444444
 40
0.2222222222222222
 40
0.25
 40
0.2777777777777778
 40
0.3055555555555556
 40
0.3333333333333333
 40
0.3611111111111111
 40
0.3888888888888888
 40
0.4166666666666666
 40
0.4444444444444445
 40
0.4791666666666666
 40
0.5138888888888889
 40
0.5486111111111111
 40
0.5833333333333333
 40
0.6527777777777777
 40
0.6875
 40
0.7222222222222223
 40
0.7569444444444445
 40
0.7916666666666668
 40
0.861111111111111
 40
1.0
 40
1.0
 40
1.0
 40
1.0
 10
631.6664074432013
 20
2125.199999999995
 30
0.0
 10
631.6664074432013
 20
2125.175939634273
 30
0.0
 10
631.7878879354769
 20
2124.840762891655
 30
0.0
 10
632.2673435837979
 20
2123.511249185533
 30
0.0
 10
632.8877857799145
 20
2121.62831533362
 30
0.0
 10
633.4797790279221
 20
2119.719781362379
 30
0.0
 10
633.943758811301
 20
2118.142999285923
 30
0.0
 10
634.4219603680601
 20
2116.390520614087
 30
0.0
 10
634.9137499561776
 20
2114.443719971365
 30
0.0
 10
635.3953356755647
 20
2112.351144790562
 30
0.0
 10
635.8398705161121
 20
2110.168822931608
 30
0.0
 10
636.2424572869719
 20
2107.855687737623
 30
0.0
 10
636.6047269409889
 20
2105.389707725487
 30
0.0
 10
636.9038785054942
 20
2102.84056902784
 30
0.0
 10
637.1382942143873
 20
2100.076690460214
 30
0.0
 10
637.2735874453592
 20
2097.023842644481
 30
0.0
 10
637.287064045317
 20
2093.641817302343
 30
0.0
 10
637.1673658722855
 20
2090.333616579455
 30
0.0
 10
636.8257227445067
 20
2086.091029157303
 30
0.0
 10
636.2250219986387
 20
2081.86384722068
 30
0.0
 10
635.5148935837919
 20
2078.179462977074
 30
0.0
 10
634.9127324288887
 20
2075.53718150061
 30
0.0
 10
634.2960987896925
 20
2073.122429619052
 30
0.0
 10
633.5109401743227
 20
2070.335235750267
 30
0.0
 10
632.2145148447541
 20
2066.244281139298
 30
0.0
 10
631.6664074432013
 20
2064.86120225203
 30
0.0
 10
631.6664074432013
 20
2064.799999999994
 30
0.0
  0
SPLINE
  5
160
330
87
100
AcDbEntity
  8
P-SANR-FIXT
100
AcDbSpline
210
0.0
220
0.0
230
1.0
 70
     8
 71
     3
 72
    31
 73
    27
 74
     0
 42
0.000000001
 43
0.0000000001
 40
0.0
 40
0.0
 40
0.0
 40
0.0
 40
0.0555555555555556
 40
0.1111111111111111
 40
0.1666666666666666
 40
0.1944444444444444
 40
0.2222222222222222
 40
0.25
 40
0.2777777777777778
 40
0.3055555555555556
 40
0.3333333333333333
 40
0.3611111111111111
 40
0.3888888888888888
 40
0.4166666666666666
 40
0.4444444444444445
 40
0.4791666666666666
 40
0.5138888888888889
 40
0.5486111111111111
 40
0.5833333333333333
 40
0.6527777777777777
 40
0.6875
 40
0.7222222222222223
 40
0.7569444444444445
 40
0.7916666666666668
 40
0.861111111111111
 40
1.0
 40
1.0
 40
1.0
 40
1.0
 10
631.6664074432013
 20
1795.199999999994
 30
0.0
 10
631.6664074432013
 20
1795.175939634273
 30
0.0
 10
631.7878879354769
 20
1794.840762891655
 30
0.0
 10
632.2673435837979
 20
1793.511249185533
 30
0.0
 10
632.8877857799145
 20
1791.62831533362
 30
0.0
 10
633.4797790279221
 20
1789.719781362378
 30
0.0
 10
633.943758811301
 20
1788.142999285922
 30
0.0
 10
634.4219603680601
 20
1786.390520614087
 30
0.0
 10
634.9137499561776
 20
1784.443719971365
 30
0.0
 10
635.3953356755647
 20
1782.351144790563
 30
0.0
 10
635.8398705161121
 20
1780.168822931608
 30
0.0
 10
636.2424572869719
 20
1777.855687737623
 30
0.0
 10
636.6047269409889
 20
1775.389707725487
 30
0.0
 10
636.9038785054944
 20
1772.84056902784
 30
0.0
 10
637.1382942143873
 20
1770.076690460214
 30
0.0
 10
637.2735874453593
 20
1767.02384264448
 30
0.0
 10
637.287064045317
 20
1763.641817302343
 30
0.0
 10
637.1673658722855
 20
1760.333616579454
 30
0.0
 10
636.8257227445067
 20
1756.091029157303
 30
0.0
 10
636.2250219986387
 20
1751.86384722068
 30
0.0
 10
635.514893583792
 20
1748.179462977073
 30
0.0
 10
634.9127324288887
 20
1745.537181500609
 30
0.0
 10
634.2960987896928
 20
1743.122429619052
 30
0.0
 10
633.5109401743227
 20
1740.335235750266
 30
0.0
 10
632.2145148447541
 20
1736.244281139297
 30
0.0
 10
631.6664074432013
 20
1734.86120225203
 30
0.0
 10
631.6664074432013
 20
1734.799999999994
 30
0.0
  0
SPLINE
  5
161
330
87
100
AcDbEntity
  8
P-SANR-FIXT
100
AcDbSpline
210
0.0
220
0.0
230
1.0
 70
     8
 71
     3
 72
    31
 73
    27
 74
     0
 42
0.000000001
 43
0.0000000001
 40
0.0
 40
0.0
 40
0.0
 40
0.0
 40
0.0555555555555556
 40
0.1111111111111111
 40
0.1666666666666666
 40
0.1944444444444444
 40
0.2222222222222222
 40
0.25
 40
0.2777777777777778
 40
0.3055555555555556
 40
0.3333333333333333
 40
0.3611111111111111
 40
0.3888888888888888
 40
0.4166666666666666
 40
0.4444444444444445
 40
0.4791666666666666
 40
0.5138888888888889
 40
0.5486111111111111
 40
0.5833333333333333
 40
0.6527777777777777
 40
0.6875
 40
0.7222222222222223
 40
0.7569444444444445
 40
0.7916666666666668
 40
0.861111111111111
 40
1.0
 40
1.0
 40
1.0
 40
1.0
 10
799.6664074432013
 20
1734.799999999995
 30
0.0
 10
799.6664074432013
 20
1734.824060365717
 30
0.0
 10
799.5449269509257
 20
1735.159237108334
 30
0.0
 10
799.0654713026048
 20
1736.488750814457
 30
0.0
 10
798.4450291064884
 20
1738.37168466637
 30
0.0
 10
797.8530358584809
 20
1740.280218637611
 30
0.0
 10
797.389056075102
 20
1741.857000714067
 30
0.0
 10
796.9108545183429
 20
1743.609479385902
 30
0.0
 10
796.4190649302257
 20
1745.556280028624
 30
0.0
 10
795.9374792108385
 20
1747.648855209426
 30
0.0
 10
795.4929443702913
 20
1749.83117706838
 30
0.0
 10
795.0903575994315
 20
1752.144312262366
 30
0.0
 10
794.7280879454146
 20
1754.610292274502
 30
0.0
 10
794.4289363809092
 20
1757.159430972148
 30
0.0
 10
794.1945206720163
 20
1759.923309539774
 30
0.0
 10
794.0592274410444
 20
1762.976157355507
 30
0.0
 10
794.0457508410866
 20
1766.358182697644
 30
0.0
 10
794.1654490141181
 20
1769.666383420534
 30
0.0
 10
794.5070921418968
 20
1773.908970842684
 30
0.0
 10
795.1077928877647
 20
1778.136152779307
 30
0.0
 10
795.8179213026114
 20
1781.820537022913
 30
0.0
 10
796.4200824575145
 20
1784.462818499377
 30
0.0
 10
797.0367160967104
 20
1786.877570380934
 30
0.0
 10
797.8218747120804
 20
1789.664764249719
 30
0.0
 10
799.1183000416485
 20
1793.755718860689
 30
0.0
 10
799.6664074432013
 20
1795.138797747956
 30
0.0
 10
799.6664074432013
 20
1795.199999999992
 30
0.0
  0
SPLINE
  5
162
330
87
100
AcDbEntity
  8
P-SANR-FIXT
100
AcDbSpline
210
0.0
220
0.0
230
1.0
 70
     8
 71
     3
 72
    31
 73
    27
 74
     0
 42
0.000000001
 43
0.0000000001
 40
0.0
 40
0.0
 40
0.0
 40
0.0
 40
0.0555555555555556
 40
0.1111111111111111
 40
0.1666666666666666
 40
0.1944444444444444
 40
0.2222222222222222
 40
0.25
 40
0.2777777777777778
 40
0.3055555555555556
 40
0.3333333333333333
 40
0.3611111111111111
 40
0.3888888888888888
 40
0.4166666666666666
 40
0.4444444444444445
 40
0.4791666666666666
 40
0.5138888888888889
 40
0.5486111111111111
 40
0.5833333333333333
 40
0.6527777777777777
 40
0.6875
 40
0.7222222222222223
 40
0.7569444444444445
 40
0.7916666666666668
 40
0.861111111111111
 40
1.0
 40
1.0
 40
1.0
 40
1.0
 10
799.6664074432013
 20
2064.799999999996
 30
0.0
 10
799.6664074432013
 20
2064.824060365717
 30
0.0
 10
799.5449269509257
 20
2065.159237108334
 30
0.0
 10
799.0654713026048
 20
2066.488750814457
 30
0.0
 10
798.4450291064884
 20
2068.37168466637
 30
0.0
 10
797.8530358584809
 20
2070.280218637611
 30
0.0
 10
797.3890560751019
 20
2071.857000714067
 30
0.0
 10
796.9108545183431
 20
2073.609479385902
 30
0.0
 10
796.4190649302257
 20
2075.556280028624
 30
0.0
 10
795.9374792108384
 20
2077.648855209426
 30
0.0
 10
795.4929443702913
 20
2079.83117706838
 30
0.0
 10
795.0903575994315
 20
2082.144312262366
 30
0.0
 10
794.7280879454146
 20
2084.610292274502
 30
0.0
 10
794.4289363809092
 20
2087.159430972148
 30
0.0
 10
794.1945206720163
 20
2089.923309539774
 30
0.0
 10
794.0592274410444
 20
2092.976157355508
 30
0.0
 10
794.0457508410867
 20
2096.358182697645
 30
0.0
 10
794.1654490141181
 20
2099.666383420533
 30
0.0
 10
794.5070921418968
 20
2103.908970842684
 30
0.0
 10
795.1077928877647
 20
2108.136152779307
 30
0.0
 10
795.8179213026114
 20
2111.820537022913
 30
0.0
 10
796.4200824575145
 20
2114.462818499377
 30
0.0
 10
797.0367160967104
 20
2116.877570380934
 30
0.0
 10
797.8218747120804
 20
2119.664764249719
 30
0.0
 10
799.1183000416486
 20
2123.755718860688
 30
0.0
 10
799.6664074432012
 20
2125.138797747956
 30
0.0
 10
799.6664074432013
 20
2125.199999999992
 30
0.0
  0
LINE
  5
163
330
87
100
AcDbEntity
  8
P-SANR-FIXT
100
AcDbLine
 10
945.6664074432012
 20
2177.499999999994
 30
0.0
 11
945.6664074432012
 21
2012.499999999994
 31
0.0
  0
LINE
  5
164
330
87
100
AcDbEntity
  8
P-SANR-FIXT
100
AcDbLine
 10
929.6664074432014
 20
2177.499999999994
 30
0.0
 11
929.6664074432014
 21
2012.499999999994
 31
0.0
  0
LINE
  5
165
330
87
100
AcDbEntity
  8
P-SANR-FIXT
100
AcDbLine
 10
501.6664074432013
 20
2177.499999999994
 30
0.0
 11
501.6664074432013
 21
2012.499999999994
 31
0.0
  0
LINE
  5
166
330
87
100
AcDbEntity
  8
P-SANR-FIXT
100
AcDbLine
 10
485.6664074432013
 20
2177.499999999994
 30
0.0
 11
485.6664074432013
 21
2012.499999999994
 31
0.0
  0
LINE
  5
167
330
87
100
AcDbEntity
  8
P-SANR-FIXT
100
AcDbLine
 10
945.6664074432008
 20
1847.499999999994
 30
0.0
 11
945.6664074432008
 21
1682.499999999994
 31
0.0
  0
LINE
  5
168
330
87
100
AcDbEntity
  8
P-SANR-FIXT
100
AcDbLine
 10
929.6664074432008
 20
1847.499999999994
 30
0.0
 11
929.6664074432008
 21
1682.499999999994
 31
0.0
  0
LINE
  5
169
330
87
100
AcDbEntity
  8
P-SANR-FIXT
100
AcDbLine
 10
501.6664074432008
 20
1847.499999999994
 30
0.0
 11
501.6664074432008
 21
1682.499999999994
 31
0.0
  0
LINE
  5
16A
330
87
100
AcDbEntity
  8
P-SANR-FIXT
100
AcDbLine
 10
485.6664074432008
 20
1847.499999999994
 30
0.0
 11
485.6664074432008
 21
1682.499999999994
 31
0.0
  0
LINE
  5
16B
330
87
100
AcDbEntity
  8
P-SANR-FIXT
100
AcDbLine
 10
855.6664074432013
 20
2125.199999999995
 30
0.0
 11
881.6664074432011
 21
2125.199999999995
 31
0.0
  0
LINE
  5
16C
330
87
100
AcDbEntity
  8
P-SANR-FIXT
100
AcDbLine
 10
881.6664074432011
 20
2155.199999999994
 30
0.0
 11
855.6664074432012
 21
2155.199999999994
 31
0.0
  0
LINE
  5
16D
330
87
100
AcDbEntity
  8
P-SANR-FIXT
100
AcDbLine
 10
855.6664074432008
 20
1795.199999999994
 30
0.0
 11
881.6664074432006
 21
1795.199999999994
 31
0.0
  0
LINE
  5
16E
330
87
100
AcDbEntity
  8
P-SANR-FIXT
100
AcDbLine
 10
881.6664074432006
 20
1825.199999999994
 30
0.0
 11
855.6664074432008
 21
1825.199999999994
 31
0.0
  0
ENDBLK
  5
170
330
87
100
AcDbEntity
  8
0
100
AcDbBlockEnd
  0
BLOCK
  5
1EF
330
172
100
AcDbEntity
  8
0
100
AcDbBlockBegin
  2
Automatic flow rate regulator valve_Caleffi_121 DN15 - 1_2__-V1-Est - Idraulica
 70
     0
 10
0.0
 20
0.0
 30
0.0
  3
Automatic flow rate regulator valve_Caleffi_121 DN15 - 1_2__-V1-Est - Idraulica
  1

  0
LINE
  5
173
330
172
100
AcDbEntity
  8
M-PIPE
100
AcDbLine
 10
828.7250011932011
 20
948.3396287300537
 30
0.0
 11
828.7250011932009
 21
956.3396287300538
 31
0.0
1001
REVIT
1002
{
1070
     3
1000
790271
1002
}
  0
LINE
  5
174
330
172
100
AcDbEntity
  8
M-PIPE
100
AcDbLine
 10
828.7250011932009
 20
956.3396287300538
 30
0.0
 11
782.3702335861486
 21
956.3396287300536
 31
0.0
1001
REVIT
1002
{
1070
     3
1000
790271
1002
}
  0
LINE
  5
175
330
172
100
AcDbEntity
  8
M-PIPE
100
AcDbLine
 10
828.7250011932011
 20
948.3396287300537
 30
0.0
 11
775.4857264505117
 21
948.3396287300536
 31
0.0
1001
REVIT
1002
{
1070
     3
1000
790271
1002
}
  0
LINE
  5
176
330
172
100
AcDbEntity
  8
P-SANR-FIXT
100
AcDbLine
 10
715.7250011931971
 20
972.4417703851214
 30
0.0
 11
731.225001193197
 21
981.3906995575607
 31
0.0
  0
LINE
  5
177
330
172
100
AcDbEntity
  8
P-SANR-FIXT
100
AcDbLine
 10
731.225001193197
 20
981.3906995575607
 30
0.0
 11
731.2250011931967
 21
999.2885579024392
 31
0.0
  0
LINE
  5
178
330
172
100
AcDbEntity
  8
P-SANR-FIXT
100
AcDbLine
 10
731.2250011931967
 20
999.2885579024392
 30
0.0
 11
715.7250011931965
 21
1008.237487074878
 31
0.0
  0
LINE
  5
179
330
172
100
AcDbEntity
  8
P-SANR-FIXT
100
AcDbLine
 10
715.7250011931965
 20
1008.237487074878
 30
0.0
 11
700.2250011931967
 21
999.2885579024386
 31
0.0
  0
LINE
  5
17A
330
172
100
AcDbEntity
  8
P-SANR-FIXT
100
AcDbLine
 10
700.2250011931967
 20
999.2885579024386
 30
0.0
 11
700.225001193197
 21
981.3906995575601
 31
0.0
  0
LINE
  5
17B
330
172
100
AcDbEntity
  8
P-SANR-FIXT
100
AcDbLine
 10
700.225001193197
 20
981.3906995575601
 30
0.0
 11
715.7250011931971
 21
972.4417703851214
 31
0.0
  0
ARC
  5
17C
330
172
100
AcDbEntity
  8
M-PIPE
100
AcDbCircle
 10
715.7250011931965
 20
1007.339628730009
 30
0.0
 40
57.50000000000003
100
AcDbArc
 50
189.9770839511122
 51
230.0229160488875
1001
REVIT
1002
{
1070
     3
1000
790271
1002
}
  0
ARC
  5
17D
330
172
100
AcDbEntity
  8
M-PIPE
100
AcDbCircle
 10
686.9750011931967
 20
957.5431680124033
 30
0.0
 40
9.999999999999873
100
AcDbArc
 50
145.0114580244436
 51
334.9885419755552
1001
REVIT
1002
{
1070
     3
1000
790271
1002
}
  0
ARC
  5
17E
330
172
100
AcDbEntity
  8
M-PIPE
100
AcDbCircle
 10
715.7250011931965
 20
1007.339628730009
 30
0.0
 40
57.49999999999999
100
AcDbArc
 50
249.9770839511116
 51
290.0229160488871
1001
REVIT
1002
{
1070
     3
1000
790271
1002
}
  0
ARC
  5
17F
330
172
100
AcDbEntity
  8
M-PIPE
100
AcDbCircle
 10
744.4750011931969
 20
957.5431680124038
 30
0.0
 40
9.999999999999998
100
AcDbArc
 50
205.011458024443
 51
34.98854197555598
1001
REVIT
1002
{
1070
     3
1000
790271
1002
}
  0
ARC
  5
180
330
172
100
AcDbEntity
  8
M-PIPE
100
AcDbCircle
 10
715.7250011931965
 20
1007.339628730009
 30
0.0
 40
57.50000000000005
100
AcDbArc
 50
309.9770839511111
 51
350.0229160488872
1001
REVIT
1002
{
1070
     3
1000
790271
1002
}
  0
ARC
  5
181
330
172
100
AcDbEntity
  8
M-PIPE
100
AcDbCircle
 10
773.2250011931965
 20
1007.33962873001
 30
0.0
 40
10.00000000000007
100
AcDbArc
 50
265.0114580244439
 51
94.98854197555514
1001
REVIT
1002
{
1070
     3
1000
790271
1002
}
  0
ARC
  5
182
330
172
100
AcDbEntity
  8
M-PIPE
100
AcDbCircle
 10
715.7250011931965
 20
1007.339628730009
 30
0.0
 40
57.50000000000004
100
AcDbArc
 50
9.977083951112188
 51
50.02291604890304
1001
REVIT
1002
{
1070
     3
1000
790271
1002
}
  0
ARC
  5
183
330
172
100
AcDbEntity
  8
M-PIPE
100
AcDbCircle
 10
744.4750011931961
 20
1057.136089447614
 30
0.0
 40
9.999999999984421
100
AcDbArc
 50
325.0114580244512
 51
154.9885419755146
1001
REVIT
1002
{
1070
     3
1000
790271
1002
}
  0
ARC
  5
184
330
172
100
AcDbEntity
  8
M-PIPE
100
AcDbCircle
 10
715.7250011932052
 20
1007.339628729948
 30
0.0
 40
57.50000000006032
100
AcDbArc
 50
69.97708395112529
 51
110.0229160488758
1001
REVIT
1002
{
1070
     3
1000
790271
1002
}
  0
ARC
  5
185
330
172
100
AcDbEntity
  8
M-PIPE
100
AcDbCircle
 10
686.975001193196
 20
1057.136089447613
 30
0.0
 40
9.999999999999593
100
AcDbArc
 50
25.01145802444395
 51
214.9885419755547
1001
REVIT
1002
{
1070
     3
1000
790271
1002
}
  0
ARC
  5
186
330
172
100
AcDbEntity
  8
M-PIPE
100
AcDbCircle
 10
715.7250011931965
 20
1007.339628730009
 30
0.0
 40
57.49999999999994
100
AcDbArc
 50
129.9770839511118
 51
170.0229160488885
1001
REVIT
1002
{
1070
     3
1000
790271
1002
}
  0
ARC
  5
187
330
172
100
AcDbEntity
  8
M-PIPE
100
AcDbCircle
 10
658.2250011931964
 20
1007.339628730008
 30
0.0
 40
9.999999999999971
100
AcDbArc
 50
85.01145802444355
 51
274.9885419755548
1001
REVIT
1002
{
1070
     3
1000
790271
1002
}
  0
ARC
  5
188
330
172
100
AcDbEntity
  8
M-PIPE
100
AcDbCircle
 10
715.7250011931818
 20
990.3396287299976
 30
0.0
 40
26.50000000000006
100
AcDbArc
 50
265.0000000000006
 51
265.4989141705218
1001
REVIT
1002
{
1070
     3
1000
790271
1002
}
  0
ARC
  5
189
330
172
100
AcDbEntity
  8
M-PIPE
100
AcDbCircle
 10
715.7250011931818
 20
990.3396287299976
 30
0.0
 40
26.49999999999999
100
AcDbArc
 50
260.0000000000009
 51
260.9950993195408
1001
REVIT
1002
{
1070
     3
1000
790271
1002
}
  0
ARC
  5
18A
330
172
100
AcDbEntity
  8
M-PIPE
100
AcDbCircle
 10
715.7250011931818
 20
990.3396287299976
 30
0.0
 40
26.50000000000003
100
AcDbArc
 50
255.0000000000006
 51
256.489575133529
1001
REVIT
1002
{
1070
     3
1000
790271
1002
}
  0
ARC
  5
18B
330
172
100
AcDbEntity
  8
M-PIPE
100
AcDbCircle
 10
715.7250011931818
 20
990.3396287299976
 30
0.0
 40
26.50000000000009
100
AcDbArc
 50
242.9728913627072
 51
251.9833361371158
1001
REVIT
1002
{
1070
     3
1000
790271
1002
}
  0
ARC
  5
18C
330
172
100
AcDbEntity
  8
M-PIPE
100
AcDbCircle
 10
715.7250011931818
 20
990.3396287299976
 30
0.0
 40
26.49999999999992
100
AcDbArc
 50
238.4710753991543
 51
240.0000000000009
1001
REVIT
1002
{
1070
     3
1000
790271
1002
}
  0
ARC
  5
18D
330
172
100
AcDbEntity
  8
M-PIPE
100
AcDbCircle
 10
715.7250011931818
 20
990.3396287299976
 30
0.0
 40
26.49999999999995
100
AcDbArc
 50
233.973517189736
 51
235.000000000001
1001
REVIT
1002
{
1070
     3
1000
790271
1002
}
  0
ARC
  5
18E
330
172
100
AcDbEntity
  8
M-PIPE
100
AcDbCircle
 10
715.7250011931818
 20
990.3396287299976
 30
0.0
 40
26.50000000000005
100
AcDbArc
 50
229.4822353515836
 51
230.0000000000009
1001
REVIT
1002
{
1070
     3
1000
790271
1002
}
  0
ARC
  5
18F
330
172
100
AcDbEntity
  8
M-PIPE
100
AcDbCircle
 10
715.7250011931818
 20
990.3396287299976
 30
0.0
 40
26.5
100
AcDbArc
 50
220.0000000000009
 51
220.5177646484179
1001
REVIT
1002
{
1070
     3
1000
790271
1002
}
  0
ARC
  5
190
330
172
100
AcDbEntity
  8
M-PIPE
100
AcDbCircle
 10
715.7250011931818
 20
990.3396287299976
 30
0.0
 40
26.49999999999999
100
AcDbArc
 50
215.000000000001
 51
216.0264828102651
1001
REVIT
1002
{
1070
     3
1000
790271
1002
}
  0
ARC
  5
191
330
172
100
AcDbEntity
  8
M-PIPE
100
AcDbCircle
 10
715.7250011931818
 20
990.3396287299976
 30
0.0
 40
26.50000000000002
100
AcDbArc
 50
210.0000000000006
 51
211.5289246008472
1001
REVIT
1002
{
1070
     3
1000
790271
1002
}
  0
ARC
  5
192
330
172
100
AcDbEntity
  8
M-PIPE
100
AcDbCircle
 10
715.7250011931818
 20
990.3396287299976
 30
0.0
 40
26.49999999999993
100
AcDbArc
 50
198.0166638628857
 51
207.0271086372943
1001
REVIT
1002
{
1070
     3
1000
790271
1002
}
  0
ARC
  5
193
330
172
100
AcDbEntity
  8
M-PIPE
100
AcDbCircle
 10
715.7250011931818
 20
990.3396287299976
 30
0.0
 40
26.49999999999995
100
AcDbArc
 50
193.510424866473
 51
195.0000000000009
1001
REVIT
1002
{
1070
     3
1000
790271
1002
}
  0
ARC
  5
194
330
172
100
AcDbEntity
  8
M-PIPE
100
AcDbCircle
 10
715.7250011931818
 20
990.3396287299976
 30
0.0
 40
26.49999999999988
100
AcDbArc
 50
189.0049006804614
 51
190.0000000000008
1001
REVIT
1002
{
1070
     3
1000
790271
1002
}
  0
ARC
  5
195
330
172
100
AcDbEntity
  8
M-PIPE
100
AcDbCircle
 10
715.7250011931818
 20
990.3396287299976
 30
0.0
 40
26.4999999999999
100
AcDbArc
 50
184.5010858294801
 51
185.0000000000009
1001
REVIT
1002
{
1070
     3
1000
790271
1002
}
  0
ARC
  5
196
330
172
100
AcDbEntity
  8
M-PIPE
100
AcDbCircle
 10
715.7250011931818
 20
990.3396287299976
 30
0.0
 40
26.50000000000006
100
AcDbArc
 50
175.0000000000014
 51
175.4989141705221
1001
REVIT
1002
{
1070
     3
1000
790271
1002
}
  0
ARC
  5
197
330
172
100
AcDbEntity
  8
M-PIPE
100
AcDbCircle
 10
715.7250011931818
 20
990.3396287299976
 30
0.0
 40
26.50000000000003
100
AcDbArc
 50
170.0000000000014
 51
170.9950993195409
1001
REVIT
1002
{
1070
     3
1000
790271
1002
}
  0
ARC
  5
198
330
172
100
AcDbEntity
  8
M-PIPE
100
AcDbCircle
 10
715.7250011931818
 20
990.3396287299976
 30
0.0
 40
26.50000000000005
100
AcDbArc
 50
165.0000000000014
 51
166.4895751335291
1001
REVIT
1002
{
1070
     3
1000
790271
1002
}
  0
ARC
  5
199
330
172
100
AcDbEntity
  8
M-PIPE
100
AcDbCircle
 10
715.7250011931818
 20
990.3396287299976
 30
0.0
 40
26.50000000000009
100
AcDbArc
 50
152.9728913627072
 51
161.9833361371162
1001
REVIT
1002
{
1070
     3
1000
790271
1002
}
  0
ARC
  5
19A
330
172
100
AcDbEntity
  8
M-PIPE
100
AcDbCircle
 10
715.7250011931818
 20
990.3396287299976
 30
0.0
 40
26.49999999999998
100
AcDbArc
 50
148.4710753991541
 51
150.0000000000013
1001
REVIT
1002
{
1070
     3
1000
790271
1002
}
  0
ARC
  5
19B
330
172
100
AcDbEntity
  8
M-PIPE
100
AcDbCircle
 10
715.7250011931818
 20
990.3396287299976
 30
0.0
 40
26.50000000000002
100
AcDbArc
 50
143.9735171897367
 51
145.0000000000013
1001
REVIT
1002
{
1070
     3
1000
790271
1002
}
  0
ARC
  5
19C
330
172
100
AcDbEntity
  8
M-PIPE
100
AcDbCircle
 10
715.7250011931818
 20
990.3396287299976
 30
0.0
 40
26.49999999999997
100
AcDbArc
 50
139.4822353515831
 51
140.0000000000012
1001
REVIT
1002
{
1070
     3
1000
790271
1002
}
  0
ARC
  5
19D
330
172
100
AcDbEntity
  8
M-PIPE
100
AcDbCircle
 10
715.7250011931818
 20
990.3396287299976
 30
0.0
 40
26.49999999999997
100
AcDbArc
 50
130.0000000000013
 51
130.5177646484191
1001
REVIT
1002
{
1070
     3
1000
790271
1002
}
  0
ARC
  5
19E
330
172
100
AcDbEntity
  8
M-PIPE
100
AcDbCircle
 10
715.7250011931818
 20
990.3396287299976
 30
0.0
 40
26.49999999999989
100
AcDbArc
 50
125.0000000000015
 51
126.0264828102656
1001
REVIT
1002
{
1070
     3
1000
790271
1002
}
  0
ARC
  5
19F
330
172
100
AcDbEntity
  8
M-PIPE
100
AcDbCircle
 10
715.7250011931818
 20
990.3396287299976
 30
0.0
 40
26.49999999999986
100
AcDbArc
 50
120.0000000000014
 51
121.5289246008476
1001
REVIT
1002
{
1070
     3
1000
790271
1002
}
  0
ARC
  5
1A0
330
172
100
AcDbEntity
  8
M-PIPE
100
AcDbCircle
 10
715.7250011931818
 20
990.3396287299976
 30
0.0
 40
26.49999999999993
100
AcDbArc
 50
108.0166638628865
 51
117.027108637295
1001
REVIT
1002
{
1070
     3
1000
790271
1002
}
  0
ARC
  5
1A1
330
172
100
AcDbEntity
  8
M-PIPE
100
AcDbCircle
 10
715.7250011931818
 20
990.3396287299976
 30
0.0
 40
26.49999999999991
100
AcDbArc
 50
103.5104248664727
 51
105.0000000000011
1001
REVIT
1002
{
1070
     3
1000
790271
1002
}
  0
ARC
  5
1A2
330
172
100
AcDbEntity
  8
M-PIPE
100
AcDbCircle
 10
715.7250011931818
 20
990.3396287299976
 30
0.0
 40
26.49999999999999
100
AcDbArc
 50
99.00490068046108
 51
100.0000000000014
1001
REVIT
1002
{
1070
     3
1000
790271
1002
}
  0
ARC
  5
1A3
330
172
100
AcDbEntity
  8
M-PIPE
100
AcDbCircle
 10
715.7250011931818
 20
990.3396287299976
 30
0.0
 40
26.50000000000002
100
AcDbArc
 50
94.50108582948029
 51
95.00000000000127
1001
REVIT
1002
{
1070
     3
1000
790271
1002
}
  0
ARC
  5
1A4
330
172
100
AcDbEntity
  8
M-PIPE
100
AcDbCircle
 10
715.7250011931818
 20
990.3396287299976
 30
0.0
 40
26.50000000000009
100
AcDbArc
 50
85.00000000000122
 51
85.49891417052146
1001
REVIT
1002
{
1070
     3
1000
790271
1002
}
  0
ARC
  5
1A5
330
172
100
AcDbEntity
  8
M-PIPE
100
AcDbCircle
 10
715.7250011931818
 20
990.3396287299976
 30
0.0
 40
26.50000000000005
100
AcDbArc
 50
80.00000000000113
 51
80.99509931954044
1001
REVIT
1002
{
1070
     3
1000
790271
1002
}
  0
ARC
  5
1A6
330
172
100
AcDbEntity
  8
M-PIPE
100
AcDbCircle
 10
715.7250011931818
 20
990.3396287299976
 30
0.0
 40
26.50000000000008
100
AcDbArc
 50
75.00000000000134
 51
76.4895751335289
1001
REVIT
1002
{
1070
     3
1000
790271
1002
}
  0
ARC
  5
1A7
330
172
100
AcDbEntity
  8
M-PIPE
100
AcDbCircle
 10
715.7250011931818
 20
990.3396287299976
 30
0.0
 40
26.50000000000005
100
AcDbArc
 50
62.97289136270702
 51
71.9833361371157
1001
REVIT
1002
{
1070
     3
1000
790271
1002
}
  0
ARC
  5
1A8
330
172
100
AcDbEntity
  8
M-PIPE
100
AcDbCircle
 10
715.7250011931818
 20
990.3396287299976
 30
0.0
 40
26.50000000000008
100
AcDbArc
 50
58.47107539915405
 51
60.00000000000131
1001
REVIT
1002
{
1070
     3
1000
790271
1002
}
  0
ARC
  5
1A9
330
172
100
AcDbEntity
  8
M-PIPE
100
AcDbCircle
 10
715.7250011931818
 20
990.3396287299976
 30
0.0
 40
26.50000000000011
100
AcDbArc
 50
53.97351718973625
 51
55.00000000000138
1001
REVIT
1002
{
1070
     3
1000
790271
1002
}
  0
ARC
  5
1AA
330
172
100
AcDbEntity
  8
M-PIPE
100
AcDbCircle
 10
715.7250011931818
 20
990.3396287299976
 30
0.0
 40
26.50000000000014
100
AcDbArc
 50
49.48223535158343
 51
50.00000000000138
1001
REVIT
1002
{
1070
     3
1000
790271
1002
}
  0
ARC
  5
1AB
330
172
100
AcDbEntity
  8
M-PIPE
100
AcDbCircle
 10
715.7250011931818
 20
990.3396287299976
 30
0.0
 40
26.49999999999999
100
AcDbArc
 50
40.0000000000014
 51
40.51776464841867
1001
REVIT
1002
{
1070
     3
1000
790271
1002
}
  0
ARC
  5
1AC
330
172
100
AcDbEntity
  8
M-PIPE
100
AcDbCircle
 10
715.7250011931818
 20
990.3396287299976
 30
0.0
 40
26.50000000000003
100
AcDbArc
 50
35.00000000000166
 51
36.02648281026596
1001
REVIT
1002
{
1070
     3
1000
790271
1002
}
  0
ARC
  5
1AD
330
172
100
AcDbEntity
  8
M-PIPE
100
AcDbCircle
 10
715.7250011931818
 20
990.3396287299976
 30
0.0
 40
26.50000000000006
100
AcDbArc
 50
30.00000000000163
 51
31.52892460084727
1001
REVIT
1002
{
1070
     3
1000
790271
1002
}
  0
ARC
  5
1AE
330
172
100
AcDbEntity
  8
M-PIPE
100
AcDbCircle
 10
715.7250011931818
 20
990.3396287299976
 30
0.0
 40
26.50000000000008
100
AcDbArc
 50
18.01666386288689
 51
27.02710863729465
1001
REVIT
1002
{
1070
     3
1000
790271
1002
}
  0
ARC
  5
1AF
330
172
100
AcDbEntity
  8
M-PIPE
100
AcDbCircle
 10
715.7250011931818
 20
990.3396287299976
 30
0.0
 40
26.49999999999998
100
AcDbArc
 50
13.51042486647314
 51
15.0000000000016
1001
REVIT
1002
{
1070
     3
1000
790271
1002
}
  0
ARC
  5
1B0
330
172
100
AcDbEntity
  8
M-PIPE
100
AcDbCircle
 10
715.7250011931818
 20
990.3396287299976
 30
0.0
 40
26.49999999999999
100
AcDbArc
 50
9.004900680461545
 51
10.00000000000164
1001
REVIT
1002
{
1070
     3
1000
790271
1002
}
  0
ARC
  5
1B1
330
172
100
AcDbEntity
  8
M-PIPE
100
AcDbCircle
 10
715.7250011931818
 20
990.3396287299976
 30
0.0
 40
26.50000000000003
100
AcDbArc
 50
4.501085829480548
 51
5.000000000001516
1001
REVIT
1002
{
1070
     3
1000
790271
1002
}
  0
ARC
  5
1B2
330
172
100
AcDbEntity
  8
M-PIPE
100
AcDbCircle
 10
715.7250011931818
 20
990.3396287299976
 30
0.0
 40
26.50000000000009
100
AcDbArc
 50
355.0000000000013
 51
355.4989141705213
1001
REVIT
1002
{
1070
     3
1000
790271
1002
}
  0
ARC
  5
1B3
330
172
100
AcDbEntity
  8
M-PIPE
100
AcDbCircle
 10
715.7250011931818
 20
990.3396287299976
 30
0.0
 40
26.50000000000014
100
AcDbArc
 50
350.0000000000012
 51
350.9950993195405
1001
REVIT
1002
{
1070
     3
1000
790271
1002
}
  0
ARC
  5
1B4
330
172
100
AcDbEntity
  8
M-PIPE
100
AcDbCircle
 10
715.7250011931818
 20
990.3396287299976
 30
0.0
 40
26.50000000000003
100
AcDbArc
 50
345.000000000001
 51
346.4895751335289
1001
REVIT
1002
{
1070
     3
1000
790271
1002
}
  0
ARC
  5
1B5
330
172
100
AcDbEntity
  8
M-PIPE
100
AcDbCircle
 10
715.7250011931818
 20
990.3396287299976
 30
0.0
 40
26.49999999999998
100
AcDbArc
 50
332.9728913627072
 51
341.9833361371157
1001
REVIT
1002
{
1070
     3
1000
790271
1002
}
  0
ARC
  5
1B6
330
172
100
AcDbEntity
  8
M-PIPE
100
AcDbCircle
 10
715.7250011931818
 20
990.3396287299976
 30
0.0
 40
26.50000000000002
100
AcDbArc
 50
328.4710753991547
 51
330.000000000001
1001
REVIT
1002
{
1070
     3
1000
790271
1002
}
  0
ARC
  5
1B7
330
172
100
AcDbEntity
  8
M-PIPE
100
AcDbCircle
 10
715.7250011931818
 20
990.3396287299976
 30
0.0
 40
26.49999999999998
100
AcDbArc
 50
323.9735171897359
 51
325.0000000000012
1001
REVIT
1002
{
1070
     3
1000
790271
1002
}
  0
ARC
  5
1B8
330
172
100
AcDbEntity
  8
M-PIPE
100
AcDbCircle
 10
715.7250011931818
 20
990.3396287299976
 30
0.0
 40
26.50000000000007
100
AcDbArc
 50
319.4822353515838
 51
320.0000000000011
1001
REVIT
1002
{
1070
     3
1000
790271
1002
}
  0
ARC
  5
1B9
330
172
100
AcDbEntity
  8
M-PIPE
100
AcDbCircle
 10
715.7250011931818
 20
990.3396287299976
 30
0.0
 40
26.49999999999988
100
AcDbArc
 50
310.0000000000012
 51
310.5177646484189
1001
REVIT
1002
{
1070
     3
1000
790271
1002
}
  0
ARC
  5
1BA
330
172
100
AcDbEntity
  8
M-PIPE
100
AcDbCircle
 10
715.7250011931818
 20
990.3396287299976
 30
0.0
 40
26.49999999999991
100
AcDbArc
 50
305.0000000000011
 51
306.0264828102662
1001
REVIT
1002
{
1070
     3
1000
790271
1002
}
  0
ARC
  5
1BB
330
172
100
AcDbEntity
  8
M-PIPE
100
AcDbCircle
 10
715.7250011931818
 20
990.3396287299976
 30
0.0
 40
26.49999999999999
100
AcDbArc
 50
300.0000000000012
 51
301.5289246008476
1001
REVIT
1002
{
1070
     3
1000
790271
1002
}
  0
ARC
  5
1BC
330
172
100
AcDbEntity
  8
M-PIPE
100
AcDbCircle
 10
715.7250011931818
 20
990.3396287299976
 30
0.0
 40
26.49999999999993
100
AcDbArc
 50
288.0166638628864
 51
297.0271086372948
1001
REVIT
1002
{
1070
     3
1000
790271
1002
}
  0
ARC
  5
1BD
330
172
100
AcDbEntity
  8
M-PIPE
100
AcDbCircle
 10
715.7250011931818
 20
990.3396287299976
 30
0.0
 40
26.49999999999998
100
AcDbArc
 50
283.5104248664731
 51
285.0000000000012
1001
REVIT
1002
{
1070
     3
1000
790271
1002
}
  0
ARC
  5
1BE
330
172
100
AcDbEntity
  8
M-PIPE
100
AcDbCircle
 10
715.7250011931818
 20
990.3396287299976
 30
0.0
 40
26.49999999999988
100
AcDbArc
 50
279.0049006804615
 51
280.0000000000011
1001
REVIT
1002
{
1070
     3
1000
790271
1002
}
  0
ARC
  5
1BF
330
172
100
AcDbEntity
  8
M-PIPE
100
AcDbCircle
 10
715.7250011931818
 20
990.3396287299976
 30
0.0
 40
26.49999999999991
100
AcDbArc
 50
274.50108582948
 51
275.0000000000011
1001
REVIT
1002
{
1070
     3
1000
790271
1002
}
  0
ARC
  5
1C0
330
172
100
AcDbEntity
  8
M-PIPE
100
AcDbCircle
 10
715.7250011931819
 20
990.3396287299976
 30
0.0
 40
26.50000000000011
100
AcDbArc
 50
90.00000000000124
 51
270.0000000000009
1001
REVIT
1002
{
1070
     3
1000
790271
1002
}
  0
ARC
  5
1C1
330
172
100
AcDbEntity
  8
M-PIPE
100
AcDbCircle
 10
715.7250011931819
 20
990.3396287299976
 30
0.0
 40
26.50000000000013
100
AcDbArc
 50
270.000000000001
 51
90.0000000000011
1001
REVIT
1002
{
1070
     3
1000
790271
1002
}
  0
ARC
  5
1C2
330
172
100
AcDbEntity
  8
M-PIPE
100
AcDbCircle
 10
715.725001193182
 20
990.339628729998
 30
0.0
 40
10.84999999999961
100
AcDbArc
 50
90.0
 51
270.0000000000014
1001
REVIT
1002
{
1070
     3
1000
790271
1002
}
  0
ARC
  5
1C3
330
172
100
AcDbEntity
  8
M-PIPE
100
AcDbCircle
 10
715.725001193182
 20
990.339628729998
 30
0.0
 40
10.84999999999985
100
AcDbArc
 50
270.0000000000023
 51
90.0000000000009
1001
REVIT
1002
{
1070
     3
1000
790271
1002
}
  0
LWPOLYLINE
  5
1C4
330
172
100
AcDbEntity
  8
P-SANR-FIXT
100
AcDbPolyline
 90
       80
 70
   128
 43
0.0
 10
850.2560734269943
 20
1007.339628730056
 10
850.1484629184229
 20
1012.719436736098
 10
849.8258035465671
 20
1018.090638196963
 10
849.2886114975913
 20
1023.444640336107
 10
848.5377461641787
 20
1028.772877892234
 10
847.5744087706877
 20
1034.066826821885
 10
846.4001404514457
 20
1039.318017936086
 10
845.0168197852672
 20
1044.518050449251
 10
843.4266597901247
 20
1049.658605418637
 10
841.632204382795
 20
1054.73145905289
 10
839.6363243091327
 20
1059.728495868343
 10
837.4422125514906
 20
1064.641721672072
 10
835.0533792206286
 20
1069.463276350887
 10
832.4736459402862
 20
1074.185446445847
 10
829.7071397333976
 20
1078.800677492142
 10
826.7582864197372
 20
1083.30158610463
 10
823.6318035355521
 20
1087.68097178967
 10
820.3326927865095
 20
1091.931828464388
 10
816.8662320460347
 20
1096.047355664904
 10
813.2379669118403
 20
1100.020969425631
 10
809.4537018341531
 20
1103.846312812209
 10
805.51949082983
 20
1107.517266091251
 10
801.4416277972244
 20
1111.027956520604
 10
797.226636447291
 20
1114.372767744489
 10
792.8812598670391
 20
1117.54634877847
 10
788.4124497320333
 20
1120.543622569886
 10
783.8273551851938
 20
1123.359794120056
 10
779.1333113996946
 20
1125.99035815525
 10
774.3378278442498
 20
1128.43110633417
 10
769.4485762695661
 20
1130.678133980394
 10
764.4733784351782
 20
1132.727846329029
 10
759.4201935963026
 20
1134.576964277565
 10
754.2971057707257
 20
1136.222529631742
 10
749.1123108061015
 20
1137.66190983803
 10
743.8741032683431
 20
1138.892802195148
 10
738.5908631720857
 20
1139.913237537903
 10
733.2710425744527
 20
1140.721583387426
 10
727.9231520535655
 20
1141.316546562797
 10
722.5557470934351
 20
1141.697175249854
 10
717.1774143970123
 20
1141.862860523894
 10
711.7967581492953
 20
1141.813337323823
 10
706.4223862524681
 20
1141.548684876196
 10
701.0628965550937
 20
1141.069326568474
 10
695.7268630973918
 20
1140.37602927169
 10
690.4228223946009
 20
1139.469902113626
 10
685.1592597803779
 20
1138.352394704436
 10
679.9445958320713
 20
1137.025294817586
 10
674.7871728995968
 20
1135.490725529797
 10
669.6952417594543
 20
1133.75114182457
 10
664.6769484152476
 20
1131.809326664743
 10
659.7403210658149
 20
1129.668386540341
 10
654.8932572618245
 20
1127.331746498851
 10
650.1435112713779
 20
1124.803144665886
 10
645.4986816748345
 20
1122.08662626497
 10
640.9661992087047
 20
1119.186537146051
 10
636.5533148780563
 20
1116.107516833069
 10
632.2670883564532
 20
1112.8544911017
 10
628.1143766919834
 20
1109.432664099173
 10
624.101823337446
 20
1105.847510018742
 10
620.2358475222423
 20
1102.104764342142
 10
616.5226339829793
 20
1098.210414664048
 10
612.9681230692094
 20
1094.170691113193
 10
609.5780012401397
 20
1089.992056385496
 10
606.357691967509
 20
1085.681195405129
 10
603.3123470591914
 20
1081.245004630058
 10
600.446838417401
 20
1076.690581019186
 10
597.7657502446886
 20
1072.025210678732
 10
595.273371710196
 20
1067.256357206016
 10
592.9736900878985
 20
1062.391649749291
 10
590.8703843778202
 20
1057.438870802741
 10
588.9668194204154
 20
1052.405943756142
 10
587.2660405135433
 20
1047.300920219137
 10
585.7707685406425
 20
1042.131967140369
 10
584.4833956178943
 20
1036.907353742115
 10
583.4059812673509
 20
1031.635438291286
 10
582.5402491221367
 20
1026.324654727989
 10
581.8875841690042
 20
1020.983499173018
 10
581.4490305326511
 20
1015.620516335876
 10
581.225289805342
 20
1010.244285845059
 10
581.1939289594113
 20
1007.339628730054
  0
LINE
  5
1C5
330
172
100
AcDbEntity
  8
P-SANR-FIXT
100
AcDbLine
 10
581.1939289594102
 20
1007.339628730055
 30
0.0
 11
581.7250011932016
 21
1007.339628730055
 31
0.0
  0
LINE
  5
1C6
330
172
100
AcDbEntity
  8
P-SANR-FIXT
100
AcDbLine
 10
581.7250011932016
 20
1007.339628730054
 30
0.0
 11
612.8599140259656
 21
1007.339628730055
 31
0.0
  0
LINE
  5
1C7
330
172
100
AcDbEntity
  8
P-SANR-FIXT
100
AcDbLine
 10
818.5900883604372
 20
1007.339628730055
 30
0.0
 11
850.2301722728121
 21
1007.339628730055
 31
0.0
  0
LINE
  5
1C8
330
172
100
AcDbEntity
  8
P-SANR-FIXT
100
AcDbLine
 10
612.8599140259662
 20
1007.339628730055
 30
0.0
 11
634.1998953376984
 21
1007.339628730055
 31
0.0
  0
LINE
  5
1C9
330
172
100
AcDbEntity
  8
P-SANR-FIXT
100
AcDbLine
 10
797.2501070487049
 20
1007.339628730055
 30
0.0
 11
818.590088360437
 21
1007.339628730055
 31
0.0
  0
LINE
  5
1CA
330
172
100
AcDbEntity
  8
P-SANR-FIXT
100
AcDbLine
 10
634.1998953376984
 20
1007.339628730055
 30
0.0
 11
648.2250011931966
 21
1007.339628730055
 31
0.0
  0
LINE
  5
1CB
330
172
100
AcDbEntity
  8
P-SANR-FIXT
100
AcDbLine
 10
783.2250011931965
 20
1007.339628730055
 30
0.0
 11
797.2501070487051
 21
1007.339628730055
 31
0.0
  0
ARC
  5
1CC
330
172
100
AcDbEntity
  8
P-SANR-FIXT
100
AcDbCircle
 10
868.7250011932013
 20
1007.339628730055
 30
0.0
 40
10.00000000000394
100
AcDbArc
 50
145.8419327633194
 51
154.1580672366777
  0
LINE
  5
1CD
330
172
100
AcDbEntity
  8
P-SANR-FIXT
100
AcDbLine
 10
859.7250011932096
 20
1011.698527673622
 30
0.0
 11
859.7250011932095
 21
1002.980729786489
 31
0.0
  0
ARC
  5
1CE
330
172
100
AcDbEntity
  8
P-SANR-FIXT
100
AcDbCircle
 10
868.7250011932013
 20
1007.339628730055
 30
0.0
 40
10.00000000000384
100
AcDbArc
 50
205.8419327633185
 51
214.1580672366758
  0
LINE
  5
1CF
330
172
100
AcDbEntity
  8
P-SANR-FIXT
100
AcDbLine
 10
860.4500839755475
 20
1001.724849567786
 30
0.0
 11
867.9999184108629
 21
997.3659506242192
 31
0.0
  0
ARC
  5
1D0
330
172
100
AcDbEntity
  8
P-SANR-FIXT
100
AcDbCircle
 10
868.7250011932013
 20
1007.339628730055
 30
0.0
 40
10.00000000000383
100
AcDbArc
 50
265.8419327633183
 51
274.1580672366764
  0
LINE
  5
1D1
330
172
100
AcDbEntity
  8
P-SANR-FIXT
100
AcDbLine
 10
869.450083975539
 20
997.3659506242192
 30
0.0
 11
876.9999184108549
 21
1001.724849567785
 31
0.0
  0
ARC
  5
1D2
330
172
100
AcDbEntity
  8
P-SANR-FIXT
100
AcDbCircle
 10
868.7250011932013
 20
1007.339628730055
 30
0.0
 40
10.00000000000388
100
AcDbArc
 50
325.8419327633186
 51
334.1580672366766
  0
LINE
  5
1D3
330
172
100
AcDbEntity
  8
P-SANR-FIXT
100
AcDbLine
 10
877.7250011931929
 20
1002.980729786489
 30
0.0
 11
877.7250011931933
 21
1011.698527673622
 31
0.0
  0
ARC
  5
1D4
330
172
100
AcDbEntity
  8
P-SANR-FIXT
100
AcDbCircle
 10
868.7250011932013
 20
1007.339628730055
 30
0.0
 40
10.00000000000394
100
AcDbArc
 50
25.84193276331957
 51
34.15806723667793
  0
LINE
  5
1D5
330
172
100
AcDbEntity
  8
P-SANR-FIXT
100
AcDbLine
 10
876.999918410855
 20
1012.954407892324
 30
0.0
 11
869.4500839755397
 21
1017.313306835891
 31
0.0
  0
ARC
  5
1D6
330
172
100
AcDbEntity
  8
P-SANR-FIXT
100
AcDbCircle
 10
868.7250011932013
 20
1007.339628730055
 30
0.0
 40
10.00000000000383
100
AcDbArc
 50
85.84193276331935
 51
94.15806723667804
  0
LINE
  5
1D7
330
172
100
AcDbEntity
  8
P-SANR-FIXT
100
AcDbLine
 10
867.9999184108634
 20
1017.313306835891
 30
0.0
 11
860.4500839755479
 21
1012.954407892325
 31
0.0
  0
ARC
  5
1D8
330
172
100
AcDbEntity
  8
P-SANR-FIXT
100
AcDbCircle
 10
868.7250011932011
 20
1007.339628730055
 30
0.0
 40
12.50000000000375
100
AcDbArc
 50
0.0
 51
180.0
  0
ARC
  5
1D9
330
172
100
AcDbEntity
  8
P-SANR-FIXT
100
AcDbCircle
 10
868.7250011932011
 20
1007.339628730055
 30
0.0
 40
12.50000000000381
100
AcDbArc
 50
180.0000000000008
 51
0.0000000000002544
  0
LINE
  5
1DA
330
172
100
AcDbEntity
  8
P-SANR-FIXT
100
AcDbLine
 10
929.725001193203
 20
924.8396287300552
 30
0.0
 11
945.725001193203
 21
924.8396287300552
 31
0.0
  0
LINE
  5
1DB
330
172
100
AcDbEntity
  8
P-SANR-FIXT
100
AcDbLine
 10
794.1272366557788
 20
977.1396287300564
 30
0.0
 11
929.7250011932028
 21
977.1396287300573
 31
0.0
  0
LWPOLYLINE
  5
1DC
330
172
100
AcDbEntity
  8
P-SANR-FIXT
100
AcDbPolyline
 90
       80
 70
   128
 43
0.0
 10
631.7250011932023
 20
1007.339628730055
 10
631.7921922336802
 20
1003.980524658378
 10
631.9936578637823
 20
1000.626794436644
 10
632.3290757814776
 20
997.2838033177859
 10
632.7979093896496
 20
993.9568993744583
 10
633.399408654538
 20
990.6514049432699
 10
634.132611305632
 20
987.3726081101757
 10
634.9963443750979
 20
984.1257542506692
 10
635.9892260742775
 20
980.9160376383008
 10
637.1096680042557
 20
977.7485931349472
 10
638.35587769696
 20
974.6284879761281
 10
639.7258614827255
 20
971.5607136645109
 10
641.2174276797426
 20
968.5501779845703
 10
642.8281901002796
 20
965.6016971511808
 10
644.5555718680756
 20
962.7199881047006
 10
646.3968095407896
 20
959.909660964872
 10
648.3489575309219
 20
957.1752116556139
 10
650.4088928181244
 20
954.5210147125029
 10
652.5733199453676
 20
951.9513162844507
 10
654.8387762909666
 20
949.470227340768
 10
657.2016376080409
 20
947.0817170944949
 10
659.6581238225328
 20
944.7896066525025
 10
662.204305080522
 20
942.5975629025414
 10
664.8361080351515
 20
940.5090926470002
 10
667.5493223631161
 20
938.5275369927708
 10
670.3396075002788
 20
936.6560660061917
 10
673.2024995856492
 20
934.8976736416144
 10
676.1334186026082
 20
933.255172951719
 10
679.1276757059587
 20
931.7311915872283
 10
682.1804807230755
 20
930.3281675932264
 10
685.2869498171618
 20
929.0483455088079
 10
688.4421133003452
 20
927.8937727762935
 10
691.6409235841182
 20
926.86629646576
 10
694.8782632544032
 20
925.9675603201204
 10
698.1489532583232
 20
925.1990021254883
 10
701.4477611895824
 20
924.561851411024
 10
704.7694096591984
 20
924.0571274819533
 10
708.1085847382006
 20
923.6856377888932
 10
711.4599444587818
 20
923.447976636106
 10
714.8181273603081
 20
923.3445242307377
 10
718.1777610665108
 20
923.3754460745686
 10
721.5334708801439
 20
923.5406926992443
 10
724.8798883813517
 20
923.8399997454161
 10
728.2116600159971
 20
924.2728883856598
 10
731.5234556602047
 20
924.8386660904946
 10
734.8099771474219
 20
925.5364277362867
 10
738.0659667443568
 20
926.3650570532494
 10
741.2862155622287
 20
927.323228411241
 10
744.4655718898782
 20
928.4094089404876
 10
747.5989494354077
 20
929.6218609838485
 10
750.6813354631626
 20
930.9586448766976
 10
753.7077988130394
 20
932.417622049971
 10
756.6734977892888
 20
933.9964584514236
 10
759.5736879061981
 20
935.6926282796134
 10
762.4037294782541
 20
937.5034180246457
 10
765.1590950426518
 20
939.4259308092093
 10
767.8353766022677
 20
941.4570910229638
 10
770.4282926775165
 20
943.5936492428574
 10
772.9336951558036
 20
945.8321874315142
 10
775.347575927621
 20
948.1691244053601
 10
777.6660732986673
 20
950.6007215637584
 10
779.8854781677357
 20
953.1230888699679
 10
782.0022399604832
 20
955.7321910743752
 10
784.0129723095935
 20
958.4238541700322
 10
785.9144584722408
 20
961.1937720701765
 10
787.7036564761943
 20
964.0375134970522
 10
789.3777039863224
 20
966.9505290710089
 10
790.9339228837201
 20
969.928158588538
 10
792.3698235501269
 20
972.9656384776056
 10
793.6831088507866
 20
976.0581094183507
 10
794.8716778093701
 20
979.2006241169593
 10
795.9336289690914
 20
982.3881552202811
 10
796.8672634346327
 20
985.6156033585216
 10
797.6710875900138
 20
988.8778053031453
 10
798.3438154880591
 20
992.1695422269394
 10
798.88437090764
 20
995.4855480530261
 10
799.2918890753972
 20
998.8205178794604
 10
799.5657180491949
 20
1002.169116465942
 10
799.7054197610887
 20
1005.525986769063
 10
799.7250011932026
 20
1007.339628730054
  0
LINE
  5
1DD
330
172
100
AcDbEntity
  8
P-SANR-FIXT
100
AcDbLine
 10
945.7250011932027
 20
1089.839628730055
 30
0.0
 11
929.7250011932026
 21
1089.839628730056
 31
0.0
  0
LINE
  5
1DE
330
172
100
AcDbEntity
  8
P-SANR-FIXT
100
AcDbLine
 10
929.7250011932026
 20
1037.539628730054
 30
0.0
 11
846.735433208518
 21
1037.539628730054
 31
0.0
  0
LINE
  5
1DF
330
172
100
AcDbEntity
  8
P-SANR-FIXT
100
AcDbLine
 10
584.718139573956
 20
1037.539628730054
 30
0.0
 11
501.7250011932023
 21
1037.539628730054
 31
0.0
  0
LINE
  5
1E0
330
172
100
AcDbEntity
  8
P-SANR-FIXT
100
AcDbLine
 10
501.7250011932024
 20
977.1396287300534
 30
0.0
 11
637.3227657306271
 21
977.1396287300539
 31
0.0
  0
LINE
  5
1E1
330
172
100
AcDbEntity
  8
P-SANR-FIXT
100
AcDbLine
 10
501.7250011932021
 20
1089.839628730054
 30
0.0
 11
485.7250011932021
 21
1089.839628730054
 31
0.0
  0
LINE
  5
1E2
330
172
100
AcDbEntity
  8
P-SANR-FIXT
100
AcDbLine
 10
485.7250011932024
 20
924.839628730054
 30
0.0
 11
501.7250011932025
 21
924.8396287300536
 31
0.0
  0
SPLINE
  5
1E3
330
172
100
AcDbEntity
  8
P-SANR-FIXT
100
AcDbSpline
210
0.0
220
0.0
230
1.0
 70
     8
 71
     3
 72
    21
 73
    17
 74
     0
 42
0.000000001
 43
0.0000000001
 40
0.0
 40
0.0
 40
0.0
 40
0.0
 40
0.0555555555555556
 40
0.1111111111111111
 40
0.1666666666666666
 40
0.1944444444444444
 40
0.2222222222222222
 40
0.25
 40
0.2777777777777778
 40
0.3055555555555556
 40
0.3333333333333333
 40
0.3611111111111111
 40
0.3888888888888888
 40
0.4166666666666666
 40
0.4444444444444445
 40
0.4722222222222224
 40
0.4722222222222224
 40
0.4722222222222224
 40
0.4722222222222224
 10
631.7250011932012
 20
1007.339628730055
 30
0.0
 10
631.7250011932012
 20
1005.501785708124
 30
0.0
 10
631.8464816854769
 20
1001.922180914114
 30
0.0
 10
632.3259373337978
 20
996.9128827151548
 30
0.0
 10
632.9463795299143
 20
992.9195274567032
 30
0.0
 10
633.5383727779219
 20
989.9336705730258
 30
0.0
 10
634.002352561301
 20
987.8774422439853
 30
0.0
 10
634.4805541180601
 20
985.9724656248269
 30
0.0
 10
634.9723437061775
 20
984.186585977925
 30
0.0
 10
635.4539294255647
 20
982.5731119585048
 30
0.0
 10
635.8984642661121
 20
981.1798633735737
 30
0.0
 10
636.3010510369718
 20
979.984626771157
 30
0.0
 10
636.6633206909888
 20
978.9569863041087
 30
0.0
 10
636.9624722554942
 20
978.1395228905919
 30
0.0
 10
637.1788559867801
 20
977.564212652285
 30
0.0
 10
637.2636047826071
 20
977.3426325385409
 30
0.0
 10
637.2917841656337
 20
977.2691772284495
 30
0.0
  0
SPLINE
  5
1E4
330
172
100
AcDbEntity
  8
P-SANR-FIXT
100
AcDbSpline
210
0.0
220
0.0
230
1.0
 70
     8
 71
     3
 72
    17
 73
    13
 74
     0
 42
0.000000001
 43
0.0000000001
 40
0.5
 40
0.5
 40
0.5
 40
0.5
 40
0.5138888888888889
 40
0.5486111111111111
 40
0.5833333333333333
 40
0.6527777777777777
 40
0.6875
 40
0.7222222222222223
 40
0.7569444444444445
 40
0.7916666666666668
 40
0.861111111111111
 40
1.0
 40
1.0
 40
1.0
 40
1.0
 10
794.1159319808516
 20
977.1591115247272
 30
0.0
 10
794.1159288374547
 20
977.1591084846843
 30
0.0
 10
794.1282842256928
 20
977.1912623926318
 30
0.0
 10
794.2240427641179
 20
977.4401181013681
 30
0.0
 10
794.5656858918966
 20
978.3441327061797
 30
0.0
 10
795.1663866377645
 20
980.0066367477265
 30
0.0
 10
795.8765150526113
 20
982.1817085548216
 30
0.0
 10
796.4786762075144
 20
984.1765364104853
 30
0.0
 10
797.0953098467104
 20
986.4402995711374
 30
0.0
 10
797.8804684620802
 20
989.6800553670363
 30
0.0
 10
799.1768937916486
 20
996.3879467168903
 30
0.0
 10
799.7250011932011
 20
1002.744748388302
 30
0.0
 10
799.7250011932012
 20
1007.339628730054
 30
0.0
  0
LINE
  5
1E5
330
172
100
AcDbEntity
  8
P-SANR-FIXT
100
AcDbLine
 10
945.7250011932012
 20
1007.339628730056
 30
0.0
 11
945.7250011932014
 21
924.8396287300554
 31
0.0
  0
LINE
  5
1E6
330
172
100
AcDbEntity
  8
P-SANR-FIXT
100
AcDbLine
 10
945.7250011932009
 20
1089.839628730056
 30
0.0
 11
945.7250011932012
 21
1007.339628730056
 31
0.0
  0
LINE
  5
1E7
330
172
100
AcDbEntity
  8
P-SANR-FIXT
100
AcDbLine
 10
929.725001193201
 20
1089.839628730056
 30
0.0
 11
929.7250011932014
 21
1007.339628730056
 31
0.0
  0
LINE
  5
1E8
330
172
100
AcDbEntity
  8
P-SANR-FIXT
100
AcDbLine
 10
929.7250011932014
 20
1007.339628730056
 30
0.0
 11
929.7250011932016
 21
924.8396287300554
 31
0.0
  0
LINE
  5
1E9
330
172
100
AcDbEntity
  8
P-SANR-FIXT
100
AcDbLine
 10
501.7250011932009
 20
1089.839628730054
 30
0.0
 11
501.7250011932012
 21
1007.339628730054
 31
0.0
  0
LINE
  5
1EA
330
172
100
AcDbEntity
  8
P-SANR-FIXT
100
AcDbLine
 10
501.7250011932012
 20
1007.339628730054
 30
0.0
 11
501.7250011932015
 21
924.8396287300538
 31
0.0
  0
LINE
  5
1EB
330
172
100
AcDbEntity
  8
P-SANR-FIXT
100
AcDbLine
 10
485.725001193201
 20
1089.839628730054
 30
0.0
 11
485.7250011932013
 21
1007.339628730054
 31
0.0
  0
LINE
  5
1EC
330
172
100
AcDbEntity
  8
P-SANR-FIXT
100
AcDbLine
 10
485.7250011932013
 20
1007.339628730054
 30
0.0
 11
485.7250011932015
 21
924.8396287300538
 31
0.0
  0
ARC
  5
1ED
330
172
100
AcDbEntity
  8
P-SANR-FIXT
100
AcDbCircle
 10
868.7250011932011
 20
1007.339628730055
 30
0.0
 40
13.0
100
AcDbArc
 50
0.0000000000010021
 51
180.0
  0
ARC
  5
1EE
330
172
100
AcDbEntity
  8
P-SANR-FIXT
100
AcDbCircle
 10
868.7250011932011
 20
1007.339628730055
 30
0.0
 40
13.00000000000006
100
AcDbArc
 50
179.9999999999998
 51
0.0000000000002544
  0
ENDBLK
  5
1F0
330
172
100
AcDbEntity
  8
0
100
AcDbBlockEnd
  0
BLOCK
  5
285
330
1F2
100
AcDbEntity
  8
0
100
AcDbBlockBegin
  2
Automatic flow rate regulator valve_Caleffi_121 DN15 - 1_2__-V2-Est - Idraulica
 70
     0
 10
0.0
 20
0.0
 30
0.0
  3
Automatic flow rate regulator valve_Caleffi_121 DN15 - 1_2__-V2-Est - Idraulica
  1

  0
LINE
  5
1F3
330
1F2
100
AcDbEntity
  8
M-PIPE
100
AcDbLine
 10
1439.114353943104
 20
1450.982558850011
 30
0.0
 11
1461.114353943104
 21
1450.982558850011
 31
0.0
1001
REVIT
1002
{
1070
     3
1000
790271
1002
}
  0
LINE
  5
1F4
330
1F2
100
AcDbEntity
  8
M-PIPE
100
AcDbLine
 10
1461.114353943104
 20
1478.982558850011
 30
0.0
 11
1439.114353943104
 21
1478.982558850011
 31
0.0
1001
REVIT
1002
{
1070
     3
1000
790271
1002
}
  0
LINE
  5
1F5
330
1F2
100
AcDbEntity
  8
M-PIPE
100
AcDbLine
 10
1439.114353943102
 20
1478.982558850011
 30
0.0
 11
1439.114353943102
 21
1450.982558850011
 31
0.0
1001
REVIT
1002
{
1070
     3
1000
790271
1002
}
  0
LINE
  5
1F6
330
1F2
100
AcDbEntity
  8
M-PIPE
100
AcDbLine
 10
1461.114353943102
 20
1450.982558850011
 30
0.0
 11
1461.114353943102
 21
1478.982558850011
 31
0.0
1001
REVIT
1002
{
1070
     3
1000
790271
1002
}
  0
LINE
  5
1F7
330
1F2
100
AcDbEntity
  8
M-PIPE
100
AcDbLine
 10
1430.085366810843
 20
1454.482558850012
 30
0.0
 11
1439.114353943104
 21
1454.482558850012
 31
0.0
1001
REVIT
1002
{
1070
     3
1000
790271
1002
}
  0
LINE
  5
1F8
330
1F2
100
AcDbEntity
  8
M-PIPE
100
AcDbLine
 10
1439.114353943104
 20
1475.482558850011
 30
0.0
 11
1430.085366810843
 21
1475.482558850011
 31
0.0
1001
REVIT
1002
{
1070
     3
1000
790271
1002
}
  0
LINE
  5
1F9
330
1F2
100
AcDbEntity
  8
M-PIPE
100
AcDbLine
 10
1427.11435394309
 20
1423.98255885001
 30
0.0
 11
1419.792023472753
 21
1423.98255885001
 31
0.0
1001
REVIT
1002
{
1070
     3
1000
790271
1002
}
  0
LINE
  5
1FA
330
1F2
100
AcDbEntity
  8
M-PIPE
100
AcDbLine
 10
1419.792023472753
 20
1423.98255885001
 30
0.0
 11
1402.11435394309
 21
1423.98255885001
 31
0.0
1001
REVIT
1002
{
1070
     3
1000
790271
1002
}
  0
LINE
  5
1FB
330
1F2
100
AcDbEntity
  8
M-PIPE
100
AcDbLine
 10
1402.11435394309
 20
1423.98255885001
 30
0.0
 11
1384.436684413426
 21
1423.98255885001
 31
0.0
1001
REVIT
1002
{
1070
     3
1000
790271
1002
}
  0
LINE
  5
1FC
330
1F2
100
AcDbEntity
  8
M-PIPE
100
AcDbLine
 10
1384.436684413426
 20
1423.98255885001
 30
0.0
 11
1377.11435394309
 21
1423.98255885001
 31
0.0
1001
REVIT
1002
{
1070
     3
1000
790271
1002
}
  0
LINE
  5
1FD
330
1F2
100
AcDbEntity
  8
M-PIPE
100
AcDbLine
 10
1427.11435394309
 20
1441.98255885001
 30
0.0
 11
1427.11435394309
 21
1423.98255885001
 31
0.0
1001
REVIT
1002
{
1070
     3
1000
790271
1002
}
  0
LINE
  5
1FE
330
1F2
100
AcDbEntity
  8
M-PIPE
100
AcDbLine
 10
1419.792023472753
 20
1441.982558850011
 30
0.0
 11
1419.792023472753
 21
1423.98255885001
 31
0.0
1001
REVIT
1002
{
1070
     3
1000
790271
1002
}
  0
LINE
  5
1FF
330
1F2
100
AcDbEntity
  8
M-PIPE
100
AcDbLine
 10
1402.11435394309
 20
1441.982558850011
 30
0.0
 11
1402.11435394309
 21
1423.98255885001
 31
0.0
1001
REVIT
1002
{
1070
     3
1000
790271
1002
}
  0
LINE
  5
200
330
1F2
100
AcDbEntity
  8
M-PIPE
100
AcDbLine
 10
1384.436684413426
 20
1441.982558850011
 30
0.0
 11
1384.436684413426
 21
1423.98255885001
 31
0.0
1001
REVIT
1002
{
1070
     3
1000
790271
1002
}
  0
LINE
  5
201
330
1F2
100
AcDbEntity
  8
M-PIPE
100
AcDbLine
 10
1377.11435394309
 20
1441.98255885001
 30
0.0
 11
1377.11435394309
 21
1423.98255885001
 31
0.0
1001
REVIT
1002
{
1070
     3
1000
790271
1002
}
  0
LINE
  5
202
330
1F2
100
AcDbEntity
  8
M-PIPE
100
AcDbLine
 10
1374.114353943092
 20
1487.982558850012
 30
0.0
 11
1374.114353943091
 21
1441.982558850011
 31
0.0
1001
REVIT
1002
{
1070
     3
1000
790271
1002
}
  0
LINE
  5
203
330
1F2
100
AcDbEntity
  8
M-PIPE
100
AcDbLine
 10
1430.114353943116
 20
1441.982558850011
 30
0.0
 11
1430.114353943116
 21
1454.572387805586
 31
0.0
1001
REVIT
1002
{
1070
     3
1000
790271
1002
}
  0
LINE
  5
204
330
1F2
100
AcDbEntity
  8
M-PIPE
100
AcDbLine
 10
1430.114353943116
 20
1475.392729894435
 30
0.0
 11
1430.114353943116
 21
1487.982558850011
 31
0.0
1001
REVIT
1002
{
1070
     3
1000
790271
1002
}
  0
LINE
  5
205
330
1F2
100
AcDbEntity
  8
M-PIPE
100
AcDbLine
 10
1430.114353943114
 20
1487.982558850011
 30
0.0
 11
1374.11435394309
 21
1487.982558850011
 31
0.0
1001
REVIT
1002
{
1070
     3
1000
790271
1002
}
  0
LINE
  5
206
330
1F2
100
AcDbEntity
  8
M-PIPE
100
AcDbLine
 10
1374.11435394309
 20
1441.982558850011
 30
0.0
 11
1430.114353943114
 21
1441.98255885001
 31
0.0
1001
REVIT
1002
{
1070
     3
1000
790271
1002
}
  0
LINE
  5
207
330
1F2
100
AcDbEntity
  8
M-PIPE
100
AcDbLine
 10
1427.11435394309
 20
1487.982558850011
 30
0.0
 11
1427.11435394309
 21
1505.982558850011
 31
0.0
1001
REVIT
1002
{
1070
     3
1000
790271
1002
}
  0
LINE
  5
208
330
1F2
100
AcDbEntity
  8
M-PIPE
100
AcDbLine
 10
1377.11435394309
 20
1505.982558850011
 30
0.0
 11
1384.436684413426
 21
1505.982558850011
 31
0.0
1001
REVIT
1002
{
1070
     3
1000
790271
1002
}
  0
LINE
  5
209
330
1F2
100
AcDbEntity
  8
M-PIPE
100
AcDbLine
 10
1384.436684413426
 20
1505.982558850011
 30
0.0
 11
1402.11435394309
 21
1505.982558850011
 31
0.0
1001
REVIT
1002
{
1070
     3
1000
790271
1002
}
  0
LINE
  5
20A
330
1F2
100
AcDbEntity
  8
M-PIPE
100
AcDbLine
 10
1402.11435394309
 20
1505.982558850011
 30
0.0
 11
1419.792023472754
 21
1505.982558850011
 31
0.0
1001
REVIT
1002
{
1070
     3
1000
790271
1002
}
  0
LINE
  5
20B
330
1F2
100
AcDbEntity
  8
M-PIPE
100
AcDbLine
 10
1427.11435394309
 20
1505.982558850011
 30
0.0
 11
1419.792023472754
 21
1505.982558850011
 31
0.0
1001
REVIT
1002
{
1070
     3
1000
790271
1002
}
  0
LINE
  5
20C
330
1F2
100
AcDbEntity
  8
M-PIPE
100
AcDbLine
 10
1419.792023472754
 20
1505.982558850011
 30
0.0
 11
1419.792023472754
 21
1487.982558850011
 31
0.0
1001
REVIT
1002
{
1070
     3
1000
790271
1002
}
  0
LINE
  5
20D
330
1F2
100
AcDbEntity
  8
M-PIPE
100
AcDbLine
 10
1402.11435394309
 20
1505.982558850011
 30
0.0
 11
1402.11435394309
 21
1487.982558850011
 31
0.0
1001
REVIT
1002
{
1070
     3
1000
790271
1002
}
  0
LINE
  5
20E
330
1F2
100
AcDbEntity
  8
M-PIPE
100
AcDbLine
 10
1384.436684413426
 20
1505.982558850011
 30
0.0
 11
1384.436684413426
 21
1487.982558850011
 31
0.0
1001
REVIT
1002
{
1070
     3
1000
790271
1002
}
  0
LINE
  5
20F
330
1F2
100
AcDbEntity
  8
M-PIPE
100
AcDbLine
 10
1377.11435394309
 20
1505.982558850011
 30
0.0
 11
1377.11435394309
 21
1487.982558850011
 31
0.0
1001
REVIT
1002
{
1070
     3
1000
790271
1002
}
  0
LINE
  5
210
330
1F2
100
AcDbEntity
  8
P-SANR-FIXT
100
AcDbLine
 10
1401.216495598279
 20
2482.984043225
 30
0.0
 11
1410.165424770718
 21
2482.984043225
 31
0.0
  0
LINE
  5
211
330
1F2
100
AcDbEntity
  8
P-SANR-FIXT
100
AcDbLine
 10
1410.165424770718
 20
2482.984043225
 30
0.0
 11
1428.063283115597
 21
2482.984043225
 31
0.0
  0
LINE
  5
212
330
1F2
100
AcDbEntity
  8
P-SANR-FIXT
100
AcDbLine
 10
1428.063283115597
 20
2482.984043225
 30
0.0
 11
1437.012212288036
 21
2482.984043225
 31
0.0
  0
LINE
  5
213
330
1F2
100
AcDbEntity
  8
P-SANR-FIXT
100
AcDbLine
 10
1437.012212288036
 20
2482.984043225
 30
0.0
 11
1437.012212288036
 21
2472.484043225001
 31
0.0
  0
LINE
  5
214
330
1F2
100
AcDbEntity
  8
P-SANR-FIXT
100
AcDbLine
 10
1401.216495598279
 20
2472.484043225001
 30
0.0
 11
1401.216495598279
 21
2482.984043225
 31
0.0
  0
LINE
  5
215
330
1F2
100
AcDbEntity
  8
P-SANR-FIXT
100
AcDbLine
 10
1410.165424770718
 20
2472.484043225001
 30
0.0
 11
1410.165424770718
 21
2482.984043225
 31
0.0
  0
LINE
  5
216
330
1F2
100
AcDbEntity
  8
P-SANR-FIXT
100
AcDbLine
 10
1428.063283115597
 20
2472.484043225001
 30
0.0
 11
1428.063283115597
 21
2482.984043225
 31
0.0
  0
LINE
  5
217
330
1F2
100
AcDbEntity
  8
M-PIPE
100
AcDbLine
 10
1447.364353943162
 20
2354.984043225002
 30
0.0
 11
1450.646906275384
 21
2448.984043225002
 31
0.0
1001
REVIT
1002
{
1070
     3
1000
790271
1002
}
  0
LINE
  5
218
330
1F2
100
AcDbEntity
  8
M-PIPE
100
AcDbLine
 10
1353.581801610937
 20
2448.984043225002
 30
0.0
 11
1356.864353943162
 21
2354.984043225001
 31
0.0
1001
REVIT
1002
{
1070
     3
1000
790271
1002
}
  0
LINE
  5
219
330
1F2
100
AcDbEntity
  8
M-PIPE
100
AcDbLine
 10
1461.910814660755
 20
2448.984043225002
 30
0.0
 11
1461.910814660755
 21
2462.984043225002
 31
0.0
1001
REVIT
1002
{
1070
     3
1000
790271
1002
}
  0
LINE
  5
21A
330
1F2
100
AcDbEntity
  8
M-PIPE
100
AcDbLine
 10
1342.317893225545
 20
2462.984043225002
 30
0.0
 11
1342.317893225545
 21
2448.984043225002
 31
0.0
1001
REVIT
1002
{
1070
     3
1000
790271
1002
}
  0
LINE
  5
21B
330
1F2
100
AcDbEntity
  8
M-PIPE
100
AcDbLine
 10
1412.114353943151
 20
2448.984043225002
 30
0.0
 11
1412.114353943151
 21
2462.984043225002
 31
0.0
1001
REVIT
1002
{
1070
     3
1000
790271
1002
}
  0
LINE
  5
21C
330
1F2
100
AcDbEntity
  8
M-PIPE
100
AcDbLine
 10
1392.11435394315
 20
2462.984043225002
 30
0.0
 11
1392.11435394315
 21
2448.984043225002
 31
0.0
1001
REVIT
1002
{
1070
     3
1000
790271
1002
}
  0
LINE
  5
21D
330
1F2
100
AcDbEntity
  8
M-PIPE
100
AcDbLine
 10
1445.614353943161
 20
2462.984043225002
 30
0.0
 11
1445.614353943161
 21
2472.484043225002
 31
0.0
1001
REVIT
1002
{
1070
     3
1000
790271
1002
}
  0
LINE
  5
21E
330
1F2
100
AcDbEntity
  8
M-PIPE
100
AcDbLine
 10
1392.614353943161
 20
2472.484043225002
 30
0.0
 11
1392.614353943161
 21
2462.984043225002
 31
0.0
1001
REVIT
1002
{
1070
     3
1000
790271
1002
}
  0
LINE
  5
21F
330
1F2
100
AcDbEntity
  8
M-PIPE
100
AcDbLine
 10
1429.964353943161
 20
2482.984043225002
 30
0.0
 11
1429.964353943161
 21
2492.984043225068
 31
0.0
1001
REVIT
1002
{
1070
     3
1000
790271
1002
}
  0
LINE
  5
220
330
1F2
100
AcDbEntity
  8
M-PIPE
100
AcDbLine
 10
1408.264353943161
 20
2492.984043225068
 30
0.0
 11
1408.264353943161
 21
2482.984043225002
 31
0.0
1001
REVIT
1002
{
1070
     3
1000
790271
1002
}
  0
LINE
  5
221
330
1F2
100
AcDbEntity
  8
M-PIPE
100
AcDbLine
 10
1425.208364710733
 20
2334.984043225
 30
0.0
 11
1413.661359326941
 21
2334.984043225
 31
0.0
1001
REVIT
1002
{
1070
     3
1000
790271
1002
}
  0
LINE
  5
222
330
1F2
100
AcDbEntity
  8
M-PIPE
100
AcDbLine
 10
1413.661359326941
 20
2334.984043225
 30
0.0
 11
1408.464353943102
 21
2334.984043225
 31
0.0
1001
REVIT
1002
{
1070
     3
1000
790271
1002
}
  0
LINE
  5
223
330
1F2
100
AcDbEntity
  8
M-PIPE
100
AcDbLine
 10
1402.114353943102
 20
2334.984043225
 30
0.0
 11
1390.567348559356
 21
2334.984043225
 31
0.0
1001
REVIT
1002
{
1070
     3
1000
790271
1002
}
  0
LINE
  5
224
330
1F2
100
AcDbEntity
  8
M-PIPE
100
AcDbLine
 10
1390.567348559356
 20
2334.984043225
 30
0.0
 11
1379.020343175563
 21
2334.984043225
 31
0.0
1001
REVIT
1002
{
1070
     3
1000
790271
1002
}
  0
LINE
  5
225
330
1F2
100
AcDbEntity
  8
M-PIPE
100
AcDbLine
 10
1425.208364710733
 20
2354.984043225
 30
0.0
 11
1425.208364710733
 21
2334.984043225
 31
0.0
1001
REVIT
1002
{
1070
     3
1000
790271
1002
}
  0
LINE
  5
226
330
1F2
100
AcDbEntity
  8
M-PIPE
100
AcDbLine
 10
1379.020343175563
 20
2334.984043225
 30
0.0
 11
1379.020343175563
 21
2354.984043225
 31
0.0
1001
REVIT
1002
{
1070
     3
1000
790271
1002
}
  0
LINE
  5
227
330
1F2
100
AcDbEntity
  8
M-PIPE
100
AcDbLine
 10
1390.567348559356
 20
2334.984043225
 30
0.0
 11
1390.567348559355
 21
2354.984043225
 31
0.0
1001
REVIT
1002
{
1070
     3
1000
790271
1002
}
  0
LINE
  5
228
330
1F2
100
AcDbEntity
  8
M-PIPE
100
AcDbLine
 10
1413.661359326941
 20
2334.984043225
 30
0.0
 11
1413.661359326941
 21
2354.984043225
 31
0.0
1001
REVIT
1002
{
1070
     3
1000
790271
1002
}
  0
LINE
  5
229
330
1F2
100
AcDbEntity
  8
M-PIPE
100
AcDbLine
 10
1356.86435394316
 20
2354.984043225
 30
0.0
 11
1447.36435394316
 21
2354.984043225001
 31
0.0
1001
REVIT
1002
{
1070
     3
1000
790271
1002
}
  0
LINE
  5
22A
330
1F2
100
AcDbEntity
  8
M-PIPE
100
AcDbLine
 10
1412.106402437728
 20
2462.984043225001
 30
0.0
 11
1446.176688554249
 21
2462.984043225001
 31
0.0
1001
REVIT
1002
{
1070
     3
1000
790271
1002
}
  0
LINE
  5
22B
330
1F2
100
AcDbEntity
  8
M-PIPE
100
AcDbLine
 10
1446.176688554249
 20
2462.984043225001
 30
0.0
 11
1461.910814660753
 21
2462.984043225001
 31
0.0
1001
REVIT
1002
{
1070
     3
1000
790271
1002
}
  0
LINE
  5
22C
330
1F2
100
AcDbEntity
  8
M-PIPE
100
AcDbLine
 10
1461.910814660753
 20
2462.984043225001
 30
0.0
 11
1461.909905159541
 21
2462.984043225001
 31
0.0
1001
REVIT
1002
{
1070
     3
1000
790271
1002
}
  0
LINE
  5
22D
330
1F2
100
AcDbEntity
  8
M-PIPE
100
AcDbLine
 10
1342.31880272677
 20
2462.984043225001
 30
0.0
 11
1342.317893225558
 21
2462.984043225001
 31
0.0
1001
REVIT
1002
{
1070
     3
1000
790271
1002
}
  0
LINE
  5
22E
330
1F2
100
AcDbEntity
  8
M-PIPE
100
AcDbLine
 10
1342.317893225543
 20
2462.984043225001
 30
0.0
 11
1358.052019332046
 21
2462.984043225001
 31
0.0
1001
REVIT
1002
{
1070
     3
1000
790271
1002
}
  0
LINE
  5
22F
330
1F2
100
AcDbEntity
  8
M-PIPE
100
AcDbLine
 10
1358.052019332046
 20
2462.984043225001
 30
0.0
 11
1392.12230544857
 21
2462.984043225001
 31
0.0
1001
REVIT
1002
{
1070
     3
1000
790271
1002
}
  0
LINE
  5
230
330
1F2
100
AcDbEntity
  8
M-PIPE
100
AcDbLine
 10
1392.114353943149
 20
2462.984043225001
 30
0.0
 11
1412.114353943149
 21
2462.984043225001
 31
0.0
1001
REVIT
1002
{
1070
     3
1000
790271
1002
}
  0
LINE
  5
231
330
1F2
100
AcDbEntity
  8
M-PIPE
100
AcDbLine
 10
1412.114353943149
 20
2448.984043225
 30
0.0
 11
1392.114353943149
 21
2448.984043225
 31
0.0
1001
REVIT
1002
{
1070
     3
1000
790271
1002
}
  0
LINE
  5
232
330
1F2
100
AcDbEntity
  8
M-PIPE
100
AcDbLine
 10
1392.12230544857
 20
2448.984043225
 30
0.0
 11
1358.052019332046
 21
2448.984043225
 31
0.0
1001
REVIT
1002
{
1070
     3
1000
790271
1002
}
  0
LINE
  5
233
330
1F2
100
AcDbEntity
  8
M-PIPE
100
AcDbLine
 10
1358.052019332046
 20
2448.984043225
 30
0.0
 11
1342.317893225543
 21
2448.984043225
 31
0.0
1001
REVIT
1002
{
1070
     3
1000
790271
1002
}
  0
LINE
  5
234
330
1F2
100
AcDbEntity
  8
M-PIPE
100
AcDbLine
 10
1342.317893225558
 20
2448.984043225
 30
0.0
 11
1342.31880272677
 21
2448.984043225
 31
0.0
1001
REVIT
1002
{
1070
     3
1000
790271
1002
}
  0
LINE
  5
235
330
1F2
100
AcDbEntity
  8
M-PIPE
100
AcDbLine
 10
1461.909905159541
 20
2448.984043225
 30
0.0
 11
1461.910814660753
 21
2448.984043225
 31
0.0
1001
REVIT
1002
{
1070
     3
1000
790271
1002
}
  0
LINE
  5
236
330
1F2
100
AcDbEntity
  8
M-PIPE
100
AcDbLine
 10
1461.910814660753
 20
2448.984043225
 30
0.0
 11
1446.176688554249
 21
2448.984043225
 31
0.0
1001
REVIT
1002
{
1070
     3
1000
790271
1002
}
  0
LINE
  5
237
330
1F2
100
AcDbEntity
  8
M-PIPE
100
AcDbLine
 10
1446.176688554249
 20
2448.984043225
 30
0.0
 11
1412.106402437728
 21
2448.984043225
 31
0.0
1001
REVIT
1002
{
1070
     3
1000
790271
1002
}
  0
LINE
  5
238
330
1F2
100
AcDbEntity
  8
M-PIPE
100
AcDbLine
 10
1446.176688554249
 20
2448.984043225
 30
0.0
 11
1446.176688554249
 21
2462.984043225001
 31
0.0
1001
REVIT
1002
{
1070
     3
1000
790271
1002
}
  0
LINE
  5
239
330
1F2
100
AcDbEntity
  8
M-PIPE
100
AcDbLine
 10
1358.052019332046
 20
2448.984043225
 30
0.0
 11
1358.052019332046
 21
2462.984043225001
 31
0.0
1001
REVIT
1002
{
1070
     3
1000
790271
1002
}
  0
LINE
  5
23A
330
1F2
100
AcDbEntity
  8
M-PIPE
100
AcDbLine
 10
1445.614353943159
 20
2472.484043225001
 30
0.0
 11
1392.614353943159
 21
2472.484043225001
 31
0.0
1001
REVIT
1002
{
1070
     3
1000
790271
1002
}
  0
LINE
  5
23B
330
1F2
100
AcDbEntity
  8
M-PIPE
100
AcDbLine
 10
1429.964353943159
 20
2492.984043225066
 30
0.0
 11
1408.26435394316
 21
2492.984043225066
 31
0.0
1001
REVIT
1002
{
1070
     3
1000
790271
1002
}
  0
LINE
  5
23C
330
1F2
100
AcDbEntity
  8
M-PIPE
100
AcDbLine
 10
1420.767478943121
 20
2291.888808850011
 30
0.0
 11
1420.767478943121
 21
2326.119277600011
 31
0.0
1001
REVIT
1002
{
1070
     3
1000
790271
1002
}
  0
LINE
  5
23D
330
1F2
100
AcDbEntity
  8
M-PIPE
100
AcDbLine
 10
1383.461228943086
 20
2326.119277600011
 30
0.0
 11
1383.461228943086
 21
2291.888808850011
 31
0.0
1001
REVIT
1002
{
1070
     3
1000
790271
1002
}
  0
LINE
  5
23E
330
1F2
100
AcDbEntity
  8
M-PIPE
100
AcDbLine
 10
1420.767478943119
 20
2291.888808850009
 30
0.0
 11
1402.114353943102
 21
2291.888808850009
 31
0.0
1001
REVIT
1002
{
1070
     3
1000
790271
1002
}
  0
LINE
  5
23F
330
1F2
100
AcDbEntity
  8
M-PIPE
100
AcDbLine
 10
1395.756810317917
 20
2291.888808850009
 30
0.0
 11
1383.461228943084
 21
2291.888808850009
 31
0.0
1001
REVIT
1002
{
1070
     3
1000
790271
1002
}
  0
LINE
  5
240
330
1F2
100
AcDbEntity
  8
M-PIPE
100
AcDbLine
 10
1420.767478943119
 20
2326.119277600009
 30
0.0
 11
1408.471897568287
 21
2326.119277600009
 31
0.0
1001
REVIT
1002
{
1070
     3
1000
790271
1002
}
  0
LINE
  5
241
330
1F2
100
AcDbEntity
  8
M-PIPE
100
AcDbLine
 10
1402.114353943102
 20
2326.119277600009
 30
0.0
 11
1383.461228943084
 21
2326.119277600009
 31
0.0
1001
REVIT
1002
{
1070
     3
1000
790271
1002
}
  0
LINE
  5
242
330
1F2
100
AcDbEntity
  8
M-PIPE
100
AcDbLine
 10
1416.997166443102
 20
2334.984043225002
 30
0.0
 11
1416.997166443102
 21
2326.119277600009
 31
0.0
1001
REVIT
1002
{
1070
     3
1000
790271
1002
}
  0
LINE
  5
243
330
1F2
100
AcDbEntity
  8
M-PIPE
100
AcDbLine
 10
1395.949691159345
 20
2334.984043225002
 30
0.0
 11
1395.949691159345
 21
2326.119277600009
 31
0.0
1001
REVIT
1002
{
1070
     3
1000
790271
1002
}
  0
LINE
  5
244
330
1F2
100
AcDbEntity
  8
M-PIPE
100
AcDbLine
 10
1387.231541443102
 20
2334.984043225002
 30
0.0
 11
1387.231541443102
 21
2326.119277600009
 31
0.0
1001
REVIT
1002
{
1070
     3
1000
790271
1002
}
  0
LINE
  5
245
330
1F2
100
AcDbEntity
  8
M-PIPE
100
AcDbLine
 10
1418.485447693102
 20
2279.98255885001
 30
0.0
 11
1408.895483005233
 21
2279.98255885001
 31
0.0
1001
REVIT
1002
{
1070
     3
1000
790271
1002
}
  0
LINE
  5
246
330
1F2
100
AcDbEntity
  8
M-PIPE
100
AcDbLine
 10
1408.895483005233
 20
2279.98255885001
 30
0.0
 11
1402.114353943102
 21
2279.98255885001
 31
0.0
1001
REVIT
1002
{
1070
     3
1000
790271
1002
}
  0
LINE
  5
247
330
1F2
100
AcDbEntity
  8
M-PIPE
100
AcDbLine
 10
1395.764353943102
 20
2279.98255885001
 30
0.0
 11
1395.33322488097
 21
2279.98255885001
 31
0.0
1001
REVIT
1002
{
1070
     3
1000
790271
1002
}
  0
LINE
  5
248
330
1F2
100
AcDbEntity
  8
M-PIPE
100
AcDbLine
 10
1395.33322488097
 20
2279.98255885001
 30
0.0
 11
1385.743260193102
 21
2279.98255885001
 31
0.0
1001
REVIT
1002
{
1070
     3
1000
790271
1002
}
  0
LINE
  5
249
330
1F2
100
AcDbEntity
  8
M-PIPE
100
AcDbLine
 10
1418.485447693102
 20
2291.888808850009
 30
0.0
 11
1418.485447693102
 21
2279.98255885001
 31
0.0
1001
REVIT
1002
{
1070
     3
1000
790271
1002
}
  0
LINE
  5
24A
330
1F2
100
AcDbEntity
  8
M-PIPE
100
AcDbLine
 10
1408.895483005233
 20
2291.888808850009
 30
0.0
 11
1408.895483005233
 21
2279.98255885001
 31
0.0
1001
REVIT
1002
{
1070
     3
1000
790271
1002
}
  0
LINE
  5
24B
330
1F2
100
AcDbEntity
  8
M-PIPE
100
AcDbLine
 10
1395.33322488097
 20
2291.888808850009
 30
0.0
 11
1395.33322488097
 21
2279.98255885001
 31
0.0
1001
REVIT
1002
{
1070
     3
1000
790271
1002
}
  0
LINE
  5
24C
330
1F2
100
AcDbEntity
  8
M-PIPE
100
AcDbLine
 10
1385.743260193102
 20
2291.888808850009
 30
0.0
 11
1385.743260193102
 21
2279.98255885001
 31
0.0
1001
REVIT
1002
{
1070
     3
1000
790271
1002
}
  0
ARC
  5
24D
330
1F2
100
AcDbEntity
  8
M-PIPE
100
AcDbCircle
 10
1402.114353943102
 20
2309.004043225002
 30
0.0
 40
4.762500000000045
100
AcDbArc
 50
90.0
 51
269.9999999999997
1001
REVIT
1002
{
1070
     3
1000
790271
1002
}
  0
ARC
  5
24E
330
1F2
100
AcDbEntity
  8
M-PIPE
100
AcDbCircle
 10
1402.114353943102
 20
2309.004043225002
 30
0.0
 40
4.762500000000272
100
AcDbArc
 50
269.9999999999997
 51
90.0
1001
REVIT
1002
{
1070
     3
1000
790271
1002
}
  0
ARC
  5
24F
330
1F2
100
AcDbEntity
  8
M-PIPE
100
AcDbCircle
 10
1402.114353943102
 20
2309.004043225002
 30
0.0
 40
15.08124999999218
100
AcDbArc
 50
220.2468256002217
 51
245.0989376296166
1001
REVIT
1002
{
1070
     3
1000
790271
1002
}
  0
LWPOLYLINE
  5
250
330
1F2
100
AcDbEntity
  8
M-PIPE
100
AcDbPolyline
 90
       11
 70
   128
 43
0.0
 10
1390.603314402148
 20
2299.260323696564
 10
1388.703508430596
 20
2302.105251721995
 10
1387.49374229963
 20
2305.305149237197
 10
1387.036263152979
 20
2308.695369145965
 10
1387.354610061103
 20
2312.101471529264
 10
1388.432402845023
 20
2315.348199253351
 10
1390.214184899853
 20
2318.268495626755
 10
1392.608276651479
 20
2320.712100112801
 10
1395.491492825036
 20
2322.553279815048
 10
1398.715480803463
 20
2323.697298920827
 10
1402.114353943102
 20
2324.085293224994
1001
REVIT
1002
{
1070
     3
1000
790271
1002
}
  0
ARC
  5
251
330
1F2
100
AcDbEntity
  8
M-PIPE
100
AcDbCircle
 10
1402.114353943102
 20
2309.004043225002
 30
0.0
 40
15.08124999999252
100
AcDbArc
 50
40.24682560021706
 51
65.09893762962201
1001
REVIT
1002
{
1070
     3
1000
790271
1002
}
  0
LWPOLYLINE
  5
252
330
1F2
100
AcDbEntity
  8
M-PIPE
100
AcDbPolyline
 90
       11
 70
   128
 43
0.0
 10
1413.625393484057
 20
2318.747762753439
 10
1415.525199455609
 20
2315.902834728007
 10
1416.734965586575
 20
2312.702937212805
 10
1417.192444733226
 20
2309.312717304038
 10
1416.874097825101
 20
2305.906614920739
 10
1415.796305041181
 20
2302.659887196652
 10
1414.014522986352
 20
2299.739590823248
 10
1411.620431234726
 20
2297.295986337202
 10
1408.737215061169
 20
2295.454806634955
 10
1405.513227082742
 20
2294.310787529176
 10
1402.114353943102
 20
2293.922793225009
1001
REVIT
1002
{
1070
     3
1000
790271
1002
}
  0
LWPOLYLINE
  5
253
330
1F2
100
AcDbEntity
  8
M-PIPE
100
AcDbPolyline
 90
       12
 70
   128
 43
0.0
 10
1402.114353943102
 20
2320.910293224994
 10
1399.400665206859
 20
2320.596915280929
 10
1396.829827527328
 20
2319.67327795029
 10
1394.537172150964
 20
2318.188002346818
 10
1392.643386553384
 20
2316.219274736548
 10
1391.248161340291
 20
2313.870730741262
 10
1390.42494244282
 20
2311.26599986459
 10
1390.217064856557
 20
2308.542197521877
 10
1390.635471447746
 20
2305.842707159328
 10
1391.658136910799
 20
2303.309632418282
 10
1393.231227200523
 20
2301.076316669576
 10
1395.271933405495
 20
2299.260323696564
1001
REVIT
1002
{
1070
     3
1000
790271
1002
}
  0
LWPOLYLINE
  5
254
330
1F2
100
AcDbEntity
  8
M-PIPE
100
AcDbPolyline
 90
       12
 70
   128
 43
0.0
 10
1402.114353943102
 20
2297.09779322501
 10
1404.828042679346
 20
2297.411171169074
 10
1407.398880358876
 20
2298.334808499713
 10
1409.691535735241
 20
2299.820084103185
 10
1411.585321332821
 20
2301.788811713455
 10
1412.980546545913
 20
2304.137355708741
 10
1413.803765443385
 20
2306.742086585413
 10
1414.011643029647
 20
2309.465888928126
 10
1413.593236438458
 20
2312.165379290675
 10
1412.570570975406
 20
2314.69845403172
 10
1410.997480685682
 20
2316.931769780426
 10
1408.95677448071
 20
2318.747762753439
1001
REVIT
1002
{
1070
     3
1000
790271
1002
}
  0
ARC
  5
255
330
1F2
100
AcDbEntity
  8
M-PIPE
100
AcDbCircle
 10
1402.114353943102
 20
2309.004043225002
 30
0.0
 40
11.90624999999239
100
AcDbArc
 50
234.9219701748866
 51
269.9999999999997
1001
REVIT
1002
{
1070
     3
1000
790271
1002
}
  0
LINE
  5
256
330
1F2
100
AcDbEntity
  8
M-PIPE
100
AcDbLine
 10
1395.271933405495
 20
2299.260323696564
 30
0.0
 11
1390.603314402148
 21
2299.260323696564
 31
0.0
1001
REVIT
1002
{
1070
     3
1000
790271
1002
}
  0
ARC
  5
257
330
1F2
100
AcDbEntity
  8
M-PIPE
100
AcDbCircle
 10
1402.114353943102
 20
2309.004043225002
 30
0.0
 40
11.9062499999921
100
AcDbArc
 50
54.92197017488409
 51
90.0
1001
REVIT
1002
{
1070
     3
1000
790271
1002
}
  0
LINE
  5
258
330
1F2
100
AcDbEntity
  8
M-PIPE
100
AcDbLine
 10
1408.95677448071
 20
2318.747762753439
 30
0.0
 11
1413.625393484057
 21
2318.747762753438
 31
0.0
1001
REVIT
1002
{
1070
     3
1000
790271
1002
}
  0
LINE
  5
259
330
1F2
100
AcDbEntity
  8
M-PIPE
100
AcDbLine
 10
1402.114353943102
 20
2275.666543225002
 30
0.0
 11
1402.114353943102
 21
2297.09779322501
 31
0.0
1001
REVIT
1002
{
1070
     3
1000
790271
1002
}
  0
LINE
  5
25A
330
1F2
100
AcDbEntity
  8
M-PIPE
100
AcDbLine
 10
1402.114353943102
 20
2342.341543225018
 30
0.0
 11
1402.114353943102
 21
2320.910293224994
 31
0.0
1001
REVIT
1002
{
1070
     3
1000
790271
1002
}
  0
LINE
  5
25B
330
1F2
100
AcDbEntity
  8
M-PIPE
100
AcDbLine
 10
1395.764353943102
 20
2295.324803422942
 30
0.0
 11
1395.764353943102
 21
2275.666543225002
 31
0.0
1001
REVIT
1002
{
1070
     3
1000
790271
1002
}
  0
LINE
  5
25C
330
1F2
100
AcDbEntity
  8
M-PIPE
100
AcDbLine
 10
1395.764353943102
 20
2275.666543225002
 30
0.0
 11
1402.114353943102
 21
2275.666543225002
 31
0.0
1001
REVIT
1002
{
1070
     3
1000
790271
1002
}
  0
LINE
  5
25D
330
1F2
100
AcDbEntity
  8
M-PIPE
100
AcDbLine
 10
1408.464353943102
 20
2322.683283027062
 30
0.0
 11
1408.464353943102
 21
2342.341543225018
 31
0.0
1001
REVIT
1002
{
1070
     3
1000
790271
1002
}
  0
LINE
  5
25E
330
1F2
100
AcDbEntity
  8
M-PIPE
100
AcDbLine
 10
1408.464353943102
 20
2342.341543225018
 30
0.0
 11
1402.114353943102
 21
2342.341543225018
 31
0.0
1001
REVIT
1002
{
1070
     3
1000
790271
1002
}
  0
LWPOLYLINE
  5
25F
330
1F2
100
AcDbEntity
  8
P-SANR-FIXT
100
AcDbPolyline
 90
       21
 70
   128
 43
0.0
 10
1318.163961929838
 20
1514.982558850009
 10
1317.364175246105
 20
1514.99855671679
 10
1316.565668050454
 20
1515.046524723957
 10
1315.769717784059
 20
1515.126386132932
 10
1314.977597797553
 20
1515.238013182497
 10
1314.190575313936
 20
1515.381227293185
 10
1313.409909401295
 20
1515.555799352969
 10
1312.636848958556
 20
1515.761450083794
 10
1311.872630717515
 20
1515.997850488361
 10
1311.118477264336
 20
1516.264622376451
 10
1310.375595083665
 20
1516.561338969952
 10
1309.645172628518
 20
1516.88752558561
 10
1308.928378419008
 20
1517.242660394424
 10
1308.226359172963
 20
1517.626175256457
 10
1307.54023797142
 20
1518.037456629741
 10
1306.871112461937
 20
1518.475846551816
 10
1306.22005310259
 20
1518.940643692324
 10
1305.588101449468
 20
1519.431104474991
 10
1304.976268490408
 20
1519.946444267192
 10
1304.385533027627
 20
1520.485838635191
 10
1304.307029270873
 20
1520.560859321697
  0
LWPOLYLINE
  5
260
330
1F2
100
AcDbEntity
  8
P-SANR-FIXT
100
AcDbPolyline
 90
       35
 70
   128
 43
0.0
 10
1381.114353943102
 20
1514.982558850009
 10
1378.914188911066
 20
1514.982558850009
 10
1375.706367865115
 20
1514.982558850009
 10
1372.540793963487
 20
1514.982558850009
 10
1369.422531449136
 20
1514.982558850009
 10
1366.356568876892
 20
1514.982558850009
 10
1363.347811132833
 20
1514.982558850009
 10
1360.401071587516
 20
1514.982558850009
 10
1357.521064395609
 20
1514.982558850009
 10
1354.71239695425
 20
1514.982558850009
 10
1351.979562532195
 20
1514.982558850009
 10
1349.326933081546
 20
1514.982558850009
 10
1346.758752243559
 20
1514.982558850009
 10
1344.279128559727
 20
1514.982558850009
 10
1341.892028898985
 20
1514.982558850009
 10
1339.601272111568
 20
1514.982558850009
 10
1337.41052291967
 20
1514.982558850009
 10
1335.323286054661
 20
1514.982558850009
 10
1333.342900650272
 20
1514.982558850009
 10
1331.472534900691
 20
1514.982558850009
 10
1329.715180992127
 20
1514.982558850009
 10
1328.073650315952
 20
1514.982558850009
 10
1326.550568971072
 20
1514.982558850009
 10
1325.148373562733
 20
1514.982558850009
 10
1323.869307304469
 20
1514.982558850009
 10
1322.71541642944
 20
1514.982558850009
 10
1321.688546916897
 20
1514.982558850009
 10
1320.790341539005
 20
1514.982558850009
 10
1320.022237232762
 20
1514.982558850009
 10
1319.385462801205
 20
1514.982558850009
 10
1318.881036947586
 20
1514.982558850009
 10
1318.509766645666
 20
1514.982558850009
 10
1318.272245848728
 20
1514.982558850009
 10
1318.168854539378
 20
1514.982558850009
 10
1318.163961929837
 20
1514.982558850009
  0
LWPOLYLINE
  5
261
330
1F2
100
AcDbEntity
  8
P-SANR-FIXT
100
AcDbPolyline
 90
       41
 70
   128
 43
0.0
 10
1318.163961929837
 20
1514.982558850009
 10
1318.231113289217
 20
1514.982558850009
 10
1318.432459939506
 20
1514.982558850009
 10
1318.767679769016
 20
1514.982558850009
 10
1319.236236497528
 20
1514.982558850009
 10
1319.837380534231
 20
1514.982558850009
 10
1320.570150176904
 20
1514.982558850009
 10
1321.433373150433
 20
1514.98255885001
 10
1322.425668482206
 20
1514.98255885001
 10
1323.54544871137
 20
1514.98255885001
 10
1324.790922428433
 20
1514.98255885001
 10
1326.160097141133
 20
1514.98255885001
 10
1327.650782462006
 20
1514.98255885001
 10
1329.260593612534
 20
1514.98255885001
 10
1330.986955238284
 20
1514.98255885001
 10
1332.827105528926
 20
1514.98255885001
 10
1334.778100636539
 20
1514.98255885001
 10
1336.836819385142
 20
1514.98255885001
 10
1338.999968263906
 20
1514.98255885001
 10
1341.264086696072
 20
1514.98255885001
 10
1343.625552575137
 20
1514.98255885001
 10
1346.080588059443
 20
1514.98255885001
 10
1348.625265615932
 20
1514.98255885001
 10
1351.255514303346
 20
1514.98255885001
 10
1353.967126284878
 20
1514.98255885001
 10
1356.755763559802
 20
1514.98255885001
 10
1359.616964903355
 20
1514.98255885001
 10
1362.546153003747
 20
1514.98255885001
 10
1365.538641784875
 20
1514.98255885001
 10
1368.589643903054
 20
1514.98255885001
 10
1371.69427840574
 20
1514.98255885001
 10
1374.847578540016
 20
1514.98255885001
 10
1378.044499698335
 20
1514.98255885001
 10
1381.279927488818
 20
1514.98255885001
 10
1384.548685917186
 20
1514.98255885001
 10
1387.845545667254
 20
1514.98255885001
 10
1391.165232466712
 20
1514.98255885001
 10
1394.502435524845
 20
1514.98255885001
 10
1397.851816028658
 20
1514.98255885001
 10
1401.208015683841
 20
1514.98255885001
 10
1402.114353943103
 20
1514.98255885001
  0
LINE
  5
262
330
1F2
100
AcDbEntity
  8
P-SANR-FIXT
100
AcDbLine
 10
1268.114353943103
 20
1929.982558850009
 30
0.0
 11
1268.114353943103
 21
1694.982558850031
 31
0.0
  0
LINE
  5
263
330
1F2
100
AcDbEntity
  8
P-SANR-FIXT
100
AcDbLine
 10
1268.114353943103
 20
2125.182558850012
 30
0.0
 11
1268.114353943103
 21
1929.982558850009
 31
0.0
  0
LWPOLYLINE
  5
264
330
1F2
100
AcDbEntity
  8
P-SANR-FIXT
100
AcDbPolyline
 90
       17
 70
   128
 43
0.0
 10
1268.114353943103
 20
2125.18255885001
 10
1267.681192442565
 20
2133.822995590609
 10
1267.593902737364
 20
2142.473842743414
 10
1267.852624472407
 20
2151.121260798397
 10
1268.45694374811
 20
2159.751415731354
 10
1269.405893782546
 20
2168.350501135394
 10
1270.697956458093
 20
2176.904760308244
 10
1272.331064750093
 20
2185.400508260039
 10
1274.302606033659
 20
2193.824153606386
 10
1276.609426263309
 20
2202.162220311678
 10
1279.247835018772
 20
2210.401369247881
 10
1282.213611408868
 20
2218.528419534287
 10
1285.502010824041
 20
2226.530369624117
 10
1289.107772526711
 20
2234.394418104218
 10
1293.025128067344
 20
2242.107984174597
 10
1297.247810512733
 20
2249.658727775014
 10
1299.249266775867
 20
2253.005814879702
  0
LWPOLYLINE
  5
265
330
1F2
100
AcDbEntity
  8
P-SANR-FIXT
100
AcDbPolyline
 90
       27
 70
   128
 43
0.0
 10
1299.249266775868
 20
2253.005814879703
 10
1299.787127822344
 20
2253.848769308164
 10
1300.358267823695
 20
2254.669540757859
 10
1300.961773077756
 20
2255.466816169557
 10
1301.596678104861
 20
2256.239320072676
 10
1302.261967192406
 20
2256.985816625763
 10
1302.956576019773
 20
2257.705111593576
 10
1303.679393361012
 20
2258.39605425761
 10
1304.42926286257
 20
2259.057539256994
 10
1305.204984893209
 20
2259.688508356839
 10
1306.005318463157
 20
2260.287952141186
 10
1306.828983209432
 20
2260.854911627852
 10
1307.674661444146
 20
2261.388479802604
 10
1308.541000262524
 20
2261.887803070187
 10
1309.426613707267
 20
2262.352082619885
 10
1310.330084985783
 20
2262.780575703464
 10
1311.249968736757
 20
2263.172596823393
 10
1312.18479334242
 20
2263.52751882951
 10
1313.133063282819
 20
2263.844773922316
 10
1314.093261528339
 20
2264.123854561341
 10
1315.063851966617
 20
2264.364314277096
 10
1316.04328186
 20
2264.565768385332
 10
1317.029984329593
 20
2264.72789460245
 10
1318.02238086193
 20
2264.850433561087
 10
1319.018883834258
 20
2264.93318922505
 10
1320.017899054399
 20
2264.97602920293
 10
1320.5892480876
 20
2264.982558850011
  0
LWPOLYLINE
  5
266
330
1F2
100
AcDbEntity
  8
P-SANR-FIXT
100
AcDbPolyline
 90
       41
 70
   128
 43
0.0
 10
1402.114353943103
 20
2264.982558850011
 10
1398.854219240447
 20
2264.982558850011
 10
1395.599300057856
 20
2264.982558850011
 10
1392.354803571678
 20
2264.982558850011
 10
1389.125920284168
 20
2264.982558850011
 10
1385.917815719794
 20
2264.982558850011
 10
1382.7356221615
 20
2264.982558850011
 10
1379.584430440147
 20
2264.982558850011
 10
1376.469281790273
 20
2264.982558850011
 10
1373.395159785185
 20
2264.982558850011
 10
1370.366982364316
 20
2264.982558850011
 10
1367.389593965561
 20
2264.982558850011
 10
1364.467757775217
 20
2264.982558850011
 10
1361.606148107896
 20
2264.982558850011
 10
1358.80934292862
 20
2264.982558850011
 10
1356.08181652906
 20
2264.982558850011
 10
1353.42793236961
 20
2264.982558850011
 10
1350.851936098796
 20
2264.982558850011
 10
1348.357948761133
 20
2264.982558850011
 10
1345.949960204339
 20
2264.982558850011
 10
1343.63182269643
 20
2264.982558850011
 10
1341.407244762907
 20
2264.982558850011
 10
1339.279785253913
 20
2264.982558850011
 10
1337.252847650828
 20
2264.982558850011
 10
1335.329674621428
 20
2264.982558850011
 10
1333.513342832304
 20
2264.982558850011
 10
1331.806758026856
 20
2264.982558850011
 10
1330.21265037672
 20
2264.982558850011
 10
1328.733570114078
 20
2264.982558850011
 10
1327.37188345183
 20
2264.982558850011
 10
1326.129768798158
 20
2264.982558850011
 10
1325.009213271538
 20
2264.982558850011
 10
1324.012009521773
 20
2264.982558850011
 10
1323.139752862137
 20
2264.982558850011
 10
1322.393838717214
 20
2264.982558850011
 10
1321.775460390517
 20
2264.982558850011
 10
1321.285607155453
 20
2264.982558850011
 10
1320.925062672704
 20
2264.982558850011
 10
1320.694403736529
 20
2264.982558850011
 10
1320.593999352021
 20
2264.982558850011
 10
1320.5892480876
 20
2264.982558850011
  0
LWPOLYLINE
  5
267
330
1F2
100
AcDbEntity
  8
P-SANR-FIXT
100
AcDbPolyline
 90
       37
 70
   128
 43
0.0
 10
1320.5892480876
 20
2264.982558850011
 10
1320.654459476737
 20
2264.982558850011
 10
1320.849989319836
 20
2264.982558850011
 10
1321.175524810859
 20
2264.982558850011
 10
1321.630545162465
 20
2264.982558850011
 10
1322.214322439155
 20
2264.982558850011
 10
1322.925922721821
 20
2264.982558850011
 10
1323.76420760181
 20
2264.982558850011
 10
1324.727836002139
 20
2264.982558850011
 10
1325.81526632293
 20
2264.982558850011
 10
1327.024758907643
 20
2264.982558850011
 10
1328.354378826153
 20
2264.982558850011
 10
1329.801998970228
 20
2264.982558850011
 10
1331.365303456446
 20
2264.982558850011
 10
1333.041791331118
 20
2264.982558850011
 10
1334.828780571275
 20
2264.982558850011
 10
1336.723412375336
 20
2264.982558850011
 10
1338.722655736582
 20
2264.982558850011
 10
1340.823312292118
 20
2264.982558850011
 10
1343.02202143957
 20
2264.982558850011
 10
1345.315265713336
 20
2264.982558850011
 10
1347.699376411777
 20
2264.982558850011
 10
1350.170539466359
 20
2264.982558850011
 10
1352.724801543347
 20
2264.982558850011
 10
1355.358076368299
 20
2264.982558850011
 10
1358.066151263231
 20
2264.982558850011
 10
1360.844693886001
 20
2264.982558850011
 10
1363.689259161138
 20
2264.982558850011
 10
1366.59529639101
 20
2264.98255885001
 10
1369.55815653597
 20
2264.98255885001
 10
1372.57309965183
 20
2264.98255885001
 10
1375.635302472758
 20
2264.98255885001
 10
1378.739866127475
 20
2264.98255885001
 10
1381.881823976406
 20
2264.98255885001
 10
1385.056149557241
 20
2264.98255885001
 10
1388.257764626204
 20
2264.98255885001
 10
1388.914353943103
 20
2264.98255885001
  0
LWPOLYLINE
  5
268
330
1F2
100
AcDbEntity
  8
P-SANR-FIXT
100
AcDbPolyline
 90
       12
 70
   128
 43
0.0
 10
1304.307029270872
 20
1520.560859321696
 10
1297.653734667721
 20
1536.783884701016
 10
1291.654509974018
 20
1553.259994211723
 10
1286.318952669505
 20
1569.962829593317
 10
1281.655598507679
 20
1586.865669872269
 10
1277.671907860402
 20
1603.941474109878
 10
1274.374253782903
 20
1621.16292466201
 10
1271.767911818243
 20
1638.502470881494
 10
1269.857051557574
 20
1655.932373193284
 10
1268.644729969687
 20
1673.424747471864
 10
1268.132886510506
 20
1690.951609649894
 10
1268.114353943103
 20
1694.982558850031
  0
LINE
  5
269
330
1F2
100
AcDbEntity
  8
P-SANR-FIXT
100
AcDbLine
 10
1402.114353943101
 20
1514.982558850009
 30
0.0
 11
1402.114353943101
 21
1520.560859321697
 31
0.0
  0
LINE
  5
26A
330
1F2
100
AcDbEntity
  8
P-SANR-FIXT
100
AcDbLine
 10
1402.114353943101
 20
1847.482558850009
 30
0.0
 11
1402.114353943101
 21
1929.982558850009
 31
0.0
  0
LINE
  5
26B
330
1F2
100
AcDbEntity
  8
P-SANR-FIXT
100
AcDbLine
 10
1402.114353943101
 20
1929.982558850009
 30
0.0
 11
1402.114353943101
 21
2012.48255885001
 31
0.0
  0
LINE
  5
26C
330
1F2
100
AcDbEntity
  8
P-SANR-FIXT
100
AcDbLine
 10
1325.329782065228
 20
2125.182558850009
 30
0.0
 11
1268.114353943102
 21
2125.182558850009
 31
0.0
  0
LINE
  5
26D
330
1F2
100
AcDbEntity
  8
P-SANR-FIXT
100
AcDbLine
 10
1402.114353943101
 20
2177.497469931453
 30
0.0
 11
1402.114353943101
 21
2253.005814879701
 31
0.0
  0
LINE
  5
26E
330
1F2
100
AcDbEntity
  8
P-SANR-FIXT
100
AcDbLine
 10
1402.114353943101
 20
2253.005814879703
 30
0.0
 11
1402.114353943101
 21
2264.982558850009
 31
0.0
  0
LINE
  5
26F
330
1F2
100
AcDbEntity
  8
P-SANR-FIXT
100
AcDbLine
 10
1402.114353943102
 20
1520.560859321696
 30
0.0
 11
1304.307029270871
 21
1520.560859321696
 31
0.0
  0
LINE
  5
270
330
1F2
100
AcDbEntity
  8
P-SANR-FIXT
100
AcDbLine
 10
1402.114353943101
 20
1520.560859321696
 30
0.0
 11
1402.114353943101
 21
1682.468679450783
 31
0.0
  0
LINE
  5
271
330
1F2
100
AcDbEntity
  8
P-SANR-FIXT
100
AcDbLine
 10
1486.114353943103
 20
1603.98255885001
 30
0.0
 11
1486.114353943103
 21
2176.98255885001
 31
0.0
  0
LWPOLYLINE
  5
272
330
1F2
100
AcDbEntity
  8
P-SANR-FIXT
100
AcDbPolyline
 90
       41
 70
   128
 43
0.0
 10
1486.114353943103
 20
1603.98255885001
 10
1486.082358209543
 20
1602.382985482544
 10
1485.986422195208
 20
1600.785971091243
 10
1485.826699377258
 20
1599.194070558453
 10
1485.603445278129
 20
1597.609830585439
 10
1485.317017056753
 20
1596.035785618207
 10
1484.967872937185
 20
1594.474453792924
 10
1484.556571475535
 20
1592.928332907445
 10
1484.083770666401
 20
1591.399896425365
 10
1483.550226890221
 20
1589.891589519006
 10
1482.956793703219
 20
1588.405825157663
 10
1482.304420471902
 20
1586.944980247369
 10
1481.594150854275
 20
1585.51139182835
 10
1480.827121130209
 20
1584.10735333626
 10
1480.00455838364
 20
1582.735110933174
 10
1479.12777853949
 20
1581.396859914208
 10
1478.198184258475
 20
1580.094741195514
 10
1477.21726269314
 20
1578.830837889271
 10
1476.186583108739
 20
1577.60717197115
 10
1475.10779437274
 20
1576.425701045587
 10
1473.98262231699
 20
1575.288315214028
 10
1472.812866976755
 20
1574.196834051175
 10
1471.600399711047
 20
1573.153003694051
 10
1470.347160208842
 20
1572.158494048555
 10
1469.055153386001
 20
1571.21489611797
 10
1467.726446177829
 20
1570.323719457694
 10
1466.363164232414
 20
1569.486389760276
 10
1464.967488510053
 20
1568.704246574611
 10
1463.541651794172
 20
1567.978541162949
 10
1462.087935119354
 20
1567.310434499139
 10
1460.60866412217
 20
1566.700995411321
 10
1459.106205320654
 20
1566.151198872028
 10
1457.582962328381
 20
1565.66192443844
 10
1456.041372009198
 20
1565.233954845279
 10
1454.48390057876
 20
1564.867974752597
 10
1452.913039659113
 20
1564.564569650471
 10
1451.331302292629
 20
1564.324224922342
 10
1449.741218921675
 20
1564.147325068504
 10
1448.145333340446
 20
1564.034153090986
 10
1446.546198625434
 20
1563.984890040811
 10
1446.114353943103
 20
1563.98255885001
  0
LWPOLYLINE
  5
273
330
1F2
100
AcDbEntity
  8
P-SANR-FIXT
100
AcDbPolyline
 90
       41
 70
   128
 43
0.0
 10
1402.114353943104
 20
1563.98255885001
 10
1403.873884647315
 20
1563.98255885001
 10
1405.630600477747
 20
1563.98255885001
 10
1407.381691063816
 20
1563.98255885001
 10
1409.12435503413
 20
1563.98255885001
 10
1410.855804498086
 20
1563.98255885001
 10
1412.573269505897
 20
1563.98255885001
 10
1414.274002479924
 20
1563.98255885001
 10
1415.955282610213
 20
1563.98255885001
 10
1417.614420207207
 20
1563.98255885001
 10
1419.248761004684
 20
1563.98255885001
 10
1420.855690406007
 20
1563.98255885001
 10
1422.432637666928
 20
1563.98255885001
 10
1423.977080008228
 20
1563.98255885001
 10
1425.486546651622
 20
1563.98255885001
 10
1426.958622772485
 20
1563.98255885001
 10
1428.390953363049
 20
1563.98255885001
 10
1429.781246999916
 20
1563.98255885001
 10
1431.127279509848
 20
1563.98255885001
 10
1432.426897527968
 20
1563.98255885001
 10
1433.678021942682
 20
1563.98255885001
 10
1434.878651221821
 20
1563.98255885001
 10
1436.026864614658
 20
1563.98255885001
 10
1437.120825224704
 20
1563.98255885001
 10
1438.158782948347
 20
1563.98255885001
 10
1439.139077274651
 20
1563.98255885001
 10
1440.06013994181
 20
1563.98255885001
 10
1440.920497446041
 20
1563.98255885001
 10
1441.71877339887
 20
1563.98255885001
 10
1442.453690729061
 20
1563.98255885001
 10
1443.124073725661
 20
1563.98255885001
 10
1443.728849918883
 20
1563.98255885001
 10
1444.267051795829
 20
1563.98255885001
 10
1444.737818348307
 20
1563.98255885001
 10
1445.140396450258
 20
1563.98255885001
 10
1445.474142062596
 20
1563.98255885001
 10
1445.738521263538
 20
1563.98255885001
 10
1445.93311110276
 20
1563.98255885001
 10
1446.057600278029
 20
1563.98255885001
 10
1446.111789633222
 20
1563.98255885001
 10
1446.114353943104
 20
1563.98255885001
  0
LWPOLYLINE
  5
274
330
1F2
100
AcDbEntity
  8
P-SANR-FIXT
100
AcDbPolyline
 90
       28
 70
   128
 43
0.0
 10
1446.114353943104
 20
1563.98255885001
 10
1446.079158636187
 20
1563.98255885001
 10
1445.973629020419
 20
1563.98255885001
 10
1445.797933920674
 20
1563.98255885001
 10
1445.552354411631
 20
1563.98255885001
 10
1445.237283368119
 20
1563.98255885001
 10
1444.853224836593
 20
1563.98255885001
 10
1444.400793228777
 20
1563.98255885001
 10
1443.880712338731
 20
1563.98255885001
 10
1443.293814184933
 20
1563.98255885001
 10
1442.641037679231
 20
1563.98255885001
 10
1441.923427124782
 20
1563.98255885001
 10
1441.142130545392
 20
1563.98255885001
 10
1440.29839784892
 20
1563.98255885001
 10
1439.393578827694
 20
1563.98255885001
 10
1438.42912099913
 20
1563.98255885001
 10
1437.406567290013
 20
1563.98255885001
 10
1436.327553568144
 20
1563.98255885001
 10
1435.193806025303
 20
1563.98255885001
 10
1434.007138415704
 20
1563.98255885001
 10
1432.769449154379
 20
1563.98255885001
 10
1431.482718280121
 20
1563.98255885001
 10
1430.149004287841
 20
1563.98255885001
 10
1428.770440835416
 20
1563.98255885001
 10
1427.349233330292
 20
1563.98255885001
 10
1425.887655401302
 20
1563.98255885001
 10
1424.388045261346
 20
1563.98255885001
 10
1423.114353943105
 20
1563.98255885001
  0
LINE
  5
275
330
1F2
100
AcDbEntity
  8
P-SANR-FIXT
100
AcDbLine
 10
1423.114353943105
 20
1505.982558850012
 30
0.0
 11
1423.114353943105
 21
1563.98255885001
 31
0.0
  0
LINE
  5
276
330
1F2
100
AcDbEntity
  8
P-SANR-FIXT
100
AcDbLine
 10
1415.314353943103
 20
2216.982558850011
 30
0.0
 11
1415.314353943103
 21
2279.982558850011
 31
0.0
  0
LINE
  5
277
330
1F2
100
AcDbEntity
  8
P-SANR-FIXT
100
AcDbLine
 10
1358.131047816026
 20
1563.98255885001
 30
0.0
 11
1358.116918252985
 21
1563.98255885001
 31
0.0
  0
LWPOLYLINE
  5
278
330
1F2
100
AcDbEntity
  8
P-SANR-FIXT
100
AcDbPolyline
 90
       41
 70
   128
 43
0.0
 10
1446.114353943104
 20
2216.982558850011
 10
1447.713927310569
 20
2216.95056311645
 10
1449.31094170187
 20
2216.854627102116
 10
1450.90284223466
 20
2216.694904284165
 10
1452.487082207673
 20
2216.471650185036
 10
1454.061127174906
 20
2216.185221963661
 10
1455.622459000189
 20
2215.836077844092
 10
1457.168579885668
 20
2215.424776382441
 10
1458.697016367748
 20
2214.951975573308
 10
1460.205323274107
 20
2214.418431797128
 10
1461.69108763545
 20
2213.824998610126
 10
1463.151932545743
 20
2213.172625378809
 10
1464.585520964763
 20
2212.462355761182
 10
1465.989559456853
 20
2211.695326037117
 10
1467.361801859939
 20
2210.872763290547
 10
1468.700052878905
 20
2209.995983446398
 10
1470.002171597599
 20
2209.066389165382
 10
1471.266074903842
 20
2208.085467600048
 10
1472.489740821962
 20
2207.054788015646
 10
1473.671211747526
 20
2205.975999279647
 10
1474.808597579084
 20
2204.850827223897
 10
1475.900078741938
 20
2203.681071883663
 10
1476.943909099062
 20
2202.468604617954
 10
1477.938418744558
 20
2201.215365115749
 10
1478.882016675143
 20
2199.923358292909
 10
1479.773193335419
 20
2198.594651084736
 10
1480.610523032837
 20
2197.231369139322
 10
1481.392666218501
 20
2195.83569341696
 10
1482.118371630163
 20
2194.40985670108
 10
1482.786478293974
 20
2192.956140026261
 10
1483.395917381792
 20
2191.476869029077
 10
1483.945713921085
 20
2189.974410227562
 10
1484.434988354672
 20
2188.451167235289
 10
1484.862957947834
 20
2186.909576916105
 10
1485.228938040516
 20
2185.352105485668
 10
1485.532343142642
 20
2183.78124456602
 10
1485.772687870771
 20
2182.199507199537
 10
1485.949587724609
 20
2180.609423828583
 10
1486.062759702127
 20
2179.013538247354
 10
1486.112022752302
 20
2177.414403532342
 10
1486.114353943103
 20
2176.98255885001
  0
LWPOLYLINE
  5
279
330
1F2
100
AcDbEntity
  8
P-SANR-FIXT
100
AcDbPolyline
 90
       34
 70
   128
 43
0.0
 10
1415.314353943103
 20
2216.982558850011
 10
1415.955282610213
 20
2216.982558850011
 10
1417.614420207207
 20
2216.982558850011
 10
1419.248761004684
 20
2216.982558850011
 10
1420.855690406007
 20
2216.982558850011
 10
1422.432637666929
 20
2216.982558850011
 10
1423.977080008228
 20
2216.982558850011
 10
1425.486546651623
 20
2216.982558850011
 10
1426.958622772485
 20
2216.982558850011
 10
1428.390953363049
 20
2216.982558850011
 10
1429.781246999916
 20
2216.982558850011
 10
1431.127279509849
 20
2216.982558850011
 10
1432.426897527968
 20
2216.982558850011
 10
1433.678021942682
 20
2216.982558850011
 10
1434.878651221821
 20
2216.982558850011
 10
1436.026864614659
 20
2216.982558850011
 10
1437.120825224704
 20
2216.982558850011
 10
1438.158782948348
 20
2216.982558850011
 10
1439.139077274651
 20
2216.982558850011
 10
1440.06013994181
 20
2216.982558850011
 10
1440.920497446041
 20
2216.982558850011
 10
1441.71877339887
 20
2216.982558850011
 10
1442.453690729061
 20
2216.982558850011
 10
1443.124073725661
 20
2216.982558850011
 10
1443.728849918884
 20
2216.982558850011
 10
1444.267051795829
 20
2216.982558850011
 10
1444.737818348307
 20
2216.982558850011
 10
1445.140396450258
 20
2216.982558850011
 10
1445.474142062596
 20
2216.982558850011
 10
1445.738521263538
 20
2216.982558850011
 10
1445.93311110276
 20
2216.982558850011
 10
1446.057600278029
 20
2216.982558850011
 10
1446.111789633222
 20
2216.982558850011
 10
1446.114353943104
 20
2216.982558850011
  0
LWPOLYLINE
  5
27A
330
1F2
100
AcDbEntity
  8
P-SANR-FIXT
100
AcDbPolyline
 90
       41
 70
   128
 43
0.0
 10
1446.114353943104
 20
2216.982558850011
 10
1446.079158636186
 20
2216.982558850011
 10
1445.973629020419
 20
2216.982558850011
 10
1445.797933920673
 20
2216.982558850011
 10
1445.552354411631
 20
2216.982558850011
 10
1445.237283368118
 20
2216.982558850011
 10
1444.853224836593
 20
2216.982558850011
 10
1444.400793228777
 20
2216.982558850011
 10
1443.880712338731
 20
2216.982558850011
 10
1443.293814184933
 20
2216.982558850011
 10
1442.64103767923
 20
2216.982558850011
 10
1441.923427124782
 20
2216.982558850011
 10
1441.142130545392
 20
2216.982558850011
 10
1440.29839784892
 20
2216.982558850011
 10
1439.393578827694
 20
2216.982558850011
 10
1438.429120999129
 20
2216.982558850011
 10
1437.406567290012
 20
2216.982558850011
 10
1436.327553568144
 20
2216.982558850011
 10
1435.193806025303
 20
2216.982558850011
 10
1434.007138415703
 20
2216.982558850011
 10
1432.769449154379
 20
2216.982558850011
 10
1431.482718280121
 20
2216.982558850011
 10
1430.149004287841
 20
2216.982558850011
 10
1428.770440835416
 20
2216.982558850011
 10
1427.349233330291
 20
2216.982558850011
 10
1425.887655401301
 20
2216.982558850011
 10
1424.388045261345
 20
2216.982558850011
 10
1422.852801966748
 20
2216.982558850011
 10
1421.284381579279
 20
2216.982558850011
 10
1419.685293236979
 20
2216.982558850011
 10
1418.058095140077
 20
2216.982558850011
 10
1416.405390458409
 20
2216.982558850011
 10
1414.729823166909
 20
2216.982558850011
 10
1413.034073815808
 20
2216.982558850011
 10
1411.320855242325
 20
2216.982558850011
 10
1409.592908230714
 20
2216.982558850011
 10
1407.852997127581
 20
2216.982558850011
 10
1406.103905419533
 20
2216.982558850011
 10
1404.348431280181
 20
2216.982558850011
 10
1402.589383093667
 20
2216.982558850011
 10
1402.114353943104
 20
2216.982558850011
  0
LINE
  5
27B
330
1F2
100
AcDbEntity
  8
P-SANR-FIXT
100
AcDbLine
 10
1381.114353943102
 20
1514.98255885001
 30
0.0
 11
1381.114353943102
 21
1505.982558850012
 31
0.0
  0
LINE
  5
27C
330
1F2
100
AcDbEntity
  8
P-SANR-FIXT
100
AcDbLine
 10
1388.914353943103
 20
2279.982558850011
 30
0.0
 11
1388.914353943103
 21
2264.982558850011
 31
0.0
  0
ARC
  5
27D
330
1F2
100
AcDbEntity
  8
P-SANR-FIXT
100
AcDbCircle
 10
1402.114353943102
 20
2094.98255885001
 30
0.0
 40
82.50000000000028
100
AcDbArc
 50
90.00000000000055
 51
269.9999999999999
  0
ARC
  5
27E
330
1F2
100
AcDbEntity
  8
P-SANR-FIXT
100
AcDbCircle
 10
1402.114353943102
 20
2094.98255885001
 30
0.0
 40
25.40000000000009
100
AcDbArc
 50
90.00000000000104
 51
269.9999999999997
  0
ARC
  5
27F
330
1F2
100
AcDbEntity
  8
P-SANR-FIXT
100
AcDbCircle
 10
1402.114353943102
 20
2094.98255885001
 30
0.0
 40
82.49999999999976
100
AcDbArc
 50
269.9999999999998
 51
90.0
  0
ARC
  5
280
330
1F2
100
AcDbEntity
  8
P-SANR-FIXT
100
AcDbCircle
 10
1402.114353943102
 20
2094.98255885001
 30
0.0
 40
25.3999999999996
100
AcDbArc
 50
269.9999999999994
 51
89.99999999999923
  0
ARC
  5
281
330
1F2
100
AcDbEntity
  8
P-SANR-FIXT
100
AcDbCircle
 10
1402.114353943102
 20
1764.982558850009
 30
0.0
 40
82.50000000000005
100
AcDbArc
 50
90.00000000000055
 51
269.9999999999998
  0
ARC
  5
282
330
1F2
100
AcDbEntity
  8
P-SANR-FIXT
100
AcDbCircle
 10
1402.114353943102
 20
1764.982558850009
 30
0.0
 40
25.40000000000036
100
AcDbArc
 50
90.00000000000127
 51
269.9999999999999
  0
ARC
  5
283
330
1F2
100
AcDbEntity
  8
P-SANR-FIXT
100
AcDbCircle
 10
1402.114353943102
 20
1764.982558850009
 30
0.0
 40
82.49999999999976
100
AcDbArc
 50
269.9999999999998
 51
90.0
  0
ARC
  5
284
330
1F2
100
AcDbEntity
  8
P-SANR-FIXT
100
AcDbCircle
 10
1402.114353943102
 20
1764.982558850009
 30
0.0
 40
25.40000000000009
100
AcDbArc
 50
269.9999999999997
 51
89.99999999999948
  0
ENDBLK
  5
286
330
1F2
100
AcDbEntity
  8
0
100
AcDbBlockEnd
  0
ENDSEC
  0
SECTION
  2
ENTITIES
  0
INSERT
  5
171
330
71
100
AcDbEntity
  8
P-SANR-FIXT
100
AcDbBlockReference
  2
Automatic flow rate regulator valve_Caleffi_121 DN15 - 1_2__-859151-Est - Idraulica
 10
0.0
 20
0.0
 30
0.0
1001
REVIT
1002
{
1070
     1
1000
863131
1002
}
1002
{
1070
     5
1000
859151
1002
}
1002
{
1070
     2
1000
-2001160
1002
}
  0
INSERT
  5
1F1
330
71
100
AcDbEntity
  8
P-SANR-FIXT
100
AcDbBlockReference
  2
Automatic flow rate regulator valve_Caleffi_121 DN15 - 1_2__-V1-Est - Idraulica
 10
0.0
 20
0.0
 30
0.0
1001
REVIT
1002
{
1070
     1
1000
863152
1002
}
1002
{
1070
     5
1000
859151
1002
}
1002
{
1070
     2
1000
-2001160
1002
}
  0
INSERT
  5
287
330
71
100
AcDbEntity
  8
P-SANR-FIXT
100
AcDbBlockReference
  2
Automatic flow rate regulator valve_Caleffi_121 DN15 - 1_2__-V2-Est - Idraulica
 10
0.0
 20
0.0
 30
0.0
1001
REVIT
1002
{
1070
     1
1000
863172
1002
}
1002
{
1070
     5
1000
859151
1002
}
1002
{
1070
     2
1000
-2001160
1002
}
  0
ENDSEC
  0
SECTION
  2
OBJECTS
  0
DICTIONARY
  5
C
330
0
100
AcDbDictionary
281
     1
  3
ACAD_CIP_PREVIOUS_PRODUCT_INFO
350
7A
  3
ACAD_COLOR
350
63
  3
ACAD_DETAILVIEWSTYLE
350
6B
  3
ACAD_GROUP
350
D
  3
ACAD_IMAGE_VARS
350
7B
  3
ACAD_LAYOUT
350
62
  3
ACAD_MATERIAL
350
10
  3
ACAD_MLEADERSTYLE
350
66
  3
ACAD_MLINESTYLE
350
5F
  3
ACAD_PLOTSETTINGS
350
61
  3
ACAD_PLOTSTYLENAME
350
E
  3
ACAD_SCALELIST
350
42
  3
ACAD_SECTIONVIEWSTYLE
350
68
  3
ACAD_TABLESTYLE
350
64
  3
ACAD_VISUALSTYLE
350
29
  3
ACDB_RECOMPOSE_DATA
350
292
  3
AcDbVariableDictionary
350
7C
  3
REVIT_DICTIONARY
350
289
  0
DICTIONARY
  5
28E
330
71
100
AcDbDictionary
280
     1
281
     1
  3
ACAD_SORTENTS
360
28F
  0
XRECORD
  5
7A
102
{ACAD_REACTORS
330
C
102
}
330
C
100
AcDbXrecord
280
     1
300
RVT
300
2013
300
RVT2013
  0
DICTIONARY
  5
63
102
{ACAD_REACTORS
330
C
102
}
330
C
100
AcDbDictionary
281
     1
  0
DICTIONARY
  5
6B
102
{ACAD_REACTORS
330
C
102
}
330
C
100
AcDbDictionary
281
     1
  3
Imperial24
350
6C
  0
DICTIONARY
  5
D
102
{ACAD_REACTORS
330
C
102
}
330
C
100
AcDbDictionary
281
     1
  0
RASTERVARIABLES
  5
7B
102
{ACAD_REACTORS
330
C
102
}
330
C
100
AcDbRasterVariables
 90
        0
 70
     0
 71
     1
 72
     1
  0
DICTIONARY
  5
62
102
{ACAD_REACTORS
330
C
102
}
330
C
100
AcDbDictionary
281
     1
  3
Layout1
350
70
  3
Layout2
350
78
  3
Model
350
74
  0
DICTIONARY
  5
10
102
{ACAD_REACTORS
330
C
102
}
330
C
100
AcDbDictionary
281
     1
  3
ByBlock
350
19
  3
ByLayer
350
11
  3
Global
350
21
  0
DICTIONARY
  5
66
102
{ACAD_REACTORS
330
C
102
}
330
C
100
AcDbDictionary
281
     1
  3
Standard
350
67
  0
DICTIONARY
  5
5F
102
{ACAD_REACTORS
330
C
102
}
330
C
100
AcDbDictionary
281
     1
  3
Standard
350
60
  0
DICTIONARY
  5
61
102
{ACAD_REACTORS
330
C
102
}
330
C
100
AcDbDictionary
281
     1
  0
ACDBDICTIONARYWDFLT
  5
E
102
{ACAD_REACTORS
330
C
102
}
330
C
100
AcDbDictionary
281
     1
  3
Normal
350
F
100
AcDbDictionaryWithDefault
340
F
  0
DICTIONARY
  5
42
102
{ACAD_REACTORS
330
C
102
}
330
C
100
AcDbDictionary
281
     1
  3
A0
350
43
  3
A1
350
44
  3
A2
350
45
  3
A3
350
46
  3
A4
350
47
  3
A5
350
48
  3
A6
350
49
  3
A7
350
4A
  3
A8
350
4B
  3
A9
350
4C
  3
B0
350
4D
  3
B1
350
4E
  3
B2
350
4F
  3
B3
350
50
  3
B4
350
51
  3
B5
350
52
  3
B6
350
53
  0
DICTIONARY
  5
68
102
{ACAD_REACTORS
330
C
102
}
330
C
100
AcDbDictionary
281
     1
  3
Imperial24
350
6A
  0
DICTIONARY
  5
64
102
{ACAD_REACTORS
330
C
102
}
330
C
100
AcDbDictionary
281
     1
  3
Standard
350
65
  0
DICTIONARY
  5
29
102
{ACAD_REACTORS
330
C
102
}
330
C
100
AcDbDictionary
281
     1
  3
2dWireframe
350
2F
  3
Basic
350
2E
  3
Brighten
350
35
  3
ColorChange
350
39
  3
Conceptual
350
32
  3
Dim
350
34
  3
EdgeColorOff
350
41
  3
Facepattern
350
38
  3
Flat
350
2A
  3
FlatWithEdges
350
2B
  3
Gouraud
350
2C
  3
GouraudWithEdges
350
2D
  3
Hidden
350
31
  3
JitterOff
350
3F
  3
Linepattern
350
37
  3
OverhangOff
350
40
  3
Realistic
350
33
  3
Shaded
350
3E
  3
Shaded with edges
350
3D
  3
Shades of Gray
350
3A
  3
Sketchy
350
3B
  3
Thicken
350
36
  3
Wireframe
350
30
  3
X-Ray
350
3C
  0
XRECORD
  5
292
102
{ACAD_REACTORS
330
C
102
}
330
C
100
AcDbXrecord
280
     1
 90
        1
330
65
  0
DICTIONARY
  5
7C
102
{ACAD_REACTORS
330
C
102
}
330
C
100
AcDbDictionary
281
     1
  3
CANNOSCALE
350
81
  3
CMLEADERSTYLE
350
7E
  3
CTABLESTYLE
350
7D
  3
CVIEWDETAILSTYLE
350
7F
  3
CVIEWSECTIONSTYLE
350
80
  0
DICTIONARY
  5
289
102
{ACAD_REACTORS
330
C
102
}
330
C
100
AcDbDictionary
281
     1
  3
DRAWING_TOOL
350
28D
  3
REVIT_CATEGORY_MAPPING
350
28B
  3
REVIT_SUB_CATEGORY_MAPPING
350
28C
  3
REVIT_TYPE_MAPPING
350
28A
  0
SORTENTSTABLE
  5
28F
102
{ACAD_REACTORS
330
28E
102
}
330
28E
100
AcDbSortentsTable
330
71
  0
ACDBDETAILVIEWSTYLE
  5
6C
102
{ACAD_REACTORS
330
6B
102
}
330
6B
100
AcDbModelDocViewStyle
 70
     0
  3
Imperial24
290
     1
100
AcDbDetailViewStyle
 70
     0
 71
     0
 90
        3
 71
     1
340
55
 62
   256
 40
0.24
340
0
 62
   256
 40
0.24
300

 40
0.36
280
     3
 71
     2
340
5D
 90
       25
 62
   256
 71
     3
340
55
 62
   256
 40
0.24
 90
        1
 40
0.75
 90
        1
300
%<\AcVar ViewType \f "%tc1">% %<\AcVar ViewDetailId>%\PSCALA %<\AcVar ViewScale \f "%sn">%
 71
     4
340
5D
 90
       25
 62
   256
340
5D
 90
       25
 62
   256
280
     0
  0
LAYOUT
  5
70
102
{ACAD_REACTORS
330
62
102
}
330
62
100
AcDbPlotSettings
  1

  2

  4

  6

 40
0.0
 41
0.0
 42
0.0
 43
0.0
 44
0.0
 45
0.0
 46
0.0
 47
0.0
 48
0.0
 49
0.0
140
0.0
141
0.0
142
1.0
143
1.0
 70
   688
 72
     0
 73
     0
 74
     5
  7

 75
    16
147
1.0
 76
     0
 77
     2
 78
   300
148
0.0
149
0.0
100
AcDbLayout
  1
Layout1
 70
     1
 71
     1
 10
0.0
 20
0.0
 11
12.0
 21
9.0
 12
0.0
 22
0.0
 32
0.0
 14
0.0
 24
0.0
 34
0.0
 15
0.0
 25
0.0
 35
0.0
146
0.0
 13
0.0
 23
0.0
 33
0.0
 16
1.0
 26
0.0
 36
0.0
 17
0.0
 27
1.0
 37
0.0
 76
     0
330
6D
  0
LAYOUT
  5
78
102
{ACAD_REACTORS
330
62
102
}
330
62
100
AcDbPlotSettings
  1

  2

  4

  6

 40
0.0
 41
0.0
 42
0.0
 43
0.0
 44
0.0
 45
0.0
 46
0.0
 47
0.0
 48
0.0
 49
0.0
140
0.0
141
0.0
142
1.0
143
1.0
 70
   688
 72
     0
 73
     0
 74
     5
  7

 75
    16
147
1.0
 76
     0
 77
     2
 78
   300
148
0.0
149
0.0
100
AcDbLayout
  1
Layout2
 70
     1
 71
     2
 10
0.0
 20
0.0
 11
12.0
 21
9.0
 12
0.0
 22
0.0
 32
0.0
 14
0.0
 24
0.0
 34
0.0
 15
0.0
 25
0.0
 35
0.0
146
0.0
 13
0.0
 23
0.0
 33
0.0
 16
1.0
 26
0.0
 36
0.0
 17
0.0
 27
1.0
 37
0.0
 76
     0
330
75
  0
LAYOUT
  5
74
102
{ACAD_REACTORS
330
62
102
}
330
62
100
AcDbPlotSettings
  1

  2

  4

  6

 40
0.0
 41
0.0
 42
0.0
 43
0.0
 44
0.0
 45
0.0
 46
0.0
 47
0.0
 48
0.0
 49
0.0
140
0.0
141
0.0
142
1.0
143
1.0
 70
  1712
 72
     0
 73
     0
 74
     0
  7

 75
     0
147
1.0
 76
     0
 77
     2
 78
   300
148
0.0
149
0.0
100
AcDbLayout
  1
Model
 70
     1
 71
     0
 10
0.0
 20
0.0
 11
12.0
 21
9.0
 12
0.0
 22
0.0
 32
0.0
 14
0.0
 24
0.0
 34
0.0
 15
0.0
 25
0.0
 35
0.0
146
0.0
 13
0.0
 23
0.0
 33
0.0
 16
1.0
 26
0.0
 36
0.0
 17
0.0
 27
1.0
 37
0.0
 76
     0
330
71
  0
MATERIAL
  5
19
102
{ACAD_XDICTIONARY
360
1A
102
}
102
{ACAD_REACTORS
330
10
102
}
330
10
100
AcDbMaterial
  1
ByBlock
 72
     0
 43
0.0208333333333333
 43
0.0
 43
0.0
 43
0.0
 43
0.0
 43
0.0208333333333333
 43
0.0
 43
0.0
 43
0.0
 43
0.0
 43
1.0
 43
0.0
 43
0.0
 43
0.0
 43
0.0
 43
1.0
 77
     0
 47
0.0208333333333333
 47
0.0
 47
0.0
 47
0.0
 47
0.0
 47
0.0208333333333333
 47
0.0
 47
0.0
 47
0.0
 47
0.0
 47
1.0
 47
0.0
 47
0.0
 47
0.0
 47
0.0
 47
1.0
171
     0
 49
0.0208333333333333
 49
0.0
 49
0.0
 49
0.0
 49
0.0
 49
0.0208333333333333
 49
0.0
 49
0.0
 49
0.0
 49
0.0
 49
1.0
 49
0.0
 49
0.0
 49
0.0
 49
0.0
 49
1.0
175
     0
142
0.0208333333333333
142
0.0
142
0.0
142
0.0
142
0.0
142
0.0208333333333333
142
0.0
142
0.0
142
0.0
142
0.0
142
1.0
142
0.0
142
0.0
142
0.0
142
0.0
142
1.0
179
     0
144
0.0208333333333333
144
0.0
144
0.0
144
0.0
144
0.0
144
0.0208333333333333
144
0.0
144
0.0
144
0.0
144
0.0
144
1.0
144
0.0
144
0.0
144
0.0
144
0.0
144
1.0
147
0.0208333333333333
147
0.0
147
0.0
147
0.0
147
0.0
147
0.0208333333333333
147
0.0
147
0.0
147
0.0
147
0.0
147
1.0
147
0.0
147
0.0
147
0.0
147
0.0
147
1.0
  0
MATERIAL
  5
11
102
{ACAD_XDICTIONARY
360
12
102
}
102
{ACAD_REACTORS
330
10
102
}
330
10
100
AcDbMaterial
  1
ByLayer
 72
     0
 43
0.0208333333333333
 43
0.0
 43
0.0
 43
0.0
 43
0.0
 43
0.0208333333333333
 43
0.0
 43
0.0
 43
0.0
 43
0.0
 43
1.0
 43
0.0
 43
0.0
 43
0.0
 43
0.0
 43
1.0
 77
     0
 47
0.0208333333333333
 47
0.0
 47
0.0
 47
0.0
 47
0.0
 47
0.0208333333333333
 47
0.0
 47
0.0
 47
0.0
 47
0.0
 47
1.0
 47
0.0
 47
0.0
 47
0.0
 47
0.0
 47
1.0
171
     0
 49
0.0208333333333333
 49
0.0
 49
0.0
 49
0.0
 49
0.0
 49
0.0208333333333333
 49
0.0
 49
0.0
 49
0.0
 49
0.0
 49
1.0
 49
0.0
 49
0.0
 49
0.0
 49
0.0
 49
1.0
175
     0
142
0.0208333333333333
142
0.0
142
0.0
142
0.0
142
0.0
142
0.0208333333333333
142
0.0
142
0.0
142
0.0
142
0.0
142
1.0
142
0.0
142
0.0
142
0.0
142
0.0
142
1.0
179
     0
144
0.0208333333333333
144
0.0
144
0.0
144
0.0
144
0.0
144
0.0208333333333333
144
0.0
144
0.0
144
0.0
144
0.0
144
1.0
144
0.0
144
0.0
144
0.0
144
0.0
144
1.0
147
0.0208333333333333
147
0.0
147
0.0
147
0.0
147
0.0
147
0.0208333333333333
147
0.0
147
0.0
147
0.0
147
0.0
147
1.0
147
0.0
147
0.0
147
0.0
147
0.0
147
1.0
  0
MATERIAL
  5
21
102
{ACAD_XDICTIONARY
360
22
102
}
102
{ACAD_REACTORS
330
10
102
}
330
10
100
AcDbMaterial
  1
Global
 72
     0
 43
0.0208333333333333
 43
0.0
 43
0.0
 43
0.0
 43
0.0
 43
0.0208333333333333
 43
0.0
 43
0.0
 43
0.0
 43
0.0
 43
1.0
 43
0.0
 43
0.0
 43
0.0
 43
0.0
 43
1.0
 77
     0
 47
0.0208333333333333
 47
0.0
 47
0.0
 47
0.0
 47
0.0
 47
0.0208333333333333
 47
0.0
 47
0.0
 47
0.0
 47
0.0
 47
1.0
 47
0.0
 47
0.0
 47
0.0
 47
0.0
 47
1.0
171
     0
 49
0.0208333333333333
 49
0.0
 49
0.0
 49
0.0
 49
0.0
 49
0.0208333333333333
 49
0.0
 49
0.0
 49
0.0
 49
0.0
 49
1.0
 49
0.0
 49
0.0
 49
0.0
 49
0.0
 49
1.0
175
     0
142
0.0208333333333333
142
0.0
142
0.0
142
0.0
142
0.0
142
0.0208333333333333
142
0.0
142
0.0
142
0.0
142
0.0
142
1.0
142
0.0
142
0.0
142
0.0
142
0.0
142
1.0
179
     0
144
0.0208333333333333
144
0.0
144
0.0
144
0.0
144
0.0
144
0.0208333333333333
144
0.0
144
0.0
144
0.0
144
0.0
144
1.0
144
0.0
144
0.0
144
0.0
144
0.0
144
1.0
147
0.0208333333333333
147
0.0
147
0.0
147
0.0
147
0.0
147
0.0208333333333333
147
0.0
147
0.0
147
0.0
147
0.0
147
1.0
147
0.0
147
0.0
147
0.0
147
0.0
147
1.0
  0
MLEADERSTYLE
  5
67
102
{ACAD_REACTORS
330
66
102
}
330
66
100
AcDbMLeaderStyle
179
     2
170
     2
171
     1
172
     0
 90
        2
 40
0.0
 41
0.0
173
     1
 91
-1056964608
340
5B
 92
       -2
290
     1
 42
0.09
291
     1
 43
0.36
  3
Standard
 44
0.18
300

342
55
174
     1
178
     6
175
     1
176
     0
 93
-1056964608
 45
0.18
292
     0
297
     0
 46
0.18
 94
-1056964608
 47
1.0
 49
1.0
140
1.0
293
     1
141
0.0
294
     1
177
     0
142
1.0
295
     1
296
     0
143
0.125
271
     0
272
     9
273
     9
298
     1
  0
MLINESTYLE
  5
60
102
{ACAD_REACTORS
330
5F
102
}
330
5F
100
AcDbMlineStyle
  2
STANDARD
 70
     0
  3

 62
   256
 51
90.0
 52
90.0
 71
     2
 49
0.5
 62
   256
  6
BYLAYER
 49
-0.5
 62
   256
  6
BYLAYER
  0
ACDBPLACEHOLDER
  5
F
102
{ACAD_REACTORS
330
E
102
}
330
E
  0
SCALE
  5
43
102
{ACAD_REACTORS
330
42
102
}
330
42
100
AcDbScale
 70
     0
300
1:1
140
1.0
141
1.0
290
     1
  0
SCALE
  5
44
102
{ACAD_REACTORS
330
42
102
}
330
42
100
AcDbScale
 70
     0
300
1/128" = 1'-0"
140
0.0078125
141
12.0
290
     0
  0
SCALE
  5
45
102
{ACAD_REACTORS
330
42
102
}
330
42
100
AcDbScale
 70
     0
300
1/64" = 1'-0"
140
0.015625
141
12.0
290
     0
  0
SCALE
  5
46
102
{ACAD_REACTORS
330
42
102
}
330
42
100
AcDbScale
 70
     0
300
1/32" = 1'-0"
140
0.03125
141
12.0
290
     0
  0
SCALE
  5
47
102
{ACAD_REACTORS
330
42
102
}
330
42
100
AcDbScale
 70
     0
300
1/16" = 1'-0"
140
0.0625
141
12.0
290
     0
  0
SCALE
  5
48
102
{ACAD_REACTORS
330
42
102
}
330
42
100
AcDbScale
 70
     0
300
3/32" = 1'-0"
140
0.09375
141
12.0
290
     0
  0
SCALE
  5
49
102
{ACAD_REACTORS
330
42
102
}
330
42
100
AcDbScale
 70
     0
300
1/8" = 1'-0"
140
0.125
141
12.0
290
     0
  0
SCALE
  5
4A
102
{ACAD_REACTORS
330
42
102
}
330
42
100
AcDbScale
 70
     0
300
3/16" = 1'-0"
140
0.1875
141
12.0
290
     0
  0
SCALE
  5
4B
102
{ACAD_REACTORS
330
42
102
}
330
42
100
AcDbScale
 70
     0
300
1/4" = 1'-0"
140
0.25
141
12.0
290
     0
  0
SCALE
  5
4C
102
{ACAD_REACTORS
330
42
102
}
330
42
100
AcDbScale
 70
     0
300
3/8" = 1'-0"
140
0.375
141
12.0
290
     0
  0
SCALE
  5
4D
102
{ACAD_REACTORS
330
42
102
}
330
42
100
AcDbScale
 70
     0
300
1/2" = 1'-0"
140
0.5
141
12.0
290
     0
  0
SCALE
  5
4E
102
{ACAD_REACTORS
330
42
102
}
330
42
100
AcDbScale
 70
     0
300
3/4" = 1'-0"
140
0.75
141
12.0
290
     0
  0
SCALE
  5
4F
102
{ACAD_REACTORS
330
42
102
}
330
42
100
AcDbScale
 70
     0
300
1" = 1'-0"
140
1.0
141
12.0
290
     0
  0
SCALE
  5
50
102
{ACAD_REACTORS
330
42
102
}
330
42
100
AcDbScale
 70
     0
300
1-1/2" = 1'-0"
140
1.5
141
12.0
290
     0
  0
SCALE
  5
51
102
{ACAD_REACTORS
330
42
102
}
330
42
100
AcDbScale
 70
     0
300
3" = 1'-0"
140
3.0
141
12.0
290
     0
  0
SCALE
  5
52
102
{ACAD_REACTORS
330
42
102
}
330
42
100
AcDbScale
 70
     0
300
6" = 1'-0"
140
6.0
141
12.0
290
     0
  0
SCALE
  5
53
102
{ACAD_REACTORS
330
42
102
}
330
42
100
AcDbScale
 70
     0
300
1'-0" = 1'-0"
140
12.0
141
12.0
290
     0
  0
ACDBSECTIONVIEWSTYLE
  5
6A
102
{ACAD_REACTORS
330
68
102
}
330
68
100
AcDbModelDocViewStyle
 70
     0
  3
Imperial24
290
     1
100
AcDbSectionViewStyle
 70
     0
 71
     0
 90
       78
 71
     1
340
55
 62
   256
 40
0.24
340
0
340
0
 62
   256
 40
0.24
300
I, O, Q, S, X, Z
 40
0.48
 90
        3
 40
0.18
 90
        1
 71
     2
340
69
 90
       25
 62
   256
340
5D
 90
       50
 62
   256
 40
0.24
 40
0.0
 40
0.24
 71
     3
340
55
 62
   256
 40
0.24
 90
        1
 40
0.75
 90
        1
300
%<\AcVar ViewType \f "%tc1">% %<\AcVar ViewSectionStartId>%-%<\AcVar ViewSectionEndId>%\PSCALA %<\AcVar ViewScale \f "%sn">%
 71
     4
 62
   256
 62
   257
300
ANSI31
 40
1.0
 90
        0
290
     0
290
     0
 90
        6
 40
0.0
 40
1.570796326794896
 40
0.2617993877991494
 40
1.308996938995747
 40
-0.2617993877991494
 40
1.832595714594046
  0
TABLESTYLE
  5
65
102
{ACAD_XDICTIONARY
360
290
102
}
102
{ACAD_REACTORS
330
64
102
}
330
64
100
AcDbTableStyle
280
     0
  3
Standard
 70
     0
 71
     0
 40
0.06
 41
0.06
280
     0
281
     0
  7
Standard
140
0.18
170
     2
 62
     0
 63
     7
283
     0
 90
      512
 91
        0
  1

274
    -2
284
     1
 64
     0
275
    -2
285
     1
 65
     0
276
    -2
286
     1
 66
     0
277
    -2
287
     1
 67
     0
278
    -2
288
     1
 68
     0
279
    -2
289
     1
 69
     0
  7
Standard
140
0.25
170
     5
 62
     0
 63
     7
283
     0
 90
      512
 91
        0
  1

274
    -2
284
     1
 64
     0
275
    -2
285
     1
 65
     0
276
    -2
286
     1
 66
     0
277
    -2
287
     1
 67
     0
278
    -2
288
     1
 68
     0
279
    -2
289
     1
 69
     0
  7
Standard
140
0.18
170
     5
 62
     0
 63
     7
283
     0
 90
      512
 91
        0
  1

274
    -2
284
     1
 64
     0
275
    -2
285
     1
 65
     0
276
    -2
286
     1
 66
     0
277
    -2
287
     1
 67
     0
278
    -2
288
     1
 68
     0
279
    -2
289
     1
 69
     0
  0
VISUALSTYLE
  5
2F
102
{ACAD_REACTORS
330
29
102
}
330
29
100
AcDbVisualStyle
  2
2dWireframe
 70
     4
177
     3
291
     0
 70
    58
 90
        0
176
     1
 90
        2
176
     1
 90
        0
176
     1
 90
        0
176
     1
 40
0.6
176
     1
 40
30.0
176
     1
 62
     7
420
 16777215
176
     1
 90
        1
176
     1
 90
        4
176
     1
 62
     7
176
     1
 62
   257
176
     1
 90
        1
176
     1
 90
        1
176
     1
 40
1.0
176
     1
 90
        0
176
     1
 62
   257
176
     1
 40
1.0
176
     1
 90
        1
176
     1
 90
        6
176
     1
 90
        2
176
     1
 62
     7
176
     1
 90
        5
176
     1
 90
        0
176
     1
 90
        0
176
     1
290
     0
176
     1
 90
        1
176
     1
 40
0.0
176
     1
 90
        0
176
     1
290
     1
176
     1
290
     1
176
     1
290
     0
176
     1
290
     0
176
     1
290
     0
176
     1
290
     0
176
     1
290
     0
176
     1
290
     0
176
     1
290
     0
176
     1
 90
       50
176
     1
 40
0.0
176
     1
 40
1.0
176
     1
 90
        0
176
     1
 62
    18
420
        0
176
     1
 90
       50
176
     1
 90
        3
176
     1
 62
     5
420
      255
176
     1
290
     0
176
     1
 90
       50
176
     1
 90
       50
176
     1
 90
       50
176
     1
290
     0
176
     1
 90
       50
176
     1
 62
   256
176
     0
 40
1.0
176
     0
 90
        2
176
     1
  1
strokes_ogs.tif
176
     1
290
     0
176
     1
 40
1.0
176
     1
 40
1.0
176
     1
  0
VISUALSTYLE
  5
2E
102
{ACAD_REACTORS
330
29
102
}
330
29
100
AcDbVisualStyle
  2
Basic
 70
     7
177
     3
291
     1
 70
    58
 90
        1
176
     1
 90
        0
176
     1
 90
        1
176
     1
 90
        0
176
     1
 40
0.6
176
     1
 40
30.0
176
     1
 62
     7
420
 16777215
176
     1
 90
        0
176
     1
 90
        4
176
     1
 62
     7
176
     1
 62
   257
176
     1
 90
        1
176
     1
 90
        1
176
     1
 40
1.0
176
     1
 90
        8
176
     1
 62
     7
176
     1
 40
1.0
176
     1
 90
        1
176
     1
 90
        6
176
     1
 90
        2
176
     1
 62
     7
176
     1
 90
        5
176
     1
 90
        0
176
     1
 90
        0
176
     1
290
     0
176
     1
 90
        1
176
     1
 40
0.0
176
     1
 90
        0
176
     1
290
     0
176
     1
290
     1
176
     1
290
     1
176
     1
290
     0
176
     1
290
     0
176
     1
290
     0
176
     1
290
     0
176
     1
290
     0
176
     1
290
     0
176
     1
 90
       50
176
     1
 40
0.0
176
     1
 40
1.0
176
     1
 90
        0
176
     1
 62
    18
420
        0
176
     1
 90
       50
176
     1
 90
        3
176
     1
 62
     5
420
      255
176
     1
290
     0
176
     1
 90
       50
176
     1
 90
       50
176
     1
 90
       50
176
     1
290
     0
176
     1
 90
       50
176
     1
 62
   256
176
     0
 40
1.0
176
     0
 90
        2
176
     1
  1
strokes_ogs.tif
176
     1
290
     0
176
     1
 40
1.0
176
     1
 40
1.0
176
     1
  0
VISUALSTYLE
  5
35
102
{ACAD_REACTORS
330
29
102
}
330
29
100
AcDbVisualStyle
  2
Brighten
 70
    12
177
     3
291
     1
 70
    58
 90
        2
176
     1
 90
        2
176
     1
 90
        0
176
     1
 90
        0
176
     1
 40
0.6
176
     1
 40
30.0
176
     1
 62
     7
420
 16777215
176
     1
 90
        1
176
     1
 90
        4
176
     1
 62
     7
176
     1
 62
   257
176
     1
 90
        1
176
     1
 90
        1
176
     1
 40
1.0
176
     1
 90
        8
176
     1
 62
     7
176
     1
 40
1.0
176
     1
 90
        1
176
     1
 90
        6
176
     1
 90
        2
176
     1
 62
     7
176
     1
 90
        5
176
     1
 90
        0
176
     1
 90
        0
176
     1
290
     0
176
     1
 90
        1
176
     1
 40
50.0
176
     1
 90
        0
176
     1
290
     0
176
     1
290
     1
176
     1
290
     1
176
     1
290
     0
176
     1
290
     0
176
     1
290
     0
176
     1
290
     0
176
     1
290
     0
176
     1
290
     0
176
     1
 90
       50
176
     1
 40
0.0
176
     1
 40
1.0
176
     1
 90
        0
176
     1
 62
    18
420
        0
176
     1
 90
       50
176
     1
 90
        3
176
     1
 62
     5
420
      255
176
     1
290
     0
176
     1
 90
       50
176
     1
 90
       50
176
     1
 90
       50
176
     1
290
     0
176
     1
 90
       50
176
     1
 62
   256
176
     0
 40
1.0
176
     0
 90
        2
176
     1
  1
strokes_ogs.tif
176
     1
290
     0
176
     1
 40
1.0
176
     1
 40
1.0
176
     1
  0
VISUALSTYLE
  5
39
102
{ACAD_REACTORS
330
29
102
}
330
29
100
AcDbVisualStyle
  2
ColorChange
 70
    16
177
     3
291
     1
 70
    58
 90
        2
176
     1
 90
        2
176
     1
 90
        3
176
     1
 90
        0
176
     1
 40
0.6
176
     1
 40
30.0
176
     1
 62
     8
420
  8421504
176
     1
 90
        1
176
     1
 90
        4
176
     1
 62
     7
176
     1
 62
   257
176
     1
 90
        1
176
     1
 90
        1
176
     1
 40
1.0
176
     1
 90
        8
176
     1
 62
     8
420
  8421504
176
     1
 40
1.0
176
     1
 90
        1
176
     1
 90
        6
176
     1
 90
        2
176
     1
 62
     7
176
     1
 90
        5
176
     1
 90
        0
176
     1
 90
        0
176
     1
290
     0
176
     1
 90
        1
176
     1
 40
0.0
176
     1
 90
        0
176
     1
290
     0
176
     1
290
     1
176
     1
290
     1
176
     1
290
     0
176
     1
290
     0
176
     1
290
     0
176
     1
290
     0
176
     1
290
     0
176
     1
290
     0
176
     1
 90
       50
176
     1
 40
0.0
176
     1
 40
1.0
176
     1
 90
        0
176
     1
 62
    18
420
        0
176
     1
 90
       50
176
     1
 90
        3
176
     1
 62
     5
420
      255
176
     1
290
     0
176
     1
 90
       50
176
     1
 90
       50
176
     1
 90
       50
176
     1
290
     0
176
     1
 90
       50
176
     1
 62
   256
176
     0
 40
1.0
176
     0
 90
        2
176
     1
  1
strokes_ogs.tif
176
     1
290
     0
176
     1
 40
1.0
176
     1
 40
1.0
176
     1
  0
VISUALSTYLE
  5
32
102
{ACAD_REACTORS
330
29
102
}
330
29
100
AcDbVisualStyle
  2
Conceptual
 70
     9
177
     3
291
     0
 70
    58
 90
        3
176
     1
 90
        2
176
     1
 90
        0
176
     1
 90
        0
176
     1
 40
0.6
176
     1
 40
30.0
176
     1
 62
     7
420
 16777215
176
     1
 90
        2
176
     1
 90
        2
176
     1
 62
     7
176
     1
 62
   257
176
     1
 90
        1
176
     1
 90
        1
176
     1
 40
179.0
176
     1
 90
        8
176
     1
 62
     7
176
     1
 40
1.0
176
     1
 90
        1
176
     1
 90
        6
176
     1
 90
        2
176
     1
 62
     7
176
     1
 90
        3
176
     1
 90
        0
176
     1
 90
        0
176
     1
290
     0
176
     1
 90
        1
176
     1
 40
0.0
176
     1
 90
        0
176
     1
290
     0
176
     1
290
     1
176
     1
290
     1
176
     1
290
     0
176
     1
290
     0
176
     1
290
     0
176
     1
290
     0
176
     1
290
     0
176
     1
290
     0
176
     1
 90
       50
176
     1
 40
0.0
176
     1
 40
1.0
176
     1
 90
        0
176
     1
 62
    18
420
        0
176
     1
 90
       50
176
     1
 90
        3
176
     1
 62
     5
420
      255
176
     1
290
     0
176
     1
 90
       50
176
     1
 90
       50
176
     1
 90
       50
176
     1
290
     0
176
     1
 90
       50
176
     1
 62
   256
176
     0
 40
1.0
176
     0
 90
        2
176
     1
  1
strokes_ogs.tif
176
     1
290
     0
176
     1
 40
1.0
176
     1
 40
1.0
176
     1
  0
VISUALSTYLE
  5
34
102
{ACAD_REACTORS
330
29
102
}
330
29
100
AcDbVisualStyle
  2
Dim
 70
    11
177
     3
291
     1
 70
    58
 90
        2
176
     1
 90
        2
176
     1
 90
        0
176
     1
 90
        0
176
     1
 40
0.6
176
     1
 40
30.0
176
     1
 62
     7
420
 16777215
176
     1
 90
        1
176
     1
 90
        4
176
     1
 62
     7
176
     1
 62
   257
176
     1
 90
        1
176
     1
 90
        1
176
     1
 40
1.0
176
     1
 90
        8
176
     1
 62
     7
176
     1
 40
1.0
176
     1
 90
        1
176
     1
 90
        6
176
     1
 90
        2
176
     1
 62
     7
176
     1
 90
        5
176
     1
 90
        0
176
     1
 90
        0
176
     1
290
     0
176
     1
 90
        1
176
     1
 40
-50.0
176
     1
 90
        0
176
     1
290
     0
176
     1
290
     1
176
     1
290
     1
176
     1
290
     0
176
     1
290
     0
176
     1
290
     0
176
     1
290
     0
176
     1
290
     0
176
     1
290
     0
176
     1
 90
       50
176
     1
 40
0.0
176
     1
 40
1.0
176
     1
 90
        0
176
     1
 62
    18
420
        0
176
     1
 90
       50
176
     1
 90
        3
176
     1
 62
     5
420
      255
176
     1
290
     0
176
     1
 90
       50
176
     1
 90
       50
176
     1
 90
       50
176
     1
290
     0
176
     1
 90
       50
176
     1
 62
   256
176
     0
 40
1.0
176
     0
 90
        2
176
     1
  1
strokes_ogs.tif
176
     1
290
     0
176
     1
 40
1.0
176
     1
 40
1.0
176
     1
  0
VISUALSTYLE
  5
41
102
{ACAD_REACTORS
330
29
102
}
330
29
100
AcDbVisualStyle
  2
EdgeColorOff
 70
    22
177
     3
291
     1
 70
    58
 90
        2
176
     0
 90
        2
176
     0
 90
        0
176
     0
 90
        0
176
     0
 40
0.6
176
     0
 40
30.0
176
     0
 62
     7
420
 16777215
176
     0
 90
        1
176
     0
 90
        4
176
     0
 62
     7
176
     0
 62
   257
176
     0
 90
        1
176
     0
 90
        1
176
     0
 40
1.0
176
     0
 90
        8
176
     2
 62
     7
176
     0
 40
1.0
176
     0
 90
        1
176
     0
 90
        6
176
     0
 90
        2
176
     0
 62
     7
176
     0
 90
        5
176
     0
 90
        0
176
     0
 90
        0
176
     0
290
     0
176
     0
 90
        1
176
     0
 40
0.0
176
     0
 90
        0
176
     0
290
     0
176
     0
290
     1
176
     0
290
     1
176
     0
290
     0
176
     0
290
     0
176
     0
290
     0
176
     0
290
     0
176
     0
290
     0
176
     0
290
     0
176
     0
 90
       50
176
     0
 40
0.0
176
     0
 40
1.0
176
     0
 90
        0
176
     0
 62
    18
420
        0
176
     0
 90
       50
176
     0
 90
        3
176
     0
 62
     5
420
      255
176
     0
290
     0
176
     0
 90
       50
176
     0
 90
       50
176
     0
 90
       50
176
     0
290
     0
176
     0
 90
       50
176
     0
 62
   256
176
     0
 40
1.0
176
     0
 90
        2
176
     0
  1
strokes_ogs.tif
176
     0
290
     0
176
     0
 40
1.0
176
     0
 40
1.0
176
     0
  0
VISUALSTYLE
  5
38
102
{ACAD_REACTORS
330
29
102
}
330
29
100
AcDbVisualStyle
  2
Facepattern
 70
    15
177
     3
291
     1
 70
    58
 90
        2
176
     1
 90
        2
176
     1
 90
        0
176
     1
 90
        0
176
     1
 40
0.6
176
     1
 40
30.0
176
     1
 62
     7
420
 16777215
176
     1
 90
        1
176
     1
 90
        4
176
     1
 62
     7
176
     1
 62
   257
176
     1
 90
        1
176
     1
 90
        1
176
     1
 40
1.0
176
     1
 90
        8
176
     1
 62
     7
176
     1
 40
1.0
176
     1
 90
        1
176
     1
 90
        6
176
     1
 90
        2
176
     1
 62
     7
176
     1
 90
        5
176
     1
 90
        0
176
     1
 90
        0
176
     1
290
     0
176
     1
 90
        1
176
     1
 40
0.0
176
     1
 90
        0
176
     1
290
     0
176
     1
290
     1
176
     1
290
     1
176
     1
290
     0
176
     1
290
     0
176
     1
290
     0
176
     1
290
     0
176
     1
290
     0
176
     1
290
     0
176
     1
 90
       50
176
     1
 40
0.0
176
     1
 40
1.0
176
     1
 90
        0
176
     1
 62
    18
420
        0
176
     1
 90
       50
176
     1
 90
        3
176
     1
 62
     5
420
      255
176
     1
290
     0
176
     1
 90
       50
176
     1
 90
       50
176
     1
 90
       50
176
     1
290
     0
176
     1
 90
       50
176
     1
 62
   256
176
     0
 40
1.0
176
     0
 90
        2
176
     1
  1
strokes_ogs.tif
176
     1
290
     0
176
     1
 40
1.0
176
     1
 40
1.0
176
     1
  0
VISUALSTYLE
  5
2A
102
{ACAD_REACTORS
330
29
102
}
330
29
100
AcDbVisualStyle
  2
Flat
 70
     0
177
     3
291
     1
 70
    58
 90
        2
176
     1
 90
        1
176
     1
 90
        1
176
     1
 90
        2
176
     1
 40
0.6
176
     1
 40
30.0
176
     1
 62
     7
420
 16777215
176
     1
 90
        0
176
     1
 90
        0
176
     1
 62
     7
176
     1
 62
   257
176
     1
 90
        1
176
     1
 90
        1
176
     1
 40
1.0
176
     1
 90
        8
176
     1
 62
     7
176
     1
 40
1.0
176
     1
 90
        1
176
     1
 90
        6
176
     1
 90
        2
176
     1
 62
     7
176
     1
 90
        5
176
     1
 90
        0
176
     1
 90
        0
176
     1
290
     0
176
     1
 90
       13
176
     1
 40
0.0
176
     1
 90
        0
176
     1
290
     0
176
     1
290
     1
176
     1
290
     1
176
     1
290
     0
176
     1
290
     0
176
     1
290
     0
176
     1
290
     0
176
     1
290
     0
176
     1
290
     0
176
     1
 90
       50
176
     1
 40
0.0
176
     1
 40
1.0
176
     1
 90
        0
176
     1
 62
    18
420
        0
176
     1
 90
       50
176
     1
 90
        3
176
     1
 62
     5
420
      255
176
     1
290
     0
176
     1
 90
       50
176
     1
 90
       50
176
     1
 90
       50
176
     1
290
     0
176
     1
 90
       50
176
     1
 62
   256
176
     0
 40
1.0
176
     0
 90
        2
176
     1
  1
strokes_ogs.tif
176
     1
290
     0
176
     1
 40
1.0
176
     1
 40
1.0
176
     1
  0
VISUALSTYLE
  5
2B
102
{ACAD_REACTORS
330
29
102
}
330
29
100
AcDbVisualStyle
  2
FlatWithEdges
 70
     1
177
     3
291
     1
 70
    58
 90
        2
176
     1
 90
        1
176
     1
 90
        1
176
     1
 90
        2
176
     1
 40
0.6
176
     1
 40
30.0
176
     1
 62
     7
420
 16777215
176
     1
 90
        1
176
     1
 90
        0
176
     1
 62
     7
176
     1
 62
   257
176
     1
 90
        1
176
     1
 90
        1
176
     1
 40
1.0
176
     1
 90
        0
176
     1
 62
   257
176
     1
 40
1.0
176
     1
 90
        1
176
     1
 90
        6
176
     1
 90
        2
176
     1
 62
     7
176
     1
 90
        5
176
     1
 90
        0
176
     1
 90
        0
176
     1
290
     0
176
     1
 90
       13
176
     1
 40
0.0
176
     1
 90
        0
176
     1
290
     0
176
     1
290
     1
176
     1
290
     1
176
     1
290
     0
176
     1
290
     0
176
     1
290
     0
176
     1
290
     0
176
     1
290
     0
176
     1
290
     0
176
     1
 90
       50
176
     1
 40
0.0
176
     1
 40
1.0
176
     1
 90
        0
176
     1
 62
    18
420
        0
176
     1
 90
       50
176
     1
 90
        3
176
     1
 62
     5
420
      255
176
     1
290
     0
176
     1
 90
       50
176
     1
 90
       50
176
     1
 90
       50
176
     1
290
     0
176
     1
 90
       50
176
     1
 62
   256
176
     0
 40
1.0
176
     0
 90
        2
176
     1
  1
strokes_ogs.tif
176
     1
290
     0
176
     1
 40
1.0
176
     1
 40
1.0
176
     1
  0
VISUALSTYLE
  5
2C
102
{ACAD_REACTORS
330
29
102
}
330
29
100
AcDbVisualStyle
  2
Gouraud
 70
     2
177
     3
291
     1
 70
    58
 90
        2
176
     1
 90
        2
176
     1
 90
        1
176
     1
 90
        2
176
     1
 40
0.6
176
     1
 40
30.0
176
     1
 62
     7
420
 16777215
176
     1
 90
        0
176
     1
 90
        0
176
     1
 62
     7
176
     1
 62
   257
176
     1
 90
        1
176
     1
 90
        1
176
     1
 40
1.0
176
     1
 90
        0
176
     1
 62
     7
176
     1
 40
1.0
176
     1
 90
        1
176
     1
 90
        6
176
     1
 90
        2
176
     1
 62
     7
176
     1
 90
        5
176
     1
 90
        0
176
     1
 90
        0
176
     1
290
     0
176
     1
 90
       13
176
     1
 40
0.0
176
     1
 90
        0
176
     1
290
     0
176
     1
290
     1
176
     1
290
     1
176
     1
290
     0
176
     1
290
     0
176
     1
290
     0
176
     1
290
     0
176
     1
290
     0
176
     1
290
     0
176
     1
 90
       50
176
     1
 40
0.0
176
     1
 40
1.0
176
     1
 90
        0
176
     1
 62
    18
420
        0
176
     1
 90
       50
176
     1
 90
        3
176
     1
 62
     5
420
      255
176
     1
290
     0
176
     1
 90
       50
176
     1
 90
       50
176
     1
 90
       50
176
     1
290
     0
176
     1
 90
       50
176
     1
 62
   256
176
     0
 40
1.0
176
     0
 90
        2
176
     1
  1
strokes_ogs.tif
176
     1
290
     0
176
     1
 40
1.0
176
     1
 40
1.0
176
     1
  0
VISUALSTYLE
  5
2D
102
{ACAD_REACTORS
330
29
102
}
330
29
100
AcDbVisualStyle
  2
GouraudWithEdges
 70
     3
177
     3
291
     1
 70
    58
 90
        2
176
     1
 90
        2
176
     1
 90
        1
176
     1
 90
        2
176
     1
 40
0.6
176
     1
 40
30.0
176
     1
 62
     7
420
 16777215
176
     1
 90
        1
176
     1
 90
        0
176
     1
 62
     7
176
     1
 62
   257
176
     1
 90
        1
176
     1
 90
        1
176
     1
 40
1.0
176
     1
 90
        0
176
     1
 62
   257
176
     1
 40
1.0
176
     1
 90
        1
176
     1
 90
        6
176
     1
 90
        2
176
     1
 62
     7
176
     1
 90
        5
176
     1
 90
        0
176
     1
 90
        0
176
     1
290
     0
176
     1
 90
       13
176
     1
 40
0.0
176
     1
 90
        0
176
     1
290
     0
176
     1
290
     1
176
     1
290
     1
176
     1
290
     0
176
     1
290
     0
176
     1
290
     0
176
     1
290
     0
176
     1
290
     0
176
     1
290
     0
176
     1
 90
       50
176
     1
 40
0.0
176
     1
 40
1.0
176
     1
 90
        0
176
     1
 62
    18
420
        0
176
     1
 90
       50
176
     1
 90
        3
176
     1
 62
     5
420
      255
176
     1
290
     0
176
     1
 90
       50
176
     1
 90
       50
176
     1
 90
       50
176
     1
290
     0
176
     1
 90
       50
176
     1
 62
   256
176
     0
 40
1.0
176
     0
 90
        2
176
     1
  1
strokes_ogs.tif
176
     1
290
     0
176
     1
 40
1.0
176
     1
 40
1.0
176
     1
  0
VISUALSTYLE
  5
31
102
{ACAD_REACTORS
330
29
102
}
330
29
100
AcDbVisualStyle
  2
Hidden
 70
     6
177
     3
291
     0
 70
    58
 90
        1
176
     1
 90
        2
176
     1
 90
        2
176
     1
 90
        0
176
     1
 40
0.6
176
     1
 40
30.0
176
     1
 62
     7
420
 16777215
176
     1
 90
        2
176
     1
 90
        2
176
     1
 62
     7
176
     1
 62
   257
176
     1
 90
        2
176
     1
 90
        1
176
     1
 40
40.0
176
     1
 90
        0
176
     1
 62
   257
176
     1
 40
1.0
176
     1
 90
        1
176
     1
 90
        6
176
     1
 90
        2
176
     1
 62
     7
176
     1
 90
        3
176
     1
 90
        0
176
     1
 90
        0
176
     1
290
     0
176
     1
 90
        1
176
     1
 40
0.0
176
     1
 90
        0
176
     1
290
     0
176
     1
290
     1
176
     1
290
     1
176
     1
290
     0
176
     1
290
     0
176
     1
290
     0
176
     1
290
     0
176
     1
290
     0
176
     1
290
     0
176
     1
 90
       50
176
     1
 40
0.0
176
     1
 40
1.0
176
     1
 90
        0
176
     1
 62
    18
420
        0
176
     1
 90
       50
176
     1
 90
        3
176
     1
 62
     5
420
      255
176
     1
290
     0
176
     1
 90
       50
176
     1
 90
       50
176
     1
 90
       50
176
     1
290
     0
176
     1
 90
       50
176
     1
 62
   256
176
     0
 40
1.0
176
     0
 90
        2
176
     1
  1
strokes_ogs.tif
176
     1
290
     0
176
     1
 40
1.0
176
     1
 40
1.0
176
     1
  0
VISUALSTYLE
  5
3F
102
{ACAD_REACTORS
330
29
102
}
330
29
100
AcDbVisualStyle
  2
JitterOff
 70
    20
177
     3
291
     1
 70
    58
 90
        2
176
     0
 90
        2
176
     0
 90
        0
176
     0
 90
        0
176
     0
 40
0.6
176
     0
 40
30.0
176
     0
 62
     7
420
 16777215
176
     0
 90
        1
176
     0
 90
        4
176
     0
 62
     7
176
     0
 62
   257
176
     0
 90
        1
176
     0
 90
        1
176
     0
 40
1.0
176
     0
 90
       10
176
     2
 62
     7
176
     0
 40
1.0
176
     0
 90
        1
176
     0
 90
        6
176
     0
 90
        2
176
     0
 62
     7
176
     0
 90
        5
176
     0
 90
        0
176
     0
 90
        0
176
     0
290
     0
176
     0
 90
        1
176
     0
 40
0.0
176
     0
 90
        0
176
     0
290
     0
176
     0
290
     1
176
     0
290
     1
176
     0
290
     0
176
     0
290
     0
176
     0
290
     0
176
     0
290
     0
176
     0
290
     0
176
     0
290
     0
176
     0
 90
       50
176
     0
 40
0.0
176
     0
 40
1.0
176
     0
 90
        0
176
     0
 62
    18
420
        0
176
     0
 90
       50
176
     0
 90
        3
176
     0
 62
     5
420
      255
176
     0
290
     0
176
     0
 90
       50
176
     0
 90
       50
176
     0
 90
       50
176
     0
290
     0
176
     0
 90
       50
176
     0
 62
   256
176
     0
 40
1.0
176
     0
 90
        2
176
     0
  1
strokes_ogs.tif
176
     0
290
     0
176
     0
 40
1.0
176
     0
 40
1.0
176
     0
  0
VISUALSTYLE
  5
37
102
{ACAD_REACTORS
330
29
102
}
330
29
100
AcDbVisualStyle
  2
Linepattern
 70
    14
177
     3
291
     1
 70
    58
 90
        2
176
     1
 90
        2
176
     1
 90
        0
176
     1
 90
        0
176
     1
 40
0.6
176
     1
 40
30.0
176
     1
 62
     7
420
 16777215
176
     1
 90
        1
176
     1
 90
        4
176
     1
 62
     7
176
     1
 62
   257
176
     1
 90
        7
176
     1
 90
        7
176
     1
 40
1.0
176
     1
 90
        8
176
     1
 62
     7
176
     1
 40
1.0
176
     1
 90
        1
176
     1
 90
        6
176
     1
 90
        2
176
     1
 62
     7
176
     1
 90
        5
176
     1
 90
        0
176
     1
 90
        0
176
     1
290
     0
176
     1
 90
        1
176
     1
 40
0.0
176
     1
 90
        0
176
     1
290
     0
176
     1
290
     1
176
     1
290
     1
176
     1
290
     0
176
     1
290
     0
176
     1
290
     0
176
     1
290
     0
176
     1
290
     0
176
     1
290
     0
176
     1
 90
       50
176
     1
 40
0.0
176
     1
 40
1.0
176
     1
 90
        0
176
     1
 62
    18
420
        0
176
     1
 90
       50
176
     1
 90
        3
176
     1
 62
     5
420
      255
176
     1
290
     0
176
     1
 90
       50
176
     1
 90
       50
176
     1
 90
       50
176
     1
290
     0
176
     1
 90
       50
176
     1
 62
   256
176
     0
 40
1.0
176
     0
 90
        2
176
     1
  1
strokes_ogs.tif
176
     1
290
     0
176
     1
 40
1.0
176
     1
 40
1.0
176
     1
  0
VISUALSTYLE
  5
40
102
{ACAD_REACTORS
330
29
102
}
330
29
100
AcDbVisualStyle
  2
OverhangOff
 70
    21
177
     3
291
     1
 70
    58
 90
        2
176
     0
 90
        2
176
     0
 90
        0
176
     0
 90
        0
176
     0
 40
0.6
176
     0
 40
30.0
176
     0
 62
     7
420
 16777215
176
     0
 90
        1
176
     0
 90
        4
176
     0
 62
     7
176
     0
 62
   257
176
     0
 90
        1
176
     0
 90
        1
176
     0
 40
1.0
176
     0
 90
        9
176
     2
 62
     7
176
     0
 40
1.0
176
     0
 90
        1
176
     0
 90
        6
176
     0
 90
        2
176
     0
 62
     7
176
     0
 90
        5
176
     0
 90
        0
176
     0
 90
        0
176
     0
290
     0
176
     0
 90
        1
176
     0
 40
0.0
176
     0
 90
        0
176
     0
290
     0
176
     0
290
     1
176
     0
290
     1
176
     0
290
     0
176
     0
290
     0
176
     0
290
     0
176
     0
290
     0
176
     0
290
     0
176
     0
290
     0
176
     0
 90
       50
176
     0
 40
0.0
176
     0
 40
1.0
176
     0
 90
        0
176
     0
 62
    18
420
        0
176
     0
 90
       50
176
     0
 90
        3
176
     0
 62
     5
420
      255
176
     0
290
     0
176
     0
 90
       50
176
     0
 90
       50
176
     0
 90
       50
176
     0
290
     0
176
     0
 90
       50
176
     0
 62
   256
176
     0
 40
1.0
176
     0
 90
        2
176
     0
  1
strokes_ogs.tif
176
     0
290
     0
176
     0
 40
1.0
176
     0
 40
1.0
176
     0
  0
VISUALSTYLE
  5
33
102
{ACAD_REACTORS
330
29
102
}
330
29
100
AcDbVisualStyle
  2
Realistic
 70
     8
177
     3
291
     0
 70
    58
 90
        2
176
     1
 90
        3
176
     1
 90
        0
176
     1
 90
        2
176
     1
 40
0.6
176
     1
 40
30.0
176
     1
 62
     7
420
 16777215
176
     1
 90
        0
176
     1
 90
        0
176
     1
 62
     7
176
     1
 62
   257
176
     1
 90
        1
176
     1
 90
        1
176
     1
 40
1.0
176
     1
 90
        8
176
     1
 62
   257
176
     1
 40
1.0
176
     1
 90
        1
176
     1
 90
        6
176
     1
 90
        2
176
     1
 62
     7
176
     1
 90
        3
176
     1
 90
        0
176
     1
 90
        0
176
     1
290
     0
176
     1
 90
       13
176
     1
 40
0.0
176
     1
 90
        0
176
     1
290
     0
176
     1
290
     1
176
     1
290
     1
176
     1
290
     0
176
     1
290
     0
176
     1
290
     0
176
     1
290
     0
176
     1
290
     0
176
     1
290
     0
176
     1
 90
       50
176
     1
 40
0.0
176
     1
 40
1.0
176
     1
 90
        0
176
     1
 62
    18
420
        0
176
     1
 90
       50
176
     1
 90
        3
176
     1
 62
     5
420
      255
176
     1
290
     0
176
     1
 90
       50
176
     1
 90
       50
176
     1
 90
       50
176
     1
290
     0
176
     1
 90
       50
176
     1
 62
   256
176
     0
 40
1.0
176
     0
 90
        2
176
     1
  1
strokes_ogs.tif
176
     1
290
     0
176
     1
 40
1.0
176
     1
 40
1.0
176
     1
  0
VISUALSTYLE
  5
3E
102
{ACAD_REACTORS
330
29
102
}
330
29
100
AcDbVisualStyle
  2
Shaded
 70
    27
177
     3
291
     0
 70
    58
 90
        2
176
     1
 90
        2
176
     1
 90
        1
176
     1
 90
        2
176
     1
 40
0.6
176
     1
 40
30.0
176
     1
 62
     7
420
 16777215
176
     1
 90
        0
176
     1
 90
        4
176
     1
 62
     7
176
     1
 62
   257
176
     1
 90
        1
176
     1
 90
        1
176
     1
 40
1.0
176
     1
 90
        8
176
     1
 62
   257
176
     1
 40
1.0
176
     1
 90
        1
176
     1
 90
        6
176
     1
 90
        2
176
     1
 62
     8
420
  7895160
176
     1
 90
        3
176
     1
 90
        0
176
     1
 90
        0
176
     1
290
     0
176
     1
 90
        5
176
     1
 40
0.0
176
     1
 90
        0
176
     1
290
     0
176
     1
290
     1
176
     1
290
     1
176
     1
290
     0
176
     1
290
     0
176
     1
290
     0
176
     1
290
     0
176
     1
290
     0
176
     1
290
     0
176
     1
 90
       50
176
     1
 40
0.0
176
     1
 40
1.0
176
     1
 90
        0
176
     1
 62
    18
420
        0
176
     1
 90
       50
176
     1
 90
        3
176
     1
 62
     5
420
      255
176
     1
290
     0
176
     1
 90
       50
176
     1
 90
       50
176
     1
 90
       50
176
     1
290
     0
176
     1
 90
       50
176
     1
 62
   256
176
     0
 40
1.0
176
     0
 90
        2
176
     1
  1
strokes_ogs.tif
176
     1
290
     0
176
     1
 40
1.0
176
     1
 40
1.0
176
     1
  0
VISUALSTYLE
  5
3D
102
{ACAD_REACTORS
330
29
102
}
330
29
100
AcDbVisualStyle
  2
Shaded with edges
 70
    26
177
     3
291
     0
 70
    58
 90
        2
176
     1
 90
        2
176
     1
 90
        1
176
     1
 90
        2
176
     1
 40
0.6
176
     1
 40
30.0
176
     1
 62
     7
420
 16777215
176
     1
 90
        1
176
     1
 90
       10
176
     1
 62
     7
176
     1
 62
   257
176
     1
 90
        2
176
     1
 90
        1
176
     1
 40
1.0
176
     1
 90
        8
176
     1
 62
   257
176
     1
 40
1.0
176
     1
 90
        1
176
     1
 90
        6
176
     1
 90
        2
176
     1
 62
     7
176
     1
 90
        3
176
     1
 90
        0
176
     1
 90
        0
176
     1
290
     0
176
     1
 90
        5
176
     1
 40
0.0
176
     1
 90
        0
176
     1
290
     0
176
     1
290
     1
176
     1
290
     1
176
     1
290
     0
176
     1
290
     0
176
     1
290
     0
176
     1
290
     0
176
     1
290
     0
176
     1
290
     0
176
     1
 90
       50
176
     1
 40
0.0
176
     1
 40
1.0
176
     1
 90
        0
176
     1
 62
    18
420
        0
176
     1
 90
       50
176
     1
 90
        3
176
     1
 62
     5
420
      255
176
     1
290
     0
176
     1
 90
       50
176
     1
 90
       50
176
     1
 90
       50
176
     1
290
     0
176
     1
 90
       50
176
     1
 62
   256
176
     0
 40
1.0
176
     0
 90
        2
176
     1
  1
strokes_ogs.tif
176
     1
290
     0
176
     1
 40
1.0
176
     1
 40
1.0
176
     1
  0
VISUALSTYLE
  5
3A
102
{ACAD_REACTORS
330
29
102
}
330
29
100
AcDbVisualStyle
  2
Shades of Gray
 70
    23
177
     3
291
     0
 70
    58
 90
        2
176
     1
 90
        2
176
     1
 90
        3
176
     1
 90
        0
176
     1
 40
0.6
176
     1
 40
30.0
176
     1
 62
     7
420
 16777215
176
     1
 90
        2
176
     1
 90
        2
176
     1
 62
     7
176
     1
 62
     7
176
     1
 90
        1
176
     1
 90
        1
176
     1
 40
40.0
176
     1
 90
        8
176
     1
 62
     7
176
     1
 40
1.0
176
     1
 90
        1
176
     1
 90
        6
176
     1
 90
        2
176
     1
 62
     7
176
     1
 90
        3
176
     1
 90
        0
176
     1
 90
        0
176
     1
290
     0
176
     1
 90
        1
176
     1
 40
0.0
176
     1
 90
        0
176
     1
290
     0
176
     1
290
     1
176
     1
290
     1
176
     1
290
     0
176
     1
290
     0
176
     1
290
     0
176
     1
290
     0
176
     1
290
     0
176
     1
290
     0
176
     1
 90
       50
176
     1
 40
0.0
176
     1
 40
1.0
176
     1
 90
        0
176
     1
 62
    18
420
        0
176
     1
 90
       50
176
     1
 90
        3
176
     1
 62
     5
420
      255
176
     1
290
     0
176
     1
 90
       50
176
     1
 90
       50
176
     1
 90
       50
176
     1
290
     0
176
     1
 90
       50
176
     1
 62
   256
176
     0
 40
1.0
176
     0
 90
        2
176
     1
  1
strokes_ogs.tif
176
     1
290
     0
176
     1
 40
1.0
176
     1
 40
1.0
176
     1
  0
VISUALSTYLE
  5
3B
102
{ACAD_REACTORS
330
29
102
}
330
29
100
AcDbVisualStyle
  2
Sketchy
 70
    24
177
     3
291
     0
 70
    58
 90
        1
176
     1
 90
        2
176
     1
 90
        2
176
     1
 90
        0
176
     1
 40
0.6
176
     1
 40
30.0
176
     1
 62
     7
420
 16777215
176
     1
 90
        2
176
     1
 90
        2
176
     1
 62
     7
176
     1
 62
     7
176
     1
 90
        1
176
     1
 90
        1
176
     1
 40
40.0
176
     1
 90
       11
176
     1
 62
     7
176
     1
 40
1.0
176
     1
 90
        1
176
     1
 90
        6
176
     1
 90
        2
176
     1
 62
     7
176
     1
 90
        6
176
     1
 90
        0
176
     1
 90
        0
176
     1
290
     0
176
     1
 90
        1
176
     1
 40
0.0
176
     1
 90
        0
176
     1
290
     0
176
     1
290
     1
176
     1
290
     1
176
     1
290
     0
176
     1
290
     0
176
     1
290
     0
176
     1
290
     0
176
     1
290
     0
176
     1
290
     0
176
     1
 90
       50
176
     1
 40
0.0
176
     1
 40
1.0
176
     1
 90
        0
176
     1
 62
    18
420
        0
176
     1
 90
       50
176
     1
 90
        3
176
     1
 62
     5
420
      255
176
     1
290
     0
176
     1
 90
       50
176
     1
 90
       50
176
     1
 90
       50
176
     1
290
     0
176
     1
 90
       50
176
     1
 62
   256
176
     0
 40
1.0
176
     0
 90
        2
176
     1
  1
strokes_ogs.tif
176
     1
290
     0
176
     1
 40
1.0
176
     1
 40
1.0
176
     1
  0
VISUALSTYLE
  5
36
102
{ACAD_REACTORS
330
29
102
}
330
29
100
AcDbVisualStyle
  2
Thicken
 70
    13
177
     3
291
     1
 70
    58
 90
        2
176
     1
 90
        2
176
     1
 90
        0
176
     1
 90
        0
176
     1
 40
0.6
176
     1
 40
30.0
176
     1
 62
     7
420
 16777215
176
     1
 90
        1
176
     1
 90
        4
176
     1
 62
     7
176
     1
 62
   257
176
     1
 90
        1
176
     1
 90
        1
176
     1
 40
1.0
176
     1
 90
       12
176
     1
 62
     7
176
     1
 40
1.0
176
     1
 90
        1
176
     1
 90
        6
176
     1
 90
        2
176
     1
 62
     7
176
     1
 90
        5
176
     1
 90
        0
176
     1
 90
        0
176
     1
290
     0
176
     1
 90
        1
176
     1
 40
0.0
176
     1
 90
        0
176
     1
290
     0
176
     1
290
     1
176
     1
290
     1
176
     1
290
     0
176
     1
290
     0
176
     1
290
     0
176
     1
290
     0
176
     1
290
     0
176
     1
290
     0
176
     1
 90
       50
176
     1
 40
0.0
176
     1
 40
1.0
176
     1
 90
        0
176
     1
 62
    18
420
        0
176
     1
 90
       50
176
     1
 90
        3
176
     1
 62
     5
420
      255
176
     1
290
     0
176
     1
 90
       50
176
     1
 90
       50
176
     1
 90
       50
176
     1
290
     0
176
     1
 90
       50
176
     1
 62
   256
176
     0
 40
1.0
176
     0
 90
        2
176
     1
  1
strokes_ogs.tif
176
     1
290
     0
176
     1
 40
1.0
176
     1
 40
1.0
176
     1
  0
VISUALSTYLE
  5
30
102
{ACAD_REACTORS
330
29
102
}
330
29
100
AcDbVisualStyle
  2
Wireframe
 70
     5
177
     3
291
     0
 70
    58
 90
        0
176
     1
 90
        2
176
     1
 90
        0
176
     1
 90
        0
176
     1
 40
0.6
176
     1
 40
30.0
176
     1
 62
     7
420
 16777215
176
     1
 90
        1
176
     1
 90
        4
176
     1
 62
     7
176
     1
 62
   257
176
     1
 90
        1
176
     1
 90
        1
176
     1
 40
1.0
176
     1
 90
        0
176
     1
 62
   257
176
     1
 40
1.0
176
     1
 90
        1
176
     1
 90
        6
176
     1
 90
        2
176
     1
 62
     7
176
     1
 90
        3
176
     1
 90
        0
176
     1
 90
        0
176
     1
290
     0
176
     1
 90
        1
176
     1
 40
0.0
176
     1
 90
        0
176
     1
290
     0
176
     1
290
     1
176
     1
290
     1
176
     1
290
     0
176
     1
290
     0
176
     1
290
     0
176
     1
290
     0
176
     1
290
     0
176
     1
290
     0
176
     1
 90
       50
176
     1
 40
0.0
176
     1
 40
1.0
176
     1
 90
        0
176
     1
 62
    18
420
        0
176
     1
 90
       50
176
     1
 90
        3
176
     1
 62
     5
420
      255
176
     1
290
     0
176
     1
 90
       50
176
     1
 90
       50
176
     1
 90
       50
176
     1
290
     0
176
     1
 90
       50
176
     1
 62
   256
176
     0
 40
1.0
176
     0
 90
        2
176
     1
  1
strokes_ogs.tif
176
     1
290
     0
176
     1
 40
1.0
176
     1
 40
1.0
176
     1
  0
VISUALSTYLE
  5
3C
102
{ACAD_REACTORS
330
29
102
}
330
29
100
AcDbVisualStyle
  2
X-Ray
 70
    25
177
     3
291
     0
 70
    58
 90
        2
176
     1
 90
        2
176
     1
 90
        1
176
     1
 90
        1
176
     1
 40
0.5
176
     1
 40
30.0
176
     1
 62
     7
420
 16777215
176
     1
 90
        1
176
     1
 90
        0
176
     1
 62
     7
176
     1
 62
   257
176
     1
 90
        1
176
     1
 90
        1
176
     1
 40
1.0
176
     1
 90
        8
176
     1
 62
     7
176
     1
 40
1.0
176
     1
 90
        1
176
     1
 90
        6
176
     1
 90
        2
176
     1
 62
     7
176
     1
 90
        3
176
     1
 90
        0
176
     1
 90
        0
176
     1
290
     0
176
     1
 90
       13
176
     1
 40
0.0
176
     1
 90
        0
176
     1
290
     0
176
     1
290
     1
176
     1
290
     1
176
     1
290
     0
176
     1
290
     0
176
     1
290
     0
176
     1
290
     0
176
     1
290
     0
176
     1
290
     0
176
     1
 90
       50
176
     1
 40
0.0
176
     1
 40
1.0
176
     1
 90
        0
176
     1
 62
    18
420
        0
176
     1
 90
       50
176
     1
 90
        3
176
     1
 62
     5
420
      255
176
     1
290
     0
176
     1
 90
       50
176
     1
 90
       50
176
     1
 90
       50
176
     1
290
     0
176
     1
 90
       50
176
     1
 62
   256
176
     0
 40
1.0
176
     0
 90
        2
176
     1
  1
strokes_ogs.tif
176
     1
290
     0
176
     1
 40
1.0
176
     1
 40
1.0
176
     1
  0
DICTIONARYVAR
  5
81
102
{ACAD_REACTORS
330
7C
102
}
330
7C
100
DictionaryVariables
280
     0
  1
1:1
  0
DICTIONARYVAR
  5
7E
102
{ACAD_REACTORS
330
7C
102
}
330
7C
100
DictionaryVariables
280
     0
  1
STANDARD
  0
DICTIONARYVAR
  5
7D
102
{ACAD_REACTORS
330
7C
102
}
330
7C
100
DictionaryVariables
280
     0
  1
STANDARD
  0
DICTIONARYVAR
  5
7F
102
{ACAD_REACTORS
330
7C
102
}
330
7C
100
DictionaryVariables
280
     0
  1
Imperial24
  0
DICTIONARYVAR
  5
80
102
{ACAD_REACTORS
330
7C
102
}
330
7C
100
DictionaryVariables
280
     0
  1
Imperial24
  0
XRECORD
  5
28D
102
{ACAD_REACTORS
330
289
102
}
330
289
100
AcDbXrecord
280
     1
  1
BUILDING_ID
  1
Progetto per messa in tavola DXF, DWG
  1
FLOOR_ID
  1
694395
  0
XRECORD
  5
28B
102
{ACAD_REACTORS
330
289
102
}
330
289
100
AcDbXrecord
280
     1
  1
-2001160
  1
Apparecchi idraulici
  0
XRECORD
  5
28C
102
{ACAD_REACTORS
330
289
102
}
330
289
100
AcDbXrecord
280
     1
  1
790271
  1
Body
  0
XRECORD
  5
28A
102
{ACAD_REACTORS
330
289
102
}
330
289
100
AcDbXrecord
280
     1
  1
859151
  1
Automatic flow rate regulator valve_Caleffi_121 DN15 : 1/2''
  0
DICTIONARY
  5
1A
330
19
100
AcDbDictionary
280
     1
281
     1
  3
BUMPTILE
360
1C
  3
DIFFUSETILE
360
1B
  3
OPACITYTILE
360
1F
  3
REFLECTIONTILE
360
1E
  3
REFRACTIONTILE
360
20
  3
SPECULARTILE
360
1D
  0
DICTIONARY
  5
12
330
11
100
AcDbDictionary
280
     1
281
     1
  3
BUMPTILE
360
14
  3
DIFFUSETILE
360
13
  3
OPACITYTILE
360
17
  3
REFLECTIONTILE
360
16
  3
REFRACTIONTILE
360
18
  3
SPECULARTILE
360
15
  0
DICTIONARY
  5
22
330
21
100
AcDbDictionary
280
     1
281
     1
  3
BUMPTILE
360
24
  3
DIFFUSETILE
360
23
  3
OPACITYTILE
360
27
  3
REFLECTIONTILE
360
26
  3
REFRACTIONTILE
360
28
  3
SPECULARTILE
360
25
  0
DICTIONARY
  5
290
330
65
100
AcDbDictionary
280
     1
281
     1
  3
ACAD_ROUNDTRIP_2008_TABLESTYLE_CELLSTYLEMAP
360
291
  0
XRECORD
  5
1C
102
{ACAD_REACTORS
330
1A
102
}
330
1A
100
AcDbXrecord
280
     1
270
     1
271
     1
  0
XRECORD
  5
1B
102
{ACAD_REACTORS
330
1A
102
}
330
1A
100
AcDbXrecord
280
     1
270
     1
271
     1
  0
XRECORD
  5
1F
102
{ACAD_REACTORS
330
1A
102
}
330
1A
100
AcDbXrecord
280
     1
270
     1
271
     1
  0
XRECORD
  5
1E
102
{ACAD_REACTORS
330
1A
102
}
330
1A
100
AcDbXrecord
280
     1
270
     1
271
     1
  0
XRECORD
  5
20
102
{ACAD_REACTORS
330
1A
102
}
330
1A
100
AcDbXrecord
280
     1
270
     1
271
     1
  0
XRECORD
  5
1D
102
{ACAD_REACTORS
330
1A
102
}
330
1A
100
AcDbXrecord
280
     1
270
     1
271
     1
  0
XRECORD
  5
14
102
{ACAD_REACTORS
330
12
102
}
330
12
100
AcDbXrecord
280
     1
270
     1
271
     1
  0
XRECORD
  5
13
102
{ACAD_REACTORS
330
12
102
}
330
12
100
AcDbXrecord
280
     1
270
     1
271
     1
  0
XRECORD
  5
17
102
{ACAD_REACTORS
330
12
102
}
330
12
100
AcDbXrecord
280
     1
270
     1
271
     1
  0
XRECORD
  5
16
102
{ACAD_REACTORS
330
12
102
}
330
12
100
AcDbXrecord
280
     1
270
     1
271
     1
  0
XRECORD
  5
18
102
{ACAD_REACTORS
330
12
102
}
330
12
100
AcDbXrecord
280
     1
270
     1
271
     1
  0
XRECORD
  5
15
102
{ACAD_REACTORS
330
12
102
}
330
12
100
AcDbXrecord
280
     1
270
     1
271
     1
  0
XRECORD
  5
24
102
{ACAD_REACTORS
330
22
102
}
330
22
100
AcDbXrecord
280
     1
270
     1
271
     1
  0
XRECORD
  5
23
102
{ACAD_REACTORS
330
22
102
}
330
22
100
AcDbXrecord
280
     1
270
     1
271
     1
  0
XRECORD
  5
27
102
{ACAD_REACTORS
330
22
102
}
330
22
100
AcDbXrecord
280
     1
270
     1
271
     1
  0
XRECORD
  5
26
102
{ACAD_REACTORS
330
22
102
}
330
22
100
AcDbXrecord
280
     1
270
     1
271
     1
  0
XRECORD
  5
28
102
{ACAD_REACTORS
330
22
102
}
330
22
100
AcDbXrecord
280
     1
270
     1
271
     1
  0
XRECORD
  5
25
102
{ACAD_REACTORS
330
22
102
}
330
22
100
AcDbXrecord
280
     1
270
     1
271
     1
  0
CELLSTYLEMAP
  5
291
102
{ACAD_REACTORS
330
290
102
}
330
290
100
AcDbCellStyleMap
 90
        3
300
CELLSTYLE
  1
TABLEFORMAT_BEGIN
 90
        5
170
     1
 91
        0
 92
    32768
 62
   257
 93
        1
300
CONTENTFORMAT
  1
CONTENTFORMAT_BEGIN
 90
        0
 91
        0
 92
      512
 93
        0
300

 40
0.0
140
1.0
 94
        5
 62
     0
340
55
144
0.25
309
CONTENTFORMAT_END
171
     0
 94
        0
309
TABLEFORMAT_END
  1
CELLSTYLE_BEGIN
 90
        1
 91
        1
300
_TITLE
309
CELLSTYLE_END
300
CELLSTYLE
  1
TABLEFORMAT_BEGIN
 90
        5
170
     1
 91
        0
 92
        0
 62
   257
 93
        1
300
CONTENTFORMAT
  1
CONTENTFORMAT_BEGIN
 90
        0
 91
        0
 92
      512
 93
        0
300

 40
0.0
140
1.0
 94
        5
 62
     0
340
55
144
0.18
309
CONTENTFORMAT_END
171
     0
 94
        0
309
TABLEFORMAT_END
  1
CELLSTYLE_BEGIN
 90
        2
 91
        1
300
_HEADER
309
CELLSTYLE_END
300
CELLSTYLE
  1
TABLEFORMAT_BEGIN
 90
        5
170
     1
 91
        0
 92
        0
 62
   257
 93
        1
300
CONTENTFORMAT
  1
CONTENTFORMAT_BEGIN
 90
        0
 91
        0
 92
      512
 93
        0
300

 40
0.0
140
1.0
 94
        2
 62
     0
340
55
144
0.18
309
CONTENTFORMAT_END
171
     0
 94
        0
309
TABLEFORMAT_END
  1
CELLSTYLE_BEGIN
 90
        3
 91
        2
300
_DATA
309
CELLSTYLE_END
  0
ENDSEC
  0
EOF
