  0
SECTION
  2
HEADER
  9
$ACADVER
  1
AC1027
  9
$ACADMAINTVER
 70
    20
  9
$DWGCODEPAGE
  3
ANSI_1252
  9
$REQUIREDVERSIONS
160
                 0
  9
$INSBASE
 10
0.0
 20
0.0
 30
0.0
  9
$EXTMIN
 10
574.666407443173
 20
1278.539628730001
 30
-0.00000001
  9
$EXTMAX
 10
1270.914353943159
 20
2319.000000000056
 30
0.00000001
  9
$LIMMIN
 10
0.0
 20
0.0
  9
$LIMMAX
 10
12.0
 20
9.0
  9
$ORTHOMODE
 70
     0
  9
$REGENMODE
 70
     1
  9
$FILLMODE
 70
     1
  9
$QTEXTMODE
 70
     0
  9
$MIRRTEXT
 70
     0
  9
$LTSCALE
 40
1.0
  9
$ATTMODE
 70
     1
  9
$TEXTSIZE
 40
0.2
  9
$TRACEWID
 40
0.05
  9
$TEXTSTYLE
  7
Standard
  9
$CLAYER
  8
0
  9
$CELTYPE
  6
ByLayer
  9
$CECOLOR
 62
   256
  9
$CELTSCALE
 40
1.0
  9
$DISPSILH
 70
     0
  9
$DIMSCALE
 40
1.0
  9
$DIMASZ
 40
0.18
  9
$DIMEXO
 40
0.0625
  9
$DIMDLI
 40
0.38
  9
$DIMRND
 40
0.0
  9
$DIMDLE
 40
0.0
  9
$DIMEXE
 40
0.18
  9
$DIMTP
 40
0.0
  9
$DIMTM
 40
0.0
  9
$DIMTXT
 40
0.18
  9
$DIMCEN
 40
0.09
  9
$DIMTSZ
 40
0.0
  9
$DIMTOL
 70
     0
  9
$DIMLIM
 70
     0
  9
$DIMTIH
 70
     1
  9
$DIMTOH
 70
     1
  9
$DIMSE1
 70
     0
  9
$DIMSE2
 70
     0
  9
$DIMTAD
 70
     0
  9
$DIMZIN
 70
     0
  9
$DIMBLK
  1

  9
$DIMASO
 70
     1
  9
$DIMSHO
 70
     1
  9
$DIMPOST
  1

  9
$DIMAPOST
  1

  9
$DIMALT
 70
     0
  9
$DIMALTD
 70
     2
  9
$DIMALTF
 40
25.4
  9
$DIMLFAC
 40
1.0
  9
$DIMTOFL
 70
     0
  9
$DIMTVP
 40
0.0
  9
$DIMTIX
 70
     0
  9
$DIMSOXD
 70
     0
  9
$DIMSAH
 70
     0
  9
$DIMBLK1
  1

  9
$DIMBLK2
  1

  9
$DIMSTYLE
  2
Standard
  9
$DIMCLRD
 70
     0
  9
$DIMCLRE
 70
     0
  9
$DIMCLRT
 70
     0
  9
$DIMTFAC
 40
1.0
  9
$DIMGAP
 40
0.09
  9
$DIMJUST
 70
     0
  9
$DIMSD1
 70
     0
  9
$DIMSD2
 70
     0
  9
$DIMTOLJ
 70
     1
  9
$DIMTZIN
 70
     0
  9
$DIMALTZ
 70
     0
  9
$DIMALTTZ
 70
     0
  9
$DIMUPT
 70
     0
  9
$DIMDEC
 70
     4
  9
$DIMTDEC
 70
     4
  9
$DIMALTU
 70
     2
  9
$DIMALTTD
 70
     2
  9
$DIMTXSTY
  7
Standard
  9
$DIMAUNIT
 70
     0
  9
$DIMADEC
 70
     0
  9
$DIMALTRND
 40
0.0
  9
$DIMAZIN
 70
     0
  9
$DIMDSEP
 70
    46
  9
$DIMATFIT
 70
     3
  9
$DIMFRAC
 70
     0
  9
$DIMLDRBLK
  1

  9
$DIMLUNIT
 70
     2
  9
$DIMLWD
 70
    -2
  9
$DIMLWE
 70
    -2
  9
$DIMTMOVE
 70
     0
  9
$DIMFXL
 40
1.0
  9
$DIMFXLON
 70
     0
  9
$DIMJOGANG
 40
0.7853981633974483
  9
$DIMTFILL
 70
     0
  9
$DIMTFILLCLR
 70
     0
  9
$DIMARCSYM
 70
     0
  9
$DIMLTYPE
  6

  9
$DIMLTEX1
  6

  9
$DIMLTEX2
  6

  9
$DIMTXTDIRECTION
 70
     0
  9
$LUNITS
 70
     2
  9
$LUPREC
 70
     4
  9
$SKETCHINC
 40
0.1
  9
$FILLETRAD
 40
0.0
  9
$AUNITS
 70
     0
  9
$AUPREC
 70
     0
  9
$MENU
  1
.
  9
$ELEVATION
 40
0.0
  9
$PELEVATION
 40
0.0
  9
$THICKNESS
 40
0.0
  9
$LIMCHECK
 70
     0
  9
$CHAMFERA
 40
0.0
  9
$CHAMFERB
 40
0.0
  9
$CHAMFERC
 40
0.0
  9
$CHAMFERD
 40
0.0
  9
$SKPOLY
 70
     0
  9
$TDCREATE
 40
2457548.623193495
  9
$TDUCREATE
 40
2457548.539860162
  9
$TDUPDATE
 40
2457548.623193495
  9
$TDUUPDATE
 40
2457548.539860162
  9
$TDINDWG
 40
0.0000322685
  9
$TDUSRTIMER
 40
0.0000322685
  9
$USRTIMER
 70
     1
  9
$ANGBASE
 50
0.0
  9
$ANGDIR
 70
     0
  9
$PDMODE
 70
     0
  9
$PDSIZE
 40
0.0
  9
$PLINEWID
 40
0.0
  9
$SPLFRAME
 70
     0
  9
$SPLINETYPE
 70
     6
  9
$SPLINESEGS
 70
     8
  9
$HANDSEED
  5
34D
  9
$SURFTAB1
 70
     6
  9
$SURFTAB2
 70
     6
  9
$SURFTYPE
 70
     6
  9
$SURFU
 70
     6
  9
$SURFV
 70
     6
  9
$UCSBASE
  2

  9
$UCSNAME
  2

  9
$UCSORG
 10
0.0
 20
0.0
 30
0.0
  9
$UCSXDIR
 10
1.0
 20
0.0
 30
0.0
  9
$UCSYDIR
 10
0.0
 20
1.0
 30
0.0
  9
$UCSORTHOREF
  2

  9
$UCSORTHOVIEW
 70
     0
  9
$UCSORGTOP
 10
0.0
 20
0.0
 30
0.0
  9
$UCSORGBOTTOM
 10
0.0
 20
0.0
 30
0.0
  9
$UCSORGLEFT
 10
0.0
 20
0.0
 30
0.0
  9
$UCSORGRIGHT
 10
0.0
 20
0.0
 30
0.0
  9
$UCSORGFRONT
 10
0.0
 20
0.0
 30
0.0
  9
$UCSORGBACK
 10
0.0
 20
0.0
 30
0.0
  9
$PUCSBASE
  2

  9
$PUCSNAME
  2

  9
$PUCSORG
 10
0.0
 20
0.0
 30
0.0
  9
$PUCSXDIR
 10
1.0
 20
0.0
 30
0.0
  9
$PUCSYDIR
 10
0.0
 20
1.0
 30
0.0
  9
$PUCSORTHOREF
  2

  9
$PUCSORTHOVIEW
 70
     0
  9
$PUCSORGTOP
 10
0.0
 20
0.0
 30
0.0
  9
$PUCSORGBOTTOM
 10
0.0
 20
0.0
 30
0.0
  9
$PUCSORGLEFT
 10
0.0
 20
0.0
 30
0.0
  9
$PUCSORGRIGHT
 10
0.0
 20
0.0
 30
0.0
  9
$PUCSORGFRONT
 10
0.0
 20
0.0
 30
0.0
  9
$PUCSORGBACK
 10
0.0
 20
0.0
 30
0.0
  9
$USERI1
 70
     0
  9
$USERI2
 70
     0
  9
$USERI3
 70
     0
  9
$USERI4
 70
     0
  9
$USERI5
 70
     0
  9
$USERR1
 40
0.0
  9
$USERR2
 40
0.0
  9
$USERR3
 40
0.0
  9
$USERR4
 40
0.0
  9
$USERR5
 40
0.0
  9
$WORLDVIEW
 70
     1
  9
$SHADEDGE
 70
     3
  9
$SHADEDIF
 70
    70
  9
$TILEMODE
 70
     1
  9
$MAXACTVP
 70
    64
  9
$PINSBASE
 10
0.0
 20
0.0
 30
0.0
  9
$PLIMCHECK
 70
     0
  9
$PEXTMIN
 10
1.000000000000000E+20
 20
1.000000000000000E+20
 30
1.000000000000000E+20
  9
$PEXTMAX
 10
-1.000000000000000E+20
 20
-1.000000000000000E+20
 30
-1.000000000000000E+20
  9
$PLIMMIN
 10
0.0
 20
0.0
  9
$PLIMMAX
 10
12.0
 20
9.0
  9
$UNITMODE
 70
     0
  9
$VISRETAIN
 70
     1
  9
$PLINEGEN
 70
     0
  9
$PSLTSCALE
 70
     1
  9
$TREEDEPTH
 70
  3020
  9
$CMLSTYLE
  2
Standard
  9
$CMLJUST
 70
     0
  9
$CMLSCALE
 40
1.0
  9
$PROXYGRAPHICS
 70
     1
  9
$MEASUREMENT
 70
     1
  9
$CELWEIGHT
370
    -1
  9
$ENDCAPS
280
     0
  9
$JOINSTYLE
280
     0
  9
$LWDISPLAY
290
     0
  9
$INSUNITS
 70
     4
  9
$HYPERLINKBASE
  1

  9
$STYLESHEET
  1

  9
$XEDIT
290
     1
  9
$CEPSNTYPE
380
     0
  9
$PSTYLEMODE
290
     1
  9
$FINGERPRINTGUID
  2
{0E70A6F0-DFF1-49A9-8341-EA1B63145C51}
  9
$VERSIONGUID
  2
{34068E85-9238-4E39-AB06-1F48A8360D33}
  9
$EXTNAMES
290
     1
  9
$PSVPSCALE
 40
0.0
  9
$OLESTARTUP
290
     0
  9
$SORTENTS
280
   127
  9
$INDEXCTL
280
     0
  9
$HIDETEXT
280
     1
  9
$XCLIPFRAME
280
     2
  9
$HALOGAP
280
     0
  9
$OBSCOLOR
 70
   257
  9
$OBSLTYPE
280
     0
  9
$INTERSECTIONDISPLAY
280
     0
  9
$INTERSECTIONCOLOR
 70
   257
  9
$DIMASSOC
280
     2
  9
$PROJECTNAME
  1

  9
$CAMERADISPLAY
290
     0
  9
$LENSLENGTH
 40
50.0
  9
$CAMERAHEIGHT
 40
0.0
  9
$STEPSPERSEC
 40
2.0
  9
$STEPSIZE
 40
6.0
  9
$3DDWFPREC
 40
2.0
  9
$PSOLWIDTH
 40
0.25
  9
$PSOLHEIGHT
 40
4.0
  9
$LOFTANG1
 40
1.570796326794896
  9
$LOFTANG2
 40
1.570796326794896
  9
$LOFTMAG1
 40
0.0
  9
$LOFTMAG2
 40
0.0
  9
$LOFTPARAM
 70
     7
  9
$LOFTNORMALS
280
     1
  9
$LATITUDE
 40
37.795
  9
$LONGITUDE
 40
-122.394
  9
$NORTHDIRECTION
 40
0.0
  9
$TIMEZONE
 70
 -8000
  9
$LIGHTGLYPHDISPLAY
280
     1
  9
$TILEMODELIGHTSYNCH
280
     1
  9
$CMATERIAL
347
11
  9
$SOLIDHIST
280
     0
  9
$SHOWHIST
280
     1
  9
$DWFFRAME
280
     2
  9
$DGNFRAME
280
     0
  9
$REALWORLDSCALE
290
     1
  9
$INTERFERECOLOR
 62
     1
  9
$INTERFEREOBJVS
345
33
  9
$INTERFEREVPVS
346
30
  9
$CSHADOW
280
     0
  9
$SHADOWPLANELOCATION
 40
0.0
  0
ENDSEC
  0
SECTION
  2
CLASSES
  0
CLASS
  1
ACDBDICTIONARYWDFLT
  2
AcDbDictionaryWithDefault
  3
ObjectDBX Classes
 90
        0
 91
        1
280
     0
281
     0
  0
CLASS
  1
MATERIAL
  2
AcDbMaterial
  3
ObjectDBX Classes
 90
     1153
 91
        3
280
     0
281
     0
  0
CLASS
  1
VISUALSTYLE
  2
AcDbVisualStyle
  3
ObjectDBX Classes
 90
     4095
 91
       24
280
     0
281
     0
  0
CLASS
  1
SCALE
  2
AcDbScale
  3
ObjectDBX Classes
 90
     1153
 91
       17
280
     0
281
     0
  0
CLASS
  1
TABLESTYLE
  2
AcDbTableStyle
  3
ObjectDBX Classes
 90
     4095
 91
        1
280
     0
281
     0
  0
CLASS
  1
MLEADERSTYLE
  2
AcDbMLeaderStyle
  3
ACDB_MLEADERSTYLE_CLASS
 90
     4095
 91
        1
280
     0
281
     0
  0
CLASS
  1
ACDBSECTIONVIEWSTYLE
  2
AcDbSectionViewStyle
  3
ObjectDBX Classes
 90
     1025
 91
        1
280
     0
281
     0
  0
CLASS
  1
ACDBDETAILVIEWSTYLE
  2
AcDbDetailViewStyle
  3
ObjectDBX Classes
 90
     1025
 91
        1
280
     0
281
     0
  0
CLASS
  1
RASTERVARIABLES
  2
AcDbRasterVariables
  3
ISM
 90
        0
 91
        1
280
     0
281
     0
  0
CLASS
  1
DICTIONARYVAR
  2
AcDbDictionaryVar
  3
ObjectDBX Classes
 90
        0
 91
        5
280
     0
281
     0
  0
CLASS
  1
CELLSTYLEMAP
  2
AcDbCellStyleMap
  3
ObjectDBX Classes
 90
     1152
 91
        2
280
     0
281
     0
  0
CLASS
  1
SORTENTSTABLE
  2
AcDbSortentsTable
  3
ObjectDBX Classes
 90
        0
 91
        1
280
     0
281
     0
  0
ENDSEC
  0
SECTION
  2
TABLES
  0
TABLE
  2
VPORT
  5
8
330
0
100
AcDbSymbolTable
 70
     1
  0
VPORT
  5
57
330
8
100
AcDbSymbolTableRecord
100
AcDbViewportTableRecord
  2
*Active
 70
     0
 10
0.0
 20
0.0
 11
1.0
 21
1.0
 12
922.790380693166
 22
1798.769814365028
 13
0.0
 23
0.0
 14
1.0
 24
1.0
 15
0.0
 25
0.0
 16
0.0
 26
0.0
 36
1.0
 17
0.0
 27
0.0
 37
0.0
 40
1040.460371270055
 41
0.6691729600908288
 42
50.0
 43
0.0
 44
0.0
 50
0.0
 51
0.0
 71
     0
 72
  1000
 73
     1
 74
     1
 75
     0
 76
     0
 77
     0
 78
     0
281
     0
 65
     1
110
0.0
120
0.0
130
0.0
111
1.0
121
0.0
131
0.0
112
0.0
122
1.0
132
0.0
 79
     0
146
0.0
 60
     3
 61
     5
292
     1
282
     1
141
0.0
142
0.0
 63
   250
421
  3355443
  0
ENDTAB
  0
TABLE
  2
LTYPE
  5
5
330
0
100
AcDbSymbolTable
 70
     3
  0
LTYPE
  5
5B
330
5
100
AcDbSymbolTableRecord
100
AcDbLinetypeTableRecord
  2
ByBlock
 70
     0
  3

 72
    65
 73
     0
 40
0.0
  0
LTYPE
  5
5C
330
5
100
AcDbSymbolTableRecord
100
AcDbLinetypeTableRecord
  2
ByLayer
 70
     0
  3

 72
    65
 73
     0
 40
0.0
  0
LTYPE
  5
5D
330
5
100
AcDbSymbolTableRecord
100
AcDbLinetypeTableRecord
  2
Continuous
 70
     0
  3
Solid line
 72
    65
 73
     0
 40
0.0
  0
LTYPE
  5
69
330
5
100
AcDbSymbolTableRecord
100
AcDbLinetypeTableRecord
  2
PHANTOM2
 70
     0
  3
___ _ _ ___ _ _ ___ _ _ ___ _ _
 72
    65
 73
     6
 40
1.25
 49
0.625
 74
     0
 49
-0.125
 74
     0
 49
0.125
 74
     0
 49
-0.125
 74
     0
 49
0.125
 74
     0
 49
-0.125
 74
     0
  0
LTYPE
  5
86
330
5
100
AcDbSymbolTableRecord
100
AcDbLinetypeTableRecord
  2
Nascosto 1_5 mm
 70
     0
  3

 72
    65
 73
     2
 40
2.2
 49
1.5
 74
     0
 49
-0.7000000000000001
 74
     0
  0
ENDTAB
  0
TABLE
  2
LAYER
  5
2
330
0
100
AcDbSymbolTable
 70
     4
  0
LAYER
  5
54
330
2
100
AcDbSymbolTableRecord
100
AcDbLayerTableRecord
  2
0
 70
     0
 62
     7
  6
Continuous
370
    -3
390
F
347
21
348
0
  0
LAYER
  5
85
330
2
100
AcDbSymbolTableRecord
100
AcDbLayerTableRecord
  2
P-SANR-FIXT
 70
     0
 62
     6
  6
Continuous
370
    18
390
F
347
21
348
0
  0
LAYER
  5
88
330
2
100
AcDbSymbolTableRecord
100
AcDbLayerTableRecord
  2
M-PIPE
 70
     0
 62
     3
  6
Continuous
370
    18
390
F
347
21
348
0
  0
ENDTAB
  0
TABLE
  2
STYLE
  5
3
330
0
100
AcDbSymbolTable
 70
     2
  0
STYLE
  5
55
330
3
100
AcDbSymbolTableRecord
100
AcDbTextStyleTableRecord
  2
Standard
 70
     0
 40
0.0
 41
1.0
 50
0.0
 71
     0
 42
0.2
  3
txt
  4

  0
STYLE
  5
5A
330
3
100
AcDbSymbolTableRecord
100
AcDbTextStyleTableRecord
  2
Annotative
 70
     0
 40
0.0
 41
1.0
 50
0.0
 71
     0
 42
0.2
  3
txt
  4

1001
AcadAnnotative
1000
AnnotativeData
1002
{
1070
     1
1070
     1
1002
}
  0
ENDTAB
  0
TABLE
  2
VIEW
  5
6
330
0
100
AcDbSymbolTable
 70
     0
  0
ENDTAB
  0
TABLE
  2
UCS
  5
7
330
0
100
AcDbSymbolTable
 70
     0
  0
ENDTAB
  0
TABLE
  2
APPID
  5
9
330
0
100
AcDbSymbolTable
 70
     3
  0
APPID
  5
56
330
9
100
AcDbSymbolTableRecord
100
AcDbRegAppTableRecord
  2
ACAD
 70
     0
  0
APPID
  5
5E
330
9
100
AcDbSymbolTableRecord
100
AcDbRegAppTableRecord
  2
AcadAnnotative
 70
     0
  0
APPID
  5
79
330
9
100
AcDbSymbolTableRecord
100
AcDbRegAppTableRecord
  2
REVIT
 70
     0
  0
ENDTAB
  0
TABLE
  2
DIMSTYLE
  5
A
330
0
100
AcDbSymbolTable
 70
     2
100
AcDbDimStyleTable
 71
     0
  0
DIMSTYLE
105
58
330
A
100
AcDbSymbolTableRecord
100
AcDbDimStyleTableRecord
  2
Standard
 70
     0
340
55
  0
DIMSTYLE
105
59
330
A
100
AcDbSymbolTableRecord
100
AcDbDimStyleTableRecord
  2
Annotative
 70
     0
340
55
1001
AcadAnnotative
1000
AnnotativeData
1002
{
1070
     1
1070
     1
1002
}
  0
ENDTAB
  0
TABLE
  2
BLOCK_RECORD
  5
1
330
0
100
AcDbSymbolTable
 70
     4
  0
BLOCK_RECORD
  5
71
102
{ACAD_XDICTIONARY
360
348
102
}
330
1
100
AcDbSymbolTableRecord
100
AcDbBlockTableRecord
  2
*Model_Space
340
74
 70
     0
280
     1
281
     0
  0
BLOCK_RECORD
  5
6D
330
1
100
AcDbSymbolTableRecord
100
AcDbBlockTableRecord
  2
*Paper_Space
340
70
 70
     0
280
     1
281
     0
  0
BLOCK_RECORD
  5
75
330
1
100
AcDbSymbolTableRecord
100
AcDbBlockTableRecord
  2
*Paper_Space0
340
78
 70
     0
280
     1
281
     0
  0
BLOCK_RECORD
  5
87
330
1
100
AcDbSymbolTableRecord
100
AcDbBlockTableRecord
  2
Automatic flow rate regulator valve_Caleffi_121 DN15 - 1_2__-859151-Est - Idraulica
340
0
102
{BLKREFS
331
1DD
102
}
 70
     0
280
     1
281
     0
  0
BLOCK_RECORD
  5
1DE
330
1
100
AcDbSymbolTableRecord
100
AcDbBlockTableRecord
  2
Automatic flow rate regulator valve_Caleffi_121 DN15 - 1_2__-V1-Est - Idraulica
340
0
102
{BLKREFS
331
26F
102
}
 70
     0
280
     1
281
     0
  0
BLOCK_RECORD
  5
270
330
1
100
AcDbSymbolTableRecord
100
AcDbBlockTableRecord
  2
Automatic flow rate regulator valve_Caleffi_121 DN15 - 1_2__-V2-Est - Idraulica
340
0
102
{BLKREFS
331
341
102
}
 70
     0
280
     1
281
     0
  0
ENDTAB
  0
ENDSEC
  0
SECTION
  2
BLOCKS
  0
BLOCK
  5
72
330
71
100
AcDbEntity
  8
0
100
AcDbBlockBegin
  2
*Model_Space
 70
     0
 10
0.0
 20
0.0
 30
0.0
  3
*Model_Space
  1

  0
ENDBLK
  5
73
330
71
100
AcDbEntity
  8
0
100
AcDbBlockEnd
  0
BLOCK
  5
6E
330
6D
100
AcDbEntity
 67
     1
  8
0
100
AcDbBlockBegin
  2
*Paper_Space
 70
     0
 10
0.0
 20
0.0
 30
0.0
  3
*Paper_Space
  1

  0
ENDBLK
  5
6F
330
6D
100
AcDbEntity
 67
     1
  8
0
100
AcDbBlockEnd
  0
BLOCK
  5
76
330
75
100
AcDbEntity
 67
     1
  8
0
100
AcDbBlockBegin
  2
*Paper_Space0
 70
     0
 10
0.0
 20
0.0
 30
0.0
  3
*Paper_Space0
  1

  0
ENDBLK
  5
77
330
75
100
AcDbEntity
 67
     1
  8
0
100
AcDbBlockEnd
  0
BLOCK
  5
1DB
330
87
100
AcDbEntity
  8
0
100
AcDbBlockBegin
  2
Automatic flow rate regulator valve_Caleffi_121 DN15 - 1_2__-859151-Est - Idraulica
 70
     0
 10
0.0
 20
0.0
 30
0.0
  3
Automatic flow rate regulator valve_Caleffi_121 DN15 - 1_2__-859151-Est - Idraulica
  1

  0
LINE
  5
89
330
87
100
AcDbEntity
  8
M-PIPE
100
AcDbLine
 10
703.166407443215
 20
2227.499999999997
 30
0.0
 11
703.9563250262524
 21
2227.499999999997
 31
0.0
1001
REVIT
1002
{
1070
     3
1000
790271
1002
}
  0
LINE
  5
8A
330
87
100
AcDbEntity
  8
M-PIPE
100
AcDbLine
 10
714.8764898601447
 20
2227.499999999997
 30
0.0
 11
716.4563250262879
 21
2227.499999999997
 31
0.0
1001
REVIT
1002
{
1070
     3
1000
790271
1002
}
  0
LINE
  5
8B
330
87
100
AcDbEntity
  8
M-PIPE
100
AcDbLine
 10
727.3764898601378
 20
2227.499999999997
 30
0.0
 11
728.1664074432149
 21
2227.499999999997
 31
0.0
1001
REVIT
1002
{
1070
     3
1000
790271
1002
}
  0
LINE
  5
8C
330
87
100
AcDbEntity
  8
M-PIPE
100
AcDbLine
 10
727.3764898601374
 20
2212.500000000024
 30
0.0
 11
725.0589774292246
 21
2212.500000000024
 31
0.0
1001
REVIT
1002
{
1070
     3
1000
790271
1002
}
  0
LINE
  5
8D
330
87
100
AcDbEntity
  8
M-PIPE
100
AcDbLine
 10
718.8734652354619
 20
2212.500000000024
 30
0.0
 11
716.4563250262885
 21
2212.500000000024
 31
0.0
1001
REVIT
1002
{
1070
     3
1000
790271
1002
}
  0
LINE
  5
8E
330
87
100
AcDbEntity
  8
M-PIPE
100
AcDbLine
 10
714.8764898601442
 20
2212.500000000024
 30
0.0
 11
712.4593496509884
 21
2212.500000000024
 31
0.0
1001
REVIT
1002
{
1070
     3
1000
790271
1002
}
  0
LINE
  5
8F
330
87
100
AcDbEntity
  8
M-PIPE
100
AcDbLine
 10
706.2738374571306
 20
2212.500000000025
 30
0.0
 11
703.9563250262524
 21
2212.500000000025
 31
0.0
1001
REVIT
1002
{
1070
     3
1000
790271
1002
}
  0
LINE
  5
90
330
87
100
AcDbEntity
  8
M-PIPE
100
AcDbLine
 10
703.1664074432149
 20
2227.499999999997
 30
0.0
 11
703.1664074432147
 21
2212.500000000025
 31
0.0
1001
REVIT
1002
{
1070
     3
1000
790271
1002
}
  0
LINE
  5
91
330
87
100
AcDbEntity
  8
M-PIPE
100
AcDbLine
 10
703.9563250262525
 20
2212.500000000025
 30
0.0
 11
703.166407443215
 21
2212.500000000025
 31
0.0
1001
REVIT
1002
{
1070
     3
1000
790271
1002
}
  0
LINE
  5
92
330
87
100
AcDbEntity
  8
M-PIPE
100
AcDbLine
 10
703.9563250262523
 20
2212.500000000025
 30
0.0
 11
703.9563250262524
 21
2227.499999999997
 31
0.0
1001
REVIT
1002
{
1070
     3
1000
790271
1002
}
  0
LINE
  5
93
330
87
100
AcDbEntity
  8
M-PIPE
100
AcDbLine
 10
714.8764898601444
 20
2227.499999999997
 30
0.0
 11
714.8764898601443
 21
2212.500000000024
 31
0.0
1001
REVIT
1002
{
1070
     3
1000
790271
1002
}
  0
LINE
  5
94
330
87
100
AcDbEntity
  8
M-PIPE
100
AcDbLine
 10
716.4563250262886
 20
2212.500000000024
 30
0.0
 11
714.8764898601443
 21
2212.500000000024
 31
0.0
1001
REVIT
1002
{
1070
     3
1000
790271
1002
}
  0
LINE
  5
95
330
87
100
AcDbEntity
  8
M-PIPE
100
AcDbLine
 10
716.4563250262877
 20
2212.500000000024
 30
0.0
 11
716.4563250262878
 21
2227.499999999997
 31
0.0
1001
REVIT
1002
{
1070
     3
1000
790271
1002
}
  0
LINE
  5
96
330
87
100
AcDbEntity
  8
M-PIPE
100
AcDbLine
 10
727.3764898601378
 20
2227.499999999997
 30
0.0
 11
727.3764898601378
 21
2212.500000000024
 31
0.0
1001
REVIT
1002
{
1070
     3
1000
790271
1002
}
  0
LINE
  5
97
330
87
100
AcDbEntity
  8
M-PIPE
100
AcDbLine
 10
728.166407443215
 20
2212.500000000024
 30
0.0
 11
727.3764898601374
 21
2212.500000000024
 31
0.0
1001
REVIT
1002
{
1070
     3
1000
790271
1002
}
  0
LINE
  5
98
330
87
100
AcDbEntity
  8
M-PIPE
100
AcDbLine
 10
728.1664074432147
 20
2212.500000000024
 30
0.0
 11
728.1664074432149
 21
2227.499999999997
 31
0.0
1001
REVIT
1002
{
1070
     3
1000
790271
1002
}
  0
LINE
  5
99
330
87
100
AcDbEntity
  8
M-PIPE
100
AcDbLine
 10
730.9164074432049
 20
2227.499999999998
 30
0.0
 11
730.9164074432049
 21
2234.5
 31
0.0
1001
REVIT
1002
{
1070
     3
1000
790271
1002
}
  0
LINE
  5
9A
330
87
100
AcDbEntity
  8
M-PIPE
100
AcDbLine
 10
700.416407443203
 20
2234.500000000001
 30
0.0
 11
700.416407443203
 21
2227.499999999999
 31
0.0
1001
REVIT
1002
{
1070
     3
1000
790271
1002
}
  0
LINE
  5
9B
330
87
100
AcDbEntity
  8
M-PIPE
100
AcDbLine
 10
739.1664074432051
 20
2234.500000000012
 30
0.0
 11
739.1664074432055
 21
2287.000000000044
 31
0.0
1001
REVIT
1002
{
1070
     3
1000
790271
1002
}
  0
LINE
  5
9C
330
87
100
AcDbEntity
  8
M-PIPE
100
AcDbLine
 10
692.1664074432035
 20
2287.000000000044
 30
0.0
 11
692.1664074432031
 21
2234.500000000013
 31
0.0
1001
REVIT
1002
{
1070
     3
1000
790271
1002
}
  0
LINE
  5
9D
330
87
100
AcDbEntity
  8
M-PIPE
100
AcDbLine
 10
688.1664074432047
 20
2296.500000000045
 30
0.0
 11
688.1664074432044
 21
2287.000000000044
 31
0.0
1001
REVIT
1002
{
1070
     3
1000
790271
1002
}
  0
LINE
  5
9E
330
87
100
AcDbEntity
  8
M-PIPE
100
AcDbLine
 10
743.1664074432046
 20
2287.000000000044
 30
0.0
 11
743.1664074432049
 21
2296.500000000044
 31
0.0
1001
REVIT
1002
{
1070
     3
1000
790271
1002
}
  0
LINE
  5
9F
330
87
100
AcDbEntity
  8
M-PIPE
100
AcDbLine
 10
730.8141097517923
 20
2227.499999999997
 30
0.0
 11
727.7711630703403
 21
2227.499999999997
 31
0.0
1001
REVIT
1002
{
1070
     3
1000
790271
1002
}
  0
LINE
  5
A0
330
87
100
AcDbEntity
  8
M-PIPE
100
AcDbLine
 10
727.4151187491792
 20
2227.499999999997
 30
0.0
 11
724.7674164406101
 21
2227.499999999997
 31
0.0
1001
REVIT
1002
{
1070
     3
1000
790271
1002
}
  0
LINE
  5
A1
330
87
100
AcDbEntity
  8
M-PIPE
100
AcDbLine
 10
721.7131007543907
 20
2227.499999999997
 30
0.0
 11
709.6197141320145
 21
2227.499999999997
 31
0.0
1001
REVIT
1002
{
1070
     3
1000
790271
1002
}
  0
LINE
  5
A2
330
87
100
AcDbEntity
  8
M-PIPE
100
AcDbLine
 10
706.5653984458386
 20
2227.499999999997
 30
0.0
 11
703.9176961372508
 21
2227.499999999997
 31
0.0
1001
REVIT
1002
{
1070
     3
1000
790271
1002
}
  0
LINE
  5
A3
330
87
100
AcDbEntity
  8
M-PIPE
100
AcDbLine
 10
703.536314690321
 20
2227.499999999997
 30
0.0
 11
700.5187051346066
 21
2227.499999999997
 31
0.0
1001
REVIT
1002
{
1070
     3
1000
790271
1002
}
  0
LINE
  5
A4
330
87
100
AcDbEntity
  8
M-PIPE
100
AcDbLine
 10
730.8141097517923
 20
2234.499999999999
 30
0.0
 11
730.8141097517922
 21
2227.499999999997
 31
0.0
1001
REVIT
1002
{
1070
     3
1000
790271
1002
}
  0
LINE
  5
A5
330
87
100
AcDbEntity
  8
M-PIPE
100
AcDbLine
 10
730.9164074432035
 20
2227.499999999997
 30
0.0
 11
730.8141097517923
 21
2227.499999999997
 31
0.0
1001
REVIT
1002
{
1070
     3
1000
790271
1002
}
  0
LINE
  5
A6
330
87
100
AcDbEntity
  8
M-PIPE
100
AcDbLine
 10
700.5187051346066
 20
2227.499999999997
 30
0.0
 11
700.4164074432017
 21
2227.499999999997
 31
0.0
1001
REVIT
1002
{
1070
     3
1000
790271
1002
}
  0
LINE
  5
A7
330
87
100
AcDbEntity
  8
M-PIPE
100
AcDbLine
 10
700.5187051346065
 20
2227.499999999997
 30
0.0
 11
700.5187051346066
 21
2234.499999999999
 31
0.0
1001
REVIT
1002
{
1070
     3
1000
790271
1002
}
  0
LINE
  5
A8
330
87
100
AcDbEntity
  8
M-PIPE
100
AcDbLine
 10
724.7674164406101
 20
2227.499999999997
 30
0.0
 11
721.7131007543908
 21
2227.499999999997
 31
0.0
1001
REVIT
1002
{
1070
     3
1000
790271
1002
}
  0
LINE
  5
A9
330
87
100
AcDbEntity
  8
M-PIPE
100
AcDbLine
 10
724.7674164406107
 20
2227.499999999997
 30
0.0
 11
724.7674164406109
 21
2234.499999999999
 31
0.0
1001
REVIT
1002
{
1070
     3
1000
790271
1002
}
  0
LINE
  5
AA
330
87
100
AcDbEntity
  8
M-PIPE
100
AcDbLine
 10
721.7131007543899
 20
2234.499999999999
 30
0.0
 11
721.7131007543899
 21
2227.499999999997
 31
0.0
1001
REVIT
1002
{
1070
     3
1000
790271
1002
}
  0
LINE
  5
AB
330
87
100
AcDbEntity
  8
M-PIPE
100
AcDbLine
 10
709.6197141320147
 20
2227.499999999997
 30
0.0
 11
706.5653984458386
 21
2227.499999999997
 31
0.0
1001
REVIT
1002
{
1070
     3
1000
790271
1002
}
  0
LINE
  5
AC
330
87
100
AcDbEntity
  8
M-PIPE
100
AcDbLine
 10
709.6197141320153
 20
2227.499999999997
 30
0.0
 11
709.6197141320153
 21
2234.499999999999
 31
0.0
1001
REVIT
1002
{
1070
     3
1000
790271
1002
}
  0
LINE
  5
AD
330
87
100
AcDbEntity
  8
M-PIPE
100
AcDbLine
 10
706.5653984458386
 20
2234.499999999999
 30
0.0
 11
706.5653984458386
 21
2227.499999999997
 31
0.0
1001
REVIT
1002
{
1070
     3
1000
790271
1002
}
  0
LINE
  5
AE
330
87
100
AcDbEntity
  8
M-PIPE
100
AcDbLine
 10
739.1664074432037
 20
2234.500000000011
 30
0.0
 11
692.1664074432018
 21
2234.500000000011
 31
0.0
1001
REVIT
1002
{
1070
     3
1000
790271
1002
}
  0
LINE
  5
AF
330
87
100
AcDbEntity
  8
M-PIPE
100
AcDbLine
 10
688.1664074432034
 20
2296.500000000043
 30
0.0
 11
743.1664074432035
 21
2296.500000000043
 31
0.0
1001
REVIT
1002
{
1070
     3
1000
790271
1002
}
  0
LINE
  5
B0
330
87
100
AcDbEntity
  8
M-PIPE
100
AcDbLine
 10
688.1664074432032
 20
2287.000000000043
 30
0.0
 11
743.1664074432033
 21
2287.000000000043
 31
0.0
1001
REVIT
1002
{
1070
     3
1000
790271
1002
}
  0
LINE
  5
B1
330
87
100
AcDbEntity
  8
M-PIPE
100
AcDbLine
 10
710.9164074432047
 20
2296.500000000044
 30
0.0
 11
710.9164074432047
 21
2299.500000000044
 31
0.0
1001
REVIT
1002
{
1070
     3
1000
790271
1002
}
  0
LINE
  5
B2
330
87
100
AcDbEntity
  8
M-PIPE
100
AcDbLine
 10
696.4164074432046
 20
2299.500000000044
 30
0.0
 11
696.4164074432046
 21
2296.500000000044
 31
0.0
1001
REVIT
1002
{
1070
     3
1000
790271
1002
}
  0
LINE
  5
B3
330
87
100
AcDbEntity
  8
M-PIPE
100
AcDbLine
 10
708.1664074432047
 20
2299.500000000044
 30
0.0
 11
708.1664074432047
 21
2307.885966107229
 31
0.0
1001
REVIT
1002
{
1070
     3
1000
790271
1002
}
  0
LINE
  5
B4
330
87
100
AcDbEntity
  8
M-PIPE
100
AcDbLine
 10
699.1664074432046
 20
2307.885966107229
 30
0.0
 11
699.1664074432046
 21
2299.500000000044
 31
0.0
1001
REVIT
1002
{
1070
     3
1000
790271
1002
}
  0
LINE
  5
B5
330
87
100
AcDbEntity
  8
M-PIPE
100
AcDbLine
 10
710.9164074432034
 20
2299.500000000043
 30
0.0
 11
696.4164074432034
 21
2299.500000000043
 31
0.0
1001
REVIT
1002
{
1070
     3
1000
790271
1002
}
  0
LINE
  5
B6
330
87
100
AcDbEntity
  8
M-PIPE
100
AcDbLine
 10
697.6664074432047
 20
2319.000000000056
 30
0.0
 11
697.6664074432047
 21
2307.885966107229
 31
0.0
1001
REVIT
1002
{
1070
     3
1000
790271
1002
}
  0
LINE
  5
B7
330
87
100
AcDbEntity
  8
M-PIPE
100
AcDbLine
 10
709.6664074432047
 20
2307.885966107229
 30
0.0
 11
709.6664074432047
 21
2319.000000000056
 31
0.0
1001
REVIT
1002
{
1070
     3
1000
790271
1002
}
  0
LINE
  5
B8
330
87
100
AcDbEntity
  8
M-PIPE
100
AcDbLine
 10
709.6664074432034
 20
2319.000000000055
 30
0.0
 11
697.6664074432034
 21
2319.000000000055
 31
0.0
1001
REVIT
1002
{
1070
     3
1000
790271
1002
}
  0
LINE
  5
B9
330
87
100
AcDbEntity
  8
M-PIPE
100
AcDbLine
 10
697.6664074432034
 20
2307.885966107228
 30
0.0
 11
709.6664074432034
 21
2307.885966107228
 31
0.0
1001
REVIT
1002
{
1070
     3
1000
790271
1002
}
  0
ARC
  5
BA
330
87
100
AcDbEntity
  8
M-PIPE
100
AcDbCircle
 10
710.1664074432034
 20
1635.998199541844
 30
0.0
 40
2.0
100
AcDbArc
 50
180.0
 51
269.9999999999997
1001
REVIT
1002
{
1070
     3
1000
790271
1002
}
  0
LINE
  5
BB
330
87
100
AcDbEntity
  8
M-PIPE
100
AcDbLine
 10
710.1664074432034
 20
1633.998199541843
 30
0.0
 11
721.1664074432035
 21
1633.998199541843
 31
0.0
1001
REVIT
1002
{
1070
     3
1000
790271
1002
}
  0
ARC
  5
BC
330
87
100
AcDbEntity
  8
M-PIPE
100
AcDbCircle
 10
721.1664074432035
 20
1635.998199541844
 30
0.0
 40
1.999999999999886
100
AcDbArc
 50
269.9999999999997
 51
0.0
1001
REVIT
1002
{
1070
     3
1000
790271
1002
}
  0
LINE
  5
BD
330
87
100
AcDbEntity
  8
M-PIPE
100
AcDbLine
 10
723.1664074432034
 20
1635.998199541844
 30
0.0
 11
723.1664074432035
 21
1646.998199541843
 31
0.0
1001
REVIT
1002
{
1070
     3
1000
790271
1002
}
  0
ARC
  5
BE
330
87
100
AcDbEntity
  8
M-PIPE
100
AcDbCircle
 10
721.1664074432035
 20
1646.998199541843
 30
0.0
 40
2.0
100
AcDbArc
 50
0.0
 51
89.99999999999674
1001
REVIT
1002
{
1070
     3
1000
790271
1002
}
  0
LINE
  5
BF
330
87
100
AcDbEntity
  8
M-PIPE
100
AcDbLine
 10
721.1664074432035
 20
1648.998199541843
 30
0.0
 11
710.1664074432035
 21
1648.998199541844
 31
0.0
1001
REVIT
1002
{
1070
     3
1000
790271
1002
}
  0
ARC
  5
C0
330
87
100
AcDbEntity
  8
M-PIPE
100
AcDbCircle
 10
710.1664074432035
 20
1646.998199541843
 30
0.0
 40
1.999999999999772
100
AcDbArc
 50
89.99999999999349
 51
179.9999999999935
1001
REVIT
1002
{
1070
     3
1000
790271
1002
}
  0
LINE
  5
C1
330
87
100
AcDbEntity
  8
M-PIPE
100
AcDbLine
 10
708.1664074432036
 20
1646.998199541843
 30
0.0
 11
708.1664074432033
 21
1641.498199541844
 31
0.0
1001
REVIT
1002
{
1070
     3
1000
790271
1002
}
  0
LINE
  5
C2
330
87
100
AcDbEntity
  8
M-PIPE
100
AcDbLine
 10
708.1664074432033
 20
1641.498199541844
 30
0.0
 11
708.1664074432033
 21
1635.998199541844
 31
0.0
1001
REVIT
1002
{
1070
     3
1000
790271
1002
}
  0
LINE
  5
C3
330
87
100
AcDbEntity
  8
M-PIPE
100
AcDbLine
 10
703.6664074432048
 20
1647.498199541844
 30
0.0
 11
702.1664074432046
 21
1647.498199541844
 31
0.0
1001
REVIT
1002
{
1070
     3
1000
790271
1002
}
  0
LINE
  5
C4
330
87
100
AcDbEntity
  8
M-PIPE
100
AcDbLine
 10
704.9164074432681
 20
1648.748199541907
 30
0.0
 11
703.6664074432048
 21
1647.498199541844
 31
0.0
1001
REVIT
1002
{
1070
     3
1000
790271
1002
}
  0
LINE
  5
C5
330
87
100
AcDbEntity
  8
M-PIPE
100
AcDbLine
 10
705.916407443223
 20
1648.748199541907
 30
0.0
 11
704.9164074432681
 21
1648.748199541907
 31
0.0
1001
REVIT
1002
{
1070
     3
1000
790271
1002
}
  0
LINE
  5
C6
330
87
100
AcDbEntity
  8
M-PIPE
100
AcDbLine
 10
705.2164074431874
 20
1657.499999999994
 30
0.0
 11
705.2164074431874
 21
1654.998199541889
 31
0.0
1001
REVIT
1002
{
1070
     3
1000
790271
1002
}
  0
LINE
  5
C7
330
87
100
AcDbEntity
  8
M-PIPE
100
AcDbLine
 10
726.1164074432226
 20
1654.998199541889
 30
0.0
 11
726.1164074432226
 21
1657.499999999994
 31
0.0
1001
REVIT
1002
{
1070
     3
1000
790271
1002
}
  0
LINE
  5
C8
330
87
100
AcDbEntity
  8
M-PIPE
100
AcDbLine
 10
705.2164074432454
 20
1654.998199541889
 30
0.0
 11
706.1664074432049
 21
1654.04819954193
 31
0.0
1001
REVIT
1002
{
1070
     3
1000
790271
1002
}
  0
LINE
  5
C9
330
87
100
AcDbEntity
  8
M-PIPE
100
AcDbLine
 10
725.1664074432049
 20
1654.04819954193
 30
0.0
 11
726.1164074431644
 21
1654.998199541889
 31
0.0
1001
REVIT
1002
{
1070
     3
1000
790271
1002
}
  0
LINE
  5
CA
330
87
100
AcDbEntity
  8
M-PIPE
100
AcDbLine
 10
706.1664074432047
 20
1654.04819954193
 30
0.0
 11
706.1664074432047
 21
1648.998199541889
 31
0.0
1001
REVIT
1002
{
1070
     3
1000
790271
1002
}
  0
LINE
  5
CB
330
87
100
AcDbEntity
  8
M-PIPE
100
AcDbLine
 10
725.1664074432052
 20
1648.998199541889
 30
0.0
 11
725.1664074432052
 21
1654.04819954193
 31
0.0
1001
REVIT
1002
{
1070
     3
1000
790271
1002
}
  0
LINE
  5
CC
330
87
100
AcDbEntity
  8
M-PIPE
100
AcDbLine
 10
706.1664074432049
 20
1648.998199541889
 30
0.0
 11
705.916407443223
 21
1648.748199541907
 31
0.0
1001
REVIT
1002
{
1070
     3
1000
790271
1002
}
  0
LINE
  5
CD
330
87
100
AcDbEntity
  8
M-PIPE
100
AcDbLine
 10
726.6664074432049
 20
1647.498199541889
 30
0.0
 11
725.1664074432049
 21
1648.998199541889
 31
0.0
1001
REVIT
1002
{
1070
     3
1000
790271
1002
}
  0
LINE
  5
CE
330
87
100
AcDbEntity
  8
M-PIPE
100
AcDbLine
 10
726.6664074432049
 20
1627.898199541886
 30
0.0
 11
726.6664074432052
 21
1647.498199541889
 31
0.0
1001
REVIT
1002
{
1070
     3
1000
790271
1002
}
  0
LINE
  5
CF
330
87
100
AcDbEntity
  8
M-PIPE
100
AcDbLine
 10
704.6664074432045
 20
1632.498199541844
 30
0.0
 11
704.6664074432044
 21
1627.898199541886
 31
0.0
1001
REVIT
1002
{
1070
     3
1000
790271
1002
}
  0
LINE
  5
D0
330
87
100
AcDbEntity
  8
M-PIPE
100
AcDbLine
 10
701.6664074432041
 20
1627.898199541886
 30
0.0
 11
701.6664074432041
 21
1619.398199541886
 31
0.0
1001
REVIT
1002
{
1070
     3
1000
790271
1002
}
  0
LINE
  5
D1
330
87
100
AcDbEntity
  8
M-PIPE
100
AcDbLine
 10
729.6664074432048
 20
1619.398199541886
 30
0.0
 11
729.6664074432051
 21
1627.898199541886
 31
0.0
1001
REVIT
1002
{
1070
     3
1000
790271
1002
}
  0
LINE
  5
D2
330
87
100
AcDbEntity
  8
M-PIPE
100
AcDbLine
 10
708.3664074432038
 20
1619.398199541886
 30
0.0
 11
708.3664074432036
 21
1599.998199541823
 31
0.0
1001
REVIT
1002
{
1070
     3
1000
790271
1002
}
  0
LINE
  5
D3
330
87
100
AcDbEntity
  8
M-PIPE
100
AcDbLine
 10
722.9664074432049
 20
1599.998199541822
 30
0.0
 11
722.9664074432051
 21
1619.398199541886
 31
0.0
1001
REVIT
1002
{
1070
     3
1000
790271
1002
}
  0
LINE
  5
D4
330
87
100
AcDbEntity
  8
M-PIPE
100
AcDbLine
 10
703.6664074432035
 20
1635.49819954197
 30
0.0
 11
703.6664074432035
 21
1647.498199541844
 31
0.0
1001
REVIT
1002
{
1070
     3
1000
790271
1002
}
  0
SPLINE
  5
D5
330
87
100
AcDbEntity
  8
M-PIPE
100
AcDbSpline
210
0.0
220
0.0
230
1.0
 70
     8
 71
     3
 72
     8
 73
     4
 74
     0
 42
0.000000001
 43
0.0000000001
 40
-0.2630596050305305
 40
-0.2630596050305305
 40
-0.2630596050305305
 40
-0.2630596050305305
 40
0.0
 40
0.0
 40
0.0
 40
0.0
 10
704.8026375303418
 20
1634.572917124266
 30
0.0
 10
704.8349157942165
 20
1634.590121723614
 30
0.0
 10
704.8728655879054
 20
1634.610294159903
 30
0.0
 10
704.9164074432665
 20
1634.633434433133
 30
0.0
1001
REVIT
1002
{
1070
     3
1000
790271
1002
}
  0
LINE
  5
D6
330
87
100
AcDbEntity
  8
M-PIPE
100
AcDbLine
 10
704.9164074432667
 20
1634.633434433133
 30
0.0
 11
704.9164074432668
 21
1648.748199541907
 31
0.0
1001
REVIT
1002
{
1070
     3
1000
790271
1002
}
  0
SPLINE
  5
D7
330
87
100
AcDbEntity
  8
M-PIPE
100
AcDbSpline
210
0.0
220
0.0
230
1.0
 70
     8
 71
     3
 72
    44
 73
    40
 74
     0
 42
0.000000001
 43
0.0000000001
 40
0.0
 40
0.0
 40
0.0
 40
0.0
 40
0.0555555555555556
 40
0.1111111111111111
 40
0.1388888888888889
 40
0.1666666666666666
 40
0.1944444444444444
 40
0.2083333333333333
 40
0.2222222222222222
 40
0.2361111111111111
 40
0.25
 40
0.2777777777777778
 40
0.3055555555555556
 40
0.3194444444444444
 40
0.3333333333333333
 40
0.3472222222222222
 40
0.3611111111111111
 40
0.3888888888888888
 40
0.4166666666666666
 40
0.4444444444444445
 40
0.4722222222222223
 40
0.5
 40
0.5555555555555556
 40
0.6111111111111112
 40
0.6388888888888889
 40
0.6666666666666666
 40
0.6944444444444445
 40
0.7222222222222223
 40
0.75
 40
0.7638888888888889
 40
0.7777777777777778
 40
0.7916666666666668
 40
0.8055555555555555
 40
0.8333333333333332
 40
0.861111111111111
 40
0.8888888888888889
 40
0.9166666666666666
 40
0.9444444444444444
 40
1.0
 40
1.0
 40
1.0
 40
1.0
 10
704.9164074432665
 20
1634.633434433133
 30
0.0
 10
704.9849985538295
 20
1634.730959037083
 30
0.0
 10
705.1343746625001
 20
1634.960815753891
 30
0.0
 10
705.3479548354198
 20
1635.328173381188
 30
0.0
 10
705.5414594232071
 20
1635.663874531493
 30
0.0
 10
705.6986439634922
 20
1635.934882208142
 30
0.0
 10
705.8333958227803
 20
1636.176795123982
 30
0.0
 10
705.941118092725
 20
1636.37986989552
 30
0.0
 10
706.0204724234745
 20
1636.537131290352
 30
0.0
 10
706.1003227497378
 20
1636.698765390322
 30
0.0
 10
706.2098128405199
 20
1636.919318283817
 30
0.0
 10
706.3486306873693
 20
1637.20492465464
 30
0.0
 10
706.4846419779111
 20
1637.504134393153
 30
0.0
 10
706.5885825227891
 20
1637.752032524878
 30
0.0
 10
706.6624914057726
 20
1637.942479479536
 30
0.0
 10
706.7346335430809
 20
1638.137009139662
 30
0.0
 10
706.8313310254366
 20
1638.400975710182
 30
0.0
 10
706.9485189233288
 20
1638.739696853145
 30
0.0
 10
707.0765959892563
 20
1639.159612704863
 30
0.0
 10
707.1809348381186
 20
1639.592033237284
 30
0.0
 10
707.2643084608827
 20
1640.037701350682
 30
0.0
 10
707.3556597516401
 20
1640.646686895936
 30
0.0
 10
707.4137540560964
 20
1641.419720678719
 30
0.0
 10
707.3697921075064
 20
1642.194684315976
 30
0.0
 10
707.2895314074465
 20
1642.80692284507
 30
0.0
 10
707.2132348118222
 20
1643.255610214585
 30
0.0
 10
707.1147549743987
 20
1643.691752112994
 30
0.0
 10
706.9918204661771
 20
1644.116137414129
 30
0.0
 10
706.8781776890978
 20
1644.458914205641
 30
0.0
 10
706.7838764076033
 20
1644.726222945913
 30
0.0
 10
706.7133085870647
 20
1644.923269643456
 30
0.0
 10
706.640731210366
 20
1645.116261680412
 30
0.0
 10
706.5382179662228
 20
1645.367637679963
 30
0.0
 10
706.4035150137975
 20
1645.671355601169
 30
0.0
 10
706.2372620982243
 20
1646.019610214113
 30
0.0
 10
706.0751090355709
 20
1646.352646184585
 30
0.0
 10
705.9180777202052
 20
1646.669287782747
 30
0.0
 10
705.7077464830584
 20
1647.066143741032
 30
0.0
 10
705.5511119588749
 20
1647.334130374089
 30
0.0
 10
705.4469407252291
 20
1647.498199541889
 30
0.0
1001
REVIT
1002
{
1070
     3
1000
790271
1002
}
  0
SPLINE
  5
D8
330
87
100
AcDbEntity
  8
M-PIPE
100
AcDbSpline
210
0.0
220
0.0
230
1.0
 70
     8
 71
     3
 72
    11
 73
     7
 74
     0
 42
0.000000001
 43
0.0000000001
 40
0.0
 40
0.0
 40
0.0
 40
0.0
 40
0.3333333333333333
 40
0.5
 40
0.6666666666666666
 40
1.0
 40
1.0
 40
1.0
 40
1.0
 10
705.4469407252291
 20
1647.498199541889
 30
0.0
 10
705.5694783922919
 20
1647.763182562681
 30
0.0
 10
705.7178033141755
 20
1648.105636656923
 30
0.0
 10
705.8287183256102
 20
1648.435363960837
 30
0.0
 10
705.8976206966494
 20
1648.674768242603
 30
0.0
 10
705.9199076973458
 20
1648.748199541907
 30
0.0
 10
705.9164074432215
 20
1648.748199541907
 30
0.0
1001
REVIT
1002
{
1070
     3
1000
790271
1002
}
  0
LINE
  5
D9
330
87
100
AcDbEntity
  8
M-PIPE
100
AcDbLine
 10
705.2164074432441
 20
1654.998199541889
 30
0.0
 11
726.1164074431632
 21
1654.998199541888
 31
0.0
1001
REVIT
1002
{
1070
     3
1000
790271
1002
}
  0
LINE
  5
DA
330
87
100
AcDbEntity
  8
M-PIPE
100
AcDbLine
 10
706.1664074432034
 20
1654.048199541929
 30
0.0
 11
725.1664074432039
 21
1654.048199541929
 31
0.0
1001
REVIT
1002
{
1070
     3
1000
790271
1002
}
  0
LINE
  5
DB
330
87
100
AcDbEntity
  8
M-PIPE
100
AcDbLine
 10
706.1664074432035
 20
1648.998199541889
 30
0.0
 11
710.1572811937297
 21
1648.998199541889
 31
0.0
1001
REVIT
1002
{
1070
     3
1000
790271
1002
}
  0
LINE
  5
DC
330
87
100
AcDbEntity
  8
M-PIPE
100
AcDbLine
 10
721.1755336926773
 20
1648.998199541888
 30
0.0
 11
725.1664074432036
 21
1648.998199541888
 31
0.0
1001
REVIT
1002
{
1070
     3
1000
790271
1002
}
  0
LINE
  5
DD
330
87
100
AcDbEntity
  8
M-PIPE
100
AcDbLine
 10
705.4469407252291
 20
1647.498199541889
 30
0.0
 11
708.2301680771141
 21
1647.498199541889
 31
0.0
1001
REVIT
1002
{
1070
     3
1000
790271
1002
}
  0
LINE
  5
DE
330
87
100
AcDbEntity
  8
M-PIPE
100
AcDbLine
 10
715.2185274361662
 20
1647.498199541889
 30
0.0
 11
716.4838467386247
 21
1647.498199541889
 31
0.0
1001
REVIT
1002
{
1070
     3
1000
790271
1002
}
  0
LINE
  5
DF
330
87
100
AcDbEntity
  8
M-PIPE
100
AcDbLine
 10
723.1057560471263
 20
1647.498199541889
 30
0.0
 11
726.6664074432038
 21
1647.498199541889
 31
0.0
1001
REVIT
1002
{
1070
     3
1000
790271
1002
}
  0
LINE
  5
E0
330
87
100
AcDbEntity
  8
M-PIPE
100
AcDbLine
 10
701.6664074432029
 20
1627.898199541886
 30
0.0
 11
729.6664074432037
 21
1627.898199541885
 31
0.0
1001
REVIT
1002
{
1070
     3
1000
790271
1002
}
  0
LINE
  5
E1
330
87
100
AcDbEntity
  8
M-PIPE
100
AcDbLine
 10
701.6664074432027
 20
1619.398199541886
 30
0.0
 11
729.6664074432035
 21
1619.398199541885
 31
0.0
1001
REVIT
1002
{
1070
     3
1000
790271
1002
}
  0
LINE
  5
E2
330
87
100
AcDbEntity
  8
M-PIPE
100
AcDbLine
 10
708.3664074432022
 20
1599.998199541822
 30
0.0
 11
722.9664074432036
 21
1599.998199541822
 31
0.0
1001
REVIT
1002
{
1070
     3
1000
790271
1002
}
  0
LINE
  5
E3
330
87
100
AcDbEntity
  8
M-PIPE
100
AcDbLine
 10
698.1664074432034
 20
1664.498199542033
 30
0.0
 11
686.1664074432034
 21
1664.498199542033
 31
0.0
1001
REVIT
1002
{
1070
     3
1000
790271
1002
}
  0
LINE
  5
E4
330
87
100
AcDbEntity
  8
M-PIPE
100
AcDbLine
 10
686.1664074432034
 20
1664.498199542033
 30
0.0
 11
691.2102000608657
 21
1645.674509230076
 31
0.0
1001
REVIT
1002
{
1070
     3
1000
790271
1002
}
  0
LINE
  5
E5
330
87
100
AcDbEntity
  8
M-PIPE
100
AcDbLine
 10
698.1664074432034
 20
1649.34327408563
 30
0.0
 11
698.1664074432034
 21
1664.498199542033
 31
0.0
1001
REVIT
1002
{
1070
     3
1000
790271
1002
}
  0
LINE
  5
E6
330
87
100
AcDbEntity
  8
M-PIPE
100
AcDbLine
 10
702.1664074432046
 20
1649.748199542034
 30
0.0
 11
698.1664074432047
 21
1649.748199542034
 31
0.0
1001
REVIT
1002
{
1070
     3
1000
790271
1002
}
  0
LINE
  5
E7
330
87
100
AcDbEntity
  8
M-PIPE
100
AcDbLine
 10
693.1664074432046
 20
1633.248199541781
 30
0.0
 11
701.6664074432046
 21
1633.248199541781
 31
0.0
1001
REVIT
1002
{
1070
     3
1000
790271
1002
}
  0
LINE
  5
E8
330
87
100
AcDbEntity
  8
M-PIPE
100
AcDbLine
 10
691.0847558828694
 20
1646.142673275878
 30
0.0
 11
691.0013439336705
 21
1645.998199541907
 31
0.0
1001
REVIT
1002
{
1070
     3
1000
790271
1002
}
  0
LINE
  5
E9
330
87
100
AcDbEntity
  8
M-PIPE
100
AcDbLine
 10
691.0013439336705
 20
1636.998199541907
 30
0.0
 11
693.1256581225967
 21
1633.318779435448
 31
0.0
1001
REVIT
1002
{
1070
     3
1000
790271
1002
}
  0
LINE
  5
EA
330
87
100
AcDbEntity
  8
M-PIPE
100
AcDbLine
 10
693.131557141211
 20
1633.308562035493
 30
0.0
 11
693.1664074432046
 21
1633.248199541781
 31
0.0
1001
REVIT
1002
{
1070
     3
1000
790271
1002
}
  0
LINE
  5
EB
330
87
100
AcDbEntity
  8
M-PIPE
100
AcDbLine
 10
691.0013439336705
 20
1645.998199541907
 30
0.0
 11
689.1664074432046
 21
1645.998199541907
 31
0.0
1001
REVIT
1002
{
1070
     3
1000
790271
1002
}
  0
LINE
  5
EC
330
87
100
AcDbEntity
  8
M-PIPE
100
AcDbLine
 10
689.1664074432046
 20
1636.998199541907
 30
0.0
 11
691.0013439336705
 21
1636.998199541907
 31
0.0
1001
REVIT
1002
{
1070
     3
1000
790271
1002
}
  0
LINE
  5
ED
330
87
100
AcDbEntity
  8
M-PIPE
100
AcDbLine
 10
702.1664074432034
 20
1633.430823235938
 30
0.0
 11
702.1664074432034
 21
1649.748199542034
 31
0.0
1001
REVIT
1002
{
1070
     3
1000
790271
1002
}
  0
LINE
  5
EE
330
87
100
AcDbEntity
  8
M-PIPE
100
AcDbLine
 10
693.1664074432035
 20
1649.358663201493
 30
0.0
 11
693.1664074432035
 21
1633.24819954178
 31
0.0
1001
REVIT
1002
{
1070
     3
1000
790271
1002
}
  0
LINE
  5
EF
330
87
100
AcDbEntity
  8
M-PIPE
100
AcDbLine
 10
691.0013439336693
 20
1645.998199541907
 30
0.0
 11
691.0013439336693
 21
1636.998199541906
 31
0.0
1001
REVIT
1002
{
1070
     3
1000
790271
1002
}
  0
LINE
  5
F0
330
87
100
AcDbEntity
  8
M-PIPE
100
AcDbLine
 10
689.1664074432034
 20
1645.998199541907
 30
0.0
 11
689.1664074432034
 21
1636.998199541906
 31
0.0
1001
REVIT
1002
{
1070
     3
1000
790271
1002
}
  0
LINE
  5
F1
330
87
100
AcDbEntity
  8
M-PIPE
100
AcDbLine
 10
701.6664074432034
 20
1632.498199541844
 30
0.0
 11
701.6664074432034
 21
1633.447287099148
 31
0.0
1001
REVIT
1002
{
1070
     3
1000
790271
1002
}
  0
LINE
  5
F2
330
87
100
AcDbEntity
  8
M-PIPE
100
AcDbLine
 10
702.1664074432034
 20
1635.498199541844
 30
0.0
 11
703.9343906842279
 21
1635.498199541844
 31
0.0
1001
REVIT
1002
{
1070
     3
1000
790271
1002
}
  0
LINE
  5
F3
330
87
100
AcDbEntity
  8
M-PIPE
100
AcDbLine
 10
704.8145070457307
 20
1632.498199541843
 30
0.0
 11
701.6664074432034
 21
1632.498199541844
 31
0.0
1001
REVIT
1002
{
1070
     3
1000
790271
1002
}
  0
LINE
  5
F4
330
87
100
AcDbEntity
  8
P-SANR-FIXT
100
AcDbLine
 10
790.6664074431859
 20
1874.999999999993
 30
0.0
 11
790.6664074431859
 21
1859.158358249646
 31
0.0
  0
LINE
  5
F5
330
87
100
AcDbEntity
  8
P-SANR-FIXT
100
AcDbLine
 10
790.6664074431859
 20
1810.841640490028
 30
0.0
 11
790.6664074431859
 21
1794.999999999997
 31
0.0
  0
LINE
  5
F6
330
87
100
AcDbEntity
  8
P-SANR-FIXT
100
AcDbLine
 10
790.666407443197
 20
1794.999999999969
 30
0.0
 11
772.8097717726212
 21
1794.999999999969
 31
0.0
  0
LINE
  5
F7
330
87
100
AcDbEntity
  8
P-SANR-FIXT
100
AcDbLine
 10
658.5230432511914
 20
1794.999999999969
 30
0.0
 11
640.666407443197
 21
1794.999999999969
 31
0.0
  0
LINE
  5
F8
330
87
100
AcDbEntity
  8
P-SANR-FIXT
100
AcDbLine
 10
640.666407443197
 20
1875.000000000021
 30
0.0
 11
658.5164073813445
 21
1875.000000000021
 31
0.0
  0
LINE
  5
F9
330
87
100
AcDbEntity
  8
P-SANR-FIXT
100
AcDbLine
 10
772.8164082075283
 20
1875.000000000021
 30
0.0
 11
790.666407443197
 21
1875.000000000021
 31
0.0
  0
LINE
  5
FA
330
87
100
AcDbEntity
  8
P-SANR-FIXT
100
AcDbLine
 10
640.666407443197
 20
1794.999999999955
 30
0.0
 11
640.666407443197
 21
1810.841641750341
 31
0.0
  0
LINE
  5
FB
330
87
100
AcDbEntity
  8
P-SANR-FIXT
100
AcDbLine
 10
640.666407443197
 20
1859.158359509961
 30
0.0
 11
640.666407443197
 21
1875.000000000035
 31
0.0
  0
LINE
  5
FC
330
87
100
AcDbEntity
  8
P-SANR-FIXT
100
AcDbLine
 10
790.6664074431865
 20
2134.999999999992
 30
0.0
 11
790.6664074431865
 21
2119.158358249646
 31
0.0
  0
LINE
  5
FD
330
87
100
AcDbEntity
  8
P-SANR-FIXT
100
AcDbLine
 10
790.6664074431865
 20
2070.841640490028
 30
0.0
 11
790.6664074431865
 21
2054.999999999996
 31
0.0
  0
LINE
  5
FE
330
87
100
AcDbEntity
  8
P-SANR-FIXT
100
AcDbLine
 10
790.6664074431976
 20
2054.999999999968
 30
0.0
 11
772.8164075050584
 21
2054.999999999968
 31
0.0
  0
LINE
  5
FF
330
87
100
AcDbEntity
  8
P-SANR-FIXT
100
AcDbLine
 10
658.5164066788746
 20
2054.999999999968
 30
0.0
 11
640.6664074431975
 21
2054.999999999968
 31
0.0
  0
LINE
  5
100
330
87
100
AcDbEntity
  8
P-SANR-FIXT
100
AcDbLine
 10
640.6664074431975
 20
2135.00000000002
 30
0.0
 11
658.5164074432009
 21
2135.00000000002
 31
0.0
  0
LINE
  5
101
330
87
100
AcDbEntity
  8
P-SANR-FIXT
100
AcDbLine
 10
772.8164074432018
 20
2135.00000000002
 30
0.0
 11
790.6664074431976
 21
2135.00000000002
 31
0.0
  0
LINE
  5
102
330
87
100
AcDbEntity
  8
P-SANR-FIXT
100
AcDbLine
 10
640.6664074431975
 20
2054.999999999955
 30
0.0
 11
640.6664074431975
 21
2070.841641750341
 31
0.0
  0
LINE
  5
103
330
87
100
AcDbEntity
  8
P-SANR-FIXT
100
AcDbLine
 10
640.6664074431975
 20
2119.158359509961
 30
0.0
 11
640.6664074431975
 21
2135.000000000033
 31
0.0
  0
LWPOLYLINE
  5
104
330
87
100
AcDbEntity
  8
P-SANR-FIXT
100
AcDbPolyline
 90
       41
 70
   128
 43
0.0
 10
685.6664074432037
 20
1672.499999999995
 10
683.8668874048051
 20
1672.535995200251
 10
682.0702462145909
 20
1672.643923216378
 10
680.2793581152023
 20
1672.823611386571
 10
678.4970881455625
 20
1673.074772248092
 10
676.7262875574259
 20
1673.397003997139
 10
674.9697892539825
 20
1673.789791131654
 10
673.2304032578184
 20
1674.252505276011
 10
671.5109122154782
 20
1674.784406186285
 10
669.8140669458246
 20
1675.384642934488
 10
668.1425820393142
 20
1676.052255269866
 10
666.4991315152335
 20
1676.786175155097
 10
664.8863445438368
 20
1677.585228474927
 10
663.3068012402354
 20
1678.448136914501
 10
661.7630285367637
 20
1679.373520004391
 10
660.2574961404269
 20
1680.35989732906
 10
658.7926125818958
 20
1681.405690895202
 10
657.3707213623724
 20
1682.509227656203
 10
655.9940972044873
 20
1683.668742188655
 10
654.6649424132287
 20
1684.882379516654
 10
653.385383352725
 20
1686.148198079372
 10
652.1574670445147
 20
1687.464172837136
 10
650.9831578927498
 20
1688.828198511059
 10
649.864334541567
 20
1690.238092951039
 10
648.8027868696584
 20
1691.691600626734
 10
647.8002131268478
 20
1693.186396235929
 10
646.8582172172531
 20
1694.72008842452
 10
645.9783061333808
 20
1696.290223612177
 10
645.1618875452607
 20
1697.894289917543
 10
644.4102675484737
 20
1699.529721176713
 10
643.7246485746782
 20
1701.193901048545
 10
643.1061274679739
 20
1702.88416720025
 10
642.555693730188
 20
1704.597815566557
 10
642.0742279378814
 20
1706.332104675638
 10
641.662500333614
 20
1708.084260034881
 10
641.3211695937225
 20
1709.851478569484
 10
641.0507817745773
 20
1711.630933106778
 10
640.8517694390093
 20
1713.419776899101
 10
640.724450964302
 20
1715.215148177984
 10
640.6690300328547
 20
1717.014174732373
 10
640.6664074432032
 20
1717.499999999995
  0
LWPOLYLINE
  5
105
330
87
100
AcDbEntity
  8
P-SANR-FIXT
100
AcDbPolyline
 90
       41
 70
   128
 43
0.0
 10
790.6664074432021
 20
1717.499999999995
 10
790.6304122429462
 20
1715.700479961596
 10
790.5224842268199
 20
1713.903838771383
 10
790.3427960566261
 20
1712.112950671994
 10
790.0916351951054
 20
1710.330680702354
 10
789.7694034460578
 20
1708.559880114217
 10
789.3766163115434
 20
1706.803381810774
 10
788.9139021671866
 20
1705.06399581461
 10
788.382001256912
 20
1703.344504772269
 10
787.7817645087091
 20
1701.647659502616
 10
787.1141521733319
 20
1699.976174596106
 10
786.3802322881004
 20
1698.332724072025
 10
785.5811789682697
 20
1696.719937100628
 10
784.7182705286962
 20
1695.140393797027
 10
783.7928874388056
 20
1693.596621093555
 10
782.8065101141374
 20
1692.091088697218
 10
781.760716547995
 20
1690.626205138687
 10
780.6571797869936
 20
1689.204313919164
 10
779.4976652545421
 20
1687.827689761279
 10
778.2840279265426
 20
1686.49853497002
 10
777.0182093638242
 20
1685.218975909516
 10
775.7022346060607
 20
1683.991059601306
 10
774.3382089321378
 20
1682.816750449542
 10
772.9283144921577
 20
1681.697927098358
 10
771.4748068164624
 20
1680.63637942645
 10
769.9800112072681
 20
1679.63380568364
 10
768.4463190186768
 20
1678.691809774045
 10
766.8761838310201
 20
1677.811898690173
 10
765.2721175256539
 20
1676.995480102052
 10
763.6366862664841
 20
1676.243860105266
 10
761.972506394652
 20
1675.55824113147
 10
760.2822402429467
 20
1674.939720024766
 10
758.5685918766396
 20
1674.38928628698
 10
756.8343027675584
 20
1673.907820494673
 10
755.0821474083154
 20
1673.496092890406
 10
753.3149288737125
 20
1673.154762150514
 10
751.5354743364182
 20
1672.884374331369
 10
749.7466305440956
 20
1672.685361995801
 10
747.9512592652128
 20
1672.558043521094
 10
746.1522327108236
 20
1672.502622589647
 10
745.6664074432016
 20
1672.499999999995
  0
LWPOLYLINE
  5
106
330
87
100
AcDbEntity
  8
P-SANR-FIXT
100
AcDbPolyline
 90
        7
 70
   128
 43
0.0
 10
745.6664074432023
 20
1672.499999999995
 10
745.6424106430315
 20
1672.499999999995
 10
745.5704586322807
 20
1672.499999999995
 10
745.4506665188183
 20
1672.499999999995
 10
745.2832259444709
 20
1672.499999999995
 10
745.0684047784395
 20
1672.499999999995
 10
744.8824849610018
 20
1672.499999999995
  0
LWPOLYLINE
  5
107
330
87
100
AcDbEntity
  8
P-SANR-FIXT
100
AcDbPolyline
 90
        8
 70
   128
 43
0.0
 10
686.4461888803463
 20
1672.499999999995
 10
686.3999480157705
 20
1672.499999999995
 10
686.1596880521829
 20
1672.499999999995
 10
685.9666325451898
 20
1672.499999999995
 10
685.8210903424193
 20
1672.499999999995
 10
685.7232942803486
 20
1672.499999999995
 10
685.6734008118152
 20
1672.499999999995
 10
685.666407443203
 20
1672.499999999995
  0
LWPOLYLINE
  5
108
330
87
100
AcDbEntity
  8
P-SANR-FIXT
100
AcDbPolyline
 90
       41
 70
   128
 43
0.0
 10
640.6664074432025
 20
2157.499999999996
 10
640.7024026434585
 20
2159.299520038394
 10
640.8103306595846
 20
2161.096161228608
 10
640.9900188297783
 20
2162.887049327997
 10
641.2411796912993
 20
2164.669319297637
 10
641.5634114403466
 20
2166.440119885773
 10
641.9561985748609
 20
2168.196618189217
 10
642.4189127192175
 20
2169.936004185381
 10
642.9508136294924
 20
2171.655495227721
 10
643.5510503776952
 20
2173.352340497375
 10
644.2186627130723
 20
2175.023825403885
 10
644.9525825983039
 20
2176.667275927966
 10
645.7516359181345
 20
2178.280062899363
 10
646.6145443577081
 20
2179.859606202964
 10
647.5399274475985
 20
2181.403378906435
 10
648.5263047722667
 20
2182.908911302772
 10
649.572098338409
 20
2184.373794861304
 10
650.6756350994104
 20
2185.795686080827
 10
651.8351496318619
 20
2187.172310238712
 10
653.0487869598614
 20
2188.501465029971
 10
654.3146055225797
 20
2189.781024090474
 10
655.6305802803434
 20
2191.008940398685
 10
656.994605954266
 20
2192.183249550449
 10
658.4045003942462
 20
2193.302072901632
 10
659.8580080699417
 20
2194.363620573541
 10
661.3528036791359
 20
2195.366194316351
 10
662.886495867727
 20
2196.308190225946
 10
664.4566310553837
 20
2197.188101309819
 10
666.0606973607501
 20
2198.004519897938
 10
667.6961286199199
 20
2198.756139894726
 10
669.3603084917518
 20
2199.441758868521
 10
671.0505746434574
 20
2200.060279975225
 10
672.7642230097641
 20
2200.610713713011
 10
674.4985121188453
 20
2201.092179505318
 10
676.2506674780882
 20
2201.503907109585
 10
678.0178860126913
 20
2201.845237849477
 10
679.7973405499857
 20
2202.115625668622
 10
681.5861843423083
 20
2202.31463800419
 10
683.3815556211911
 20
2202.441956478898
 10
685.1805821755801
 20
2202.497377410345
 10
685.666407443202
 20
2202.499999999996
  0
LWPOLYLINE
  5
109
330
87
100
AcDbEntity
  8
P-SANR-FIXT
100
AcDbPolyline
 90
       41
 70
   128
 43
0.0
 10
745.6664074432032
 20
2202.499999999996
 10
747.4659274816017
 20
2202.46400479974
 10
749.2625686718159
 20
2202.356076783614
 10
751.0534567712046
 20
2202.17638861342
 10
752.8357267408442
 20
2201.925227751899
 10
754.6065273289809
 20
2201.602996002852
 10
756.3630256324243
 20
2201.210208868337
 10
758.1024116285883
 20
2200.747494723981
 10
759.8219026709284
 20
2200.215593813706
 10
761.5187479405823
 20
2199.615357065503
 10
763.1902328470925
 20
2198.947744730125
 10
764.8336833711731
 20
2198.213824844894
 10
766.4464703425699
 20
2197.414771525064
 10
768.0260136461713
 20
2196.55186308549
 10
769.5697863496429
 20
2195.626479995599
 10
771.0753187459796
 20
2194.640102670931
 10
772.5402023045107
 20
2193.594309104789
 10
773.9620935240342
 20
2192.490772343788
 10
775.3387176819195
 20
2191.331257811336
 10
776.667872473178
 20
2190.117620483337
 10
777.9474315336816
 20
2188.851801920618
 10
779.1753478418917
 20
2187.535827162854
 10
780.3496569936567
 20
2186.171801488931
 10
781.4684803448397
 20
2184.761907048951
 10
782.530028016748
 20
2183.308399373256
 10
783.5326017595585
 20
2181.813603764062
 10
784.4745976691533
 20
2180.279911575471
 10
785.3545087530257
 20
2178.709776387814
 10
786.1709273411457
 20
2177.105710082448
 10
786.9225473379326
 20
2175.470278823278
 10
787.6081663117282
 20
2173.806098951446
 10
788.2266874184322
 20
2172.11583279974
 10
788.777121156218
 20
2170.402184433434
 10
789.2585869485249
 20
2168.667895324352
 10
789.670314552792
 20
2166.915739965109
 10
790.0116452926837
 20
2165.148521430506
 10
790.2820331118288
 20
2163.369066893212
 10
790.4810454473967
 20
2161.580223100889
 10
790.6083639221042
 20
2159.784851822007
 10
790.6637848535515
 20
2157.985825267617
 10
790.6664074432028
 20
2157.499999999996
  0
LWPOLYLINE
  5
10A
330
87
100
AcDbEntity
  8
P-SANR-FIXT
100
AcDbPolyline
 90
        7
 70
   128
 43
0.0
 10
685.6664074432024
 20
2202.499999999996
 10
685.6904042433731
 20
2202.499999999996
 10
685.7623562541239
 20
2202.499999999996
 10
685.8821483675865
 20
2202.499999999996
 10
686.0495889419336
 20
2202.499999999996
 10
686.2644101079652
 20
2202.499999999996
 10
686.4503299254027
 20
2202.499999999996
  0
LWPOLYLINE
  5
10B
330
87
100
AcDbEntity
  8
P-SANR-FIXT
100
AcDbPolyline
 90
        8
 70
   128
 43
0.0
 10
744.8866260060597
 20
2202.499999999996
 10
744.9328668706353
 20
2202.499999999996
 10
745.1731268342231
 20
2202.499999999996
 10
745.3661823412161
 20
2202.499999999996
 10
745.5117245439867
 20
2202.499999999996
 10
745.6095206060572
 20
2202.499999999996
 10
745.6594140745907
 20
2202.499999999996
 10
745.6664074432029
 20
2202.499999999996
  0
LINE
  5
10C
330
87
100
AcDbEntity
  8
P-SANR-FIXT
100
AcDbLine
 10
745.6664074432003
 20
1672.499999999995
 30
0.0
 11
728.666407443208
 21
1672.499999999995
 31
0.0
  0
LINE
  5
10D
330
87
100
AcDbEntity
  8
P-SANR-FIXT
100
AcDbLine
 10
702.6664074431945
 20
1672.499999999995
 30
0.0
 11
685.6664074432024
 21
1672.499999999995
 31
0.0
  0
ARC
  5
10E
330
87
100
AcDbEntity
  8
P-SANR-FIXT
100
AcDbCircle
 10
685.6664074432019
 20
1717.499999999995
 30
0.0
 40
45.0
100
AcDbArc
 50
179.9999999999999
 51
270.0000000000002
  0
ARC
  5
10F
330
87
100
AcDbEntity
  8
P-SANR-FIXT
100
AcDbCircle
 10
745.6664074432008
 20
1717.499999999995
 30
0.0
 40
45.0
100
AcDbArc
 50
269.9999999999993
 51
0.0
  0
LINE
  5
110
330
87
100
AcDbEntity
  8
P-SANR-FIXT
100
AcDbLine
 10
640.6664074432012
 20
1717.499999999995
 30
0.0
 11
640.6664074432012
 21
1810.841641750341
 31
0.0
  0
LINE
  5
111
330
87
100
AcDbEntity
  8
P-SANR-FIXT
100
AcDbLine
 10
640.6664074432012
 20
1859.158359509961
 30
0.0
 11
640.6664074432012
 21
2070.841641750341
 31
0.0
  0
LINE
  5
112
330
87
100
AcDbEntity
  8
P-SANR-FIXT
100
AcDbLine
 10
640.6664074432012
 20
2119.158359509961
 30
0.0
 11
640.6664074432012
 21
2157.499999999995
 31
0.0
  0
LINE
  5
113
330
87
100
AcDbEntity
  8
P-SANR-FIXT
100
AcDbLine
 10
790.6664074432015
 20
2157.499999999995
 30
0.0
 11
790.6664074432015
 21
2119.158358249646
 31
0.0
  0
LINE
  5
114
330
87
100
AcDbEntity
  8
P-SANR-FIXT
100
AcDbLine
 10
790.6664074432015
 20
2070.841640490028
 30
0.0
 11
790.6664074432015
 21
1859.158358249646
 31
0.0
  0
LINE
  5
115
330
87
100
AcDbEntity
  8
P-SANR-FIXT
100
AcDbLine
 10
790.6664074432015
 20
1810.841640490028
 30
0.0
 11
790.6664074432015
 21
1717.499999999995
 31
0.0
  0
ARC
  5
116
330
87
100
AcDbEntity
  8
P-SANR-FIXT
100
AcDbCircle
 10
685.6664074432012
 20
2157.499999999995
 30
0.0
 40
44.99999999999953
100
AcDbArc
 50
90.00000000000035
 51
180.0000000000007
  0
ARC
  5
117
330
87
100
AcDbEntity
  8
P-SANR-FIXT
100
AcDbCircle
 10
745.6664074432015
 20
2157.499999999995
 30
0.0
 40
44.99999999999949
100
AcDbArc
 50
359.9999999999992
 51
89.99999999999964
  0
LINE
  5
118
330
87
100
AcDbEntity
  8
P-SANR-FIXT
100
AcDbLine
 10
685.666407443201
 20
2202.499999999995
 30
0.0
 11
702.6664074431945
 21
2202.499999999995
 31
0.0
  0
LINE
  5
119
330
87
100
AcDbEntity
  8
P-SANR-FIXT
100
AcDbLine
 10
728.666407443208
 20
2202.499999999995
 30
0.0
 11
745.6664074432018
 21
2202.499999999995
 31
0.0
  0
LINE
  5
11A
330
87
100
AcDbEntity
  8
P-SANR-FIXT
100
AcDbLine
 10
574.6664074431741
 20
1805.850000000052
 30
0.0
 11
594.6664074431692
 21
1805.850000000052
 31
0.0
  0
LINE
  5
11B
330
87
100
AcDbEntity
  8
P-SANR-FIXT
100
AcDbLine
 10
594.6664074431692
 20
1864.14999999994
 30
0.0
 11
574.6664074431741
 21
1864.14999999994
 31
0.0
  0
LINE
  5
11C
330
87
100
AcDbEntity
  8
P-SANR-FIXT
100
AcDbLine
 10
574.6664074431732
 20
1852.888996340571
 30
0.0
 11
574.666407443173
 21
1863.876375463772
 31
0.0
  0
LINE
  5
11D
330
87
100
AcDbEntity
  8
P-SANR-FIXT
100
AcDbLine
 10
574.666407443173
 20
1863.876375463772
 30
0.0
 11
574.666407443173
 21
1864.149999999939
 31
0.0
  0
LINE
  5
11E
330
87
100
AcDbEntity
  8
P-SANR-FIXT
100
AcDbLine
 10
574.666407443173
 20
1805.850000000052
 30
0.0
 11
574.666407443173
 21
1806.123624536219
 31
0.0
  0
LINE
  5
11F
330
87
100
AcDbEntity
  8
P-SANR-FIXT
100
AcDbLine
 10
574.666407443173
 20
1806.123624536219
 30
0.0
 11
574.6664074431732
 21
1817.111003659421
 31
0.0
  0
LINE
  5
120
330
87
100
AcDbEntity
  8
P-SANR-FIXT
100
AcDbLine
 10
574.6664074431732
 20
1817.111003659421
 30
0.0
 11
574.6664074431732
 21
1824.012620876795
 31
0.0
  0
LINE
  5
121
330
87
100
AcDbEntity
  8
P-SANR-FIXT
100
AcDbLine
 10
574.6664074431732
 20
1824.012620876795
 30
0.0
 11
574.6664074431732
 21
1845.987379123197
 31
0.0
  0
LINE
  5
122
330
87
100
AcDbEntity
  8
P-SANR-FIXT
100
AcDbLine
 10
574.6664074431732
 20
1845.987379123197
 30
0.0
 11
574.6664074431732
 21
1852.888996340571
 31
0.0
  0
LINE
  5
123
330
87
100
AcDbEntity
  8
P-SANR-FIXT
100
AcDbLine
 10
574.6664074431732
 20
1845.987379123197
 30
0.0
 11
594.6664074431681
 21
1845.987379123197
 31
0.0
  0
LINE
  5
124
330
87
100
AcDbEntity
  8
P-SANR-FIXT
100
AcDbLine
 10
574.6664074431732
 20
1824.012620876795
 30
0.0
 11
594.6664074431681
 21
1824.012620876795
 31
0.0
  0
LINE
  5
125
330
87
100
AcDbEntity
  8
P-SANR-FIXT
100
AcDbLine
 10
574.6664074431732
 20
1817.111003659421
 30
0.0
 11
594.6664074431681
 21
1817.111003659421
 31
0.0
  0
LINE
  5
126
330
87
100
AcDbEntity
  8
P-SANR-FIXT
100
AcDbLine
 10
574.666407443173
 20
1806.123624536219
 30
0.0
 11
594.666407443168
 21
1806.123624536219
 31
0.0
  0
LINE
  5
127
330
87
100
AcDbEntity
  8
P-SANR-FIXT
100
AcDbLine
 10
574.666407443173
 20
1863.876375463772
 30
0.0
 11
594.666407443168
 21
1863.876375463772
 31
0.0
  0
LINE
  5
128
330
87
100
AcDbEntity
  8
P-SANR-FIXT
100
AcDbLine
 10
594.6664074431681
 20
1852.888996340571
 30
0.0
 11
574.6664074431732
 21
1852.888996340571
 31
0.0
  0
LINE
  5
129
330
87
100
AcDbEntity
  8
P-SANR-FIXT
100
AcDbLine
 10
836.666407443236
 20
1805.850000000052
 30
0.0
 11
856.666407443231
 21
1805.850000000052
 31
0.0
  0
LINE
  5
12A
330
87
100
AcDbEntity
  8
P-SANR-FIXT
100
AcDbLine
 10
856.666407443231
 20
1864.14999999994
 30
0.0
 11
836.666407443236
 21
1864.14999999994
 31
0.0
  0
LINE
  5
12B
330
87
100
AcDbEntity
  8
P-SANR-FIXT
100
AcDbLine
 10
856.6664074432297
 20
1852.888996340571
 30
0.0
 11
856.6664074432297
 21
1845.987379123197
 31
0.0
  0
LINE
  5
12C
330
87
100
AcDbEntity
  8
P-SANR-FIXT
100
AcDbLine
 10
856.6664074432297
 20
1845.987379123197
 30
0.0
 11
856.6664074432297
 21
1824.012620876795
 31
0.0
  0
LINE
  5
12D
330
87
100
AcDbEntity
  8
P-SANR-FIXT
100
AcDbLine
 10
856.6664074432297
 20
1824.012620876795
 30
0.0
 11
856.6664074432297
 21
1817.111003659421
 31
0.0
  0
LINE
  5
12E
330
87
100
AcDbEntity
  8
P-SANR-FIXT
100
AcDbLine
 10
856.6664074432297
 20
1817.111003659421
 30
0.0
 11
856.6664074432296
 21
1806.123624536219
 31
0.0
  0
LINE
  5
12F
330
87
100
AcDbEntity
  8
P-SANR-FIXT
100
AcDbLine
 10
856.6664074432296
 20
1806.123624536219
 30
0.0
 11
856.6664074432296
 21
1805.850000000052
 31
0.0
  0
LINE
  5
130
330
87
100
AcDbEntity
  8
P-SANR-FIXT
100
AcDbLine
 10
856.6664074432296
 20
1864.149999999939
 30
0.0
 11
856.6664074432296
 21
1863.876375463772
 31
0.0
  0
LINE
  5
131
330
87
100
AcDbEntity
  8
P-SANR-FIXT
100
AcDbLine
 10
856.6664074432296
 20
1863.876375463772
 30
0.0
 11
856.6664074432297
 21
1852.888996340571
 31
0.0
  0
LINE
  5
132
330
87
100
AcDbEntity
  8
P-SANR-FIXT
100
AcDbLine
 10
856.6664074432297
 20
1852.888996340571
 30
0.0
 11
836.6664074432348
 21
1852.888996340571
 31
0.0
  0
LINE
  5
133
330
87
100
AcDbEntity
  8
P-SANR-FIXT
100
AcDbLine
 10
836.6664074432348
 20
1845.987379123197
 30
0.0
 11
856.6664074432297
 21
1845.987379123197
 31
0.0
  0
LINE
  5
134
330
87
100
AcDbEntity
  8
P-SANR-FIXT
100
AcDbLine
 10
836.6664074432348
 20
1824.012620876795
 30
0.0
 11
856.6664074432297
 21
1824.012620876795
 31
0.0
  0
LINE
  5
135
330
87
100
AcDbEntity
  8
P-SANR-FIXT
100
AcDbLine
 10
836.6664074432348
 20
1817.111003659421
 30
0.0
 11
856.6664074432297
 21
1817.111003659421
 31
0.0
  0
LINE
  5
136
330
87
100
AcDbEntity
  8
P-SANR-FIXT
100
AcDbLine
 10
836.6664074432346
 20
1806.123624536219
 30
0.0
 11
856.6664074432296
 21
1806.123624536219
 31
0.0
  0
LINE
  5
137
330
87
100
AcDbEntity
  8
P-SANR-FIXT
100
AcDbLine
 10
836.6664074432346
 20
1863.876375463772
 30
0.0
 11
856.6664074432296
 21
1863.876375463772
 31
0.0
  0
LINE
  5
138
330
87
100
AcDbEntity
  8
P-SANR-FIXT
100
AcDbLine
 10
594.6664074431683
 20
1856.50629752733
 30
0.0
 11
594.666407443168
 21
1878.012595054664
 31
0.0
  0
LINE
  5
139
330
87
100
AcDbEntity
  8
P-SANR-FIXT
100
AcDbLine
 10
594.666407443168
 20
1791.987404945327
 30
0.0
 11
594.6664074431683
 21
1813.493702472662
 31
0.0
  0
LINE
  5
13A
330
87
100
AcDbEntity
  8
P-SANR-FIXT
100
AcDbLine
 10
594.6664074431683
 20
1813.493702472662
 30
0.0
 11
594.6664074431683
 21
1856.50629752733
 31
0.0
  0
LINE
  5
13B
330
87
100
AcDbEntity
  8
P-SANR-FIXT
100
AcDbLine
 10
621.1664074431683
 20
1856.50629752733
 30
0.0
 11
621.1664074431683
 21
1813.493702472662
 31
0.0
  0
LINE
  5
13C
330
87
100
AcDbEntity
  8
P-SANR-FIXT
100
AcDbLine
 10
621.1664074431683
 20
1813.493702472662
 30
0.0
 11
621.1664074431682
 21
1791.987404945327
 31
0.0
  0
LINE
  5
13D
330
87
100
AcDbEntity
  8
P-SANR-FIXT
100
AcDbLine
 10
621.1664074431682
 20
1878.012595054664
 30
0.0
 11
621.1664074431683
 21
1856.50629752733
 31
0.0
  0
LINE
  5
13E
330
87
100
AcDbEntity
  8
P-SANR-FIXT
100
AcDbLine
 10
594.6664074431683
 20
1813.493702472662
 30
0.0
 11
621.1664074431683
 21
1813.493702472662
 31
0.0
  0
LINE
  5
13F
330
87
100
AcDbEntity
  8
P-SANR-FIXT
100
AcDbLine
 10
594.666407443168
 20
1791.987404945327
 30
0.0
 11
621.1664074431682
 21
1791.987404945327
 31
0.0
  0
LINE
  5
140
330
87
100
AcDbEntity
  8
P-SANR-FIXT
100
AcDbLine
 10
594.666407443168
 20
1878.012595054664
 30
0.0
 11
621.1664074431682
 21
1878.012595054664
 31
0.0
  0
LINE
  5
141
330
87
100
AcDbEntity
  8
P-SANR-FIXT
100
AcDbLine
 10
621.1664074431683
 20
1856.50629752733
 30
0.0
 11
594.6664074431683
 21
1856.50629752733
 31
0.0
  0
LINE
  5
142
330
87
100
AcDbEntity
  8
P-SANR-FIXT
100
AcDbLine
 10
836.6664074432348
 20
1856.50629752733
 30
0.0
 11
836.6664074432348
 21
1813.493702472662
 31
0.0
  0
LINE
  5
143
330
87
100
AcDbEntity
  8
P-SANR-FIXT
100
AcDbLine
 10
836.6664074432348
 20
1813.493702472662
 30
0.0
 11
836.6664074432346
 21
1791.987404945327
 31
0.0
  0
LINE
  5
144
330
87
100
AcDbEntity
  8
P-SANR-FIXT
100
AcDbLine
 10
836.6664074432346
 20
1878.012595054664
 30
0.0
 11
836.6664074432348
 21
1856.50629752733
 31
0.0
  0
LINE
  5
145
330
87
100
AcDbEntity
  8
P-SANR-FIXT
100
AcDbLine
 10
810.1664074432347
 20
1856.50629752733
 30
0.0
 11
810.1664074432346
 21
1878.012595054664
 31
0.0
  0
LINE
  5
146
330
87
100
AcDbEntity
  8
P-SANR-FIXT
100
AcDbLine
 10
810.1664074432346
 20
1791.987404945327
 30
0.0
 11
810.1664074432347
 21
1813.493702472662
 31
0.0
  0
LINE
  5
147
330
87
100
AcDbEntity
  8
P-SANR-FIXT
100
AcDbLine
 10
810.1664074432347
 20
1813.493702472662
 30
0.0
 11
810.1664074432347
 21
1856.50629752733
 31
0.0
  0
LINE
  5
148
330
87
100
AcDbEntity
  8
P-SANR-FIXT
100
AcDbLine
 10
836.6664074432348
 20
1856.50629752733
 30
0.0
 11
810.1664074432347
 21
1856.50629752733
 31
0.0
  0
LINE
  5
149
330
87
100
AcDbEntity
  8
P-SANR-FIXT
100
AcDbLine
 10
810.1664074432347
 20
1813.493702472662
 30
0.0
 11
836.6664074432348
 21
1813.493702472662
 31
0.0
  0
LINE
  5
14A
330
87
100
AcDbEntity
  8
P-SANR-FIXT
100
AcDbLine
 10
810.1664074432346
 20
1791.987404945327
 30
0.0
 11
836.6664074432346
 21
1791.987404945327
 31
0.0
  0
LINE
  5
14B
330
87
100
AcDbEntity
  8
P-SANR-FIXT
100
AcDbLine
 10
810.1664074432346
 20
1878.012595054664
 30
0.0
 11
836.6664074432346
 21
1878.012595054664
 31
0.0
  0
LINE
  5
14C
330
87
100
AcDbEntity
  8
P-SANR-FIXT
100
AcDbLine
 10
574.6664074431741
 20
2065.850000000051
 30
0.0
 11
594.6664074431692
 21
2065.850000000051
 31
0.0
  0
LINE
  5
14D
330
87
100
AcDbEntity
  8
P-SANR-FIXT
100
AcDbLine
 10
594.6664074431692
 20
2124.149999999938
 30
0.0
 11
574.6664074431741
 21
2124.149999999938
 31
0.0
  0
LINE
  5
14E
330
87
100
AcDbEntity
  8
P-SANR-FIXT
100
AcDbLine
 10
574.6664074431732
 20
2112.888996340569
 30
0.0
 11
574.666407443173
 21
2123.87637546377
 31
0.0
  0
LINE
  5
14F
330
87
100
AcDbEntity
  8
P-SANR-FIXT
100
AcDbLine
 10
574.666407443173
 20
2123.87637546377
 30
0.0
 11
574.666407443173
 21
2124.149999999938
 31
0.0
  0
LINE
  5
150
330
87
100
AcDbEntity
  8
P-SANR-FIXT
100
AcDbLine
 10
574.666407443173
 20
2065.85000000005
 30
0.0
 11
574.666407443173
 21
2066.123624536218
 31
0.0
  0
LINE
  5
151
330
87
100
AcDbEntity
  8
P-SANR-FIXT
100
AcDbLine
 10
574.666407443173
 20
2066.123624536218
 30
0.0
 11
574.6664074431732
 21
2077.111003659419
 31
0.0
  0
LINE
  5
152
330
87
100
AcDbEntity
  8
P-SANR-FIXT
100
AcDbLine
 10
574.6664074431732
 20
2077.111003659419
 30
0.0
 11
574.6664074431732
 21
2084.012620876793
 31
0.0
  0
LINE
  5
153
330
87
100
AcDbEntity
  8
P-SANR-FIXT
100
AcDbLine
 10
574.6664074431732
 20
2084.012620876793
 30
0.0
 11
574.6664074431732
 21
2105.987379123196
 31
0.0
  0
LINE
  5
154
330
87
100
AcDbEntity
  8
P-SANR-FIXT
100
AcDbLine
 10
574.6664074431732
 20
2105.987379123195
 30
0.0
 11
574.6664074431732
 21
2112.888996340569
 31
0.0
  0
LINE
  5
155
330
87
100
AcDbEntity
  8
P-SANR-FIXT
100
AcDbLine
 10
574.6664074431732
 20
2105.987379123195
 30
0.0
 11
594.6664074431681
 21
2105.987379123195
 31
0.0
  0
LINE
  5
156
330
87
100
AcDbEntity
  8
P-SANR-FIXT
100
AcDbLine
 10
574.6664074431732
 20
2084.012620876793
 30
0.0
 11
594.6664074431681
 21
2084.012620876793
 31
0.0
  0
LINE
  5
157
330
87
100
AcDbEntity
  8
P-SANR-FIXT
100
AcDbLine
 10
574.6664074431732
 20
2077.111003659419
 30
0.0
 11
594.6664074431681
 21
2077.111003659419
 31
0.0
  0
LINE
  5
158
330
87
100
AcDbEntity
  8
P-SANR-FIXT
100
AcDbLine
 10
574.666407443173
 20
2066.123624536218
 30
0.0
 11
594.666407443168
 21
2066.123624536218
 31
0.0
  0
LINE
  5
159
330
87
100
AcDbEntity
  8
P-SANR-FIXT
100
AcDbLine
 10
574.666407443173
 20
2123.87637546377
 30
0.0
 11
594.666407443168
 21
2123.87637546377
 31
0.0
  0
LINE
  5
15A
330
87
100
AcDbEntity
  8
P-SANR-FIXT
100
AcDbLine
 10
594.6664074431681
 20
2112.888996340569
 30
0.0
 11
574.6664074431732
 21
2112.888996340569
 31
0.0
  0
LINE
  5
15B
330
87
100
AcDbEntity
  8
P-SANR-FIXT
100
AcDbLine
 10
836.666407443236
 20
2065.850000000051
 30
0.0
 11
856.666407443231
 21
2065.850000000051
 31
0.0
  0
LINE
  5
15C
330
87
100
AcDbEntity
  8
P-SANR-FIXT
100
AcDbLine
 10
856.666407443231
 20
2124.149999999938
 30
0.0
 11
836.666407443236
 21
2124.149999999938
 31
0.0
  0
LINE
  5
15D
330
87
100
AcDbEntity
  8
P-SANR-FIXT
100
AcDbLine
 10
856.6664074432297
 20
2112.888996340569
 30
0.0
 11
856.6664074432297
 21
2105.987379123196
 31
0.0
  0
LINE
  5
15E
330
87
100
AcDbEntity
  8
P-SANR-FIXT
100
AcDbLine
 10
856.6664074432297
 20
2105.987379123196
 30
0.0
 11
856.6664074432297
 21
2084.012620876793
 31
0.0
  0
LINE
  5
15F
330
87
100
AcDbEntity
  8
P-SANR-FIXT
100
AcDbLine
 10
856.6664074432297
 20
2084.012620876793
 30
0.0
 11
856.6664074432297
 21
2077.111003659419
 31
0.0
  0
LINE
  5
160
330
87
100
AcDbEntity
  8
P-SANR-FIXT
100
AcDbLine
 10
856.6664074432297
 20
2077.111003659419
 30
0.0
 11
856.6664074432296
 21
2066.123624536218
 31
0.0
  0
LINE
  5
161
330
87
100
AcDbEntity
  8
P-SANR-FIXT
100
AcDbLine
 10
856.6664074432296
 20
2066.123624536218
 30
0.0
 11
856.6664074432296
 21
2065.85000000005
 31
0.0
  0
LINE
  5
162
330
87
100
AcDbEntity
  8
P-SANR-FIXT
100
AcDbLine
 10
856.6664074432296
 20
2124.149999999938
 30
0.0
 11
856.6664074432296
 21
2123.87637546377
 31
0.0
  0
LINE
  5
163
330
87
100
AcDbEntity
  8
P-SANR-FIXT
100
AcDbLine
 10
856.6664074432296
 20
2123.87637546377
 30
0.0
 11
856.6664074432297
 21
2112.888996340569
 31
0.0
  0
LINE
  5
164
330
87
100
AcDbEntity
  8
P-SANR-FIXT
100
AcDbLine
 10
856.6664074432297
 20
2112.888996340569
 30
0.0
 11
836.6664074432348
 21
2112.888996340569
 31
0.0
  0
LINE
  5
165
330
87
100
AcDbEntity
  8
P-SANR-FIXT
100
AcDbLine
 10
836.6664074432348
 20
2105.987379123196
 30
0.0
 11
856.6664074432297
 21
2105.987379123196
 31
0.0
  0
LINE
  5
166
330
87
100
AcDbEntity
  8
P-SANR-FIXT
100
AcDbLine
 10
836.6664074432348
 20
2084.012620876793
 30
0.0
 11
856.6664074432297
 21
2084.012620876793
 31
0.0
  0
LINE
  5
167
330
87
100
AcDbEntity
  8
P-SANR-FIXT
100
AcDbLine
 10
836.6664074432348
 20
2077.111003659419
 30
0.0
 11
856.6664074432297
 21
2077.111003659419
 31
0.0
  0
LINE
  5
168
330
87
100
AcDbEntity
  8
P-SANR-FIXT
100
AcDbLine
 10
836.6664074432346
 20
2066.123624536218
 30
0.0
 11
856.6664074432296
 21
2066.123624536218
 31
0.0
  0
LINE
  5
169
330
87
100
AcDbEntity
  8
P-SANR-FIXT
100
AcDbLine
 10
836.6664074432346
 20
2123.87637546377
 30
0.0
 11
856.6664074432296
 21
2123.87637546377
 31
0.0
  0
LINE
  5
16A
330
87
100
AcDbEntity
  8
P-SANR-FIXT
100
AcDbLine
 10
621.1664074431693
 20
2131.900000000051
 30
0.0
 11
617.6372990429324
 21
2138.012595054679
 31
0.0
  0
LINE
  5
16B
330
87
100
AcDbEntity
  8
P-SANR-FIXT
100
AcDbLine
 10
617.6372990429324
 20
2051.987404945311
 30
0.0
 11
621.1664074431693
 21
2058.099999999939
 31
0.0
  0
LINE
  5
16C
330
87
100
AcDbEntity
  8
P-SANR-FIXT
100
AcDbLine
 10
594.6664074431692
 20
2058.099999999936
 30
0.0
 11
598.1955158434043
 21
2051.98740494531
 31
0.0
  0
LINE
  5
16D
330
87
100
AcDbEntity
  8
P-SANR-FIXT
100
AcDbLine
 10
598.1955158434043
 20
2138.01259505468
 30
0.0
 11
594.6664074431692
 21
2131.900000000054
 31
0.0
  0
LINE
  5
16E
330
87
100
AcDbEntity
  8
P-SANR-FIXT
100
AcDbLine
 10
594.666407443168
 20
2058.099999999935
 30
0.0
 11
594.666407443168
 21
2131.900000000053
 31
0.0
  0
LINE
  5
16F
330
87
100
AcDbEntity
  8
P-SANR-FIXT
100
AcDbLine
 10
621.1664074431682
 20
2131.90000000005
 30
0.0
 11
621.1664074431682
 21
2058.099999999938
 31
0.0
  0
LINE
  5
170
330
87
100
AcDbEntity
  8
P-SANR-FIXT
100
AcDbLine
 10
598.1955158434089
 20
2073.49370247266
 30
0.0
 11
617.6372990429257
 21
2073.49370247266
 31
0.0
  0
SPLINE
  5
171
330
87
100
AcDbEntity
  8
P-SANR-FIXT
100
AcDbSpline
210
0.0
220
0.0
230
1.0
 70
     8
 71
     3
 72
    10
 73
     6
 74
     0
 42
0.000000001
 43
0.0000000001
 40
0.0
 40
0.0
 40
0.0
 40
0.0
 40
0.3333333333333333
 40
0.6666666666666666
 40
1.0
 40
1.0
 40
1.0
 40
1.0
 10
617.6372990429257
 20
2073.49370247266
 30
0.0
 10
619.1066726520427
 20
2078.266065027285
 30
0.0
 10
621.0655347096223
 20
2087.817351474404
 30
0.0
 10
621.0396491933392
 20
2102.327441147768
 30
0.0
 10
619.0953193554272
 20
2111.795988953639
 30
0.0
 10
617.6372990429257
 20
2116.506297527328
 30
0.0
  0
SPLINE
  5
172
330
87
100
AcDbEntity
  8
P-SANR-FIXT
100
AcDbSpline
210
0.0
220
0.0
230
1.0
 70
     8
 71
     3
 72
    10
 73
     6
 74
     0
 42
0.000000001
 43
0.0000000001
 40
0.0
 40
0.0
 40
0.0
 40
0.0
 40
0.3333333333333333
 40
0.6666666666666666
 40
1.0
 40
1.0
 40
1.0
 40
1.0
 10
598.1955158434089
 20
2116.506297527328
 30
0.0
 10
596.7374955309074
 20
2111.795988953639
 30
0.0
 10
594.7931656929958
 20
2102.327441147768
 30
0.0
 10
594.7672801767127
 20
2087.817351474404
 30
0.0
 10
596.7261422342921
 20
2078.266065027285
 30
0.0
 10
598.1955158434089
 20
2073.49370247266
 30
0.0
  0
SPLINE
  5
173
330
87
100
AcDbEntity
  8
P-SANR-FIXT
100
AcDbSpline
210
0.0
220
0.0
230
1.0
 70
     8
 71
     3
 72
    10
 73
     6
 74
     0
 42
0.000000001
 43
0.0000000001
 40
0.0
 40
0.0
 40
0.0
 40
0.0
 40
0.3333333333333333
 40
0.6666666666666666
 40
1.0
 40
1.0
 40
1.0
 40
1.0
 10
598.1955158434089
 20
2073.49370247266
 30
0.0
 10
596.7261422342902
 20
2071.107521195347
 30
0.0
 10
594.7672801767072
 20
2066.331877971788
 30
0.0
 10
594.7931656929837
 20
2059.076833135106
 30
0.0
 10
596.7374955308929
 20
2054.342559232171
 30
0.0
 10
598.1955158433936
 20
2051.987404945326
 30
0.0
  0
LINE
  5
174
330
87
100
AcDbEntity
  8
P-SANR-FIXT
100
AcDbLine
 10
598.1955158433936
 20
2051.987404945326
 30
0.0
 11
617.6372990429405
 21
2051.987404945326
 31
0.0
  0
SPLINE
  5
175
330
87
100
AcDbEntity
  8
P-SANR-FIXT
100
AcDbSpline
210
0.0
220
0.0
230
1.0
 70
     8
 71
     3
 72
    10
 73
     6
 74
     0
 42
0.000000001
 43
0.0000000001
 40
0.0
 40
0.0
 40
0.0
 40
0.0
 40
0.3333333333333333
 40
0.6666666666666666
 40
1.0
 40
1.0
 40
1.0
 40
1.0
 10
617.6372990429405
 20
2051.987404945326
 30
0.0
 10
619.0953193554413
 20
2054.342559232171
 30
0.0
 10
621.039649193351
 20
2059.076833135106
 30
0.0
 10
621.0655347096276
 20
2066.331877971789
 30
0.0
 10
619.1066726520444
 20
2071.107521195347
 30
0.0
 10
617.6372990429257
 20
2073.49370247266
 30
0.0
  0
LINE
  5
176
330
87
100
AcDbEntity
  8
P-SANR-FIXT
100
AcDbLine
 10
598.1955158433934
 20
2138.012595054662
 30
0.0
 11
617.6372990429405
 21
2138.012595054662
 31
0.0
  0
SPLINE
  5
177
330
87
100
AcDbEntity
  8
P-SANR-FIXT
100
AcDbSpline
210
0.0
220
0.0
230
1.0
 70
     8
 71
     3
 72
    10
 73
     6
 74
     0
 42
0.000000001
 43
0.0000000001
 40
0.0
 40
0.0
 40
0.0
 40
0.0
 40
0.3333333333333333
 40
0.6666666666666666
 40
1.0
 40
1.0
 40
1.0
 40
1.0
 10
598.1955158433934
 20
2138.012595054662
 30
0.0
 10
596.7261422342775
 20
2135.626413777349
 30
0.0
 10
594.7672801767004
 20
2130.85077055379
 30
0.0
 10
594.7931656929902
 20
2123.595725717107
 30
0.0
 10
596.7374955309055
 20
2118.861451814172
 30
0.0
 10
598.1955158434089
 20
2116.506297527328
 30
0.0
  0
LINE
  5
178
330
87
100
AcDbEntity
  8
P-SANR-FIXT
100
AcDbLine
 10
617.6372990429257
 20
2116.506297527328
 30
0.0
 11
598.1955158434089
 21
2116.506297527328
 31
0.0
  0
SPLINE
  5
179
330
87
100
AcDbEntity
  8
P-SANR-FIXT
100
AcDbSpline
210
0.0
220
0.0
230
1.0
 70
     8
 71
     3
 72
    10
 73
     6
 74
     0
 42
0.000000001
 43
0.0000000001
 40
0.0
 40
0.0
 40
0.0
 40
0.0
 40
0.3333333333333333
 40
0.6666666666666666
 40
1.0
 40
1.0
 40
1.0
 40
1.0
 10
617.6372990429257
 20
2116.506297527328
 30
0.0
 10
619.0953193554291
 20
2118.861451814172
 30
0.0
 10
621.0396491933445
 20
2123.595725717107
 30
0.0
 10
621.0655347096343
 20
2130.85077055379
 30
0.0
 10
619.1066726520567
 20
2135.626413777349
 30
0.0
 10
617.6372990429405
 20
2138.012595054662
 30
0.0
  0
LINE
  5
17A
330
87
100
AcDbEntity
  8
P-SANR-FIXT
100
AcDbLine
 10
810.166407443236
 20
2058.099999999939
 30
0.0
 11
813.6955158434732
 21
2051.987404945311
 31
0.0
  0
LINE
  5
17B
330
87
100
AcDbEntity
  8
P-SANR-FIXT
100
AcDbLine
 10
813.6955158434732
 20
2138.01259505468
 30
0.0
 11
810.166407443236
 21
2131.900000000051
 31
0.0
  0
LINE
  5
17C
330
87
100
AcDbEntity
  8
P-SANR-FIXT
100
AcDbLine
 10
836.6664074432359
 20
2131.900000000054
 30
0.0
 11
833.1372990430006
 21
2138.01259505468
 31
0.0
  0
LINE
  5
17D
330
87
100
AcDbEntity
  8
P-SANR-FIXT
100
AcDbLine
 10
833.1372990430013
 20
2051.987404945311
 30
0.0
 11
836.6664074432359
 21
2058.099999999936
 31
0.0
  0
LINE
  5
17E
330
87
100
AcDbEntity
  8
P-SANR-FIXT
100
AcDbLine
 10
836.6664074432346
 20
2131.900000000053
 30
0.0
 11
836.6664074432346
 21
2058.099999999935
 31
0.0
  0
LINE
  5
17F
330
87
100
AcDbEntity
  8
P-SANR-FIXT
100
AcDbLine
 10
810.1664074432346
 20
2058.099999999938
 30
0.0
 11
810.1664074432346
 21
2131.90000000005
 31
0.0
  0
LINE
  5
180
330
87
100
AcDbEntity
  8
P-SANR-FIXT
100
AcDbLine
 10
833.1372990429942
 20
2116.506297527328
 30
0.0
 11
813.6955158434775
 21
2116.506297527328
 31
0.0
  0
SPLINE
  5
181
330
87
100
AcDbEntity
  8
P-SANR-FIXT
100
AcDbSpline
210
0.0
220
0.0
230
1.0
 70
     8
 71
     3
 72
    10
 73
     6
 74
     0
 42
0.000000001
 43
0.0000000001
 40
0.0
 40
0.0
 40
0.0
 40
0.0
 40
0.3333333333333333
 40
0.6666666666666666
 40
1.0
 40
1.0
 40
1.0
 40
1.0
 10
813.6955158434775
 20
2116.506297527328
 30
0.0
 10
812.2261422343605
 20
2111.733934972703
 30
0.0
 10
810.2672801767806
 20
2102.182648525585
 30
0.0
 10
810.2931656930639
 20
2087.67255885222
 30
0.0
 10
812.2374955309759
 20
2078.204011046349
 30
0.0
 10
813.6955158434775
 20
2073.49370247266
 30
0.0
  0
SPLINE
  5
182
330
87
100
AcDbEntity
  8
P-SANR-FIXT
100
AcDbSpline
210
0.0
220
0.0
230
1.0
 70
     8
 71
     3
 72
    10
 73
     6
 74
     0
 42
0.000000001
 43
0.0000000001
 40
0.0
 40
0.0
 40
0.0
 40
0.0
 40
0.3333333333333333
 40
0.6666666666666666
 40
1.0
 40
1.0
 40
1.0
 40
1.0
 10
833.1372990429942
 20
2073.49370247266
 30
0.0
 10
834.5953193554956
 20
2078.204011046349
 30
0.0
 10
836.5396491934072
 20
2087.67255885222
 30
0.0
 10
836.5655347096904
 20
2102.182648525585
 30
0.0
 10
834.6066726521112
 20
2111.733934972703
 30
0.0
 10
833.1372990429942
 20
2116.506297527328
 30
0.0
  0
LINE
  5
183
330
87
100
AcDbEntity
  8
P-SANR-FIXT
100
AcDbLine
 10
813.6955158434775
 20
2073.49370247266
 30
0.0
 11
833.1372990429942
 21
2073.49370247266
 31
0.0
  0
SPLINE
  5
184
330
87
100
AcDbEntity
  8
P-SANR-FIXT
100
AcDbSpline
210
0.0
220
0.0
230
1.0
 70
     8
 71
     3
 72
    10
 73
     6
 74
     0
 42
0.000000001
 43
0.0000000001
 40
0.0
 40
0.0
 40
0.0
 40
0.0
 40
0.3333333333333333
 40
0.6666666666666666
 40
1.0
 40
1.0
 40
1.0
 40
1.0
 10
813.6955158434775
 20
2073.49370247266
 30
0.0
 10
812.2261422343584
 20
2071.107521195347
 30
0.0
 10
810.2672801767752
 20
2066.331877971789
 30
0.0
 10
810.2931656930516
 20
2059.076833135106
 30
0.0
 10
812.2374955309613
 20
2054.342559232171
 30
0.0
 10
813.695515843462
 20
2051.987404945326
 30
0.0
  0
SPLINE
  5
185
330
87
100
AcDbEntity
  8
P-SANR-FIXT
100
AcDbSpline
210
0.0
220
0.0
230
1.0
 70
     8
 71
     3
 72
    10
 73
     6
 74
     0
 42
0.000000001
 43
0.0000000001
 40
0.0
 40
0.0
 40
0.0
 40
0.0
 40
0.3333333333333333
 40
0.6666666666666666
 40
1.0
 40
1.0
 40
1.0
 40
1.0
 10
833.1372990430091
 20
2051.987404945326
 30
0.0
 10
834.5953193555098
 20
2054.342559232171
 30
0.0
 10
836.5396491934191
 20
2059.076833135106
 30
0.0
 10
836.5655347096957
 20
2066.331877971788
 30
0.0
 10
834.6066726521128
 20
2071.107521195347
 30
0.0
 10
833.1372990429942
 20
2073.49370247266
 30
0.0
  0
LINE
  5
186
330
87
100
AcDbEntity
  8
P-SANR-FIXT
100
AcDbLine
 10
813.695515843462
 20
2051.987404945326
 30
0.0
 11
833.1372990430091
 21
2051.987404945326
 31
0.0
  0
SPLINE
  5
187
330
87
100
AcDbEntity
  8
P-SANR-FIXT
100
AcDbSpline
210
0.0
220
0.0
230
1.0
 70
     8
 71
     3
 72
    10
 73
     6
 74
     0
 42
0.000000001
 43
0.0000000001
 40
0.0
 40
0.0
 40
0.0
 40
0.0
 40
0.3333333333333333
 40
0.6666666666666666
 40
1.0
 40
1.0
 40
1.0
 40
1.0
 10
833.1372990429942
 20
2116.506297527328
 30
0.0
 10
834.6066726521128
 20
2118.892478804641
 30
0.0
 10
836.5655347096957
 20
2123.668122028199
 30
0.0
 10
836.5396491934191
 20
2130.923166864882
 30
0.0
 10
834.5953193555098
 20
2135.657440767817
 30
0.0
 10
833.1372990430091
 20
2138.012595054662
 30
0.0
  0
LINE
  5
188
330
87
100
AcDbEntity
  8
P-SANR-FIXT
100
AcDbLine
 10
813.695515843462
 20
2138.012595054662
 30
0.0
 11
833.1372990430091
 21
2138.012595054662
 31
0.0
  0
SPLINE
  5
189
330
87
100
AcDbEntity
  8
P-SANR-FIXT
100
AcDbSpline
210
0.0
220
0.0
230
1.0
 70
     8
 71
     3
 72
    10
 73
     6
 74
     0
 42
0.000000001
 43
0.0000000001
 40
0.0
 40
0.0
 40
0.0
 40
0.0
 40
0.3333333333333333
 40
0.6666666666666666
 40
1.0
 40
1.0
 40
1.0
 40
1.0
 10
813.695515843462
 20
2138.012595054662
 30
0.0
 10
812.2374955309611
 20
2135.657440767817
 30
0.0
 10
810.2931656930516
 20
2130.923166864882
 30
0.0
 10
810.2672801767752
 20
2123.668122028199
 30
0.0
 10
812.2261422343584
 20
2118.892478804641
 30
0.0
 10
813.6955158434775
 20
2116.506297527328
 30
0.0
  0
ARC
  5
18A
330
87
100
AcDbEntity
  8
P-SANR-FIXT
100
AcDbCircle
 10
715.6664074432019
 20
2094.999999999994
 30
0.0
 40
12.50000000002194
100
AcDbArc
 50
90.00000000000104
 51
269.9999999999997
  0
ARC
  5
18B
330
87
100
AcDbEntity
  8
P-SANR-FIXT
100
AcDbCircle
 10
715.6664074432019
 20
2094.999999999994
 30
0.0
 40
12.50000000002183
100
AcDbArc
 50
269.9999999999997
 51
90.0
  0
ARC
  5
18C
330
87
100
AcDbEntity
  8
P-SANR-FIXT
100
AcDbCircle
 10
715.6664074431859
 20
2095.000000000013
 30
0.0
 40
10.00000000000396
100
AcDbArc
 50
145.8419327633286
 51
154.1580672366525
  0
LINE
  5
18D
330
87
100
AcDbEntity
  8
P-SANR-FIXT
100
AcDbLine
 10
706.6664074431962
 20
2099.358898943583
 30
0.0
 11
706.6664074431961
 21
2090.641101056442
 31
0.0
  0
ARC
  5
18E
330
87
100
AcDbEntity
  8
P-SANR-FIXT
100
AcDbCircle
 10
715.6664074431859
 20
2095.000000000013
 30
0.0
 40
10.00000000000388
100
AcDbArc
 50
205.8419327633454
 51
214.1580672366427
  0
LINE
  5
18F
330
87
100
AcDbEntity
  8
P-SANR-FIXT
100
AcDbLine
 10
707.3914902255288
 20
2089.385220837748
 30
0.0
 11
714.9413246608534
 21
2085.026321894176
 31
0.0
  0
ARC
  5
190
330
87
100
AcDbEntity
  8
P-SANR-FIXT
100
AcDbCircle
 10
715.6664074431859
 20
2095.000000000013
 30
0.0
 40
10.00000000000397
100
AcDbArc
 50
265.8419327633523
 51
274.1580672366554
  0
LINE
  5
191
330
87
100
AcDbEntity
  8
P-SANR-FIXT
100
AcDbLine
 10
716.3914902255202
 20
2085.026321894176
 30
0.0
 11
723.9413246608417
 21
2089.385220837745
 31
0.0
  0
ARC
  5
192
330
87
100
AcDbEntity
  8
P-SANR-FIXT
100
AcDbCircle
 10
715.6664074431859
 20
2095.000000000013
 30
0.0
 40
10.00000000000397
100
AcDbArc
 50
325.8419327633387
 51
334.1580672366754
  0
LINE
  5
193
330
87
100
AcDbEntity
  8
P-SANR-FIXT
100
AcDbLine
 10
724.6664074431776
 20
2090.641101056445
 30
0.0
 11
724.6664074431779
 21
2099.358898943579
 31
0.0
  0
ARC
  5
194
330
87
100
AcDbEntity
  8
P-SANR-FIXT
100
AcDbCircle
 10
715.6664074431859
 20
2095.000000000013
 30
0.0
 40
10.00000000000403
100
AcDbArc
 50
25.84193276332023
 51
34.15806723668266
  0
LINE
  5
195
330
87
100
AcDbEntity
  8
P-SANR-FIXT
100
AcDbLine
 10
723.9413246608394
 20
2100.614779162282
 30
0.0
 11
716.3914902255253
 21
2104.973678105848
 31
0.0
  0
ARC
  5
196
330
87
100
AcDbEntity
  8
P-SANR-FIXT
100
AcDbCircle
 10
715.6664074431859
 20
2095.000000000013
 30
0.0
 40
10.00000000000389
100
AcDbArc
 50
85.84193276331417
 51
94.15806723667024
  0
LINE
  5
197
330
87
100
AcDbEntity
  8
P-SANR-FIXT
100
AcDbLine
 10
714.9413246608494
 20
2104.973678105848
 30
0.0
 11
707.3914902255316
 21
2100.614779162281
 31
0.0
  0
ARC
  5
198
330
87
100
AcDbEntity
  8
P-SANR-FIXT
100
AcDbCircle
 10
715.6664074432019
 20
2094.999999999994
 30
0.0
 40
13.00000000000011
100
AcDbArc
 50
180.0
 51
0.0
  0
ARC
  5
199
330
87
100
AcDbEntity
  8
P-SANR-FIXT
100
AcDbCircle
 10
715.6664074432019
 20
2094.999999999994
 30
0.0
 40
13.0
100
AcDbArc
 50
0.0
 51
180.0
  0
LINE
  5
19A
330
87
100
AcDbEntity
  8
P-SANR-FIXT
100
AcDbLine
 10
625.6664074432026
 20
1802.149999999995
 30
0.0
 11
634.3664074432021
 21
1810.849999999994
 31
0.0
  0
LINE
  5
19B
330
87
100
AcDbEntity
  8
P-SANR-FIXT
100
AcDbLine
 10
634.3664074432021
 20
1859.149999999995
 30
0.0
 11
625.6664074432026
 21
1867.849999999995
 31
0.0
  0
LINE
  5
19C
330
87
100
AcDbEntity
  8
P-SANR-FIXT
100
AcDbLine
 10
621.1664074431693
 20
1802.149999999995
 30
0.0
 11
625.6664074432026
 21
1802.149999999995
 31
0.0
  0
LINE
  5
19D
330
87
100
AcDbEntity
  8
P-SANR-FIXT
100
AcDbLine
 10
625.6664074432026
 20
1867.849999999995
 30
0.0
 11
621.1664074431693
 21
1867.849999999995
 31
0.0
  0
LINE
  5
19E
330
87
100
AcDbEntity
  8
P-SANR-FIXT
100
AcDbLine
 10
805.6664074432028
 20
1802.149999999995
 30
0.0
 11
810.166407443236
 21
1802.149999999995
 31
0.0
  0
LINE
  5
19F
330
87
100
AcDbEntity
  8
P-SANR-FIXT
100
AcDbLine
 10
810.166407443236
 20
1867.849999999994
 30
0.0
 11
805.6664074432028
 21
1867.849999999994
 31
0.0
  0
LINE
  5
1A0
330
87
100
AcDbEntity
  8
P-SANR-FIXT
100
AcDbLine
 10
796.9664074432031
 20
1810.849999999994
 30
0.0
 11
805.6664074432028
 21
1802.149999999995
 31
0.0
  0
LINE
  5
1A1
330
87
100
AcDbEntity
  8
P-SANR-FIXT
100
AcDbLine
 10
805.6664074432028
 20
1867.849999999995
 30
0.0
 11
796.9664074432031
 21
1859.149999999995
 31
0.0
  0
LINE
  5
1A2
330
87
100
AcDbEntity
  8
P-SANR-FIXT
100
AcDbLine
 10
634.3664074432009
 20
1859.149999999995
 30
0.0
 11
634.3664074432009
 21
1810.849999999994
 31
0.0
  0
LINE
  5
1A3
330
87
100
AcDbEntity
  8
P-SANR-FIXT
100
AcDbLine
 10
625.6664074432014
 20
1867.849999999994
 30
0.0
 11
625.6664074432014
 21
1802.149999999994
 31
0.0
  0
LINE
  5
1A4
330
87
100
AcDbEntity
  8
P-SANR-FIXT
100
AcDbLine
 10
805.6664074432013
 20
1867.849999999994
 30
0.0
 11
805.6664074432013
 21
1802.149999999994
 31
0.0
  0
LINE
  5
1A5
330
87
100
AcDbEntity
  8
P-SANR-FIXT
100
AcDbLine
 10
796.9664074432016
 20
1859.149999999995
 30
0.0
 11
796.9664074432016
 21
1810.849999999994
 31
0.0
  0
LINE
  5
1A6
330
87
100
AcDbEntity
  8
P-SANR-FIXT
100
AcDbLine
 10
634.3664074432021
 20
1810.849999999994
 30
0.0
 11
658.5164074432022
 21
1810.849999999994
 31
0.0
  0
LINE
  5
1A7
330
87
100
AcDbEntity
  8
P-SANR-FIXT
100
AcDbLine
 10
658.5164074432022
 20
1859.149999999995
 30
0.0
 11
634.3664074432021
 21
1859.149999999995
 31
0.0
  0
LWPOLYLINE
  5
1A8
330
87
100
AcDbEntity
  8
P-SANR-FIXT
100
AcDbPolyline
 90
       41
 70
   128
 43
0.0
 10
658.5164074432029
 20
2152.499999999995
 10
658.5364047766781
 20
2153.499733354661
 10
658.5963647856373
 20
2154.497867349224
 10
658.6961915468561
 20
2155.492805182218
 10
658.8357253588121
 20
2156.482955165351
 10
659.0147429971716
 20
2157.466733269872
 10
659.2329580719019
 20
2158.442565660674
 10
659.4900214854334
 20
2159.408891214098
 10
659.7855219911417
 20
2160.364164015398
 10
660.1189868512543
 20
2161.306855831872
 10
660.4898825931305
 20
2162.235458557711
 10
660.8976158627037
 20
2163.148486626645
 10
661.3415343737206
 20
2164.044479388532
 10
661.8209279512614
 20
2164.922003446088
 10
662.3350296678673
 20
2165.779654948017
 10
662.8830170704608
 20
2166.616061834871
 10
663.4640134960955
 20
2167.429886034055
 10
664.0770894744295
 20
2168.219825600457
 10
664.7212642146802
 20
2168.984616799282
 10
665.39550717468
 20
2169.723036127759
 10
666.0987397095235
 20
2170.433902272483
 10
666.8298367971701
 20
2171.116077999267
 10
667.5876288382381
 20
2171.76847197247
 10
668.3709035271162
 20
2172.390040500904
 10
669.1784077913913
 20
2172.97978920752
 10
670.0088497964991
 20
2173.536774620193
 10
670.8609010123832
 20
2174.060105681079
 10
671.7331983388593
 20
2174.548945172119
 10
672.624346286285
 20
2175.002511054408
 10
673.532919208046
 20
2175.420077719289
 10
674.4574635812859
 20
2175.800977149176
 10
675.3965003322332
 20
2176.144599986233
 10
676.3485272024038
 20
2176.450396507226
 10
677.3120211518934
 20
2176.717877502952
 10
678.285440795917
 20
2176.946615060878
 10
679.2672288706968
 20
2177.136243249707
 10
680.255814724749
 20
2177.286458704787
 10
681.249616831595
 20
2177.397021113437
 10
682.2470453198633
 20
2177.467753599385
 10
683.246504516746
 20
2177.498543005744
 10
683.5164074432027
 20
2177.499999999996
  0
LWPOLYLINE
  5
1A9
330
87
100
AcDbEntity
  8
P-SANR-FIXT
100
AcDbPolyline
 90
       41
 70
   128
 43
0.0
 10
747.8164074432027
 20
2177.499999999996
 10
748.8161407978684
 20
2177.48000266652
 10
749.814274792432
 20
2177.420042657561
 10
750.8092126254256
 20
2177.320215896342
 10
751.7993626085588
 20
2177.180682084386
 10
752.7831407130792
 20
2177.001664446026
 10
753.7589731038811
 20
2176.783449371296
 10
754.7252986573055
 20
2176.526385957764
 10
755.6805714586057
 20
2176.230885452056
 10
756.6232632750797
 20
2175.897420591944
 10
757.5518660009189
 20
2175.526524850067
 10
758.4648940698528
 20
2175.118791580494
 10
759.3608868317398
 20
2174.674873069477
 10
760.2384108892962
 20
2174.195479491936
 10
761.0960623912248
 20
2173.681377775331
 10
761.9324692780785
 20
2173.133390372737
 10
762.7462934772624
 20
2172.552393947102
 10
763.5362330436643
 20
2171.939317968768
 10
764.3010242424895
 20
2171.295143228518
 10
765.0394435709664
 20
2170.620900268518
 10
765.7503097156908
 20
2169.917667733674
 10
766.4324854424742
 20
2169.186570646028
 10
767.0848794156769
 20
2168.42877860496
 10
767.7064479441118
 20
2167.645503916082
 10
768.2961966507275
 20
2166.837999651807
 10
768.8531820634001
 20
2166.007557646699
 10
769.3765131242861
 20
2165.155506430815
 10
769.8653526153264
 20
2164.283209104338
 10
770.3189184976151
 20
2163.392061156913
 10
770.7364851624969
 20
2162.483488235152
 10
771.1173845923833
 20
2161.558943861912
 10
771.461007429441
 20
2160.619907110965
 10
771.7668039504332
 20
2159.667880240794
 10
772.0342849461593
 20
2158.704386291304
 10
772.2630225040855
 20
2157.73096664728
 10
772.452650692914
 20
2156.749178572501
 10
772.6028661479948
 20
2155.760592718449
 10
772.7134285566436
 20
2154.766790611603
 10
772.7841610425921
 20
2153.769362123334
 10
772.8149504489517
 20
2152.769902926452
 10
772.8164074432026
 20
2152.499999999995
  0
LWPOLYLINE
  5
1AA
330
87
100
AcDbEntity
  8
P-SANR-FIXT
100
AcDbPolyline
 90
        5
 70
   128
 43
0.0
 10
683.5164074432027
 20
2177.499999999996
 10
683.5421240140521
 20
2177.499999999996
 10
683.6192325855734
 20
2177.499999999996
 10
683.7476098005009
 20
2177.499999999996
 10
683.8180237121851
 20
2177.499999999996
  0
LWPOLYLINE
  5
1AB
330
87
100
AcDbEntity
  8
P-SANR-FIXT
100
AcDbPolyline
 90
        5
 70
   128
 43
0.0
 10
747.5283509733456
 20
2177.499999999996
 10
747.6506389362092
 20
2177.499999999996
 10
747.7554437160614
 20
2177.499999999996
 10
747.8089128831732
 20
2177.499999999996
 10
747.8164074432027
 20
2177.499999999996
  0
LWPOLYLINE
  5
1AC
330
87
100
AcDbEntity
  8
P-SANR-FIXT
100
AcDbPolyline
 90
       80
 70
   128
 43
0.0
 10
747.8164074432027
 20
2177.499999999996
 10
747.790690872353
 20
2177.499999999996
 10
747.7135823008318
 20
2177.499999999996
 10
747.5852050859044
 20
2177.499999999996
 10
747.405764603729
 20
2177.499999999996
 10
747.1755479207985
 20
2177.499999999996
 10
746.8949233346956
 20
2177.499999999996
 10
746.564339784894
 20
2177.499999999996
 10
746.1843261345531
 20
2177.499999999996
 10
745.7554903244482
 20
2177.499999999996
 10
745.2785184003954
 20
2177.499999999996
 10
744.7541734157245
 20
2177.499999999996
 10
744.1832942105564
 20
2177.499999999996
 10
743.566794069839
 20
2177.499999999996
 10
742.9056592622838
 20
2177.499999999996
 10
742.2009474625488
 20
2177.499999999996
 10
741.4537860591825
 20
2177.499999999996
 10
740.665370351045
 20
2177.499999999996
 10
739.8369616350824
 20
2177.499999999996
 10
738.9698851885226
 20
2177.499999999996
 10
738.0655281487141
 20
2177.499999999996
 10
737.1253372940006
 20
2177.499999999996
 10
736.1508167291869
 20
2177.499999999996
 10
735.1435254792898
 20
2177.499999999996
 10
734.105074995432
 20
2177.499999999996
 10
733.0371265768632
 20
2177.499999999996
 10
731.9413887132363
 20
2177.499999999996
 10
730.8196143513884
 20
2177.499999999996
 10
729.6735980909988
 20
2177.499999999996
 10
728.5051733136143
 20
2177.499999999996
 10
727.3162092496276
 20
2177.499999999996
 10
726.1086079879093
 20
2177.499999999996
 10
724.8843014328699
 20
2177.499999999996
 10
723.6452482138266
 20
2177.499999999996
 10
722.3934305516116
 20
2177.499999999996
 10
721.1308510874452
 20
2177.499999999996
 10
719.8595296791339
 20
2177.499999999996
 10
718.5815001697301
 20
2177.499999999996
 10
717.2988071338171
 20
2177.499999999996
 10
716.0135026066257
 20
2177.499999999996
 10
714.7276428012161
 20
2177.499999999996
 10
713.4432848189746
 20
2177.499999999996
 10
712.1624833586906
 20
2177.499999999996
 10
710.8872874294782
 20
2177.499999999996
 10
709.6197370727964
 20
2177.499999999996
 10
708.3618600988197
 20
2177.499999999996
 10
707.1156688423737
 20
2177.499999999996
 10
705.883156943629
 20
2177.499999999996
 10
704.6662961587013
 20
2177.499999999996
 10
703.4670332052634
 20
2177.499999999996
 10
702.287286648212
 20
2177.499999999996
 10
701.1289438303723
 20
2177.499999999996
 10
699.993857853153
 20
2177.499999999996
 10
698.8838446119788
 20
2177.499999999996
 10
697.8006798912454
 20
2177.499999999996
 10
696.7460965234432
 20
2177.499999999996
 10
695.721781616995
 20
2177.499999999996
 10
694.7293738572421
 20
2177.499999999996
 10
693.7704608848977
 20
2177.499999999996
 10
692.8465767561605
 20
2177.499999999996
 10
691.9591994885516
 20
2177.499999999996
 10
691.109748696402
 20
2177.499999999996
 10
690.2995833197731
 20
2177.499999999996
 10
689.5299994504412
 20
2177.499999999996
 10
688.8022282584278
 20
2177.499999999996
 10
688.117434022391
 20
2177.499999999996
 10
687.4767122670265
 20
2177.499999999996
 10
686.8810880104629
 20
2177.499999999996
 10
686.3315141244513
 20
2177.499999999996
 10
685.8288698099727
 20
2177.499999999996
 10
685.3739591907054
 20
2177.499999999996
 10
684.9675100265978
 20
2177.499999999996
 10
684.6101725496078
 20
2177.499999999996
 10
684.3025184234709
 20
2177.499999999996
 10
684.0450398291594
 20
2177.499999999996
 10
683.8381486774985
 20
2177.499999999996
 10
683.6821759501961
 20
2177.499999999996
 10
683.5773711703438
 20
2177.499999999996
 10
683.5239020032321
 20
2177.499999999996
 10
683.5164074432027
 20
2177.499999999996
  0
LINE
  5
1AD
330
87
100
AcDbEntity
  8
P-SANR-FIXT
100
AcDbLine
 10
728.6664074432093
 20
2177.499999999996
 30
0.0
 11
728.6664074432093
 21
2212.499999999995
 31
0.0
  0
LINE
  5
1AE
330
87
100
AcDbEntity
  8
P-SANR-FIXT
100
AcDbLine
 10
702.666407443196
 20
2212.499999999995
 30
0.0
 11
702.666407443196
 21
2177.499999999996
 31
0.0
  0
LINE
  5
1AF
330
87
100
AcDbEntity
  8
P-SANR-FIXT
100
AcDbLine
 10
728.6664074432094
 20
1657.499999999994
 30
0.0
 11
728.6664074432094
 21
1692.499999999995
 31
0.0
  0
LINE
  5
1B0
330
87
100
AcDbEntity
  8
P-SANR-FIXT
100
AcDbLine
 10
702.6664074431957
 20
1692.499999999995
 30
0.0
 11
702.6664074431957
 21
1657.499999999994
 31
0.0
  0
LWPOLYLINE
  5
1B1
330
87
100
AcDbEntity
  8
P-SANR-FIXT
100
AcDbPolyline
 90
       41
 70
   128
 43
0.0
 10
683.5164074432036
 20
1692.499999999995
 10
682.5166740885379
 20
1692.51999733347
 10
681.5185400939742
 20
1692.579957342429
 10
680.5236022609807
 20
1692.679784103648
 10
679.5334522778475
 20
1692.819317915604
 10
678.549674173327
 20
1692.998335553963
 10
677.5738417825253
 20
1693.216550628694
 10
676.6075162291008
 20
1693.473614042225
 10
675.6522434278005
 20
1693.769114547933
 10
674.7095516113262
 20
1694.102579408046
 10
673.7809488854874
 20
1694.473475149922
 10
672.8679208165535
 20
1694.881208419495
 10
671.9719280546666
 20
1695.325126930512
 10
671.0944039971101
 20
1695.804520508053
 10
670.2367524951815
 20
1696.318622224659
 10
669.4003456083276
 20
1696.866609627252
 10
668.5865214091436
 20
1697.447606052887
 10
667.7965818427418
 20
1698.060682031221
 10
667.0317906439167
 20
1698.704856771472
 10
666.2933713154396
 20
1699.379099731472
 10
665.5825051707155
 20
1700.082332266315
 10
664.900329443932
 20
1700.813429353962
 10
664.2479354707293
 20
1701.571221395029
 10
663.6263669422945
 20
1702.354496083908
 10
663.0366182356785
 20
1703.162000348182
 10
662.4796328230061
 20
1703.992442353291
 10
661.9563017621199
 20
1704.844493569175
 10
661.4674622710797
 20
1705.716790895651
 10
661.013896388791
 20
1706.607938843076
 10
660.5963297239092
 20
1707.516511764837
 10
660.2154302940228
 20
1708.441056138077
 10
659.8718074569648
 20
1709.380092889025
 10
659.5660109359729
 20
1710.332119759195
 10
659.2985299402469
 20
1711.295613708685
 10
659.0697923823205
 20
1712.269033352709
 10
658.8801641934918
 20
1713.250821427488
 10
658.7299487384113
 20
1714.239407281541
 10
658.6193863297625
 20
1715.233209388387
 10
658.5486538438138
 20
1716.230637876655
 10
658.5178644374543
 20
1717.230097073538
 10
658.5164074432035
 20
1717.499999999995
  0
LWPOLYLINE
  5
1B2
330
87
100
AcDbEntity
  8
P-SANR-FIXT
100
AcDbPolyline
 90
       41
 70
   128
 43
0.0
 10
772.8164074432019
 20
1717.499999999995
 10
772.7964101097263
 20
1716.500266645329
 10
772.7364501007673
 20
1715.502132650765
 10
772.6366233395485
 20
1714.507194817771
 10
772.4970895275925
 20
1713.517044834638
 10
772.3180718892328
 20
1712.533266730117
 10
772.0998568145025
 20
1711.557434339316
 10
771.8427934009711
 20
1710.591108785891
 10
771.5472928952626
 20
1709.635835984591
 10
771.2138280351502
 20
1708.693144168117
 10
770.8429322932739
 20
1707.764541442278
 10
770.4351990237007
 20
1706.851513373344
 10
769.9912805126839
 20
1705.955520611457
 10
769.511886935143
 20
1705.077996553901
 10
768.9977852185371
 20
1704.220345051972
 10
768.4497978159436
 20
1703.383938165118
 10
767.8688013903089
 20
1702.570113965934
 10
767.2557254119749
 20
1701.780174399533
 10
766.6115506717241
 20
1701.015383200707
 10
765.9373077117243
 20
1700.27696387223
 10
765.234075176881
 20
1699.566097727506
 10
764.5029780892344
 20
1698.883922000723
 10
763.7451860481662
 20
1698.23152802752
 10
762.9619113592883
 20
1697.609959499085
 10
762.1544070950131
 20
1697.020210792469
 10
761.3239650899052
 20
1696.463225379797
 10
760.471913874021
 20
1695.939894318911
 10
759.5996165475452
 20
1695.45105482787
 10
758.7084686001194
 20
1694.997488945582
 10
757.7998956783585
 20
1694.5799222807
 10
756.8753513051184
 20
1694.199022850813
 10
755.936314554171
 20
1693.855400013756
 10
754.9842876840004
 20
1693.549603492764
 10
754.0207937345108
 20
1693.282122497038
 10
753.0473740904872
 20
1693.053384939112
 10
752.0655860157075
 20
1692.863756750283
 10
751.0770001616553
 20
1692.713541295202
 10
750.0831980548094
 20
1692.602978886553
 10
749.0857695665409
 20
1692.532246400605
 10
748.0863103696584
 20
1692.501456994245
 10
747.8164074432018
 20
1692.499999999995
  0
LWPOLYLINE
  5
1B3
330
87
100
AcDbEntity
  8
P-SANR-FIXT
100
AcDbPolyline
 90
        5
 70
   128
 43
0.0
 10
747.816407443202
 20
1692.499999999995
 10
747.7906908723523
 20
1692.499999999995
 10
747.7135823008311
 20
1692.499999999995
 10
747.5852050859036
 20
1692.499999999995
 10
747.5147911742192
 20
1692.499999999995
  0
LWPOLYLINE
  5
1B4
330
87
100
AcDbEntity
  8
P-SANR-FIXT
100
AcDbPolyline
 90
        5
 70
   128
 43
0.0
 10
683.8044639130605
 20
1692.499999999995
 10
683.6821759501966
 20
1692.499999999995
 10
683.5773711703446
 20
1692.499999999995
 10
683.5239020032328
 20
1692.499999999995
 10
683.5164074432033
 20
1692.499999999995
  0
LWPOLYLINE
  5
1B5
330
87
100
AcDbEntity
  8
P-SANR-FIXT
100
AcDbPolyline
 90
       80
 70
   128
 43
0.0
 10
683.5164074432033
 20
1692.499999999995
 10
683.5421240140528
 20
1692.499999999995
 10
683.6192325855741
 20
1692.499999999995
 10
683.7476098005017
 20
1692.499999999995
 10
683.9270502826771
 20
1692.499999999995
 10
684.1572669656074
 20
1692.499999999995
 10
684.4378915517108
 20
1692.499999999995
 10
684.7684751015122
 20
1692.499999999995
 10
685.1484887518531
 20
1692.499999999995
 10
685.5773245619578
 20
1692.499999999995
 10
686.0542964860107
 20
1692.499999999995
 10
686.5786414706815
 20
1692.499999999995
 10
687.1495206758494
 20
1692.499999999995
 10
687.7660208165669
 20
1692.499999999995
 10
688.4271556241219
 20
1692.499999999995
 10
689.1318674238573
 20
1692.499999999995
 10
689.8790288272232
 20
1692.499999999995
 10
690.667444535361
 20
1692.499999999995
 10
691.4958532513233
 20
1692.499999999995
 10
692.3629296978831
 20
1692.499999999995
 10
693.2672867376918
 20
1692.499999999995
 10
694.2074775924051
 20
1692.499999999995
 10
695.1819981572188
 20
1692.499999999995
 10
696.1892894071156
 20
1692.499999999995
 10
697.2277398909738
 20
1692.499999999995
 10
698.2956883095425
 20
1692.499999999995
 10
699.3914261731693
 20
1692.499999999995
 10
700.5132005350171
 20
1692.499999999995
 10
701.6592167954067
 20
1692.499999999995
 10
702.8276415727914
 20
1692.499999999995
 10
704.0166056367779
 20
1692.499999999995
 10
705.2242068984963
 20
1692.499999999995
 10
706.4485134535356
 20
1692.499999999995
 10
707.6875666725791
 20
1692.499999999995
 10
708.9393843347937
 20
1692.499999999995
 10
710.2019637989601
 20
1692.499999999995
 10
711.4732852072713
 20
1692.499999999995
 10
712.7513147166752
 20
1692.499999999995
 10
714.0340077525881
 20
1692.499999999995
 10
715.3193122797794
 20
1692.499999999995
 10
716.6051720851892
 20
1692.499999999995
 10
717.8895300674307
 20
1692.499999999995
 10
719.1703315277144
 20
1692.499999999995
 10
720.445527456927
 20
1692.499999999995
 10
721.7130778136086
 20
1692.499999999995
 10
722.9709547875853
 20
1692.499999999995
 10
724.2171460440313
 20
1692.499999999995
 10
725.4496579427762
 20
1692.499999999995
 10
726.6665187277039
 20
1692.499999999995
 10
727.8657816811415
 20
1692.499999999995
 10
729.0455282381932
 20
1692.499999999995
 10
730.2038710560326
 20
1692.499999999995
 10
731.3389570332519
 20
1692.499999999995
 10
732.4489702744261
 20
1692.499999999995
 10
733.5321349951596
 20
1692.499999999995
 10
734.5867183629617
 20
1692.499999999995
 10
735.6110332694099
 20
1692.499999999995
 10
736.6034410291629
 20
1692.499999999995
 10
737.562354001507
 20
1692.499999999995
 10
738.4862381302443
 20
1692.499999999995
 10
739.373615397853
 20
1692.499999999995
 10
740.2230661900026
 20
1692.499999999995
 10
741.0332315666316
 20
1692.499999999995
 10
741.8028154359636
 20
1692.499999999995
 10
742.5305866279768
 20
1692.499999999995
 10
743.2153808640138
 20
1692.499999999995
 10
743.8561026193784
 20
1692.499999999995
 10
744.4517268759416
 20
1692.499999999995
 10
745.0013007619535
 20
1692.499999999995
 10
745.5039450764322
 20
1692.499999999995
 10
745.9588556956994
 20
1692.499999999995
 10
746.365304859807
 20
1692.499999999995
 10
746.722642336797
 20
1692.499999999995
 10
747.0302964629338
 20
1692.499999999995
 10
747.2877750572453
 20
1692.499999999995
 10
747.4946662089063
 20
1692.499999999995
 10
747.6506389362086
 20
1692.499999999995
 10
747.7554437160607
 20
1692.499999999995
 10
747.8089128831725
 20
1692.499999999995
 10
747.816407443202
 20
1692.499999999995
  0
LINE
  5
1B6
330
87
100
AcDbEntity
  8
P-SANR-FIXT
100
AcDbLine
 10
772.8164074432032
 20
1717.499999999995
 30
0.0
 11
772.8164074432032
 21
1810.849999999996
 31
0.0
  0
LINE
  5
1B7
330
87
100
AcDbEntity
  8
P-SANR-FIXT
100
AcDbLine
 10
772.8164074432032
 20
1859.149999999994
 30
0.0
 11
772.8164074432032
 21
2070.849999999996
 31
0.0
  0
LINE
  5
1B8
330
87
100
AcDbEntity
  8
P-SANR-FIXT
100
AcDbLine
 10
772.8164074432032
 20
2119.149999999994
 30
0.0
 11
772.8164074432032
 21
2152.499999999996
 31
0.0
  0
LINE
  5
1B9
330
87
100
AcDbEntity
  8
P-SANR-FIXT
100
AcDbLine
 10
658.5164074432022
 20
2152.499999999996
 30
0.0
 11
658.5164074432022
 21
2119.149999999995
 31
0.0
  0
LINE
  5
1BA
330
87
100
AcDbEntity
  8
P-SANR-FIXT
100
AcDbLine
 10
658.5164074432022
 20
2070.849999999995
 30
0.0
 11
658.5164074432022
 21
1859.149999999995
 31
0.0
  0
LINE
  5
1BB
330
87
100
AcDbEntity
  8
P-SANR-FIXT
100
AcDbLine
 10
658.5164074432022
 20
1810.849999999994
 30
0.0
 11
658.5164074432022
 21
1717.499999999995
 31
0.0
  0
LINE
  5
1BC
330
87
100
AcDbEntity
  8
P-SANR-FIXT
100
AcDbLine
 10
658.5164074432022
 20
2119.149999999995
 30
0.0
 11
634.3664074432021
 21
2119.149999999995
 31
0.0
  0
LINE
  5
1BD
330
87
100
AcDbEntity
  8
P-SANR-FIXT
100
AcDbLine
 10
634.3664074432021
 20
2070.849999999995
 30
0.0
 11
658.5164074432022
 21
2070.849999999995
 31
0.0
  0
LINE
  5
1BE
330
87
100
AcDbEntity
  8
P-SANR-FIXT
100
AcDbLine
 10
796.9664074432031
 20
2119.149999999994
 30
0.0
 11
772.8164074432032
 21
2119.149999999994
 31
0.0
  0
LINE
  5
1BF
330
87
100
AcDbEntity
  8
P-SANR-FIXT
100
AcDbLine
 10
772.8164074432032
 20
2070.849999999996
 30
0.0
 11
796.9664074432031
 21
2070.849999999996
 31
0.0
  0
LINE
  5
1C0
330
87
100
AcDbEntity
  8
P-SANR-FIXT
100
AcDbLine
 10
772.8164074432032
 20
1810.849999999996
 30
0.0
 11
796.9664074432031
 21
1810.849999999996
 31
0.0
  0
LINE
  5
1C1
330
87
100
AcDbEntity
  8
P-SANR-FIXT
100
AcDbLine
 10
796.9664074432031
 20
1859.149999999994
 30
0.0
 11
772.8164074432032
 21
1859.149999999994
 31
0.0
  0
LINE
  5
1C2
330
87
100
AcDbEntity
  8
P-SANR-FIXT
100
AcDbLine
 10
634.3664074432009
 20
1859.149999999994
 30
0.0
 11
634.3664074432009
 21
1810.849999999994
 31
0.0
  0
LINE
  5
1C3
330
87
100
AcDbEntity
  8
P-SANR-FIXT
100
AcDbLine
 10
728.666407443208
 20
2212.499999999994
 30
0.0
 11
728.1758400322916
 21
2212.499999999994
 31
0.0
  0
LINE
  5
1C4
330
87
100
AcDbEntity
  8
P-SANR-FIXT
100
AcDbLine
 10
724.9897381867326
 20
2212.499999999994
 30
0.0
 11
718.8772638660143
 21
2212.499999999994
 31
0.0
  0
LINE
  5
1C5
330
87
100
AcDbEntity
  8
P-SANR-FIXT
100
AcDbLine
 10
712.4555510204368
 20
2212.499999999994
 30
0.0
 11
706.3430766996391
 21
2212.499999999994
 31
0.0
  0
LINE
  5
1C6
330
87
100
AcDbEntity
  8
P-SANR-FIXT
100
AcDbLine
 10
703.1569748541413
 20
2212.499999999994
 30
0.0
 11
702.6664074431947
 21
2212.499999999994
 31
0.0
  0
LINE
  5
1C7
330
87
100
AcDbEntity
  8
P-SANR-FIXT
100
AcDbLine
 10
728.6664074432081
 20
1657.499999999994
 30
0.0
 11
702.6664074431945
 21
1657.499999999994
 31
0.0
  0
SPLINE
  5
1C8
330
87
100
AcDbEntity
  8
P-SANR-FIXT
100
AcDbSpline
210
0.0
220
0.0
230
1.0
 70
     8
 71
     3
 72
    30
 73
    26
 74
     0
 42
0.000000001
 43
0.0000000001
 40
0.0
 40
0.0
 40
0.0
 40
0.0
 40
0.0555555555555556
 40
0.1111111111111111
 40
0.1666666666666666
 40
0.2222222222222222
 40
0.2777777777777778
 40
0.3055555555555556
 40
0.3333333333333333
 40
0.3611111111111111
 40
0.3888888888888888
 40
0.4166666666666666
 40
0.4444444444444445
 40
0.4791666666666666
 40
0.5138888888888889
 40
0.5486111111111111
 40
0.5833333333333333
 40
0.6180555555555555
 40
0.6527777777777777
 40
0.6875
 40
0.7222222222222223
 40
0.7569444444444445
 40
0.7916666666666668
 40
0.861111111111111
 40
1.0
 40
1.0
 40
1.0
 40
1.0
 10
658.5164074432009
 20
2119.149999999994
 30
0.0
 10
658.5164074432009
 20
2119.128785777428
 30
0.0
 10
658.6314685959457
 20
2118.856767037076
 30
0.0
 10
659.0843403049785
 20
2117.793993703813
 30
0.0
 10
659.791730558473
 20
2115.974398159024
 30
0.0
 10
660.6635318881037
 20
2113.565462852794
 30
0.0
 10
661.4379365472911
 20
2111.110689225514
 30
0.0
 10
662.0515778536558
 20
2108.88398174637
 30
0.0
 10
662.4755287710606
 20
2107.143890781717
 30
0.0
 10
662.8618292572962
 20
2105.295784778014
 30
0.0
 10
663.2117018994267
 20
2103.325007017231
 30
0.0
 10
663.5017904617228
 20
2101.285931453549
 30
0.0
 10
663.7287735436673
 20
2099.073655538443
 30
0.0
 10
663.8590150279276
 20
2096.625083818919
 30
0.0
 10
663.8720663393208
 20
2093.909347337965
 30
0.0
 10
663.7566484960204
 20
2091.254247597055
 30
0.0
 10
663.5091586511885
 20
2088.709206031519
 30
0.0
 10
663.133648418033
 20
2086.162705506293
 30
0.0
 10
662.6743495494476
 20
2083.745644512341
 30
0.0
 10
662.1652447708781
 20
2081.537514237553
 30
0.0
 10
661.5913119948738
 20
2079.433390277829
 30
0.0
 10
661.0049848284689
 20
2077.510466963806
 30
0.0
 10
660.2604510763041
 20
2075.286701027215
 30
0.0
 10
659.0355676766802
 20
2072.013244598977
 30
0.0
 10
658.5164074432009
 20
2070.903806395339
 30
0.0
 10
658.5164074432009
 20
2070.849999999994
 30
0.0
  0
SPLINE
  5
1C9
330
87
100
AcDbEntity
  8
P-SANR-FIXT
100
AcDbSpline
210
0.0
220
0.0
230
1.0
 70
     8
 71
     3
 72
    30
 73
    26
 74
     0
 42
0.000000001
 43
0.0000000001
 40
-1.0
 40
-1.0
 40
-1.0
 40
-1.0
 40
-0.861111111111111
 40
-0.7916666666666668
 40
-0.7569444444444445
 40
-0.7222222222222223
 40
-0.6875
 40
-0.6527777777777777
 40
-0.6180555555555555
 40
-0.5833333333333333
 40
-0.5486111111111111
 40
-0.5138888888888889
 40
-0.4791666666666666
 40
-0.4444444444444445
 40
-0.4166666666666666
 40
-0.3888888888888888
 40
-0.3611111111111111
 40
-0.3333333333333333
 40
-0.3055555555555556
 40
-0.2777777777777778
 40
-0.2222222222222222
 40
-0.1666666666666666
 40
-0.1111111111111111
 40
-0.0555555555555556
 40
0.0
 40
0.0
 40
0.0
 40
0.0
 10
658.5164074432009
 20
1810.849999999994
 30
0.0
 10
658.5164074432009
 20
1810.903806395339
 30
0.0
 10
659.0355676766801
 20
1812.013244598977
 30
0.0
 10
660.2604510763041
 20
1815.286701027216
 30
0.0
 10
661.0049848284689
 20
1817.510466963806
 30
0.0
 10
661.5913119948738
 20
1819.433390277829
 30
0.0
 10
662.1652447708779
 20
1821.537514237553
 30
0.0
 10
662.6743495494475
 20
1823.745644512341
 30
0.0
 10
663.1336484180328
 20
1826.162705506294
 30
0.0
 10
663.5091586511883
 20
1828.709206031519
 30
0.0
 10
663.7566484960204
 20
1831.254247597055
 30
0.0
 10
663.8720663393207
 20
1833.909347337965
 30
0.0
 10
663.8590150279274
 20
1836.62508381892
 30
0.0
 10
663.7287735436672
 20
1839.073655538443
 30
0.0
 10
663.5017904617225
 20
1841.285931453549
 30
0.0
 10
663.2117018994264
 20
1843.325007017232
 30
0.0
 10
662.861829257296
 20
1845.295784778015
 30
0.0
 10
662.4755287710605
 20
1847.143890781717
 30
0.0
 10
662.0515778536558
 20
1848.88398174637
 30
0.0
 10
661.4379365472911
 20
1851.110689225514
 30
0.0
 10
660.6635318881036
 20
1853.565462852793
 30
0.0
 10
659.791730558473
 20
1855.974398159024
 30
0.0
 10
659.0843403049785
 20
1857.793993703813
 30
0.0
 10
658.6314685959457
 20
1858.856767037075
 30
0.0
 10
658.5164074432009
 20
1859.128785777429
 30
0.0
 10
658.5164074432009
 20
1859.149999999994
 30
0.0
  0
SPLINE
  5
1CA
330
87
100
AcDbEntity
  8
P-SANR-FIXT
100
AcDbSpline
210
0.0
220
0.0
230
1.0
 70
     8
 71
     3
 72
    30
 73
    26
 74
     0
 42
0.000000001
 43
0.0000000001
 40
0.0
 40
0.0
 40
0.0
 40
0.0
 40
0.0555555555555556
 40
0.1111111111111111
 40
0.1666666666666666
 40
0.2222222222222222
 40
0.2777777777777778
 40
0.3055555555555556
 40
0.3333333333333333
 40
0.3611111111111111
 40
0.3888888888888888
 40
0.4166666666666666
 40
0.4444444444444445
 40
0.4791666666666666
 40
0.5138888888888889
 40
0.5486111111111111
 40
0.5833333333333333
 40
0.6180555555555555
 40
0.6527777777777777
 40
0.6875
 40
0.7222222222222223
 40
0.7569444444444445
 40
0.7916666666666668
 40
0.861111111111111
 40
1.0
 40
1.0
 40
1.0
 40
1.0
 10
772.8164074432018
 20
1810.849999999995
 30
0.0
 10
772.8164074432018
 20
1810.871214222561
 30
0.0
 10
772.701346290457
 20
1811.143232962914
 30
0.0
 10
772.2484745814242
 20
1812.206006296176
 30
0.0
 10
771.5410843279297
 20
1814.025601840965
 30
0.0
 10
770.6692829982994
 20
1816.434537147195
 30
0.0
 10
769.8948783391119
 20
1818.889310774475
 30
0.0
 10
769.2812370327475
 20
1821.116018253619
 30
0.0
 10
768.8572861153427
 20
1822.856109218272
 30
0.0
 10
768.4709856291072
 20
1824.704215221974
 30
0.0
 10
768.1211129869768
 20
1826.674992982757
 30
0.0
 10
767.8310244246808
 20
1828.714068546439
 30
0.0
 10
767.6040413427362
 20
1830.926344461546
 30
0.0
 10
767.473799858476
 20
1833.374916181069
 30
0.0
 10
767.4607485470827
 20
1836.090652662024
 30
0.0
 10
767.5761663903831
 20
1838.745752402933
 30
0.0
 10
767.823656235215
 20
1841.290793968468
 30
0.0
 10
768.1991664683704
 20
1843.837294493694
 30
0.0
 10
768.6584653369557
 20
1846.254355487646
 30
0.0
 10
769.1675701155253
 20
1848.462485762434
 30
0.0
 10
769.7415028915293
 20
1850.566609722158
 30
0.0
 10
770.3278300579341
 20
1852.48953303618
 30
0.0
 10
771.0723638100989
 20
1854.713298972772
 30
0.0
 10
772.2972472097225
 20
1857.986755401011
 30
0.0
 10
772.8164074432018
 20
1859.096193604647
 30
0.0
 10
772.8164074432018
 20
1859.149999999993
 30
0.0
  0
SPLINE
  5
1CB
330
87
100
AcDbEntity
  8
P-SANR-FIXT
100
AcDbSpline
210
0.0
220
0.0
230
1.0
 70
     8
 71
     3
 72
    30
 73
    26
 74
     0
 42
0.000000001
 43
0.0000000001
 40
0.0
 40
0.0
 40
0.0
 40
0.0
 40
0.0555555555555556
 40
0.1111111111111111
 40
0.1666666666666666
 40
0.2222222222222222
 40
0.2777777777777778
 40
0.3055555555555556
 40
0.3333333333333333
 40
0.3611111111111111
 40
0.3888888888888888
 40
0.4166666666666666
 40
0.4444444444444445
 40
0.4791666666666666
 40
0.5138888888888889
 40
0.5486111111111111
 40
0.5833333333333333
 40
0.6180555555555555
 40
0.6527777777777777
 40
0.6875
 40
0.7222222222222223
 40
0.7569444444444445
 40
0.7916666666666668
 40
0.861111111111111
 40
1.0
 40
1.0
 40
1.0
 40
1.0
 10
772.8164074432018
 20
2070.849999999994
 30
0.0
 10
772.8164074432018
 20
2070.87121422256
 30
0.0
 10
772.701346290457
 20
2071.143232962914
 30
0.0
 10
772.2484745814242
 20
2072.206006296176
 30
0.0
 10
771.5410843279295
 20
2074.025601840965
 30
0.0
 10
770.6692829982992
 20
2076.434537147195
 30
0.0
 10
769.8948783391119
 20
2078.889310774474
 30
0.0
 10
769.2812370327473
 20
2081.116018253619
 30
0.0
 10
768.8572861153426
 20
2082.856109218272
 30
0.0
 10
768.470985629107
 20
2084.704215221974
 30
0.0
 10
768.1211129869767
 20
2086.674992982757
 30
0.0
 10
767.8310244246806
 20
2088.714068546439
 30
0.0
 10
767.6040413427359
 20
2090.926344461546
 30
0.0
 10
767.4737998584759
 20
2093.374916181069
 30
0.0
 10
767.4607485470826
 20
2096.090652662023
 30
0.0
 10
767.5761663903828
 20
2098.745752402933
 30
0.0
 10
767.823656235215
 20
2101.290793968469
 30
0.0
 10
768.1991664683704
 20
2103.837294493694
 30
0.0
 10
768.6584653369557
 20
2106.254355487646
 30
0.0
 10
769.1675701155251
 20
2108.462485762434
 30
0.0
 10
769.7415028915293
 20
2110.566609722158
 30
0.0
 10
770.3278300579341
 20
2112.489533036181
 30
0.0
 10
771.0723638100988
 20
2114.713298972771
 30
0.0
 10
772.2972472097225
 20
2117.98675540101
 30
0.0
 10
772.8164074432018
 20
2119.096193604647
 30
0.0
 10
772.8164074432018
 20
2119.149999999994
 30
0.0
  0
LINE
  5
1CC
330
87
100
AcDbEntity
  8
P-SANR-FIXT
100
AcDbLine
 10
634.3664074432009
 20
2119.149999999994
 30
0.0
 11
634.3664074432009
 21
2070.849999999994
 31
0.0
  0
LINE
  5
1CD
330
87
100
AcDbEntity
  8
P-SANR-FIXT
100
AcDbLine
 10
796.9664074432016
 20
2119.149999999994
 30
0.0
 11
796.9664074432016
 21
2070.849999999994
 31
0.0
  0
LINE
  5
1CE
330
87
100
AcDbEntity
  8
P-SANR-FIXT
100
AcDbLine
 10
796.9664074432016
 20
1859.149999999993
 30
0.0
 11
796.9664074432016
 21
1810.849999999995
 31
0.0
  0
LINE
  5
1CF
330
87
100
AcDbEntity
  8
P-SANR-FIXT
100
AcDbLine
 10
625.6664074432026
 20
2127.849999999995
 30
0.0
 11
621.1664074431693
 21
2127.849999999995
 31
0.0
  0
LINE
  5
1D0
330
87
100
AcDbEntity
  8
P-SANR-FIXT
100
AcDbLine
 10
621.1664074431693
 20
2062.149999999995
 30
0.0
 11
625.6664074432026
 21
2062.149999999995
 31
0.0
  0
LINE
  5
1D1
330
87
100
AcDbEntity
  8
P-SANR-FIXT
100
AcDbLine
 10
634.3664074432021
 20
2119.149999999995
 30
0.0
 11
625.6664074432026
 21
2127.849999999995
 31
0.0
  0
LINE
  5
1D2
330
87
100
AcDbEntity
  8
P-SANR-FIXT
100
AcDbLine
 10
625.6664074432026
 20
2062.149999999995
 30
0.0
 11
634.3664074432021
 21
2070.849999999994
 31
0.0
  0
LINE
  5
1D3
330
87
100
AcDbEntity
  8
P-SANR-FIXT
100
AcDbLine
 10
810.166407443236
 20
2127.849999999995
 30
0.0
 11
805.6664074432028
 21
2127.849999999995
 31
0.0
  0
LINE
  5
1D4
330
87
100
AcDbEntity
  8
P-SANR-FIXT
100
AcDbLine
 10
805.6664074432028
 20
2062.149999999995
 30
0.0
 11
810.166407443236
 21
2062.149999999995
 31
0.0
  0
LINE
  5
1D5
330
87
100
AcDbEntity
  8
P-SANR-FIXT
100
AcDbLine
 10
805.6664074432028
 20
2127.849999999995
 30
0.0
 11
796.9664074432031
 21
2119.149999999995
 31
0.0
  0
LINE
  5
1D6
330
87
100
AcDbEntity
  8
P-SANR-FIXT
100
AcDbLine
 10
796.9664074432031
 20
2070.849999999994
 30
0.0
 11
805.6664074432028
 21
2062.149999999995
 31
0.0
  0
LINE
  5
1D7
330
87
100
AcDbEntity
  8
P-SANR-FIXT
100
AcDbLine
 10
625.6664074432014
 20
2062.149999999994
 30
0.0
 11
625.6664074432014
 21
2127.849999999994
 31
0.0
  0
LINE
  5
1D8
330
87
100
AcDbEntity
  8
P-SANR-FIXT
100
AcDbLine
 10
634.3664074432009
 20
2119.149999999994
 30
0.0
 11
634.3664074432009
 21
2070.849999999994
 31
0.0
  0
LINE
  5
1D9
330
87
100
AcDbEntity
  8
P-SANR-FIXT
100
AcDbLine
 10
805.6664074432013
 20
2127.849999999994
 30
0.0
 11
805.6664074432013
 21
2062.149999999994
 31
0.0
  0
LINE
  5
1DA
330
87
100
AcDbEntity
  8
P-SANR-FIXT
100
AcDbLine
 10
796.9664074432016
 20
2119.149999999994
 30
0.0
 11
796.9664074432016
 21
2070.849999999994
 31
0.0
  0
ENDBLK
  5
1DC
330
87
100
AcDbEntity
  8
0
100
AcDbBlockEnd
  0
BLOCK
  5
26D
330
1DE
100
AcDbEntity
  8
0
100
AcDbBlockBegin
  2
Automatic flow rate regulator valve_Caleffi_121 DN15 - 1_2__-V1-Est - Idraulica
 70
     0
 10
0.0
 20
0.0
 30
0.0
  3
Automatic flow rate regulator valve_Caleffi_121 DN15 - 1_2__-V1-Est - Idraulica
  1

  0
ARC
  5
1DF
330
1DE
100
AcDbEntity
  8
M-PIPE
100
AcDbCircle
 10
715.7250011932033
 20
1377.339628730023
 30
0.0
 40
27.49999999999993
100
AcDbArc
 50
359.9999999999994
 51
180.0000000000002
1001
REVIT
1002
{
1070
     3
1000
790271
1002
}
  0
ARC
  5
1E0
330
1DE
100
AcDbEntity
  8
M-PIPE
100
AcDbCircle
 10
715.7250011932033
 20
1377.339628730023
 30
0.0
 40
27.49999999999994
100
AcDbArc
 50
180.0000000000001
 51
359.9999999999992
1001
REVIT
1002
{
1070
     3
1000
790271
1002
}
  0
ARC
  5
1E1
330
1DE
100
AcDbEntity
  8
M-PIPE
100
AcDbCircle
 10
703.7250011932033
 20
1377.339628730023
 30
0.0
 40
7.250000000000113
100
AcDbArc
 50
359.9999999999988
 51
180.0000000000009
1001
REVIT
1002
{
1070
     3
1000
790271
1002
}
  0
ARC
  5
1E2
330
1DE
100
AcDbEntity
  8
M-PIPE
100
AcDbCircle
 10
703.7250011932033
 20
1377.339628730023
 30
0.0
 40
7.25
100
AcDbArc
 50
180.0000000000014
 51
0.0
1001
REVIT
1002
{
1070
     3
1000
790271
1002
}
  0
ARC
  5
1E3
330
1DE
100
AcDbEntity
  8
M-PIPE
100
AcDbCircle
 10
703.7250011932033
 20
1377.339628730023
 30
0.0
 40
6.0
100
AcDbArc
 50
0.0
 51
180.0
1001
REVIT
1002
{
1070
     3
1000
790271
1002
}
  0
ARC
  5
1E4
330
1DE
100
AcDbEntity
  8
M-PIPE
100
AcDbCircle
 10
703.7250011932033
 20
1377.339628730023
 30
0.0
 40
6.0
100
AcDbArc
 50
180.0
 51
0.0
1001
REVIT
1002
{
1070
     3
1000
790271
1002
}
  0
LINE
  5
1E5
330
1DE
100
AcDbEntity
  8
P-SANR-FIXT
100
AcDbLine
 10
790.7250011931989
 20
1417.33962873008
 30
0.0
 11
779.1223065768489
 21
1417.33962873008
 31
0.0
  0
LINE
  5
1E6
330
1DE
100
AcDbEntity
  8
P-SANR-FIXT
100
AcDbLine
 10
652.3276958095562
 20
1417.33962873008
 30
0.0
 11
640.7250011931986
 21
1417.33962873008
 31
0.0
  0
LINE
  5
1E7
330
1DE
100
AcDbEntity
  8
P-SANR-FIXT
100
AcDbLine
 10
790.7250011931973
 20
1417.33962873008
 30
0.0
 11
790.7250011931974
 21
1377.339628730054
 31
0.0
  0
LINE
  5
1E8
330
1DE
100
AcDbEntity
  8
P-SANR-FIXT
100
AcDbLine
 10
640.7250011931973
 20
1417.339628730079
 30
0.0
 11
640.7250011931974
 21
1377.339628730054
 31
0.0
  0
LWPOLYLINE
  5
1E9
330
1DE
100
AcDbEntity
  8
P-SANR-FIXT
100
AcDbPolyline
 90
       80
 70
   128
 43
0.0
 10
790.725001193203
 20
1377.339628730054
 10
790.6650091927761
 20
1380.338828794052
 10
790.4851291658993
 20
1383.333230777742
 10
790.1856488822427
 20
1386.318044276723
 10
789.7670474463748
 20
1389.288494226123
 10
789.229994531296
 20
1392.239828539684
 10
788.5753493071051
 20
1395.167325712089
 10
787.8041590665106
 20
1398.066302372363
 10
786.9176575493858
 20
1400.932120776263
 10
785.917262969048
 20
1403.760196225686
 10
784.8045757434192
 20
1406.546004403203
 10
783.5813759347001
 20
1409.285088610004
 10
782.2496204016491
 20
1411.973066895665
 10
780.8114396690265
 20
1414.605639068335
 10
779.2691345192088
 20
1417.178593574121
 10
777.6251723114286
 20
1419.687814234682
 10
775.8821830345246
 20
1422.129286832234
 10
774.0429550995222
 20
1424.499105531439
 10
772.1104308787698
 20
1426.793479127915
 10
770.0877019987706
 20
1429.008737113346
 10
767.9780043942401
 20
1431.141335547519
 10
765.7847131313006
 20
1433.187862727869
 10
763.5113370080962
 20
1435.145044647477
 10
761.1615129414623
 20
1437.009750232782
 10
758.7390001486369
 20
1438.778996352629
 10
756.247674133313
 20
1440.449952590647
 10
753.6915204856609
 20
1442.019945773305
 10
751.074628506233
 20
1443.486464246425
 10
748.4011846639559
 20
1444.847161893292
 10
745.675465898673
 20
1446.099861887937
 10
742.9018327789529
 20
1447.242560177596
 10
740.0847225261107
 20
1448.27342868877
 10
737.228641915599
 20
1449.190818251746
 10
734.3381600671305
 20
1449.993261238924
 10
731.417901135059
 20
1450.679473912703
 10
728.4725369107205
 20
1451.248358479189
 10
725.5067793485634
 20
1451.699004844431
 10
722.5253730280257
 20
1452.030692070377
 10
719.5330875632208
 20
1452.242889528223
 10
716.5347099725725
 20
1452.335257747302
 10
713.5350370206057
 20
1452.307648958167
 10
710.5388675441477
 20
1452.160107328992
 10
707.5509947752118
 20
1451.89286889491
 10
704.57619867285
 20
1451.506361180407
 10
701.6192382762361
 20
1451.001202515375
 10
698.6848440912207
 20
1450.378201045919
 10
695.7777105225288
 20
1449.638353441488
 10
692.9024883637148
 20
1448.782843300424
 10
690.0637773568851
 20
1447.813039256453
 10
687.2661188340908
 20
1446.730492789167
 10
684.5139884521666
 20
1445.53693574198
 10
681.8117890326338
 20
1444.234277551558
 10
679.1638435181253
 20
1442.824602193118
 10
676.5743880565992
 20
1441.31016484652
 10
674.0475652244063
 20
1439.693388288455
 10
671.5874173990513
 20
1437.976859016523
 10
669.1978802922513
 20
1436.163323111385
 10
666.8827766536363
 20
1434.255681843623
 10
664.6458101551659
 20
1432.256987032323
 10
662.4905594660433
 20
1430.170436162817
 10
660.4204725276088
 20
1427.99936727139
 10
658.4388610373691
 20
1425.747253605132
 10
656.5488951509875
 20
1423.417698065482
 10
654.7535984107105
 20
1421.01442744436
 10
653.0558429083469
 20
1418.541286462088
 10
651.4583446905312
 20
1416.002231616663
 10
649.9636594136312
 20
1413.401324854202
 10
648.5741782552405
 20
1410.742727070694
 10
647.2921240888055
 20
1408.030691455455
 10
646.1195479275024
 20
1405.269556686933
 10
645.058325643053
 20
1402.463739991747
 10
644.1101549647303
 20
1399.617730078066
 10
643.2765527633542
 20
1396.736079954637
 10
642.5588526246212
 20
1393.823399646937
 10
641.9582027156518
 20
1390.884348822121
 10
641.4755639481691
 20
1387.923629334544
 10
641.111708441243
 20
1384.945977703799
 10
640.8672182860665
 20
1381.956157537297
 10
640.7424846147327
 20
1378.958951909511
 10
640.7250011932023
 20
1377.339628730054
  0
LINE
  5
1EA
330
1DE
100
AcDbEntity
  8
P-SANR-FIXT
100
AcDbLine
 10
640.7250011932011
 20
1377.339628730054
 30
0.0
 11
685.7250011932007
 21
1377.339628730054
 31
0.0
  0
LINE
  5
1EB
330
1DE
100
AcDbEntity
  8
P-SANR-FIXT
100
AcDbLine
 10
745.7250011932014
 20
1377.339628730054
 30
0.0
 11
790.7250011932013
 21
1377.339628730054
 31
0.0
  0
LINE
  5
1EC
330
1DE
100
AcDbEntity
  8
P-SANR-FIXT
100
AcDbLine
 10
685.7250011932009
 20
1377.339628730054
 30
0.0
 11
688.2250011932033
 21
1377.339628730054
 31
0.0
  0
LINE
  5
1ED
330
1DE
100
AcDbEntity
  8
P-SANR-FIXT
100
AcDbLine
 10
743.2250011932033
 20
1377.339628730054
 30
0.0
 11
745.7250011932017
 21
1377.339628730054
 31
0.0
  0
LINE
  5
1EE
330
1DE
100
AcDbEntity
  8
P-SANR-FIXT
100
AcDbLine
 10
594.7250011931681
 20
1340.089628729987
 30
0.0
 11
594.7250011931681
 21
1340.439628729994
 31
0.0
  0
LINE
  5
1EF
330
1DE
100
AcDbEntity
  8
P-SANR-FIXT
100
AcDbLine
 10
594.7250011931678
 20
1414.239628730112
 30
0.0
 11
594.7250011931678
 21
1414.589628730058
 31
0.0
  0
LINE
  5
1F0
330
1DE
100
AcDbEntity
  8
P-SANR-FIXT
100
AcDbLine
 10
621.2250011931679
 20
1414.589628730059
 30
0.0
 11
621.2250011931679
 21
1414.23962873011
 31
0.0
  0
LINE
  5
1F1
330
1DE
100
AcDbEntity
  8
P-SANR-FIXT
100
AcDbLine
 10
621.2250011931681
 20
1340.439628729997
 30
0.0
 11
621.2250011931681
 21
1340.089628729987
 31
0.0
  0
LINE
  5
1F2
330
1DE
100
AcDbEntity
  8
P-SANR-FIXT
100
AcDbLine
 10
594.7250011931678
 20
1414.589628730058
 30
0.0
 11
594.9762027622065
 21
1414.589628730058
 31
0.0
  0
LINE
  5
1F3
330
1DE
100
AcDbEntity
  8
P-SANR-FIXT
100
AcDbLine
 10
620.9737996241275
 20
1414.589628730059
 30
0.0
 11
621.2250011931679
 21
1414.589628730059
 31
0.0
  0
LINE
  5
1F4
330
1DE
100
AcDbEntity
  8
P-SANR-FIXT
100
AcDbLine
 10
621.2250011931681
 20
1340.089628729987
 30
0.0
 11
620.973799624093
 21
1340.089628729987
 31
0.0
  0
LINE
  5
1F5
330
1DE
100
AcDbEntity
  8
P-SANR-FIXT
100
AcDbLine
 10
594.9762027622418
 20
1340.089628729987
 30
0.0
 11
594.7250011931681
 21
1340.089628729987
 31
0.0
  0
LINE
  5
1F6
330
1DE
100
AcDbEntity
  8
P-SANR-FIXT
100
AcDbLine
 10
836.7250011932345
 20
1414.589628730059
 30
0.0
 11
836.7250011932345
 21
1414.239628730113
 31
0.0
  0
LINE
  5
1F7
330
1DE
100
AcDbEntity
  8
P-SANR-FIXT
100
AcDbLine
 10
836.7250011932346
 20
1340.439628729995
 30
0.0
 11
836.7250011932346
 21
1340.089628729988
 31
0.0
  0
LINE
  5
1F8
330
1DE
100
AcDbEntity
  8
P-SANR-FIXT
100
AcDbLine
 10
810.2250011932346
 20
1340.089628729988
 30
0.0
 11
810.2250011932346
 21
1340.439628729998
 31
0.0
  0
LINE
  5
1F9
330
1DE
100
AcDbEntity
  8
P-SANR-FIXT
100
AcDbLine
 10
810.2250011932342
 20
1414.23962873011
 30
0.0
 11
810.2250011932342
 21
1414.589628730059
 31
0.0
  0
LINE
  5
1FA
330
1DE
100
AcDbEntity
  8
P-SANR-FIXT
100
AcDbLine
 10
836.7250011932346
 20
1340.089628729988
 30
0.0
 11
836.4788769957517
 21
1340.089628729988
 31
0.0
  0
LINE
  5
1FB
330
1DE
100
AcDbEntity
  8
P-SANR-FIXT
100
AcDbLine
 10
810.4711253907192
 20
1340.089628729988
 30
0.0
 11
810.2250011932346
 21
1340.089628729988
 31
0.0
  0
LINE
  5
1FC
330
1DE
100
AcDbEntity
  8
P-SANR-FIXT
100
AcDbLine
 10
810.2250011932342
 20
1414.589628730059
 30
0.0
 11
810.4762027622747
 21
1414.589628730059
 31
0.0
  0
LINE
  5
1FD
330
1DE
100
AcDbEntity
  8
P-SANR-FIXT
100
AcDbLine
 10
836.4737996241956
 20
1414.589628730059
 30
0.0
 11
836.7250011932345
 21
1414.589628730059
 31
0.0
  0
LINE
  5
1FE
330
1DE
100
AcDbEntity
  8
P-SANR-FIXT
100
AcDbLine
 10
574.725001193173
 20
1354.324279288322
 30
0.0
 11
574.725001193173
 21
1373.354978171729
 31
0.0
  0
LINE
  5
1FF
330
1DE
100
AcDbEntity
  8
P-SANR-FIXT
100
AcDbLine
 10
574.725001193173
 20
1373.354978171728
 30
0.0
 11
574.725001193173
 21
1381.324279288317
 31
0.0
  0
LINE
  5
200
330
1DE
100
AcDbEntity
  8
P-SANR-FIXT
100
AcDbLine
 10
574.725001193173
 20
1381.324279288318
 30
0.0
 11
574.7250011931729
 21
1400.354978171724
 31
0.0
  0
LINE
  5
201
330
1DE
100
AcDbEntity
  8
P-SANR-FIXT
100
AcDbLine
 10
574.7250011931729
 20
1400.354978171724
 30
0.0
 11
574.7250011931729
 21
1404.339628730018
 31
0.0
  0
LINE
  5
202
330
1DE
100
AcDbEntity
  8
P-SANR-FIXT
100
AcDbLine
 10
574.725001193173
 20
1350.339628730027
 30
0.0
 11
574.725001193173
 21
1354.324279288322
 31
0.0
  0
LINE
  5
203
330
1DE
100
AcDbEntity
  8
P-SANR-FIXT
100
AcDbLine
 10
574.725001193173
 20
1350.339628730027
 30
0.0
 11
594.725001193168
 21
1350.339628730027
 31
0.0
  0
LINE
  5
204
330
1DE
100
AcDbEntity
  8
P-SANR-FIXT
100
AcDbLine
 10
574.7250011931729
 20
1404.339628730018
 30
0.0
 11
594.7250011931679
 21
1404.339628730018
 31
0.0
  0
LINE
  5
205
330
1DE
100
AcDbEntity
  8
P-SANR-FIXT
100
AcDbLine
 10
574.7250011931729
 20
1400.354978171724
 30
0.0
 11
594.7250011931679
 21
1400.354978171724
 31
0.0
  0
LINE
  5
206
330
1DE
100
AcDbEntity
  8
P-SANR-FIXT
100
AcDbLine
 10
574.725001193173
 20
1381.324279288318
 30
0.0
 11
594.7250011931679
 21
1381.324279288318
 31
0.0
  0
LINE
  5
207
330
1DE
100
AcDbEntity
  8
P-SANR-FIXT
100
AcDbLine
 10
574.725001193173
 20
1373.354978171728
 30
0.0
 11
594.7250011931679
 21
1373.354978171728
 31
0.0
  0
LINE
  5
208
330
1DE
100
AcDbEntity
  8
P-SANR-FIXT
100
AcDbLine
 10
594.725001193168
 20
1354.324279288322
 30
0.0
 11
574.725001193173
 21
1354.324279288322
 31
0.0
  0
LINE
  5
209
330
1DE
100
AcDbEntity
  8
P-SANR-FIXT
100
AcDbLine
 10
856.7250011932296
 20
1354.324279288323
 30
0.0
 11
856.7250011932296
 21
1350.339628730029
 31
0.0
  0
LINE
  5
20A
330
1DE
100
AcDbEntity
  8
P-SANR-FIXT
100
AcDbLine
 10
856.7250011932294
 20
1404.339628730019
 30
0.0
 11
856.7250011932294
 21
1400.354978171725
 31
0.0
  0
LINE
  5
20B
330
1DE
100
AcDbEntity
  8
P-SANR-FIXT
100
AcDbLine
 10
856.7250011932294
 20
1400.354978171725
 30
0.0
 11
856.7250011932296
 21
1381.324279288319
 31
0.0
  0
LINE
  5
20C
330
1DE
100
AcDbEntity
  8
P-SANR-FIXT
100
AcDbLine
 10
856.7250011932296
 20
1381.324279288319
 30
0.0
 11
856.7250011932296
 21
1373.35497817173
 31
0.0
  0
LINE
  5
20D
330
1DE
100
AcDbEntity
  8
P-SANR-FIXT
100
AcDbLine
 10
856.7250011932296
 20
1373.35497817173
 30
0.0
 11
856.7250011932296
 21
1354.324279288323
 31
0.0
  0
LINE
  5
20E
330
1DE
100
AcDbEntity
  8
P-SANR-FIXT
100
AcDbLine
 10
856.7250011932296
 20
1354.324279288323
 30
0.0
 11
836.7250011932346
 21
1354.324279288323
 31
0.0
  0
LINE
  5
20F
330
1DE
100
AcDbEntity
  8
P-SANR-FIXT
100
AcDbLine
 10
836.7250011932346
 20
1350.339628730029
 30
0.0
 11
856.7250011932296
 21
1350.339628730029
 31
0.0
  0
LINE
  5
210
330
1DE
100
AcDbEntity
  8
P-SANR-FIXT
100
AcDbLine
 10
836.7250011932345
 20
1404.339628730019
 30
0.0
 11
856.7250011932294
 21
1404.339628730019
 31
0.0
  0
LINE
  5
211
330
1DE
100
AcDbEntity
  8
P-SANR-FIXT
100
AcDbLine
 10
836.7250011932345
 20
1400.354978171725
 30
0.0
 11
856.7250011932294
 21
1400.354978171725
 31
0.0
  0
LINE
  5
212
330
1DE
100
AcDbEntity
  8
P-SANR-FIXT
100
AcDbLine
 10
836.7250011932345
 20
1381.324279288319
 30
0.0
 11
856.7250011932296
 21
1381.324279288319
 31
0.0
  0
LINE
  5
213
330
1DE
100
AcDbEntity
  8
P-SANR-FIXT
100
AcDbLine
 10
836.7250011932345
 20
1373.35497817173
 30
0.0
 11
856.7250011932296
 21
1373.35497817173
 31
0.0
  0
LINE
  5
214
330
1DE
100
AcDbEntity
  8
P-SANR-FIXT
100
AcDbLine
 10
621.2250011931693
 20
1414.23962873011
 30
0.0
 11
620.9892659985091
 21
1414.647934064394
 31
0.0
  0
LINE
  5
215
330
1DE
100
AcDbEntity
  8
P-SANR-FIXT
100
AcDbLine
 10
620.9892659984745
 20
1340.031323395654
 30
0.0
 11
621.2250011931693
 21
1340.439628729997
 31
0.0
  0
LINE
  5
216
330
1DE
100
AcDbEntity
  8
P-SANR-FIXT
100
AcDbLine
 10
594.9607363878278
 20
1414.647934064394
 30
0.0
 11
594.7250011931692
 21
1414.239628730113
 31
0.0
  0
LINE
  5
217
330
1DE
100
AcDbEntity
  8
P-SANR-FIXT
100
AcDbLine
 10
594.7250011931693
 20
1340.439628729994
 30
0.0
 11
594.9607363878628
 21
1340.031323395653
 31
0.0
  0
LINE
  5
218
330
1DE
100
AcDbEntity
  8
P-SANR-FIXT
100
AcDbLine
 10
594.7250011931679
 20
1377.339628730053
 30
0.0
 11
594.7250011931678
 21
1414.239628730112
 31
0.0
  0
LINE
  5
219
330
1DE
100
AcDbEntity
  8
P-SANR-FIXT
100
AcDbLine
 10
594.7250011931681
 20
1340.439628729994
 30
0.0
 11
594.7250011931679
 21
1377.339628730053
 31
0.0
  0
LINE
  5
21A
330
1DE
100
AcDbEntity
  8
P-SANR-FIXT
100
AcDbLine
 10
621.2250011931679
 20
1414.23962873011
 30
0.0
 11
621.225001193168
 21
1377.339628730054
 31
0.0
  0
LINE
  5
21B
330
1DE
100
AcDbEntity
  8
P-SANR-FIXT
100
AcDbLine
 10
621.225001193168
 20
1377.339628730053
 30
0.0
 11
621.2250011931681
 21
1340.439628729997
 31
0.0
  0
SPLINE
  5
21C
330
1DE
100
AcDbEntity
  8
P-SANR-FIXT
100
AcDbSpline
210
0.0
220
0.0
230
1.0
 70
    24
 71
     3
 72
     9
 73
     5
 74
     0
 42
0.000000001
 43
0.0000000001
 40
0.4444444444444445
 40
0.4444444444444445
 40
0.4444444444444445
 40
0.4444444444444445
 40
0.6666666666666666
 40
1.0
 40
1.0
 40
1.0
 40
1.0
 10
620.9512774970228
 20
1340.089628729988
 30
0.0
 10
621.0562178164909
 20
1340.089628729988
 30
0.0
 10
620.7741879703537
 20
1340.089628729988
 30
0.0
 10
619.1539131054271
 20
1340.089628729988
 30
0.0
 10
617.6958927929255
 20
1340.089628729988
 30
0.0
  0
SPLINE
  5
21D
330
1DE
100
AcDbEntity
  8
P-SANR-FIXT
100
AcDbSpline
210
0.0
220
0.0
230
1.0
 70
    24
 71
     3
 72
     9
 73
     5
 74
     0
 42
0.000000001
 43
0.0000000001
 40
0.0
 40
0.0
 40
0.0
 40
0.0
 40
0.3333333333333333
 40
0.5555555555555556
 40
0.5555555555555556
 40
0.5555555555555556
 40
0.5555555555555556
 10
598.2541095934086
 20
1340.089628729987
 30
0.0
 10
596.7960892809072
 20
1340.089628729987
 30
0.0
 10
595.175814415981
 20
1340.089628729987
 30
0.0
 10
594.8937845698436
 20
1340.089628729987
 30
0.0
 10
594.9987248893117
 20
1340.089628729987
 30
0.0
  0
SPLINE
  5
21E
330
1DE
100
AcDbEntity
  8
P-SANR-FIXT
100
AcDbSpline
210
0.0
220
0.0
230
1.0
 70
    24
 71
     3
 72
     9
 73
     5
 74
     0
 42
0.000000001
 43
0.0000000001
 40
0.4444444444444445
 40
0.4444444444444445
 40
0.4444444444444445
 40
0.4444444444444445
 40
0.6666666666666666
 40
1.0
 40
1.0
 40
1.0
 40
1.0
 10
594.9987248892767
 20
1414.589628730058
 30
0.0
 10
594.8937845698083
 20
1414.589628730058
 30
0.0
 10
595.1758144159461
 20
1414.589628730058
 30
0.0
 10
596.7960892808746
 20
1414.589628730059
 30
0.0
 10
598.2541095933781
 20
1414.589628730059
 30
0.0
  0
LINE
  5
21F
330
1DE
100
AcDbEntity
  8
P-SANR-FIXT
100
AcDbLine
 10
598.2541095933781
 20
1414.589628730059
 30
0.0
 11
617.6958927929556
 21
1414.589628730059
 31
0.0
  0
SPLINE
  5
220
330
1DE
100
AcDbEntity
  8
P-SANR-FIXT
100
AcDbSpline
210
0.0
220
0.0
230
1.0
 70
    24
 71
     3
 72
     9
 73
     5
 74
     0
 42
0.000000001
 43
0.0000000001
 40
0.0
 40
0.0
 40
0.0
 40
0.0
 40
0.3333333333333333
 40
0.5555555555555556
 40
0.5555555555555556
 40
0.5555555555555556
 40
0.5555555555555556
 10
617.6958927929556
 20
1414.589628730059
 30
0.0
 10
619.1539131054593
 20
1414.589628730059
 30
0.0
 10
620.774187970388
 20
1414.589628730059
 30
0.0
 10
621.0562178165258
 20
1414.589628730059
 30
0.0
 10
620.9512774970574
 20
1414.589628730059
 30
0.0
  0
SPLINE
  5
221
330
1DE
100
AcDbEntity
  8
P-SANR-FIXT
100
AcDbSpline
210
0.0
220
0.0
230
1.0
 70
     8
 71
     3
 72
    10
 73
     6
 74
     0
 42
0.000000001
 43
0.0000000001
 40
0.0
 40
0.0
 40
0.0
 40
0.0
 40
0.3333333333333333
 40
0.6666666666666666
 40
1.0
 40
1.0
 40
1.0
 40
1.0
 10
598.2541095933781
 20
1414.589628730059
 30
0.0
 10
596.784735984261
 20
1410.456641521683
 30
0.0
 10
594.8258739266826
 20
1402.184984819657
 30
0.0
 10
594.8517594429725
 20
1389.618878551332
 30
0.0
 10
596.7960892808892
 20
1381.418875614501
 30
0.0
 10
598.2541095933934
 20
1377.339628730023
 30
0.0
  0
LINE
  5
222
330
1DE
100
AcDbEntity
  8
P-SANR-FIXT
100
AcDbLine
 10
598.2541095933934
 20
1377.339628730023
 30
0.0
 11
617.6958927929405
 21
1377.339628730023
 31
0.0
  0
SPLINE
  5
223
330
1DE
100
AcDbEntity
  8
P-SANR-FIXT
100
AcDbSpline
210
0.0
220
0.0
230
1.0
 70
     8
 71
     3
 72
    10
 73
     6
 74
     0
 42
0.000000001
 43
0.0000000001
 40
0.0
 40
0.0
 40
0.0
 40
0.0
 40
0.3333333333333333
 40
0.6666666666666666
 40
1.0
 40
1.0
 40
1.0
 40
1.0
 10
617.6958927929405
 20
1377.339628730023
 30
0.0
 10
619.1539131054449
 20
1381.418875614501
 30
0.0
 10
621.0982429433617
 20
1389.618878551332
 30
0.0
 10
621.1241284596516
 20
1402.184984819657
 30
0.0
 10
619.1652664020728
 20
1410.456641521684
 30
0.0
 10
617.6958927929556
 20
1414.589628730059
 30
0.0
  0
SPLINE
  5
224
330
1DE
100
AcDbEntity
  8
P-SANR-FIXT
100
AcDbSpline
210
0.0
220
0.0
230
1.0
 70
     8
 71
     3
 72
    10
 73
     6
 74
     0
 42
0.000000001
 43
0.0000000001
 40
0.0
 40
0.0
 40
0.0
 40
0.0
 40
0.3333333333333333
 40
0.6666666666666666
 40
1.0
 40
1.0
 40
1.0
 40
1.0
 10
598.2541095933934
 20
1377.339628730023
 30
0.0
 10
596.7847359842774
 20
1373.206641521648
 30
0.0
 10
594.8258739267004
 20
1364.934984819621
 30
0.0
 10
594.8517594429902
 20
1352.368878551297
 30
0.0
 10
596.7960892809054
 20
1344.168875614466
 30
0.0
 10
598.2541095934086
 20
1340.089628729987
 30
0.0
  0
LINE
  5
225
330
1DE
100
AcDbEntity
  8
P-SANR-FIXT
100
AcDbLine
 10
617.6958927929255
 20
1340.089628729988
 30
0.0
 11
598.2541095934086
 21
1340.089628729987
 31
0.0
  0
SPLINE
  5
226
330
1DE
100
AcDbEntity
  8
P-SANR-FIXT
100
AcDbSpline
210
0.0
220
0.0
230
1.0
 70
     8
 71
     3
 72
    10
 73
     6
 74
     0
 42
0.000000001
 43
0.0000000001
 40
0.0
 40
0.0
 40
0.0
 40
0.0
 40
0.3333333333333333
 40
0.6666666666666666
 40
1.0
 40
1.0
 40
1.0
 40
1.0
 10
617.6958927929255
 20
1340.089628729988
 30
0.0
 10
619.1539131054289
 20
1344.168875614466
 30
0.0
 10
621.0982429433443
 20
1352.368878551297
 30
0.0
 10
621.1241284596342
 20
1364.934984819621
 30
0.0
 10
619.1652664020567
 20
1373.206641521648
 30
0.0
 10
617.6958927929405
 20
1377.339628730023
 30
0.0
  0
LINE
  5
227
330
1DE
100
AcDbEntity
  8
P-SANR-FIXT
100
AcDbLine
 10
810.460736387896
 20
1414.647934064394
 30
0.0
 11
810.2250011932358
 21
1414.239628730111
 31
0.0
  0
LINE
  5
228
330
1DE
100
AcDbEntity
  8
P-SANR-FIXT
100
AcDbLine
 10
810.225001193236
 20
1340.439628729998
 30
0.0
 11
810.4607363879312
 21
1340.031323395654
 31
0.0
  0
LINE
  5
229
330
1DE
100
AcDbEntity
  8
P-SANR-FIXT
100
AcDbLine
 10
836.7250011932361
 20
1414.239628730113
 30
0.0
 11
836.4892659985773
 21
1414.647934064394
 31
0.0
  0
LINE
  5
22A
330
1DE
100
AcDbEntity
  8
P-SANR-FIXT
100
AcDbLine
 10
836.4892659985427
 20
1340.031323395654
 30
0.0
 11
836.7250011932361
 21
1340.439628729996
 31
0.0
  0
LINE
  5
22B
330
1DE
100
AcDbEntity
  8
P-SANR-FIXT
100
AcDbLine
 10
836.7250011932345
 20
1414.239628730113
 30
0.0
 11
836.7250011932345
 21
1377.339628730054
 31
0.0
  0
LINE
  5
22C
330
1DE
100
AcDbEntity
  8
P-SANR-FIXT
100
AcDbLine
 10
836.7250011932345
 20
1377.339628730054
 30
0.0
 11
836.7250011932346
 21
1340.439628729995
 31
0.0
  0
LINE
  5
22D
330
1DE
100
AcDbEntity
  8
P-SANR-FIXT
100
AcDbLine
 10
810.2250011932344
 20
1377.339628730054
 30
0.0
 11
810.2250011932342
 21
1414.23962873011
 31
0.0
  0
LINE
  5
22E
330
1DE
100
AcDbEntity
  8
P-SANR-FIXT
100
AcDbLine
 10
810.2250011932346
 20
1340.439628729998
 30
0.0
 11
810.2250011932344
 21
1377.339628730053
 31
0.0
  0
LINE
  5
22F
330
1DE
100
AcDbEntity
  8
P-SANR-FIXT
100
AcDbLine
 10
833.1958927929941
 20
1340.089628729989
 30
0.0
 11
813.7541095934771
 21
1340.089628729988
 31
0.0
  0
SPLINE
  5
230
330
1DE
100
AcDbEntity
  8
P-SANR-FIXT
100
AcDbSpline
210
0.0
220
0.0
230
1.0
 70
    24
 71
     3
 72
     9
 73
     5
 74
     0
 42
0.000000001
 43
0.0000000001
 40
0.0
 40
0.0
 40
0.0
 40
0.0
 40
0.3333333333333333
 40
0.4984763360317936
 40
0.4984763360317936
 40
0.4984763360317936
 40
0.4984763360317936
 10
813.7541095934771
 20
1340.089628729988
 30
0.0
 10
812.2847359843602
 20
1340.089628729988
 30
0.0
 10
810.8200664124792
 20
1340.089628729988
 30
0.0
 10
810.4601995206364
 20
1340.089628729988
 30
0.0
 10
810.4607457283977
 20
1340.089628729988
 30
0.0
  0
SPLINE
  5
231
330
1DE
100
AcDbEntity
  8
P-SANR-FIXT
100
AcDbSpline
210
0.0
220
0.0
230
1.0
 70
    24
 71
     3
 72
     9
 73
     5
 74
     0
 42
0.000000001
 43
0.0000000001
 40
0.5015236639682069
 40
0.5015236639682069
 40
0.5015236639682069
 40
0.5015236639682069
 40
0.6666666666666666
 40
1.0
 40
1.0
 40
1.0
 40
1.0
 10
836.489256658073
 20
1340.089628729989
 30
0.0
 10
836.4898028658345
 20
1340.089628729989
 30
0.0
 10
836.1299359739916
 20
1340.089628729989
 30
0.0
 10
834.665266402111
 20
1340.089628729989
 30
0.0
 10
833.1958927929941
 20
1340.089628729989
 30
0.0
  0
SPLINE
  5
232
330
1DE
100
AcDbEntity
  8
P-SANR-FIXT
100
AcDbSpline
210
0.0
220
0.0
230
1.0
 70
    24
 71
     3
 72
     9
 73
     5
 74
     0
 42
0.000000001
 43
0.0000000001
 40
0.4444444444444445
 40
0.4444444444444445
 40
0.4444444444444445
 40
0.4444444444444445
 40
0.6666666666666666
 40
1.0
 40
1.0
 40
1.0
 40
1.0
 10
810.4987248893449
 20
1414.589628730059
 30
0.0
 10
810.3937845698764
 20
1414.589628730059
 30
0.0
 10
810.6758144160142
 20
1414.589628730059
 30
0.0
 10
812.296089280943
 20
1414.589628730059
 30
0.0
 10
813.7541095934466
 20
1414.589628730059
 30
0.0
  0
SPLINE
  5
233
330
1DE
100
AcDbEntity
  8
P-SANR-FIXT
100
AcDbSpline
210
0.0
220
0.0
230
1.0
 70
    24
 71
     3
 72
     9
 73
     5
 74
     0
 42
0.000000001
 43
0.0000000001
 40
0.0
 40
0.0
 40
0.0
 40
0.0
 40
0.3333333333333333
 40
0.5555555555555556
 40
0.5555555555555556
 40
0.5555555555555556
 40
0.5555555555555556
 10
833.1958927930241
 20
1414.589628730059
 30
0.0
 10
834.6539131055275
 20
1414.589628730059
 30
0.0
 10
836.2741879704561
 20
1414.589628730059
 30
0.0
 10
836.5562178165939
 20
1414.589628730059
 30
0.0
 10
836.4512774971254
 20
1414.589628730059
 30
0.0
  0
LINE
  5
234
330
1DE
100
AcDbEntity
  8
P-SANR-FIXT
100
AcDbLine
 10
813.7541095934466
 20
1414.589628730059
 30
0.0
 11
833.1958927930241
 21
1414.589628730059
 31
0.0
  0
SPLINE
  5
235
330
1DE
100
AcDbEntity
  8
P-SANR-FIXT
100
AcDbSpline
210
0.0
220
0.0
230
1.0
 70
     8
 71
     3
 72
    10
 73
     6
 74
     0
 42
0.000000001
 43
0.0000000001
 40
0.0
 40
0.0
 40
0.0
 40
0.0
 40
0.3333333333333333
 40
0.6666666666666666
 40
1.0
 40
1.0
 40
1.0
 40
1.0
 10
813.7541095934466
 20
1414.589628730059
 30
0.0
 10
812.2847359843293
 20
1410.456641521684
 30
0.0
 10
810.3258739267507
 20
1402.184984819657
 30
0.0
 10
810.3517594430408
 20
1389.618878551333
 30
0.0
 10
812.2960892809576
 20
1381.418875614502
 30
0.0
 10
813.7541095934619
 20
1377.339628730024
 30
0.0
  0
SPLINE
  5
236
330
1DE
100
AcDbEntity
  8
P-SANR-FIXT
100
AcDbSpline
210
0.0
220
0.0
230
1.0
 70
     8
 71
     3
 72
    10
 73
     6
 74
     0
 42
0.000000001
 43
0.0000000001
 40
0.0
 40
0.0
 40
0.0
 40
0.0
 40
0.3333333333333333
 40
0.6666666666666666
 40
1.0
 40
1.0
 40
1.0
 40
1.0
 10
833.195892793009
 20
1377.339628730024
 30
0.0
 10
834.6539131055132
 20
1381.418875614502
 30
0.0
 10
836.5982429434298
 20
1389.618878551333
 30
0.0
 10
836.6241284597197
 20
1402.184984819658
 30
0.0
 10
834.6652664021412
 20
1410.456641521684
 30
0.0
 10
833.1958927930241
 20
1414.589628730059
 30
0.0
  0
SPLINE
  5
237
330
1DE
100
AcDbEntity
  8
P-SANR-FIXT
100
AcDbSpline
210
0.0
220
0.0
230
1.0
 70
     8
 71
     3
 72
    10
 73
     6
 74
     0
 42
0.000000001
 43
0.0000000001
 40
0.0
 40
0.0
 40
0.0
 40
0.0
 40
0.3333333333333333
 40
0.6666666666666666
 40
1.0
 40
1.0
 40
1.0
 40
1.0
 10
833.1958927929941
 20
1340.089628729989
 30
0.0
 10
834.6652664021128
 20
1344.222615938363
 30
0.0
 10
836.6241284596958
 20
1352.494272640389
 30
0.0
 10
836.5982429434192
 20
1365.060378908713
 30
0.0
 10
834.6539131055097
 20
1373.260381845545
 30
0.0
 10
833.195892793009
 20
1377.339628730024
 30
0.0
  0
LINE
  5
238
330
1DE
100
AcDbEntity
  8
P-SANR-FIXT
100
AcDbLine
 10
813.7541095934619
 20
1377.339628730024
 30
0.0
 11
833.195892793009
 21
1377.339628730024
 31
0.0
  0
SPLINE
  5
239
330
1DE
100
AcDbEntity
  8
P-SANR-FIXT
100
AcDbSpline
210
0.0
220
0.0
230
1.0
 70
     8
 71
     3
 72
    10
 73
     6
 74
     0
 42
0.000000001
 43
0.0000000001
 40
0.0
 40
0.0
 40
0.0
 40
0.0
 40
0.3333333333333333
 40
0.6666666666666666
 40
1.0
 40
1.0
 40
1.0
 40
1.0
 10
813.7541095934619
 20
1377.339628730024
 30
0.0
 10
812.296089280961
 20
1373.260381845545
 30
0.0
 10
810.3517594430515
 20
1365.060378908713
 30
0.0
 10
810.3258739267751
 20
1352.494272640389
 30
0.0
 10
812.2847359843584
 20
1344.222615938363
 30
0.0
 10
813.7541095934771
 20
1340.089628729988
 30
0.0
  0
LINE
  5
23A
330
1DE
100
AcDbEntity
  8
P-SANR-FIXT
100
AcDbLine
 10
703.225001193181
 20
1287.339628729999
 30
0.0
 11
703.225001193181
 21
1282.839628729999
 31
0.0
  0
LINE
  5
23B
330
1DE
100
AcDbEntity
  8
P-SANR-FIXT
100
AcDbLine
 10
728.2250011932251
 20
1282.839628729999
 30
0.0
 11
728.2250011932251
 21
1287.339628729998
 31
0.0
  0
LINE
  5
23C
330
1DE
100
AcDbEntity
  8
P-SANR-FIXT
100
AcDbLine
 10
703.2250011931798
 20
1282.839628729999
 30
0.0
 11
715.7250011932014
 21
1282.839628729999
 31
0.0
  0
LINE
  5
23D
330
1DE
100
AcDbEntity
  8
P-SANR-FIXT
100
AcDbLine
 10
715.7250011932017
 20
1282.839628729999
 30
0.0
 11
728.2250011932236
 21
1282.839628729999
 31
0.0
  0
LINE
  5
23E
330
1DE
100
AcDbEntity
  8
P-SANR-FIXT
100
AcDbLine
 10
707.4500839755316
 20
1278.539628730001
 30
0.0
 11
706.725001193196
 21
1278.539628730001
 31
0.0
  0
LINE
  5
23F
330
1DE
100
AcDbEntity
  8
P-SANR-FIXT
100
AcDbLine
 10
724.7250011931777
 20
1278.539628730001
 30
0.0
 11
723.9999184108391
 21
1278.539628730001
 31
0.0
  0
LINE
  5
240
330
1DE
100
AcDbEntity
  8
P-SANR-FIXT
100
AcDbLine
 10
723.9999184108391
 20
1278.539628730001
 30
0.0
 11
716.4500839755251
 21
1278.539628730001
 31
0.0
  0
LINE
  5
241
330
1DE
100
AcDbEntity
  8
P-SANR-FIXT
100
AcDbLine
 10
716.4500839755251
 20
1278.539628730001
 30
0.0
 11
714.9999184108492
 21
1278.539628730001
 31
0.0
  0
LINE
  5
242
330
1DE
100
AcDbEntity
  8
P-SANR-FIXT
100
AcDbLine
 10
714.9999184108492
 20
1278.539628730001
 30
0.0
 11
707.4500839755316
 21
1278.539628730001
 31
0.0
  0
LINE
  5
243
330
1DE
100
AcDbEntity
  8
P-SANR-FIXT
100
AcDbLine
 10
707.4500839755316
 20
1278.539628730001
 30
0.0
 11
707.4500839755316
 21
1282.839628730001
 31
0.0
  0
LINE
  5
244
330
1DE
100
AcDbEntity
  8
P-SANR-FIXT
100
AcDbLine
 10
706.725001193196
 20
1282.839628730001
 30
0.0
 11
706.725001193196
 21
1278.539628730001
 31
0.0
  0
LINE
  5
245
330
1DE
100
AcDbEntity
  8
P-SANR-FIXT
100
AcDbLine
 10
724.7250011931777
 20
1282.839628730001
 30
0.0
 11
724.7250011931777
 21
1278.539628730001
 31
0.0
  0
LINE
  5
246
330
1DE
100
AcDbEntity
  8
P-SANR-FIXT
100
AcDbLine
 10
723.9999184108391
 20
1282.839628730001
 30
0.0
 11
723.9999184108391
 21
1278.539628730001
 31
0.0
  0
LINE
  5
247
330
1DE
100
AcDbEntity
  8
P-SANR-FIXT
100
AcDbLine
 10
716.4500839755251
 20
1282.839628730001
 30
0.0
 11
716.4500839755251
 21
1278.539628730001
 31
0.0
  0
LINE
  5
248
330
1DE
100
AcDbEntity
  8
P-SANR-FIXT
100
AcDbLine
 10
714.9999184108492
 20
1282.839628730001
 30
0.0
 11
714.9999184108492
 21
1278.539628730001
 31
0.0
  0
LINE
  5
249
330
1DE
100
AcDbEntity
  8
P-SANR-FIXT
100
AcDbLine
 10
702.7250011932028
 20
1321.698309045285
 30
0.0
 11
702.725001193203
 21
1287.339628730024
 31
0.0
  0
LINE
  5
24A
330
1DE
100
AcDbEntity
  8
P-SANR-FIXT
100
AcDbLine
 10
728.7250011932031
 20
1287.339628730024
 30
0.0
 11
728.725001193203
 21
1321.698309045285
 31
0.0
  0
LINE
  5
24B
330
1DE
100
AcDbEntity
  8
P-SANR-FIXT
100
AcDbLine
 10
728.7250011932016
 20
1287.339628730023
 30
0.0
 11
702.7250011932014
 21
1287.339628730023
 31
0.0
  0
LWPOLYLINE
  5
24C
330
1DE
100
AcDbEntity
  8
P-SANR-FIXT
100
AcDbPolyline
 90
       80
 70
   128
 43
0.0
 10
658.5750011932028
 20
1377.339628730054
 10
658.620715097528
 20
1375.054238281287
 10
658.7577836780081
 20
1372.772503969715
 10
658.9859876541543
 20
1370.498076083492
 10
659.3049619482857
 20
1368.234593222049
 10
659.7141962695758
 20
1365.985676475116
 10
660.2130359304094
 20
1363.754923629743
 10
660.8006828937422
 20
1361.545903414614
 10
661.4761970497912
 20
1359.362149790843
 10
662.2384977200088
 20
1357.207156298382
 10
663.0863653859379
 20
1355.084370467114
 10
664.0184436401817
 20
1352.997188301532
 10
665.0332413563667
 20
1350.948948847858
 10
666.1291350746251
 20
1348.942928852284
 10
667.3043715987859
 20
1346.982337518875
 10
668.5570708011145
 20
1345.070311375528
 10
669.8852286301153
 20
1343.209909256193
 10
671.2867203165873
 20
1341.404107407398
 10
672.7593037728005
 20
1339.655794726884
 10
674.3006231793599
 20
1337.967768141986
 10
675.9082127540121
 20
1336.342728135146
 10
677.5795006963721
 20
1334.783274423719
 10
679.311813302254
 20
1333.291901800978
 10
681.1023792410289
 20
1331.870996144975
 10
682.9483339891619
 20
1330.522830601652
 10
684.8467244128385
 20
1329.249561948282
 10
686.7945134923494
 20
1328.053227143097
 10
688.7885851806736
 20
1326.935740066579
 10
690.8257493884885
 20
1325.898888459666
 10
692.9027470876341
 20
1324.944331063747
 10
695.0162555248608
 20
1324.073594967027
 10
697.1628935375267
 20
1323.288073161513
 10
699.3392269627365
 20
1322.589022314525
 10
701.5417741312697
 20
1321.977560758295
 10
703.7670114375082
 20
1321.454666700875
 10
706.0113789764541
 20
1321.021176661213
 10
708.2712862388178
 20
1320.677784130899
 10
710.5431178550676
 20
1320.425038464728
 10
712.8232393792488
 20
1320.263344001849
 10
715.1080031033227
 20
1320.192959418911
 10
717.3937538927215
 20
1320.213997316232
 10
719.6768350337825
 20
1320.326424037663
 10
721.9535940837115
 20
1320.530059724434
 10
724.2203887137113
 20
1320.824578602885
 10
726.4735925359311
 20
1321.209509505639
 10
728.7096009049129
 20
1321.684236625365
 10
730.924836684256
 20
1322.248000499941
 10
733.1157559692723
 20
1322.899899227432
 10
735.2788537564767
 20
1323.638889908937
 10
737.4106695508458
 20
1324.46379031701
 10
739.5077929018721
 20
1325.373280786966
 10
741.5668688595559
 20
1326.365906328068
 10
743.5846033416113
 20
1327.440078951199
 10
745.5577684032943
 20
1328.594080209307
 10
747.4832074014252
 20
1329.826063946552
 10
749.3578400443457
 20
1331.134059251764
 10
751.1786673197274
 20
1332.515973611479
 10
752.9427762923519
 20
1333.969596257514
 10
754.6473447641866
 20
1335.492601703725
 10
756.2896457892979
 20
1337.082553466288
 10
757.8670520363848
 20
1338.736907961556
 10
759.3770399919476
 20
1340.453018575245
 10
760.8171939973703
 20
1342.228139896457
 10
762.1852101134614
 20
1344.059432109753
 10
763.4788998062626
 20
1345.943965538244
 10
764.6961934482381
 20
1347.878725330457
 10
765.8351436292358
 20
1349.860616283453
 10
766.8939282719296
 20
1351.886467794486
 10
767.8708535467531
 20
1353.953038933298
 10
768.7643565816661
 20
1356.057023626912
 10
769.5730079624166
 20
1358.195055948644
 10
770.2955140192983
 20
1360.363715502868
 10
770.930718896747
 20
1362.559532896921
 10
771.4776064024617
 20
1364.778995291388
 10
771.935301633096
 20
1367.018552019898
 10
772.3030723739181
 20
1369.274620269432
 10
772.5803302701957
 20
1371.54359081206
 10
772.7666317684402
 20
1373.821833778934
 10
772.8616788259964
 20
1376.105704467307
 10
772.8750011932027
 20
1377.339628730053
  0
LINE
  5
24D
330
1DE
100
AcDbEntity
  8
P-SANR-FIXT
100
AcDbLine
 10
640.7250011931986
 20
1401.489628730054
 30
0.0
 11
634.4250011932023
 21
1401.489628730054
 31
0.0
  0
LINE
  5
24E
330
1DE
100
AcDbEntity
  8
P-SANR-FIXT
100
AcDbLine
 10
634.4250011932024
 20
1353.189628730053
 30
0.0
 11
663.9085745720572
 21
1353.189628730053
 31
0.0
  0
LINE
  5
24F
330
1DE
100
AcDbEntity
  8
P-SANR-FIXT
100
AcDbLine
 10
797.0250011932029
 20
1401.489628730053
 30
0.0
 11
790.7250011931989
 21
1401.489628730053
 31
0.0
  0
LINE
  5
250
330
1DE
100
AcDbEntity
  8
P-SANR-FIXT
100
AcDbLine
 10
767.5414278143488
 20
1353.189628730055
 30
0.0
 11
797.0250011932032
 21
1353.189628730055
 31
0.0
  0
SPLINE
  5
251
330
1DE
100
AcDbEntity
  8
P-SANR-FIXT
100
AcDbSpline
210
0.0
220
0.0
230
1.0
 70
     8
 71
     3
 72
    11
 73
     7
 74
     0
 42
0.000000001
 43
0.0000000001
 40
0.0
 40
0.0
 40
0.0
 40
0.0
 40
0.0555555555555556
 40
0.1111111111111111
 40
0.1666666666666666
 40
0.1944444444444444
 40
0.1944444444444444
 40
0.1944444444444444
 40
0.1944444444444444
 10
658.5750011932008
 20
1377.339628730053
 30
0.0
 10
658.5750011932008
 20
1375.865537317326
 30
0.0
 10
658.6900623459456
 20
1372.993096216729
 30
0.0
 10
659.1429340549783
 20
1368.981320087809
 30
0.0
 10
659.7324259328906
 20
1365.779154087724
 30
0.0
 10
660.1477752131889
 20
1364.011140257811
 30
0.0
 10
660.2908477928202
 20
1363.440680129792
 30
0.0
  0
SPLINE
  5
252
330
1DE
100
AcDbEntity
  8
P-SANR-FIXT
100
AcDbSpline
210
0.0
220
0.0
230
1.0
 70
     8
 71
     3
 72
     8
 73
     4
 74
     0
 42
0.000000001
 43
0.0000000001
 40
0.2222222222222222
 40
0.2222222222222222
 40
0.2222222222222222
 40
0.2222222222222222
 40
0.2777777777777778
 40
0.2777777777777778
 40
0.2777777777777778
 40
0.2777777777777778
 10
660.7317063483359
 20
1361.787779254645
 30
0.0
 10
661.0318875017785
 20
1360.726062385851
 30
0.0
 10
661.3416493654455
 20
1359.74724103046
 30
0.0
 10
661.6494504221336
 20
1358.84754099487
 30
0.0
  0
SPLINE
  5
253
330
1DE
100
AcDbEntity
  8
P-SANR-FIXT
100
AcDbSpline
210
0.0
220
0.0
230
1.0
 70
     8
 71
     3
 72
    10
 73
     6
 74
     0
 42
0.000000001
 43
0.0000000001
 40
0.3055555555555556
 40
0.3055555555555556
 40
0.3055555555555556
 40
0.3055555555555556
 40
0.3333333333333333
 40
0.3611111111111111
 40
0.3888888888888888
 40
0.3888888888888888
 40
0.3888888888888888
 40
0.3888888888888888
 10
662.1041249265943
 20
1357.567827385682
 30
0.0
 10
662.2514885761241
 20
1357.168033482042
 30
0.0
 10
662.5341225210044
 20
1356.428997243566
 30
0.0
 10
662.9204230074929
 20
1355.473928926949
 30
0.0
 10
663.1536714349614
 20
1354.924248111301
 30
0.0
 10
663.2603316361207
 20
1354.677304306764
 30
0.0
  0
SPLINE
  5
254
330
1DE
100
AcDbEntity
  8
P-SANR-FIXT
100
AcDbSpline
210
0.0
220
0.0
230
1.0
 70
     8
 71
     3
 72
     9
 73
     5
 74
     0
 42
0.000000001
 43
0.0000000001
 40
0.4166666666666666
 40
0.4166666666666666
 40
0.4166666666666666
 40
0.4166666666666666
 40
0.4444444444444445
 40
0.4722222222222224
 40
0.4722222222222224
 40
0.4722222222222224
 40
0.4722222222222224
 10
663.5469565921519
 20
1354.024951773017
 30
0.0
 10
663.6302251600134
 20
1353.838590230534
 30
0.0
 10
663.7699070538409
 20
1353.531238522551
 30
0.0
 10
663.8515816775369
 20
1353.354674092819
 30
0.0
 10
663.8787245378876
 20
1353.296184066487
 30
0.0
  0
SPLINE
  5
255
330
1DE
100
AcDbEntity
  8
P-SANR-FIXT
100
AcDbSpline
210
0.0
220
0.0
230
1.0
 70
     8
 71
     3
 72
    10
 73
     6
 74
     0
 42
0.000000001
 43
0.0000000001
 40
0.5
 40
0.5
 40
0.5
 40
0.5
 40
0.5138888888888889
 40
0.5486111111111111
 40
0.5833333333333333
 40
0.5833333333333333
 40
0.5833333333333333
 40
0.5833333333333333
 10
767.5305369713264
 20
1353.20852964165
 30
0.0
 10
767.530530796069
 20
1353.20852059301
 30
0.0
 10
767.542425801178
 20
1353.234107281986
 30
0.0
 10
767.6347607399106
 20
1353.43241414185
 30
0.0
 10
767.7997521250975
 20
1353.793731646262
 30
0.0
 10
767.903586716602
 20
1354.026162390249
 30
0.0
  0
SPLINE
  5
256
330
1DE
100
AcDbEntity
  8
P-SANR-FIXT
100
AcDbSpline
210
0.0
220
0.0
230
1.0
 70
     8
 71
     3
 72
    11
 73
     7
 74
     0
 42
0.000000001
 43
0.0000000001
 40
0.6111111111111112
 40
0.6111111111111112
 40
0.6111111111111112
 40
0.6111111111111112
 40
0.6180555555555555
 40
0.6527777777777777
 40
0.6875
 40
0.6944444444444446
 40
0.6944444444444446
 40
0.6944444444444446
 40
0.6944444444444446
 10
768.1899788291469
 20
1354.678007925741
 30
0.0
 10
768.2166296417287
 20
1354.739707887944
 30
0.0
 10
768.3802428493907
 20
1355.120290482312
 30
0.0
 10
768.7170028762745
 20
1355.92684923447
 30
0.0
 10
769.0905345641438
 20
1356.879689745054
 30
0.0
 10
769.3095492597978
 20
1357.469635135326
 30
0.0
 10
769.3464135345616
 20
1357.569793175122
 30
0.0
  0
SPLINE
  5
257
330
1DE
100
AcDbEntity
  8
P-SANR-FIXT
100
AcDbSpline
210
0.0
220
0.0
230
1.0
 70
     8
 71
     3
 72
     9
 73
     5
 74
     0
 42
0.000000001
 43
0.0000000001
 40
0.7222222222222223
 40
0.7222222222222223
 40
0.7222222222222223
 40
0.7222222222222223
 40
0.7569444444444445
 40
0.7777777777777779
 40
0.7777777777777779
 40
0.7777777777777779
 40
0.7777777777777779
 10
769.8021623732626
 20
1358.852250908801
 30
0.0
 10
769.9955390303306
 20
1359.418047893917
 30
0.0
 10
770.3106409187703
 20
1360.377325534843
 30
0.0
 10
770.606166337894
 20
1361.404111829318
 30
0.0
 10
770.7173467795167
 20
1361.798219330911
 30
0.0
  0
SPLINE
  5
258
330
1DE
100
AcDbEntity
  8
P-SANR-FIXT
100
AcDbSpline
210
0.0
220
0.0
230
1.0
 70
     8
 71
     3
 72
     9
 73
     5
 74
     0
 42
0.000000001
 43
0.0000000001
 40
0.8055555555555557
 40
0.8055555555555557
 40
0.8055555555555557
 40
0.8055555555555557
 40
0.861111111111111
 40
1.0
 40
1.0
 40
1.0
 40
1.0
 10
771.1578706615783
 20
1363.438720347871
 30
0.0
 10
771.4435687334854
 20
1364.582204056258
 30
0.0
 10
772.3904516419545
 20
1368.892130014385
 30
0.0
 10
772.8750011932016
 20
1373.654304580825
 30
0.0
 10
772.8750011932016
 20
1377.339628730053
 30
0.0
  0
LINE
  5
259
330
1DE
100
AcDbEntity
  8
P-SANR-FIXT
100
AcDbLine
 10
634.4250011932008
 20
1401.489628730053
 30
0.0
 11
634.4250011932009
 21
1377.339628730053
 31
0.0
  0
LINE
  5
25A
330
1DE
100
AcDbEntity
  8
P-SANR-FIXT
100
AcDbLine
 10
634.4250011932009
 20
1377.339628730053
 30
0.0
 11
634.425001193201
 21
1353.189628730053
 31
0.0
  0
LINE
  5
25B
330
1DE
100
AcDbEntity
  8
P-SANR-FIXT
100
AcDbLine
 10
797.0250011932014
 20
1401.489628730053
 30
0.0
 11
797.0250011932015
 21
1377.339628730054
 31
0.0
  0
LINE
  5
25C
330
1DE
100
AcDbEntity
  8
P-SANR-FIXT
100
AcDbLine
 10
797.0250011932015
 20
1377.339628730054
 30
0.0
 11
797.0250011932018
 21
1353.189628730055
 31
0.0
  0
LINE
  5
25D
330
1DE
100
AcDbEntity
  8
P-SANR-FIXT
100
AcDbLine
 10
625.7250011932025
 20
1410.189628730053
 30
0.0
 11
621.2250011931693
 21
1410.189628730053
 31
0.0
  0
LINE
  5
25E
330
1DE
100
AcDbEntity
  8
P-SANR-FIXT
100
AcDbLine
 10
621.2250011931695
 20
1344.489628730053
 30
0.0
 11
625.7250011932027
 21
1344.489628730053
 31
0.0
  0
LINE
  5
25F
330
1DE
100
AcDbEntity
  8
P-SANR-FIXT
100
AcDbLine
 10
634.4250011932023
 20
1401.489628730054
 30
0.0
 11
625.7250011932025
 21
1410.189628730053
 31
0.0
  0
LINE
  5
260
330
1DE
100
AcDbEntity
  8
P-SANR-FIXT
100
AcDbLine
 10
625.7250011932027
 20
1344.489628730053
 30
0.0
 11
634.4250011932024
 21
1353.189628730053
 31
0.0
  0
LINE
  5
261
330
1DE
100
AcDbEntity
  8
P-SANR-FIXT
100
AcDbLine
 10
810.2250011932358
 20
1410.189628730053
 30
0.0
 11
805.7250011932026
 21
1410.189628730053
 31
0.0
  0
LINE
  5
262
330
1DE
100
AcDbEntity
  8
P-SANR-FIXT
100
AcDbLine
 10
805.725001193203
 20
1344.489628730054
 30
0.0
 11
810.225001193236
 21
1344.489628730054
 31
0.0
  0
LINE
  5
263
330
1DE
100
AcDbEntity
  8
P-SANR-FIXT
100
AcDbLine
 10
805.7250011932026
 20
1410.189628730054
 30
0.0
 11
797.0250011932029
 21
1401.489628730054
 31
0.0
  0
LINE
  5
264
330
1DE
100
AcDbEntity
  8
P-SANR-FIXT
100
AcDbLine
 10
797.0250011932032
 20
1353.189628730053
 30
0.0
 11
805.725001193203
 21
1344.489628730054
 31
0.0
  0
LINE
  5
265
330
1DE
100
AcDbEntity
  8
P-SANR-FIXT
100
AcDbLine
 10
625.7250011932012
 20
1377.339628730053
 30
0.0
 11
625.7250011932011
 21
1410.189628730053
 31
0.0
  0
LINE
  5
266
330
1DE
100
AcDbEntity
  8
P-SANR-FIXT
100
AcDbLine
 10
625.7250011932013
 20
1344.489628730053
 30
0.0
 11
625.7250011932012
 21
1377.339628730053
 31
0.0
  0
LINE
  5
267
330
1DE
100
AcDbEntity
  8
P-SANR-FIXT
100
AcDbLine
 10
634.4250011932008
 20
1401.489628730054
 30
0.0
 11
634.4250011932009
 21
1377.339628730053
 31
0.0
  0
LINE
  5
268
330
1DE
100
AcDbEntity
  8
P-SANR-FIXT
100
AcDbLine
 10
634.4250011932009
 20
1377.339628730053
 30
0.0
 11
634.425001193201
 21
1353.189628730052
 31
0.0
  0
LINE
  5
269
330
1DE
100
AcDbEntity
  8
P-SANR-FIXT
100
AcDbLine
 10
805.725001193201
 20
1410.189628730053
 30
0.0
 11
805.7250011932012
 21
1377.339628730054
 31
0.0
  0
LINE
  5
26A
330
1DE
100
AcDbEntity
  8
P-SANR-FIXT
100
AcDbLine
 10
805.7250011932012
 20
1377.339628730054
 30
0.0
 11
805.7250011932014
 21
1344.489628730054
 31
0.0
  0
LINE
  5
26B
330
1DE
100
AcDbEntity
  8
P-SANR-FIXT
100
AcDbLine
 10
797.0250011932014
 20
1401.489628730054
 30
0.0
 11
797.0250011932015
 21
1377.339628730054
 31
0.0
  0
LINE
  5
26C
330
1DE
100
AcDbEntity
  8
P-SANR-FIXT
100
AcDbLine
 10
797.0250011932015
 20
1377.339628730054
 30
0.0
 11
797.0250011932018
 21
1353.189628730053
 31
0.0
  0
ENDBLK
  5
26E
330
1DE
100
AcDbEntity
  8
0
100
AcDbBlockEnd
  0
BLOCK
  5
33F
330
270
100
AcDbEntity
  8
0
100
AcDbBlockBegin
  2
Automatic flow rate regulator valve_Caleffi_121 DN15 - 1_2__-V2-Est - Idraulica
 70
     0
 10
0.0
 20
0.0
 30
0.0
  3
Automatic flow rate regulator valve_Caleffi_121 DN15 - 1_2__-V2-Est - Idraulica
  1

  0
LINE
  5
271
330
270
100
AcDbEntity
  8
M-PIPE
100
AcDbLine
 10
1158.114353943136
 20
2227.482558850014
 30
0.0
 11
1158.114353943136
 21
2212.482558850041
 31
0.0
1001
REVIT
1002
{
1070
     3
1000
790271
1002
}
  0
LINE
  5
272
330
270
100
AcDbEntity
  8
M-PIPE
100
AcDbLine
 10
1186.114353943136
 20
2212.482558850041
 30
0.0
 11
1186.114353943136
 21
2227.482558850014
 31
0.0
1001
REVIT
1002
{
1070
     3
1000
790271
1002
}
  0
LINE
  5
273
330
270
100
AcDbEntity
  8
M-PIPE
100
AcDbLine
 10
1164.441416449096
 20
2227.482558850013
 30
0.0
 11
1165.80959383665
 21
2227.482558850013
 31
0.0
1001
REVIT
1002
{
1070
     3
1000
790271
1002
}
  0
LINE
  5
274
330
270
100
AcDbEntity
  8
M-PIPE
100
AcDbLine
 10
1178.419114049617
 20
2227.482558850013
 30
0.0
 11
1179.787291437225
 21
2227.482558850013
 31
0.0
1001
REVIT
1002
{
1070
     3
1000
790271
1002
}
  0
LINE
  5
275
330
270
100
AcDbEntity
  8
M-PIPE
100
AcDbLine
 10
1168.579290852372
 20
2212.48255885004
 30
0.0
 11
1165.80959383665
 21
2212.48255885004
 31
0.0
1001
REVIT
1002
{
1070
     3
1000
790271
1002
}
  0
LINE
  5
276
330
270
100
AcDbEntity
  8
M-PIPE
100
AcDbLine
 10
1164.441416449096
 20
2212.48255885004
 30
0.0
 11
1163.060116424655
 21
2212.48255885004
 31
0.0
1001
REVIT
1002
{
1070
     3
1000
790271
1002
}
  0
LINE
  5
277
330
270
100
AcDbEntity
  8
M-PIPE
100
AcDbLine
 10
1159.532192892893
 20
2212.48255885004
 30
0.0
 11
1158.136656342596
 21
2212.48255885004
 31
0.0
1001
REVIT
1002
{
1070
     3
1000
790271
1002
}
  0
LINE
  5
278
330
270
100
AcDbEntity
  8
M-PIPE
100
AcDbLine
 10
1186.092051543668
 20
2212.48255885004
 30
0.0
 11
1184.696514993243
 21
2212.48255885004
 31
0.0
1001
REVIT
1002
{
1070
     3
1000
790271
1002
}
  0
LINE
  5
279
330
270
100
AcDbEntity
  8
M-PIPE
100
AcDbLine
 10
1181.168591461749
 20
2212.48255885004
 30
0.0
 11
1179.787291437225
 21
2212.48255885004
 31
0.0
1001
REVIT
1002
{
1070
     3
1000
790271
1002
}
  0
LINE
  5
27A
330
270
100
AcDbEntity
  8
M-PIPE
100
AcDbLine
 10
1178.419114049617
 20
2212.48255885004
 30
0.0
 11
1175.649417033835
 21
2212.48255885004
 31
0.0
1001
REVIT
1002
{
1070
     3
1000
790271
1002
}
  0
LINE
  5
27B
330
270
100
AcDbEntity
  8
M-PIPE
100
AcDbLine
 10
1158.136656342596
 20
2212.48255885004
 30
0.0
 11
1158.114353943134
 21
2212.48255885004
 31
0.0
1001
REVIT
1002
{
1070
     3
1000
790271
1002
}
  0
LINE
  5
27C
330
270
100
AcDbEntity
  8
M-PIPE
100
AcDbLine
 10
1158.136656342596
 20
2212.48255885004
 30
0.0
 11
1158.136656342596
 21
2227.482558850013
 31
0.0
1001
REVIT
1002
{
1070
     3
1000
790271
1002
}
  0
LINE
  5
27D
330
270
100
AcDbEntity
  8
M-PIPE
100
AcDbLine
 10
1164.441416449096
 20
2227.482558850013
 30
0.0
 11
1164.441416449096
 21
2212.48255885004
 31
0.0
1001
REVIT
1002
{
1070
     3
1000
790271
1002
}
  0
LINE
  5
27E
330
270
100
AcDbEntity
  8
M-PIPE
100
AcDbLine
 10
1165.80959383665
 20
2212.48255885004
 30
0.0
 11
1164.441416449096
 21
2212.48255885004
 31
0.0
1001
REVIT
1002
{
1070
     3
1000
790271
1002
}
  0
LINE
  5
27F
330
270
100
AcDbEntity
  8
M-PIPE
100
AcDbLine
 10
1165.80959383665
 20
2212.48255885004
 30
0.0
 11
1165.80959383665
 21
2227.482558850013
 31
0.0
1001
REVIT
1002
{
1070
     3
1000
790271
1002
}
  0
LINE
  5
280
330
270
100
AcDbEntity
  8
M-PIPE
100
AcDbLine
 10
1178.419114049617
 20
2227.482558850013
 30
0.0
 11
1178.419114049617
 21
2212.48255885004
 31
0.0
1001
REVIT
1002
{
1070
     3
1000
790271
1002
}
  0
LINE
  5
281
330
270
100
AcDbEntity
  8
M-PIPE
100
AcDbLine
 10
1179.787291437225
 20
2212.48255885004
 30
0.0
 11
1178.419114049617
 21
2212.48255885004
 31
0.0
1001
REVIT
1002
{
1070
     3
1000
790271
1002
}
  0
LINE
  5
282
330
270
100
AcDbEntity
  8
M-PIPE
100
AcDbLine
 10
1179.787291437225
 20
2212.48255885004
 30
0.0
 11
1179.787291437225
 21
2227.482558850013
 31
0.0
1001
REVIT
1002
{
1070
     3
1000
790271
1002
}
  0
LINE
  5
283
330
270
100
AcDbEntity
  8
M-PIPE
100
AcDbLine
 10
1186.092051543668
 20
2227.482558850013
 30
0.0
 11
1186.092051543668
 21
2212.48255885004
 31
0.0
1001
REVIT
1002
{
1070
     3
1000
790271
1002
}
  0
LINE
  5
284
330
270
100
AcDbEntity
  8
M-PIPE
100
AcDbLine
 10
1186.114353943134
 20
2212.48255885004
 30
0.0
 11
1186.092051543668
 21
2212.48255885004
 31
0.0
1001
REVIT
1002
{
1070
     3
1000
790271
1002
}
  0
LINE
  5
285
330
270
100
AcDbEntity
  8
M-PIPE
100
AcDbLine
 10
1148.614353943136
 20
2286.98255885006
 30
0.0
 11
1148.614353943135
 21
2234.482558850029
 31
0.0
1001
REVIT
1002
{
1070
     3
1000
790271
1002
}
  0
LINE
  5
286
330
270
100
AcDbEntity
  8
M-PIPE
100
AcDbLine
 10
1195.614353943137
 20
2234.482558850027
 30
0.0
 11
1195.614353943138
 21
2286.98255885006
 31
0.0
1001
REVIT
1002
{
1070
     3
1000
790271
1002
}
  0
LINE
  5
287
330
270
100
AcDbEntity
  8
M-PIPE
100
AcDbLine
 10
1144.614353943137
 20
2296.48255885006
 30
0.0
 11
1144.614353943137
 21
2286.98255885006
 31
0.0
1001
REVIT
1002
{
1070
     3
1000
790271
1002
}
  0
LINE
  5
288
330
270
100
AcDbEntity
  8
M-PIPE
100
AcDbLine
 10
1199.614353943137
 20
2286.98255885006
 30
0.0
 11
1199.614353943137
 21
2296.48255885006
 31
0.0
1001
REVIT
1002
{
1070
     3
1000
790271
1002
}
  0
LINE
  5
289
330
270
100
AcDbEntity
  8
M-PIPE
100
AcDbLine
 10
1170.350943959597
 20
2227.482558850013
 30
0.0
 11
1159.877763926689
 21
2227.482558850013
 31
0.0
1001
REVIT
1002
{
1070
     3
1000
790271
1002
}
  0
LINE
  5
28A
330
270
100
AcDbEntity
  8
M-PIPE
100
AcDbLine
 10
1184.350943959553
 20
2227.482558850013
 30
0.0
 11
1173.877763926712
 21
2227.482558850013
 31
0.0
1001
REVIT
1002
{
1070
     3
1000
790271
1002
}
  0
LINE
  5
28B
330
270
100
AcDbEntity
  8
M-PIPE
100
AcDbLine
 10
1159.877763926689
 20
2227.482558850013
 30
0.0
 11
1158.11435394315
 21
2227.482558850013
 31
0.0
1001
REVIT
1002
{
1070
     3
1000
790271
1002
}
  0
LINE
  5
28C
330
270
100
AcDbEntity
  8
M-PIPE
100
AcDbLine
 10
1159.877763926689
 20
2227.482558850013
 30
0.0
 11
1159.877763926689
 21
2234.482558850015
 31
0.0
1001
REVIT
1002
{
1070
     3
1000
790271
1002
}
  0
LINE
  5
28D
330
270
100
AcDbEntity
  8
M-PIPE
100
AcDbLine
 10
1158.114353943151
 20
2234.482558850015
 30
0.0
 11
1158.11435394315
 21
2227.482558850013
 31
0.0
1001
REVIT
1002
{
1070
     3
1000
790271
1002
}
  0
LINE
  5
28E
330
270
100
AcDbEntity
  8
M-PIPE
100
AcDbLine
 10
1170.350943959598
 20
2234.482558850015
 30
0.0
 11
1170.350943959598
 21
2227.482558850013
 31
0.0
1001
REVIT
1002
{
1070
     3
1000
790271
1002
}
  0
LINE
  5
28F
330
270
100
AcDbEntity
  8
M-PIPE
100
AcDbLine
 10
1172.114353943134
 20
2227.482558850013
 30
0.0
 11
1170.350943959597
 21
2227.482558850013
 31
0.0
1001
REVIT
1002
{
1070
     3
1000
790271
1002
}
  0
LINE
  5
290
330
270
100
AcDbEntity
  8
M-PIPE
100
AcDbLine
 10
1173.877763926712
 20
2227.482558850013
 30
0.0
 11
1172.114353943134
 21
2227.482558850013
 31
0.0
1001
REVIT
1002
{
1070
     3
1000
790271
1002
}
  0
LINE
  5
291
330
270
100
AcDbEntity
  8
M-PIPE
100
AcDbLine
 10
1173.877763926712
 20
2227.482558850013
 30
0.0
 11
1173.877763926712
 21
2234.482558850015
 31
0.0
1001
REVIT
1002
{
1070
     3
1000
790271
1002
}
  0
LINE
  5
292
330
270
100
AcDbEntity
  8
M-PIPE
100
AcDbLine
 10
1186.11435394315
 20
2227.482558850013
 30
0.0
 11
1184.350943959553
 21
2227.482558850013
 31
0.0
1001
REVIT
1002
{
1070
     3
1000
790271
1002
}
  0
LINE
  5
293
330
270
100
AcDbEntity
  8
M-PIPE
100
AcDbLine
 10
1186.114353943151
 20
2227.482558850013
 30
0.0
 11
1186.114353943151
 21
2234.482558850015
 31
0.0
1001
REVIT
1002
{
1070
     3
1000
790271
1002
}
  0
LINE
  5
294
330
270
100
AcDbEntity
  8
M-PIPE
100
AcDbLine
 10
1184.350943959553
 20
2234.482558850015
 30
0.0
 11
1184.350943959553
 21
2227.482558850013
 31
0.0
1001
REVIT
1002
{
1070
     3
1000
790271
1002
}
  0
LINE
  5
295
330
270
100
AcDbEntity
  8
M-PIPE
100
AcDbLine
 10
1172.114353943134
 20
2234.482558850027
 30
0.0
 11
1148.614353943133
 21
2234.482558850027
 31
0.0
1001
REVIT
1002
{
1070
     3
1000
790271
1002
}
  0
LINE
  5
296
330
270
100
AcDbEntity
  8
M-PIPE
100
AcDbLine
 10
1195.614353943135
 20
2234.482558850027
 30
0.0
 11
1172.114353943134
 21
2234.482558850027
 31
0.0
1001
REVIT
1002
{
1070
     3
1000
790271
1002
}
  0
LINE
  5
297
330
270
100
AcDbEntity
  8
M-PIPE
100
AcDbLine
 10
1144.614353943135
 20
2296.482558850059
 30
0.0
 11
1172.114353943134
 21
2296.482558850059
 31
0.0
1001
REVIT
1002
{
1070
     3
1000
790271
1002
}
  0
LINE
  5
298
330
270
100
AcDbEntity
  8
M-PIPE
100
AcDbLine
 10
1172.114353943135
 20
2296.482558850059
 30
0.0
 11
1199.614353943134
 21
2296.482558850058
 31
0.0
1001
REVIT
1002
{
1070
     3
1000
790271
1002
}
  0
LINE
  5
299
330
270
100
AcDbEntity
  8
M-PIPE
100
AcDbLine
 10
1144.614353943134
 20
2286.982558850059
 30
0.0
 11
1172.114353943134
 21
2286.982558850059
 31
0.0
1001
REVIT
1002
{
1070
     3
1000
790271
1002
}
  0
LINE
  5
29A
330
270
100
AcDbEntity
  8
M-PIPE
100
AcDbLine
 10
1172.114353943135
 20
2286.982558850059
 30
0.0
 11
1199.614353943134
 21
2286.982558850058
 31
0.0
1001
REVIT
1002
{
1070
     3
1000
790271
1002
}
  0
LINE
  5
29B
330
270
100
AcDbEntity
  8
M-PIPE
100
AcDbLine
 10
1164.864353943137
 20
2299.48255885006
 30
0.0
 11
1164.864353943137
 21
2296.48255885006
 31
0.0
1001
REVIT
1002
{
1070
     3
1000
790271
1002
}
  0
LINE
  5
29C
330
270
100
AcDbEntity
  8
M-PIPE
100
AcDbLine
 10
1179.364353943137
 20
2296.48255885006
 30
0.0
 11
1179.364353943137
 21
2299.48255885006
 31
0.0
1001
REVIT
1002
{
1070
     3
1000
790271
1002
}
  0
LINE
  5
29D
330
270
100
AcDbEntity
  8
M-PIPE
100
AcDbLine
 10
1167.614353943137
 20
2307.868524957245
 30
0.0
 11
1167.614353943137
 21
2299.48255885006
 31
0.0
1001
REVIT
1002
{
1070
     3
1000
790271
1002
}
  0
LINE
  5
29E
330
270
100
AcDbEntity
  8
M-PIPE
100
AcDbLine
 10
1176.614353943137
 20
2299.48255885006
 30
0.0
 11
1176.614353943137
 21
2307.868524957245
 31
0.0
1001
REVIT
1002
{
1070
     3
1000
790271
1002
}
  0
LINE
  5
29F
330
270
100
AcDbEntity
  8
M-PIPE
100
AcDbLine
 10
1172.114353943135
 20
2299.482558850058
 30
0.0
 11
1164.864353943134
 21
2299.482558850058
 31
0.0
1001
REVIT
1002
{
1070
     3
1000
790271
1002
}
  0
LINE
  5
2A0
330
270
100
AcDbEntity
  8
M-PIPE
100
AcDbLine
 10
1179.364353943135
 20
2299.482558850058
 30
0.0
 11
1172.114353943135
 21
2299.482558850058
 31
0.0
1001
REVIT
1002
{
1070
     3
1000
790271
1002
}
  0
LINE
  5
2A1
330
270
100
AcDbEntity
  8
M-PIPE
100
AcDbLine
 10
1166.114353943137
 20
2318.982558850072
 30
0.0
 11
1166.114353943137
 21
2307.868524957245
 31
0.0
1001
REVIT
1002
{
1070
     3
1000
790271
1002
}
  0
LINE
  5
2A2
330
270
100
AcDbEntity
  8
M-PIPE
100
AcDbLine
 10
1178.114353943137
 20
2307.868524957245
 30
0.0
 11
1178.114353943137
 21
2318.982558850072
 31
0.0
1001
REVIT
1002
{
1070
     3
1000
790271
1002
}
  0
LINE
  5
2A3
330
270
100
AcDbEntity
  8
M-PIPE
100
AcDbLine
 10
1172.114353943135
 20
2318.982558850071
 30
0.0
 11
1166.114353943135
 21
2318.982558850072
 31
0.0
1001
REVIT
1002
{
1070
     3
1000
790271
1002
}
  0
LINE
  5
2A4
330
270
100
AcDbEntity
  8
M-PIPE
100
AcDbLine
 10
1178.114353943135
 20
2318.982558850071
 30
0.0
 11
1172.114353943135
 21
2318.982558850071
 31
0.0
1001
REVIT
1002
{
1070
     3
1000
790271
1002
}
  0
LINE
  5
2A5
330
270
100
AcDbEntity
  8
M-PIPE
100
AcDbLine
 10
1166.114353943135
 20
2307.868524957244
 30
0.0
 11
1172.114353943135
 21
2307.868524957244
 31
0.0
1001
REVIT
1002
{
1070
     3
1000
790271
1002
}
  0
LINE
  5
2A6
330
270
100
AcDbEntity
  8
M-PIPE
100
AcDbLine
 10
1172.114353943135
 20
2307.868524957244
 30
0.0
 11
1178.114353943135
 21
2307.868524957244
 31
0.0
1001
REVIT
1002
{
1070
     3
1000
790271
1002
}
  0
LINE
  5
2A7
330
270
100
AcDbEntity
  8
M-PIPE
100
AcDbLine
 10
1161.114353943099
 20
1633.980758391859
 30
0.0
 11
1162.79593135243
 21
1633.980758391859
 31
0.0
1001
REVIT
1002
{
1070
     3
1000
790271
1002
}
  0
LINE
  5
2A8
330
270
100
AcDbEntity
  8
M-PIPE
100
AcDbLine
 10
1181.432776533769
 20
1633.98075839186
 30
0.0
 11
1183.1143539431
 21
1633.98075839186
 31
0.0
1001
REVIT
1002
{
1070
     3
1000
790271
1002
}
  0
LINE
  5
2A9
330
270
100
AcDbEntity
  8
M-PIPE
100
AcDbLine
 10
1183.114353943099
 20
1648.98075839186
 30
0.0
 11
1179.617222191783
 21
1648.98075839186
 31
0.0
1001
REVIT
1002
{
1070
     3
1000
790271
1002
}
  0
LINE
  5
2AA
330
270
100
AcDbEntity
  8
M-PIPE
100
AcDbLine
 10
1164.611485694416
 20
1648.98075839186
 30
0.0
 11
1161.114353943099
 21
1648.98075839186
 31
0.0
1001
REVIT
1002
{
1070
     3
1000
790271
1002
}
  0
LINE
  5
2AB
330
270
100
AcDbEntity
  8
M-PIPE
100
AcDbLine
 10
1183.114353943097
 20
1635.980758391859
 30
0.0
 11
1183.114353943097
 21
1633.980758391859
 31
0.0
1001
REVIT
1002
{
1070
     3
1000
790271
1002
}
  0
LINE
  5
2AC
330
270
100
AcDbEntity
  8
M-PIPE
100
AcDbLine
 10
1183.114353943097
 20
1648.98075839186
 30
0.0
 11
1183.114353943097
 21
1646.980758391859
 31
0.0
1001
REVIT
1002
{
1070
     3
1000
790271
1002
}
  0
LINE
  5
2AD
330
270
100
AcDbEntity
  8
M-PIPE
100
AcDbLine
 10
1183.114353943097
 20
1646.980758391859
 30
0.0
 11
1183.114353943097
 21
1641.480758391859
 31
0.0
1001
REVIT
1002
{
1070
     3
1000
790271
1002
}
  0
LINE
  5
2AE
330
270
100
AcDbEntity
  8
M-PIPE
100
AcDbLine
 10
1183.114353943097
 20
1641.480758391859
 30
0.0
 11
1183.114353943097
 21
1635.980758391859
 31
0.0
1001
REVIT
1002
{
1070
     3
1000
790271
1002
}
  0
LINE
  5
2AF
330
270
100
AcDbEntity
  8
M-PIPE
100
AcDbLine
 10
1161.114353943097
 20
1635.980758391859
 30
0.0
 11
1161.114353943097
 21
1641.480758391859
 31
0.0
1001
REVIT
1002
{
1070
     3
1000
790271
1002
}
  0
LINE
  5
2B0
330
270
100
AcDbEntity
  8
M-PIPE
100
AcDbLine
 10
1161.114353943097
 20
1641.480758391859
 30
0.0
 11
1161.114353943097
 21
1646.980758391859
 31
0.0
1001
REVIT
1002
{
1070
     3
1000
790271
1002
}
  0
LINE
  5
2B1
330
270
100
AcDbEntity
  8
M-PIPE
100
AcDbLine
 10
1161.114353943097
 20
1646.980758391859
 30
0.0
 11
1161.114353943097
 21
1648.980758391859
 31
0.0
1001
REVIT
1002
{
1070
     3
1000
790271
1002
}
  0
LINE
  5
2B2
330
270
100
AcDbEntity
  8
M-PIPE
100
AcDbLine
 10
1161.114353943097
 20
1633.980758391859
 30
0.0
 11
1161.114353943097
 21
1635.980758391859
 31
0.0
1001
REVIT
1002
{
1070
     3
1000
790271
1002
}
  0
LINE
  5
2B3
330
270
100
AcDbEntity
  8
M-PIPE
100
AcDbLine
 10
1161.664353943081
 20
1657.48255885001
 30
0.0
 11
1161.664353943081
 21
1654.980758391905
 31
0.0
1001
REVIT
1002
{
1070
     3
1000
790271
1002
}
  0
LINE
  5
2B4
330
270
100
AcDbEntity
  8
M-PIPE
100
AcDbLine
 10
1182.564353943117
 20
1654.980758391905
 30
0.0
 11
1182.564353943117
 21
1657.48255885001
 31
0.0
1001
REVIT
1002
{
1070
     3
1000
790271
1002
}
  0
LINE
  5
2B5
330
270
100
AcDbEntity
  8
M-PIPE
100
AcDbLine
 10
1161.664353943139
 20
1654.980758391905
 30
0.0
 11
1162.614353943099
 21
1654.030758391945
 31
0.0
1001
REVIT
1002
{
1070
     3
1000
790271
1002
}
  0
LINE
  5
2B6
330
270
100
AcDbEntity
  8
M-PIPE
100
AcDbLine
 10
1181.614353943099
 20
1654.030758391946
 30
0.0
 11
1182.564353943059
 21
1654.980758391905
 31
0.0
1001
REVIT
1002
{
1070
     3
1000
790271
1002
}
  0
LINE
  5
2B7
330
270
100
AcDbEntity
  8
M-PIPE
100
AcDbLine
 10
1162.614353943099
 20
1654.030758391945
 30
0.0
 11
1162.614353943099
 21
1648.980758391905
 31
0.0
1001
REVIT
1002
{
1070
     3
1000
790271
1002
}
  0
LINE
  5
2B8
330
270
100
AcDbEntity
  8
M-PIPE
100
AcDbLine
 10
1181.614353943099
 20
1648.980758391905
 30
0.0
 11
1181.614353943099
 21
1654.030758391946
 31
0.0
1001
REVIT
1002
{
1070
     3
1000
790271
1002
}
  0
LINE
  5
2B9
330
270
100
AcDbEntity
  8
M-PIPE
100
AcDbLine
 10
1161.131992033259
 20
1647.498396482065
 30
0.0
 11
1161.114353943099
 21
1647.480758391905
 31
0.0
1001
REVIT
1002
{
1070
     3
1000
790271
1002
}
  0
LINE
  5
2BA
330
270
100
AcDbEntity
  8
M-PIPE
100
AcDbLine
 10
1183.114353943099
 20
1647.480758391905
 30
0.0
 11
1183.096715852939
 21
1647.498396482065
 31
0.0
1001
REVIT
1002
{
1070
     3
1000
790271
1002
}
  0
LINE
  5
2BB
330
270
100
AcDbEntity
  8
M-PIPE
100
AcDbLine
 10
1161.114353943099
 20
1633.980758391859
 30
0.0
 11
1161.114353943099
 21
1627.880758391902
 31
0.0
1001
REVIT
1002
{
1070
     3
1000
790271
1002
}
  0
LINE
  5
2BC
330
270
100
AcDbEntity
  8
M-PIPE
100
AcDbLine
 10
1183.1143539431
 20
1627.880758391902
 30
0.0
 11
1183.1143539431
 21
1633.98075839186
 31
0.0
1001
REVIT
1002
{
1070
     3
1000
790271
1002
}
  0
LINE
  5
2BD
330
270
100
AcDbEntity
  8
M-PIPE
100
AcDbLine
 10
1158.114353943099
 20
1627.880758391902
 30
0.0
 11
1158.114353943099
 21
1619.380758391901
 31
0.0
1001
REVIT
1002
{
1070
     3
1000
790271
1002
}
  0
LINE
  5
2BE
330
270
100
AcDbEntity
  8
M-PIPE
100
AcDbLine
 10
1186.1143539431
 20
1619.380758391902
 30
0.0
 11
1186.1143539431
 21
1627.880758391902
 31
0.0
1001
REVIT
1002
{
1070
     3
1000
790271
1002
}
  0
LINE
  5
2BF
330
270
100
AcDbEntity
  8
M-PIPE
100
AcDbLine
 10
1164.814353943099
 20
1619.380758391901
 30
0.0
 11
1164.814353943099
 21
1599.980758391838
 31
0.0
1001
REVIT
1002
{
1070
     3
1000
790271
1002
}
  0
LINE
  5
2C0
330
270
100
AcDbEntity
  8
M-PIPE
100
AcDbLine
 10
1179.414353943101
 20
1599.980758391838
 30
0.0
 11
1179.4143539431
 21
1619.380758391901
 31
0.0
1001
REVIT
1002
{
1070
     3
1000
790271
1002
}
  0
LINE
  5
2C1
330
270
100
AcDbEntity
  8
M-PIPE
100
AcDbLine
 10
1161.664353943137
 20
1654.980758391904
 30
0.0
 11
1169.611923763486
 21
1654.980758391905
 31
0.0
1001
REVIT
1002
{
1070
     3
1000
790271
1002
}
  0
LINE
  5
2C2
330
270
100
AcDbEntity
  8
M-PIPE
100
AcDbLine
 10
1174.616784122707
 20
1654.980758391905
 30
0.0
 11
1182.564353943056
 21
1654.980758391905
 31
0.0
1001
REVIT
1002
{
1070
     3
1000
790271
1002
}
  0
LINE
  5
2C3
330
270
100
AcDbEntity
  8
M-PIPE
100
AcDbLine
 10
1162.614353943096
 20
1654.030758391945
 30
0.0
 11
1169.613523038003
 21
1654.030758391945
 31
0.0
1001
REVIT
1002
{
1070
     3
1000
790271
1002
}
  0
LINE
  5
2C4
330
270
100
AcDbEntity
  8
M-PIPE
100
AcDbLine
 10
1174.615184848191
 20
1654.030758391945
 30
0.0
 11
1181.614353943097
 21
1654.030758391945
 31
0.0
1001
REVIT
1002
{
1070
     3
1000
790271
1002
}
  0
LINE
  5
2C5
330
270
100
AcDbEntity
  8
M-PIPE
100
AcDbLine
 10
1164.374875409562
 20
1648.980758391904
 30
0.0
 11
1168.705525624283
 21
1648.980758391904
 31
0.0
1001
REVIT
1002
{
1070
     3
1000
790271
1002
}
  0
LINE
  5
2C6
330
270
100
AcDbEntity
  8
M-PIPE
100
AcDbLine
 10
1175.52318226191
 20
1648.980758391904
 30
0.0
 11
1179.853832476632
 21
1648.980758391904
 31
0.0
1001
REVIT
1002
{
1070
     3
1000
790271
1002
}
  0
LINE
  5
2C7
330
270
100
AcDbEntity
  8
M-PIPE
100
AcDbLine
 10
1164.0108852008
 20
1647.480758391904
 30
0.0
 11
1166.461352589239
 21
1647.480758391904
 31
0.0
1001
REVIT
1002
{
1070
     3
1000
790271
1002
}
  0
LINE
  5
2C8
330
270
100
AcDbEntity
  8
M-PIPE
100
AcDbLine
 10
1177.767355296954
 20
1647.480758391905
 30
0.0
 11
1180.217822685394
 21
1647.480758391905
 31
0.0
1001
REVIT
1002
{
1070
     3
1000
790271
1002
}
  0
LINE
  5
2C9
330
270
100
AcDbEntity
  8
M-PIPE
100
AcDbLine
 10
1158.114353943097
 20
1627.880758391901
 30
0.0
 11
1172.114353943097
 21
1627.880758391901
 31
0.0
1001
REVIT
1002
{
1070
     3
1000
790271
1002
}
  0
LINE
  5
2CA
330
270
100
AcDbEntity
  8
M-PIPE
100
AcDbLine
 10
1172.114353943097
 20
1627.880758391901
 30
0.0
 11
1186.114353943098
 21
1627.880758391901
 31
0.0
1001
REVIT
1002
{
1070
     3
1000
790271
1002
}
  0
LINE
  5
2CB
330
270
100
AcDbEntity
  8
M-PIPE
100
AcDbLine
 10
1158.114353943097
 20
1619.380758391901
 30
0.0
 11
1172.114353943097
 21
1619.380758391901
 31
0.0
1001
REVIT
1002
{
1070
     3
1000
790271
1002
}
  0
LINE
  5
2CC
330
270
100
AcDbEntity
  8
M-PIPE
100
AcDbLine
 10
1172.114353943097
 20
1619.380758391901
 30
0.0
 11
1186.114353943098
 21
1619.380758391901
 31
0.0
1001
REVIT
1002
{
1070
     3
1000
790271
1002
}
  0
LINE
  5
2CD
330
270
100
AcDbEntity
  8
M-PIPE
100
AcDbLine
 10
1164.814353943097
 20
1599.980758391837
 30
0.0
 11
1172.114353943097
 21
1599.980758391837
 31
0.0
1001
REVIT
1002
{
1070
     3
1000
790271
1002
}
  0
LINE
  5
2CE
330
270
100
AcDbEntity
  8
M-PIPE
100
AcDbLine
 10
1172.114353943098
 20
1599.980758391837
 30
0.0
 11
1179.414353943098
 21
1599.980758391837
 31
0.0
1001
REVIT
1002
{
1070
     3
1000
790271
1002
}
  0
LINE
  5
2CF
330
270
100
AcDbEntity
  8
M-PIPE
100
AcDbLine
 10
1169.614353943096
 20
1645.656020650956
 30
0.0
 11
1169.614353943097
 21
1664.480758392049
 31
0.0
1001
REVIT
1002
{
1070
     3
1000
790271
1002
}
  0
LINE
  5
2D0
330
270
100
AcDbEntity
  8
M-PIPE
100
AcDbLine
 10
1174.614353943097
 20
1664.480758392049
 30
0.0
 11
1174.614353943097
 21
1645.656020650956
 31
0.0
1001
REVIT
1002
{
1070
     3
1000
790271
1002
}
  0
LINE
  5
2D1
330
270
100
AcDbEntity
  8
M-PIPE
100
AcDbLine
 10
1174.614353943097
 20
1664.480758392049
 30
0.0
 11
1169.614353943097
 21
1664.480758392049
 31
0.0
1001
REVIT
1002
{
1070
     3
1000
790271
1002
}
  0
ARC
  5
2D2
330
270
100
AcDbEntity
  8
M-PIPE
100
AcDbCircle
 10
1172.114353943097
 20
1641.480758391922
 30
0.0
 40
8.250000000126618
100
AcDbArc
 50
269.9999999999997
 51
72.32300428111898
1001
REVIT
1002
{
1070
     3
1000
790271
1002
}
  0
ARC
  5
2D3
330
270
100
AcDbEntity
  8
M-PIPE
100
AcDbCircle
 10
1172.114353943097
 20
1641.480758391922
 30
0.0
 40
8.250000000126306
100
AcDbArc
 50
107.6769957188805
 51
269.9999999999988
1001
REVIT
1002
{
1070
     3
1000
790271
1002
}
  0
ARC
  5
2D4
330
270
100
AcDbEntity
  8
M-PIPE
100
AcDbCircle
 10
1172.114353943097
 20
1641.480758391922
 30
0.0
 40
4.5
100
AcDbArc
 50
269.9999999999997
 51
90.0
1001
REVIT
1002
{
1070
     3
1000
790271
1002
}
  0
ARC
  5
2D5
330
270
100
AcDbEntity
  8
M-PIPE
100
AcDbCircle
 10
1172.114353943097
 20
1641.480758391922
 30
0.0
 40
4.5
100
AcDbArc
 50
90.0
 51
269.9999999999997
1001
REVIT
1002
{
1070
     3
1000
790271
1002
}
  0
LINE
  5
2D6
330
270
100
AcDbEntity
  8
M-PIPE
100
AcDbLine
 10
1170.337246681692
 20
1633.440629888242
 30
0.0
 11
1170.337246681692
 21
1632.480758391859
 31
0.0
1001
REVIT
1002
{
1070
     3
1000
790271
1002
}
  0
LINE
  5
2D7
330
270
100
AcDbEntity
  8
M-PIPE
100
AcDbLine
 10
1170.337246681692
 20
1632.480758391859
 30
0.0
 11
1173.837246681692
 21
1632.480758391859
 31
0.0
1001
REVIT
1002
{
1070
     3
1000
790271
1002
}
  0
LINE
  5
2D8
330
270
100
AcDbEntity
  8
M-PIPE
100
AcDbLine
 10
1173.837246681692
 20
1632.480758391859
 30
0.0
 11
1173.837246681692
 21
1633.429845949163
 31
0.0
1001
REVIT
1002
{
1070
     3
1000
790271
1002
}
  0
ARC
  5
2D9
330
270
100
AcDbEntity
  8
P-SANR-FIXT
100
AcDbCircle
 10
1172.114353943103
 20
1834.982558850011
 30
0.0
 40
40.00000000002607
100
AcDbArc
 50
218.7355604569703
 51
261.2644395430308
  0
ARC
  5
2DA
330
270
100
AcDbEntity
  8
P-SANR-FIXT
100
AcDbCircle
 10
1172.114353943103
 20
1834.982558850011
 30
0.0
 40
40.00000000002607
100
AcDbArc
 50
158.735560456914
 51
201.2644395430861
  0
ARC
  5
2DB
330
270
100
AcDbEntity
  8
P-SANR-FIXT
100
AcDbCircle
 10
1172.114353943103
 20
1834.982558850011
 30
0.0
 40
40.00000000002581
100
AcDbArc
 50
98.73556045697283
 51
141.2644395430288
  0
ARC
  5
2DC
330
270
100
AcDbEntity
  8
P-SANR-FIXT
100
AcDbCircle
 10
1172.114353943103
 20
2094.98255885001
 30
0.0
 40
40.00000000002602
100
AcDbArc
 50
218.7355604569715
 51
261.2644395430292
  0
ARC
  5
2DD
330
270
100
AcDbEntity
  8
P-SANR-FIXT
100
AcDbCircle
 10
1172.114353943103
 20
2094.98255885001
 30
0.0
 40
40.00000000002607
100
AcDbArc
 50
158.7355604569148
 51
201.2644395430868
  0
ARC
  5
2DE
330
270
100
AcDbEntity
  8
P-SANR-FIXT
100
AcDbCircle
 10
1172.114353943103
 20
2094.98255885001
 30
0.0
 40
40.00000000002578
100
AcDbArc
 50
98.73556045697139
 51
141.2644395430305
  0
LWPOLYLINE
  5
2DF
330
270
100
AcDbEntity
  8
P-SANR-FIXT
100
AcDbPolyline
 90
       41
 70
   128
 43
0.0
 10
1142.114353943107
 20
1672.482558850011
 10
1140.314833904708
 20
1672.518554050267
 10
1138.518192714494
 20
1672.626482066393
 10
1136.727304615105
 20
1672.806170236587
 10
1134.945034645466
 20
1673.057331098108
 10
1133.174234057329
 20
1673.379562847155
 10
1131.417735753886
 20
1673.77234998167
 10
1129.678349757721
 20
1674.235064126026
 10
1127.958858715381
 20
1674.766965036301
 10
1126.262013445727
 20
1675.367201784504
 10
1124.590528539217
 20
1676.034814119881
 10
1122.947078015136
 20
1676.768734005112
 10
1121.33429104374
 20
1677.567787324943
 10
1119.754747740139
 20
1678.430695764516
 10
1118.210975036667
 20
1679.356078854407
 10
1116.70544264033
 20
1680.342456179075
 10
1115.240559081799
 20
1681.388249745217
 10
1113.818667862275
 20
1682.491786506219
 10
1112.44204370439
 20
1683.65130103867
 10
1111.112888913132
 20
1684.86493836667
 10
1109.833329852628
 20
1686.130756929388
 10
1108.605413544418
 20
1687.446731687152
 10
1107.431104392653
 20
1688.810757361074
 10
1106.31228104147
 20
1690.220651801055
 10
1105.250733369562
 20
1691.67415947675
 10
1104.248159626751
 20
1693.168955085944
 10
1103.306163717156
 20
1694.702647274535
 10
1102.426252633284
 20
1696.272782462192
 10
1101.609834045164
 20
1697.876848767559
 10
1100.858214048377
 20
1699.512280026728
 10
1100.172595074581
 20
1701.17645989856
 10
1099.554073967877
 20
1702.866726050266
 10
1099.003640230091
 20
1704.580374416573
 10
1098.522174437784
 20
1706.314663525654
 10
1098.110446833517
 20
1708.066818884897
 10
1097.769116093625
 20
1709.8340374195
 10
1097.498728274481
 20
1711.613491956794
 10
1097.299715938913
 20
1713.402335749117
 10
1097.172397464205
 20
1715.197707028
 10
1097.116976532758
 20
1716.996733582389
 10
1097.114353943106
 20
1717.482558850011
  0
LWPOLYLINE
  5
2E0
330
270
100
AcDbEntity
  8
P-SANR-FIXT
100
AcDbPolyline
 90
       30
 70
   128
 43
0.0
 10
1159.1143539431
 20
1672.482558850011
 10
1158.260978676861
 20
1672.482558850011
 10
1157.207949807794
 20
1672.482558850011
 10
1156.178768005479
 20
1672.482558850011
 10
1155.175079741255
 20
1672.482558850011
 10
1154.198490702234
 20
1672.482558850011
 10
1153.250563222552
 20
1672.482558850011
 10
1152.332813783962
 20
1672.482558850011
 10
1151.44671058979
 20
1672.482558850011
 10
1150.59367121612
 20
1672.482558850011
 10
1149.77506034398
 20
1672.482558850011
 10
1148.992187576137
 20
1672.482558850011
 10
1148.246305342015
 20
1672.482558850011
 10
1147.538606894076
 20
1672.482558850011
 10
1146.870224398869
 20
1672.482558850011
 10
1146.242227125806
 20
1672.482558850011
 10
1145.655619736558
 20
1672.482558850011
 10
1145.111340677811
 20
1672.482558850011
 10
1144.610260679953
 20
1672.482558850011
 10
1144.153181364089
 20
1672.482558850011
 10
1143.74083395962
 20
1672.482558850011
 10
1143.373878134429
 20
1672.482558850011
 10
1143.052900939558
 20
1672.482558850011
 10
1142.778415870046
 20
1672.482558850011
 10
1142.550862043452
 20
1672.482558850011
 10
1142.370603497355
 20
1672.482558850011
 10
1142.237928606977
 20
1672.482558850011
 10
1142.153049623839
 20
1672.482558850011
 10
1142.116102336207
 20
1672.482558850011
 10
1142.114353943106
 20
1672.482558850011
  0
LWPOLYLINE
  5
2E1
330
270
100
AcDbEntity
  8
P-SANR-FIXT
100
AcDbPolyline
 90
       41
 70
   128
 43
0.0
 10
1142.114353943106
 20
1672.482558850011
 10
1142.138350743277
 20
1672.482558850011
 10
1142.210302754028
 20
1672.482558850011
 10
1142.33009486749
 20
1672.482558850011
 10
1142.497535441838
 20
1672.482558850011
 10
1142.712356607869
 20
1672.482558850011
 10
1142.974214697545
 20
1672.482558850011
 10
1143.282690793783
 20
1672.482558850011
 10
1143.637291400633
 20
1672.482558850011
 10
1144.037449232768
 20
1672.482558850011
 10
1144.482524123019
 20
1672.482558850011
 10
1144.971804046507
 20
1672.482558850011
 10
1145.504506259728
 20
1672.482558850011
 10
1146.079778552776
 20
1672.482558850011
 10
1146.696700612704
 20
1672.482558850011
 10
1147.354285495816
 20
1672.482558850011
 10
1148.051481206577
 20
1672.482558850011
 10
1148.787172380578
 20
1672.482558850011
 10
1149.560182068879
 20
1672.482558850011
 10
1150.369273620879
 20
1672.482558850011
 10
1151.213152662691
 20
1672.482558850011
 10
1152.090469167867
 20
1672.482558850011
 10
1152.999819617149
 20
1672.482558850011
 10
1153.939749243802
 20
1672.482558850011
 10
1154.908754360932
 20
1672.482558850011
 10
1155.905284767062
 20
1672.482558850011
 10
1156.927746226123
 20
1672.482558850011
 10
1157.974503017894
 20
1672.482558850011
 10
1159.043880554805
 20
1672.482558850011
 10
1160.134168060918
 20
1672.482558850011
 10
1161.243621308805
 20
1672.482558850011
 10
1162.370465409942
 20
1672.482558850011
 10
1163.512897654147
 20
1672.482558850011
 10
1164.669090393534
 20
1672.482558850011
 10
1165.837193966363
 20
1672.482558850011
 10
1167.015339656099
 20
1672.482558850011
 10
1168.201642680961
 20
1672.482558850011
 10
1169.394205209177
 20
1672.482558850011
 10
1170.591119395098
 20
1672.482558850011
 10
1171.790470431358
 20
1672.482558850011
 10
1172.114353943105
 20
1672.482558850011
  0
LINE
  5
2E2
330
270
100
AcDbEntity
  8
P-SANR-FIXT
100
AcDbLine
 10
1097.114353943105
 20
2157.482558850011
 30
0.0
 11
1097.114353943105
 21
1717.482558850011
 31
0.0
  0
LWPOLYLINE
  5
2E3
330
270
100
AcDbEntity
  8
P-SANR-FIXT
100
AcDbPolyline
 90
       41
 70
   128
 43
0.0
 10
1097.114353943106
 20
2157.482558850011
 10
1097.150349143361
 20
2159.28207888841
 10
1097.258277159488
 20
2161.078720078624
 10
1097.437965329681
 20
2162.869608178013
 10
1097.689126191202
 20
2164.651878147653
 10
1098.01135794025
 20
2166.422678735789
 10
1098.404145074764
 20
2168.179177039232
 10
1098.866859219121
 20
2169.918563035396
 10
1099.398760129395
 20
2171.638054077737
 10
1099.998996877598
 20
2173.33489934739
 10
1100.666609212976
 20
2175.006384253901
 10
1101.400529098207
 20
2176.649834777981
 10
1102.199582418037
 20
2178.262621749378
 10
1103.062490857611
 20
2179.84216505298
 10
1103.987873947501
 20
2181.385937756451
 10
1104.97425127217
 20
2182.891470152788
 10
1106.020044838312
 20
2184.356353711319
 10
1107.123581599313
 20
2185.778244930842
 10
1108.283096131765
 20
2187.154869088728
 10
1109.496733459764
 20
2188.484023879986
 10
1110.762552022483
 20
2189.76358294049
 10
1112.078526780246
 20
2190.9914992487
 10
1113.442552454169
 20
2192.165808400465
 10
1114.852446894149
 20
2193.284631751648
 10
1116.305954569845
 20
2194.346179423556
 10
1117.800750179039
 20
2195.348753166367
 10
1119.33444236763
 20
2196.290749075962
 10
1120.904577555287
 20
2197.170660159835
 10
1122.508643860653
 20
2197.987078747955
 10
1124.144075119823
 20
2198.738698744741
 10
1125.808254991655
 20
2199.424317718537
 10
1127.49852114336
 20
2200.042838825241
 10
1129.212169509667
 20
2200.593272563027
 10
1130.946458618748
 20
2201.074738355333
 10
1132.698613977991
 20
2201.486465959601
 10
1134.465832512594
 20
2201.827796699492
 10
1136.245287049889
 20
2202.098184518638
 10
1138.034130842211
 20
2202.297196854205
 10
1139.829502121094
 20
2202.424515328913
 10
1141.628528675483
 20
2202.47993626036
 10
1142.114353943105
 20
2202.482558850012
  0
LWPOLYLINE
  5
2E4
330
270
100
AcDbEntity
  8
P-SANR-FIXT
100
AcDbPolyline
 90
       41
 70
   128
 43
0.0
 10
1172.114353943106
 20
2202.482558850012
 10
1170.914673917506
 20
2202.482558850012
 10
1169.716913124031
 20
2202.482558850012
 10
1168.522987724438
 20
2202.482558850012
 10
1167.334807744678
 20
2202.482558850012
 10
1166.154274019254
 20
2202.482558850012
 10
1164.983275150291
 20
2202.482558850012
 10
1163.823684486182
 20
2202.482558850012
 10
1162.677357124622
 20
2202.482558850012
 10
1161.546126944853
 20
2202.482558850012
 10
1160.431803673846
 20
2202.482558850012
 10
1159.336169991125
 20
2202.482558850012
 10
1158.260978676861
 20
2202.482558850012
 10
1157.207949807793
 20
2202.482558850012
 10
1156.178768005479
 20
2202.482558850012
 10
1155.175079741254
 20
2202.482558850012
 10
1154.198490702234
 20
2202.482558850012
 10
1153.250563222552
 20
2202.482558850012
 10
1152.332813783961
 20
2202.482558850012
 10
1151.446710589789
 20
2202.482558850012
 10
1150.59367121612
 20
2202.482558850012
 10
1149.77506034398
 20
2202.482558850012
 10
1148.992187576136
 20
2202.482558850012
 10
1148.246305342014
 20
2202.482558850012
 10
1147.538606894076
 20
2202.482558850012
 10
1146.870224398869
 20
2202.482558850012
 10
1146.242227125805
 20
2202.482558850012
 10
1145.655619736557
 20
2202.482558850012
 10
1145.11134067781
 20
2202.482558850012
 10
1144.610260679952
 20
2202.482558850012
 10
1144.153181364089
 20
2202.482558850012
 10
1143.740833959619
 20
2202.482558850012
 10
1143.373878134429
 20
2202.482558850012
 10
1143.052900939557
 20
2202.482558850012
 10
1142.778415870046
 20
2202.482558850012
 10
1142.550862043452
 20
2202.482558850012
 10
1142.370603497355
 20
2202.482558850012
 10
1142.237928606976
 20
2202.482558850012
 10
1142.153049623838
 20
2202.482558850012
 10
1142.116102336206
 20
2202.482558850012
 10
1142.114353943105
 20
2202.482558850012
  0
LWPOLYLINE
  5
2E5
330
270
100
AcDbEntity
  8
P-SANR-FIXT
100
AcDbPolyline
 90
       30
 70
   128
 43
0.0
 10
1142.114353943105
 20
2202.482558850012
 10
1142.138350743276
 20
2202.482558850012
 10
1142.210302754027
 20
2202.482558850012
 10
1142.330094867489
 20
2202.482558850012
 10
1142.497535441837
 20
2202.482558850012
 10
1142.712356607868
 20
2202.482558850012
 10
1142.974214697545
 20
2202.482558850012
 10
1143.282690793782
 20
2202.482558850012
 10
1143.637291400632
 20
2202.482558850012
 10
1144.037449232767
 20
2202.482558850012
 10
1144.482524123019
 20
2202.482558850012
 10
1144.971804046507
 20
2202.482558850012
 10
1145.504506259727
 20
2202.482558850012
 10
1146.079778552776
 20
2202.482558850012
 10
1146.696700612703
 20
2202.482558850012
 10
1147.354285495815
 20
2202.482558850012
 10
1148.051481206577
 20
2202.482558850012
 10
1148.787172380578
 20
2202.482558850012
 10
1149.560182068878
 20
2202.482558850012
 10
1150.369273620879
 20
2202.482558850012
 10
1151.21315266269
 20
2202.482558850012
 10
1152.090469167866
 20
2202.482558850012
 10
1152.999819617148
 20
2202.482558850012
 10
1153.939749243802
 20
2202.482558850012
 10
1154.908754360932
 20
2202.482558850012
 10
1155.905284767061
 20
2202.482558850012
 10
1156.927746226122
 20
2202.482558850012
 10
1157.974503017893
 20
2202.482558850012
 10
1159.043880554804
 20
2202.482558850012
 10
1159.114353943099
 20
2202.482558850012
  0
LINE
  5
2E6
330
270
100
AcDbEntity
  8
P-SANR-FIXT
100
AcDbLine
 10
1172.114353943103
 20
1672.48255885001
 30
0.0
 11
1172.114353943102
 21
1717.48255885001
 31
0.0
  0
LINE
  5
2E7
330
270
100
AcDbEntity
  8
P-SANR-FIXT
100
AcDbLine
 10
1172.114353943103
 20
1717.48255885001
 30
0.0
 11
1172.114353943103
 21
1791.969963795343
 31
0.0
  0
LINE
  5
2E8
330
270
100
AcDbEntity
  8
P-SANR-FIXT
100
AcDbLine
 10
1172.114353943103
 20
1877.995153904679
 30
0.0
 11
1172.114353943103
 21
2051.969963795341
 31
0.0
  0
LINE
  5
2E9
330
270
100
AcDbEntity
  8
P-SANR-FIXT
100
AcDbLine
 10
1172.114353943103
 20
2137.995153904677
 30
0.0
 11
1172.114353943103
 21
2157.48255885001
 31
0.0
  0
LINE
  5
2EA
330
270
100
AcDbEntity
  8
P-SANR-FIXT
100
AcDbLine
 10
1172.114353943103
 20
2157.48255885001
 30
0.0
 11
1172.114353943103
 21
2202.48255885001
 31
0.0
  0
LINE
  5
2EB
330
270
100
AcDbEntity
  8
P-SANR-FIXT
100
AcDbLine
 10
1195.129703384834
 20
1852.871555190587
 30
0.0
 11
1176.099004501428
 21
1863.858934313787
 31
0.0
  0
ARC
  5
2EC
330
270
100
AcDbEntity
  8
P-SANR-FIXT
100
AcDbCircle
 10
1172.114353943134
 20
1834.982558850011
 30
0.0
 40
29.14999999994346
100
AcDbArc
 50
82.14337228247613
 51
97.85662771752475
  0
LINE
  5
2ED
330
270
100
AcDbEntity
  8
P-SANR-FIXT
100
AcDbLine
 10
1168.129703384838
 20
1863.858934313787
 30
0.0
 11
1149.099004501433
 21
1852.871555190586
 31
0.0
  0
ARC
  5
2EE
330
270
100
AcDbEntity
  8
P-SANR-FIXT
100
AcDbCircle
 10
1172.114353943134
 20
1834.982558850011
 30
0.0
 40
29.14999999994351
100
AcDbArc
 50
142.1433722824765
 51
157.8566277175254
  0
LINE
  5
2EF
330
270
100
AcDbEntity
  8
P-SANR-FIXT
100
AcDbLine
 10
1145.114353943138
 20
1845.969937973212
 30
0.0
 11
1145.114353943139
 21
1823.995179726809
 31
0.0
  0
ARC
  5
2F0
330
270
100
AcDbEntity
  8
P-SANR-FIXT
100
AcDbCircle
 10
1172.114353943134
 20
1834.982558850011
 30
0.0
 40
29.14999999994336
100
AcDbArc
 50
202.1433722824764
 51
217.8566277175248
  0
LINE
  5
2F1
330
270
100
AcDbEntity
  8
P-SANR-FIXT
100
AcDbLine
 10
1149.099004501433
 20
1817.093562509435
 30
0.0
 11
1168.12970338484
 21
1806.106183386235
 31
0.0
  0
ARC
  5
2F2
330
270
100
AcDbEntity
  8
P-SANR-FIXT
100
AcDbCircle
 10
1172.114353943134
 20
1834.982558850011
 30
0.0
 40
29.1499999999434
100
AcDbArc
 50
262.1433722824767
 51
277.8566277175248
  0
LINE
  5
2F3
330
270
100
AcDbEntity
  8
P-SANR-FIXT
100
AcDbLine
 10
1176.099004501429
 20
1806.106183386235
 30
0.0
 11
1195.129703384835
 21
1817.093562509437
 31
0.0
  0
ARC
  5
2F4
330
270
100
AcDbEntity
  8
P-SANR-FIXT
100
AcDbCircle
 10
1172.114353943134
 20
1834.982558850011
 30
0.0
 40
29.14999999994341
100
AcDbArc
 50
322.1433722824764
 51
337.8566277175242
  0
LINE
  5
2F5
330
270
100
AcDbEntity
  8
P-SANR-FIXT
100
AcDbLine
 10
1199.114353943129
 20
1823.99517972681
 30
0.0
 11
1199.114353943129
 21
1845.969937973213
 31
0.0
  0
ARC
  5
2F6
330
270
100
AcDbEntity
  8
P-SANR-FIXT
100
AcDbCircle
 10
1172.114353943134
 20
1834.982558850011
 30
0.0
 40
29.14999999994348
100
AcDbArc
 50
22.14337228247598
 51
37.85662771752498
  0
ARC
  5
2F7
330
270
100
AcDbEntity
  8
P-SANR-FIXT
100
AcDbCircle
 10
1172.114353943103
 20
1834.982558850011
 30
0.0
 40
19.05000000000018
100
AcDbArc
 50
90.00000000000067
 51
269.9999999999997
  0
ARC
  5
2F8
330
270
100
AcDbEntity
  8
P-SANR-FIXT
100
AcDbCircle
 10
1172.114353943103
 20
1834.982558850011
 30
0.0
 40
19.04999999999991
100
AcDbArc
 50
269.9999999999993
 51
89.99999999999898
  0
LINE
  5
2F9
330
270
100
AcDbEntity
  8
P-SANR-FIXT
100
AcDbLine
 10
1209.364353943169
 20
1856.488856377345
 30
0.0
 11
1172.114353943134
 21
1877.995153904679
 31
0.0
  0
LINE
  5
2FA
330
270
100
AcDbEntity
  8
P-SANR-FIXT
100
AcDbLine
 10
1172.114353943134
 20
1877.995153904679
 30
0.0
 11
1134.864353943098
 21
1856.488856377345
 31
0.0
  0
LINE
  5
2FB
330
270
100
AcDbEntity
  8
P-SANR-FIXT
100
AcDbLine
 10
1134.864353943098
 20
1856.488856377345
 30
0.0
 11
1134.864353943098
 21
1813.476261322677
 31
0.0
  0
LINE
  5
2FC
330
270
100
AcDbEntity
  8
P-SANR-FIXT
100
AcDbLine
 10
1134.864353943098
 20
1813.476261322677
 30
0.0
 11
1172.114353943134
 21
1791.969963795343
 31
0.0
  0
LINE
  5
2FD
330
270
100
AcDbEntity
  8
P-SANR-FIXT
100
AcDbLine
 10
1172.114353943134
 20
1791.969963795343
 30
0.0
 11
1209.364353943169
 21
1813.476261322677
 31
0.0
  0
LINE
  5
2FE
330
270
100
AcDbEntity
  8
P-SANR-FIXT
100
AcDbLine
 10
1209.364353943169
 20
1813.476261322677
 30
0.0
 11
1209.364353943169
 21
1856.488856377345
 31
0.0
  0
LINE
  5
2FF
330
270
100
AcDbEntity
  8
P-SANR-FIXT
100
AcDbLine
 10
1195.129703384834
 20
2112.871555190585
 30
0.0
 11
1176.099004501428
 21
2123.858934313786
 31
0.0
  0
ARC
  5
300
330
270
100
AcDbEntity
  8
P-SANR-FIXT
100
AcDbCircle
 10
1172.114353943134
 20
2094.98255885001
 30
0.0
 40
29.14999999994346
100
AcDbArc
 50
82.14337228247613
 51
97.85662771752475
  0
LINE
  5
301
330
270
100
AcDbEntity
  8
P-SANR-FIXT
100
AcDbLine
 10
1168.129703384838
 20
2123.858934313786
 30
0.0
 11
1149.099004501433
 21
2112.871555190584
 31
0.0
  0
ARC
  5
302
330
270
100
AcDbEntity
  8
P-SANR-FIXT
100
AcDbCircle
 10
1172.114353943134
 20
2094.98255885001
 30
0.0
 40
29.14999999994351
100
AcDbArc
 50
142.1433722824769
 51
157.8566277175254
  0
LINE
  5
303
330
270
100
AcDbEntity
  8
P-SANR-FIXT
100
AcDbLine
 10
1145.114353943138
 20
2105.96993797321
 30
0.0
 11
1145.114353943139
 21
2083.995179726808
 31
0.0
  0
ARC
  5
304
330
270
100
AcDbEntity
  8
P-SANR-FIXT
100
AcDbCircle
 10
1172.114353943134
 20
2094.98255885001
 30
0.0
 40
29.14999999994336
100
AcDbArc
 50
202.1433722824767
 51
217.8566277175249
  0
LINE
  5
305
330
270
100
AcDbEntity
  8
P-SANR-FIXT
100
AcDbLine
 10
1149.099004501433
 20
2077.093562509434
 30
0.0
 11
1168.12970338484
 21
2066.106183386233
 31
0.0
  0
ARC
  5
306
330
270
100
AcDbEntity
  8
P-SANR-FIXT
100
AcDbCircle
 10
1172.114353943134
 20
2094.98255885001
 30
0.0
 40
29.14999999994363
100
AcDbArc
 50
262.1433722824767
 51
277.8566277175248
  0
LINE
  5
307
330
270
100
AcDbEntity
  8
P-SANR-FIXT
100
AcDbLine
 10
1176.099004501429
 20
2066.106183386233
 30
0.0
 11
1195.129703384835
 21
2077.093562509435
 31
0.0
  0
ARC
  5
308
330
270
100
AcDbEntity
  8
P-SANR-FIXT
100
AcDbCircle
 10
1172.114353943134
 20
2094.98255885001
 30
0.0
 40
29.14999999994341
100
AcDbArc
 50
322.1433722824761
 51
337.856627717525
  0
LINE
  5
309
330
270
100
AcDbEntity
  8
P-SANR-FIXT
100
AcDbLine
 10
1199.114353943129
 20
2083.995179726809
 30
0.0
 11
1199.114353943129
 21
2105.969937973211
 31
0.0
  0
ARC
  5
30A
330
270
100
AcDbEntity
  8
P-SANR-FIXT
100
AcDbCircle
 10
1172.114353943134
 20
2094.98255885001
 30
0.0
 40
29.14999999994348
100
AcDbArc
 50
22.14337228247584
 51
37.85662771752444
  0
ARC
  5
30B
330
270
100
AcDbEntity
  8
P-SANR-FIXT
100
AcDbCircle
 10
1172.114353943103
 20
2094.98255885001
 30
0.0
 40
19.04999999999972
100
AcDbArc
 50
90.00000000000067
 51
269.9999999999997
  0
ARC
  5
30C
330
270
100
AcDbEntity
  8
P-SANR-FIXT
100
AcDbCircle
 10
1172.114353943103
 20
2094.98255885001
 30
0.0
 40
19.04999999999922
100
AcDbArc
 50
269.9999999999993
 51
89.99999999999898
  0
ARC
  5
30D
330
270
100
AcDbEntity
  8
P-SANR-FIXT
100
AcDbCircle
 10
1172.114353943103
 20
2094.98255885001
 30
0.0
 40
36.90000000005924
100
AcDbArc
 50
90.00000000000055
 51
269.9999999999995
  0
ARC
  5
30E
330
270
100
AcDbEntity
  8
P-SANR-FIXT
100
AcDbCircle
 10
1172.114353943103
 20
2094.98255885001
 30
0.0
 40
36.90000000005894
100
AcDbArc
 50
269.9999999999991
 51
89.99999999999946
  0
SPLINE
  5
30F
330
270
100
AcDbEntity
  8
P-SANR-FIXT
100
AcDbSpline
210
0.0
220
0.0
230
1.0
 70
    24
 71
     3
 72
    10
 73
     6
 74
     0
 42
0.000000001
 43
0.0000000001
 40
0.0
 40
0.0
 40
0.0
 40
0.0
 40
0.3333333333333333
 40
0.6666666666666666
 40
1.0
 40
1.0
 40
1.0
 40
1.0
 10
1209.364353943169
 20
2116.488856377344
 30
0.0
 10
1209.364353943169
 20
2111.778547803655
 30
0.0
 10
1209.364353943169
 20
2102.309999997784
 30
0.0
 10
1209.364353943169
 20
2087.799910324419
 30
0.0
 10
1209.364353943169
 20
2078.248623877301
 30
0.0
 10
1209.364353943169
 20
2073.476261322676
 30
0.0
  0
SPLINE
  5
310
330
270
100
AcDbEntity
  8
P-SANR-FIXT
100
AcDbSpline
210
0.0
220
0.0
230
1.0
 70
    24
 71
     3
 72
    10
 73
     6
 74
     0
 42
0.000000001
 43
0.0000000001
 40
0.0
 40
0.0
 40
0.0
 40
0.0
 40
0.3333333333333333
 40
0.6666666666666666
 40
1.0
 40
1.0
 40
1.0
 40
1.0
 10
1209.364353943169
 20
2073.476261322676
 30
0.0
 10
1205.231366734795
 20
2071.090080045363
 30
0.0
 10
1196.959710032768
 20
2066.314436821804
 30
0.0
 10
1184.393603764445
 20
2059.059391985122
 30
0.0
 10
1176.193600827613
 20
2054.325118082186
 30
0.0
 10
1172.114353943134
 20
2051.969963795341
 30
0.0
  0
SPLINE
  5
311
330
270
100
AcDbEntity
  8
P-SANR-FIXT
100
AcDbSpline
210
0.0
220
0.0
230
1.0
 70
    24
 71
     3
 72
    10
 73
     6
 74
     0
 42
0.000000001
 43
0.0000000001
 40
0.0
 40
0.0
 40
0.0
 40
0.0
 40
0.3333333333333333
 40
0.6666666666666666
 40
1.0
 40
1.0
 40
1.0
 40
1.0
 10
1172.114353943134
 20
2051.969963795341
 30
0.0
 10
1167.98136673476
 20
2054.356145072654
 30
0.0
 10
1159.709710032733
 20
2059.131788296213
 30
0.0
 10
1147.143603764409
 20
2066.386833132895
 30
0.0
 10
1138.943600827577
 20
2071.12110703583
 30
0.0
 10
1134.864353943098
 20
2073.476261322675
 30
0.0
  0
SPLINE
  5
312
330
270
100
AcDbEntity
  8
P-SANR-FIXT
100
AcDbSpline
210
0.0
220
0.0
230
1.0
 70
    24
 71
     3
 72
    10
 73
     6
 74
     0
 42
0.000000001
 43
0.0000000001
 40
0.0
 40
0.0
 40
0.0
 40
0.0
 40
0.3333333333333333
 40
0.6666666666666666
 40
1.0
 40
1.0
 40
1.0
 40
1.0
 10
1134.864353943098
 20
2073.476261322675
 30
0.0
 10
1134.864353943098
 20
2078.2486238773
 30
0.0
 10
1134.864353943098
 20
2087.799910324418
 30
0.0
 10
1134.864353943098
 20
2102.309999997784
 30
0.0
 10
1134.864353943098
 20
2111.778547803654
 30
0.0
 10
1134.864353943098
 20
2116.488856377344
 30
0.0
  0
SPLINE
  5
313
330
270
100
AcDbEntity
  8
P-SANR-FIXT
100
AcDbSpline
210
0.0
220
0.0
230
1.0
 70
    24
 71
     3
 72
    10
 73
     6
 74
     0
 42
0.000000001
 43
0.0000000001
 40
0.0
 40
0.0
 40
0.0
 40
0.0
 40
0.3333333333333333
 40
0.6666666666666666
 40
1.0
 40
1.0
 40
1.0
 40
1.0
 10
1134.864353943098
 20
2116.488856377344
 30
0.0
 10
1138.997341151473
 20
2118.875037654656
 30
0.0
 10
1147.2689978535
 20
2123.650680878215
 30
0.0
 10
1159.835104121825
 20
2130.905725714899
 30
0.0
 10
1168.035107058655
 20
2135.639999617834
 30
0.0
 10
1172.114353943134
 20
2137.995153904678
 30
0.0
  0
SPLINE
  5
314
330
270
100
AcDbEntity
  8
P-SANR-FIXT
100
AcDbSpline
210
0.0
220
0.0
230
1.0
 70
    24
 71
     3
 72
    10
 73
     6
 74
     0
 42
0.000000001
 43
0.0000000001
 40
0.0
 40
0.0
 40
0.0
 40
0.0
 40
0.3333333333333333
 40
0.6666666666666666
 40
1.0
 40
1.0
 40
1.0
 40
1.0
 10
1172.114353943134
 20
2137.995153904678
 30
0.0
 10
1176.247341151508
 20
2135.608972627365
 30
0.0
 10
1184.518997853535
 20
2130.833329403806
 30
0.0
 10
1197.08510412186
 20
2123.578284567123
 30
0.0
 10
1205.285107058691
 20
2118.844010664188
 30
0.0
 10
1209.364353943169
 20
2116.488856377344
 30
0.0
  0
LINE
  5
315
330
270
100
AcDbEntity
  8
P-SANR-FIXT
100
AcDbLine
 10
1262.114353943161
 20
2082.482558849989
 30
0.0
 11
1266.61435394316
 21
2082.482558849989
 31
0.0
  0
LINE
  5
316
330
270
100
AcDbEntity
  8
P-SANR-FIXT
100
AcDbLine
 10
1266.61435394316
 20
2107.482558850032
 30
0.0
 11
1262.114353943161
 21
2107.482558850032
 31
0.0
  0
LINE
  5
317
330
270
100
AcDbEntity
  8
P-SANR-FIXT
100
AcDbLine
 10
1266.61435394316
 20
2084.982558850025
 30
0.0
 11
1270.914353943159
 21
2084.982558850025
 31
0.0
  0
LINE
  5
318
330
270
100
AcDbEntity
  8
P-SANR-FIXT
100
AcDbLine
 10
1270.914353943159
 20
2104.982558850033
 30
0.0
 11
1266.61435394316
 21
2104.982558850033
 31
0.0
  0
LINE
  5
319
330
270
100
AcDbEntity
  8
P-SANR-FIXT
100
AcDbLine
 10
1266.614353943158
 20
2082.482558849988
 30
0.0
 11
1266.614353943158
 21
2107.482558850032
 31
0.0
  0
LINE
  5
31A
330
270
100
AcDbEntity
  8
P-SANR-FIXT
100
AcDbLine
 10
1270.914353943156
 20
2100.597338012296
 30
0.0
 11
1270.914353943156
 21
2099.341457793599
 31
0.0
  0
LINE
  5
31B
330
270
100
AcDbEntity
  8
P-SANR-FIXT
100
AcDbLine
 10
1270.914353943156
 20
2099.341457793599
 30
0.0
 11
1270.914353943156
 21
2090.623659906457
 31
0.0
  0
LINE
  5
31C
330
270
100
AcDbEntity
  8
P-SANR-FIXT
100
AcDbLine
 10
1270.914353943156
 20
2090.623659906457
 30
0.0
 11
1270.914353943156
 21
2089.367779687763
 31
0.0
  0
LINE
  5
31D
330
270
100
AcDbEntity
  8
P-SANR-FIXT
100
AcDbLine
 10
1270.914353943156
 20
2089.367779687763
 30
0.0
 11
1270.914353943156
 21
2085.008880744191
 31
0.0
  0
LINE
  5
31E
330
270
100
AcDbEntity
  8
P-SANR-FIXT
100
AcDbLine
 10
1270.914353943156
 20
2085.008880744191
 30
0.0
 11
1270.914353943156
 21
2084.982558850024
 31
0.0
  0
LINE
  5
31F
330
270
100
AcDbEntity
  8
P-SANR-FIXT
100
AcDbLine
 10
1270.914353943156
 20
2104.982558850032
 30
0.0
 11
1270.914353943156
 21
2104.956236955864
 31
0.0
  0
LINE
  5
320
330
270
100
AcDbEntity
  8
P-SANR-FIXT
100
AcDbLine
 10
1270.914353943156
 20
2104.956236955864
 30
0.0
 11
1270.914353943156
 21
2100.597338012296
 31
0.0
  0
LINE
  5
321
330
270
100
AcDbEntity
  8
P-SANR-FIXT
100
AcDbLine
 10
1270.914353943156
 20
2100.597338012296
 30
0.0
 11
1266.614353943156
 21
2100.597338012296
 31
0.0
  0
LINE
  5
322
330
270
100
AcDbEntity
  8
P-SANR-FIXT
100
AcDbLine
 10
1266.614353943156
 20
2099.341457793599
 30
0.0
 11
1270.914353943156
 21
2099.341457793599
 31
0.0
  0
LINE
  5
323
330
270
100
AcDbEntity
  8
P-SANR-FIXT
100
AcDbLine
 10
1266.614353943156
 20
2090.623659906457
 30
0.0
 11
1270.914353943156
 21
2090.623659906457
 31
0.0
  0
LINE
  5
324
330
270
100
AcDbEntity
  8
P-SANR-FIXT
100
AcDbLine
 10
1266.614353943156
 20
2089.367779687763
 30
0.0
 11
1270.914353943156
 21
2089.367779687763
 31
0.0
  0
LINE
  5
325
330
270
100
AcDbEntity
  8
P-SANR-FIXT
100
AcDbLine
 10
1266.614353943156
 20
2085.008880744191
 30
0.0
 11
1270.914353943156
 21
2085.008880744191
 31
0.0
  0
LINE
  5
326
330
270
100
AcDbEntity
  8
P-SANR-FIXT
100
AcDbLine
 10
1266.614353943156
 20
2104.956236955864
 30
0.0
 11
1270.914353943156
 21
2104.956236955864
 31
0.0
  0
LINE
  5
327
330
270
100
AcDbEntity
  8
P-SANR-FIXT
100
AcDbLine
 10
1229.233637408307
 20
2081.982558850011
 30
0.0
 11
1262.114353943136
 21
2081.982558850011
 31
0.0
  0
LINE
  5
328
330
270
100
AcDbEntity
  8
P-SANR-FIXT
100
AcDbLine
 10
1262.114353943136
 20
2107.982558850011
 30
0.0
 11
1229.233637408307
 21
2107.982558850011
 31
0.0
  0
LINE
  5
329
330
270
100
AcDbEntity
  8
P-SANR-FIXT
100
AcDbLine
 10
1262.114353943134
 20
2094.98255885001
 30
0.0
 11
1262.114353943134
 21
2081.98255885001
 31
0.0
  0
LINE
  5
32A
330
270
100
AcDbEntity
  8
P-SANR-FIXT
100
AcDbLine
 10
1262.114353943134
 20
2107.98255885001
 30
0.0
 11
1262.114353943134
 21
2094.98255885001
 31
0.0
  0
LINE
  5
32B
330
270
100
AcDbEntity
  8
P-SANR-FIXT
100
AcDbLine
 10
1139.98722832969
 20
2177.482558850011
 30
0.0
 11
1139.966227637712
 21
2177.482558850011
 31
0.0
  0
LWPOLYLINE
  5
32C
330
270
100
AcDbEntity
  8
P-SANR-FIXT
100
AcDbPolyline
 90
       41
 70
   128
 43
0.0
 10
1204.264353943106
 20
2177.482558850011
 10
1205.264087297772
 20
2177.462561516535
 10
1206.262221292335
 20
2177.402601507576
 10
1207.257159125329
 20
2177.302774746358
 10
1208.247309108462
 20
2177.163240934401
 10
1209.231087212982
 20
2176.984223296042
 10
1210.206919603784
 20
2176.766008221312
 10
1211.173245157209
 20
2176.50894480778
 10
1212.128517958509
 20
2176.213444302072
 10
1213.071209774983
 20
2175.879979441959
 10
1213.999812500822
 20
2175.509083700083
 10
1214.912840569756
 20
2175.10135043051
 10
1215.808833331643
 20
2174.657431919493
 10
1216.686357389199
 20
2174.178038341953
 10
1217.544008891128
 20
2173.663936625346
 10
1218.380415777982
 20
2173.115949222753
 10
1219.194239977166
 20
2172.534952797119
 10
1219.984179543567
 20
2171.921876818784
 10
1220.748970742393
 20
2171.277702078533
 10
1221.48739007087
 20
2170.603459118534
 10
1222.198256215594
 20
2169.90022658369
 10
1222.880431942377
 20
2169.169129496043
 10
1223.532825915581
 20
2168.411337454975
 10
1224.154394444015
 20
2167.628062766097
 10
1224.744143150631
 20
2166.820558501822
 10
1225.301128563303
 20
2165.990116496714
 10
1225.824459624189
 20
2165.13806528083
 10
1226.31329911523
 20
2164.265767954354
 10
1226.766864997518
 20
2163.374620006929
 10
1227.1844316624
 20
2162.466047085167
 10
1227.565331092286
 20
2161.541502711928
 10
1227.908953929344
 20
2160.60246596098
 10
1228.214750450337
 20
2159.65043909081
 10
1228.482231446063
 20
2158.68694514132
 10
1228.710969003989
 20
2157.713525497297
 10
1228.900597192817
 20
2156.731737422517
 10
1229.050812647898
 20
2155.743151568465
 10
1229.161375056547
 20
2154.749349461619
 10
1229.232107542495
 20
2153.75192097335
 10
1229.262896948855
 20
2152.752461776468
 10
1229.264353943106
 20
2152.482558850011
  0
LWPOLYLINE
  5
32D
330
270
100
AcDbEntity
  8
P-SANR-FIXT
100
AcDbPolyline
 90
       31
 70
   128
 43
0.0
 10
1185.114353943113
 20
2177.482558850011
 10
1185.808307744978
 20
2177.482558850011
 10
1186.960554436764
 20
2177.482558850011
 10
1188.089050374782
 20
2177.482558850011
 10
1189.191990206262
 20
2177.482558850011
 10
1190.267609462756
 20
2177.482558850011
 10
1191.314187382907
 20
2177.482558850011
 10
1192.3300496653
 20
2177.482558850011
 10
1193.313571146989
 20
2177.482558850011
 10
1194.26317840341
 20
2177.482558850011
 10
1195.177352265526
 20
2177.482558850011
 10
1196.054630250169
 20
2177.482558850011
 10
1196.893608899708
 20
2177.482558850011
 10
1197.692946027275
 20
2177.482558850011
 10
1198.451362863983
 20
2177.482558850011
 10
1199.16764610468
 20
2177.482558850011
 10
1199.840649848979
 20
2177.482558850011
 10
1200.469297434457
 20
2177.482558850011
 10
1201.052583159081
 20
2177.482558850011
 10
1201.589573890118
 20
2177.482558850011
 10
1202.079410556952
 20
2177.482558850011
 10
1202.521309525409
 20
2177.482558850011
 10
1202.914563851404
 20
2177.482558850011
 10
1203.258544411908
 20
2177.482558850011
 10
1203.552700911401
 20
2177.482558850011
 10
1203.796562762235
 20
2177.482558850011
 10
1203.989739837468
 20
2177.482558850011
 10
1204.131923094991
 20
2177.482558850011
 10
1204.222885071921
 20
2177.482558850011
 10
1204.262480248499
 20
2177.482558850011
 10
1204.264353943106
 20
2177.482558850011
  0
LWPOLYLINE
  5
32E
330
270
100
AcDbEntity
  8
P-SANR-FIXT
100
AcDbPolyline
 90
       41
 70
   128
 43
0.0
 10
1204.264353943106
 20
2177.482558850011
 10
1204.238637372256
 20
2177.482558850011
 10
1204.161528800735
 20
2177.482558850011
 10
1204.033151585807
 20
2177.482558850011
 10
1203.853711103632
 20
2177.482558850011
 10
1203.623494420702
 20
2177.482558850011
 10
1203.342869834598
 20
2177.482558850011
 10
1203.012286284797
 20
2177.482558850011
 10
1202.632272634456
 20
2177.482558850011
 10
1202.203436824351
 20
2177.482558850011
 10
1201.726464900298
 20
2177.482558850011
 10
1201.202119915628
 20
2177.482558850011
 10
1200.63124071046
 20
2177.482558850011
 10
1200.014740569742
 20
2177.482558850011
 10
1199.353605762187
 20
2177.482558850011
 10
1198.648893962452
 20
2177.482558850011
 10
1197.901732559086
 20
2177.482558850011
 10
1197.113316850948
 20
2177.482558850011
 10
1196.284908134985
 20
2177.482558850011
 10
1195.417831688426
 20
2177.482558850011
 10
1194.513474648617
 20
2177.482558850011
 10
1193.573283793904
 20
2177.482558850011
 10
1192.59876322909
 20
2177.482558850011
 10
1191.591471979193
 20
2177.482558850011
 10
1190.553021495335
 20
2177.482558850011
 10
1189.485073076766
 20
2177.482558850011
 10
1188.389335213139
 20
2177.482558850011
 10
1187.267560851291
 20
2177.482558850011
 10
1186.121544590902
 20
2177.482558850011
 10
1184.953119813517
 20
2177.482558850011
 10
1183.764155749531
 20
2177.482558850011
 10
1182.556554487812
 20
2177.482558850011
 10
1181.332247932773
 20
2177.482558850011
 10
1180.093194713729
 20
2177.482558850011
 10
1178.841377051515
 20
2177.482558850011
 10
1177.578797587348
 20
2177.482558850011
 10
1176.307476179037
 20
2177.482558850011
 10
1175.029446669633
 20
2177.482558850011
 10
1173.74675363372
 20
2177.482558850011
 10
1172.461449106529
 20
2177.482558850011
 10
1172.114353943106
 20
2177.482558850011
  0
LINE
  5
32F
330
270
100
AcDbEntity
  8
P-SANR-FIXT
100
AcDbLine
 10
1159.114353943099
 20
2212.482558850011
 30
0.0
 11
1159.114353943099
 21
2202.482558850012
 31
0.0
  0
LINE
  5
330
330
270
100
AcDbEntity
  8
P-SANR-FIXT
100
AcDbLine
 10
1185.114353943113
 20
2177.482558850011
 30
0.0
 11
1185.114353943112
 21
2212.482558850011
 31
0.0
  0
LINE
  5
331
330
270
100
AcDbEntity
  8
P-SANR-FIXT
100
AcDbLine
 10
1159.1143539431
 20
1672.482558850011
 30
0.0
 11
1159.1143539431
 21
1657.48255885001
 31
0.0
  0
LINE
  5
332
330
270
100
AcDbEntity
  8
P-SANR-FIXT
100
AcDbLine
 10
1185.114353943113
 20
1657.48255885001
 30
0.0
 11
1185.114353943113
 21
1692.48255885001
 31
0.0
  0
LINE
  5
333
330
270
100
AcDbEntity
  8
P-SANR-FIXT
100
AcDbLine
 10
1139.987807291732
 20
1692.48255885001
 30
0.0
 11
1139.966227637714
 21
1692.48255885001
 31
0.0
  0
LWPOLYLINE
  5
334
330
270
100
AcDbEntity
  8
P-SANR-FIXT
100
AcDbPolyline
 90
       41
 70
   128
 43
0.0
 10
1229.264353943105
 20
1717.48255885001
 10
1229.24435660963
 20
1716.482825495344
 10
1229.184396600671
 20
1715.484691500781
 10
1229.084569839452
 20
1714.489753667787
 10
1228.945036027496
 20
1713.499603684654
 10
1228.766018389137
 20
1712.515825580133
 10
1228.547803314406
 20
1711.539993189331
 10
1228.290739900875
 20
1710.573667635907
 10
1227.995239395166
 20
1709.618394834607
 10
1227.661774535054
 20
1708.675703018133
 10
1227.290878793178
 20
1707.747100292294
 10
1226.883145523605
 20
1706.83407222336
 10
1226.439227012588
 20
1705.938079461473
 10
1225.959833435047
 20
1705.060555403917
 10
1225.445731718441
 20
1704.202903901988
 10
1224.897744315847
 20
1703.366497015134
 10
1224.316747890213
 20
1702.55267281595
 10
1223.703671911879
 20
1701.762733249548
 10
1223.059497171627
 20
1700.997942050723
 10
1222.385254211628
 20
1700.259522722246
 10
1221.682021676784
 20
1699.548656577522
 10
1220.950924589139
 20
1698.866480850738
 10
1220.19313254807
 20
1698.214086877535
 10
1219.409857859192
 20
1697.5925183491
 10
1218.602353594917
 20
1697.002769642485
 10
1217.771911589809
 20
1696.445784229812
 10
1216.919860373925
 20
1695.922453168926
 10
1216.047563047449
 20
1695.433613677886
 10
1215.156415100023
 20
1694.980047795597
 10
1214.247842178262
 20
1694.562481130716
 10
1213.323297805022
 20
1694.18158170083
 10
1212.384261054075
 20
1693.837958863771
 10
1211.432234183904
 20
1693.532162342779
 10
1210.468740234414
 20
1693.264681347053
 10
1209.495320590391
 20
1693.035943789127
 10
1208.513532515612
 20
1692.846315600299
 10
1207.524946661559
 20
1692.696100145218
 10
1206.531144554713
 20
1692.585537736569
 10
1205.533716066445
 20
1692.51480525062
 10
1204.534256869562
 20
1692.484015844261
 10
1204.264353943106
 20
1692.48255885001
  0
LWPOLYLINE
  5
335
330
270
100
AcDbEntity
  8
P-SANR-FIXT
100
AcDbPolyline
 90
       41
 70
   128
 43
0.0
 10
1172.114353943106
 20
1692.48255885001
 10
1173.400011037207
 20
1692.48255885001
 10
1174.683611354216
 20
1692.48255885001
 10
1175.963101407445
 20
1692.48255885001
 10
1177.236434285754
 20
1692.48255885001
 10
1178.501572928167
 20
1692.48255885001
 10
1179.756493382739
 20
1692.48255885001
 10
1180.999188044443
 20
1692.48255885001
 10
1182.227668866914
 20
1692.48255885001
 10
1183.4399705429
 20
1692.48255885001
 10
1184.634153648329
 20
1692.48255885001
 10
1185.808307744978
 20
1692.48255885001
 10
1186.960554436764
 20
1692.48255885001
 10
1188.089050374782
 20
1692.48255885001
 10
1189.191990206262
 20
1692.48255885001
 10
1190.267609462756
 20
1692.48255885001
 10
1191.314187382907
 20
1692.48255885001
 10
1192.3300496653
 20
1692.48255885001
 10
1193.313571146989
 20
1692.48255885001
 10
1194.26317840341
 20
1692.48255885001
 10
1195.177352265526
 20
1692.48255885001
 10
1196.054630250169
 20
1692.48255885001
 10
1196.893608899708
 20
1692.48255885001
 10
1197.692946027275
 20
1692.48255885001
 10
1198.451362863983
 20
1692.48255885001
 10
1199.16764610468
 20
1692.48255885001
 10
1199.840649848979
 20
1692.48255885001
 10
1200.469297434457
 20
1692.48255885001
 10
1201.052583159081
 20
1692.48255885001
 10
1201.589573890118
 20
1692.48255885001
 10
1202.079410556952
 20
1692.48255885001
 10
1202.521309525409
 20
1692.48255885001
 10
1202.914563851404
 20
1692.48255885001
 10
1203.258544411908
 20
1692.48255885001
 10
1203.552700911401
 20
1692.48255885001
 10
1203.796562762235
 20
1692.48255885001
 10
1203.989739837468
 20
1692.48255885001
 10
1204.131923094991
 20
1692.48255885001
 10
1204.22288507192
 20
1692.48255885001
 10
1204.262480248499
 20
1692.48255885001
 10
1204.264353943106
 20
1692.48255885001
  0
LWPOLYLINE
  5
336
330
270
100
AcDbEntity
  8
P-SANR-FIXT
100
AcDbPolyline
 90
       30
 70
   128
 43
0.0
 10
1204.264353943106
 20
1692.48255885001
 10
1204.238637372256
 20
1692.48255885001
 10
1204.161528800735
 20
1692.48255885001
 10
1204.033151585807
 20
1692.48255885001
 10
1203.853711103632
 20
1692.48255885001
 10
1203.623494420702
 20
1692.48255885001
 10
1203.342869834599
 20
1692.48255885001
 10
1203.012286284797
 20
1692.48255885001
 10
1202.632272634456
 20
1692.48255885001
 10
1202.203436824351
 20
1692.48255885001
 10
1201.726464900298
 20
1692.48255885001
 10
1201.202119915628
 20
1692.48255885001
 10
1200.63124071046
 20
1692.48255885001
 10
1200.014740569742
 20
1692.48255885001
 10
1199.353605762188
 20
1692.48255885001
 10
1198.648893962452
 20
1692.48255885001
 10
1197.901732559086
 20
1692.48255885001
 10
1197.113316850948
 20
1692.48255885001
 10
1196.284908134986
 20
1692.48255885001
 10
1195.417831688426
 20
1692.48255885001
 10
1194.513474648617
 20
1692.48255885001
 10
1193.573283793904
 20
1692.48255885001
 10
1192.59876322909
 20
1692.48255885001
 10
1191.591471979193
 20
1692.48255885001
 10
1190.553021495336
 20
1692.48255885001
 10
1189.485073076767
 20
1692.48255885001
 10
1188.38933521314
 20
1692.48255885001
 10
1187.267560851292
 20
1692.48255885001
 10
1186.121544590903
 20
1692.48255885001
 10
1185.114353943113
 20
1692.48255885001
  0
LINE
  5
337
330
270
100
AcDbEntity
  8
P-SANR-FIXT
100
AcDbLine
 10
1229.264353943107
 20
1717.48255885001
 30
0.0
 11
1229.264353943106
 21
2082.109464700987
 31
0.0
  0
LINE
  5
338
330
270
100
AcDbEntity
  8
P-SANR-FIXT
100
AcDbLine
 10
1229.264353943106
 20
2107.855652999035
 30
0.0
 11
1229.264353943106
 21
2152.482558850011
 31
0.0
  0
LINE
  5
339
330
270
100
AcDbEntity
  8
P-SANR-FIXT
100
AcDbLine
 10
1172.114353943103
 20
2212.48255885001
 30
0.0
 11
1168.576827081025
 21
2212.48255885001
 31
0.0
  0
LINE
  5
33A
330
270
100
AcDbEntity
  8
P-SANR-FIXT
100
AcDbLine
 10
1163.05480076191
 20
2212.48255885001
 30
0.0
 11
1159.517116109578
 21
2212.48255885001
 31
0.0
  0
LINE
  5
33B
330
270
100
AcDbEntity
  8
P-SANR-FIXT
100
AcDbLine
 10
1184.711591776556
 20
2212.48255885001
 30
0.0
 11
1181.173907124487
 21
2212.48255885001
 31
0.0
  0
LINE
  5
33C
330
270
100
AcDbEntity
  8
P-SANR-FIXT
100
AcDbLine
 10
1175.651880805182
 20
2212.48255885001
 30
0.0
 11
1172.114353943103
 21
2212.48255885001
 31
0.0
  0
LINE
  5
33D
330
270
100
AcDbEntity
  8
P-SANR-FIXT
100
AcDbLine
 10
1169.614071479593
 20
1657.482558850009
 30
0.0
 11
1159.114353943097
 21
1657.482558850009
 31
0.0
  0
LINE
  5
33E
330
270
100
AcDbEntity
  8
P-SANR-FIXT
100
AcDbLine
 10
1185.114353943111
 20
1657.482558850009
 30
0.0
 11
1174.6146364066
 21
1657.482558850009
 31
0.0
  0
ENDBLK
  5
340
330
270
100
AcDbEntity
  8
0
100
AcDbBlockEnd
  0
ENDSEC
  0
SECTION
  2
ENTITIES
  0
INSERT
  5
1DD
330
71
100
AcDbEntity
  8
P-SANR-FIXT
100
AcDbBlockReference
  2
Automatic flow rate regulator valve_Caleffi_121 DN15 - 1_2__-859151-Est - Idraulica
 10
0.0
 20
0.0
 30
0.0
1001
REVIT
1002
{
1070
     1
1000
863131
1002
}
1002
{
1070
     5
1000
859151
1002
}
1002
{
1070
     2
1000
-2001160
1002
}
  0
INSERT
  5
26F
330
71
100
AcDbEntity
  8
P-SANR-FIXT
100
AcDbBlockReference
  2
Automatic flow rate regulator valve_Caleffi_121 DN15 - 1_2__-V1-Est - Idraulica
 10
0.0
 20
0.0
 30
0.0
1001
REVIT
1002
{
1070
     1
1000
863152
1002
}
1002
{
1070
     5
1000
859151
1002
}
1002
{
1070
     2
1000
-2001160
1002
}
  0
INSERT
  5
341
330
71
100
AcDbEntity
  8
P-SANR-FIXT
100
AcDbBlockReference
  2
Automatic flow rate regulator valve_Caleffi_121 DN15 - 1_2__-V2-Est - Idraulica
 10
0.0
 20
0.0
 30
0.0
1001
REVIT
1002
{
1070
     1
1000
863172
1002
}
1002
{
1070
     5
1000
859151
1002
}
1002
{
1070
     2
1000
-2001160
1002
}
  0
ENDSEC
  0
SECTION
  2
OBJECTS
  0
DICTIONARY
  5
C
330
0
100
AcDbDictionary
281
     1
  3
ACAD_CIP_PREVIOUS_PRODUCT_INFO
350
7A
  3
ACAD_COLOR
350
63
  3
ACAD_DETAILVIEWSTYLE
350
6B
  3
ACAD_GROUP
350
D
  3
ACAD_IMAGE_VARS
350
7B
  3
ACAD_LAYOUT
350
62
  3
ACAD_MATERIAL
350
10
  3
ACAD_MLEADERSTYLE
350
66
  3
ACAD_MLINESTYLE
350
5F
  3
ACAD_PLOTSETTINGS
350
61
  3
ACAD_PLOTSTYLENAME
350
E
  3
ACAD_SCALELIST
350
42
  3
ACAD_SECTIONVIEWSTYLE
350
68
  3
ACAD_TABLESTYLE
350
64
  3
ACAD_VISUALSTYLE
350
29
  3
ACDB_RECOMPOSE_DATA
350
34C
  3
AcDbVariableDictionary
350
7C
  3
REVIT_DICTIONARY
350
343
  0
DICTIONARY
  5
348
330
71
100
AcDbDictionary
280
     1
281
     1
  3
ACAD_SORTENTS
360
349
  0
XRECORD
  5
7A
102
{ACAD_REACTORS
330
C
102
}
330
C
100
AcDbXrecord
280
     1
300
RVT
300
2013
300
RVT2013
  0
DICTIONARY
  5
63
102
{ACAD_REACTORS
330
C
102
}
330
C
100
AcDbDictionary
281
     1
  0
DICTIONARY
  5
6B
102
{ACAD_REACTORS
330
C
102
}
330
C
100
AcDbDictionary
281
     1
  3
Imperial24
350
6C
  0
DICTIONARY
  5
D
102
{ACAD_REACTORS
330
C
102
}
330
C
100
AcDbDictionary
281
     1
  0
RASTERVARIABLES
  5
7B
102
{ACAD_REACTORS
330
C
102
}
330
C
100
AcDbRasterVariables
 90
        0
 70
     0
 71
     1
 72
     1
  0
DICTIONARY
  5
62
102
{ACAD_REACTORS
330
C
102
}
330
C
100
AcDbDictionary
281
     1
  3
Layout1
350
70
  3
Layout2
350
78
  3
Model
350
74
  0
DICTIONARY
  5
10
102
{ACAD_REACTORS
330
C
102
}
330
C
100
AcDbDictionary
281
     1
  3
ByBlock
350
19
  3
ByLayer
350
11
  3
Global
350
21
  0
DICTIONARY
  5
66
102
{ACAD_REACTORS
330
C
102
}
330
C
100
AcDbDictionary
281
     1
  3
Standard
350
67
  0
DICTIONARY
  5
5F
102
{ACAD_REACTORS
330
C
102
}
330
C
100
AcDbDictionary
281
     1
  3
Standard
350
60
  0
DICTIONARY
  5
61
102
{ACAD_REACTORS
330
C
102
}
330
C
100
AcDbDictionary
281
     1
  0
ACDBDICTIONARYWDFLT
  5
E
102
{ACAD_REACTORS
330
C
102
}
330
C
100
AcDbDictionary
281
     1
  3
Normal
350
F
100
AcDbDictionaryWithDefault
340
F
  0
DICTIONARY
  5
42
102
{ACAD_REACTORS
330
C
102
}
330
C
100
AcDbDictionary
281
     1
  3
A0
350
43
  3
A1
350
44
  3
A2
350
45
  3
A3
350
46
  3
A4
350
47
  3
A5
350
48
  3
A6
350
49
  3
A7
350
4A
  3
A8
350
4B
  3
A9
350
4C
  3
B0
350
4D
  3
B1
350
4E
  3
B2
350
4F
  3
B3
350
50
  3
B4
350
51
  3
B5
350
52
  3
B6
350
53
  0
DICTIONARY
  5
68
102
{ACAD_REACTORS
330
C
102
}
330
C
100
AcDbDictionary
281
     1
  3
Imperial24
350
6A
  0
DICTIONARY
  5
64
102
{ACAD_REACTORS
330
C
102
}
330
C
100
AcDbDictionary
281
     1
  3
Standard
350
65
  0
DICTIONARY
  5
29
102
{ACAD_REACTORS
330
C
102
}
330
C
100
AcDbDictionary
281
     1
  3
2dWireframe
350
2F
  3
Basic
350
2E
  3
Brighten
350
35
  3
ColorChange
350
39
  3
Conceptual
350
32
  3
Dim
350
34
  3
EdgeColorOff
350
41
  3
Facepattern
350
38
  3
Flat
350
2A
  3
FlatWithEdges
350
2B
  3
Gouraud
350
2C
  3
GouraudWithEdges
350
2D
  3
Hidden
350
31
  3
JitterOff
350
3F
  3
Linepattern
350
37
  3
OverhangOff
350
40
  3
Realistic
350
33
  3
Shaded
350
3E
  3
Shaded with edges
350
3D
  3
Shades of Gray
350
3A
  3
Sketchy
350
3B
  3
Thicken
350
36
  3
Wireframe
350
30
  3
X-Ray
350
3C
  0
XRECORD
  5
34C
102
{ACAD_REACTORS
330
C
102
}
330
C
100
AcDbXrecord
280
     1
 90
        1
330
65
  0
DICTIONARY
  5
7C
102
{ACAD_REACTORS
330
C
102
}
330
C
100
AcDbDictionary
281
     1
  3
CANNOSCALE
350
81
  3
CMLEADERSTYLE
350
7E
  3
CTABLESTYLE
350
7D
  3
CVIEWDETAILSTYLE
350
7F
  3
CVIEWSECTIONSTYLE
350
80
  0
DICTIONARY
  5
343
102
{ACAD_REACTORS
330
C
102
}
330
C
100
AcDbDictionary
281
     1
  3
DRAWING_TOOL
350
347
  3
REVIT_CATEGORY_MAPPING
350
345
  3
REVIT_SUB_CATEGORY_MAPPING
350
346
  3
REVIT_TYPE_MAPPING
350
344
  0
SORTENTSTABLE
  5
349
102
{ACAD_REACTORS
330
348
102
}
330
348
100
AcDbSortentsTable
330
71
  0
ACDBDETAILVIEWSTYLE
  5
6C
102
{ACAD_REACTORS
330
6B
102
}
330
6B
100
AcDbModelDocViewStyle
 70
     0
  3
Imperial24
290
     1
100
AcDbDetailViewStyle
 70
     0
 71
     0
 90
        3
 71
     1
340
55
 62
   256
 40
0.24
340
0
 62
   256
 40
0.24
300

 40
0.36
280
     3
 71
     2
340
5D
 90
       25
 62
   256
 71
     3
340
55
 62
   256
 40
0.24
 90
        1
 40
0.75
 90
        1
300
%<\AcVar ViewType \f "%tc1">% %<\AcVar ViewDetailId>%\PSCALA %<\AcVar ViewScale \f "%sn">%
 71
     4
340
5D
 90
       25
 62
   256
340
5D
 90
       25
 62
   256
280
     0
  0
LAYOUT
  5
70
102
{ACAD_REACTORS
330
62
102
}
330
62
100
AcDbPlotSettings
  1

  2

  4

  6

 40
0.0
 41
0.0
 42
0.0
 43
0.0
 44
0.0
 45
0.0
 46
0.0
 47
0.0
 48
0.0
 49
0.0
140
0.0
141
0.0
142
1.0
143
1.0
 70
   688
 72
     0
 73
     0
 74
     5
  7

 75
    16
147
1.0
 76
     0
 77
     2
 78
   300
148
0.0
149
0.0
100
AcDbLayout
  1
Layout1
 70
     1
 71
     1
 10
0.0
 20
0.0
 11
12.0
 21
9.0
 12
0.0
 22
0.0
 32
0.0
 14
0.0
 24
0.0
 34
0.0
 15
0.0
 25
0.0
 35
0.0
146
0.0
 13
0.0
 23
0.0
 33
0.0
 16
1.0
 26
0.0
 36
0.0
 17
0.0
 27
1.0
 37
0.0
 76
     0
330
6D
  0
LAYOUT
  5
78
102
{ACAD_REACTORS
330
62
102
}
330
62
100
AcDbPlotSettings
  1

  2

  4

  6

 40
0.0
 41
0.0
 42
0.0
 43
0.0
 44
0.0
 45
0.0
 46
0.0
 47
0.0
 48
0.0
 49
0.0
140
0.0
141
0.0
142
1.0
143
1.0
 70
   688
 72
     0
 73
     0
 74
     5
  7

 75
    16
147
1.0
 76
     0
 77
     2
 78
   300
148
0.0
149
0.0
100
AcDbLayout
  1
Layout2
 70
     1
 71
     2
 10
0.0
 20
0.0
 11
12.0
 21
9.0
 12
0.0
 22
0.0
 32
0.0
 14
0.0
 24
0.0
 34
0.0
 15
0.0
 25
0.0
 35
0.0
146
0.0
 13
0.0
 23
0.0
 33
0.0
 16
1.0
 26
0.0
 36
0.0
 17
0.0
 27
1.0
 37
0.0
 76
     0
330
75
  0
LAYOUT
  5
74
102
{ACAD_REACTORS
330
62
102
}
330
62
100
AcDbPlotSettings
  1

  2

  4

  6

 40
0.0
 41
0.0
 42
0.0
 43
0.0
 44
0.0
 45
0.0
 46
0.0
 47
0.0
 48
0.0
 49
0.0
140
0.0
141
0.0
142
1.0
143
1.0
 70
  1712
 72
     0
 73
     0
 74
     0
  7

 75
     0
147
1.0
 76
     0
 77
     2
 78
   300
148
0.0
149
0.0
100
AcDbLayout
  1
Model
 70
     1
 71
     0
 10
0.0
 20
0.0
 11
12.0
 21
9.0
 12
0.0
 22
0.0
 32
0.0
 14
0.0
 24
0.0
 34
0.0
 15
0.0
 25
0.0
 35
0.0
146
0.0
 13
0.0
 23
0.0
 33
0.0
 16
1.0
 26
0.0
 36
0.0
 17
0.0
 27
1.0
 37
0.0
 76
     0
330
71
  0
MATERIAL
  5
19
102
{ACAD_XDICTIONARY
360
1A
102
}
102
{ACAD_REACTORS
330
10
102
}
330
10
100
AcDbMaterial
  1
ByBlock
 72
     0
 43
0.0208333333333333
 43
0.0
 43
0.0
 43
0.0
 43
0.0
 43
0.0208333333333333
 43
0.0
 43
0.0
 43
0.0
 43
0.0
 43
1.0
 43
0.0
 43
0.0
 43
0.0
 43
0.0
 43
1.0
 77
     0
 47
0.0208333333333333
 47
0.0
 47
0.0
 47
0.0
 47
0.0
 47
0.0208333333333333
 47
0.0
 47
0.0
 47
0.0
 47
0.0
 47
1.0
 47
0.0
 47
0.0
 47
0.0
 47
0.0
 47
1.0
171
     0
 49
0.0208333333333333
 49
0.0
 49
0.0
 49
0.0
 49
0.0
 49
0.0208333333333333
 49
0.0
 49
0.0
 49
0.0
 49
0.0
 49
1.0
 49
0.0
 49
0.0
 49
0.0
 49
0.0
 49
1.0
175
     0
142
0.0208333333333333
142
0.0
142
0.0
142
0.0
142
0.0
142
0.0208333333333333
142
0.0
142
0.0
142
0.0
142
0.0
142
1.0
142
0.0
142
0.0
142
0.0
142
0.0
142
1.0
179
     0
144
0.0208333333333333
144
0.0
144
0.0
144
0.0
144
0.0
144
0.0208333333333333
144
0.0
144
0.0
144
0.0
144
0.0
144
1.0
144
0.0
144
0.0
144
0.0
144
0.0
144
1.0
147
0.0208333333333333
147
0.0
147
0.0
147
0.0
147
0.0
147
0.0208333333333333
147
0.0
147
0.0
147
0.0
147
0.0
147
1.0
147
0.0
147
0.0
147
0.0
147
0.0
147
1.0
  0
MATERIAL
  5
11
102
{ACAD_XDICTIONARY
360
12
102
}
102
{ACAD_REACTORS
330
10
102
}
330
10
100
AcDbMaterial
  1
ByLayer
 72
     0
 43
0.0208333333333333
 43
0.0
 43
0.0
 43
0.0
 43
0.0
 43
0.0208333333333333
 43
0.0
 43
0.0
 43
0.0
 43
0.0
 43
1.0
 43
0.0
 43
0.0
 43
0.0
 43
0.0
 43
1.0
 77
     0
 47
0.0208333333333333
 47
0.0
 47
0.0
 47
0.0
 47
0.0
 47
0.0208333333333333
 47
0.0
 47
0.0
 47
0.0
 47
0.0
 47
1.0
 47
0.0
 47
0.0
 47
0.0
 47
0.0
 47
1.0
171
     0
 49
0.0208333333333333
 49
0.0
 49
0.0
 49
0.0
 49
0.0
 49
0.0208333333333333
 49
0.0
 49
0.0
 49
0.0
 49
0.0
 49
1.0
 49
0.0
 49
0.0
 49
0.0
 49
0.0
 49
1.0
175
     0
142
0.0208333333333333
142
0.0
142
0.0
142
0.0
142
0.0
142
0.0208333333333333
142
0.0
142
0.0
142
0.0
142
0.0
142
1.0
142
0.0
142
0.0
142
0.0
142
0.0
142
1.0
179
     0
144
0.0208333333333333
144
0.0
144
0.0
144
0.0
144
0.0
144
0.0208333333333333
144
0.0
144
0.0
144
0.0
144
0.0
144
1.0
144
0.0
144
0.0
144
0.0
144
0.0
144
1.0
147
0.0208333333333333
147
0.0
147
0.0
147
0.0
147
0.0
147
0.0208333333333333
147
0.0
147
0.0
147
0.0
147
0.0
147
1.0
147
0.0
147
0.0
147
0.0
147
0.0
147
1.0
  0
MATERIAL
  5
21
102
{ACAD_XDICTIONARY
360
22
102
}
102
{ACAD_REACTORS
330
10
102
}
330
10
100
AcDbMaterial
  1
Global
 72
     0
 43
0.0208333333333333
 43
0.0
 43
0.0
 43
0.0
 43
0.0
 43
0.0208333333333333
 43
0.0
 43
0.0
 43
0.0
 43
0.0
 43
1.0
 43
0.0
 43
0.0
 43
0.0
 43
0.0
 43
1.0
 77
     0
 47
0.0208333333333333
 47
0.0
 47
0.0
 47
0.0
 47
0.0
 47
0.0208333333333333
 47
0.0
 47
0.0
 47
0.0
 47
0.0
 47
1.0
 47
0.0
 47
0.0
 47
0.0
 47
0.0
 47
1.0
171
     0
 49
0.0208333333333333
 49
0.0
 49
0.0
 49
0.0
 49
0.0
 49
0.0208333333333333
 49
0.0
 49
0.0
 49
0.0
 49
0.0
 49
1.0
 49
0.0
 49
0.0
 49
0.0
 49
0.0
 49
1.0
175
     0
142
0.0208333333333333
142
0.0
142
0.0
142
0.0
142
0.0
142
0.0208333333333333
142
0.0
142
0.0
142
0.0
142
0.0
142
1.0
142
0.0
142
0.0
142
0.0
142
0.0
142
1.0
179
     0
144
0.0208333333333333
144
0.0
144
0.0
144
0.0
144
0.0
144
0.0208333333333333
144
0.0
144
0.0
144
0.0
144
0.0
144
1.0
144
0.0
144
0.0
144
0.0
144
0.0
144
1.0
147
0.0208333333333333
147
0.0
147
0.0
147
0.0
147
0.0
147
0.0208333333333333
147
0.0
147
0.0
147
0.0
147
0.0
147
1.0
147
0.0
147
0.0
147
0.0
147
0.0
147
1.0
  0
MLEADERSTYLE
  5
67
102
{ACAD_REACTORS
330
66
102
}
330
66
100
AcDbMLeaderStyle
179
     2
170
     2
171
     1
172
     0
 90
        2
 40
0.0
 41
0.0
173
     1
 91
-1056964608
340
5B
 92
       -2
290
     1
 42
0.09
291
     1
 43
0.36
  3
Standard
 44
0.18
300

342
55
174
     1
178
     6
175
     1
176
     0
 93
-1056964608
 45
0.18
292
     0
297
     0
 46
0.18
 94
-1056964608
 47
1.0
 49
1.0
140
1.0
293
     1
141
0.0
294
     1
177
     0
142
1.0
295
     1
296
     0
143
0.125
271
     0
272
     9
273
     9
298
     1
  0
MLINESTYLE
  5
60
102
{ACAD_REACTORS
330
5F
102
}
330
5F
100
AcDbMlineStyle
  2
STANDARD
 70
     0
  3

 62
   256
 51
90.0
 52
90.0
 71
     2
 49
0.5
 62
   256
  6
BYLAYER
 49
-0.5
 62
   256
  6
BYLAYER
  0
ACDBPLACEHOLDER
  5
F
102
{ACAD_REACTORS
330
E
102
}
330
E
  0
SCALE
  5
43
102
{ACAD_REACTORS
330
42
102
}
330
42
100
AcDbScale
 70
     0
300
1:1
140
1.0
141
1.0
290
     1
  0
SCALE
  5
44
102
{ACAD_REACTORS
330
42
102
}
330
42
100
AcDbScale
 70
     0
300
1/128" = 1'-0"
140
0.0078125
141
12.0
290
     0
  0
SCALE
  5
45
102
{ACAD_REACTORS
330
42
102
}
330
42
100
AcDbScale
 70
     0
300
1/64" = 1'-0"
140
0.015625
141
12.0
290
     0
  0
SCALE
  5
46
102
{ACAD_REACTORS
330
42
102
}
330
42
100
AcDbScale
 70
     0
300
1/32" = 1'-0"
140
0.03125
141
12.0
290
     0
  0
SCALE
  5
47
102
{ACAD_REACTORS
330
42
102
}
330
42
100
AcDbScale
 70
     0
300
1/16" = 1'-0"
140
0.0625
141
12.0
290
     0
  0
SCALE
  5
48
102
{ACAD_REACTORS
330
42
102
}
330
42
100
AcDbScale
 70
     0
300
3/32" = 1'-0"
140
0.09375
141
12.0
290
     0
  0
SCALE
  5
49
102
{ACAD_REACTORS
330
42
102
}
330
42
100
AcDbScale
 70
     0
300
1/8" = 1'-0"
140
0.125
141
12.0
290
     0
  0
SCALE
  5
4A
102
{ACAD_REACTORS
330
42
102
}
330
42
100
AcDbScale
 70
     0
300
3/16" = 1'-0"
140
0.1875
141
12.0
290
     0
  0
SCALE
  5
4B
102
{ACAD_REACTORS
330
42
102
}
330
42
100
AcDbScale
 70
     0
300
1/4" = 1'-0"
140
0.25
141
12.0
290
     0
  0
SCALE
  5
4C
102
{ACAD_REACTORS
330
42
102
}
330
42
100
AcDbScale
 70
     0
300
3/8" = 1'-0"
140
0.375
141
12.0
290
     0
  0
SCALE
  5
4D
102
{ACAD_REACTORS
330
42
102
}
330
42
100
AcDbScale
 70
     0
300
1/2" = 1'-0"
140
0.5
141
12.0
290
     0
  0
SCALE
  5
4E
102
{ACAD_REACTORS
330
42
102
}
330
42
100
AcDbScale
 70
     0
300
3/4" = 1'-0"
140
0.75
141
12.0
290
     0
  0
SCALE
  5
4F
102
{ACAD_REACTORS
330
42
102
}
330
42
100
AcDbScale
 70
     0
300
1" = 1'-0"
140
1.0
141
12.0
290
     0
  0
SCALE
  5
50
102
{ACAD_REACTORS
330
42
102
}
330
42
100
AcDbScale
 70
     0
300
1-1/2" = 1'-0"
140
1.5
141
12.0
290
     0
  0
SCALE
  5
51
102
{ACAD_REACTORS
330
42
102
}
330
42
100
AcDbScale
 70
     0
300
3" = 1'-0"
140
3.0
141
12.0
290
     0
  0
SCALE
  5
52
102
{ACAD_REACTORS
330
42
102
}
330
42
100
AcDbScale
 70
     0
300
6" = 1'-0"
140
6.0
141
12.0
290
     0
  0
SCALE
  5
53
102
{ACAD_REACTORS
330
42
102
}
330
42
100
AcDbScale
 70
     0
300
1'-0" = 1'-0"
140
12.0
141
12.0
290
     0
  0
ACDBSECTIONVIEWSTYLE
  5
6A
102
{ACAD_REACTORS
330
68
102
}
330
68
100
AcDbModelDocViewStyle
 70
     0
  3
Imperial24
290
     1
100
AcDbSectionViewStyle
 70
     0
 71
     0
 90
       78
 71
     1
340
55
 62
   256
 40
0.24
340
0
340
0
 62
   256
 40
0.24
300
I, O, Q, S, X, Z
 40
0.48
 90
        3
 40
0.18
 90
        1
 71
     2
340
69
 90
       25
 62
   256
340
5D
 90
       50
 62
   256
 40
0.24
 40
0.0
 40
0.24
 71
     3
340
55
 62
   256
 40
0.24
 90
        1
 40
0.75
 90
        1
300
%<\AcVar ViewType \f "%tc1">% %<\AcVar ViewSectionStartId>%-%<\AcVar ViewSectionEndId>%\PSCALA %<\AcVar ViewScale \f "%sn">%
 71
     4
 62
   256
 62
   257
300
ANSI31
 40
1.0
 90
        0
290
     0
290
     0
 90
        6
 40
0.0
 40
1.570796326794896
 40
0.2617993877991494
 40
1.308996938995747
 40
-0.2617993877991494
 40
1.832595714594046
  0
TABLESTYLE
  5
65
102
{ACAD_XDICTIONARY
360
34A
102
}
102
{ACAD_REACTORS
330
64
102
}
330
64
100
AcDbTableStyle
280
     0
  3
Standard
 70
     0
 71
     0
 40
0.06
 41
0.06
280
     0
281
     0
  7
Standard
140
0.18
170
     2
 62
     0
 63
     7
283
     0
 90
      512
 91
        0
  1

274
    -2
284
     1
 64
     0
275
    -2
285
     1
 65
     0
276
    -2
286
     1
 66
     0
277
    -2
287
     1
 67
     0
278
    -2
288
     1
 68
     0
279
    -2
289
     1
 69
     0
  7
Standard
140
0.25
170
     5
 62
     0
 63
     7
283
     0
 90
      512
 91
        0
  1

274
    -2
284
     1
 64
     0
275
    -2
285
     1
 65
     0
276
    -2
286
     1
 66
     0
277
    -2
287
     1
 67
     0
278
    -2
288
     1
 68
     0
279
    -2
289
     1
 69
     0
  7
Standard
140
0.18
170
     5
 62
     0
 63
     7
283
     0
 90
      512
 91
        0
  1

274
    -2
284
     1
 64
     0
275
    -2
285
     1
 65
     0
276
    -2
286
     1
 66
     0
277
    -2
287
     1
 67
     0
278
    -2
288
     1
 68
     0
279
    -2
289
     1
 69
     0
  0
VISUALSTYLE
  5
2F
102
{ACAD_REACTORS
330
29
102
}
330
29
100
AcDbVisualStyle
  2
2dWireframe
 70
     4
177
     3
291
     0
 70
    58
 90
        0
176
     1
 90
        2
176
     1
 90
        0
176
     1
 90
        0
176
     1
 40
0.6
176
     1
 40
30.0
176
     1
 62
     7
420
 16777215
176
     1
 90
        1
176
     1
 90
        4
176
     1
 62
     7
176
     1
 62
   257
176
     1
 90
        1
176
     1
 90
        1
176
     1
 40
1.0
176
     1
 90
        0
176
     1
 62
   257
176
     1
 40
1.0
176
     1
 90
        1
176
     1
 90
        6
176
     1
 90
        2
176
     1
 62
     7
176
     1
 90
        5
176
     1
 90
        0
176
     1
 90
        0
176
     1
290
     0
176
     1
 90
        1
176
     1
 40
0.0
176
     1
 90
        0
176
     1
290
     1
176
     1
290
     1
176
     1
290
     0
176
     1
290
     0
176
     1
290
     0
176
     1
290
     0
176
     1
290
     0
176
     1
290
     0
176
     1
290
     0
176
     1
 90
       50
176
     1
 40
0.0
176
     1
 40
1.0
176
     1
 90
        0
176
     1
 62
    18
420
        0
176
     1
 90
       50
176
     1
 90
        3
176
     1
 62
     5
420
      255
176
     1
290
     0
176
     1
 90
       50
176
     1
 90
       50
176
     1
 90
       50
176
     1
290
     0
176
     1
 90
       50
176
     1
 62
   256
176
     0
 40
1.0
176
     0
 90
        2
176
     1
  1
strokes_ogs.tif
176
     1
290
     0
176
     1
 40
1.0
176
     1
 40
1.0
176
     1
  0
VISUALSTYLE
  5
2E
102
{ACAD_REACTORS
330
29
102
}
330
29
100
AcDbVisualStyle
  2
Basic
 70
     7
177
     3
291
     1
 70
    58
 90
        1
176
     1
 90
        0
176
     1
 90
        1
176
     1
 90
        0
176
     1
 40
0.6
176
     1
 40
30.0
176
     1
 62
     7
420
 16777215
176
     1
 90
        0
176
     1
 90
        4
176
     1
 62
     7
176
     1
 62
   257
176
     1
 90
        1
176
     1
 90
        1
176
     1
 40
1.0
176
     1
 90
        8
176
     1
 62
     7
176
     1
 40
1.0
176
     1
 90
        1
176
     1
 90
        6
176
     1
 90
        2
176
     1
 62
     7
176
     1
 90
        5
176
     1
 90
        0
176
     1
 90
        0
176
     1
290
     0
176
     1
 90
        1
176
     1
 40
0.0
176
     1
 90
        0
176
     1
290
     0
176
     1
290
     1
176
     1
290
     1
176
     1
290
     0
176
     1
290
     0
176
     1
290
     0
176
     1
290
     0
176
     1
290
     0
176
     1
290
     0
176
     1
 90
       50
176
     1
 40
0.0
176
     1
 40
1.0
176
     1
 90
        0
176
     1
 62
    18
420
        0
176
     1
 90
       50
176
     1
 90
        3
176
     1
 62
     5
420
      255
176
     1
290
     0
176
     1
 90
       50
176
     1
 90
       50
176
     1
 90
       50
176
     1
290
     0
176
     1
 90
       50
176
     1
 62
   256
176
     0
 40
1.0
176
     0
 90
        2
176
     1
  1
strokes_ogs.tif
176
     1
290
     0
176
     1
 40
1.0
176
     1
 40
1.0
176
     1
  0
VISUALSTYLE
  5
35
102
{ACAD_REACTORS
330
29
102
}
330
29
100
AcDbVisualStyle
  2
Brighten
 70
    12
177
     3
291
     1
 70
    58
 90
        2
176
     1
 90
        2
176
     1
 90
        0
176
     1
 90
        0
176
     1
 40
0.6
176
     1
 40
30.0
176
     1
 62
     7
420
 16777215
176
     1
 90
        1
176
     1
 90
        4
176
     1
 62
     7
176
     1
 62
   257
176
     1
 90
        1
176
     1
 90
        1
176
     1
 40
1.0
176
     1
 90
        8
176
     1
 62
     7
176
     1
 40
1.0
176
     1
 90
        1
176
     1
 90
        6
176
     1
 90
        2
176
     1
 62
     7
176
     1
 90
        5
176
     1
 90
        0
176
     1
 90
        0
176
     1
290
     0
176
     1
 90
        1
176
     1
 40
50.0
176
     1
 90
        0
176
     1
290
     0
176
     1
290
     1
176
     1
290
     1
176
     1
290
     0
176
     1
290
     0
176
     1
290
     0
176
     1
290
     0
176
     1
290
     0
176
     1
290
     0
176
     1
 90
       50
176
     1
 40
0.0
176
     1
 40
1.0
176
     1
 90
        0
176
     1
 62
    18
420
        0
176
     1
 90
       50
176
     1
 90
        3
176
     1
 62
     5
420
      255
176
     1
290
     0
176
     1
 90
       50
176
     1
 90
       50
176
     1
 90
       50
176
     1
290
     0
176
     1
 90
       50
176
     1
 62
   256
176
     0
 40
1.0
176
     0
 90
        2
176
     1
  1
strokes_ogs.tif
176
     1
290
     0
176
     1
 40
1.0
176
     1
 40
1.0
176
     1
  0
VISUALSTYLE
  5
39
102
{ACAD_REACTORS
330
29
102
}
330
29
100
AcDbVisualStyle
  2
ColorChange
 70
    16
177
     3
291
     1
 70
    58
 90
        2
176
     1
 90
        2
176
     1
 90
        3
176
     1
 90
        0
176
     1
 40
0.6
176
     1
 40
30.0
176
     1
 62
     8
420
  8421504
176
     1
 90
        1
176
     1
 90
        4
176
     1
 62
     7
176
     1
 62
   257
176
     1
 90
        1
176
     1
 90
        1
176
     1
 40
1.0
176
     1
 90
        8
176
     1
 62
     8
420
  8421504
176
     1
 40
1.0
176
     1
 90
        1
176
     1
 90
        6
176
     1
 90
        2
176
     1
 62
     7
176
     1
 90
        5
176
     1
 90
        0
176
     1
 90
        0
176
     1
290
     0
176
     1
 90
        1
176
     1
 40
0.0
176
     1
 90
        0
176
     1
290
     0
176
     1
290
     1
176
     1
290
     1
176
     1
290
     0
176
     1
290
     0
176
     1
290
     0
176
     1
290
     0
176
     1
290
     0
176
     1
290
     0
176
     1
 90
       50
176
     1
 40
0.0
176
     1
 40
1.0
176
     1
 90
        0
176
     1
 62
    18
420
        0
176
     1
 90
       50
176
     1
 90
        3
176
     1
 62
     5
420
      255
176
     1
290
     0
176
     1
 90
       50
176
     1
 90
       50
176
     1
 90
       50
176
     1
290
     0
176
     1
 90
       50
176
     1
 62
   256
176
     0
 40
1.0
176
     0
 90
        2
176
     1
  1
strokes_ogs.tif
176
     1
290
     0
176
     1
 40
1.0
176
     1
 40
1.0
176
     1
  0
VISUALSTYLE
  5
32
102
{ACAD_REACTORS
330
29
102
}
330
29
100
AcDbVisualStyle
  2
Conceptual
 70
     9
177
     3
291
     0
 70
    58
 90
        3
176
     1
 90
        2
176
     1
 90
        0
176
     1
 90
        0
176
     1
 40
0.6
176
     1
 40
30.0
176
     1
 62
     7
420
 16777215
176
     1
 90
        2
176
     1
 90
        2
176
     1
 62
     7
176
     1
 62
   257
176
     1
 90
        1
176
     1
 90
        1
176
     1
 40
179.0
176
     1
 90
        8
176
     1
 62
     7
176
     1
 40
1.0
176
     1
 90
        1
176
     1
 90
        6
176
     1
 90
        2
176
     1
 62
     7
176
     1
 90
        3
176
     1
 90
        0
176
     1
 90
        0
176
     1
290
     0
176
     1
 90
        1
176
     1
 40
0.0
176
     1
 90
        0
176
     1
290
     0
176
     1
290
     1
176
     1
290
     1
176
     1
290
     0
176
     1
290
     0
176
     1
290
     0
176
     1
290
     0
176
     1
290
     0
176
     1
290
     0
176
     1
 90
       50
176
     1
 40
0.0
176
     1
 40
1.0
176
     1
 90
        0
176
     1
 62
    18
420
        0
176
     1
 90
       50
176
     1
 90
        3
176
     1
 62
     5
420
      255
176
     1
290
     0
176
     1
 90
       50
176
     1
 90
       50
176
     1
 90
       50
176
     1
290
     0
176
     1
 90
       50
176
     1
 62
   256
176
     0
 40
1.0
176
     0
 90
        2
176
     1
  1
strokes_ogs.tif
176
     1
290
     0
176
     1
 40
1.0
176
     1
 40
1.0
176
     1
  0
VISUALSTYLE
  5
34
102
{ACAD_REACTORS
330
29
102
}
330
29
100
AcDbVisualStyle
  2
Dim
 70
    11
177
     3
291
     1
 70
    58
 90
        2
176
     1
 90
        2
176
     1
 90
        0
176
     1
 90
        0
176
     1
 40
0.6
176
     1
 40
30.0
176
     1
 62
     7
420
 16777215
176
     1
 90
        1
176
     1
 90
        4
176
     1
 62
     7
176
     1
 62
   257
176
     1
 90
        1
176
     1
 90
        1
176
     1
 40
1.0
176
     1
 90
        8
176
     1
 62
     7
176
     1
 40
1.0
176
     1
 90
        1
176
     1
 90
        6
176
     1
 90
        2
176
     1
 62
     7
176
     1
 90
        5
176
     1
 90
        0
176
     1
 90
        0
176
     1
290
     0
176
     1
 90
        1
176
     1
 40
-50.0
176
     1
 90
        0
176
     1
290
     0
176
     1
290
     1
176
     1
290
     1
176
     1
290
     0
176
     1
290
     0
176
     1
290
     0
176
     1
290
     0
176
     1
290
     0
176
     1
290
     0
176
     1
 90
       50
176
     1
 40
0.0
176
     1
 40
1.0
176
     1
 90
        0
176
     1
 62
    18
420
        0
176
     1
 90
       50
176
     1
 90
        3
176
     1
 62
     5
420
      255
176
     1
290
     0
176
     1
 90
       50
176
     1
 90
       50
176
     1
 90
       50
176
     1
290
     0
176
     1
 90
       50
176
     1
 62
   256
176
     0
 40
1.0
176
     0
 90
        2
176
     1
  1
strokes_ogs.tif
176
     1
290
     0
176
     1
 40
1.0
176
     1
 40
1.0
176
     1
  0
VISUALSTYLE
  5
41
102
{ACAD_REACTORS
330
29
102
}
330
29
100
AcDbVisualStyle
  2
EdgeColorOff
 70
    22
177
     3
291
     1
 70
    58
 90
        2
176
     0
 90
        2
176
     0
 90
        0
176
     0
 90
        0
176
     0
 40
0.6
176
     0
 40
30.0
176
     0
 62
     7
420
 16777215
176
     0
 90
        1
176
     0
 90
        4
176
     0
 62
     7
176
     0
 62
   257
176
     0
 90
        1
176
     0
 90
        1
176
     0
 40
1.0
176
     0
 90
        8
176
     2
 62
     7
176
     0
 40
1.0
176
     0
 90
        1
176
     0
 90
        6
176
     0
 90
        2
176
     0
 62
     7
176
     0
 90
        5
176
     0
 90
        0
176
     0
 90
        0
176
     0
290
     0
176
     0
 90
        1
176
     0
 40
0.0
176
     0
 90
        0
176
     0
290
     0
176
     0
290
     1
176
     0
290
     1
176
     0
290
     0
176
     0
290
     0
176
     0
290
     0
176
     0
290
     0
176
     0
290
     0
176
     0
290
     0
176
     0
 90
       50
176
     0
 40
0.0
176
     0
 40
1.0
176
     0
 90
        0
176
     0
 62
    18
420
        0
176
     0
 90
       50
176
     0
 90
        3
176
     0
 62
     5
420
      255
176
     0
290
     0
176
     0
 90
       50
176
     0
 90
       50
176
     0
 90
       50
176
     0
290
     0
176
     0
 90
       50
176
     0
 62
   256
176
     0
 40
1.0
176
     0
 90
        2
176
     0
  1
strokes_ogs.tif
176
     0
290
     0
176
     0
 40
1.0
176
     0
 40
1.0
176
     0
  0
VISUALSTYLE
  5
38
102
{ACAD_REACTORS
330
29
102
}
330
29
100
AcDbVisualStyle
  2
Facepattern
 70
    15
177
     3
291
     1
 70
    58
 90
        2
176
     1
 90
        2
176
     1
 90
        0
176
     1
 90
        0
176
     1
 40
0.6
176
     1
 40
30.0
176
     1
 62
     7
420
 16777215
176
     1
 90
        1
176
     1
 90
        4
176
     1
 62
     7
176
     1
 62
   257
176
     1
 90
        1
176
     1
 90
        1
176
     1
 40
1.0
176
     1
 90
        8
176
     1
 62
     7
176
     1
 40
1.0
176
     1
 90
        1
176
     1
 90
        6
176
     1
 90
        2
176
     1
 62
     7
176
     1
 90
        5
176
     1
 90
        0
176
     1
 90
        0
176
     1
290
     0
176
     1
 90
        1
176
     1
 40
0.0
176
     1
 90
        0
176
     1
290
     0
176
     1
290
     1
176
     1
290
     1
176
     1
290
     0
176
     1
290
     0
176
     1
290
     0
176
     1
290
     0
176
     1
290
     0
176
     1
290
     0
176
     1
 90
       50
176
     1
 40
0.0
176
     1
 40
1.0
176
     1
 90
        0
176
     1
 62
    18
420
        0
176
     1
 90
       50
176
     1
 90
        3
176
     1
 62
     5
420
      255
176
     1
290
     0
176
     1
 90
       50
176
     1
 90
       50
176
     1
 90
       50
176
     1
290
     0
176
     1
 90
       50
176
     1
 62
   256
176
     0
 40
1.0
176
     0
 90
        2
176
     1
  1
strokes_ogs.tif
176
     1
290
     0
176
     1
 40
1.0
176
     1
 40
1.0
176
     1
  0
VISUALSTYLE
  5
2A
102
{ACAD_REACTORS
330
29
102
}
330
29
100
AcDbVisualStyle
  2
Flat
 70
     0
177
     3
291
     1
 70
    58
 90
        2
176
     1
 90
        1
176
     1
 90
        1
176
     1
 90
        2
176
     1
 40
0.6
176
     1
 40
30.0
176
     1
 62
     7
420
 16777215
176
     1
 90
        0
176
     1
 90
        0
176
     1
 62
     7
176
     1
 62
   257
176
     1
 90
        1
176
     1
 90
        1
176
     1
 40
1.0
176
     1
 90
        8
176
     1
 62
     7
176
     1
 40
1.0
176
     1
 90
        1
176
     1
 90
        6
176
     1
 90
        2
176
     1
 62
     7
176
     1
 90
        5
176
     1
 90
        0
176
     1
 90
        0
176
     1
290
     0
176
     1
 90
       13
176
     1
 40
0.0
176
     1
 90
        0
176
     1
290
     0
176
     1
290
     1
176
     1
290
     1
176
     1
290
     0
176
     1
290
     0
176
     1
290
     0
176
     1
290
     0
176
     1
290
     0
176
     1
290
     0
176
     1
 90
       50
176
     1
 40
0.0
176
     1
 40
1.0
176
     1
 90
        0
176
     1
 62
    18
420
        0
176
     1
 90
       50
176
     1
 90
        3
176
     1
 62
     5
420
      255
176
     1
290
     0
176
     1
 90
       50
176
     1
 90
       50
176
     1
 90
       50
176
     1
290
     0
176
     1
 90
       50
176
     1
 62
   256
176
     0
 40
1.0
176
     0
 90
        2
176
     1
  1
strokes_ogs.tif
176
     1
290
     0
176
     1
 40
1.0
176
     1
 40
1.0
176
     1
  0
VISUALSTYLE
  5
2B
102
{ACAD_REACTORS
330
29
102
}
330
29
100
AcDbVisualStyle
  2
FlatWithEdges
 70
     1
177
     3
291
     1
 70
    58
 90
        2
176
     1
 90
        1
176
     1
 90
        1
176
     1
 90
        2
176
     1
 40
0.6
176
     1
 40
30.0
176
     1
 62
     7
420
 16777215
176
     1
 90
        1
176
     1
 90
        0
176
     1
 62
     7
176
     1
 62
   257
176
     1
 90
        1
176
     1
 90
        1
176
     1
 40
1.0
176
     1
 90
        0
176
     1
 62
   257
176
     1
 40
1.0
176
     1
 90
        1
176
     1
 90
        6
176
     1
 90
        2
176
     1
 62
     7
176
     1
 90
        5
176
     1
 90
        0
176
     1
 90
        0
176
     1
290
     0
176
     1
 90
       13
176
     1
 40
0.0
176
     1
 90
        0
176
     1
290
     0
176
     1
290
     1
176
     1
290
     1
176
     1
290
     0
176
     1
290
     0
176
     1
290
     0
176
     1
290
     0
176
     1
290
     0
176
     1
290
     0
176
     1
 90
       50
176
     1
 40
0.0
176
     1
 40
1.0
176
     1
 90
        0
176
     1
 62
    18
420
        0
176
     1
 90
       50
176
     1
 90
        3
176
     1
 62
     5
420
      255
176
     1
290
     0
176
     1
 90
       50
176
     1
 90
       50
176
     1
 90
       50
176
     1
290
     0
176
     1
 90
       50
176
     1
 62
   256
176
     0
 40
1.0
176
     0
 90
        2
176
     1
  1
strokes_ogs.tif
176
     1
290
     0
176
     1
 40
1.0
176
     1
 40
1.0
176
     1
  0
VISUALSTYLE
  5
2C
102
{ACAD_REACTORS
330
29
102
}
330
29
100
AcDbVisualStyle
  2
Gouraud
 70
     2
177
     3
291
     1
 70
    58
 90
        2
176
     1
 90
        2
176
     1
 90
        1
176
     1
 90
        2
176
     1
 40
0.6
176
     1
 40
30.0
176
     1
 62
     7
420
 16777215
176
     1
 90
        0
176
     1
 90
        0
176
     1
 62
     7
176
     1
 62
   257
176
     1
 90
        1
176
     1
 90
        1
176
     1
 40
1.0
176
     1
 90
        0
176
     1
 62
     7
176
     1
 40
1.0
176
     1
 90
        1
176
     1
 90
        6
176
     1
 90
        2
176
     1
 62
     7
176
     1
 90
        5
176
     1
 90
        0
176
     1
 90
        0
176
     1
290
     0
176
     1
 90
       13
176
     1
 40
0.0
176
     1
 90
        0
176
     1
290
     0
176
     1
290
     1
176
     1
290
     1
176
     1
290
     0
176
     1
290
     0
176
     1
290
     0
176
     1
290
     0
176
     1
290
     0
176
     1
290
     0
176
     1
 90
       50
176
     1
 40
0.0
176
     1
 40
1.0
176
     1
 90
        0
176
     1
 62
    18
420
        0
176
     1
 90
       50
176
     1
 90
        3
176
     1
 62
     5
420
      255
176
     1
290
     0
176
     1
 90
       50
176
     1
 90
       50
176
     1
 90
       50
176
     1
290
     0
176
     1
 90
       50
176
     1
 62
   256
176
     0
 40
1.0
176
     0
 90
        2
176
     1
  1
strokes_ogs.tif
176
     1
290
     0
176
     1
 40
1.0
176
     1
 40
1.0
176
     1
  0
VISUALSTYLE
  5
2D
102
{ACAD_REACTORS
330
29
102
}
330
29
100
AcDbVisualStyle
  2
GouraudWithEdges
 70
     3
177
     3
291
     1
 70
    58
 90
        2
176
     1
 90
        2
176
     1
 90
        1
176
     1
 90
        2
176
     1
 40
0.6
176
     1
 40
30.0
176
     1
 62
     7
420
 16777215
176
     1
 90
        1
176
     1
 90
        0
176
     1
 62
     7
176
     1
 62
   257
176
     1
 90
        1
176
     1
 90
        1
176
     1
 40
1.0
176
     1
 90
        0
176
     1
 62
   257
176
     1
 40
1.0
176
     1
 90
        1
176
     1
 90
        6
176
     1
 90
        2
176
     1
 62
     7
176
     1
 90
        5
176
     1
 90
        0
176
     1
 90
        0
176
     1
290
     0
176
     1
 90
       13
176
     1
 40
0.0
176
     1
 90
        0
176
     1
290
     0
176
     1
290
     1
176
     1
290
     1
176
     1
290
     0
176
     1
290
     0
176
     1
290
     0
176
     1
290
     0
176
     1
290
     0
176
     1
290
     0
176
     1
 90
       50
176
     1
 40
0.0
176
     1
 40
1.0
176
     1
 90
        0
176
     1
 62
    18
420
        0
176
     1
 90
       50
176
     1
 90
        3
176
     1
 62
     5
420
      255
176
     1
290
     0
176
     1
 90
       50
176
     1
 90
       50
176
     1
 90
       50
176
     1
290
     0
176
     1
 90
       50
176
     1
 62
   256
176
     0
 40
1.0
176
     0
 90
        2
176
     1
  1
strokes_ogs.tif
176
     1
290
     0
176
     1
 40
1.0
176
     1
 40
1.0
176
     1
  0
VISUALSTYLE
  5
31
102
{ACAD_REACTORS
330
29
102
}
330
29
100
AcDbVisualStyle
  2
Hidden
 70
     6
177
     3
291
     0
 70
    58
 90
        1
176
     1
 90
        2
176
     1
 90
        2
176
     1
 90
        0
176
     1
 40
0.6
176
     1
 40
30.0
176
     1
 62
     7
420
 16777215
176
     1
 90
        2
176
     1
 90
        2
176
     1
 62
     7
176
     1
 62
   257
176
     1
 90
        2
176
     1
 90
        1
176
     1
 40
40.0
176
     1
 90
        0
176
     1
 62
   257
176
     1
 40
1.0
176
     1
 90
        1
176
     1
 90
        6
176
     1
 90
        2
176
     1
 62
     7
176
     1
 90
        3
176
     1
 90
        0
176
     1
 90
        0
176
     1
290
     0
176
     1
 90
        1
176
     1
 40
0.0
176
     1
 90
        0
176
     1
290
     0
176
     1
290
     1
176
     1
290
     1
176
     1
290
     0
176
     1
290
     0
176
     1
290
     0
176
     1
290
     0
176
     1
290
     0
176
     1
290
     0
176
     1
 90
       50
176
     1
 40
0.0
176
     1
 40
1.0
176
     1
 90
        0
176
     1
 62
    18
420
        0
176
     1
 90
       50
176
     1
 90
        3
176
     1
 62
     5
420
      255
176
     1
290
     0
176
     1
 90
       50
176
     1
 90
       50
176
     1
 90
       50
176
     1
290
     0
176
     1
 90
       50
176
     1
 62
   256
176
     0
 40
1.0
176
     0
 90
        2
176
     1
  1
strokes_ogs.tif
176
     1
290
     0
176
     1
 40
1.0
176
     1
 40
1.0
176
     1
  0
VISUALSTYLE
  5
3F
102
{ACAD_REACTORS
330
29
102
}
330
29
100
AcDbVisualStyle
  2
JitterOff
 70
    20
177
     3
291
     1
 70
    58
 90
        2
176
     0
 90
        2
176
     0
 90
        0
176
     0
 90
        0
176
     0
 40
0.6
176
     0
 40
30.0
176
     0
 62
     7
420
 16777215
176
     0
 90
        1
176
     0
 90
        4
176
     0
 62
     7
176
     0
 62
   257
176
     0
 90
        1
176
     0
 90
        1
176
     0
 40
1.0
176
     0
 90
       10
176
     2
 62
     7
176
     0
 40
1.0
176
     0
 90
        1
176
     0
 90
        6
176
     0
 90
        2
176
     0
 62
     7
176
     0
 90
        5
176
     0
 90
        0
176
     0
 90
        0
176
     0
290
     0
176
     0
 90
        1
176
     0
 40
0.0
176
     0
 90
        0
176
     0
290
     0
176
     0
290
     1
176
     0
290
     1
176
     0
290
     0
176
     0
290
     0
176
     0
290
     0
176
     0
290
     0
176
     0
290
     0
176
     0
290
     0
176
     0
 90
       50
176
     0
 40
0.0
176
     0
 40
1.0
176
     0
 90
        0
176
     0
 62
    18
420
        0
176
     0
 90
       50
176
     0
 90
        3
176
     0
 62
     5
420
      255
176
     0
290
     0
176
     0
 90
       50
176
     0
 90
       50
176
     0
 90
       50
176
     0
290
     0
176
     0
 90
       50
176
     0
 62
   256
176
     0
 40
1.0
176
     0
 90
        2
176
     0
  1
strokes_ogs.tif
176
     0
290
     0
176
     0
 40
1.0
176
     0
 40
1.0
176
     0
  0
VISUALSTYLE
  5
37
102
{ACAD_REACTORS
330
29
102
}
330
29
100
AcDbVisualStyle
  2
Linepattern
 70
    14
177
     3
291
     1
 70
    58
 90
        2
176
     1
 90
        2
176
     1
 90
        0
176
     1
 90
        0
176
     1
 40
0.6
176
     1
 40
30.0
176
     1
 62
     7
420
 16777215
176
     1
 90
        1
176
     1
 90
        4
176
     1
 62
     7
176
     1
 62
   257
176
     1
 90
        7
176
     1
 90
        7
176
     1
 40
1.0
176
     1
 90
        8
176
     1
 62
     7
176
     1
 40
1.0
176
     1
 90
        1
176
     1
 90
        6
176
     1
 90
        2
176
     1
 62
     7
176
     1
 90
        5
176
     1
 90
        0
176
     1
 90
        0
176
     1
290
     0
176
     1
 90
        1
176
     1
 40
0.0
176
     1
 90
        0
176
     1
290
     0
176
     1
290
     1
176
     1
290
     1
176
     1
290
     0
176
     1
290
     0
176
     1
290
     0
176
     1
290
     0
176
     1
290
     0
176
     1
290
     0
176
     1
 90
       50
176
     1
 40
0.0
176
     1
 40
1.0
176
     1
 90
        0
176
     1
 62
    18
420
        0
176
     1
 90
       50
176
     1
 90
        3
176
     1
 62
     5
420
      255
176
     1
290
     0
176
     1
 90
       50
176
     1
 90
       50
176
     1
 90
       50
176
     1
290
     0
176
     1
 90
       50
176
     1
 62
   256
176
     0
 40
1.0
176
     0
 90
        2
176
     1
  1
strokes_ogs.tif
176
     1
290
     0
176
     1
 40
1.0
176
     1
 40
1.0
176
     1
  0
VISUALSTYLE
  5
40
102
{ACAD_REACTORS
330
29
102
}
330
29
100
AcDbVisualStyle
  2
OverhangOff
 70
    21
177
     3
291
     1
 70
    58
 90
        2
176
     0
 90
        2
176
     0
 90
        0
176
     0
 90
        0
176
     0
 40
0.6
176
     0
 40
30.0
176
     0
 62
     7
420
 16777215
176
     0
 90
        1
176
     0
 90
        4
176
     0
 62
     7
176
     0
 62
   257
176
     0
 90
        1
176
     0
 90
        1
176
     0
 40
1.0
176
     0
 90
        9
176
     2
 62
     7
176
     0
 40
1.0
176
     0
 90
        1
176
     0
 90
        6
176
     0
 90
        2
176
     0
 62
     7
176
     0
 90
        5
176
     0
 90
        0
176
     0
 90
        0
176
     0
290
     0
176
     0
 90
        1
176
     0
 40
0.0
176
     0
 90
        0
176
     0
290
     0
176
     0
290
     1
176
     0
290
     1
176
     0
290
     0
176
     0
290
     0
176
     0
290
     0
176
     0
290
     0
176
     0
290
     0
176
     0
290
     0
176
     0
 90
       50
176
     0
 40
0.0
176
     0
 40
1.0
176
     0
 90
        0
176
     0
 62
    18
420
        0
176
     0
 90
       50
176
     0
 90
        3
176
     0
 62
     5
420
      255
176
     0
290
     0
176
     0
 90
       50
176
     0
 90
       50
176
     0
 90
       50
176
     0
290
     0
176
     0
 90
       50
176
     0
 62
   256
176
     0
 40
1.0
176
     0
 90
        2
176
     0
  1
strokes_ogs.tif
176
     0
290
     0
176
     0
 40
1.0
176
     0
 40
1.0
176
     0
  0
VISUALSTYLE
  5
33
102
{ACAD_REACTORS
330
29
102
}
330
29
100
AcDbVisualStyle
  2
Realistic
 70
     8
177
     3
291
     0
 70
    58
 90
        2
176
     1
 90
        3
176
     1
 90
        0
176
     1
 90
        2
176
     1
 40
0.6
176
     1
 40
30.0
176
     1
 62
     7
420
 16777215
176
     1
 90
        0
176
     1
 90
        0
176
     1
 62
     7
176
     1
 62
   257
176
     1
 90
        1
176
     1
 90
        1
176
     1
 40
1.0
176
     1
 90
        8
176
     1
 62
   257
176
     1
 40
1.0
176
     1
 90
        1
176
     1
 90
        6
176
     1
 90
        2
176
     1
 62
     7
176
     1
 90
        3
176
     1
 90
        0
176
     1
 90
        0
176
     1
290
     0
176
     1
 90
       13
176
     1
 40
0.0
176
     1
 90
        0
176
     1
290
     0
176
     1
290
     1
176
     1
290
     1
176
     1
290
     0
176
     1
290
     0
176
     1
290
     0
176
     1
290
     0
176
     1
290
     0
176
     1
290
     0
176
     1
 90
       50
176
     1
 40
0.0
176
     1
 40
1.0
176
     1
 90
        0
176
     1
 62
    18
420
        0
176
     1
 90
       50
176
     1
 90
        3
176
     1
 62
     5
420
      255
176
     1
290
     0
176
     1
 90
       50
176
     1
 90
       50
176
     1
 90
       50
176
     1
290
     0
176
     1
 90
       50
176
     1
 62
   256
176
     0
 40
1.0
176
     0
 90
        2
176
     1
  1
strokes_ogs.tif
176
     1
290
     0
176
     1
 40
1.0
176
     1
 40
1.0
176
     1
  0
VISUALSTYLE
  5
3E
102
{ACAD_REACTORS
330
29
102
}
330
29
100
AcDbVisualStyle
  2
Shaded
 70
    27
177
     3
291
     0
 70
    58
 90
        2
176
     1
 90
        2
176
     1
 90
        1
176
     1
 90
        2
176
     1
 40
0.6
176
     1
 40
30.0
176
     1
 62
     7
420
 16777215
176
     1
 90
        0
176
     1
 90
        4
176
     1
 62
     7
176
     1
 62
   257
176
     1
 90
        1
176
     1
 90
        1
176
     1
 40
1.0
176
     1
 90
        8
176
     1
 62
   257
176
     1
 40
1.0
176
     1
 90
        1
176
     1
 90
        6
176
     1
 90
        2
176
     1
 62
     8
420
  7895160
176
     1
 90
        3
176
     1
 90
        0
176
     1
 90
        0
176
     1
290
     0
176
     1
 90
        5
176
     1
 40
0.0
176
     1
 90
        0
176
     1
290
     0
176
     1
290
     1
176
     1
290
     1
176
     1
290
     0
176
     1
290
     0
176
     1
290
     0
176
     1
290
     0
176
     1
290
     0
176
     1
290
     0
176
     1
 90
       50
176
     1
 40
0.0
176
     1
 40
1.0
176
     1
 90
        0
176
     1
 62
    18
420
        0
176
     1
 90
       50
176
     1
 90
        3
176
     1
 62
     5
420
      255
176
     1
290
     0
176
     1
 90
       50
176
     1
 90
       50
176
     1
 90
       50
176
     1
290
     0
176
     1
 90
       50
176
     1
 62
   256
176
     0
 40
1.0
176
     0
 90
        2
176
     1
  1
strokes_ogs.tif
176
     1
290
     0
176
     1
 40
1.0
176
     1
 40
1.0
176
     1
  0
VISUALSTYLE
  5
3D
102
{ACAD_REACTORS
330
29
102
}
330
29
100
AcDbVisualStyle
  2
Shaded with edges
 70
    26
177
     3
291
     0
 70
    58
 90
        2
176
     1
 90
        2
176
     1
 90
        1
176
     1
 90
        2
176
     1
 40
0.6
176
     1
 40
30.0
176
     1
 62
     7
420
 16777215
176
     1
 90
        1
176
     1
 90
       10
176
     1
 62
     7
176
     1
 62
   257
176
     1
 90
        2
176
     1
 90
        1
176
     1
 40
1.0
176
     1
 90
        8
176
     1
 62
   257
176
     1
 40
1.0
176
     1
 90
        1
176
     1
 90
        6
176
     1
 90
        2
176
     1
 62
     7
176
     1
 90
        3
176
     1
 90
        0
176
     1
 90
        0
176
     1
290
     0
176
     1
 90
        5
176
     1
 40
0.0
176
     1
 90
        0
176
     1
290
     0
176
     1
290
     1
176
     1
290
     1
176
     1
290
     0
176
     1
290
     0
176
     1
290
     0
176
     1
290
     0
176
     1
290
     0
176
     1
290
     0
176
     1
 90
       50
176
     1
 40
0.0
176
     1
 40
1.0
176
     1
 90
        0
176
     1
 62
    18
420
        0
176
     1
 90
       50
176
     1
 90
        3
176
     1
 62
     5
420
      255
176
     1
290
     0
176
     1
 90
       50
176
     1
 90
       50
176
     1
 90
       50
176
     1
290
     0
176
     1
 90
       50
176
     1
 62
   256
176
     0
 40
1.0
176
     0
 90
        2
176
     1
  1
strokes_ogs.tif
176
     1
290
     0
176
     1
 40
1.0
176
     1
 40
1.0
176
     1
  0
VISUALSTYLE
  5
3A
102
{ACAD_REACTORS
330
29
102
}
330
29
100
AcDbVisualStyle
  2
Shades of Gray
 70
    23
177
     3
291
     0
 70
    58
 90
        2
176
     1
 90
        2
176
     1
 90
        3
176
     1
 90
        0
176
     1
 40
0.6
176
     1
 40
30.0
176
     1
 62
     7
420
 16777215
176
     1
 90
        2
176
     1
 90
        2
176
     1
 62
     7
176
     1
 62
     7
176
     1
 90
        1
176
     1
 90
        1
176
     1
 40
40.0
176
     1
 90
        8
176
     1
 62
     7
176
     1
 40
1.0
176
     1
 90
        1
176
     1
 90
        6
176
     1
 90
        2
176
     1
 62
     7
176
     1
 90
        3
176
     1
 90
        0
176
     1
 90
        0
176
     1
290
     0
176
     1
 90
        1
176
     1
 40
0.0
176
     1
 90
        0
176
     1
290
     0
176
     1
290
     1
176
     1
290
     1
176
     1
290
     0
176
     1
290
     0
176
     1
290
     0
176
     1
290
     0
176
     1
290
     0
176
     1
290
     0
176
     1
 90
       50
176
     1
 40
0.0
176
     1
 40
1.0
176
     1
 90
        0
176
     1
 62
    18
420
        0
176
     1
 90
       50
176
     1
 90
        3
176
     1
 62
     5
420
      255
176
     1
290
     0
176
     1
 90
       50
176
     1
 90
       50
176
     1
 90
       50
176
     1
290
     0
176
     1
 90
       50
176
     1
 62
   256
176
     0
 40
1.0
176
     0
 90
        2
176
     1
  1
strokes_ogs.tif
176
     1
290
     0
176
     1
 40
1.0
176
     1
 40
1.0
176
     1
  0
VISUALSTYLE
  5
3B
102
{ACAD_REACTORS
330
29
102
}
330
29
100
AcDbVisualStyle
  2
Sketchy
 70
    24
177
     3
291
     0
 70
    58
 90
        1
176
     1
 90
        2
176
     1
 90
        2
176
     1
 90
        0
176
     1
 40
0.6
176
     1
 40
30.0
176
     1
 62
     7
420
 16777215
176
     1
 90
        2
176
     1
 90
        2
176
     1
 62
     7
176
     1
 62
     7
176
     1
 90
        1
176
     1
 90
        1
176
     1
 40
40.0
176
     1
 90
       11
176
     1
 62
     7
176
     1
 40
1.0
176
     1
 90
        1
176
     1
 90
        6
176
     1
 90
        2
176
     1
 62
     7
176
     1
 90
        6
176
     1
 90
        0
176
     1
 90
        0
176
     1
290
     0
176
     1
 90
        1
176
     1
 40
0.0
176
     1
 90
        0
176
     1
290
     0
176
     1
290
     1
176
     1
290
     1
176
     1
290
     0
176
     1
290
     0
176
     1
290
     0
176
     1
290
     0
176
     1
290
     0
176
     1
290
     0
176
     1
 90
       50
176
     1
 40
0.0
176
     1
 40
1.0
176
     1
 90
        0
176
     1
 62
    18
420
        0
176
     1
 90
       50
176
     1
 90
        3
176
     1
 62
     5
420
      255
176
     1
290
     0
176
     1
 90
       50
176
     1
 90
       50
176
     1
 90
       50
176
     1
290
     0
176
     1
 90
       50
176
     1
 62
   256
176
     0
 40
1.0
176
     0
 90
        2
176
     1
  1
strokes_ogs.tif
176
     1
290
     0
176
     1
 40
1.0
176
     1
 40
1.0
176
     1
  0
VISUALSTYLE
  5
36
102
{ACAD_REACTORS
330
29
102
}
330
29
100
AcDbVisualStyle
  2
Thicken
 70
    13
177
     3
291
     1
 70
    58
 90
        2
176
     1
 90
        2
176
     1
 90
        0
176
     1
 90
        0
176
     1
 40
0.6
176
     1
 40
30.0
176
     1
 62
     7
420
 16777215
176
     1
 90
        1
176
     1
 90
        4
176
     1
 62
     7
176
     1
 62
   257
176
     1
 90
        1
176
     1
 90
        1
176
     1
 40
1.0
176
     1
 90
       12
176
     1
 62
     7
176
     1
 40
1.0
176
     1
 90
        1
176
     1
 90
        6
176
     1
 90
        2
176
     1
 62
     7
176
     1
 90
        5
176
     1
 90
        0
176
     1
 90
        0
176
     1
290
     0
176
     1
 90
        1
176
     1
 40
0.0
176
     1
 90
        0
176
     1
290
     0
176
     1
290
     1
176
     1
290
     1
176
     1
290
     0
176
     1
290
     0
176
     1
290
     0
176
     1
290
     0
176
     1
290
     0
176
     1
290
     0
176
     1
 90
       50
176
     1
 40
0.0
176
     1
 40
1.0
176
     1
 90
        0
176
     1
 62
    18
420
        0
176
     1
 90
       50
176
     1
 90
        3
176
     1
 62
     5
420
      255
176
     1
290
     0
176
     1
 90
       50
176
     1
 90
       50
176
     1
 90
       50
176
     1
290
     0
176
     1
 90
       50
176
     1
 62
   256
176
     0
 40
1.0
176
     0
 90
        2
176
     1
  1
strokes_ogs.tif
176
     1
290
     0
176
     1
 40
1.0
176
     1
 40
1.0
176
     1
  0
VISUALSTYLE
  5
30
102
{ACAD_REACTORS
330
29
102
}
330
29
100
AcDbVisualStyle
  2
Wireframe
 70
     5
177
     3
291
     0
 70
    58
 90
        0
176
     1
 90
        2
176
     1
 90
        0
176
     1
 90
        0
176
     1
 40
0.6
176
     1
 40
30.0
176
     1
 62
     7
420
 16777215
176
     1
 90
        1
176
     1
 90
        4
176
     1
 62
     7
176
     1
 62
   257
176
     1
 90
        1
176
     1
 90
        1
176
     1
 40
1.0
176
     1
 90
        0
176
     1
 62
   257
176
     1
 40
1.0
176
     1
 90
        1
176
     1
 90
        6
176
     1
 90
        2
176
     1
 62
     7
176
     1
 90
        3
176
     1
 90
        0
176
     1
 90
        0
176
     1
290
     0
176
     1
 90
        1
176
     1
 40
0.0
176
     1
 90
        0
176
     1
290
     0
176
     1
290
     1
176
     1
290
     1
176
     1
290
     0
176
     1
290
     0
176
     1
290
     0
176
     1
290
     0
176
     1
290
     0
176
     1
290
     0
176
     1
 90
       50
176
     1
 40
0.0
176
     1
 40
1.0
176
     1
 90
        0
176
     1
 62
    18
420
        0
176
     1
 90
       50
176
     1
 90
        3
176
     1
 62
     5
420
      255
176
     1
290
     0
176
     1
 90
       50
176
     1
 90
       50
176
     1
 90
       50
176
     1
290
     0
176
     1
 90
       50
176
     1
 62
   256
176
     0
 40
1.0
176
     0
 90
        2
176
     1
  1
strokes_ogs.tif
176
     1
290
     0
176
     1
 40
1.0
176
     1
 40
1.0
176
     1
  0
VISUALSTYLE
  5
3C
102
{ACAD_REACTORS
330
29
102
}
330
29
100
AcDbVisualStyle
  2
X-Ray
 70
    25
177
     3
291
     0
 70
    58
 90
        2
176
     1
 90
        2
176
     1
 90
        1
176
     1
 90
        1
176
     1
 40
0.5
176
     1
 40
30.0
176
     1
 62
     7
420
 16777215
176
     1
 90
        1
176
     1
 90
        0
176
     1
 62
     7
176
     1
 62
   257
176
     1
 90
        1
176
     1
 90
        1
176
     1
 40
1.0
176
     1
 90
        8
176
     1
 62
     7
176
     1
 40
1.0
176
     1
 90
        1
176
     1
 90
        6
176
     1
 90
        2
176
     1
 62
     7
176
     1
 90
        3
176
     1
 90
        0
176
     1
 90
        0
176
     1
290
     0
176
     1
 90
       13
176
     1
 40
0.0
176
     1
 90
        0
176
     1
290
     0
176
     1
290
     1
176
     1
290
     1
176
     1
290
     0
176
     1
290
     0
176
     1
290
     0
176
     1
290
     0
176
     1
290
     0
176
     1
290
     0
176
     1
 90
       50
176
     1
 40
0.0
176
     1
 40
1.0
176
     1
 90
        0
176
     1
 62
    18
420
        0
176
     1
 90
       50
176
     1
 90
        3
176
     1
 62
     5
420
      255
176
     1
290
     0
176
     1
 90
       50
176
     1
 90
       50
176
     1
 90
       50
176
     1
290
     0
176
     1
 90
       50
176
     1
 62
   256
176
     0
 40
1.0
176
     0
 90
        2
176
     1
  1
strokes_ogs.tif
176
     1
290
     0
176
     1
 40
1.0
176
     1
 40
1.0
176
     1
  0
DICTIONARYVAR
  5
81
102
{ACAD_REACTORS
330
7C
102
}
330
7C
100
DictionaryVariables
280
     0
  1
1:1
  0
DICTIONARYVAR
  5
7E
102
{ACAD_REACTORS
330
7C
102
}
330
7C
100
DictionaryVariables
280
     0
  1
STANDARD
  0
DICTIONARYVAR
  5
7D
102
{ACAD_REACTORS
330
7C
102
}
330
7C
100
DictionaryVariables
280
     0
  1
STANDARD
  0
DICTIONARYVAR
  5
7F
102
{ACAD_REACTORS
330
7C
102
}
330
7C
100
DictionaryVariables
280
     0
  1
Imperial24
  0
DICTIONARYVAR
  5
80
102
{ACAD_REACTORS
330
7C
102
}
330
7C
100
DictionaryVariables
280
     0
  1
Imperial24
  0
XRECORD
  5
347
102
{ACAD_REACTORS
330
343
102
}
330
343
100
AcDbXrecord
280
     1
  1
BUILDING_ID
  1
Progetto per messa in tavola DXF, DWG
  1
FLOOR_ID
  1
694395
  0
XRECORD
  5
345
102
{ACAD_REACTORS
330
343
102
}
330
343
100
AcDbXrecord
280
     1
  1
-2001160
  1
Apparecchi idraulici
  0
XRECORD
  5
346
102
{ACAD_REACTORS
330
343
102
}
330
343
100
AcDbXrecord
280
     1
  1
790271
  1
Body
  0
XRECORD
  5
344
102
{ACAD_REACTORS
330
343
102
}
330
343
100
AcDbXrecord
280
     1
  1
859151
  1
Automatic flow rate regulator valve_Caleffi_121 DN15 : 1/2''
  0
DICTIONARY
  5
1A
330
19
100
AcDbDictionary
280
     1
281
     1
  3
BUMPTILE
360
1C
  3
DIFFUSETILE
360
1B
  3
OPACITYTILE
360
1F
  3
REFLECTIONTILE
360
1E
  3
REFRACTIONTILE
360
20
  3
SPECULARTILE
360
1D
  0
DICTIONARY
  5
12
330
11
100
AcDbDictionary
280
     1
281
     1
  3
BUMPTILE
360
14
  3
DIFFUSETILE
360
13
  3
OPACITYTILE
360
17
  3
REFLECTIONTILE
360
16
  3
REFRACTIONTILE
360
18
  3
SPECULARTILE
360
15
  0
DICTIONARY
  5
22
330
21
100
AcDbDictionary
280
     1
281
     1
  3
BUMPTILE
360
24
  3
DIFFUSETILE
360
23
  3
OPACITYTILE
360
27
  3
REFLECTIONTILE
360
26
  3
REFRACTIONTILE
360
28
  3
SPECULARTILE
360
25
  0
DICTIONARY
  5
34A
330
65
100
AcDbDictionary
280
     1
281
     1
  3
ACAD_ROUNDTRIP_2008_TABLESTYLE_CELLSTYLEMAP
360
34B
  0
XRECORD
  5
1C
102
{ACAD_REACTORS
330
1A
102
}
330
1A
100
AcDbXrecord
280
     1
270
     1
271
     1
  0
XRECORD
  5
1B
102
{ACAD_REACTORS
330
1A
102
}
330
1A
100
AcDbXrecord
280
     1
270
     1
271
     1
  0
XRECORD
  5
1F
102
{ACAD_REACTORS
330
1A
102
}
330
1A
100
AcDbXrecord
280
     1
270
     1
271
     1
  0
XRECORD
  5
1E
102
{ACAD_REACTORS
330
1A
102
}
330
1A
100
AcDbXrecord
280
     1
270
     1
271
     1
  0
XRECORD
  5
20
102
{ACAD_REACTORS
330
1A
102
}
330
1A
100
AcDbXrecord
280
     1
270
     1
271
     1
  0
XRECORD
  5
1D
102
{ACAD_REACTORS
330
1A
102
}
330
1A
100
AcDbXrecord
280
     1
270
     1
271
     1
  0
XRECORD
  5
14
102
{ACAD_REACTORS
330
12
102
}
330
12
100
AcDbXrecord
280
     1
270
     1
271
     1
  0
XRECORD
  5
13
102
{ACAD_REACTORS
330
12
102
}
330
12
100
AcDbXrecord
280
     1
270
     1
271
     1
  0
XRECORD
  5
17
102
{ACAD_REACTORS
330
12
102
}
330
12
100
AcDbXrecord
280
     1
270
     1
271
     1
  0
XRECORD
  5
16
102
{ACAD_REACTORS
330
12
102
}
330
12
100
AcDbXrecord
280
     1
270
     1
271
     1
  0
XRECORD
  5
18
102
{ACAD_REACTORS
330
12
102
}
330
12
100
AcDbXrecord
280
     1
270
     1
271
     1
  0
XRECORD
  5
15
102
{ACAD_REACTORS
330
12
102
}
330
12
100
AcDbXrecord
280
     1
270
     1
271
     1
  0
XRECORD
  5
24
102
{ACAD_REACTORS
330
22
102
}
330
22
100
AcDbXrecord
280
     1
270
     1
271
     1
  0
XRECORD
  5
23
102
{ACAD_REACTORS
330
22
102
}
330
22
100
AcDbXrecord
280
     1
270
     1
271
     1
  0
XRECORD
  5
27
102
{ACAD_REACTORS
330
22
102
}
330
22
100
AcDbXrecord
280
     1
270
     1
271
     1
  0
XRECORD
  5
26
102
{ACAD_REACTORS
330
22
102
}
330
22
100
AcDbXrecord
280
     1
270
     1
271
     1
  0
XRECORD
  5
28
102
{ACAD_REACTORS
330
22
102
}
330
22
100
AcDbXrecord
280
     1
270
     1
271
     1
  0
XRECORD
  5
25
102
{ACAD_REACTORS
330
22
102
}
330
22
100
AcDbXrecord
280
     1
270
     1
271
     1
  0
CELLSTYLEMAP
  5
34B
102
{ACAD_REACTORS
330
34A
102
}
330
34A
100
AcDbCellStyleMap
 90
        3
300
CELLSTYLE
  1
TABLEFORMAT_BEGIN
 90
        5
170
     1
 91
        0
 92
    32768
 62
   257
 93
        1
300
CONTENTFORMAT
  1
CONTENTFORMAT_BEGIN
 90
        0
 91
        0
 92
      512
 93
        0
300

 40
0.0
140
1.0
 94
        5
 62
     0
340
55
144
0.25
309
CONTENTFORMAT_END
171
     0
 94
        0
309
TABLEFORMAT_END
  1
CELLSTYLE_BEGIN
 90
        1
 91
        1
300
_TITLE
309
CELLSTYLE_END
300
CELLSTYLE
  1
TABLEFORMAT_BEGIN
 90
        5
170
     1
 91
        0
 92
        0
 62
   257
 93
        1
300
CONTENTFORMAT
  1
CONTENTFORMAT_BEGIN
 90
        0
 91
        0
 92
      512
 93
        0
300

 40
0.0
140
1.0
 94
        5
 62
     0
340
55
144
0.18
309
CONTENTFORMAT_END
171
     0
 94
        0
309
TABLEFORMAT_END
  1
CELLSTYLE_BEGIN
 90
        2
 91
        1
300
_HEADER
309
CELLSTYLE_END
300
CELLSTYLE
  1
TABLEFORMAT_BEGIN
 90
        5
170
     1
 91
        0
 92
        0
 62
   257
 93
        1
300
CONTENTFORMAT
  1
CONTENTFORMAT_BEGIN
 90
        0
 91
        0
 92
      512
 93
        0
300

 40
0.0
140
1.0
 94
        2
 62
     0
340
55
144
0.18
309
CONTENTFORMAT_END
171
     0
 94
        0
309
TABLEFORMAT_END
  1
CELLSTYLE_BEGIN
 90
        3
 91
        2
300
_DATA
309
CELLSTYLE_END
  0
ENDSEC
  0
EOF
