  0
SECTION
  2
HEADER
  9
$ACADVER
  1
AC1027
  9
$ACADMAINTVER
 70
    20
  9
$DWGCODEPAGE
  3
ANSI_1252
  9
$REQUIREDVERSIONS
160
                 0
  9
$INSBASE
 10
0.0
 20
0.0
 30
0.0
  9
$EXTMIN
 10
591.6664074431716
 20
1291.539628730031
 30
-0.00000001
  9
$EXTMAX
 10
1257.914353943129
 20
2234.000000000057
 30
0.00000001
  9
$LIMMIN
 10
0.0
 20
0.0
  9
$LIMMAX
 10
12.0
 20
9.0
  9
$ORTHOMODE
 70
     0
  9
$REGENMODE
 70
     1
  9
$FILLMODE
 70
     1
  9
$QTEXTMODE
 70
     0
  9
$MIRRTEXT
 70
     0
  9
$LTSCALE
 40
1.0
  9
$ATTMODE
 70
     1
  9
$TEXTSIZE
 40
0.2
  9
$TRACEWID
 40
0.05
  9
$TEXTSTYLE
  7
Standard
  9
$CLAYER
  8
0
  9
$CELTYPE
  6
ByLayer
  9
$CECOLOR
 62
   256
  9
$CELTSCALE
 40
1.0
  9
$DISPSILH
 70
     0
  9
$DIMSCALE
 40
1.0
  9
$DIMASZ
 40
0.18
  9
$DIMEXO
 40
0.0625
  9
$DIMDLI
 40
0.38
  9
$DIMRND
 40
0.0
  9
$DIMDLE
 40
0.0
  9
$DIMEXE
 40
0.18
  9
$DIMTP
 40
0.0
  9
$DIMTM
 40
0.0
  9
$DIMTXT
 40
0.18
  9
$DIMCEN
 40
0.09
  9
$DIMTSZ
 40
0.0
  9
$DIMTOL
 70
     0
  9
$DIMLIM
 70
     0
  9
$DIMTIH
 70
     1
  9
$DIMTOH
 70
     1
  9
$DIMSE1
 70
     0
  9
$DIMSE2
 70
     0
  9
$DIMTAD
 70
     0
  9
$DIMZIN
 70
     0
  9
$DIMBLK
  1

  9
$DIMASO
 70
     1
  9
$DIMSHO
 70
     1
  9
$DIMPOST
  1

  9
$DIMAPOST
  1

  9
$DIMALT
 70
     0
  9
$DIMALTD
 70
     2
  9
$DIMALTF
 40
25.4
  9
$DIMLFAC
 40
1.0
  9
$DIMTOFL
 70
     0
  9
$DIMTVP
 40
0.0
  9
$DIMTIX
 70
     0
  9
$DIMSOXD
 70
     0
  9
$DIMSAH
 70
     0
  9
$DIMBLK1
  1

  9
$DIMBLK2
  1

  9
$DIMSTYLE
  2
Standard
  9
$DIMCLRD
 70
     0
  9
$DIMCLRE
 70
     0
  9
$DIMCLRT
 70
     0
  9
$DIMTFAC
 40
1.0
  9
$DIMGAP
 40
0.09
  9
$DIMJUST
 70
     0
  9
$DIMSD1
 70
     0
  9
$DIMSD2
 70
     0
  9
$DIMTOLJ
 70
     1
  9
$DIMTZIN
 70
     0
  9
$DIMALTZ
 70
     0
  9
$DIMALTTZ
 70
     0
  9
$DIMUPT
 70
     0
  9
$DIMDEC
 70
     4
  9
$DIMTDEC
 70
     4
  9
$DIMALTU
 70
     2
  9
$DIMALTTD
 70
     2
  9
$DIMTXSTY
  7
Standard
  9
$DIMAUNIT
 70
     0
  9
$DIMADEC
 70
     0
  9
$DIMALTRND
 40
0.0
  9
$DIMAZIN
 70
     0
  9
$DIMDSEP
 70
    46
  9
$DIMATFIT
 70
     3
  9
$DIMFRAC
 70
     0
  9
$DIMLDRBLK
  1

  9
$DIMLUNIT
 70
     2
  9
$DIMLWD
 70
    -2
  9
$DIMLWE
 70
    -2
  9
$DIMTMOVE
 70
     0
  9
$DIMFXL
 40
1.0
  9
$DIMFXLON
 70
     0
  9
$DIMJOGANG
 40
0.7853981633974483
  9
$DIMTFILL
 70
     0
  9
$DIMTFILLCLR
 70
     0
  9
$DIMARCSYM
 70
     0
  9
$DIMLTYPE
  6

  9
$DIMLTEX1
  6

  9
$DIMLTEX2
  6

  9
$DIMTXTDIRECTION
 70
     0
  9
$LUNITS
 70
     2
  9
$LUPREC
 70
     4
  9
$SKETCHINC
 40
0.1
  9
$FILLETRAD
 40
0.0
  9
$AUNITS
 70
     0
  9
$AUPREC
 70
     0
  9
$MENU
  1
.
  9
$ELEVATION
 40
0.0
  9
$PELEVATION
 40
0.0
  9
$THICKNESS
 40
0.0
  9
$LIMCHECK
 70
     0
  9
$CHAMFERA
 40
0.0
  9
$CHAMFERB
 40
0.0
  9
$CHAMFERC
 40
0.0
  9
$CHAMFERD
 40
0.0
  9
$SKPOLY
 70
     0
  9
$TDCREATE
 40
2457548.616380370
  9
$TDUCREATE
 40
2457548.533047038
  9
$TDUPDATE
 40
2457548.616380370
  9
$TDUUPDATE
 40
2457548.533047038
  9
$TDINDWG
 40
0.0000297569
  9
$TDUSRTIMER
 40
0.0000297569
  9
$USRTIMER
 70
     1
  9
$ANGBASE
 50
0.0
  9
$ANGDIR
 70
     0
  9
$PDMODE
 70
     0
  9
$PDSIZE
 40
0.0
  9
$PLINEWID
 40
0.0
  9
$SPLFRAME
 70
     0
  9
$SPLINETYPE
 70
     6
  9
$SPLINESEGS
 70
     8
  9
$HANDSEED
  5
3D0
  9
$SURFTAB1
 70
     6
  9
$SURFTAB2
 70
     6
  9
$SURFTYPE
 70
     6
  9
$SURFU
 70
     6
  9
$SURFV
 70
     6
  9
$UCSBASE
  2

  9
$UCSNAME
  2

  9
$UCSORG
 10
0.0
 20
0.0
 30
0.0
  9
$UCSXDIR
 10
1.0
 20
0.0
 30
0.0
  9
$UCSYDIR
 10
0.0
 20
1.0
 30
0.0
  9
$UCSORTHOREF
  2

  9
$UCSORTHOVIEW
 70
     0
  9
$UCSORGTOP
 10
0.0
 20
0.0
 30
0.0
  9
$UCSORGBOTTOM
 10
0.0
 20
0.0
 30
0.0
  9
$UCSORGLEFT
 10
0.0
 20
0.0
 30
0.0
  9
$UCSORGRIGHT
 10
0.0
 20
0.0
 30
0.0
  9
$UCSORGFRONT
 10
0.0
 20
0.0
 30
0.0
  9
$UCSORGBACK
 10
0.0
 20
0.0
 30
0.0
  9
$PUCSBASE
  2

  9
$PUCSNAME
  2

  9
$PUCSORG
 10
0.0
 20
0.0
 30
0.0
  9
$PUCSXDIR
 10
1.0
 20
0.0
 30
0.0
  9
$PUCSYDIR
 10
0.0
 20
1.0
 30
0.0
  9
$PUCSORTHOREF
  2

  9
$PUCSORTHOVIEW
 70
     0
  9
$PUCSORGTOP
 10
0.0
 20
0.0
 30
0.0
  9
$PUCSORGBOTTOM
 10
0.0
 20
0.0
 30
0.0
  9
$PUCSORGLEFT
 10
0.0
 20
0.0
 30
0.0
  9
$PUCSORGRIGHT
 10
0.0
 20
0.0
 30
0.0
  9
$PUCSORGFRONT
 10
0.0
 20
0.0
 30
0.0
  9
$PUCSORGBACK
 10
0.0
 20
0.0
 30
0.0
  9
$USERI1
 70
     0
  9
$USERI2
 70
     0
  9
$USERI3
 70
     0
  9
$USERI4
 70
     0
  9
$USERI5
 70
     0
  9
$USERR1
 40
0.0
  9
$USERR2
 40
0.0
  9
$USERR3
 40
0.0
  9
$USERR4
 40
0.0
  9
$USERR5
 40
0.0
  9
$WORLDVIEW
 70
     1
  9
$SHADEDGE
 70
     3
  9
$SHADEDIF
 70
    70
  9
$TILEMODE
 70
     1
  9
$MAXACTVP
 70
    64
  9
$PINSBASE
 10
0.0
 20
0.0
 30
0.0
  9
$PLIMCHECK
 70
     0
  9
$PEXTMIN
 10
1.000000000000000E+20
 20
1.000000000000000E+20
 30
1.000000000000000E+20
  9
$PEXTMAX
 10
-1.000000000000000E+20
 20
-1.000000000000000E+20
 30
-1.000000000000000E+20
  9
$PLIMMIN
 10
0.0
 20
0.0
  9
$PLIMMAX
 10
12.0
 20
9.0
  9
$UNITMODE
 70
     0
  9
$VISRETAIN
 70
     1
  9
$PLINEGEN
 70
     0
  9
$PSLTSCALE
 70
     1
  9
$TREEDEPTH
 70
  3020
  9
$CMLSTYLE
  2
Standard
  9
$CMLJUST
 70
     0
  9
$CMLSCALE
 40
1.0
  9
$PROXYGRAPHICS
 70
     1
  9
$MEASUREMENT
 70
     1
  9
$CELWEIGHT
370
    -1
  9
$ENDCAPS
280
     0
  9
$JOINSTYLE
280
     0
  9
$LWDISPLAY
290
     0
  9
$INSUNITS
 70
     4
  9
$HYPERLINKBASE
  1

  9
$STYLESHEET
  1

  9
$XEDIT
290
     1
  9
$CEPSNTYPE
380
     0
  9
$PSTYLEMODE
290
     1
  9
$FINGERPRINTGUID
  2
{DAF1A7DE-FAAF-49D3-80B2-5B125484C85F}
  9
$VERSIONGUID
  2
{3DA0D59F-A94F-452B-84E6-581BAD43B1F7}
  9
$EXTNAMES
290
     1
  9
$PSVPSCALE
 40
0.0
  9
$OLESTARTUP
290
     0
  9
$SORTENTS
280
   127
  9
$INDEXCTL
280
     0
  9
$HIDETEXT
280
     1
  9
$XCLIPFRAME
280
     2
  9
$HALOGAP
280
     0
  9
$OBSCOLOR
 70
   257
  9
$OBSLTYPE
280
     0
  9
$INTERSECTIONDISPLAY
280
     0
  9
$INTERSECTIONCOLOR
 70
   257
  9
$DIMASSOC
280
     2
  9
$PROJECTNAME
  1

  9
$CAMERADISPLAY
290
     0
  9
$LENSLENGTH
 40
50.0
  9
$CAMERAHEIGHT
 40
0.0
  9
$STEPSPERSEC
 40
2.0
  9
$STEPSIZE
 40
6.0
  9
$3DDWFPREC
 40
2.0
  9
$PSOLWIDTH
 40
0.25
  9
$PSOLHEIGHT
 40
4.0
  9
$LOFTANG1
 40
1.570796326794896
  9
$LOFTANG2
 40
1.570796326794896
  9
$LOFTMAG1
 40
0.0
  9
$LOFTMAG2
 40
0.0
  9
$LOFTPARAM
 70
     7
  9
$LOFTNORMALS
280
     1
  9
$LATITUDE
 40
37.795
  9
$LONGITUDE
 40
-122.394
  9
$NORTHDIRECTION
 40
0.0
  9
$TIMEZONE
 70
 -8000
  9
$LIGHTGLYPHDISPLAY
280
     1
  9
$TILEMODELIGHTSYNCH
280
     1
  9
$CMATERIAL
347
11
  9
$SOLIDHIST
280
     0
  9
$SHOWHIST
280
     1
  9
$DWFFRAME
280
     2
  9
$DGNFRAME
280
     0
  9
$REALWORLDSCALE
290
     1
  9
$INTERFERECOLOR
 62
     1
  9
$INTERFEREOBJVS
345
33
  9
$INTERFEREVPVS
346
30
  9
$CSHADOW
280
     0
  9
$SHADOWPLANELOCATION
 40
0.0
  0
ENDSEC
  0
SECTION
  2
CLASSES
  0
CLASS
  1
ACDBDICTIONARYWDFLT
  2
AcDbDictionaryWithDefault
  3
ObjectDBX Classes
 90
        0
 91
        1
280
     0
281
     0
  0
CLASS
  1
MATERIAL
  2
AcDbMaterial
  3
ObjectDBX Classes
 90
     1153
 91
        3
280
     0
281
     0
  0
CLASS
  1
VISUALSTYLE
  2
AcDbVisualStyle
  3
ObjectDBX Classes
 90
     4095
 91
       24
280
     0
281
     0
  0
CLASS
  1
SCALE
  2
AcDbScale
  3
ObjectDBX Classes
 90
     1153
 91
       17
280
     0
281
     0
  0
CLASS
  1
TABLESTYLE
  2
AcDbTableStyle
  3
ObjectDBX Classes
 90
     4095
 91
        1
280
     0
281
     0
  0
CLASS
  1
MLEADERSTYLE
  2
AcDbMLeaderStyle
  3
ACDB_MLEADERSTYLE_CLASS
 90
     4095
 91
        1
280
     0
281
     0
  0
CLASS
  1
ACDBSECTIONVIEWSTYLE
  2
AcDbSectionViewStyle
  3
ObjectDBX Classes
 90
     1025
 91
        1
280
     0
281
     0
  0
CLASS
  1
ACDBDETAILVIEWSTYLE
  2
AcDbDetailViewStyle
  3
ObjectDBX Classes
 90
     1025
 91
        1
280
     0
281
     0
  0
CLASS
  1
RASTERVARIABLES
  2
AcDbRasterVariables
  3
ISM
 90
        0
 91
        1
280
     0
281
     0
  0
CLASS
  1
DICTIONARYVAR
  2
AcDbDictionaryVar
  3
ObjectDBX Classes
 90
        0
 91
        5
280
     0
281
     0
  0
CLASS
  1
CELLSTYLEMAP
  2
AcDbCellStyleMap
  3
ObjectDBX Classes
 90
     1152
 91
        2
280
     0
281
     0
  0
CLASS
  1
SORTENTSTABLE
  2
AcDbSortentsTable
  3
ObjectDBX Classes
 90
        0
 91
        1
280
     0
281
     0
  0
ENDSEC
  0
SECTION
  2
TABLES
  0
TABLE
  2
VPORT
  5
8
330
0
100
AcDbSymbolTable
 70
     1
  0
VPORT
  5
57
330
8
100
AcDbSymbolTableRecord
100
AcDbViewportTableRecord
  2
*Active
 70
     0
 10
0.0
 20
0.0
 11
1.0
 21
1.0
 12
924.7903806931502
 22
1762.769814365044
 13
0.0
 23
0.0
 14
1.0
 24
1.0
 15
0.0
 25
0.0
 16
0.0
 26
0.0
 36
1.0
 17
0.0
 27
0.0
 37
0.0
 40
942.4603712700264
 41
0.7069240965560652
 42
50.0
 43
0.0
 44
0.0
 50
0.0
 51
0.0
 71
     0
 72
  1000
 73
     1
 74
     1
 75
     0
 76
     0
 77
     0
 78
     0
281
     0
 65
     1
110
0.0
120
0.0
130
0.0
111
1.0
121
0.0
131
0.0
112
0.0
122
1.0
132
0.0
 79
     0
146
0.0
 60
     3
 61
     5
292
     1
282
     1
141
0.0
142
0.0
 63
   250
421
  3355443
  0
ENDTAB
  0
TABLE
  2
LTYPE
  5
5
330
0
100
AcDbSymbolTable
 70
     3
  0
LTYPE
  5
5B
330
5
100
AcDbSymbolTableRecord
100
AcDbLinetypeTableRecord
  2
ByBlock
 70
     0
  3

 72
    65
 73
     0
 40
0.0
  0
LTYPE
  5
5C
330
5
100
AcDbSymbolTableRecord
100
AcDbLinetypeTableRecord
  2
ByLayer
 70
     0
  3

 72
    65
 73
     0
 40
0.0
  0
LTYPE
  5
5D
330
5
100
AcDbSymbolTableRecord
100
AcDbLinetypeTableRecord
  2
Continuous
 70
     0
  3
Solid line
 72
    65
 73
     0
 40
0.0
  0
LTYPE
  5
69
330
5
100
AcDbSymbolTableRecord
100
AcDbLinetypeTableRecord
  2
PHANTOM2
 70
     0
  3
___ _ _ ___ _ _ ___ _ _ ___ _ _
 72
    65
 73
     6
 40
1.25
 49
0.625
 74
     0
 49
-0.125
 74
     0
 49
0.125
 74
     0
 49
-0.125
 74
     0
 49
0.125
 74
     0
 49
-0.125
 74
     0
  0
LTYPE
  5
86
330
5
100
AcDbSymbolTableRecord
100
AcDbLinetypeTableRecord
  2
Nascosto 1_5 mm
 70
     0
  3

 72
    65
 73
     2
 40
2.2
 49
1.5
 74
     0
 49
-0.7000000000000001
 74
     0
  0
ENDTAB
  0
TABLE
  2
LAYER
  5
2
330
0
100
AcDbSymbolTable
 70
     4
  0
LAYER
  5
54
330
2
100
AcDbSymbolTableRecord
100
AcDbLayerTableRecord
  2
0
 70
     0
 62
     7
  6
Continuous
370
    -3
390
F
347
21
348
0
  0
LAYER
  5
85
330
2
100
AcDbSymbolTableRecord
100
AcDbLayerTableRecord
  2
P-SANR-FIXT
 70
     0
 62
     6
  6
Continuous
370
    18
390
F
347
21
348
0
  0
LAYER
  5
88
330
2
100
AcDbSymbolTableRecord
100
AcDbLayerTableRecord
  2
M-PIPE
 70
     0
 62
     3
  6
Continuous
370
    18
390
F
347
21
348
0
  0
ENDTAB
  0
TABLE
  2
STYLE
  5
3
330
0
100
AcDbSymbolTable
 70
     2
  0
STYLE
  5
55
330
3
100
AcDbSymbolTableRecord
100
AcDbTextStyleTableRecord
  2
Standard
 70
     0
 40
0.0
 41
1.0
 50
0.0
 71
     0
 42
0.2
  3
txt
  4

  0
STYLE
  5
5A
330
3
100
AcDbSymbolTableRecord
100
AcDbTextStyleTableRecord
  2
Annotative
 70
     0
 40
0.0
 41
1.0
 50
0.0
 71
     0
 42
0.2
  3
txt
  4

1001
AcadAnnotative
1000
AnnotativeData
1002
{
1070
     1
1070
     1
1002
}
  0
ENDTAB
  0
TABLE
  2
VIEW
  5
6
330
0
100
AcDbSymbolTable
 70
     0
  0
ENDTAB
  0
TABLE
  2
UCS
  5
7
330
0
100
AcDbSymbolTable
 70
     0
  0
ENDTAB
  0
TABLE
  2
APPID
  5
9
330
0
100
AcDbSymbolTable
 70
     3
  0
APPID
  5
56
330
9
100
AcDbSymbolTableRecord
100
AcDbRegAppTableRecord
  2
ACAD
 70
     0
  0
APPID
  5
5E
330
9
100
AcDbSymbolTableRecord
100
AcDbRegAppTableRecord
  2
AcadAnnotative
 70
     0
  0
APPID
  5
79
330
9
100
AcDbSymbolTableRecord
100
AcDbRegAppTableRecord
  2
REVIT
 70
     0
  0
ENDTAB
  0
TABLE
  2
DIMSTYLE
  5
A
330
0
100
AcDbSymbolTable
 70
     2
100
AcDbDimStyleTable
 71
     0
  0
DIMSTYLE
105
58
330
A
100
AcDbSymbolTableRecord
100
AcDbDimStyleTableRecord
  2
Standard
 70
     0
340
55
  0
DIMSTYLE
105
59
330
A
100
AcDbSymbolTableRecord
100
AcDbDimStyleTableRecord
  2
Annotative
 70
     0
340
55
1001
AcadAnnotative
1000
AnnotativeData
1002
{
1070
     1
1070
     1
1002
}
  0
ENDTAB
  0
TABLE
  2
BLOCK_RECORD
  5
1
330
0
100
AcDbSymbolTable
 70
     4
  0
BLOCK_RECORD
  5
71
102
{ACAD_XDICTIONARY
360
3CB
102
}
330
1
100
AcDbSymbolTableRecord
100
AcDbBlockTableRecord
  2
*Model_Space
340
74
 70
     0
280
     1
281
     0
  0
BLOCK_RECORD
  5
6D
330
1
100
AcDbSymbolTableRecord
100
AcDbBlockTableRecord
  2
*Paper_Space
340
70
 70
     0
280
     1
281
     0
  0
BLOCK_RECORD
  5
75
330
1
100
AcDbSymbolTableRecord
100
AcDbBlockTableRecord
  2
*Paper_Space0
340
78
 70
     0
280
     1
281
     0
  0
BLOCK_RECORD
  5
87
330
1
100
AcDbSymbolTableRecord
100
AcDbBlockTableRecord
  2
Automatic flow rate regulator valve_Caleffi_121 DN15 - 1_2__-859151-Est - Idraulica
340
0
102
{BLKREFS
331
239
102
}
 70
     0
280
     1
281
     0
  0
BLOCK_RECORD
  5
23A
330
1
100
AcDbSymbolTableRecord
100
AcDbBlockTableRecord
  2
Automatic flow rate regulator valve_Caleffi_121 DN15 - 1_2__-V1-Est - Idraulica
340
0
102
{BLKREFS
331
2DE
102
}
 70
     0
280
     1
281
     0
  0
BLOCK_RECORD
  5
2DF
330
1
100
AcDbSymbolTableRecord
100
AcDbBlockTableRecord
  2
Automatic flow rate regulator valve_Caleffi_121 DN15 - 1_2__-V2-Est - Idraulica
340
0
102
{BLKREFS
331
3C4
102
}
 70
     0
280
     1
281
     0
  0
ENDTAB
  0
ENDSEC
  0
SECTION
  2
BLOCKS
  0
BLOCK
  5
72
330
71
100
AcDbEntity
  8
0
100
AcDbBlockBegin
  2
*Model_Space
 70
     0
 10
0.0
 20
0.0
 30
0.0
  3
*Model_Space
  1

  0
ENDBLK
  5
73
330
71
100
AcDbEntity
  8
0
100
AcDbBlockEnd
  0
BLOCK
  5
6E
330
6D
100
AcDbEntity
 67
     1
  8
0
100
AcDbBlockBegin
  2
*Paper_Space
 70
     0
 10
0.0
 20
0.0
 30
0.0
  3
*Paper_Space
  1

  0
ENDBLK
  5
6F
330
6D
100
AcDbEntity
 67
     1
  8
0
100
AcDbBlockEnd
  0
BLOCK
  5
76
330
75
100
AcDbEntity
 67
     1
  8
0
100
AcDbBlockBegin
  2
*Paper_Space0
 70
     0
 10
0.0
 20
0.0
 30
0.0
  3
*Paper_Space0
  1

  0
ENDBLK
  5
77
330
75
100
AcDbEntity
 67
     1
  8
0
100
AcDbBlockEnd
  0
BLOCK
  5
237
330
87
100
AcDbEntity
  8
0
100
AcDbBlockBegin
  2
Automatic flow rate regulator valve_Caleffi_121 DN15 - 1_2__-859151-Est - Idraulica
 70
     0
 10
0.0
 20
0.0
 30
0.0
  3
Automatic flow rate regulator valve_Caleffi_121 DN15 - 1_2__-859151-Est - Idraulica
  1

  0
LINE
  5
89
330
87
100
AcDbEntity
  8
M-PIPE
100
AcDbLine
 10
710.9164074432034
 20
2211.500000000045
 30
0.0
 11
710.9164074432034
 21
2214.500000000045
 31
0.0
1001
REVIT
1002
{
1070
     3
1000
790271
1002
}
  0
LINE
  5
8A
330
87
100
AcDbEntity
  8
M-PIPE
100
AcDbLine
 10
696.4164074432033
 20
2214.500000000045
 30
0.0
 11
696.4164074432033
 21
2211.500000000045
 31
0.0
1001
REVIT
1002
{
1070
     3
1000
790271
1002
}
  0
LINE
  5
8B
330
87
100
AcDbEntity
  8
M-PIPE
100
AcDbLine
 10
708.1664074432033
 20
2214.500000000045
 30
0.0
 11
708.1664074432033
 21
2222.88596610723
 31
0.0
1001
REVIT
1002
{
1070
     3
1000
790271
1002
}
  0
LINE
  5
8C
330
87
100
AcDbEntity
  8
M-PIPE
100
AcDbLine
 10
699.1664074432035
 20
2222.88596610723
 30
0.0
 11
699.1664074432032
 21
2214.500000000045
 31
0.0
1001
REVIT
1002
{
1070
     3
1000
790271
1002
}
  0
LINE
  5
8D
330
87
100
AcDbEntity
  8
M-PIPE
100
AcDbLine
 10
710.9164074432022
 20
2214.500000000044
 30
0.0
 11
696.4164074432021
 21
2214.500000000044
 31
0.0
1001
REVIT
1002
{
1070
     3
1000
790271
1002
}
  0
LINE
  5
8E
330
87
100
AcDbEntity
  8
M-PIPE
100
AcDbLine
 10
697.6664074432034
 20
2234.000000000057
 30
0.0
 11
697.6664074432033
 21
2222.88596610723
 31
0.0
1001
REVIT
1002
{
1070
     3
1000
790271
1002
}
  0
LINE
  5
8F
330
87
100
AcDbEntity
  8
M-PIPE
100
AcDbLine
 10
709.6664074432034
 20
2222.88596610723
 30
0.0
 11
709.6664074432034
 21
2234.000000000057
 31
0.0
1001
REVIT
1002
{
1070
     3
1000
790271
1002
}
  0
LINE
  5
90
330
87
100
AcDbEntity
  8
M-PIPE
100
AcDbLine
 10
709.6664074432021
 20
2234.000000000056
 30
0.0
 11
697.6664074432021
 21
2234.000000000056
 31
0.0
1001
REVIT
1002
{
1070
     3
1000
790271
1002
}
  0
LINE
  5
91
330
87
100
AcDbEntity
  8
M-PIPE
100
AcDbLine
 10
697.6664074432021
 20
2222.885966107229
 30
0.0
 11
709.6664074432021
 21
2222.885966107229
 31
0.0
1001
REVIT
1002
{
1070
     3
1000
790271
1002
}
  0
LINE
  5
92
330
87
100
AcDbEntity
  8
M-PIPE
100
AcDbLine
 10
703.1664074432137
 20
2142.499999999998
 30
0.0
 11
703.9563250262513
 21
2142.499999999998
 31
0.0
1001
REVIT
1002
{
1070
     3
1000
790271
1002
}
  0
LINE
  5
93
330
87
100
AcDbEntity
  8
M-PIPE
100
AcDbLine
 10
714.8764898601434
 20
2142.499999999998
 30
0.0
 11
716.4563250262869
 21
2142.499999999998
 31
0.0
1001
REVIT
1002
{
1070
     3
1000
790271
1002
}
  0
LINE
  5
94
330
87
100
AcDbEntity
  8
M-PIPE
100
AcDbLine
 10
727.3764898601366
 20
2142.499999999998
 30
0.0
 11
728.1664074432136
 21
2142.499999999998
 31
0.0
1001
REVIT
1002
{
1070
     3
1000
790271
1002
}
  0
LINE
  5
95
330
87
100
AcDbEntity
  8
M-PIPE
100
AcDbLine
 10
727.3764898601362
 20
2127.500000000025
 30
0.0
 11
725.0589774293229
 21
2127.500000000025
 31
0.0
1001
REVIT
1002
{
1070
     3
1000
790271
1002
}
  0
LINE
  5
96
330
87
100
AcDbEntity
  8
M-PIPE
100
AcDbLine
 10
718.8734652353637
 20
2127.500000000025
 30
0.0
 11
716.4563250262872
 21
2127.500000000025
 31
0.0
1001
REVIT
1002
{
1070
     3
1000
790271
1002
}
  0
LINE
  5
97
330
87
100
AcDbEntity
  8
M-PIPE
100
AcDbLine
 10
714.876489860143
 20
2127.500000000025
 30
0.0
 11
712.4593496510831
 21
2127.500000000025
 31
0.0
1001
REVIT
1002
{
1070
     3
1000
790271
1002
}
  0
LINE
  5
98
330
87
100
AcDbEntity
  8
M-PIPE
100
AcDbLine
 10
706.2738374570367
 20
2127.500000000025
 30
0.0
 11
703.9563250262513
 21
2127.500000000026
 31
0.0
1001
REVIT
1002
{
1070
     3
1000
790271
1002
}
  0
LINE
  5
99
330
87
100
AcDbEntity
  8
M-PIPE
100
AcDbLine
 10
703.1664074432136
 20
2142.499999999998
 30
0.0
 11
703.1664074432135
 21
2127.500000000026
 31
0.0
1001
REVIT
1002
{
1070
     3
1000
790271
1002
}
  0
LINE
  5
9A
330
87
100
AcDbEntity
  8
M-PIPE
100
AcDbLine
 10
703.9563250262514
 20
2127.500000000026
 30
0.0
 11
703.1664074432137
 21
2127.500000000026
 31
0.0
1001
REVIT
1002
{
1070
     3
1000
790271
1002
}
  0
LINE
  5
9B
330
87
100
AcDbEntity
  8
M-PIPE
100
AcDbLine
 10
703.956325026251
 20
2127.500000000026
 30
0.0
 11
703.9563250262513
 21
2142.499999999998
 31
0.0
1001
REVIT
1002
{
1070
     3
1000
790271
1002
}
  0
LINE
  5
9C
330
87
100
AcDbEntity
  8
M-PIPE
100
AcDbLine
 10
714.8764898601434
 20
2142.499999999998
 30
0.0
 11
714.8764898601431
 21
2127.500000000025
 31
0.0
1001
REVIT
1002
{
1070
     3
1000
790271
1002
}
  0
LINE
  5
9D
330
87
100
AcDbEntity
  8
M-PIPE
100
AcDbLine
 10
716.4563250262873
 20
2127.500000000025
 30
0.0
 11
714.8764898601431
 21
2127.500000000025
 31
0.0
1001
REVIT
1002
{
1070
     3
1000
790271
1002
}
  0
LINE
  5
9E
330
87
100
AcDbEntity
  8
M-PIPE
100
AcDbLine
 10
716.4563250262864
 20
2127.500000000025
 30
0.0
 11
716.4563250262866
 21
2142.499999999998
 31
0.0
1001
REVIT
1002
{
1070
     3
1000
790271
1002
}
  0
LINE
  5
9F
330
87
100
AcDbEntity
  8
M-PIPE
100
AcDbLine
 10
727.3764898601366
 20
2142.499999999998
 30
0.0
 11
727.3764898601365
 21
2127.500000000025
 31
0.0
1001
REVIT
1002
{
1070
     3
1000
790271
1002
}
  0
LINE
  5
A0
330
87
100
AcDbEntity
  8
M-PIPE
100
AcDbLine
 10
728.1664074432137
 20
2127.500000000025
 30
0.0
 11
727.3764898601362
 21
2127.500000000025
 31
0.0
1001
REVIT
1002
{
1070
     3
1000
790271
1002
}
  0
LINE
  5
A1
330
87
100
AcDbEntity
  8
M-PIPE
100
AcDbLine
 10
728.1664074432135
 20
2127.500000000025
 30
0.0
 11
728.1664074432136
 21
2142.499999999998
 31
0.0
1001
REVIT
1002
{
1070
     3
1000
790271
1002
}
  0
LINE
  5
A2
330
87
100
AcDbEntity
  8
M-PIPE
100
AcDbLine
 10
730.9164074432037
 20
2142.499999999999
 30
0.0
 11
730.9164074432037
 21
2149.500000000001
 31
0.0
1001
REVIT
1002
{
1070
     3
1000
790271
1002
}
  0
LINE
  5
A3
330
87
100
AcDbEntity
  8
M-PIPE
100
AcDbLine
 10
700.4164074432017
 20
2149.500000000001
 30
0.0
 11
700.4164074432017
 21
2142.5
 31
0.0
1001
REVIT
1002
{
1070
     3
1000
790271
1002
}
  0
LINE
  5
A4
330
87
100
AcDbEntity
  8
M-PIPE
100
AcDbLine
 10
739.1664074432037
 20
2149.500000000013
 30
0.0
 11
739.1664074432042
 21
2202.000000000045
 31
0.0
1001
REVIT
1002
{
1070
     3
1000
790271
1002
}
  0
LINE
  5
A5
330
87
100
AcDbEntity
  8
M-PIPE
100
AcDbLine
 10
692.1664074432023
 20
2202.000000000045
 30
0.0
 11
692.1664074432016
 21
2149.500000000013
 31
0.0
1001
REVIT
1002
{
1070
     3
1000
790271
1002
}
  0
LINE
  5
A6
330
87
100
AcDbEntity
  8
M-PIPE
100
AcDbLine
 10
688.1664074432034
 20
2211.500000000045
 30
0.0
 11
688.1664074432032
 21
2202.000000000045
 31
0.0
1001
REVIT
1002
{
1070
     3
1000
790271
1002
}
  0
LINE
  5
A7
330
87
100
AcDbEntity
  8
M-PIPE
100
AcDbLine
 10
743.1664074432033
 20
2202.000000000045
 30
0.0
 11
743.1664074432035
 21
2211.500000000045
 31
0.0
1001
REVIT
1002
{
1070
     3
1000
790271
1002
}
  0
LINE
  5
A8
330
87
100
AcDbEntity
  8
M-PIPE
100
AcDbLine
 10
730.8141097517911
 20
2142.499999999998
 30
0.0
 11
727.771163070339
 21
2142.499999999998
 31
0.0
1001
REVIT
1002
{
1070
     3
1000
790271
1002
}
  0
LINE
  5
A9
330
87
100
AcDbEntity
  8
M-PIPE
100
AcDbLine
 10
727.4151187491782
 20
2142.499999999998
 30
0.0
 11
724.7674164406088
 21
2142.499999999998
 31
0.0
1001
REVIT
1002
{
1070
     3
1000
790271
1002
}
  0
LINE
  5
AA
330
87
100
AcDbEntity
  8
M-PIPE
100
AcDbLine
 10
721.7131007543895
 20
2142.499999999998
 30
0.0
 11
709.6197141320135
 21
2142.499999999998
 31
0.0
1001
REVIT
1002
{
1070
     3
1000
790271
1002
}
  0
LINE
  5
AB
330
87
100
AcDbEntity
  8
M-PIPE
100
AcDbLine
 10
706.5653984458375
 20
2142.499999999998
 30
0.0
 11
703.9176961372496
 21
2142.499999999998
 31
0.0
1001
REVIT
1002
{
1070
     3
1000
790271
1002
}
  0
LINE
  5
AC
330
87
100
AcDbEntity
  8
M-PIPE
100
AcDbLine
 10
703.53631469032
 20
2142.499999999998
 30
0.0
 11
700.5187051346053
 21
2142.499999999998
 31
0.0
1001
REVIT
1002
{
1070
     3
1000
790271
1002
}
  0
LINE
  5
AD
330
87
100
AcDbEntity
  8
M-PIPE
100
AcDbLine
 10
730.8141097517911
 20
2149.5
 30
0.0
 11
730.814109751791
 21
2142.499999999998
 31
0.0
1001
REVIT
1002
{
1070
     3
1000
790271
1002
}
  0
LINE
  5
AE
330
87
100
AcDbEntity
  8
M-PIPE
100
AcDbLine
 10
730.9164074432024
 20
2142.499999999998
 30
0.0
 11
730.8141097517912
 21
2142.499999999998
 31
0.0
1001
REVIT
1002
{
1070
     3
1000
790271
1002
}
  0
LINE
  5
AF
330
87
100
AcDbEntity
  8
M-PIPE
100
AcDbLine
 10
700.5187051346053
 20
2142.499999999998
 30
0.0
 11
700.4164074432004
 21
2142.499999999998
 31
0.0
1001
REVIT
1002
{
1070
     3
1000
790271
1002
}
  0
LINE
  5
B0
330
87
100
AcDbEntity
  8
M-PIPE
100
AcDbLine
 10
700.5187051346053
 20
2142.499999999998
 30
0.0
 11
700.5187051346053
 21
2149.5
 31
0.0
1001
REVIT
1002
{
1070
     3
1000
790271
1002
}
  0
LINE
  5
B1
330
87
100
AcDbEntity
  8
M-PIPE
100
AcDbLine
 10
724.7674164406088
 20
2142.499999999998
 30
0.0
 11
721.7131007543898
 21
2142.499999999998
 31
0.0
1001
REVIT
1002
{
1070
     3
1000
790271
1002
}
  0
LINE
  5
B2
330
87
100
AcDbEntity
  8
M-PIPE
100
AcDbLine
 10
724.7674164406094
 20
2142.499999999998
 30
0.0
 11
724.7674164406097
 21
2149.5
 31
0.0
1001
REVIT
1002
{
1070
     3
1000
790271
1002
}
  0
LINE
  5
B3
330
87
100
AcDbEntity
  8
M-PIPE
100
AcDbLine
 10
721.7131007543887
 20
2149.5
 30
0.0
 11
721.7131007543887
 21
2142.499999999998
 31
0.0
1001
REVIT
1002
{
1070
     3
1000
790271
1002
}
  0
LINE
  5
B4
330
87
100
AcDbEntity
  8
M-PIPE
100
AcDbLine
 10
709.6197141320135
 20
2142.499999999998
 30
0.0
 11
706.5653984458375
 21
2142.499999999998
 31
0.0
1001
REVIT
1002
{
1070
     3
1000
790271
1002
}
  0
LINE
  5
B5
330
87
100
AcDbEntity
  8
M-PIPE
100
AcDbLine
 10
709.6197141320142
 20
2142.499999999998
 30
0.0
 11
709.6197141320143
 21
2149.5
 31
0.0
1001
REVIT
1002
{
1070
     3
1000
790271
1002
}
  0
LINE
  5
B6
330
87
100
AcDbEntity
  8
M-PIPE
100
AcDbLine
 10
706.5653984458375
 20
2149.5
 30
0.0
 11
706.5653984458375
 21
2142.499999999998
 31
0.0
1001
REVIT
1002
{
1070
     3
1000
790271
1002
}
  0
LINE
  5
B7
330
87
100
AcDbEntity
  8
M-PIPE
100
AcDbLine
 10
739.1664074432025
 20
2149.500000000012
 30
0.0
 11
692.1664074432006
 21
2149.500000000012
 31
0.0
1001
REVIT
1002
{
1070
     3
1000
790271
1002
}
  0
LINE
  5
B8
330
87
100
AcDbEntity
  8
M-PIPE
100
AcDbLine
 10
688.1664074432022
 20
2211.500000000043
 30
0.0
 11
743.1664074432022
 21
2211.500000000043
 31
0.0
1001
REVIT
1002
{
1070
     3
1000
790271
1002
}
  0
LINE
  5
B9
330
87
100
AcDbEntity
  8
M-PIPE
100
AcDbLine
 10
688.166407443202
 20
2202.000000000044
 30
0.0
 11
743.1664074432021
 21
2202.000000000043
 31
0.0
1001
REVIT
1002
{
1070
     3
1000
790271
1002
}
  0
LINE
  5
BA
330
87
100
AcDbEntity
  8
M-PIPE
100
AcDbLine
 10
698.166407443194
 20
1623.100000000093
 30
0.0
 11
686.166407443194
 21
1623.100000000093
 31
0.0
1001
REVIT
1002
{
1070
     3
1000
790271
1002
}
  0
LINE
  5
BB
330
87
100
AcDbEntity
  8
M-PIPE
100
AcDbLine
 10
686.166407443194
 20
1623.100000000093
 30
0.0
 11
691.2102000608564
 21
1604.276309688136
 31
0.0
1001
REVIT
1002
{
1070
     3
1000
790271
1002
}
  0
LINE
  5
BC
330
87
100
AcDbEntity
  8
M-PIPE
100
AcDbLine
 10
698.166407443194
 20
1607.94507454369
 30
0.0
 11
698.166407443194
 21
1623.100000000093
 31
0.0
1001
REVIT
1002
{
1070
     3
1000
790271
1002
}
  0
LINE
  5
BD
330
87
100
AcDbEntity
  8
M-PIPE
100
AcDbLine
 10
702.1664074431953
 20
1608.350000000094
 30
0.0
 11
698.1664074431952
 21
1608.350000000094
 31
0.0
1001
REVIT
1002
{
1070
     3
1000
790271
1002
}
  0
LINE
  5
BE
330
87
100
AcDbEntity
  8
M-PIPE
100
AcDbLine
 10
693.166407443195
 20
1591.84999999984
 30
0.0
 11
701.6664074431952
 21
1591.84999999984
 31
0.0
1001
REVIT
1002
{
1070
     3
1000
790271
1002
}
  0
LINE
  5
BF
330
87
100
AcDbEntity
  8
M-PIPE
100
AcDbLine
 10
691.0847558828598
 20
1604.744473733938
 30
0.0
 11
691.0013439336609
 21
1604.599999999967
 31
0.0
1001
REVIT
1002
{
1070
     3
1000
790271
1002
}
  0
LINE
  5
C0
330
87
100
AcDbEntity
  8
M-PIPE
100
AcDbLine
 10
691.0013439336609
 20
1595.599999999967
 30
0.0
 11
693.1256581225868
 21
1591.920579893508
 31
0.0
1001
REVIT
1002
{
1070
     3
1000
790271
1002
}
  0
LINE
  5
C1
330
87
100
AcDbEntity
  8
M-PIPE
100
AcDbLine
 10
693.1315571412012
 20
1591.910362493553
 30
0.0
 11
693.166407443195
 21
1591.84999999984
 31
0.0
1001
REVIT
1002
{
1070
     3
1000
790271
1002
}
  0
LINE
  5
C2
330
87
100
AcDbEntity
  8
M-PIPE
100
AcDbLine
 10
691.0013439336609
 20
1604.599999999967
 30
0.0
 11
689.1664074431952
 21
1604.599999999967
 31
0.0
1001
REVIT
1002
{
1070
     3
1000
790271
1002
}
  0
LINE
  5
C3
330
87
100
AcDbEntity
  8
M-PIPE
100
AcDbLine
 10
689.1664074431952
 20
1595.599999999967
 30
0.0
 11
691.0013439336609
 21
1595.599999999967
 31
0.0
1001
REVIT
1002
{
1070
     3
1000
790271
1002
}
  0
LINE
  5
C4
330
87
100
AcDbEntity
  8
M-PIPE
100
AcDbLine
 10
702.166407443194
 20
1592.032623693998
 30
0.0
 11
702.166407443194
 21
1608.350000000093
 31
0.0
1001
REVIT
1002
{
1070
     3
1000
790271
1002
}
  0
LINE
  5
C5
330
87
100
AcDbEntity
  8
M-PIPE
100
AcDbLine
 10
693.166407443194
 20
1607.960463659552
 30
0.0
 11
693.166407443194
 21
1591.84999999984
 31
0.0
1001
REVIT
1002
{
1070
     3
1000
790271
1002
}
  0
LINE
  5
C6
330
87
100
AcDbEntity
  8
M-PIPE
100
AcDbLine
 10
691.0013439336599
 20
1604.599999999966
 30
0.0
 11
691.0013439336599
 21
1595.599999999966
 31
0.0
1001
REVIT
1002
{
1070
     3
1000
790271
1002
}
  0
LINE
  5
C7
330
87
100
AcDbEntity
  8
M-PIPE
100
AcDbLine
 10
689.1664074431941
 20
1604.599999999966
 30
0.0
 11
689.1664074431941
 21
1595.599999999966
 31
0.0
1001
REVIT
1002
{
1070
     3
1000
790271
1002
}
  0
LINE
  5
C8
330
87
100
AcDbEntity
  8
M-PIPE
100
AcDbLine
 10
701.666407443194
 20
1591.099999999903
 30
0.0
 11
701.666407443194
 21
1592.049087557208
 31
0.0
1001
REVIT
1002
{
1070
     3
1000
790271
1002
}
  0
LINE
  5
C9
330
87
100
AcDbEntity
  8
M-PIPE
100
AcDbLine
 10
702.166407443194
 20
1594.099999999903
 30
0.0
 11
703.9343906842182
 21
1594.099999999903
 31
0.0
1001
REVIT
1002
{
1070
     3
1000
790271
1002
}
  0
LINE
  5
CA
330
87
100
AcDbEntity
  8
M-PIPE
100
AcDbLine
 10
704.8145070457214
 20
1591.099999999903
 30
0.0
 11
701.666407443194
 21
1591.099999999903
 31
0.0
1001
REVIT
1002
{
1070
     3
1000
790271
1002
}
  0
ARC
  5
CB
330
87
100
AcDbEntity
  8
M-PIPE
100
AcDbCircle
 10
710.1664074431941
 20
1594.599999999903
 30
0.0
 40
2.0
100
AcDbArc
 50
180.0
 51
269.9999999999997
1001
REVIT
1002
{
1070
     3
1000
790271
1002
}
  0
LINE
  5
CC
330
87
100
AcDbEntity
  8
M-PIPE
100
AcDbLine
 10
710.1664074431941
 20
1592.599999999903
 30
0.0
 11
721.1664074431941
 21
1592.599999999903
 31
0.0
1001
REVIT
1002
{
1070
     3
1000
790271
1002
}
  0
ARC
  5
CD
330
87
100
AcDbEntity
  8
M-PIPE
100
AcDbCircle
 10
721.1664074431941
 20
1594.599999999903
 30
0.0
 40
2.0
100
AcDbArc
 50
269.9999999999997
 51
0.0
1001
REVIT
1002
{
1070
     3
1000
790271
1002
}
  0
LINE
  5
CE
330
87
100
AcDbEntity
  8
M-PIPE
100
AcDbLine
 10
723.166407443194
 20
1594.599999999903
 30
0.0
 11
723.1664074431941
 21
1605.599999999903
 31
0.0
1001
REVIT
1002
{
1070
     3
1000
790271
1002
}
  0
ARC
  5
CF
330
87
100
AcDbEntity
  8
M-PIPE
100
AcDbCircle
 10
721.1664074431941
 20
1605.599999999903
 30
0.0
 40
2.000000000000297
100
AcDbArc
 50
359.9999999999964
 51
89.99999999999674
1001
REVIT
1002
{
1070
     3
1000
790271
1002
}
  0
LINE
  5
D0
330
87
100
AcDbEntity
  8
M-PIPE
100
AcDbLine
 10
721.1664074431943
 20
1607.599999999903
 30
0.0
 11
710.1664074431941
 21
1607.599999999903
 31
0.0
1001
REVIT
1002
{
1070
     3
1000
790271
1002
}
  0
ARC
  5
D1
330
87
100
AcDbEntity
  8
M-PIPE
100
AcDbCircle
 10
710.1664074431941
 20
1605.599999999903
 30
0.0
 40
2.0
100
AcDbArc
 50
90.0
 51
180.0
1001
REVIT
1002
{
1070
     3
1000
790271
1002
}
  0
LINE
  5
D2
330
87
100
AcDbEntity
  8
M-PIPE
100
AcDbLine
 10
708.1664074431942
 20
1605.599999999903
 30
0.0
 11
708.1664074431941
 21
1600.099999999904
 31
0.0
1001
REVIT
1002
{
1070
     3
1000
790271
1002
}
  0
LINE
  5
D3
330
87
100
AcDbEntity
  8
M-PIPE
100
AcDbLine
 10
708.1664074431941
 20
1600.099999999904
 30
0.0
 11
708.1664074431941
 21
1594.599999999903
 31
0.0
1001
REVIT
1002
{
1070
     3
1000
790271
1002
}
  0
LINE
  5
D4
330
87
100
AcDbEntity
  8
M-PIPE
100
AcDbLine
 10
703.6664074431952
 20
1606.099999999904
 30
0.0
 11
702.1664074431953
 21
1606.099999999904
 31
0.0
1001
REVIT
1002
{
1070
     3
1000
790271
1002
}
  0
LINE
  5
D5
330
87
100
AcDbEntity
  8
M-PIPE
100
AcDbLine
 10
704.9164074432586
 20
1607.349999999967
 30
0.0
 11
703.6664074431952
 21
1606.099999999904
 31
0.0
1001
REVIT
1002
{
1070
     3
1000
790271
1002
}
  0
LINE
  5
D6
330
87
100
AcDbEntity
  8
M-PIPE
100
AcDbLine
 10
705.9164074432133
 20
1607.349999999967
 30
0.0
 11
704.9164074432586
 21
1607.349999999967
 31
0.0
1001
REVIT
1002
{
1070
     3
1000
790271
1002
}
  0
LINE
  5
D7
330
87
100
AcDbEntity
  8
M-PIPE
100
AcDbLine
 10
706.1664074431952
 20
1612.499999999995
 30
0.0
 11
706.1664074431949
 21
1607.599999999949
 31
0.0
1001
REVIT
1002
{
1070
     3
1000
790271
1002
}
  0
LINE
  5
D8
330
87
100
AcDbEntity
  8
M-PIPE
100
AcDbLine
 10
725.1664074431957
 20
1607.599999999949
 30
0.0
 11
725.1664074431958
 21
1612.499999999995
 31
0.0
1001
REVIT
1002
{
1070
     3
1000
790271
1002
}
  0
LINE
  5
D9
330
87
100
AcDbEntity
  8
M-PIPE
100
AcDbLine
 10
706.1664074431953
 20
1607.599999999949
 30
0.0
 11
705.9164074432133
 21
1607.349999999967
 31
0.0
1001
REVIT
1002
{
1070
     3
1000
790271
1002
}
  0
LINE
  5
DA
330
87
100
AcDbEntity
  8
M-PIPE
100
AcDbLine
 10
726.6664074431954
 20
1606.099999999949
 30
0.0
 11
725.1664074431953
 21
1607.599999999949
 31
0.0
1001
REVIT
1002
{
1070
     3
1000
790271
1002
}
  0
LINE
  5
DB
330
87
100
AcDbEntity
  8
M-PIPE
100
AcDbLine
 10
726.6664074431954
 20
1586.499999999946
 30
0.0
 11
726.6664074431956
 21
1606.099999999949
 31
0.0
1001
REVIT
1002
{
1070
     3
1000
790271
1002
}
  0
LINE
  5
DC
330
87
100
AcDbEntity
  8
M-PIPE
100
AcDbLine
 10
704.6664074431949
 20
1591.099999999904
 30
0.0
 11
704.6664074431949
 21
1586.499999999946
 31
0.0
1001
REVIT
1002
{
1070
     3
1000
790271
1002
}
  0
LINE
  5
DD
330
87
100
AcDbEntity
  8
M-PIPE
100
AcDbLine
 10
701.6664074431948
 20
1586.499999999946
 30
0.0
 11
701.6664074431945
 21
1577.999999999946
 31
0.0
1001
REVIT
1002
{
1070
     3
1000
790271
1002
}
  0
LINE
  5
DE
330
87
100
AcDbEntity
  8
M-PIPE
100
AcDbLine
 10
729.6664074431954
 20
1577.999999999946
 30
0.0
 11
729.6664074431954
 21
1586.499999999946
 31
0.0
1001
REVIT
1002
{
1070
     3
1000
790271
1002
}
  0
LINE
  5
DF
330
87
100
AcDbEntity
  8
M-PIPE
100
AcDbLine
 10
708.3664074431943
 20
1577.999999999946
 30
0.0
 11
708.366407443194
 21
1554.999999999946
 31
0.0
1001
REVIT
1002
{
1070
     3
1000
790271
1002
}
  0
LINE
  5
E0
330
87
100
AcDbEntity
  8
M-PIPE
100
AcDbLine
 10
722.9664074431954
 20
1554.999999999946
 30
0.0
 11
722.9664074431958
 21
1577.999999999946
 31
0.0
1001
REVIT
1002
{
1070
     3
1000
790271
1002
}
  0
LINE
  5
E1
330
87
100
AcDbEntity
  8
M-PIPE
100
AcDbLine
 10
703.666407443194
 20
1594.10000000003
 30
0.0
 11
703.6664074431942
 21
1606.099999999903
 31
0.0
1001
REVIT
1002
{
1070
     3
1000
790271
1002
}
  0
SPLINE
  5
E2
330
87
100
AcDbEntity
  8
M-PIPE
100
AcDbSpline
210
0.0
220
0.0
230
1.0
 70
     8
 71
     3
 72
     8
 73
     4
 74
     0
 42
0.000000001
 43
0.0000000001
 40
-0.263059605030513
 40
-0.263059605030513
 40
-0.263059605030513
 40
-0.263059605030513
 40
0.0
 40
0.0
 40
0.0
 40
0.0
 10
704.8026375303323
 20
1593.174717582326
 30
0.0
 10
704.8349157942071
 20
1593.191922181674
 30
0.0
 10
704.872865587896
 20
1593.212094617963
 30
0.0
 10
704.916407443257
 20
1593.235234891192
 30
0.0
1001
REVIT
1002
{
1070
     3
1000
790271
1002
}
  0
LINE
  5
E3
330
87
100
AcDbEntity
  8
M-PIPE
100
AcDbLine
 10
704.9164074432574
 20
1593.235234891192
 30
0.0
 11
704.9164074432574
 21
1607.349999999967
 31
0.0
1001
REVIT
1002
{
1070
     3
1000
790271
1002
}
  0
SPLINE
  5
E4
330
87
100
AcDbEntity
  8
M-PIPE
100
AcDbSpline
210
0.0
220
0.0
230
1.0
 70
     8
 71
     3
 72
    44
 73
    40
 74
     0
 42
0.000000001
 43
0.0000000001
 40
0.0
 40
0.0
 40
0.0
 40
0.0
 40
0.0555555555555556
 40
0.1111111111111111
 40
0.1388888888888889
 40
0.1666666666666666
 40
0.1944444444444444
 40
0.2083333333333333
 40
0.2222222222222222
 40
0.2361111111111111
 40
0.25
 40
0.2777777777777778
 40
0.3055555555555556
 40
0.3194444444444444
 40
0.3333333333333333
 40
0.3472222222222222
 40
0.3611111111111111
 40
0.3888888888888888
 40
0.4166666666666666
 40
0.4444444444444445
 40
0.4722222222222223
 40
0.5
 40
0.5555555555555556
 40
0.6111111111111112
 40
0.6388888888888889
 40
0.6666666666666666
 40
0.6944444444444445
 40
0.7222222222222223
 40
0.75
 40
0.7638888888888889
 40
0.7777777777777778
 40
0.7916666666666668
 40
0.8055555555555555
 40
0.8333333333333332
 40
0.861111111111111
 40
0.8888888888888889
 40
0.9166666666666666
 40
0.9444444444444444
 40
1.0
 40
1.0
 40
1.0
 40
1.0
 10
704.916407443257
 20
1593.235234891192
 30
0.0
 10
704.9849985538202
 20
1593.332759495142
 30
0.0
 10
705.1343746624908
 20
1593.562616211951
 30
0.0
 10
705.3479548354105
 20
1593.929973839248
 30
0.0
 10
705.5414594231977
 20
1594.265674989553
 30
0.0
 10
705.6986439634829
 20
1594.536682666202
 30
0.0
 10
705.8333958227707
 20
1594.778595582042
 30
0.0
 10
705.9411180927155
 20
1594.981670353579
 30
0.0
 10
706.0204724234652
 20
1595.138931748413
 30
0.0
 10
706.1003227497285
 20
1595.300565848382
 30
0.0
 10
706.2098128405105
 20
1595.521118741878
 30
0.0
 10
706.34863068736
 20
1595.8067251127
 30
0.0
 10
706.4846419779017
 20
1596.105934851213
 30
0.0
 10
706.5885825227796
 20
1596.353832982938
 30
0.0
 10
706.6624914057631
 20
1596.544279937596
 30
0.0
 10
706.7346335430714
 20
1596.738809597722
 30
0.0
 10
706.8313310254271
 20
1597.002776168242
 30
0.0
 10
706.9485189233193
 20
1597.341497311205
 30
0.0
 10
707.076595989247
 20
1597.761413162923
 30
0.0
 10
707.1809348381092
 20
1598.193833695344
 30
0.0
 10
707.2643084608734
 20
1598.639501808741
 30
0.0
 10
707.3556597516307
 20
1599.248487353996
 30
0.0
 10
707.4137540560871
 20
1600.021521136779
 30
0.0
 10
707.369792107497
 20
1600.796484774036
 30
0.0
 10
707.2895314074372
 20
1601.40872330313
 30
0.0
 10
707.2132348118129
 20
1601.857410672645
 30
0.0
 10
707.1147549743894
 20
1602.293552571054
 30
0.0
 10
706.9918204661677
 20
1602.717937872189
 30
0.0
 10
706.8781776890885
 20
1603.0607146637
 30
0.0
 10
706.783876407594
 20
1603.328023403973
 30
0.0
 10
706.7133085870554
 20
1603.525070101516
 30
0.0
 10
706.6407312103565
 20
1603.718062138472
 30
0.0
 10
706.5382179662135
 20
1603.969438138024
 30
0.0
 10
706.4035150137883
 20
1604.273156059229
 30
0.0
 10
706.237262098215
 20
1604.621410672172
 30
0.0
 10
706.0751090355616
 20
1604.954446642645
 30
0.0
 10
705.9180777201959
 20
1605.271088240807
 30
0.0
 10
705.7077464830491
 20
1605.667944199092
 30
0.0
 10
705.5511119588656
 20
1605.935930832148
 30
0.0
 10
705.4469407252196
 20
1606.099999999949
 30
0.0
1001
REVIT
1002
{
1070
     3
1000
790271
1002
}
  0
SPLINE
  5
E5
330
87
100
AcDbEntity
  8
M-PIPE
100
AcDbSpline
210
0.0
220
0.0
230
1.0
 70
     8
 71
     3
 72
    11
 73
     7
 74
     0
 42
0.000000001
 43
0.0000000001
 40
0.0
 40
0.0
 40
0.0
 40
0.0
 40
0.3333333333333333
 40
0.5
 40
0.6666666666666666
 40
1.0
 40
1.0
 40
1.0
 40
1.0
 10
705.4469407252196
 20
1606.099999999948
 30
0.0
 10
705.5694783922824
 20
1606.36498302074
 30
0.0
 10
705.717803314166
 20
1606.707437114983
 30
0.0
 10
705.8287183256009
 20
1607.037164418897
 30
0.0
 10
705.8976206966399
 20
1607.276568700663
 30
0.0
 10
705.9199076973365
 20
1607.349999999966
 30
0.0
 10
705.916407443212
 20
1607.349999999967
 30
0.0
1001
REVIT
1002
{
1070
     3
1000
790271
1002
}
  0
LINE
  5
E6
330
87
100
AcDbEntity
  8
M-PIPE
100
AcDbLine
 10
706.1664074431941
 20
1607.599999999949
 30
0.0
 11
710.1572811937203
 21
1607.599999999949
 31
0.0
1001
REVIT
1002
{
1070
     3
1000
790271
1002
}
  0
LINE
  5
E7
330
87
100
AcDbEntity
  8
M-PIPE
100
AcDbLine
 10
721.175533692668
 20
1607.599999999948
 30
0.0
 11
725.1664074431943
 21
1607.599999999948
 31
0.0
1001
REVIT
1002
{
1070
     3
1000
790271
1002
}
  0
LINE
  5
E8
330
87
100
AcDbEntity
  8
M-PIPE
100
AcDbLine
 10
705.4469407252196
 20
1606.099999999949
 30
0.0
 11
708.2301680771047
 21
1606.099999999949
 31
0.0
1001
REVIT
1002
{
1070
     3
1000
790271
1002
}
  0
LINE
  5
E9
330
87
100
AcDbEntity
  8
M-PIPE
100
AcDbLine
 10
715.2185274361569
 20
1606.099999999949
 30
0.0
 11
716.4838467386154
 21
1606.099999999949
 31
0.0
1001
REVIT
1002
{
1070
     3
1000
790271
1002
}
  0
LINE
  5
EA
330
87
100
AcDbEntity
  8
M-PIPE
100
AcDbLine
 10
723.1057560471171
 20
1606.099999999948
 30
0.0
 11
726.6664074431944
 21
1606.099999999948
 31
0.0
1001
REVIT
1002
{
1070
     3
1000
790271
1002
}
  0
LINE
  5
EB
330
87
100
AcDbEntity
  8
M-PIPE
100
AcDbLine
 10
701.6664074431935
 20
1586.499999999945
 30
0.0
 11
729.6664074431943
 21
1586.499999999945
 31
0.0
1001
REVIT
1002
{
1070
     3
1000
790271
1002
}
  0
LINE
  5
EC
330
87
100
AcDbEntity
  8
M-PIPE
100
AcDbLine
 10
701.6664074431933
 20
1577.999999999946
 30
0.0
 11
729.6664074431942
 21
1577.999999999945
 31
0.0
1001
REVIT
1002
{
1070
     3
1000
790271
1002
}
  0
LINE
  5
ED
330
87
100
AcDbEntity
  8
M-PIPE
100
AcDbLine
 10
708.3664074431928
 20
1554.999999999945
 30
0.0
 11
722.9664074431942
 21
1554.999999999945
 31
0.0
1001
REVIT
1002
{
1070
     3
1000
790271
1002
}
  0
LINE
  5
EE
330
87
100
AcDbEntity
  8
P-SANR-FIXT
100
AcDbLine
 10
778.1664074432001
 20
1814.999999999996
 30
0.0
 11
778.1664074432001
 21
1801.199999999995
 31
0.0
  0
LINE
  5
EF
330
87
100
AcDbEntity
  8
P-SANR-FIXT
100
AcDbLine
 10
778.1664074432001
 20
1758.799999999997
 30
0.0
 11
778.1664074432001
 21
1744.999999999996
 31
0.0
  0
LINE
  5
F0
330
87
100
AcDbEntity
  8
P-SANR-FIXT
100
AcDbLine
 10
778.1664074432001
 20
1744.999999999996
 30
0.0
 11
760.1064487418248
 21
1744.999999999996
 31
0.0
  0
LINE
  5
F1
330
87
100
AcDbEntity
  8
P-SANR-FIXT
100
AcDbLine
 10
671.2062618577999
 20
1744.999999999996
 30
0.0
 11
653.1664074432001
 21
1744.999999999996
 31
0.0
  0
LINE
  5
F2
330
87
100
AcDbEntity
  8
P-SANR-FIXT
100
AcDbLine
 10
653.1664074432001
 20
1814.999999999996
 30
0.0
 11
671.2164074432
 21
1814.999999999996
 31
0.0
  0
LINE
  5
F3
330
87
100
AcDbEntity
  8
P-SANR-FIXT
100
AcDbLine
 10
760.1164074432024
 20
1814.999999999996
 30
0.0
 11
778.1664074432001
 21
1814.999999999996
 31
0.0
  0
LINE
  5
F4
330
87
100
AcDbEntity
  8
P-SANR-FIXT
100
AcDbLine
 10
653.1664074432001
 20
1744.999999999996
 30
0.0
 11
653.1664074432001
 21
1758.799999999996
 31
0.0
  0
LINE
  5
F5
330
87
100
AcDbEntity
  8
P-SANR-FIXT
100
AcDbLine
 10
653.1664074432001
 20
1801.199999999996
 30
0.0
 11
653.1664074432001
 21
1814.999999999996
 31
0.0
  0
LINE
  5
F6
330
87
100
AcDbEntity
  8
P-SANR-FIXT
100
AcDbLine
 10
778.1664074432005
 20
2054.999999999995
 30
0.0
 11
778.1664074432005
 21
2041.207636530844
 31
0.0
  0
LINE
  5
F7
330
87
100
AcDbEntity
  8
P-SANR-FIXT
100
AcDbLine
 10
778.1664074432005
 20
1998.79236070522
 30
0.0
 11
778.1664074432005
 21
1984.999999999995
 31
0.0
  0
LINE
  5
F8
330
87
100
AcDbEntity
  8
P-SANR-FIXT
100
AcDbLine
 10
778.1664074432005
 20
1984.999999999995
 30
0.0
 11
760.1164074432024
 21
1984.999999999995
 31
0.0
  0
LINE
  5
F9
330
87
100
AcDbEntity
  8
P-SANR-FIXT
100
AcDbLine
 10
671.2164074432002
 20
1984.999999999995
 30
0.0
 11
653.1664074432005
 21
1984.999999999995
 31
0.0
  0
LINE
  5
FA
330
87
100
AcDbEntity
  8
P-SANR-FIXT
100
AcDbLine
 10
653.1664074432005
 20
2054.999999999995
 30
0.0
 11
671.2164074432002
 21
2054.999999999995
 31
0.0
  0
LINE
  5
FB
330
87
100
AcDbEntity
  8
P-SANR-FIXT
100
AcDbLine
 10
760.1164074432026
 20
2054.999999999995
 30
0.0
 11
778.1664074432005
 21
2054.999999999995
 31
0.0
  0
LINE
  5
FC
330
87
100
AcDbEntity
  8
P-SANR-FIXT
100
AcDbLine
 10
653.1664074432005
 20
1984.999999999995
 30
0.0
 11
653.1664074432005
 21
1998.792363469144
 31
0.0
  0
LINE
  5
FD
330
87
100
AcDbEntity
  8
P-SANR-FIXT
100
AcDbLine
 10
653.1664074432005
 20
2041.20763929477
 30
0.0
 11
653.1664074432005
 21
2054.999999999995
 31
0.0
  0
LWPOLYLINE
  5
FE
330
87
100
AcDbEntity
  8
P-SANR-FIXT
100
AcDbPolyline
 90
       41
 70
   128
 43
0.0
 10
693.1664074432036
 20
1625.499999999995
 10
691.5668340757382
 20
1625.531995733556
 10
689.9698196844366
 20
1625.62793174789
 10
688.3779191516468
 20
1625.787654565841
 10
686.7936791786336
 20
1626.01090866497
 10
685.2196342114009
 20
1626.297336886345
 10
683.6583023861181
 20
1626.646481005914
 10
682.1121815006389
 20
1627.057782467564
 10
680.5837450185588
 20
1627.530583276697
 10
679.0754381121999
 20
1628.064127052877
 10
677.5896737508575
 20
1628.65756023988
 10
676.1288288405635
 20
1629.309933471196
 10
674.6952404215441
 20
1630.020203088824
 10
673.2912019294539
 20
1630.787232812889
 10
671.9189595263681
 20
1631.609795559458
 10
670.580708507402
 20
1632.486575403608
 10
669.2785897887077
 20
1633.416169684623
 10
668.0146864824648
 20
1634.397091249958
 10
666.7910205643444
 20
1635.427770834359
 10
665.6095496387813
 20
1636.506559570358
 10
664.4721638072226
 20
1637.631731626108
 10
663.380682644369
 20
1638.801486966342
 10
662.3368522872446
 20
1640.013954232052
 10
661.3423426417487
 20
1641.267193734256
 10
660.3987447111634
 20
1642.559200557097
 10
659.5075680508874
 20
1643.887907765269
 10
658.6702383534698
 20
1645.251189710683
 10
657.8880951678054
 20
1646.646865433045
 10
657.162389756143
 20
1648.072702148926
 10
656.4942830923325
 20
1649.526418823744
 10
655.8848440045143
 20
1651.005689820928
 10
655.3350474652217
 20
1652.508148622444
 10
654.8457730316343
 20
1654.031391614717
 10
654.4178034384726
 20
1655.5729819339
 10
654.0518233457905
 20
1657.130453364338
 10
653.7484182436647
 20
1658.701314283985
 10
653.5080735155357
 20
1660.283051650469
 10
653.3311736616974
 20
1661.873135021422
 10
653.2180016841798
 20
1663.469020602652
 10
653.1687386340045
 20
1665.068155317664
 10
653.166407443203
 20
1665.499999999995
  0
LWPOLYLINE
  5
FF
330
87
100
AcDbEntity
  8
P-SANR-FIXT
100
AcDbPolyline
 90
       41
 70
   128
 43
0.0
 10
778.1664074432019
 20
1665.499999999995
 10
778.1344117096409
 20
1663.90042663253
 10
778.0384756953067
 20
1662.303412241228
 10
777.8787528773565
 20
1660.711511708438
 10
777.6554987782271
 20
1659.127271735425
 10
777.3690705568514
 20
1657.553226768192
 10
777.0199264372831
 20
1655.99189494291
 10
776.6086249756327
 20
1654.44577405743
 10
776.1358241664994
 20
1652.91733757535
 10
775.6022803903191
 20
1651.409030668991
 10
775.0088472033171
 20
1649.923266307649
 10
774.3564739720003
 20
1648.462421397355
 10
773.646204354373
 20
1647.028832978335
 10
772.8791746303077
 20
1645.624794486245
 10
772.0566118837383
 20
1644.25255208316
 10
771.179832039589
 20
1642.914301064194
 10
770.2502377585735
 20
1641.612182345499
 10
769.2693161932388
 20
1640.348279039256
 10
768.2386366088376
 20
1639.124613121136
 10
767.1598478728379
 20
1637.943142195573
 10
766.0346758170882
 20
1636.805756364014
 10
764.8649204768538
 20
1635.714275201161
 10
763.6524532111446
 20
1634.670444844036
 10
762.39921370894
 20
1633.675935198541
 10
761.1072068860997
 20
1632.732337267955
 10
759.7784996779271
 20
1631.841160607679
 10
758.4152177325127
 20
1631.003830910261
 10
757.0195420101512
 20
1630.221687724597
 10
755.5937052942701
 20
1629.495982312934
 10
754.1399886194524
 20
1628.827875649124
 10
752.6607176222685
 20
1628.218436561306
 10
751.1582588207526
 20
1627.668640022013
 10
749.6350158284797
 20
1627.179365588426
 10
748.0934255092964
 20
1626.751395995264
 10
746.5359540788583
 20
1626.385415902583
 10
744.9650931592112
 20
1626.082010800457
 10
743.3833557927272
 20
1625.841666072328
 10
741.7932724217738
 20
1625.664766218489
 10
740.1973868405447
 20
1625.551594240972
 10
738.598252125532
 20
1625.502331190796
 10
738.1664074432014
 20
1625.499999999995
  0
LWPOLYLINE
  5
100
330
87
100
AcDbEntity
  8
P-SANR-FIXT
100
AcDbPolyline
 90
        8
 70
   128
 43
0.0
 10
738.1664074432019
 20
1625.499999999995
 10
738.1484098430739
 20
1625.499999999995
 10
738.0944458350111
 20
1625.499999999995
 10
738.004601749914
 20
1625.499999999995
 10
737.8790213191535
 20
1625.499999999995
 10
737.7179054446298
 20
1625.499999999995
 10
737.5215118773724
 20
1625.499999999995
 10
737.4258954180746
 20
1625.499999999995
  0
LWPOLYLINE
  5
101
330
87
100
AcDbEntity
  8
P-SANR-FIXT
100
AcDbPolyline
 90
        8
 70
   128
 43
0.0
 10
693.9027843128671
 20
1625.499999999995
 10
693.7165628726286
 20
1625.499999999995
 10
693.5363678999379
 20
1625.499999999995
 10
693.3915762696931
 20
1625.499999999995
 10
693.2824196176153
 20
1625.499999999995
 10
693.2090725710623
 20
1625.499999999995
 10
693.1716524696623
 20
1625.499999999995
 10
693.166407443203
 20
1625.499999999995
  0
LWPOLYLINE
  5
102
330
87
100
AcDbEntity
  8
P-SANR-FIXT
100
AcDbPolyline
 90
       41
 70
   128
 43
0.0
 10
653.1664074432024
 20
2075.499999999996
 10
653.1984031767632
 20
2077.099573367461
 10
653.2943391910976
 20
2078.696587758763
 10
653.4540620090479
 20
2080.288488291552
 10
653.6773161081773
 20
2081.872728264565
 10
653.9637443295528
 20
2083.446773231798
 10
654.3128884491213
 20
2085.008105057081
 10
654.7241899107715
 20
2086.55422594256
 10
655.1969907199048
 20
2088.08266242464
 10
655.730534496085
 20
2089.590969331
 10
656.323967683087
 20
2091.076733692342
 10
656.9763409144041
 20
2092.537578602636
 10
657.686610532031
 20
2093.971167021655
 10
658.4536402560965
 20
2095.375205513745
 10
659.2762030026658
 20
2096.747447916831
 10
660.1529828468152
 20
2098.085698935797
 10
661.0825771278307
 20
2099.387817654491
 10
662.0634986931653
 20
2100.651720960735
 10
663.0941782775667
 20
2101.875386878854
 10
664.1729670135663
 20
2103.056857804418
 10
665.2981390693157
 20
2104.194243635977
 10
666.4678944095501
 20
2105.28572479883
 10
667.6803616752593
 20
2106.329555155955
 10
668.9336011774639
 20
2107.324064801451
 10
670.2256080003041
 20
2108.267662732036
 10
671.5543152084769
 20
2109.158839392312
 10
672.9175971538913
 20
2109.996169089729
 10
674.3132728762527
 20
2110.778312275394
 10
675.739109592134
 20
2111.504017687056
 10
677.1928262669515
 20
2112.172124350866
 10
678.6720972641354
 20
2112.781563438685
 10
680.1745560656513
 20
2113.331359977978
 10
681.6977990579244
 20
2113.820634411565
 10
683.2393893771075
 20
2114.248604004727
 10
684.7968608075457
 20
2114.614584097409
 10
686.3677217271929
 20
2114.917989199534
 10
687.9494590936766
 20
2115.158333927663
 10
689.53954246463
 20
2115.335233781502
 10
691.1354280458592
 20
2115.448405759019
 10
692.7345627608717
 20
2115.497668809194
 10
693.1664074432023
 20
2115.499999999996
  0
LWPOLYLINE
  5
103
330
87
100
AcDbEntity
  8
P-SANR-FIXT
100
AcDbPolyline
 90
       41
 70
   128
 43
0.0
 10
738.1664074432026
 20
2115.499999999996
 10
739.7659808106681
 20
2115.468004266435
 10
741.3629952019695
 20
2115.372068252101
 10
742.9548957347593
 20
2115.21234543415
 10
744.5391357077724
 20
2114.989091335021
 10
746.113180675005
 20
2114.702663113646
 10
747.6745125002879
 20
2114.353518994077
 10
749.2206333857672
 20
2113.942217532427
 10
750.7490698678473
 20
2113.469416723293
 10
752.2573767742064
 20
2112.935872947113
 10
753.7431411355486
 20
2112.342439760111
 10
755.2039860458427
 20
2111.690066528794
 10
756.6375744648619
 20
2110.979796911168
 10
758.041612956952
 20
2110.212767187102
 10
759.413855360038
 20
2109.390204440532
 10
760.7521063790041
 20
2108.513424596383
 10
762.0542250976983
 20
2107.583830315368
 10
763.3181284039413
 20
2106.602908750033
 10
764.5417943220616
 20
2105.572229165631
 10
765.7232652476246
 20
2104.493440429632
 10
766.8606510791835
 20
2103.368268373882
 10
767.952132242037
 20
2102.198513033648
 10
768.9959625991613
 20
2100.986045767939
 10
769.9904722446573
 20
2099.732806265734
 10
770.9340701752426
 20
2098.440799442894
 10
771.8252468355185
 20
2097.112092234722
 10
772.6625765329363
 20
2095.748810289307
 10
773.4447197186007
 20
2094.353134566945
 10
774.1704251302627
 20
2092.927297851064
 10
774.8385317940733
 20
2091.473581176247
 10
775.4479708818916
 20
2089.994310179063
 10
775.9977674211842
 20
2088.491851377547
 10
776.4870418547715
 20
2086.968608385274
 10
776.9150114479332
 20
2085.42701806609
 10
777.2809915406152
 20
2083.869546635653
 10
777.5843966427409
 20
2082.298685716005
 10
777.82474137087
 20
2080.716948349521
 10
778.0016412247082
 20
2079.126864978568
 10
778.1148132022259
 20
2077.530979397339
 10
778.1640762524013
 20
2075.931844682326
 10
778.1664074432026
 20
2075.499999999996
  0
LWPOLYLINE
  5
104
330
87
100
AcDbEntity
  8
P-SANR-FIXT
100
AcDbPolyline
 90
        8
 70
   128
 43
0.0
 10
693.1664074432023
 20
2115.499999999996
 10
693.1844050433304
 20
2115.499999999996
 10
693.2383690513936
 20
2115.499999999996
 10
693.3282131364904
 20
2115.499999999996
 10
693.4537935672508
 20
2115.499999999996
 10
693.6149094417744
 20
2115.499999999996
 10
693.8113030090318
 20
2115.499999999996
 10
693.9069194683298
 20
2115.499999999996
  0
LWPOLYLINE
  5
105
330
87
100
AcDbEntity
  8
P-SANR-FIXT
100
AcDbPolyline
 90
        8
 70
   128
 43
0.0
 10
737.4300305735388
 20
2115.499999999996
 10
737.6162520137769
 20
2115.499999999996
 10
737.7964469864677
 20
2115.499999999996
 10
737.9412386167125
 20
2115.499999999996
 10
738.0503952687904
 20
2115.499999999996
 10
738.1237423153434
 20
2115.499999999996
 10
738.1611624167436
 20
2115.499999999996
 10
738.1664074432026
 20
2115.499999999996
  0
LINE
  5
106
330
87
100
AcDbEntity
  8
P-SANR-FIXT
100
AcDbLine
 10
738.1664074432003
 20
1625.499999999995
 30
0.0
 11
729.1664074431996
 21
1625.499999999995
 31
0.0
  0
LINE
  5
107
330
87
100
AcDbEntity
  8
P-SANR-FIXT
100
AcDbLine
 10
702.1664074432029
 20
1625.499999999995
 30
0.0
 11
693.1664074432023
 21
1625.499999999995
 31
0.0
  0
ARC
  5
108
330
87
100
AcDbEntity
  8
P-SANR-FIXT
100
AcDbCircle
 10
693.1664074432021
 20
1665.499999999995
 30
0.0
 40
40.00000000000006
100
AcDbArc
 50
180.0000000000006
 51
270.0000000000002
  0
ARC
  5
109
330
87
100
AcDbEntity
  8
P-SANR-FIXT
100
AcDbCircle
 10
738.1664074432007
 20
1665.499999999995
 30
0.0
 40
40.0
100
AcDbArc
 50
269.9999999999995
 51
0.0
  0
LINE
  5
10A
330
87
100
AcDbEntity
  8
P-SANR-FIXT
100
AcDbLine
 10
653.1664074432013
 20
1665.499999999994
 30
0.0
 11
653.1664074432013
 21
1758.799999999996
 31
0.0
  0
LINE
  5
10B
330
87
100
AcDbEntity
  8
P-SANR-FIXT
100
AcDbLine
 10
653.1664074432013
 20
1801.199999999996
 30
0.0
 11
653.1664074432013
 21
1998.792363469144
 31
0.0
  0
LINE
  5
10C
330
87
100
AcDbEntity
  8
P-SANR-FIXT
100
AcDbLine
 10
653.1664074432013
 20
2041.20763929477
 30
0.0
 11
653.1664074432013
 21
2075.499999999995
 31
0.0
  0
LINE
  5
10D
330
87
100
AcDbEntity
  8
P-SANR-FIXT
100
AcDbLine
 10
778.1664074432013
 20
2075.499999999995
 30
0.0
 11
778.1664074432013
 21
2041.207636530844
 31
0.0
  0
LINE
  5
10E
330
87
100
AcDbEntity
  8
P-SANR-FIXT
100
AcDbLine
 10
778.1664074432013
 20
1998.79236070522
 30
0.0
 11
778.1664074432013
 21
1801.199999999995
 31
0.0
  0
LINE
  5
10F
330
87
100
AcDbEntity
  8
P-SANR-FIXT
100
AcDbLine
 10
778.1664074432013
 20
1758.799999999997
 30
0.0
 11
778.1664074432013
 21
1665.499999999994
 31
0.0
  0
ARC
  5
110
330
87
100
AcDbEntity
  8
P-SANR-FIXT
100
AcDbCircle
 10
693.1664074432013
 20
2075.499999999995
 30
0.0
 40
39.99999999999989
100
AcDbArc
 50
89.99999999999984
 51
180.0000000000001
  0
ARC
  5
111
330
87
100
AcDbEntity
  8
P-SANR-FIXT
100
AcDbCircle
 10
738.1664074432014
 20
2075.499999999995
 30
0.0
 40
40.00000000000012
100
AcDbArc
 50
0.0000000000004898
 51
90.00000000000049
  0
LINE
  5
112
330
87
100
AcDbEntity
  8
P-SANR-FIXT
100
AcDbLine
 10
693.1664074432015
 20
2115.499999999995
 30
0.0
 11
702.6664074431944
 21
2115.499999999995
 31
0.0
  0
LINE
  5
113
330
87
100
AcDbEntity
  8
P-SANR-FIXT
100
AcDbLine
 10
728.6664074432082
 20
2115.499999999995
 30
0.0
 11
738.1664074432011
 21
2115.499999999995
 31
0.0
  0
LINE
  5
114
330
87
100
AcDbEntity
  8
P-SANR-FIXT
100
AcDbLine
 10
800.0585067587568
 20
1818.682468035737
 30
0.0
 11
797.0664074432463
 21
1813.499999999981
 31
0.0
  0
LINE
  5
115
330
87
100
AcDbEntity
  8
P-SANR-FIXT
100
AcDbLine
 10
797.0664074432463
 20
1746.500000000013
 30
0.0
 11
800.0585067587568
 21
1741.317531964256
 31
0.0
  0
LINE
  5
116
330
87
100
AcDbEntity
  8
P-SANR-FIXT
100
AcDbLine
 10
818.0743081277501
 20
1741.317531964281
 30
0.0
 11
821.0664074432463
 21
1746.500000000012
 31
0.0
  0
LINE
  5
117
330
87
100
AcDbEntity
  8
P-SANR-FIXT
100
AcDbLine
 10
821.0664074432466
 20
1813.49999999998
 30
0.0
 11
818.0743081277906
 21
1818.682468035642
 31
0.0
  0
LINE
  5
118
330
87
100
AcDbEntity
  8
P-SANR-FIXT
100
AcDbLine
 10
821.0664074432466
 20
1754.649999999855
 30
0.0
 11
839.6664074432324
 21
1754.649999999855
 31
0.0
  0
LINE
  5
119
330
87
100
AcDbEntity
  8
P-SANR-FIXT
100
AcDbLine
 10
839.6664074432324
 20
1805.350000000066
 30
0.0
 11
821.0664074432466
 21
1805.350000000066
 31
0.0
  0
LINE
  5
11A
330
87
100
AcDbEntity
  8
P-SANR-FIXT
100
AcDbLine
 10
821.0664074432466
 20
1994.649999999855
 30
0.0
 11
839.6664074432324
 21
1994.649999999855
 31
0.0
  0
LINE
  5
11B
330
87
100
AcDbEntity
  8
P-SANR-FIXT
100
AcDbLine
 10
839.6664074432324
 20
2045.350000000066
 30
0.0
 11
821.0664074432466
 21
2045.350000000066
 31
0.0
  0
LINE
  5
11C
330
87
100
AcDbEntity
  8
P-SANR-FIXT
100
AcDbLine
 10
800.0585067587568
 20
2058.682468035736
 30
0.0
 11
797.0664074432463
 21
2053.49999999998
 31
0.0
  0
LINE
  5
11D
330
87
100
AcDbEntity
  8
P-SANR-FIXT
100
AcDbLine
 10
797.0664074432463
 20
1986.500000000011
 30
0.0
 11
800.0585067587568
 21
1981.317531964255
 31
0.0
  0
LINE
  5
11E
330
87
100
AcDbEntity
  8
P-SANR-FIXT
100
AcDbLine
 10
821.0664074432466
 20
2053.49999999998
 30
0.0
 11
818.0743081277359
 21
2058.682468035736
 31
0.0
  0
LINE
  5
11F
330
87
100
AcDbEntity
  8
P-SANR-FIXT
100
AcDbLine
 10
818.0743081277359
 20
1981.317531964256
 30
0.0
 11
821.0664074432466
 21
1986.500000000011
 31
0.0
  0
LINE
  5
120
330
87
100
AcDbEntity
  8
P-SANR-FIXT
100
AcDbLine
 10
634.2664074431586
 20
2053.49999999998
 30
0.0
 11
631.2743081276486
 21
2058.682468035736
 31
0.0
  0
LINE
  5
121
330
87
100
AcDbEntity
  8
P-SANR-FIXT
100
AcDbLine
 10
631.2743081276484
 20
1981.317531964256
 30
0.0
 11
634.2664074431586
 21
1986.500000000011
 31
0.0
  0
LINE
  5
122
330
87
100
AcDbEntity
  8
P-SANR-FIXT
100
AcDbLine
 10
591.6664074431726
 20
1994.649999999855
 30
0.0
 11
610.2664074431585
 21
1994.649999999855
 31
0.0
  0
LINE
  5
123
330
87
100
AcDbEntity
  8
P-SANR-FIXT
100
AcDbLine
 10
610.2664074431585
 20
2045.350000000066
 30
0.0
 11
591.6664074431726
 21
2045.350000000066
 31
0.0
  0
LINE
  5
124
330
87
100
AcDbEntity
  8
P-SANR-FIXT
100
AcDbLine
 10
610.2664074431584
 20
1986.500000000011
 30
0.0
 11
613.2585067586517
 21
1981.317531964285
 31
0.0
  0
LINE
  5
125
330
87
100
AcDbEntity
  8
P-SANR-FIXT
100
AcDbLine
 10
613.2585067586116
 20
2058.682468035637
 30
0.0
 11
610.2664074431585
 21
2053.49999999998
 31
0.0
  0
LINE
  5
126
330
87
100
AcDbEntity
  8
P-SANR-FIXT
100
AcDbLine
 10
634.2664074431586
 20
1813.499999999981
 30
0.0
 11
631.2743081276486
 21
1818.682468035737
 31
0.0
  0
LINE
  5
127
330
87
100
AcDbEntity
  8
P-SANR-FIXT
100
AcDbLine
 10
631.2743081276484
 20
1741.317531964257
 30
0.0
 11
634.2664074431586
 21
1746.500000000013
 31
0.0
  0
LINE
  5
128
330
87
100
AcDbEntity
  8
P-SANR-FIXT
100
AcDbLine
 10
610.2664074431584
 20
1746.500000000013
 30
0.0
 11
613.2585067586521
 21
1741.317531964285
 31
0.0
  0
LINE
  5
129
330
87
100
AcDbEntity
  8
P-SANR-FIXT
100
AcDbLine
 10
613.2585067586119
 20
1818.682468035637
 30
0.0
 11
610.2664074431585
 21
1813.49999999998
 31
0.0
  0
LINE
  5
12A
330
87
100
AcDbEntity
  8
P-SANR-FIXT
100
AcDbLine
 10
591.6664074431726
 20
1754.649999999855
 30
0.0
 11
610.2664074431584
 21
1754.649999999855
 31
0.0
  0
LINE
  5
12B
330
87
100
AcDbEntity
  8
P-SANR-FIXT
100
AcDbLine
 10
610.2664074431585
 20
1805.350000000066
 30
0.0
 11
591.6664074431726
 21
1805.350000000066
 31
0.0
  0
LINE
  5
12C
330
87
100
AcDbEntity
  8
P-SANR-FIXT
100
AcDbLine
 10
821.0664074432452
 20
1813.499999999979
 30
0.0
 11
821.0664074432454
 21
1809.01185102676
 31
0.0
  0
LINE
  5
12D
330
87
100
AcDbEntity
  8
P-SANR-FIXT
100
AcDbLine
 10
821.0664074432454
 20
1809.01185102676
 30
0.0
 11
821.0664074432452
 21
1779.999999999995
 31
0.0
  0
LINE
  5
12E
330
87
100
AcDbEntity
  8
P-SANR-FIXT
100
AcDbLine
 10
821.0664074432452
 20
1779.999999999995
 30
0.0
 11
821.066407443245
 21
1750.988148973231
 31
0.0
  0
LINE
  5
12F
330
87
100
AcDbEntity
  8
P-SANR-FIXT
100
AcDbLine
 10
821.066407443245
 20
1750.988148973231
 30
0.0
 11
821.0664074432449
 21
1746.500000000011
 31
0.0
  0
LINE
  5
130
330
87
100
AcDbEntity
  8
P-SANR-FIXT
100
AcDbLine
 10
797.0664074432451
 20
1746.500000000012
 30
0.0
 11
797.0664074432452
 21
1750.988148973231
 31
0.0
  0
LINE
  5
131
330
87
100
AcDbEntity
  8
P-SANR-FIXT
100
AcDbLine
 10
797.0664074432452
 20
1750.988148973231
 30
0.0
 11
797.0664074432452
 21
1779.999999999995
 31
0.0
  0
LINE
  5
132
330
87
100
AcDbEntity
  8
P-SANR-FIXT
100
AcDbLine
 10
797.0664074432452
 20
1779.999999999996
 30
0.0
 11
797.0664074432452
 21
1809.011851026761
 31
0.0
  0
LINE
  5
133
330
87
100
AcDbEntity
  8
P-SANR-FIXT
100
AcDbLine
 10
797.0664074432452
 20
1809.011851026761
 30
0.0
 11
797.0664074432451
 21
1813.49999999998
 31
0.0
  0
SPLINE
  5
134
330
87
100
AcDbEntity
  8
P-SANR-FIXT
100
AcDbSpline
210
0.0
220
0.0
230
1.0
 70
     8
 71
     3
 72
     9
 73
     5
 74
     0
 42
0.000000001
 43
0.0000000001
 40
0.0
 40
0.0
 40
0.0
 40
0.0
 40
0.5
 40
1.0
 40
1.0
 40
1.0
 40
1.0
 10
800.0585067587271
 20
1799.341234017771
 30
0.0
 10
799.0978776049655
 20
1796.173139473942
 30
0.0
 10
797.6385652319569
 20
1789.78150592715
 30
0.0
 10
797.1031447279776
 20
1783.278983462092
 30
0.0
 10
797.0664074432452
 20
1779.999999999995
 30
0.0
  0
SPLINE
  5
135
330
87
100
AcDbEntity
  8
P-SANR-FIXT
100
AcDbSpline
210
0.0
220
0.0
230
1.0
 70
     8
 71
     3
 72
     9
 73
     5
 74
     0
 42
0.000000001
 43
0.0000000001
 40
0.0
 40
0.0
 40
0.0
 40
0.0
 40
0.5
 40
1.0
 40
1.0
 40
1.0
 40
1.0
 10
797.0664074432452
 20
1779.999999999995
 30
0.0
 10
797.1031447279781
 20
1776.721016537888
 30
0.0
 10
797.6385652319614
 20
1770.218494072805
 30
0.0
 10
799.0978776049797
 20
1763.82686052599
 30
0.0
 10
800.0585067587476
 20
1760.658765982151
 30
0.0
  0
SPLINE
  5
136
330
87
100
AcDbEntity
  8
P-SANR-FIXT
100
AcDbSpline
210
0.0
220
0.0
230
1.0
 70
     8
 71
     3
 72
     9
 73
     5
 74
     0
 42
0.000000001
 43
0.0000000001
 40
0.0
 40
0.0
 40
0.0
 40
0.0
 40
0.5
 40
1.0
 40
1.0
 40
1.0
 40
1.0
 10
818.0743081277428
 20
1760.658765982151
 30
0.0
 10
819.0349372815106
 20
1763.82686052599
 30
0.0
 10
820.4942496545289
 20
1770.218494072805
 30
0.0
 10
821.0296701585122
 20
1776.721016537887
 30
0.0
 10
821.0664074432452
 20
1779.999999999994
 30
0.0
  0
SPLINE
  5
137
330
87
100
AcDbEntity
  8
P-SANR-FIXT
100
AcDbSpline
210
0.0
220
0.0
230
1.0
 70
     8
 71
     3
 72
     9
 73
     5
 74
     0
 42
0.000000001
 43
0.0000000001
 40
0.0
 40
0.0
 40
0.0
 40
0.0
 40
0.5
 40
1.0
 40
1.0
 40
1.0
 40
1.0
 10
821.0664074432452
 20
1779.999999999995
 30
0.0
 10
821.0296701585129
 20
1783.27898346209
 30
0.0
 10
820.4942496545333
 20
1789.781505927149
 30
0.0
 10
819.0349372815246
 20
1796.173139473941
 30
0.0
 10
818.0743081277629
 20
1799.341234017771
 30
0.0
  0
LINE
  5
138
330
87
100
AcDbEntity
  8
P-SANR-FIXT
100
AcDbLine
 10
818.0743081277629
 20
1799.341234017771
 30
0.0
 11
800.0585067587271
 21
1799.341234017771
 31
0.0
  0
SPLINE
  5
139
330
87
100
AcDbEntity
  8
P-SANR-FIXT
100
AcDbSpline
210
0.0
220
0.0
230
1.0
 70
     8
 71
     3
 72
     9
 73
     5
 74
     0
 42
0.000000001
 43
0.0000000001
 40
0.0
 40
0.0
 40
0.0
 40
0.0
 40
0.5
 40
1.0
 40
1.0
 40
1.0
 40
1.0
 10
800.0585067587476
 20
1760.658765982151
 30
0.0
 10
799.0978776049741
 20
1759.074718710228
 30
0.0
 10
797.6385652319505
 20
1755.878901936815
 30
0.0
 10
797.1031447279727
 20
1752.627640704268
 30
0.0
 10
797.0664074432452
 20
1750.98814897321
 30
0.0
  0
SPLINE
  5
13A
330
87
100
AcDbEntity
  8
P-SANR-FIXT
100
AcDbSpline
210
0.0
220
0.0
230
1.0
 70
     8
 71
     3
 72
     9
 73
     5
 74
     0
 42
0.000000001
 43
0.0000000001
 40
0.0
 40
0.0
 40
0.0
 40
0.0
 40
0.5
 40
1.0
 40
1.0
 40
1.0
 40
1.0
 10
797.0664074432452
 20
1750.98814897321
 30
0.0
 10
797.1031447279715
 20
1749.348657242165
 30
0.0
 10
797.6385652319414
 20
1746.097396009642
 30
0.0
 10
799.0978776049459
 20
1742.901579236252
 30
0.0
 10
800.0585067587067
 20
1741.317531964341
 30
0.0
  0
SPLINE
  5
13B
330
87
100
AcDbEntity
  8
P-SANR-FIXT
100
AcDbSpline
210
0.0
220
0.0
230
1.0
 70
     8
 71
     3
 72
     9
 73
     5
 74
     0
 42
0.000000001
 43
0.0000000001
 40
0.0
 40
0.0
 40
0.0
 40
0.0
 40
0.5
 40
1.0
 40
1.0
 40
1.0
 40
1.0
 10
818.0743081277833
 20
1741.317531964341
 30
0.0
 10
819.0349372815443
 20
1742.901579236252
 30
0.0
 10
820.4942496545488
 20
1746.097396009642
 30
0.0
 10
821.0296701585189
 20
1749.348657242165
 30
0.0
 10
821.0664074432454
 20
1750.98814897321
 30
0.0
  0
SPLINE
  5
13C
330
87
100
AcDbEntity
  8
P-SANR-FIXT
100
AcDbSpline
210
0.0
220
0.0
230
1.0
 70
     8
 71
     3
 72
     9
 73
     5
 74
     0
 42
0.000000001
 43
0.0000000001
 40
0.0
 40
0.0
 40
0.0
 40
0.0
 40
0.5
 40
1.0
 40
1.0
 40
1.0
 40
1.0
 10
821.0664074432452
 20
1750.98814897321
 30
0.0
 10
821.0296701585178
 20
1752.627640704267
 30
0.0
 10
820.4942496545399
 20
1755.878901936815
 30
0.0
 10
819.0349372815163
 20
1759.074718710228
 30
0.0
 10
818.0743081277428
 20
1760.658765982151
 30
0.0
  0
LINE
  5
13D
330
87
100
AcDbEntity
  8
P-SANR-FIXT
100
AcDbLine
 10
800.0585067587476
 20
1760.658765982151
 30
0.0
 11
818.0743081277428
 21
1760.658765982151
 31
0.0
  0
LINE
  5
13E
330
87
100
AcDbEntity
  8
P-SANR-FIXT
100
AcDbLine
 10
800.0585067587067
 20
1741.317531964341
 30
0.0
 11
818.0743081277833
 21
1741.317531964341
 31
0.0
  0
SPLINE
  5
13F
330
87
100
AcDbEntity
  8
P-SANR-FIXT
100
AcDbSpline
210
0.0
220
0.0
230
1.0
 70
     8
 71
     3
 72
     9
 73
     5
 74
     0
 42
0.000000001
 43
0.0000000001
 40
0.0
 40
0.0
 40
0.0
 40
0.0
 40
0.5
 40
1.0
 40
1.0
 40
1.0
 40
1.0
 10
800.058506758666
 20
1818.682468035581
 30
0.0
 10
799.0978776049014
 20
1817.098420763673
 30
0.0
 10
797.6385652318997
 20
1813.90260399029
 30
0.0
 10
797.1031447279541
 20
1810.651342757772
 30
0.0
 10
797.0664074432452
 20
1809.011851026729
 30
0.0
  0
SPLINE
  5
140
330
87
100
AcDbEntity
  8
P-SANR-FIXT
100
AcDbSpline
210
0.0
220
0.0
230
1.0
 70
     8
 71
     3
 72
     9
 73
     5
 74
     0
 42
0.000000001
 43
0.0000000001
 40
0.0
 40
0.0
 40
0.0
 40
0.0
 40
0.5
 40
1.0
 40
1.0
 40
1.0
 40
1.0
 10
797.0664074432452
 20
1809.011851026729
 30
0.0
 10
797.1031447279557
 20
1807.372359295667
 30
0.0
 10
797.6385652319132
 20
1804.121098063113
 30
0.0
 10
799.0978776049437
 20
1800.925281289696
 30
0.0
 10
800.0585067587271
 20
1799.341234017771
 30
0.0
  0
SPLINE
  5
141
330
87
100
AcDbEntity
  8
P-SANR-FIXT
100
AcDbSpline
210
0.0
220
0.0
230
1.0
 70
     8
 71
     3
 72
     9
 73
     5
 74
     0
 42
0.000000001
 43
0.0000000001
 40
0.0
 40
0.0
 40
0.0
 40
0.0
 40
0.5
 40
1.0
 40
1.0
 40
1.0
 40
1.0
 10
818.0743081277629
 20
1799.341234017771
 30
0.0
 10
819.0349372815463
 20
1800.925281289696
 30
0.0
 10
820.4942496545765
 20
1804.121098063113
 30
0.0
 10
821.0296701585344
 20
1807.372359295667
 30
0.0
 10
821.0664074432452
 20
1809.011851026729
 30
0.0
  0
SPLINE
  5
142
330
87
100
AcDbEntity
  8
P-SANR-FIXT
100
AcDbSpline
210
0.0
220
0.0
230
1.0
 70
     8
 71
     3
 72
     9
 73
     5
 74
     0
 42
0.000000001
 43
0.0000000001
 40
0.0
 40
0.0
 40
0.0
 40
0.0
 40
0.5
 40
1.0
 40
1.0
 40
1.0
 40
1.0
 10
821.0664074432452
 20
1809.011851026729
 30
0.0
 10
821.0296701585361
 20
1810.651342757772
 30
0.0
 10
820.4942496545898
 20
1813.90260399029
 30
0.0
 10
819.0349372815882
 20
1817.098420763673
 30
0.0
 10
818.0743081278237
 20
1818.682468035581
 30
0.0
  0
LINE
  5
143
330
87
100
AcDbEntity
  8
P-SANR-FIXT
100
AcDbLine
 10
800.058506758666
 20
1818.682468035581
 30
0.0
 11
818.0743081278237
 21
1818.682468035581
 31
0.0
  0
LINE
  5
144
330
87
100
AcDbEntity
  8
P-SANR-FIXT
100
AcDbLine
 10
839.6664074432312
 20
1796.703479332911
 30
0.0
 11
839.6664074432312
 21
1788.162260716015
 31
0.0
  0
LINE
  5
145
330
87
100
AcDbEntity
  8
P-SANR-FIXT
100
AcDbLine
 10
839.6664074432312
 20
1788.162260716015
 30
0.0
 11
839.6664074432312
 21
1771.837739283904
 31
0.0
  0
LINE
  5
146
330
87
100
AcDbEntity
  8
P-SANR-FIXT
100
AcDbLine
 10
839.6664074432312
 20
1771.837739283904
 30
0.0
 11
839.6664074432312
 21
1763.296520667008
 31
0.0
  0
LINE
  5
147
330
87
100
AcDbEntity
  8
P-SANR-FIXT
100
AcDbLine
 10
839.6664074432312
 20
1763.296520667008
 30
0.0
 11
839.666407443231
 21
1755.134259950953
 31
0.0
  0
LINE
  5
148
330
87
100
AcDbEntity
  8
P-SANR-FIXT
100
AcDbLine
 10
839.666407443231
 20
1755.134259950953
 30
0.0
 11
839.666407443231
 21
1754.649999999855
 31
0.0
  0
LINE
  5
149
330
87
100
AcDbEntity
  8
P-SANR-FIXT
100
AcDbLine
 10
839.666407443231
 20
1805.350000000065
 30
0.0
 11
839.666407443231
 21
1804.865740048967
 31
0.0
  0
LINE
  5
14A
330
87
100
AcDbEntity
  8
P-SANR-FIXT
100
AcDbLine
 10
839.666407443231
 20
1804.865740048967
 30
0.0
 11
839.6664074432312
 21
1796.703479332911
 31
0.0
  0
LINE
  5
14B
330
87
100
AcDbEntity
  8
P-SANR-FIXT
100
AcDbLine
 10
839.6664074432312
 20
1796.703479332911
 30
0.0
 11
821.0664074432452
 21
1796.703479332911
 31
0.0
  0
LINE
  5
14C
330
87
100
AcDbEntity
  8
P-SANR-FIXT
100
AcDbLine
 10
821.0664074432452
 20
1788.162260716015
 30
0.0
 11
839.6664074432312
 21
1788.162260716015
 31
0.0
  0
LINE
  5
14D
330
87
100
AcDbEntity
  8
P-SANR-FIXT
100
AcDbLine
 10
821.0664074432452
 20
1771.837739283904
 30
0.0
 11
839.6664074432312
 21
1771.837739283904
 31
0.0
  0
LINE
  5
14E
330
87
100
AcDbEntity
  8
P-SANR-FIXT
100
AcDbLine
 10
821.0664074432452
 20
1763.296520667008
 30
0.0
 11
839.6664074432312
 21
1763.296520667008
 31
0.0
  0
LINE
  5
14F
330
87
100
AcDbEntity
  8
P-SANR-FIXT
100
AcDbLine
 10
821.066407443245
 20
1755.134259950953
 30
0.0
 11
839.666407443231
 21
1755.134259950953
 31
0.0
  0
LINE
  5
150
330
87
100
AcDbEntity
  8
P-SANR-FIXT
100
AcDbLine
 10
821.066407443245
 20
1804.865740048967
 30
0.0
 11
839.666407443231
 21
1804.865740048967
 31
0.0
  0
LINE
  5
151
330
87
100
AcDbEntity
  8
P-SANR-FIXT
100
AcDbLine
 10
839.6664074432312
 20
2036.703479332911
 30
0.0
 11
839.6664074432312
 21
2028.162260716015
 31
0.0
  0
LINE
  5
152
330
87
100
AcDbEntity
  8
P-SANR-FIXT
100
AcDbLine
 10
839.6664074432312
 20
2028.162260716015
 30
0.0
 11
839.6664074432312
 21
2011.837739283903
 31
0.0
  0
LINE
  5
153
330
87
100
AcDbEntity
  8
P-SANR-FIXT
100
AcDbLine
 10
839.6664074432312
 20
2011.837739283904
 30
0.0
 11
839.6664074432312
 21
2003.296520667008
 31
0.0
  0
LINE
  5
154
330
87
100
AcDbEntity
  8
P-SANR-FIXT
100
AcDbLine
 10
839.6664074432312
 20
2003.296520667008
 30
0.0
 11
839.666407443231
 21
1995.134259950952
 31
0.0
  0
LINE
  5
155
330
87
100
AcDbEntity
  8
P-SANR-FIXT
100
AcDbLine
 10
839.666407443231
 20
1995.134259950952
 30
0.0
 11
839.666407443231
 21
1994.649999999854
 31
0.0
  0
LINE
  5
156
330
87
100
AcDbEntity
  8
P-SANR-FIXT
100
AcDbLine
 10
839.666407443231
 20
2045.350000000065
 30
0.0
 11
839.666407443231
 21
2044.865740048967
 31
0.0
  0
LINE
  5
157
330
87
100
AcDbEntity
  8
P-SANR-FIXT
100
AcDbLine
 10
839.666407443231
 20
2044.865740048967
 30
0.0
 11
839.6664074432312
 21
2036.703479332911
 31
0.0
  0
LINE
  5
158
330
87
100
AcDbEntity
  8
P-SANR-FIXT
100
AcDbLine
 10
839.6664074432312
 20
2036.703479332911
 30
0.0
 11
821.0664074432452
 21
2036.703479332911
 31
0.0
  0
LINE
  5
159
330
87
100
AcDbEntity
  8
P-SANR-FIXT
100
AcDbLine
 10
821.0664074432452
 20
2028.162260716015
 30
0.0
 11
839.6664074432312
 21
2028.162260716015
 31
0.0
  0
LINE
  5
15A
330
87
100
AcDbEntity
  8
P-SANR-FIXT
100
AcDbLine
 10
821.0664074432452
 20
2011.837739283904
 30
0.0
 11
839.6664074432312
 21
2011.837739283904
 31
0.0
  0
LINE
  5
15B
330
87
100
AcDbEntity
  8
P-SANR-FIXT
100
AcDbLine
 10
821.0664074432452
 20
2003.296520667008
 30
0.0
 11
839.6664074432312
 21
2003.296520667008
 31
0.0
  0
LINE
  5
15C
330
87
100
AcDbEntity
  8
P-SANR-FIXT
100
AcDbLine
 10
821.066407443245
 20
1995.134259950952
 30
0.0
 11
839.666407443231
 21
1995.134259950952
 31
0.0
  0
LINE
  5
15D
330
87
100
AcDbEntity
  8
P-SANR-FIXT
100
AcDbLine
 10
821.066407443245
 20
2044.865740048967
 30
0.0
 11
839.666407443231
 21
2044.865740048967
 31
0.0
  0
LINE
  5
15E
330
87
100
AcDbEntity
  8
P-SANR-FIXT
100
AcDbLine
 10
821.0664074432452
 20
2053.499999999979
 30
0.0
 11
821.0664074432454
 21
2049.01185102676
 31
0.0
  0
LINE
  5
15F
330
87
100
AcDbEntity
  8
P-SANR-FIXT
100
AcDbLine
 10
821.0664074432454
 20
2049.01185102676
 30
0.0
 11
821.0664074432454
 21
2019.999999999995
 31
0.0
  0
LINE
  5
160
330
87
100
AcDbEntity
  8
P-SANR-FIXT
100
AcDbLine
 10
821.0664074432454
 20
2019.999999999995
 30
0.0
 11
821.0664074432454
 21
1990.988148973229
 31
0.0
  0
LINE
  5
161
330
87
100
AcDbEntity
  8
P-SANR-FIXT
100
AcDbLine
 10
821.0664074432454
 20
1990.988148973229
 30
0.0
 11
821.0664074432452
 21
1986.50000000001
 31
0.0
  0
LINE
  5
162
330
87
100
AcDbEntity
  8
P-SANR-FIXT
100
AcDbLine
 10
797.0664074432451
 20
1986.500000000011
 30
0.0
 11
797.0664074432452
 21
1990.988148973229
 31
0.0
  0
LINE
  5
163
330
87
100
AcDbEntity
  8
P-SANR-FIXT
100
AcDbLine
 10
797.0664074432452
 20
1990.988148973229
 30
0.0
 11
797.0664074432452
 21
2019.999999999995
 31
0.0
  0
LINE
  5
164
330
87
100
AcDbEntity
  8
P-SANR-FIXT
100
AcDbLine
 10
797.0664074432452
 20
2019.999999999995
 30
0.0
 11
797.0664074432452
 21
2049.01185102676
 31
0.0
  0
LINE
  5
165
330
87
100
AcDbEntity
  8
P-SANR-FIXT
100
AcDbLine
 10
797.0664074432452
 20
2049.011851026759
 30
0.0
 11
797.0664074432451
 21
2053.499999999979
 31
0.0
  0
SPLINE
  5
166
330
87
100
AcDbEntity
  8
P-SANR-FIXT
100
AcDbSpline
210
0.0
220
0.0
230
1.0
 70
     8
 71
     3
 72
     9
 73
     5
 74
     0
 42
0.000000001
 43
0.0000000001
 40
0.0
 40
0.0
 40
0.0
 40
0.0
 40
0.5
 40
1.0
 40
1.0
 40
1.0
 40
1.0
 10
800.0585067587271
 20
2039.34123401777
 30
0.0
 10
799.0978776049655
 20
2036.17313947394
 30
0.0
 10
797.638565231957
 20
2029.781505927148
 30
0.0
 10
797.1031447279776
 20
2023.27898346209
 30
0.0
 10
797.0664074432452
 20
2019.999999999995
 30
0.0
  0
SPLINE
  5
167
330
87
100
AcDbEntity
  8
P-SANR-FIXT
100
AcDbSpline
210
0.0
220
0.0
230
1.0
 70
     8
 71
     3
 72
     9
 73
     5
 74
     0
 42
0.000000001
 43
0.0000000001
 40
0.0
 40
0.0
 40
0.0
 40
0.0
 40
0.5
 40
1.0
 40
1.0
 40
1.0
 40
1.0
 10
797.0664074432452
 20
2019.999999999995
 30
0.0
 10
797.1031447279782
 20
2016.721016537886
 30
0.0
 10
797.6385652319614
 20
2010.218494072804
 30
0.0
 10
799.0978776049797
 20
2003.82686052599
 30
0.0
 10
800.0585067587476
 20
2000.658765982149
 30
0.0
  0
SPLINE
  5
168
330
87
100
AcDbEntity
  8
P-SANR-FIXT
100
AcDbSpline
210
0.0
220
0.0
230
1.0
 70
     8
 71
     3
 72
     9
 73
     5
 74
     0
 42
0.000000001
 43
0.0000000001
 40
0.0
 40
0.0
 40
0.0
 40
0.0
 40
0.5
 40
1.0
 40
1.0
 40
1.0
 40
1.0
 10
818.0743081277428
 20
2000.658765982149
 30
0.0
 10
819.0349372815107
 20
2003.82686052599
 30
0.0
 10
820.4942496545291
 20
2010.218494072804
 30
0.0
 10
821.0296701585123
 20
2016.721016537886
 30
0.0
 10
821.0664074432454
 20
2019.999999999995
 30
0.0
  0
SPLINE
  5
169
330
87
100
AcDbEntity
  8
P-SANR-FIXT
100
AcDbSpline
210
0.0
220
0.0
230
1.0
 70
     8
 71
     3
 72
     9
 73
     5
 74
     0
 42
0.000000001
 43
0.0000000001
 40
0.0
 40
0.0
 40
0.0
 40
0.0
 40
0.5
 40
1.0
 40
1.0
 40
1.0
 40
1.0
 10
821.0664074432454
 20
2019.999999999995
 30
0.0
 10
821.0296701585129
 20
2023.27898346209
 30
0.0
 10
820.4942496545335
 20
2029.781505927148
 30
0.0
 10
819.0349372815248
 20
2036.17313947394
 30
0.0
 10
818.0743081277633
 20
2039.34123401777
 30
0.0
  0
LINE
  5
16A
330
87
100
AcDbEntity
  8
P-SANR-FIXT
100
AcDbLine
 10
818.0743081277633
 20
2039.34123401777
 30
0.0
 11
800.0585067587271
 21
2039.34123401777
 31
0.0
  0
SPLINE
  5
16B
330
87
100
AcDbEntity
  8
P-SANR-FIXT
100
AcDbSpline
210
0.0
220
0.0
230
1.0
 70
     8
 71
     3
 72
     9
 73
     5
 74
     0
 42
0.000000001
 43
0.0000000001
 40
0.0
 40
0.0
 40
0.0
 40
0.0
 40
0.5
 40
1.0
 40
1.0
 40
1.0
 40
1.0
 10
800.0585067587476
 20
2000.658765982149
 30
0.0
 10
799.0978776049741
 20
1999.074718710226
 30
0.0
 10
797.6385652319505
 20
1995.878901936814
 30
0.0
 10
797.1031447279727
 20
1992.627640704266
 30
0.0
 10
797.0664074432452
 20
1990.988148973208
 30
0.0
  0
SPLINE
  5
16C
330
87
100
AcDbEntity
  8
P-SANR-FIXT
100
AcDbSpline
210
0.0
220
0.0
230
1.0
 70
     8
 71
     3
 72
     9
 73
     5
 74
     0
 42
0.000000001
 43
0.0000000001
 40
0.0
 40
0.0
 40
0.0
 40
0.0
 40
0.5
 40
1.0
 40
1.0
 40
1.0
 40
1.0
 10
797.0664074432452
 20
1990.988148973208
 30
0.0
 10
797.1031447279715
 20
1989.348657242164
 30
0.0
 10
797.6385652319414
 20
1986.09739600964
 30
0.0
 10
799.0978776049459
 20
1982.901579236251
 30
0.0
 10
800.0585067587067
 20
1981.317531964339
 30
0.0
  0
SPLINE
  5
16D
330
87
100
AcDbEntity
  8
P-SANR-FIXT
100
AcDbSpline
210
0.0
220
0.0
230
1.0
 70
     8
 71
     3
 72
     9
 73
     5
 74
     0
 42
0.000000001
 43
0.0000000001
 40
0.0
 40
0.0
 40
0.0
 40
0.0
 40
0.5
 40
1.0
 40
1.0
 40
1.0
 40
1.0
 10
818.0743081277833
 20
1981.317531964339
 30
0.0
 10
819.0349372815441
 20
1982.901579236251
 30
0.0
 10
820.4942496545488
 20
1986.09739600964
 30
0.0
 10
821.0296701585187
 20
1989.348657242164
 30
0.0
 10
821.0664074432454
 20
1990.988148973208
 30
0.0
  0
SPLINE
  5
16E
330
87
100
AcDbEntity
  8
P-SANR-FIXT
100
AcDbSpline
210
0.0
220
0.0
230
1.0
 70
     8
 71
     3
 72
     9
 73
     5
 74
     0
 42
0.000000001
 43
0.0000000001
 40
0.0
 40
0.0
 40
0.0
 40
0.0
 40
0.5
 40
1.0
 40
1.0
 40
1.0
 40
1.0
 10
821.0664074432454
 20
1990.988148973208
 30
0.0
 10
821.0296701585178
 20
1992.627640704266
 30
0.0
 10
820.4942496545399
 20
1995.878901936814
 30
0.0
 10
819.0349372815163
 20
1999.074718710226
 30
0.0
 10
818.0743081277428
 20
2000.658765982149
 30
0.0
  0
LINE
  5
16F
330
87
100
AcDbEntity
  8
P-SANR-FIXT
100
AcDbLine
 10
800.0585067587476
 20
2000.658765982149
 30
0.0
 11
818.0743081277428
 21
2000.658765982149
 31
0.0
  0
LINE
  5
170
330
87
100
AcDbEntity
  8
P-SANR-FIXT
100
AcDbLine
 10
800.0585067587067
 20
1981.317531964339
 30
0.0
 11
818.0743081277833
 21
1981.317531964339
 31
0.0
  0
SPLINE
  5
171
330
87
100
AcDbEntity
  8
P-SANR-FIXT
100
AcDbSpline
210
0.0
220
0.0
230
1.0
 70
     8
 71
     3
 72
     9
 73
     5
 74
     0
 42
0.000000001
 43
0.0000000001
 40
0.0
 40
0.0
 40
0.0
 40
0.0
 40
0.5
 40
1.0
 40
1.0
 40
1.0
 40
1.0
 10
800.058506758666
 20
2058.682468035581
 30
0.0
 10
799.0978776049014
 20
2057.098420763672
 30
0.0
 10
797.6385652318997
 20
2053.902603990288
 30
0.0
 10
797.1031447279541
 20
2050.651342757771
 30
0.0
 10
797.0664074432452
 20
2049.011851026728
 30
0.0
  0
SPLINE
  5
172
330
87
100
AcDbEntity
  8
P-SANR-FIXT
100
AcDbSpline
210
0.0
220
0.0
230
1.0
 70
     8
 71
     3
 72
     9
 73
     5
 74
     0
 42
0.000000001
 43
0.0000000001
 40
0.0
 40
0.0
 40
0.0
 40
0.0
 40
0.5
 40
1.0
 40
1.0
 40
1.0
 40
1.0
 10
797.0664074432452
 20
2049.011851026728
 30
0.0
 10
797.1031447279557
 20
2047.372359295666
 30
0.0
 10
797.6385652319132
 20
2044.121098063111
 30
0.0
 10
799.0978776049437
 20
2040.925281289694
 30
0.0
 10
800.0585067587271
 20
2039.34123401777
 30
0.0
  0
SPLINE
  5
173
330
87
100
AcDbEntity
  8
P-SANR-FIXT
100
AcDbSpline
210
0.0
220
0.0
230
1.0
 70
     8
 71
     3
 72
     9
 73
     5
 74
     0
 42
0.000000001
 43
0.0000000001
 40
0.0
 40
0.0
 40
0.0
 40
0.0
 40
0.5
 40
1.0
 40
1.0
 40
1.0
 40
1.0
 10
818.0743081277633
 20
2039.34123401777
 30
0.0
 10
819.0349372815466
 20
2040.925281289694
 30
0.0
 10
820.4942496545772
 20
2044.121098063111
 30
0.0
 10
821.0296701585347
 20
2047.372359295666
 30
0.0
 10
821.0664074432454
 20
2049.011851026728
 30
0.0
  0
SPLINE
  5
174
330
87
100
AcDbEntity
  8
P-SANR-FIXT
100
AcDbSpline
210
0.0
220
0.0
230
1.0
 70
     8
 71
     3
 72
     9
 73
     5
 74
     0
 42
0.000000001
 43
0.0000000001
 40
0.0
 40
0.0
 40
0.0
 40
0.0
 40
0.5
 40
1.0
 40
1.0
 40
1.0
 40
1.0
 10
821.0664074432454
 20
2049.011851026728
 30
0.0
 10
821.0296701585363
 20
2050.651342757771
 30
0.0
 10
820.4942496545905
 20
2053.902603990288
 30
0.0
 10
819.0349372815887
 20
2057.098420763672
 30
0.0
 10
818.074308127824
 20
2058.682468035581
 30
0.0
  0
LINE
  5
175
330
87
100
AcDbEntity
  8
P-SANR-FIXT
100
AcDbLine
 10
800.058506758666
 20
2058.682468035581
 30
0.0
 11
818.074308127824
 21
2058.682468035581
 31
0.0
  0
LINE
  5
176
330
87
100
AcDbEntity
  8
P-SANR-FIXT
100
AcDbLine
 10
610.2664074431573
 20
1986.500000000011
 30
0.0
 11
610.2664074431575
 21
1990.988148973229
 31
0.0
  0
LINE
  5
177
330
87
100
AcDbEntity
  8
P-SANR-FIXT
100
AcDbLine
 10
610.2664074431575
 20
1990.988148973229
 30
0.0
 11
610.2664074431575
 21
2019.999999999995
 31
0.0
  0
LINE
  5
178
330
87
100
AcDbEntity
  8
P-SANR-FIXT
100
AcDbLine
 10
610.2664074431575
 20
2019.999999999995
 30
0.0
 11
610.2664074431576
 21
2049.011851026759
 31
0.0
  0
LINE
  5
179
330
87
100
AcDbEntity
  8
P-SANR-FIXT
100
AcDbLine
 10
610.2664074431576
 20
2049.011851026759
 30
0.0
 11
610.2664074431575
 21
2053.499999999979
 31
0.0
  0
LINE
  5
17A
330
87
100
AcDbEntity
  8
P-SANR-FIXT
100
AcDbLine
 10
634.2664074431576
 20
2053.499999999979
 30
0.0
 11
634.2664074431577
 21
2049.01185102676
 31
0.0
  0
LINE
  5
17B
330
87
100
AcDbEntity
  8
P-SANR-FIXT
100
AcDbLine
 10
634.2664074431577
 20
2049.01185102676
 30
0.0
 11
634.2664074431577
 21
2019.999999999995
 31
0.0
  0
LINE
  5
17C
330
87
100
AcDbEntity
  8
P-SANR-FIXT
100
AcDbLine
 10
634.2664074431577
 20
2019.999999999995
 30
0.0
 11
634.2664074431577
 21
1990.98814897323
 31
0.0
  0
LINE
  5
17D
330
87
100
AcDbEntity
  8
P-SANR-FIXT
100
AcDbLine
 10
634.2664074431577
 20
1990.98814897323
 30
0.0
 11
634.2664074431576
 21
1986.500000000011
 31
0.0
  0
SPLINE
  5
17E
330
87
100
AcDbEntity
  8
P-SANR-FIXT
100
AcDbSpline
210
0.0
220
0.0
230
1.0
 70
     8
 71
     3
 72
     9
 73
     5
 74
     0
 42
0.000000001
 43
0.0000000001
 40
0.0
 40
0.0
 40
0.0
 40
0.0
 40
0.5
 40
1.0
 40
1.0
 40
1.0
 40
1.0
 10
631.2743081276554
 20
2000.658765982149
 30
0.0
 10
632.2349372814232
 20
2003.82686052599
 30
0.0
 10
633.6942496544414
 20
2010.218494072804
 30
0.0
 10
634.2296701584246
 20
2016.721016537886
 30
0.0
 10
634.2664074431577
 20
2019.999999999995
 30
0.0
  0
SPLINE
  5
17F
330
87
100
AcDbEntity
  8
P-SANR-FIXT
100
AcDbSpline
210
0.0
220
0.0
230
1.0
 70
     8
 71
     3
 72
     9
 73
     5
 74
     0
 42
0.000000001
 43
0.0000000001
 40
0.0
 40
0.0
 40
0.0
 40
0.0
 40
0.5
 40
1.0
 40
1.0
 40
1.0
 40
1.0
 10
634.2664074431577
 20
2019.999999999995
 30
0.0
 10
634.2296701584253
 20
2023.27898346209
 30
0.0
 10
633.694249654446
 20
2029.781505927148
 30
0.0
 10
632.2349372814374
 20
2036.17313947394
 30
0.0
 10
631.2743081276757
 20
2039.34123401777
 30
0.0
  0
SPLINE
  5
180
330
87
100
AcDbEntity
  8
P-SANR-FIXT
100
AcDbSpline
210
0.0
220
0.0
230
1.0
 70
     8
 71
     3
 72
     9
 73
     5
 74
     0
 42
0.000000001
 43
0.0000000001
 40
0.0
 40
0.0
 40
0.0
 40
0.0
 40
0.5
 40
1.0
 40
1.0
 40
1.0
 40
1.0
 10
613.2585067586395
 20
2039.34123401777
 30
0.0
 10
612.2978776048779
 20
2036.17313947394
 30
0.0
 10
610.8385652318693
 20
2029.781505927148
 30
0.0
 10
610.3031447278899
 20
2023.27898346209
 30
0.0
 10
610.2664074431576
 20
2019.999999999995
 30
0.0
  0
SPLINE
  5
181
330
87
100
AcDbEntity
  8
P-SANR-FIXT
100
AcDbSpline
210
0.0
220
0.0
230
1.0
 70
     8
 71
     3
 72
     9
 73
     5
 74
     0
 42
0.000000001
 43
0.0000000001
 40
0.0
 40
0.0
 40
0.0
 40
0.0
 40
0.5
 40
1.0
 40
1.0
 40
1.0
 40
1.0
 10
610.2664074431576
 20
2019.999999999995
 30
0.0
 10
610.3031447278905
 20
2016.721016537887
 30
0.0
 10
610.8385652318736
 20
2010.218494072804
 30
0.0
 10
612.2978776048918
 20
2003.82686052599
 30
0.0
 10
613.2585067586596
 20
2000.658765982149
 30
0.0
  0
LINE
  5
182
330
87
100
AcDbEntity
  8
P-SANR-FIXT
100
AcDbLine
 10
613.2585067586596
 20
2000.658765982149
 30
0.0
 11
631.2743081276554
 21
2000.658765982149
 31
0.0
  0
SPLINE
  5
183
330
87
100
AcDbEntity
  8
P-SANR-FIXT
100
AcDbSpline
210
0.0
220
0.0
230
1.0
 70
     8
 71
     3
 72
     9
 73
     5
 74
     0
 42
0.000000001
 43
0.0000000001
 40
0.0
 40
0.0
 40
0.0
 40
0.0
 40
0.5
 40
1.0
 40
1.0
 40
1.0
 40
1.0
 10
631.2743081276959
 20
1981.317531964339
 30
0.0
 10
632.2349372814567
 20
1982.901579236251
 30
0.0
 10
633.6942496544613
 20
1986.09739600964
 30
0.0
 10
634.2296701584314
 20
1989.348657242164
 30
0.0
 10
634.2664074431577
 20
1990.988148973208
 30
0.0
  0
SPLINE
  5
184
330
87
100
AcDbEntity
  8
P-SANR-FIXT
100
AcDbSpline
210
0.0
220
0.0
230
1.0
 70
     8
 71
     3
 72
     9
 73
     5
 74
     0
 42
0.000000001
 43
0.0000000001
 40
0.0
 40
0.0
 40
0.0
 40
0.0
 40
0.5
 40
1.0
 40
1.0
 40
1.0
 40
1.0
 10
634.2664074431577
 20
1990.988148973208
 30
0.0
 10
634.2296701584302
 20
1992.627640704266
 30
0.0
 10
633.6942496544524
 20
1995.878901936814
 30
0.0
 10
632.2349372814287
 20
1999.074718710226
 30
0.0
 10
631.2743081276554
 20
2000.658765982149
 30
0.0
  0
SPLINE
  5
185
330
87
100
AcDbEntity
  8
P-SANR-FIXT
100
AcDbSpline
210
0.0
220
0.0
230
1.0
 70
     8
 71
     3
 72
     9
 73
     5
 74
     0
 42
0.000000001
 43
0.0000000001
 40
0.0
 40
0.0
 40
0.0
 40
0.0
 40
0.5
 40
1.0
 40
1.0
 40
1.0
 40
1.0
 10
613.2585067586596
 20
2000.658765982149
 30
0.0
 10
612.2978776048864
 20
1999.074718710226
 30
0.0
 10
610.8385652318627
 20
1995.878901936814
 30
0.0
 10
610.303144727885
 20
1992.627640704266
 30
0.0
 10
610.2664074431576
 20
1990.988148973209
 30
0.0
  0
SPLINE
  5
186
330
87
100
AcDbEntity
  8
P-SANR-FIXT
100
AcDbSpline
210
0.0
220
0.0
230
1.0
 70
     8
 71
     3
 72
     9
 73
     5
 74
     0
 42
0.000000001
 43
0.0000000001
 40
0.0
 40
0.0
 40
0.0
 40
0.0
 40
0.5
 40
1.0
 40
1.0
 40
1.0
 40
1.0
 10
610.2664074431576
 20
1990.988148973209
 30
0.0
 10
610.3031447278839
 20
1989.348657242164
 30
0.0
 10
610.8385652318535
 20
1986.097396009641
 30
0.0
 10
612.2978776048581
 20
1982.901579236251
 30
0.0
 10
613.2585067586189
 20
1981.317531964339
 30
0.0
  0
LINE
  5
187
330
87
100
AcDbEntity
  8
P-SANR-FIXT
100
AcDbLine
 10
613.2585067586189
 20
1981.317531964339
 30
0.0
 11
631.2743081276959
 21
1981.317531964339
 31
0.0
  0
LINE
  5
188
330
87
100
AcDbEntity
  8
P-SANR-FIXT
100
AcDbLine
 10
613.2585067585785
 20
2058.682468035581
 30
0.0
 11
631.2743081277365
 21
2058.682468035581
 31
0.0
  0
SPLINE
  5
189
330
87
100
AcDbEntity
  8
P-SANR-FIXT
100
AcDbSpline
210
0.0
220
0.0
230
1.0
 70
     8
 71
     3
 72
     9
 73
     5
 74
     0
 42
0.000000001
 43
0.0000000001
 40
0.0
 40
0.0
 40
0.0
 40
0.0
 40
0.5
 40
1.0
 40
1.0
 40
1.0
 40
1.0
 10
631.2743081276757
 20
2039.34123401777
 30
0.0
 10
632.2349372814592
 20
2040.925281289694
 30
0.0
 10
633.6942496544897
 20
2044.121098063111
 30
0.0
 10
634.2296701584471
 20
2047.372359295666
 30
0.0
 10
634.2664074431577
 20
2049.011851026728
 30
0.0
  0
SPLINE
  5
18A
330
87
100
AcDbEntity
  8
P-SANR-FIXT
100
AcDbSpline
210
0.0
220
0.0
230
1.0
 70
     8
 71
     3
 72
     9
 73
     5
 74
     0
 42
0.000000001
 43
0.0000000001
 40
0.0
 40
0.0
 40
0.0
 40
0.0
 40
0.5
 40
1.0
 40
1.0
 40
1.0
 40
1.0
 10
634.2664074431577
 20
2049.011851026728
 30
0.0
 10
634.2296701584488
 20
2050.651342757771
 30
0.0
 10
633.6942496545028
 20
2053.902603990288
 30
0.0
 10
632.2349372815012
 20
2057.098420763672
 30
0.0
 10
631.2743081277365
 20
2058.682468035581
 30
0.0
  0
SPLINE
  5
18B
330
87
100
AcDbEntity
  8
P-SANR-FIXT
100
AcDbSpline
210
0.0
220
0.0
230
1.0
 70
     8
 71
     3
 72
     9
 73
     5
 74
     0
 42
0.000000001
 43
0.0000000001
 40
0.0
 40
0.0
 40
0.0
 40
0.0
 40
0.5
 40
1.0
 40
1.0
 40
1.0
 40
1.0
 10
613.2585067585785
 20
2058.682468035581
 30
0.0
 10
612.2978776048137
 20
2057.098420763672
 30
0.0
 10
610.8385652318122
 20
2053.902603990289
 30
0.0
 10
610.3031447278667
 20
2050.651342757771
 30
0.0
 10
610.2664074431576
 20
2049.011851026728
 30
0.0
  0
SPLINE
  5
18C
330
87
100
AcDbEntity
  8
P-SANR-FIXT
100
AcDbSpline
210
0.0
220
0.0
230
1.0
 70
     8
 71
     3
 72
     9
 73
     5
 74
     0
 42
0.000000001
 43
0.0000000001
 40
0.0
 40
0.0
 40
0.0
 40
0.0
 40
0.5
 40
1.0
 40
1.0
 40
1.0
 40
1.0
 10
610.2664074431576
 20
2049.011851026728
 30
0.0
 10
610.3031447278682
 20
2047.372359295666
 30
0.0
 10
610.8385652318258
 20
2044.121098063111
 30
0.0
 10
612.2978776048561
 20
2040.925281289694
 30
0.0
 10
613.2585067586395
 20
2039.34123401777
 30
0.0
  0
LINE
  5
18D
330
87
100
AcDbEntity
  8
P-SANR-FIXT
100
AcDbLine
 10
631.2743081276757
 20
2039.34123401777
 30
0.0
 11
613.2585067586395
 21
2039.34123401777
 31
0.0
  0
LINE
  5
18E
330
87
100
AcDbEntity
  8
P-SANR-FIXT
100
AcDbLine
 10
591.6664074431718
 20
2036.703479332911
 30
0.0
 11
591.6664074431716
 21
2044.865740048967
 31
0.0
  0
LINE
  5
18F
330
87
100
AcDbEntity
  8
P-SANR-FIXT
100
AcDbLine
 10
591.6664074431716
 20
2044.865740048967
 30
0.0
 11
591.6664074431716
 21
2045.350000000065
 31
0.0
  0
LINE
  5
190
330
87
100
AcDbEntity
  8
P-SANR-FIXT
100
AcDbLine
 10
591.6664074431716
 20
1994.649999999854
 30
0.0
 11
591.6664074431716
 21
1995.134259950952
 31
0.0
  0
LINE
  5
191
330
87
100
AcDbEntity
  8
P-SANR-FIXT
100
AcDbLine
 10
591.6664074431716
 20
1995.134259950952
 30
0.0
 11
591.6664074431718
 21
2003.296520667008
 31
0.0
  0
LINE
  5
192
330
87
100
AcDbEntity
  8
P-SANR-FIXT
100
AcDbLine
 10
591.6664074431718
 20
2003.296520667008
 30
0.0
 11
591.6664074431718
 21
2011.837739283903
 31
0.0
  0
LINE
  5
193
330
87
100
AcDbEntity
  8
P-SANR-FIXT
100
AcDbLine
 10
591.6664074431718
 20
2011.837739283903
 30
0.0
 11
591.6664074431718
 21
2028.162260716015
 31
0.0
  0
LINE
  5
194
330
87
100
AcDbEntity
  8
P-SANR-FIXT
100
AcDbLine
 10
591.6664074431718
 20
2028.162260716015
 30
0.0
 11
591.6664074431718
 21
2036.703479332911
 31
0.0
  0
LINE
  5
195
330
87
100
AcDbEntity
  8
P-SANR-FIXT
100
AcDbLine
 10
591.6664074431718
 20
2028.162260716015
 30
0.0
 11
610.2664074431577
 21
2028.162260716015
 31
0.0
  0
LINE
  5
196
330
87
100
AcDbEntity
  8
P-SANR-FIXT
100
AcDbLine
 10
591.6664074431718
 20
2011.837739283903
 30
0.0
 11
610.2664074431577
 21
2011.837739283903
 31
0.0
  0
LINE
  5
197
330
87
100
AcDbEntity
  8
P-SANR-FIXT
100
AcDbLine
 10
591.6664074431718
 20
2003.296520667008
 30
0.0
 11
610.2664074431577
 21
2003.296520667008
 31
0.0
  0
LINE
  5
198
330
87
100
AcDbEntity
  8
P-SANR-FIXT
100
AcDbLine
 10
591.6664074431716
 20
1995.134259950952
 30
0.0
 11
610.2664074431576
 21
1995.134259950952
 31
0.0
  0
LINE
  5
199
330
87
100
AcDbEntity
  8
P-SANR-FIXT
100
AcDbLine
 10
591.6664074431716
 20
2044.865740048967
 30
0.0
 11
610.2664074431576
 21
2044.865740048967
 31
0.0
  0
LINE
  5
19A
330
87
100
AcDbEntity
  8
P-SANR-FIXT
100
AcDbLine
 10
610.2664074431577
 20
2036.703479332911
 30
0.0
 11
591.6664074431718
 21
2036.703479332911
 31
0.0
  0
LINE
  5
19B
330
87
100
AcDbEntity
  8
P-SANR-FIXT
100
AcDbLine
 10
610.2664074431572
 20
1746.500000000013
 30
0.0
 11
610.2664074431575
 21
1750.988148973232
 31
0.0
  0
LINE
  5
19C
330
87
100
AcDbEntity
  8
P-SANR-FIXT
100
AcDbLine
 10
610.2664074431575
 20
1750.988148973231
 30
0.0
 11
610.2664074431575
 21
1779.999999999995
 31
0.0
  0
LINE
  5
19D
330
87
100
AcDbEntity
  8
P-SANR-FIXT
100
AcDbLine
 10
610.2664074431575
 20
1779.999999999995
 30
0.0
 11
610.2664074431576
 21
1809.01185102676
 31
0.0
  0
LINE
  5
19E
330
87
100
AcDbEntity
  8
P-SANR-FIXT
100
AcDbLine
 10
610.2664074431576
 20
1809.01185102676
 30
0.0
 11
610.2664074431575
 21
1813.49999999998
 31
0.0
  0
LINE
  5
19F
330
87
100
AcDbEntity
  8
P-SANR-FIXT
100
AcDbLine
 10
634.2664074431576
 20
1813.49999999998
 30
0.0
 11
634.2664074431577
 21
1809.011851026761
 31
0.0
  0
LINE
  5
1A0
330
87
100
AcDbEntity
  8
P-SANR-FIXT
100
AcDbLine
 10
634.2664074431577
 20
1809.011851026761
 30
0.0
 11
634.2664074431577
 21
1779.999999999996
 31
0.0
  0
LINE
  5
1A1
330
87
100
AcDbEntity
  8
P-SANR-FIXT
100
AcDbLine
 10
634.2664074431577
 20
1779.999999999996
 30
0.0
 11
634.2664074431577
 21
1750.988148973231
 31
0.0
  0
LINE
  5
1A2
330
87
100
AcDbEntity
  8
P-SANR-FIXT
100
AcDbLine
 10
634.2664074431577
 20
1750.988148973231
 30
0.0
 11
634.2664074431576
 21
1746.500000000012
 31
0.0
  0
SPLINE
  5
1A3
330
87
100
AcDbEntity
  8
P-SANR-FIXT
100
AcDbSpline
210
0.0
220
0.0
230
1.0
 70
     8
 71
     3
 72
     9
 73
     5
 74
     0
 42
0.000000001
 43
0.0000000001
 40
0.0
 40
0.0
 40
0.0
 40
0.0
 40
0.5
 40
1.0
 40
1.0
 40
1.0
 40
1.0
 10
631.2743081276554
 20
1760.658765982151
 30
0.0
 10
632.2349372814232
 20
1763.82686052599
 30
0.0
 10
633.6942496544414
 20
1770.218494072805
 30
0.0
 10
634.2296701584246
 20
1776.721016537888
 30
0.0
 10
634.2664074431577
 20
1779.999999999995
 30
0.0
  0
SPLINE
  5
1A4
330
87
100
AcDbEntity
  8
P-SANR-FIXT
100
AcDbSpline
210
0.0
220
0.0
230
1.0
 70
     8
 71
     3
 72
     9
 73
     5
 74
     0
 42
0.000000001
 43
0.0000000001
 40
0.0
 40
0.0
 40
0.0
 40
0.0
 40
0.5
 40
1.0
 40
1.0
 40
1.0
 40
1.0
 10
634.2664074431577
 20
1779.999999999995
 30
0.0
 10
634.2296701584253
 20
1783.278983462091
 30
0.0
 10
633.6942496544459
 20
1789.78150592715
 30
0.0
 10
632.2349372814374
 20
1796.173139473942
 30
0.0
 10
631.2743081276757
 20
1799.341234017771
 30
0.0
  0
SPLINE
  5
1A5
330
87
100
AcDbEntity
  8
P-SANR-FIXT
100
AcDbSpline
210
0.0
220
0.0
230
1.0
 70
     8
 71
     3
 72
     9
 73
     5
 74
     0
 42
0.000000001
 43
0.0000000001
 40
0.0
 40
0.0
 40
0.0
 40
0.0
 40
0.5
 40
1.0
 40
1.0
 40
1.0
 40
1.0
 10
613.25850675864
 20
1799.341234017771
 30
0.0
 10
612.2978776048783
 20
1796.173139473942
 30
0.0
 10
610.8385652318697
 20
1789.781505927149
 30
0.0
 10
610.30314472789
 20
1783.278983462091
 30
0.0
 10
610.2664074431576
 20
1779.999999999995
 30
0.0
  0
SPLINE
  5
1A6
330
87
100
AcDbEntity
  8
P-SANR-FIXT
100
AcDbSpline
210
0.0
220
0.0
230
1.0
 70
     8
 71
     3
 72
     9
 73
     5
 74
     0
 42
0.000000001
 43
0.0000000001
 40
0.0
 40
0.0
 40
0.0
 40
0.0
 40
0.5
 40
1.0
 40
1.0
 40
1.0
 40
1.0
 10
610.2664074431576
 20
1779.999999999995
 30
0.0
 10
610.3031447278907
 20
1776.721016537887
 30
0.0
 10
610.8385652318739
 20
1770.218494072805
 30
0.0
 10
612.2978776048922
 20
1763.82686052599
 30
0.0
 10
613.2585067586601
 20
1760.658765982151
 30
0.0
  0
LINE
  5
1A7
330
87
100
AcDbEntity
  8
P-SANR-FIXT
100
AcDbLine
 10
613.2585067586601
 20
1760.658765982151
 30
0.0
 11
631.2743081276554
 21
1760.658765982151
 31
0.0
  0
SPLINE
  5
1A8
330
87
100
AcDbEntity
  8
P-SANR-FIXT
100
AcDbSpline
210
0.0
220
0.0
230
1.0
 70
     8
 71
     3
 72
     9
 73
     5
 74
     0
 42
0.000000001
 43
0.0000000001
 40
0.0
 40
0.0
 40
0.0
 40
0.0
 40
0.5
 40
1.0
 40
1.0
 40
1.0
 40
1.0
 10
631.2743081276959
 20
1741.317531964341
 30
0.0
 10
632.2349372814567
 20
1742.901579236252
 30
0.0
 10
633.6942496544613
 20
1746.097396009642
 30
0.0
 10
634.2296701584314
 20
1749.348657242165
 30
0.0
 10
634.2664074431577
 20
1750.98814897321
 30
0.0
  0
SPLINE
  5
1A9
330
87
100
AcDbEntity
  8
P-SANR-FIXT
100
AcDbSpline
210
0.0
220
0.0
230
1.0
 70
     8
 71
     3
 72
     9
 73
     5
 74
     0
 42
0.000000001
 43
0.0000000001
 40
0.0
 40
0.0
 40
0.0
 40
0.0
 40
0.5
 40
1.0
 40
1.0
 40
1.0
 40
1.0
 10
634.2664074431577
 20
1750.98814897321
 30
0.0
 10
634.2296701584301
 20
1752.627640704268
 30
0.0
 10
633.6942496544523
 20
1755.878901936815
 30
0.0
 10
632.2349372814287
 20
1759.074718710228
 30
0.0
 10
631.2743081276554
 20
1760.658765982151
 30
0.0
  0
SPLINE
  5
1AA
330
87
100
AcDbEntity
  8
P-SANR-FIXT
100
AcDbSpline
210
0.0
220
0.0
230
1.0
 70
     8
 71
     3
 72
     9
 73
     5
 74
     0
 42
0.000000001
 43
0.0000000001
 40
0.0
 40
0.0
 40
0.0
 40
0.0
 40
0.5
 40
1.0
 40
1.0
 40
1.0
 40
1.0
 10
613.2585067586601
 20
1760.658765982151
 30
0.0
 10
612.2978776048868
 20
1759.074718710228
 30
0.0
 10
610.8385652318632
 20
1755.878901936815
 30
0.0
 10
610.3031447278851
 20
1752.627640704268
 30
0.0
 10
610.2664074431576
 20
1750.98814897321
 30
0.0
  0
SPLINE
  5
1AB
330
87
100
AcDbEntity
  8
P-SANR-FIXT
100
AcDbSpline
210
0.0
220
0.0
230
1.0
 70
     8
 71
     3
 72
     9
 73
     5
 74
     0
 42
0.000000001
 43
0.0000000001
 40
0.0
 40
0.0
 40
0.0
 40
0.0
 40
0.5
 40
1.0
 40
1.0
 40
1.0
 40
1.0
 10
610.2664074431576
 20
1750.98814897321
 30
0.0
 10
610.3031447278842
 20
1749.348657242165
 30
0.0
 10
610.8385652318539
 20
1746.097396009642
 30
0.0
 10
612.2978776048584
 20
1742.901579236252
 30
0.0
 10
613.2585067586192
 20
1741.317531964341
 30
0.0
  0
LINE
  5
1AC
330
87
100
AcDbEntity
  8
P-SANR-FIXT
100
AcDbLine
 10
613.2585067586192
 20
1741.317531964341
 30
0.0
 11
631.2743081276959
 21
1741.317531964341
 31
0.0
  0
LINE
  5
1AD
330
87
100
AcDbEntity
  8
P-SANR-FIXT
100
AcDbLine
 10
613.258506758579
 20
1818.682468035581
 30
0.0
 11
631.2743081277365
 21
1818.682468035581
 31
0.0
  0
SPLINE
  5
1AE
330
87
100
AcDbEntity
  8
P-SANR-FIXT
100
AcDbSpline
210
0.0
220
0.0
230
1.0
 70
     8
 71
     3
 72
     9
 73
     5
 74
     0
 42
0.000000001
 43
0.0000000001
 40
0.0
 40
0.0
 40
0.0
 40
0.0
 40
0.5
 40
1.0
 40
1.0
 40
1.0
 40
1.0
 10
631.2743081276757
 20
1799.341234017771
 30
0.0
 10
632.2349372814592
 20
1800.925281289696
 30
0.0
 10
633.6942496544897
 20
1804.121098063113
 30
0.0
 10
634.2296701584472
 20
1807.372359295667
 30
0.0
 10
634.2664074431577
 20
1809.011851026729
 30
0.0
  0
SPLINE
  5
1AF
330
87
100
AcDbEntity
  8
P-SANR-FIXT
100
AcDbSpline
210
0.0
220
0.0
230
1.0
 70
     8
 71
     3
 72
     9
 73
     5
 74
     0
 42
0.000000001
 43
0.0000000001
 40
0.0
 40
0.0
 40
0.0
 40
0.0
 40
0.5
 40
1.0
 40
1.0
 40
1.0
 40
1.0
 10
634.2664074431577
 20
1809.011851026729
 30
0.0
 10
634.2296701584487
 20
1810.651342757772
 30
0.0
 10
633.6942496545027
 20
1813.90260399029
 30
0.0
 10
632.2349372815012
 20
1817.098420763673
 30
0.0
 10
631.2743081277365
 20
1818.682468035581
 30
0.0
  0
SPLINE
  5
1B0
330
87
100
AcDbEntity
  8
P-SANR-FIXT
100
AcDbSpline
210
0.0
220
0.0
230
1.0
 70
     8
 71
     3
 72
     9
 73
     5
 74
     0
 42
0.000000001
 43
0.0000000001
 40
0.0
 40
0.0
 40
0.0
 40
0.0
 40
0.5
 40
1.0
 40
1.0
 40
1.0
 40
1.0
 10
613.258506758579
 20
1818.682468035581
 30
0.0
 10
612.2978776048142
 20
1817.098420763673
 30
0.0
 10
610.8385652318126
 20
1813.90260399029
 30
0.0
 10
610.3031447278667
 20
1810.651342757772
 30
0.0
 10
610.2664074431576
 20
1809.011851026729
 30
0.0
  0
SPLINE
  5
1B1
330
87
100
AcDbEntity
  8
P-SANR-FIXT
100
AcDbSpline
210
0.0
220
0.0
230
1.0
 70
     8
 71
     3
 72
     9
 73
     5
 74
     0
 42
0.000000001
 43
0.0000000001
 40
0.0
 40
0.0
 40
0.0
 40
0.0
 40
0.5
 40
1.0
 40
1.0
 40
1.0
 40
1.0
 10
610.2664074431576
 20
1809.011851026729
 30
0.0
 10
610.3031447278683
 20
1807.372359295667
 30
0.0
 10
610.8385652318261
 20
1804.121098063113
 30
0.0
 10
612.2978776048565
 20
1800.925281289696
 30
0.0
 10
613.25850675864
 20
1799.341234017771
 30
0.0
  0
LINE
  5
1B2
330
87
100
AcDbEntity
  8
P-SANR-FIXT
100
AcDbLine
 10
631.2743081276757
 20
1799.341234017771
 30
0.0
 11
613.25850675864
 21
1799.341234017771
 31
0.0
  0
LINE
  5
1B3
330
87
100
AcDbEntity
  8
P-SANR-FIXT
100
AcDbLine
 10
591.6664074431718
 20
1796.703479332911
 30
0.0
 11
591.6664074431716
 21
1804.865740048967
 31
0.0
  0
LINE
  5
1B4
330
87
100
AcDbEntity
  8
P-SANR-FIXT
100
AcDbLine
 10
591.6664074431716
 20
1804.865740048967
 30
0.0
 11
591.6664074431716
 21
1805.350000000065
 31
0.0
  0
LINE
  5
1B5
330
87
100
AcDbEntity
  8
P-SANR-FIXT
100
AcDbLine
 10
591.6664074431716
 20
1754.649999999855
 30
0.0
 11
591.6664074431716
 21
1755.134259950953
 31
0.0
  0
LINE
  5
1B6
330
87
100
AcDbEntity
  8
P-SANR-FIXT
100
AcDbLine
 10
591.6664074431716
 20
1755.134259950953
 30
0.0
 11
591.6664074431718
 21
1763.296520667008
 31
0.0
  0
LINE
  5
1B7
330
87
100
AcDbEntity
  8
P-SANR-FIXT
100
AcDbLine
 10
591.6664074431718
 20
1763.296520667008
 30
0.0
 11
591.6664074431718
 21
1771.837739283904
 31
0.0
  0
LINE
  5
1B8
330
87
100
AcDbEntity
  8
P-SANR-FIXT
100
AcDbLine
 10
591.6664074431718
 20
1771.837739283904
 30
0.0
 11
591.6664074431718
 21
1788.162260716015
 31
0.0
  0
LINE
  5
1B9
330
87
100
AcDbEntity
  8
P-SANR-FIXT
100
AcDbLine
 10
591.6664074431718
 20
1788.162260716015
 30
0.0
 11
591.6664074431718
 21
1796.703479332911
 31
0.0
  0
LINE
  5
1BA
330
87
100
AcDbEntity
  8
P-SANR-FIXT
100
AcDbLine
 10
591.6664074431718
 20
1788.162260716015
 30
0.0
 11
610.2664074431577
 21
1788.162260716015
 31
0.0
  0
LINE
  5
1BB
330
87
100
AcDbEntity
  8
P-SANR-FIXT
100
AcDbLine
 10
591.6664074431718
 20
1771.837739283904
 30
0.0
 11
610.2664074431577
 21
1771.837739283904
 31
0.0
  0
LINE
  5
1BC
330
87
100
AcDbEntity
  8
P-SANR-FIXT
100
AcDbLine
 10
591.6664074431718
 20
1763.296520667008
 30
0.0
 11
610.2664074431577
 21
1763.296520667008
 31
0.0
  0
LINE
  5
1BD
330
87
100
AcDbEntity
  8
P-SANR-FIXT
100
AcDbLine
 10
591.6664074431716
 20
1755.134259950953
 30
0.0
 11
610.2664074431576
 21
1755.134259950953
 31
0.0
  0
LINE
  5
1BE
330
87
100
AcDbEntity
  8
P-SANR-FIXT
100
AcDbLine
 10
591.6664074431716
 20
1804.865740048967
 30
0.0
 11
610.2664074431576
 21
1804.865740048967
 31
0.0
  0
LINE
  5
1BF
330
87
100
AcDbEntity
  8
P-SANR-FIXT
100
AcDbLine
 10
610.2664074431577
 20
1796.703479332911
 30
0.0
 11
591.6664074431718
 21
1796.703479332911
 31
0.0
  0
ARC
  5
1C0
330
87
100
AcDbEntity
  8
P-SANR-FIXT
100
AcDbCircle
 10
715.6664074432009
 20
2019.999999999995
 30
0.0
 40
10.00000000000377
100
AcDbArc
 50
145.8419327633264
 51
154.158067236656
  0
LINE
  5
1C1
330
87
100
AcDbEntity
  8
P-SANR-FIXT
100
AcDbLine
 10
706.6664074432109
 20
2024.358898943565
 30
0.0
 11
706.6664074432106
 21
2015.641101056425
 31
0.0
  0
ARC
  5
1C2
330
87
100
AcDbEntity
  8
P-SANR-FIXT
100
AcDbCircle
 10
715.6664074432009
 20
2019.999999999995
 30
0.0
 40
10.00000000000394
100
AcDbArc
 50
205.8419327633409
 51
214.1580672366478
  0
LINE
  5
1C3
330
87
100
AcDbEntity
  8
P-SANR-FIXT
100
AcDbLine
 10
707.3914902255442
 20
2014.38522083773
 30
0.0
 11
714.9413246608676
 21
2010.026321894158
 31
0.0
  0
ARC
  5
1C4
330
87
100
AcDbEntity
  8
P-SANR-FIXT
100
AcDbCircle
 10
715.6664074432009
 20
2019.999999999995
 30
0.0
 40
10.00000000000404
100
AcDbArc
 50
265.8419327633472
 51
274.1580672366587
  0
LINE
  5
1C5
330
87
100
AcDbEntity
  8
P-SANR-FIXT
100
AcDbLine
 10
716.3914902255356
 20
2010.026321894159
 30
0.0
 11
723.9413246608563
 21
2014.385220837727
 31
0.0
  0
ARC
  5
1C6
330
87
100
AcDbEntity
  8
P-SANR-FIXT
100
AcDbCircle
 10
715.6664074432009
 20
2019.999999999995
 30
0.0
 40
10.00000000000413
100
AcDbArc
 50
325.8419327633371
 51
334.1580672366753
  0
LINE
  5
1C7
330
87
100
AcDbEntity
  8
P-SANR-FIXT
100
AcDbLine
 10
724.6664074431925
 20
2015.641101056428
 30
0.0
 11
724.6664074431928
 21
2024.358898943562
 31
0.0
  0
ARC
  5
1C8
330
87
100
AcDbEntity
  8
P-SANR-FIXT
100
AcDbCircle
 10
715.6664074432009
 20
2019.999999999995
 30
0.0
 40
10.00000000000399
100
AcDbArc
 50
25.8419327633211
 51
34.15806723668163
  0
LINE
  5
1C9
330
87
100
AcDbEntity
  8
P-SANR-FIXT
100
AcDbLine
 10
723.9413246608544
 20
2025.614779162265
 30
0.0
 11
716.3914902255401
 21
2029.973678105831
 31
0.0
  0
ARC
  5
1CA
330
87
100
AcDbEntity
  8
P-SANR-FIXT
100
AcDbCircle
 10
715.6664074432009
 20
2019.999999999995
 30
0.0
 40
10.00000000000389
100
AcDbArc
 50
85.84193276331481
 51
94.15806723667079
  0
LINE
  5
1CB
330
87
100
AcDbEntity
  8
P-SANR-FIXT
100
AcDbLine
 10
714.9413246608641
 20
2029.973678105831
 30
0.0
 11
707.3914902255467
 21
2025.614779162264
 31
0.0
  0
ARC
  5
1CC
330
87
100
AcDbEntity
  8
P-SANR-FIXT
100
AcDbCircle
 10
715.6664074432017
 20
2019.999999999995
 30
0.0
 40
12.50000000000386
100
AcDbArc
 50
90.00000000000053
 51
269.9999999999997
  0
ARC
  5
1CD
330
87
100
AcDbEntity
  8
P-SANR-FIXT
100
AcDbCircle
 10
715.6664074432017
 20
2019.999999999995
 30
0.0
 40
12.50000000000398
100
AcDbArc
 50
269.9999999999997
 51
90.0
  0
LINE
  5
1CE
330
87
100
AcDbEntity
  8
P-SANR-FIXT
100
AcDbLine
 10
638.666407443202
 20
1809.699999999997
 30
0.0
 11
634.2664074431586
 21
1809.699999999997
 31
0.0
  0
LINE
  5
1CF
330
87
100
AcDbEntity
  8
P-SANR-FIXT
100
AcDbLine
 10
634.266407443154
 20
1750.299999999997
 30
0.0
 11
638.666407443202
 21
1750.299999999997
 31
0.0
  0
LINE
  5
1D0
330
87
100
AcDbEntity
  8
P-SANR-FIXT
100
AcDbLine
 10
797.0664074432391
 20
1809.699999999997
 30
0.0
 11
792.6664074432022
 21
1809.699999999997
 31
0.0
  0
LINE
  5
1D1
330
87
100
AcDbEntity
  8
P-SANR-FIXT
100
AcDbLine
 10
792.6664074432022
 20
1750.299999999997
 30
0.0
 11
797.0664074432463
 21
1750.299999999997
 31
0.0
  0
LINE
  5
1D2
330
87
100
AcDbEntity
  8
P-SANR-FIXT
100
AcDbLine
 10
792.6664074432022
 20
1809.699999999997
 30
0.0
 11
784.1664074432014
 21
1801.199999999996
 31
0.0
  0
LINE
  5
1D3
330
87
100
AcDbEntity
  8
P-SANR-FIXT
100
AcDbLine
 10
784.1664074432014
 20
1758.799999999997
 30
0.0
 11
792.6664074432022
 21
1750.299999999997
 31
0.0
  0
LINE
  5
1D4
330
87
100
AcDbEntity
  8
P-SANR-FIXT
100
AcDbLine
 10
647.1664074432029
 20
1801.199999999996
 30
0.0
 11
638.666407443202
 21
1809.699999999997
 31
0.0
  0
LINE
  5
1D5
330
87
100
AcDbEntity
  8
P-SANR-FIXT
100
AcDbLine
 10
638.666407443202
 20
1750.299999999997
 30
0.0
 11
647.1664074432029
 21
1758.799999999997
 31
0.0
  0
LINE
  5
1D6
330
87
100
AcDbEntity
  8
P-SANR-FIXT
100
AcDbLine
 10
638.666407443201
 20
1750.299999999996
 30
0.0
 11
638.666407443201
 21
1809.699999999996
 31
0.0
  0
LINE
  5
1D7
330
87
100
AcDbEntity
  8
P-SANR-FIXT
100
AcDbLine
 10
792.6664074432009
 20
1809.699999999996
 30
0.0
 11
792.6664074432009
 21
1750.299999999996
 31
0.0
  0
LINE
  5
1D8
330
87
100
AcDbEntity
  8
P-SANR-FIXT
100
AcDbLine
 10
647.1664074432017
 20
1801.199999999995
 30
0.0
 11
647.1664074432017
 21
1758.799999999997
 31
0.0
  0
LINE
  5
1D9
330
87
100
AcDbEntity
  8
P-SANR-FIXT
100
AcDbLine
 10
784.1664074432001
 20
1801.199999999995
 30
0.0
 11
784.1664074432001
 21
1758.799999999997
 31
0.0
  0
LINE
  5
1DA
330
87
100
AcDbEntity
  8
P-SANR-FIXT
100
AcDbLine
 10
671.244905375531
 20
1801.199999999997
 30
0.0
 11
647.1664074432029
 21
1801.199999999997
 31
0.0
  0
LINE
  5
1DB
330
87
100
AcDbEntity
  8
P-SANR-FIXT
100
AcDbLine
 10
647.1664074432029
 20
1758.799999999996
 30
0.0
 11
671.2502825357931
 21
1758.799999999996
 31
0.0
  0
LINE
  5
1DC
330
87
100
AcDbEntity
  8
P-SANR-FIXT
100
AcDbLine
 10
784.1664074432012
 20
1801.199999999996
 30
0.0
 11
760.0879095251752
 21
1801.199999999996
 31
0.0
  0
LINE
  5
1DD
330
87
100
AcDbEntity
  8
P-SANR-FIXT
100
AcDbLine
 10
760.082532360461
 20
1758.799999999997
 30
0.0
 11
784.1664074432012
 21
1758.799999999997
 31
0.0
  0
LINE
  5
1DE
330
87
100
AcDbEntity
  8
P-SANR-FIXT
100
AcDbLine
 10
647.1664074432017
 20
1801.199999999996
 30
0.0
 11
647.1664074432017
 21
1758.799999999996
 31
0.0
  0
LINE
  5
1DF
330
87
100
AcDbEntity
  8
P-SANR-FIXT
100
AcDbLine
 10
784.1664074432001
 20
1801.199999999995
 30
0.0
 11
784.1664074432001
 21
1758.799999999997
 31
0.0
  0
LWPOLYLINE
  5
1E0
330
87
100
AcDbEntity
  8
P-SANR-FIXT
100
AcDbPolyline
 90
       41
 70
   128
 43
0.0
 10
671.2164074432019
 20
2074.999999999996
 10
671.2304055766347
 20
2075.699813348262
 10
671.2723775829058
 20
2076.398507144456
 10
671.3422563157591
 20
2077.094963627553
 10
671.4399299841282
 20
2077.788068615745
 10
671.56524233098
 20
2078.476713288909
 10
671.7179928832913
 20
2079.159795962471
 10
671.8979372727631
 20
2079.836223849868
 10
672.104787626759
 20
2080.504914810778
 10
672.3382130288378
 20
2081.16479908231
 10
672.5978400481514
 20
2081.814820990397
 10
672.8832533368524
 20
2082.453940638651
 10
673.1939962945643
 20
2083.081135571972
 10
673.529571798843
 20
2083.695402412262
 10
673.889443000467
 20
2084.295758463611
 10
674.2730341822825
 20
2084.881243284409
 10
674.6797316802267
 20
2085.450920223838
 10
675.1088848650606
 20
2086.003877920319
 10
675.5598071832362
 20
2086.539231759497
 10
676.0317772552361
 20
2087.05612528943
 10
676.5240400296264
 20
2087.553731590737
 10
677.035807990979
 20
2088.031254599486
 10
677.5662624197267
 20
2088.487930380728
 10
678.1145547019412
 20
2088.923028350632
 10
678.6798076869338
 20
2089.335852445263
 10
679.2611170905094
 20
2089.725742234134
 10
679.8575529416282
 20
2090.092073976754
 10
680.4681610701615
 20
2090.434261620483
 10
681.0919646333594
 20
2090.751757738085
 10
681.727965678592
 20
2091.044054403502
 10
682.3751467398601
 20
2091.310684004422
 10
683.0324724655232
 20
2091.551219990363
 10
683.6988912746424
 20
2091.765277555058
 10
684.3733370392852
 20
2091.952514252065
 10
685.054730790102
 20
2092.112630542614
 10
685.7419824424477
 20
2092.245370274794
 10
686.4339925402843
 20
2092.350521093351
 10
687.1296540150764
 20
2092.427914779404
 10
687.8278539568642
 20
2092.477427519569
 10
688.5274753946823
 20
2092.498980104021
 10
688.7164074432018
 20
2092.499999999996
  0
LWPOLYLINE
  5
1E1
330
87
100
AcDbEntity
  8
P-SANR-FIXT
100
AcDbPolyline
 90
       41
 70
   128
 43
0.0
 10
742.6164074432033
 20
2092.499999999996
 10
743.3162207914693
 20
2092.486001866563
 10
744.0149145876638
 20
2092.444029860292
 10
744.7113710707593
 20
2092.374151127438
 10
745.4044760589526
 20
2092.27647745907
 10
746.0931207321167
 20
2092.151165112218
 10
746.776203405678
 20
2091.998414559907
 10
747.4526312930753
 20
2091.818470170434
 10
748.1213222539852
 20
2091.611619816438
 10
748.7812065255174
 20
2091.37819441436
 10
749.4312284336047
 20
2091.118567395046
 10
750.0703480818582
 20
2090.833154106345
 10
750.6975430151791
 20
2090.522411148633
 10
751.3118098554687
 20
2090.186835644355
 10
751.9121659068186
 20
2089.82696444273
 10
752.4976507276163
 20
2089.443373260915
 10
753.0673276670451
 20
2089.036675762971
 10
753.6202853635265
 20
2088.607522578138
 10
754.1556392027041
 20
2088.156600259962
 10
754.6725327326377
 20
2087.684630187962
 10
755.1701390339449
 20
2087.192367413571
 10
755.6476620426932
 20
2086.680599452219
 10
756.1043378239352
 20
2086.150145023471
 10
756.5394357938397
 20
2085.601852741257
 10
756.9522598884709
 20
2085.036599756264
 10
757.3421496773415
 20
2084.455290352688
 10
757.7084814199618
 20
2083.85885450157
 10
758.0506690636899
 20
2083.248246373036
 10
758.3681651812922
 20
2082.624442809839
 10
758.6604618467092
 20
2081.988441764606
 10
758.9270914476296
 20
2081.341260703338
 10
759.1676274335703
 20
2080.683934977675
 10
759.3816849982646
 20
2080.017516168555
 10
759.5689216952729
 20
2079.343070403913
 10
759.7290379858212
 20
2078.661676653096
 10
759.8617777180012
 20
2077.97442500075
 10
759.9669285365576
 20
2077.282414902914
 10
760.0443222226119
 20
2076.586753428121
 10
760.0938349627758
 20
2075.888553486334
 10
760.1153875472276
 20
2075.188932048515
 10
760.1164074432031
 20
2074.999999999996
  0
LWPOLYLINE
  5
1E2
330
87
100
AcDbEntity
  8
P-SANR-FIXT
100
AcDbPolyline
 90
        5
 70
   128
 43
0.0
 10
688.7164074432018
 20
2092.499999999996
 10
688.7379645686884
 20
2092.499999999996
 10
688.8026014583462
 20
2092.499999999996
 10
688.9102147069401
 20
2092.499999999996
 10
688.9687617827211
 20
2092.499999999996
  0
LWPOLYLINE
  5
1E3
330
87
100
AcDbEntity
  8
P-SANR-FIXT
100
AcDbPolyline
 90
        5
 70
   128
 43
0.0
 10
742.3753601322317
 20
2092.499999999996
 10
742.4774506387407
 20
2092.499999999996
 10
742.5653041011675
 20
2092.499999999996
 10
742.6101250670667
 20
2092.499999999996
 10
742.6164074432033
 20
2092.499999999996
  0
LWPOLYLINE
  5
1E4
330
87
100
AcDbEntity
  8
P-SANR-FIXT
100
AcDbPolyline
 90
       80
 70
   128
 43
0.0
 10
742.6164074432033
 20
2092.499999999996
 10
742.5948503177165
 20
2092.499999999996
 10
742.5302134280591
 20
2092.499999999996
 10
742.422600179465
 20
2092.499999999996
 10
742.2721827301764
 20
2092.499999999996
 10
742.0792017160247
 20
2092.499999999996
 10
741.8439658654655
 20
2092.499999999996
 10
741.5668515056785
 20
2092.499999999996
 10
741.248301960525
 20
2092.499999999996
 10
740.8888268413235
 20
2092.499999999996
 10
740.489001231581
 20
2092.499999999996
 10
740.0494647669813
 20
2092.499999999996
 10
739.570920612105
 20
2092.499999999996
 10
739.054134335516
 20
2092.499999999996
 10
738.4999326850149
 20
2092.499999999996
 10
737.9092022650191
 20
2092.499999999996
 10
737.2828881181849
 20
2092.499999999996
 10
736.6219922135407
 20
2092.499999999996
 10
735.9275718435501
 20
2092.499999999996
 10
735.2007379326704
 20
2092.499999999996
 10
734.4426532601091
 20
2092.499999999996
 10
733.6545305996262
 20
2092.499999999996
 10
732.8376307793546
 20
2092.499999999996
 10
731.9932606647443
 20
2092.499999999996
 10
731.1227710678556
 20
2092.499999999996
 10
730.2275545863492
 20
2092.499999999996
 10
729.3090433756263
 20
2092.499999999996
 10
728.3687068576851
 20
2092.499999999996
 10
727.4080493703602
 20
2092.499999999996
 10
726.4286077607017
 20
2092.499999999996
 10
725.4319489263491
 20
2092.499999999996
 10
724.4196673088277
 20
2092.499999999996
 10
723.393382342784
 20
2092.499999999996
 10
722.354735865234
 20
2092.499999999996
 10
721.3053894889764
 20
2092.499999999996
 10
720.2470219443641
 20
2092.499999999996
 10
719.1813263936956
 20
2092.499999999996
 10
718.1100077225157
 20
2092.499999999996
 10
717.0347798121625
 20
2092.499999999996
 10
715.9573627979227
 20
2092.499999999996
 10
714.8794803171825
 20
2092.499999999996
 10
713.8028567519755
 20
2092.499999999996
 10
712.7292144703378
 20
2092.499999999996
 10
711.6602710708892
 20
2092.499999999996
 10
710.5977366350392
 20
2092.499999999996
 10
709.5433109912236
 20
2092.499999999996
 10
708.4986809955402
 20
2092.499999999996
 10
707.4655178331396
 20
2092.499999999996
 10
706.4454743446855
 20
2092.499999999996
 10
705.4401823821613
 20
2092.499999999996
 10
704.4512501982566
 20
2092.499999999996
 10
703.4802598735044
 20
2092.499999999996
 10
702.5287647852912
 20
2092.499999999996
 10
701.5982871227826
 20
2092.499999999996
 10
700.690315451748
 20
2092.499999999996
 10
699.8063023331703
 20
2092.499999999996
 10
698.9476619994603
 20
2092.499999999996
 10
698.1157680919846
 20
2092.499999999996
 10
697.3119514635342
 20
2092.499999999996
 10
696.5374980492428
 20
2092.499999999996
 10
695.7936468093654
 20
2092.499999999996
 10
695.081587747206
 20
2092.499999999996
 10
694.4024600053662
 20
2092.499999999996
 10
693.7573500433598
 20
2092.499999999996
 10
693.1472898995106
 20
2092.499999999996
 10
692.5732555399089
 20
2092.499999999996
 10
692.0361652970761
 20
2092.499999999996
 10
691.5368784008276
 20
2092.499999999996
 10
691.0761936036887
 20
2092.499999999996
 10
690.6548479030604
 20
2092.499999999996
 10
690.2735153621815
 20
2092.499999999996
 10
689.9328060317708
 20
2092.499999999996
 10
689.6332649740765
 20
2092.499999999996
 10
689.3753713908917
 20
2092.499999999996
 10
689.1595378569352
 20
2092.499999999996
 10
688.9861096598198
 20
2092.499999999996
 10
688.8553642476644
 20
2092.499999999996
 10
688.7675107852378
 20
2092.499999999996
 10
688.7226898193383
 20
2092.499999999996
 10
688.7164074432018
 20
2092.499999999996
  0
LINE
  5
1E5
330
87
100
AcDbEntity
  8
P-SANR-FIXT
100
AcDbLine
 10
728.6664074432093
 20
2092.499999999996
 30
0.0
 11
728.6664074432093
 21
2127.499999999996
 31
0.0
  0
LINE
  5
1E6
330
87
100
AcDbEntity
  8
P-SANR-FIXT
100
AcDbLine
 10
702.6664074431956
 20
2127.499999999996
 30
0.0
 11
702.6664074431956
 21
2092.499999999996
 31
0.0
  0
LINE
  5
1E7
330
87
100
AcDbEntity
  8
P-SANR-FIXT
100
AcDbLine
 10
729.1664074432008
 20
1612.499999999995
 30
0.0
 11
729.1664074432008
 21
1647.499999999995
 31
0.0
  0
LINE
  5
1E8
330
87
100
AcDbEntity
  8
P-SANR-FIXT
100
AcDbLine
 10
702.1664074432043
 20
1647.499999999995
 30
0.0
 11
702.1664074432043
 21
1612.499999999995
 31
0.0
  0
LWPOLYLINE
  5
1E9
330
87
100
AcDbEntity
  8
P-SANR-FIXT
100
AcDbPolyline
 90
       41
 70
   128
 43
0.0
 10
688.7164074432026
 20
1647.499999999995
 10
688.0165940949365
 20
1647.513998133428
 10
687.317900298742
 20
1647.555970139699
 10
686.6214438156464
 20
1647.625848872553
 10
685.9283388274533
 20
1647.723522540922
 10
685.2396941542889
 20
1647.848834887774
 10
684.5566114807278
 20
1648.001585440085
 10
683.8801835933305
 20
1648.181529829557
 10
683.2114926324205
 20
1648.388380183553
 10
682.5516083608883
 20
1648.621805585631
 10
681.9015864528012
 20
1648.881432604945
 10
681.2624668045475
 20
1649.166845893646
 10
680.6352718712266
 20
1649.477588851358
 10
680.021005030937
 20
1649.813164355636
 10
679.4206489795871
 20
1650.17303555726
 10
678.8351641587894
 20
1650.556626739076
 10
678.2654872193607
 20
1650.96332423702
 10
677.7125295228794
 20
1651.392477421854
 10
677.1771756837016
 20
1651.84339974003
 10
676.660282153768
 20
1652.315369812029
 10
676.1626758524609
 20
1652.80763258642
 10
675.6851528437124
 20
1653.319400547772
 10
675.2284770624705
 20
1653.84985497652
 10
674.7933790925661
 20
1654.398147258735
 10
674.380554997935
 20
1654.963400243727
 10
673.9906652090642
 20
1655.544709647303
 10
673.624333466444
 20
1656.141145498422
 10
673.2821458227159
 20
1656.751753626955
 10
672.9646497051136
 20
1657.375557190153
 10
672.6723530396965
 20
1658.011558235386
 10
672.405723438776
 20
1658.658739296653
 10
672.1651874528355
 20
1659.316065022317
 10
671.951129888141
 20
1659.982483831436
 10
671.7638931911328
 20
1660.656929596079
 10
671.6037769005843
 20
1661.338323346895
 10
671.4710371684043
 20
1662.025574999241
 10
671.365886349848
 20
1662.717585097078
 10
671.2884926637938
 20
1663.41324657187
 10
671.2389799236298
 20
1664.111446513658
 10
671.217427339178
 20
1664.811067951475
 10
671.2164074432025
 20
1664.999999999995
  0
LWPOLYLINE
  5
1EA
330
87
100
AcDbEntity
  8
P-SANR-FIXT
100
AcDbPolyline
 90
       41
 70
   128
 43
0.0
 10
760.1164074432026
 20
1664.999999999995
 10
760.1024093097695
 20
1664.300186651729
 10
760.0604373034983
 20
1663.601492855535
 10
759.9905585706452
 20
1662.905036372439
 10
759.892884902276
 20
1662.211931384246
 10
759.7675725554243
 20
1661.523286711081
 10
759.6148220031131
 20
1660.84020403752
 10
759.434877613641
 20
1660.163776150123
 10
759.2280272596452
 20
1659.495085189213
 10
758.9946018575663
 20
1658.835200917681
 10
758.7349748382528
 20
1658.185179009594
 10
758.4495615495519
 20
1657.54605936134
 10
758.1388185918399
 20
1656.918864428019
 10
757.8032430875614
 20
1656.30459758773
 10
757.4433718859373
 20
1655.70424153638
 10
757.0597807041218
 20
1655.118756715582
 10
756.6530832061776
 20
1654.549079776154
 10
756.2239300213437
 20
1653.996122079672
 10
755.7730077031682
 20
1653.460768240494
 10
755.3010376311683
 20
1652.943874710561
 10
754.8087748567779
 20
1652.446268409254
 10
754.2970068954254
 20
1651.968745400505
 10
753.7665524666777
 20
1651.512069619263
 10
753.2182601844628
 20
1651.076971649359
 10
752.6530071994703
 20
1650.664147554728
 10
752.071697795895
 20
1650.274257765857
 10
751.4752619447761
 20
1649.907926023237
 10
750.864653816243
 20
1649.565738379509
 10
750.240850253045
 20
1649.248242261906
 10
749.6048492078123
 20
1648.95594559649
 10
748.9576681465442
 20
1648.689315995569
 10
748.3003424208809
 20
1648.448780009628
 10
747.6339236117617
 20
1648.234722444934
 10
746.959477847119
 20
1648.047485747925
 10
746.2780840963023
 20
1647.887369457377
 10
745.5908324439567
 20
1647.754629725197
 10
744.89882234612
 20
1647.649478906641
 10
744.2031608713278
 20
1647.572085220587
 10
743.5049609295401
 20
1647.522572480422
 10
742.8053394917221
 20
1647.501019895971
 10
742.6164074432024
 20
1647.499999999995
  0
LWPOLYLINE
  5
1EB
330
87
100
AcDbEntity
  8
P-SANR-FIXT
100
AcDbPolyline
 90
        5
 70
   128
 43
0.0
 10
742.6164074432026
 20
1647.499999999995
 10
742.5948503177159
 20
1647.499999999995
 10
742.5302134280583
 20
1647.499999999995
 10
742.4226001794643
 20
1647.499999999995
 10
742.3748089156448
 20
1647.499999999995
  0
LWPOLYLINE
  5
1EC
330
87
100
AcDbEntity
  8
P-SANR-FIXT
100
AcDbPolyline
 90
        5
 70
   128
 43
0.0
 10
688.9563330669169
 20
1647.499999999995
 10
688.8553642476651
 20
1647.499999999995
 10
688.7675107852385
 20
1647.499999999995
 10
688.7226898193391
 20
1647.499999999995
 10
688.7164074432024
 20
1647.499999999995
  0
LWPOLYLINE
  5
1ED
330
87
100
AcDbEntity
  8
P-SANR-FIXT
100
AcDbPolyline
 90
       80
 70
   128
 43
0.0
 10
688.7164074432024
 20
1647.499999999995
 10
688.7379645686891
 20
1647.499999999995
 10
688.802601458347
 20
1647.499999999995
 10
688.9102147069406
 20
1647.499999999995
 10
689.0606321562293
 20
1647.499999999995
 10
689.2536131703809
 20
1647.499999999995
 10
689.4888490209401
 20
1647.499999999995
 10
689.7659633807271
 20
1647.499999999995
 10
690.0845129258807
 20
1647.499999999995
 10
690.4439880450823
 20
1647.499999999995
 10
690.8438136548247
 20
1647.499999999995
 10
691.2833501194246
 20
1647.499999999995
 10
691.761894274301
 20
1647.499999999995
 10
692.27868055089
 20
1647.499999999995
 10
692.8328822013911
 20
1647.499999999995
 10
693.4236126213867
 20
1647.499999999995
 10
694.0499267682209
 20
1647.499999999995
 10
694.7108226728651
 20
1647.499999999995
 10
695.4052430428554
 20
1647.499999999995
 10
696.1320769537351
 20
1647.499999999995
 10
696.8901616262964
 20
1647.499999999995
 10
697.6782842867793
 20
1647.499999999995
 10
698.4951841070508
 20
1647.499999999995
 10
699.3395542216611
 20
1647.499999999995
 10
700.2100438185498
 20
1647.499999999995
 10
701.105260300056
 20
1647.499999999995
 10
702.0237715107791
 20
1647.499999999995
 10
702.9641080287204
 20
1647.499999999995
 10
703.9247655160452
 20
1647.499999999995
 10
704.9042071257035
 20
1647.499999999995
 10
705.9008659600563
 20
1647.499999999995
 10
706.9131475775776
 20
1647.499999999995
 10
707.9394325436214
 20
1647.499999999995
 10
708.9780790211711
 20
1647.499999999995
 10
710.0274253974288
 20
1647.499999999995
 10
711.0857929420411
 20
1647.499999999995
 10
712.1514884927096
 20
1647.499999999995
 10
713.2228071638894
 20
1647.499999999995
 10
714.2980350742426
 20
1647.499999999995
 10
715.3754520884822
 20
1647.499999999995
 10
716.4533345692222
 20
1647.499999999995
 10
717.5299581344295
 20
1647.499999999995
 10
718.6036004160671
 20
1647.499999999995
 10
719.6725438155158
 20
1647.499999999995
 10
720.7350782513657
 20
1647.499999999995
 10
721.7895038951812
 20
1647.499999999995
 10
722.8341338908645
 20
1647.499999999995
 10
723.8672970532652
 20
1647.499999999995
 10
724.8873405417192
 20
1647.499999999995
 10
725.8926325042433
 20
1647.499999999995
 10
726.881564688148
 20
1647.499999999995
 10
727.8525550129002
 20
1647.499999999995
 10
728.8040501011136
 20
1647.499999999995
 10
729.7345277636221
 20
1647.499999999995
 10
730.6424994346566
 20
1647.499999999995
 10
731.5265125532341
 20
1647.499999999995
 10
732.3851528869444
 20
1647.499999999995
 10
733.2170467944199
 20
1647.499999999995
 10
734.0208634228702
 20
1647.499999999995
 10
734.7953168371618
 20
1647.499999999995
 10
735.5391680770392
 20
1647.499999999995
 10
736.2512271391988
 20
1647.499999999995
 10
736.9303548810385
 20
1647.499999999995
 10
737.5754648430448
 20
1647.499999999995
 10
738.1855249868943
 20
1647.499999999995
 10
738.7595593464959
 20
1647.499999999995
 10
739.2966495893286
 20
1647.499999999995
 10
739.795936485577
 20
1647.499999999995
 10
740.256621282716
 20
1647.499999999995
 10
740.6779669833444
 20
1647.499999999995
 10
741.059299524223
 20
1647.499999999995
 10
741.4000088546336
 20
1647.499999999995
 10
741.6995499123281
 20
1647.499999999995
 10
741.9574434955128
 20
1647.499999999995
 10
742.1732770294692
 20
1647.499999999995
 10
742.3467052265845
 20
1647.499999999995
 10
742.47745063874
 20
1647.499999999995
 10
742.5653041011669
 20
1647.499999999995
 10
742.6101250670659
 20
1647.499999999995
 10
742.6164074432026
 20
1647.499999999995
  0
LINE
  5
1EE
330
87
100
AcDbEntity
  8
P-SANR-FIXT
100
AcDbLine
 10
760.1164074432038
 20
1664.999999999995
 30
0.0
 11
760.1164074432038
 21
1758.865352524855
 31
0.0
  0
LINE
  5
1EF
330
87
100
AcDbEntity
  8
P-SANR-FIXT
100
AcDbLine
 10
760.1164074432038
 20
1801.134647475138
 30
0.0
 11
760.1164074432038
 21
1998.799999999996
 31
0.0
  0
LINE
  5
1F0
330
87
100
AcDbEntity
  8
P-SANR-FIXT
100
AcDbLine
 10
760.1164074432038
 20
2041.199999999995
 30
0.0
 11
760.1164074432038
 21
2074.999999999996
 31
0.0
  0
LINE
  5
1F1
330
87
100
AcDbEntity
  8
P-SANR-FIXT
100
AcDbLine
 10
671.2164074432012
 20
2074.999999999996
 30
0.0
 11
671.2164074432012
 21
2041.199999999996
 31
0.0
  0
LINE
  5
1F2
330
87
100
AcDbEntity
  8
P-SANR-FIXT
100
AcDbLine
 10
671.2164074432012
 20
1998.799999999995
 30
0.0
 11
671.2164074432012
 21
1801.134647475139
 31
0.0
  0
LINE
  5
1F3
330
87
100
AcDbEntity
  8
P-SANR-FIXT
100
AcDbLine
 10
671.2164074432012
 20
1758.865352524854
 30
0.0
 11
671.2164074432012
 21
1664.999999999995
 31
0.0
  0
LINE
  5
1F4
330
87
100
AcDbEntity
  8
P-SANR-FIXT
100
AcDbLine
 10
671.2164074432012
 20
2041.199999999996
 30
0.0
 11
647.1664074432033
 21
2041.199999999996
 31
0.0
  0
LINE
  5
1F5
330
87
100
AcDbEntity
  8
P-SANR-FIXT
100
AcDbLine
 10
647.1664074432033
 20
1998.799999999995
 30
0.0
 11
671.2164074432012
 21
1998.799999999995
 31
0.0
  0
LINE
  5
1F6
330
87
100
AcDbEntity
  8
P-SANR-FIXT
100
AcDbLine
 10
784.1664074432017
 20
2041.199999999995
 30
0.0
 11
760.1164074432038
 21
2041.199999999995
 31
0.0
  0
LINE
  5
1F7
330
87
100
AcDbEntity
  8
P-SANR-FIXT
100
AcDbLine
 10
760.1164074432038
 20
1998.799999999996
 30
0.0
 11
784.1664074432017
 21
1998.799999999996
 31
0.0
  0
LINE
  5
1F8
330
87
100
AcDbEntity
  8
P-SANR-FIXT
100
AcDbLine
 10
728.6664074432081
 20
2127.499999999995
 30
0.0
 11
728.1758400322904
 21
2127.499999999995
 31
0.0
  0
LINE
  5
1F9
330
87
100
AcDbEntity
  8
P-SANR-FIXT
100
AcDbLine
 10
724.9897381867969
 20
2127.499999999995
 30
0.0
 11
718.8772638659149
 21
2127.499999999995
 31
0.0
  0
LINE
  5
1FA
330
87
100
AcDbEntity
  8
P-SANR-FIXT
100
AcDbLine
 10
712.4555510205315
 20
2127.499999999995
 30
0.0
 11
706.3430766995777
 21
2127.499999999995
 31
0.0
  0
LINE
  5
1FB
330
87
100
AcDbEntity
  8
P-SANR-FIXT
100
AcDbLine
 10
703.1569748541397
 20
2127.499999999995
 30
0.0
 11
702.6664074431945
 21
2127.499999999995
 31
0.0
  0
LINE
  5
1FC
330
87
100
AcDbEntity
  8
P-SANR-FIXT
100
AcDbLine
 10
729.1664074431996
 20
1612.499999999994
 30
0.0
 11
702.166407443203
 21
1612.499999999994
 31
0.0
  0
SPLINE
  5
1FD
330
87
100
AcDbEntity
  8
P-SANR-FIXT
100
AcDbSpline
210
0.0
220
0.0
230
1.0
 70
     8
 71
     3
 72
    28
 73
    24
 74
     0
 42
0.000000001
 43
0.0000000001
 40
0.0
 40
0.0
 40
0.0
 40
0.0
 40
0.0555555555555556
 40
0.1111111111111111
 40
0.1666666666666666
 40
0.2222222222222222
 40
0.3333333333333333
 40
0.3611111111111111
 40
0.3888888888888888
 40
0.4166666666666666
 40
0.4444444444444445
 40
0.4791666666666666
 40
0.5138888888888889
 40
0.5486111111111111
 40
0.5833333333333333
 40
0.6180555555555555
 40
0.6527777777777777
 40
0.6875
 40
0.7222222222222223
 40
0.7569444444444445
 40
0.7916666666666668
 40
0.861111111111111
 40
1.0
 40
1.0
 40
1.0
 40
1.0
 10
671.2164074432
 20
2041.199999999995
 30
0.0
 10
671.2164074432
 20
2041.179601659789
 30
0.0
 10
671.331158120436
 20
2040.937707666266
 30
0.0
 10
671.7829447283608
 20
2040.002589405107
 30
0.0
 10
672.4888884541108
 20
2038.402149867684
 30
0.0
 10
673.6437928201649
 20
2035.587981131964
 30
0.0
 10
674.7872931655244
 20
2032.286285618039
 30
0.0
 10
675.5673271421983
 20
2029.052127080495
 30
0.0
 10
675.9241064937955
 20
2027.322547342902
 30
0.0
 10
676.2208638641068
 20
2025.532594142172
 30
0.0
 10
676.4527900492184
 20
2023.588827806642
 30
0.0
 10
676.5850580339749
 20
2021.432767017231
 30
0.0
 10
676.5983691066558
 20
2019.038281243112
 30
0.0
 10
676.4810597816246
 20
2016.699204295709
 30
0.0
 10
676.2284656114056
 20
2014.462925975113
 30
0.0
 10
675.844163107497
 20
2012.227557169255
 30
0.0
 10
675.377051524247
 20
2010.107897804014
 30
0.0
 10
674.8641973995664
 20
2008.172934463839
 30
0.0
 10
674.2873398348941
 20
2006.33331766154
 30
0.0
 10
673.6995747332269
 20
2004.652635449224
 30
0.0
 10
672.9551393391254
 20
2002.704901833148
 30
0.0
 10
671.7349462344194
 20
1999.828745517626
 30
0.0
 10
671.2164074432
 20
1998.85161047396
 30
0.0
 10
671.2164074432
 20
1998.799999999994
 30
0.0
  0
SPLINE
  5
1FE
330
87
100
AcDbEntity
  8
P-SANR-FIXT
100
AcDbSpline
210
0.0
220
0.0
230
1.0
 70
     8
 71
     3
 72
    28
 73
    24
 74
     0
 42
0.000000001
 43
0.0000000001
 40
0.0
 40
0.0
 40
0.0
 40
0.0
 40
0.0555555555555556
 40
0.1111111111111111
 40
0.1666666666666666
 40
0.2222222222222222
 40
0.3333333333333333
 40
0.3611111111111111
 40
0.3888888888888888
 40
0.4166666666666666
 40
0.4444444444444445
 40
0.4791666666666666
 40
0.5138888888888889
 40
0.5486111111111111
 40
0.5833333333333333
 40
0.6180555555555555
 40
0.6527777777777777
 40
0.6875
 40
0.7222222222222223
 40
0.7569444444444445
 40
0.7916666666666668
 40
0.861111111111111
 40
1.0
 40
1.0
 40
1.0
 40
1.0
 10
760.1164074432026
 20
1998.799999999995
 30
0.0
 10
760.1164074432026
 20
1998.820398340201
 30
0.0
 10
760.0016567659666
 20
1999.062292333724
 30
0.0
 10
759.5498701580417
 20
1999.997410594883
 30
0.0
 10
758.8439264322917
 20
2001.597850132307
 30
0.0
 10
757.6890220662382
 20
2004.412018868027
 30
0.0
 10
756.5455217208787
 20
2007.713714381951
 30
0.0
 10
755.765487744205
 20
2010.947872919496
 30
0.0
 10
755.408708392608
 20
2012.677452657088
 30
0.0
 10
755.1119510222966
 20
2014.467405857819
 30
0.0
 10
754.8800248371849
 20
2016.411172193348
 30
0.0
 10
754.7477568524286
 20
2018.567232982758
 30
0.0
 10
754.7344457797477
 20
2020.961718756878
 30
0.0
 10
754.8517551047789
 20
2023.300795704281
 30
0.0
 10
755.1043492749978
 20
2025.537074024876
 30
0.0
 10
755.4886517789063
 20
2027.772442830734
 30
0.0
 10
755.9557633621563
 20
2029.892102195974
 30
0.0
 10
756.4686174868368
 20
2031.827065536149
 30
0.0
 10
757.0454750515088
 20
2033.666682338449
 30
0.0
 10
757.6332401531764
 20
2035.347364550764
 30
0.0
 10
758.3776755472776
 20
2037.295098166841
 30
0.0
 10
759.5978686519832
 20
2040.171254482362
 30
0.0
 10
760.1164074432026
 20
2041.148389526028
 30
0.0
 10
760.1164074432026
 20
2041.199999999994
 30
0.0
  0
SPLINE
  5
1FF
330
87
100
AcDbEntity
  8
P-SANR-FIXT
100
AcDbSpline
210
0.0
220
0.0
230
1.0
 70
     8
 71
     3
 72
     8
 73
     4
 74
     0
 42
0.000000001
 43
0.0000000001
 40
0.026896877278216
 40
0.026896877278216
 40
0.026896877278216
 40
0.026896877278216
 40
0.0277777777777778
 40
0.0277777777777778
 40
0.0277777777777778
 40
0.0277777777777778
 10
729.1045834554245
 20
2018.823278378327
 30
0.0
 10
729.1034313311245
 20
2018.810620641211
 30
0.0
 10
729.102263707512
 20
2018.797969265698
 30
0.0
 10
729.1010805972805
 20
2018.785324270118
 30
0.0
  0
SPLINE
  5
200
330
87
100
AcDbEntity
  8
P-SANR-FIXT
100
AcDbSpline
210
0.0
220
0.0
230
1.0
 70
     8
 71
     3
 72
     8
 73
     4
 74
     0
 42
0.000000001
 43
0.0000000001
 40
0.0544039903264287
 40
0.0544039903264287
 40
0.0544039903264287
 40
0.0544039903264287
 40
0.0555555555555556
 40
0.0555555555555556
 40
0.0555555555555556
 40
0.0555555555555556
 10
728.9517019937819
 20
2017.656689074409
 30
0.0
 10
728.9489466648208
 20
2017.640684864178
 30
0.0
 10
728.9461655260327
 20
2017.624692503523
 30
0.0
 10
728.9433586057754
 20
2017.608712033396
 30
0.0
  0
SPLINE
  5
201
330
87
100
AcDbEntity
  8
P-SANR-FIXT
100
AcDbSpline
210
0.0
220
0.0
230
1.0
 70
     8
 71
     3
 72
     8
 73
     4
 74
     0
 42
0.000000001
 43
0.0000000001
 40
0.082388573597537
 40
0.082388573597537
 40
0.082388573597537
 40
0.082388573597537
 40
0.0833333333333333
 40
0.0833333333333333
 40
0.0833333333333333
 40
0.0833333333333333
 10
728.703878625296
 20
2016.509426606038
 30
0.0
 10
728.7005453388738
 20
2016.496715910069
 30
0.0
 10
728.6971931244083
 20
2016.484011290816
 30
0.0
 10
728.6938219264421
 20
2016.471312680446
 30
0.0
  0
SPLINE
  5
202
330
87
100
AcDbEntity
  8
P-SANR-FIXT
100
AcDbSpline
210
0.0
220
0.0
230
1.0
 70
     8
 71
     3
 72
     8
 73
     4
 74
     0
 42
0.000000001
 43
0.0000000001
 40
0.1106663134603634
 40
0.1106663134603634
 40
0.1106663134603634
 40
0.1106663134603634
 40
0.1111111111111111
 40
0.1111111111111111
 40
0.1111111111111111
 40
0.1111111111111111
 10
728.3522129454691
 20
2015.382602614264
 30
0.0
 10
728.3500867686617
 20
2015.376761007256
 30
0.0
 10
728.3479560283852
 20
2015.370920297172
 30
0.0
 10
728.3458207188516
 20
2015.365080476932
 30
0.0
  0
SPLINE
  5
203
330
87
100
AcDbEntity
  8
P-SANR-FIXT
100
AcDbSpline
210
0.0
220
0.0
230
1.0
 70
     8
 71
     3
 72
     8
 73
     4
 74
     0
 42
0.000000001
 43
0.0000000001
 40
0.1940642388114237
 40
0.1940642388114237
 40
0.1940642388114237
 40
0.1940642388114237
 40
0.1944444444444444
 40
0.1944444444444444
 40
0.1944444444444444
 40
0.1944444444444444
 10
726.7275820534925
 20
2012.263384541401
 30
0.0
 10
726.7245260129145
 20
2012.258995338453
 30
0.0
 10
726.7214674212429
 20
2012.254608043699
 30
0.0
 10
726.7184062786403
 20
2012.250222660082
 30
0.0
  0
SPLINE
  5
204
330
87
100
AcDbEntity
  8
P-SANR-FIXT
100
AcDbSpline
210
0.0
220
0.0
230
1.0
 70
     8
 71
     3
 72
     8
 73
     4
 74
     0
 42
0.000000001
 43
0.0000000001
 40
0.3333333333333333
 40
0.3333333333333333
 40
0.3333333333333333
 40
0.3333333333333333
 40
0.3338113850689872
 40
0.3338113850689872
 40
0.3338113850689872
 40
0.3338113850689872
 10
722.4342140239119
 20
2008.318955779289
 30
0.0
 10
722.4283786790419
 20
2008.315580870902
 30
0.0
 10
722.422540547356
 20
2008.312210513132
 30
0.0
 10
722.4166996384258
 20
2008.308844705332
 30
0.0
  0
SPLINE
  5
205
330
87
100
AcDbEntity
  8
P-SANR-FIXT
100
AcDbSpline
210
0.0
220
0.0
230
1.0
 70
     8
 71
     3
 72
     8
 73
     4
 74
     0
 42
0.000000001
 43
0.0000000001
 40
0.3611111111111112
 40
0.3611111111111112
 40
0.3611111111111112
 40
0.3611111111111112
 40
0.3618153208620673
 40
0.3618153208620673
 40
0.3618153208620673
 40
0.3618153208620673
 10
721.3906556189884
 20
2007.776614363371
 30
0.0
 10
721.3816302094803
 20
2007.772418667302
 30
0.0
 10
721.372599958815
 20
2007.768232763298
 30
0.0
 10
721.3635648976133
 20
2007.764056649334
 30
0.0
  0
SPLINE
  5
206
330
87
100
AcDbEntity
  8
P-SANR-FIXT
100
AcDbSpline
210
0.0
220
0.0
230
1.0
 70
     8
 71
     3
 72
     8
 73
     4
 74
     0
 42
0.000000001
 43
0.0000000001
 40
0.3888888888888888
 40
0.3888888888888888
 40
0.3888888888888888
 40
0.3888888888888888
 40
0.3893738910269267
 40
0.3893738910269267
 40
0.3893738910269267
 40
0.3893738910269267
 10
720.3019069498687
 20
2007.325695689957
 30
0.0
 10
720.2954607478256
 20
2007.323335879133
 30
0.0
 10
720.289012822621
 20
2007.320980675378
 30
0.0
 10
720.282563178143
 20
2007.318630086322
 30
0.0
  0
SPLINE
  5
207
330
87
100
AcDbEntity
  8
P-SANR-FIXT
100
AcDbSpline
210
0.0
220
0.0
230
1.0
 70
     8
 71
     3
 72
     8
 73
     4
 74
     0
 42
0.000000001
 43
0.0000000001
 40
0.4444444444444445
 40
0.4444444444444445
 40
0.4444444444444445
 40
0.4444444444444445
 40
0.4447804255608593
 40
0.4447804255608593
 40
0.4447804255608593
 40
0.4447804255608593
 10
718.024741262086
 20
2006.707586314035
 30
0.0
 10
718.0200376346945
 20
2006.70675218542
 30
0.0
 10
718.0153333935357
 20
2006.705920686702
 30
0.0
 10
718.0106285432805
 20
2006.70509181685
 30
0.0
  0
SPLINE
  5
208
330
87
100
AcDbEntity
  8
P-SANR-FIXT
100
AcDbSpline
210
0.0
220
0.0
230
1.0
 70
     8
 71
     3
 72
     8
 73
     4
 74
     0
 42
0.000000001
 43
0.0000000001
 40
0.4722222222222224
 40
0.4722222222222224
 40
0.4722222222222224
 40
0.4722222222222224
 40
0.4726267986952992
 40
0.4726267986952992
 40
0.4726267986952992
 40
0.4726267986952992
 10
716.8481704576306
 20
2006.554065276753
 30
0.0
 10
716.8424228553991
 20
2006.553576159053
 30
0.0
 10
716.836674920566
 20
2006.553090728512
 30
0.0
 10
716.8309266613216
 20
2006.552608983369
 30
0.0
  0
SPLINE
  5
209
330
87
100
AcDbEntity
  8
P-SANR-FIXT
100
AcDbSpline
210
0.0
220
0.0
230
1.0
 70
     8
 71
     3
 72
     8
 73
     4
 74
     0
 42
0.000000001
 43
0.0000000001
 40
0.5274607258565143
 40
0.5274607258565143
 40
0.5274607258565143
 40
0.5274607258565143
 40
0.5277777777777779
 40
0.5277777777777779
 40
0.5277777777777779
 40
0.5277777777777779
 10
714.4958460630036
 20
2006.55552014469
 30
0.0
 10
714.4913829541878
 20
2006.55590241423
 30
0.0
 10
714.4869201667481
 20
2006.556286865511
 30
0.0
 10
714.4824577007426
 20
2006.556673499094
 30
0.0
  0
SPLINE
  5
20A
330
87
100
AcDbEntity
  8
P-SANR-FIXT
100
AcDbSpline
210
0.0
220
0.0
230
1.0
 70
     8
 71
     3
 72
     8
 73
     4
 74
     0
 42
0.000000001
 43
0.0000000001
 40
0.6106771972080951
 40
0.6106771972080951
 40
0.6106771972080951
 40
0.6106771972080951
 40
0.6111111111111113
 40
0.6111111111111113
 40
0.6111111111111113
 40
0.6111111111111113
 10
711.0524348056083
 20
2007.316244760036
 30
0.0
 10
711.04661380855
 20
2007.318364016092
 30
0.0
 10
711.0407941793488
 20
2007.320487190469
 30
0.0
 10
711.034975931179
 20
2007.322614278488
 30
0.0
  0
SPLINE
  5
20B
330
87
100
AcDbEntity
  8
P-SANR-FIXT
100
AcDbSpline
210
0.0
220
0.0
230
1.0
 70
     8
 71
     3
 72
     8
 73
     4
 74
     0
 42
0.000000001
 43
0.0000000001
 40
0.6382193363475209
 40
0.6382193363475209
 40
0.6382193363475209
 40
0.6382193363475209
 40
0.6388888888888891
 40
0.6388888888888891
 40
0.6388888888888891
 40
0.6388888888888891
 10
709.964037924424
 20
2007.766066671205
 30
0.0
 10
709.9554057820172
 20
2007.770075362361
 30
0.0
 10
709.9467787077172
 20
2007.774092547245
 30
0.0
 10
709.9381567600614
 20
2007.778118215483
 30
0.0
  0
SPLINE
  5
20C
330
87
100
AcDbEntity
  8
P-SANR-FIXT
100
AcDbSpline
210
0.0
220
0.0
230
1.0
 70
     8
 71
     3
 72
     8
 73
     4
 74
     0
 42
0.000000001
 43
0.0000000001
 40
0.6662197214246454
 40
0.6662197214246454
 40
0.6662197214246454
 40
0.6662197214246454
 40
0.6666666666666669
 40
0.6666666666666669
 40
0.6666666666666669
 40
0.6666666666666669
 10
708.9109856308026
 20
2008.312639316935
 30
0.0
 10
708.9055489080327
 20
2008.315776049622
 30
0.0
 10
708.9001149311203
 20
2008.318916502855
 30
0.0
 10
708.8946836938061
 20
2008.322060675625
 30
0.0
  0
SPLINE
  5
20D
330
87
100
AcDbEntity
  8
P-SANR-FIXT
100
AcDbSpline
210
0.0
220
0.0
230
1.0
 70
     8
 71
     3
 72
     8
 73
     4
 74
     0
 42
0.000000001
 43
0.0000000001
 40
0.8055555555555557
 40
0.8055555555555557
 40
0.8055555555555557
 40
0.8055555555555557
 40
0.8060531645351945
 40
0.8060531645351945
 40
0.8060531645351945
 40
0.8060531645351945
 10
704.6229356503613
 20
2012.240621481161
 30
0.0
 10
704.6189090274084
 20
2012.24638200553
 30
0.0
 10
704.6148811386334
 20
2012.252144459296
 30
0.0
 10
704.6108521345246
 20
2012.257908874215
 30
0.0
  0
SPLINE
  5
20E
330
87
100
AcDbEntity
  8
P-SANR-FIXT
100
AcDbSpline
210
0.0
220
0.0
230
1.0
 70
     8
 71
     3
 72
     8
 73
     4
 74
     0
 42
0.000000001
 43
0.0000000001
 40
0.8333333333333335
 40
0.8333333333333335
 40
0.8333333333333335
 40
0.8333333333333335
 40
0.8337074676828578
 40
0.8337074676828578
 40
0.8337074676828578
 40
0.8337074676828578
 10
703.9863462230079
 20
2013.238395796514
 30
0.0
 10
703.9836701102146
 20
2013.243005993254
 30
0.0
 10
703.9809937090217
 20
2013.247616675154
 30
0.0
 10
703.9783171436907
 20
2013.252227874182
 30
0.0
  0
SPLINE
  5
20F
330
87
100
AcDbEntity
  8
P-SANR-FIXT
100
AcDbSpline
210
0.0
220
0.0
230
1.0
 70
     8
 71
     3
 72
     8
 73
     4
 74
     0
 42
0.000000001
 43
0.0000000001
 40
0.8888888888888891
 40
0.8888888888888891
 40
0.8888888888888891
 40
0.8888888888888891
 40
0.8893533720697329
 40
0.8893533720697329
 40
0.8893533720697329
 40
0.8893533720697329
 10
702.9864613951807
 20
2015.365046794258
 30
0.0
 10
702.9842366514461
 20
2015.371137700497
 30
0.0
 10
702.9820254384255
 20
2015.377233206305
 30
0.0
 10
702.9798276431564
 20
2015.383333273274
 30
0.0
  0
SPLINE
  5
210
330
87
100
AcDbEntity
  8
P-SANR-FIXT
100
AcDbSpline
210
0.0
220
0.0
230
1.0
 70
     8
 71
     3
 72
     8
 73
     4
 74
     0
 42
0.000000001
 43
0.0000000001
 40
0.9166666666666669
 40
0.9166666666666669
 40
0.9166666666666669
 40
0.9166666666666669
 40
0.9176179034498122
 40
0.9176179034498122
 40
0.9176179034498122
 40
0.9176179034498122
 10
702.6371877403444
 20
2016.472870612117
 30
0.0
 10
702.6337650024072
 20
2016.48569351355
 30
0.0
 10
702.6303976956085
 20
2016.498536737763
 30
0.0
 10
702.6270845594599
 20
2016.511399822429
 30
0.0
  0
SPLINE
  5
211
330
87
100
AcDbEntity
  8
P-SANR-FIXT
100
AcDbSpline
210
0.0
220
0.0
230
1.0
 70
     8
 71
     3
 72
     8
 73
     4
 74
     0
 42
0.000000001
 43
0.0000000001
 40
0.9444444444444448
 40
0.9444444444444448
 40
0.9444444444444448
 40
0.9444444444444448
 40
0.9455955524783762
 40
0.9455955524783762
 40
0.9455955524783762
 40
0.9455955524783762
 10
702.3858703703134
 20
2017.612714931976
 30
0.0
 10
702.3830630851372
 20
2017.628694371708
 30
0.0
 10
702.3803349519326
 20
2017.644705017357
 30
0.0
 10
702.377682714053
 20
2017.660745584344
 30
0.0
  0
SPLINE
  5
212
330
87
100
AcDbEntity
  8
P-SANR-FIXT
100
AcDbSpline
210
0.0
220
0.0
230
1.0
 70
     8
 71
     3
 72
     8
 73
     4
 74
     0
 42
0.000000001
 43
0.0000000001
 40
0.9722222222222224
 40
0.9722222222222224
 40
0.9722222222222224
 40
0.9722222222222224
 40
0.9731009469868398
 40
0.9731009469868398
 40
0.9731009469868398
 40
0.9731009469868398
 10
702.2298350247214
 20
2018.78746348441
 30
0.0
 10
702.2286826395452
 20
2018.800045015455
 30
0.0
 10
702.2275751685903
 20
2018.812645535743
 30
0.0
 10
702.2265098011152
 20
2018.825263856486
 30
0.0
  0
SPLINE
  5
213
330
87
100
AcDbEntity
  8
P-SANR-FIXT
100
AcDbSpline
210
0.0
220
0.0
230
1.0
 70
     8
 71
     3
 72
     8
 73
     4
 74
     0
 42
0.000000001
 43
0.0000000001
 40
0.0268990530131624
 40
0.0268990530131624
 40
0.0268990530131624
 40
0.0268990530131624
 40
0.0277777777777778
 40
0.0277777777777778
 40
0.0277777777777778
 40
0.0277777777777778
 10
702.2280329658886
 20
2021.176750818968
 30
0.0
 10
702.2291810676151
 20
2021.189377494119
 30
0.0
 10
702.2303446215837
 20
2021.201997865839
 30
0.0
 10
702.2315236148756
 20
2021.214611915572
 30
0.0
  0
SPLINE
  5
214
330
87
100
AcDbEntity
  8
P-SANR-FIXT
100
AcDbSpline
210
0.0
220
0.0
230
1.0
 70
     8
 71
     3
 72
     8
 73
     4
 74
     0
 42
0.000000001
 43
0.0000000001
 40
0.0544044475216281
 40
0.0544044475216281
 40
0.0544044475216281
 40
0.0544044475216281
 40
0.0555555555555556
 40
0.0555555555555556
 40
0.0555555555555556
 40
0.0555555555555556
 10
702.3808681787332
 20
2022.343354867631
 30
0.0
 10
702.3836227955546
 20
2022.359354748902
 30
0.0
 10
702.3864032350296
 20
2022.375342816321
 30
0.0
 10
702.3892094681163
 20
2022.391319028168
 30
0.0
  0
SPLINE
  5
215
330
87
100
AcDbEntity
  8
P-SANR-FIXT
100
AcDbSpline
210
0.0
220
0.0
230
1.0
 70
     8
 71
     3
 72
     8
 73
     4
 74
     0
 42
0.000000001
 43
0.0000000001
 40
0.0823820965501901
 40
0.0823820965501901
 40
0.0823820965501901
 40
0.0823820965501901
 40
0.0833333333333333
 40
0.0833333333333333
 40
0.0833333333333333
 40
0.0833333333333333
 10
702.6287315677786
 20
2023.49056178629
 30
0.0
 10
702.6320900353376
 20
2023.503363525097
 30
0.0
 10
702.6354677480363
 20
2023.516159159924
 30
0.0
 10
702.6388647637141
 20
2023.528948761402
 30
0.0
  0
SPLINE
  5
216
330
87
100
AcDbEntity
  8
P-SANR-FIXT
100
AcDbSpline
210
0.0
220
0.0
230
1.0
 70
     8
 71
     3
 72
     8
 73
     4
 74
     0
 42
0.000000001
 43
0.0000000001
 40
0.1106466279302716
 40
0.1106466279302716
 40
0.1106466279302716
 40
0.1106466279302716
 40
0.1111111111111111
 40
0.1111111111111111
 40
0.1111111111111111
 40
0.1111111111111111
 10
702.9805979206035
 20
2024.617398992289
 30
0.0
 10
702.9828212267646
 20
2024.623503330405
 30
0.0
 10
702.9850495313325
 20
2024.629606713547
 30
0.0
 10
702.9872828410407
 20
2024.635709149939
 30
0.0
  0
SPLINE
  5
217
330
87
100
AcDbEntity
  8
P-SANR-FIXT
100
AcDbSpline
210
0.0
220
0.0
230
1.0
 70
     8
 71
     3
 72
     8
 73
     4
 74
     0
 42
0.000000001
 43
0.0000000001
 40
0.1662925323171459
 40
0.1662925323171459
 40
0.1662925323171459
 40
0.1662925323171459
 40
0.1666666666666666
 40
0.1666666666666666
 40
0.1666666666666666
 40
0.1666666666666666
 10
703.9786356676572
 20
2026.748316774389
 30
0.0
 10
703.9812803640207
 20
2026.752900171678
 30
0.0
 10
703.9839275475952
 20
2026.757481932067
 30
0.0
 10
703.9865772132276
 20
2026.762062048623
 30
0.0
  0
SPLINE
  5
218
330
87
100
AcDbEntity
  8
P-SANR-FIXT
100
AcDbSpline
210
0.0
220
0.0
230
1.0
 70
     8
 71
     3
 72
     8
 73
     4
 74
     0
 42
0.000000001
 43
0.0000000001
 40
0.1939468354648115
 40
0.1939468354648115
 40
0.1939468354648115
 40
0.1939468354648115
 40
0.1944444444444444
 40
0.1944444444444444
 40
0.1944444444444444
 40
0.1944444444444444
 10
704.6056270327417
 20
2027.736549689044
 30
0.0
 10
704.6096299606496
 20
2027.742301067674
 30
0.0
 10
704.6136372315002
 20
2027.748049146853
 30
0.0
 10
704.6176488444225
 20
2027.753793919439
 30
0.0
  0
SPLINE
  5
219
330
87
100
AcDbEntity
  8
P-SANR-FIXT
100
AcDbSpline
210
0.0
220
0.0
230
1.0
 70
     8
 71
     3
 72
     8
 73
     4
 74
     0
 42
0.000000001
 43
0.0000000001
 40
0.3333333333333333
 40
0.3333333333333333
 40
0.3333333333333333
 40
0.3333333333333333
 40
0.3337802785753548
 40
0.3337802785753548
 40
0.3337802785753548
 40
0.3337802785753548
 10
708.8997563931886
 20
2031.681713640011
 30
0.0
 10
708.9052115578785
 20
2031.684865726824
 30
0.0
 10
708.9106691983917
 20
2031.688013867525
 30
0.0
 10
708.9161293065638
 20
2031.691158062411
 30
0.0
  0
SPLINE
  5
21A
330
87
100
AcDbEntity
  8
P-SANR-FIXT
100
AcDbSpline
210
0.0
220
0.0
230
1.0
 70
     8
 71
     3
 72
     8
 73
     4
 74
     0
 42
0.000000001
 43
0.0000000001
 40
0.3611111111111112
 40
0.3611111111111112
 40
0.3611111111111112
 40
0.3611111111111112
 40
0.3617806636524836
 40
0.3617806636524836
 40
0.3617806636524836
 40
0.3617806636524836
 10
709.9436067806011
 20
2032.223767031491
 30
0.0
 10
709.9521927506713
 20
2032.227755968791
 30
0.0
 10
709.9607831381137
 20
2032.231736091236
 30
0.0
 10
709.9693779154874
 20
2032.23570739983
 30
0.0
  0
SPLINE
  5
21B
330
87
100
AcDbEntity
  8
P-SANR-FIXT
100
AcDbSpline
210
0.0
220
0.0
230
1.0
 70
     8
 71
     3
 72
     8
 73
     4
 74
     0
 42
0.000000001
 43
0.0000000001
 40
0.3888888888888888
 40
0.3888888888888888
 40
0.3888888888888888
 40
0.3888888888888888
 40
0.3893228027919053
 40
0.3893228027919053
 40
0.3893228027919053
 40
0.3893228027919053
 10
711.0330769564166
 20
2032.674790971511
 30
0.0
 10
711.0388481492914
 20
2032.676903179975
 30
0.0
 10
711.0446207193281
 20
2032.679011703851
 30
0.0
 10
711.050394663705
 20
2032.681116537491
 30
0.0
  0
SPLINE
  5
21C
330
87
100
AcDbEntity
  8
P-SANR-FIXT
100
AcDbSpline
210
0.0
220
0.0
230
1.0
 70
     8
 71
     3
 72
     8
 73
     4
 74
     0
 42
0.000000001
 43
0.0000000001
 40
0.4722222222222224
 40
0.4722222222222224
 40
0.4722222222222224
 40
0.4722222222222224
 40
0.4725392741434861
 40
0.4725392741434861
 40
0.4725392741434861
 40
0.4725392741434861
 10
714.4886231483099
 20
2033.446195618955
 30
0.0
 10
714.4931284554356
 20
2033.446577228167
 30
0.0
 10
714.4976339562122
 20
2033.446956570536
 30
0.0
 10
714.5021396466702
 20
2033.44733364706
 30
0.0
  0
SPLINE
  5
21D
330
87
100
AcDbEntity
  8
P-SANR-FIXT
100
AcDbSpline
210
0.0
220
0.0
230
1.0
 70
     8
 71
     3
 72
     8
 73
     4
 74
     0
 42
0.000000001
 43
0.0000000001
 40
0.5273732013047052
 40
0.5273732013047052
 40
0.5273732013047052
 40
0.5273732013047052
 40
0.5277777777777779
 40
0.5277777777777779
 40
0.5277777777777779
 40
0.5277777777777779
 10
716.8367042518073
 20
2033.444660291934
 30
0.0
 10
716.8423954185945
 20
2033.444174966811
 30
0.0
 10
716.8480860643544
 20
2033.443686104824
 30
0.0
 10
716.8537761894116
 20
2033.443193704137
 30
0.0
  0
SPLINE
  5
21E
330
87
100
AcDbEntity
  8
P-SANR-FIXT
100
AcDbSpline
210
0.0
220
0.0
230
1.0
 70
     8
 71
     3
 72
     8
 73
     4
 74
     0
 42
0.000000001
 43
0.0000000001
 40
0.5552195744391451
 40
0.5552195744391451
 40
0.5552195744391451
 40
0.5552195744391451
 40
0.5555555555555558
 40
0.5555555555555558
 40
0.5555555555555558
 40
0.5555555555555558
 10
718.0045335053507
 20
2033.293569094678
 30
0.0
 10
718.0092013988073
 20
2033.292754452556
 30
0.0
 10
718.0138689507399
 20
2033.291937286334
 30
0.0
 10
718.018536161298
 20
2033.291117594929
 30
0.0
  0
SPLINE
  5
21F
330
87
100
AcDbEntity
  8
P-SANR-FIXT
100
AcDbSpline
210
0.0
220
0.0
230
1.0
 70
     8
 71
     3
 72
     8
 73
     4
 74
     0
 42
0.000000001
 43
0.0000000001
 40
0.6106261089730736
 40
0.6106261089730736
 40
0.6106261089730736
 40
0.6106261089730736
 40
0.6111111111111113
 40
0.6111111111111113
 40
0.6111111111111113
 40
0.6111111111111113
 10
720.282943362644
 20
2032.682311412191
 30
0.0
 10
720.2894576752872
 20
2032.679935865796
 30
0.0
 10
720.2959701093854
 20
2032.677555462107
 30
0.0
 10
720.3024806442751
 20
2032.675170212009
 30
0.0
  0
SPLINE
  5
220
330
87
100
AcDbEntity
  8
P-SANR-FIXT
100
AcDbSpline
210
0.0
220
0.0
230
1.0
 70
     8
 71
     3
 72
     8
 73
     4
 74
     0
 42
0.000000001
 43
0.0000000001
 40
0.6381846791379371
 40
0.6381846791379371
 40
0.6381846791379371
 40
0.6381846791379371
 40
0.6388888888888891
 40
0.6388888888888891
 40
0.6388888888888891
 40
0.6388888888888891
 10
721.3714590987617
 20
2032.23234548596
 30
0.0
 10
721.3805109004607
 20
2032.228145833715
 30
0.0
 10
721.3895562025141
 20
2032.223937199324
 30
0.0
 10
721.3985949458799
 20
2032.21971961898
 30
0.0
  0
SPLINE
  5
221
330
87
100
AcDbEntity
  8
P-SANR-FIXT
100
AcDbSpline
210
0.0
220
0.0
230
1.0
 70
     8
 71
     3
 72
     8
 73
     4
 74
     0
 42
0.000000001
 43
0.0000000001
 40
0.6661886149310132
 40
0.6661886149310132
 40
0.6661886149310132
 40
0.6661886149310132
 40
0.6666666666666669
 40
0.6666666666666669
 40
0.6666666666666669
 40
0.6666666666666669
 10
722.4176503174677
 20
2031.690285964092
 30
0.0
 10
722.4234137042292
 20
2031.686965172783
 30
0.0
 10
722.4291742956095
 20
2031.683640132804
 30
0.0
 10
722.4349321144298
 20
2031.680310825066
 30
0.0
  0
SPLINE
  5
222
330
87
100
AcDbEntity
  8
P-SANR-FIXT
100
AcDbSpline
210
0.0
220
0.0
230
1.0
 70
     8
 71
     3
 72
     8
 73
     4
 74
     0
 42
0.000000001
 43
0.0000000001
 40
0.8055555555555557
 40
0.8055555555555557
 40
0.8055555555555557
 40
0.8055555555555557
 40
0.8059357611885765
 40
0.8059357611885765
 40
0.8059357611885765
 40
0.8059357611885765
 10
726.713313964507
 20
2027.755215724998
 30
0.0
 10
726.7163876624265
 20
2027.750817530354
 30
0.0
 10
726.7194620620268
 20
2027.746418247784
 30
0.0
 10
726.7225370965969
 20
2027.742017862676
 30
0.0
  0
SPLINE
  5
223
330
87
100
AcDbEntity
  8
P-SANR-FIXT
100
AcDbSpline
210
0.0
220
0.0
230
1.0
 70
     8
 71
     3
 72
     8
 73
     4
 74
     0
 42
0.000000001
 43
0.0000000001
 40
0.8888888888888891
 40
0.8888888888888891
 40
0.8888888888888891
 40
0.8888888888888891
 40
0.8893336865396411
 40
0.8893336865396411
 40
0.8893336865396411
 40
0.8893336865396411
 10
728.3465071005069
 20
2024.634264501063
 30
0.0
 10
728.3486339745492
 20
2024.628435836629
 30
0.0
 10
728.3507484793525
 20
2024.622602915744
 30
0.0
 10
728.3528507138121
 20
2024.616765772448
 30
0.0
  0
SPLINE
  5
224
330
87
100
AcDbEntity
  8
P-SANR-FIXT
100
AcDbSpline
210
0.0
220
0.0
230
1.0
 70
     8
 71
     3
 72
     8
 73
     4
 74
     0
 42
0.000000001
 43
0.0000000001
 40
0.9166666666666669
 40
0.9166666666666669
 40
0.9166666666666669
 40
0.9166666666666669
 40
0.9176114264024652
 40
0.9176114264024652
 40
0.9176114264024652
 40
0.9176114264024652
 10
728.6953196612723
 20
2023.52701151806
 30
0.0
 10
728.6987160502246
 20
2023.514280346781
 30
0.0
 10
728.702057898907
 20
2023.5015289939
 30
0.0
 10
728.7053464391433
 20
2023.488757915411
 30
0.0
  0
SPLINE
  5
225
330
87
100
AcDbEntity
  8
P-SANR-FIXT
100
AcDbSpline
210
0.0
220
0.0
230
1.0
 70
     8
 71
     3
 72
     8
 73
     4
 74
     0
 42
0.000000001
 43
0.0000000001
 40
0.9444444444444448
 40
0.9444444444444448
 40
0.9444444444444448
 40
0.9444444444444448
 40
0.9455960096735733
 40
0.9455960096735733
 40
0.9455960096735733
 40
0.9455960096735733
 10
728.946526746373
 20
2022.387407919397
 30
0.0
 10
728.9493355695673
 20
2022.371423623125
 30
0.0
 10
728.9520653286321
 20
2022.35540795361
 30
0.0
 10
728.9547192778988
 20
2022.33936220281
 30
0.0
  0
SPLINE
  5
226
330
87
100
AcDbEntity
  8
P-SANR-FIXT
100
AcDbSpline
210
0.0
220
0.0
230
1.0
 70
     8
 71
     3
 72
     8
 73
     4
 74
     0
 42
0.000000001
 43
0.0000000001
 40
0.9722222222222224
 40
0.9722222222222224
 40
0.9722222222222224
 40
0.9722222222222224
 40
0.9731031227217844
 40
0.9731031227217844
 40
0.9731031227217844
 40
0.9731031227217844
 10
729.1026990942143
 20
2021.2126664863
 30
0.0
 10
729.1038567231789
 20
2021.200052983851
 30
0.0
 10
729.1049692710878
 20
2021.187420347688
 30
0.0
 10
729.106039566041
 20
2021.174769778562
 30
0.0
  0
ARC
  5
227
330
87
100
AcDbEntity
  8
P-SANR-FIXT
100
AcDbCircle
 10
715.6664074432017
 20
2019.999999999995
 30
0.0
 40
13.5
100
AcDbArc
 50
180.0
 51
359.9999999999987
  0
ARC
  5
228
330
87
100
AcDbEntity
  8
P-SANR-FIXT
100
AcDbCircle
 10
715.6664074432017
 20
2019.999999999995
 30
0.0
 40
13.50000000000011
100
AcDbArc
 50
0.0
 51
180.0
  0
LINE
  5
229
330
87
100
AcDbEntity
  8
P-SANR-FIXT
100
AcDbLine
 10
647.1664074432021
 20
2041.199999999995
 30
0.0
 11
647.1664074432021
 21
1998.799999999994
 31
0.0
  0
LINE
  5
22A
330
87
100
AcDbEntity
  8
P-SANR-FIXT
100
AcDbLine
 10
784.1664074432006
 20
2041.199999999994
 30
0.0
 11
784.1664074432006
 21
1998.799999999995
 31
0.0
  0
LINE
  5
22B
330
87
100
AcDbEntity
  8
P-SANR-FIXT
100
AcDbLine
 10
638.6664074432025
 20
2049.699999999996
 30
0.0
 11
634.2664074431586
 21
2049.699999999996
 31
0.0
  0
LINE
  5
22C
330
87
100
AcDbEntity
  8
P-SANR-FIXT
100
AcDbLine
 10
634.266407443154
 20
1990.299999999995
 30
0.0
 11
638.6664074432025
 21
1990.299999999995
 31
0.0
  0
LINE
  5
22D
330
87
100
AcDbEntity
  8
P-SANR-FIXT
100
AcDbLine
 10
797.0664074432391
 20
2049.699999999996
 30
0.0
 11
792.6664074432026
 21
2049.699999999996
 31
0.0
  0
LINE
  5
22E
330
87
100
AcDbEntity
  8
P-SANR-FIXT
100
AcDbLine
 10
792.6664074432026
 20
1990.299999999996
 30
0.0
 11
797.0664074432465
 21
1990.299999999996
 31
0.0
  0
LINE
  5
22F
330
87
100
AcDbEntity
  8
P-SANR-FIXT
100
AcDbLine
 10
792.6664074432026
 20
2049.699999999996
 30
0.0
 11
784.1664074432017
 21
2041.199999999995
 31
0.0
  0
LINE
  5
230
330
87
100
AcDbEntity
  8
P-SANR-FIXT
100
AcDbLine
 10
784.1664074432017
 20
1998.799999999997
 30
0.0
 11
792.6664074432026
 21
1990.299999999995
 31
0.0
  0
LINE
  5
231
330
87
100
AcDbEntity
  8
P-SANR-FIXT
100
AcDbLine
 10
647.1664074432033
 20
2041.199999999995
 30
0.0
 11
638.6664074432025
 21
2049.699999999996
 31
0.0
  0
LINE
  5
232
330
87
100
AcDbEntity
  8
P-SANR-FIXT
100
AcDbLine
 10
638.6664074432025
 20
1990.299999999995
 30
0.0
 11
647.1664074432033
 21
1998.799999999997
 31
0.0
  0
LINE
  5
233
330
87
100
AcDbEntity
  8
P-SANR-FIXT
100
AcDbLine
 10
638.6664074432014
 20
1990.299999999995
 30
0.0
 11
638.6664074432014
 21
2049.699999999995
 31
0.0
  0
LINE
  5
234
330
87
100
AcDbEntity
  8
P-SANR-FIXT
100
AcDbLine
 10
792.6664074432012
 20
2049.699999999995
 30
0.0
 11
792.6664074432012
 21
1990.299999999995
 31
0.0
  0
LINE
  5
235
330
87
100
AcDbEntity
  8
P-SANR-FIXT
100
AcDbLine
 10
647.1664074432021
 20
2041.199999999994
 30
0.0
 11
647.1664074432021
 21
1998.799999999995
 31
0.0
  0
LINE
  5
236
330
87
100
AcDbEntity
  8
P-SANR-FIXT
100
AcDbLine
 10
784.1664074432006
 20
2041.199999999994
 30
0.0
 11
784.1664074432006
 21
1998.799999999995
 31
0.0
  0
ENDBLK
  5
238
330
87
100
AcDbEntity
  8
0
100
AcDbBlockEnd
  0
BLOCK
  5
2DC
330
23A
100
AcDbEntity
  8
0
100
AcDbBlockBegin
  2
Automatic flow rate regulator valve_Caleffi_121 DN15 - 1_2__-V1-Est - Idraulica
 70
     0
 10
0.0
 20
0.0
 30
0.0
  3
Automatic flow rate regulator valve_Caleffi_121 DN15 - 1_2__-V1-Est - Idraulica
  1

  0
ARC
  5
23B
330
23A
100
AcDbEntity
  8
M-PIPE
100
AcDbCircle
 10
703.725001193202
 20
1377.339628730054
 30
0.0
 40
7.249999999999886
100
AcDbArc
 50
0.0
 51
180.0
1001
REVIT
1002
{
1070
     3
1000
790271
1002
}
  0
ARC
  5
23C
330
23A
100
AcDbEntity
  8
M-PIPE
100
AcDbCircle
 10
703.725001193202
 20
1377.339628730054
 30
0.0
 40
7.25
100
AcDbArc
 50
180.0
 51
0.0
1001
REVIT
1002
{
1070
     3
1000
790271
1002
}
  0
ARC
  5
23D
330
23A
100
AcDbEntity
  8
M-PIPE
100
AcDbCircle
 10
703.725001193202
 20
1377.339628730054
 30
0.0
 40
5.999999999999886
100
AcDbArc
 50
0.0
 51
180.0
1001
REVIT
1002
{
1070
     3
1000
790271
1002
}
  0
ARC
  5
23E
330
23A
100
AcDbEntity
  8
M-PIPE
100
AcDbCircle
 10
703.725001193202
 20
1377.339628730054
 30
0.0
 40
6.0
100
AcDbArc
 50
180.0
 51
0.0
1001
REVIT
1002
{
1070
     3
1000
790271
1002
}
  0
ARC
  5
23F
330
23A
100
AcDbEntity
  8
M-PIPE
100
AcDbCircle
 10
715.7250011932021
 20
1377.339628730054
 30
0.0
 40
27.50000000000011
100
AcDbArc
 50
0.0
 51
179.9999999999995
1001
REVIT
1002
{
1070
     3
1000
790271
1002
}
  0
ARC
  5
240
330
23A
100
AcDbEntity
  8
M-PIPE
100
AcDbCircle
 10
715.7250011932021
 20
1377.339628730054
 30
0.0
 40
27.49999999999994
100
AcDbArc
 50
180.0000000000001
 51
0.0000000000001018
1001
REVIT
1002
{
1070
     3
1000
790271
1002
}
  0
LINE
  5
241
330
23A
100
AcDbEntity
  8
P-SANR-FIXT
100
AcDbLine
 10
778.2250011932018
 20
1412.339628730054
 30
0.0
 11
767.495307759603
 21
1412.339628730054
 31
0.0
  0
LINE
  5
242
330
23A
100
AcDbEntity
  8
P-SANR-FIXT
100
AcDbLine
 10
663.954694626802
 20
1412.339628730054
 30
0.0
 11
653.2250011932018
 21
1412.339628730054
 31
0.0
  0
LINE
  5
243
330
23A
100
AcDbEntity
  8
P-SANR-FIXT
100
AcDbLine
 10
778.2250011932003
 20
1412.339628730054
 30
0.0
 11
778.2250011932005
 21
1377.339628730054
 31
0.0
  0
LINE
  5
244
330
23A
100
AcDbEntity
  8
P-SANR-FIXT
100
AcDbLine
 10
653.2250011932003
 20
1412.339628730053
 30
0.0
 11
653.2250011932005
 21
1377.339628730054
 31
0.0
  0
LWPOLYLINE
  5
245
330
23A
100
AcDbEntity
  8
P-SANR-FIXT
100
AcDbPolyline
 90
       80
 70
   128
 43
0.0
 10
778.2250011932027
 20
1377.339628730054
 10
778.1750078595139
 20
1379.838962116719
 10
778.0251078371163
 20
1382.334297103128
 10
777.7755409340692
 20
1384.821641685612
 10
777.4267064041793
 20
1387.297016643445
 10
776.9791623082802
 20
1389.756461904745
 10
776.4336246214544
 20
1392.19604288175
 10
775.790966087626
 20
1394.611856765311
 10
775.0522148233551
 20
1397.000038768562
 10
774.2185526730735
 20
1399.356768309747
 10
773.2913133183829
 20
1401.678275124345
 10
772.2719801444502
 20
1403.960845296679
 10
771.1621838669079
 20
1406.200827201397
 10
769.9636999230556
 20
1408.394637345288
 10
768.6784456315412
 20
1410.53876610011
 10
767.3084771250574
 20
1412.629783317244
 10
765.8559860609708
 20
1414.664343815204
 10
764.3232961151356
 20
1416.639192731208
 10
762.7128592645086
 20
1418.551170728271
 10
761.0272518645092
 20
1420.397219049464
 10
759.2691705274002
 20
1422.174384411274
 10
757.4414278082842
 20
1423.879823728233
 10
755.5469477056139
 20
1425.51080866124
 10
753.588760983419
 20
1427.064729982327
 10
751.5700003227309
 20
1428.539101748867
 10
749.4938953099612
 20
1429.931565280548
 10
747.3637672702513
 20
1431.239892932763
 10
745.1830239540613
 20
1432.461991660363
 10
742.955154085497
 20
1433.595906366085
 10
740.6837217810946
 20
1434.63982302829
 10
738.3723608479945
 20
1435.592071603006
 10
736.024768970626
 20
1436.45112869565
 10
733.6447017951996
 20
1437.215619998131
 10
731.2359669214758
 20
1437.884322487446
 10
728.8024178114161
 20
1438.456166382261
 10
726.3479476244675
 20
1438.930236854333
 10
723.8764829893365
 20
1439.305775492035
 10
721.3919777222217
 20
1439.582181513657
 10
718.898406501551
 20
1439.759012728528
 10
716.3997585093442
 20
1439.835986244427
 10
713.9000310493717
 20
1439.812978920148
 10
711.4032231523236
 20
1439.690027562502
 10
708.9133291782104
 20
1439.467328867434
 10
706.4343324262422
 20
1439.145239105348
 10
703.9701987623974
 20
1438.724273551155
 10
701.5248702748845
 20
1438.205105659941
 10
699.102258967641
 20
1437.588565989582
 10
696.7062405019628
 20
1436.875640872029
 10
694.3406479962711
 20
1436.067470835387
 10
692.0092658939426
 20
1435.165348779315
 10
689.715823909006
 20
1434.170717906659
 10
687.4639910593955
 20
1433.08516941464
 10
685.257369797305
 20
1431.910439949274
 10
683.0994902460331
 20
1430.648408827109
 10
680.9938045525391
 20
1429.301095028722
 10
678.9436813647433
 20
1427.870653968779
 10
676.9524004424099
 20
1426.35937404783
 10
675.0231474102308
 20
1424.769672991361
 10
673.1590086615053
 20
1423.104093981944
 10
671.36296642057
 20
1421.36530159069
 10
669.6378939718745
 20
1419.5560775145
 10
667.9865510633415
 20
1417.679316125952
 10
666.4115794913568
 20
1415.738019842911
 10
664.9154988744593
 20
1413.735294325309
 10
663.5007026224895
 20
1411.674343506749
 10
662.1694541076432
 20
1409.558464468895
 10
660.9238830435598
 20
1407.391042166844
 10
659.7659820782342
 20
1405.175544013921
 10
658.6976036062051
 20
1402.915514334555
 10
657.7204568051192
 20
1400.61456869412
 10
656.8361049014114
 20
1398.276388114797
 10
656.0459626694759
 20
1395.904713186731
 10
655.3512941683292
 20
1393.503338083873
 10
654.7532107193849
 20
1391.076104494123
 10
654.2526691285772
 20
1388.626895473443
 10
653.8504701556747
 20
1386.159629233796
 10
653.5472572332365
 20
1383.678252874841
 10
653.3435154372561
 20
1381.186736069423
 10
653.2395707111446
 20
1378.689064712935
 10
653.2250011932026
 20
1377.339628730054
  0
LINE
  5
246
330
23A
100
AcDbEntity
  8
P-SANR-FIXT
100
AcDbLine
 10
653.2250011932013
 20
1377.339628730054
 30
0.0
 11
688.2188285743346
 21
1377.339628730054
 31
0.0
  0
LINE
  5
247
330
23A
100
AcDbEntity
  8
P-SANR-FIXT
100
AcDbLine
 10
743.2311738120692
 20
1377.339628730054
 30
0.0
 11
778.2250011932013
 21
1377.339628730054
 31
0.0
  0
SPLINE
  5
248
330
23A
100
AcDbEntity
  8
P-SANR-FIXT
100
AcDbSpline
210
0.0
220
0.0
230
1.0
 70
    24
 71
     3
 72
     8
 73
     4
 74
     0
 42
0.000000001
 43
0.0000000001
 40
0.913417965917551
 40
0.913417965917551
 40
0.913417965917551
 40
0.913417965917551
 40
0.9307343727339606
 40
0.9307343727339606
 40
0.9307343727339606
 40
0.9307343727339606
 10
797.164863650074
 20
1343.839628730025
 30
0.0
 10
797.1608209713656
 20
1343.839628730025
 30
0.0
 10
797.1574985870822
 20
1343.839628730025
 30
0.0
 10
797.1546305423593
 20
1343.839628730025
 30
0.0
  0
SPLINE
  5
249
330
23A
100
AcDbEntity
  8
P-SANR-FIXT
100
AcDbSpline
210
0.0
220
0.0
230
1.0
 70
    24
 71
     3
 72
     8
 73
     4
 74
     0
 42
0.000000001
 43
0.0000000001
 40
0.06926562726554
 40
0.06926562726554
 40
0.06926562726554
 40
0.06926562726554
 40
0.0865820340818249
 40
0.0865820340818249
 40
0.0865820340818249
 40
0.0865820340818249
 10
797.1535667229009
 20
1343.839628730025
 30
0.0
 10
797.1570553289747
 20
1343.839628730025
 30
0.0
 10
797.1605490893369
 20
1343.839628730025
 30
0.0
 10
797.1640807946365
 20
1343.839628730025
 30
0.0
  0
SPLINE
  5
24A
330
23A
100
AcDbEntity
  8
P-SANR-FIXT
100
AcDbSpline
210
0.0
220
0.0
230
1.0
 70
    24
 71
     3
 72
     8
 73
     4
 74
     0
 42
0.000000001
 43
0.0000000001
 40
0.9134179659307768
 40
0.9134179659307768
 40
0.9134179659307768
 40
0.9134179659307768
 40
0.9307343727437803
 40
0.9307343727437803
 40
0.9307343727437803
 40
0.9307343727437803
 10
821.0851387364252
 20
1343.839628730025
 30
0.0
 10
821.0891814151322
 20
1343.839628730025
 30
0.0
 10
821.0925037994147
 20
1343.839628730025
 30
0.0
 10
821.095371844137
 20
1343.839628730025
 30
0.0
  0
SPLINE
  5
24B
330
23A
100
AcDbEntity
  8
P-SANR-FIXT
100
AcDbSpline
210
0.0
220
0.0
230
1.0
 70
    24
 71
     3
 72
     8
 73
     4
 74
     0
 42
0.000000001
 43
0.0000000001
 40
0.0692656272567745
 40
0.0692656272567745
 40
0.0692656272567745
 40
0.0692656272567745
 40
0.0865820340759245
 40
0.0865820340759245
 40
0.0865820340759245
 40
0.0865820340759245
 10
821.0964356635951
 20
1343.839628730025
 30
0.0
 10
821.0929470575209
 20
1343.839628730025
 30
0.0
 10
821.0894532971584
 20
1343.839628730025
 30
0.0
 10
821.0859215918587
 20
1343.839628730025
 30
0.0
  0
SPLINE
  5
24C
330
23A
100
AcDbEntity
  8
P-SANR-FIXT
100
AcDbSpline
210
0.0
220
0.0
230
1.0
 70
    24
 71
     3
 72
     8
 73
     4
 74
     0
 42
0.000000001
 43
0.0000000001
 40
0.9134179658437966
 40
0.9134179658437966
 40
0.9134179658437966
 40
0.9134179658437966
 40
0.9307343726586962
 40
0.9307343726586962
 40
0.9307343726586962
 40
0.9307343726586962
 10
797.1648636500978
 20
1410.839628729879
 30
0.0
 10
797.1608209713893
 20
1410.839628729879
 30
0.0
 10
797.1574985871057
 20
1410.839628729879
 30
0.0
 10
797.1546305423826
 20
1410.839628729879
 30
0.0
  0
SPLINE
  5
24D
330
23A
100
AcDbEntity
  8
P-SANR-FIXT
100
AcDbSpline
210
0.0
220
0.0
230
1.0
 70
    24
 71
     3
 72
     8
 73
     4
 74
     0
 42
0.000000001
 43
0.0000000001
 40
0.0692656273418587
 40
0.0692656273418587
 40
0.0692656273418587
 40
0.0692656273418587
 40
0.086582034156897
 40
0.086582034156897
 40
0.086582034156897
 40
0.086582034156897
 10
797.1535667229239
 20
1410.839628729879
 30
0.0
 10
797.1570553289979
 20
1410.839628729879
 30
0.0
 10
797.1605490893606
 20
1410.839628729879
 30
0.0
 10
797.1640807946604
 20
1410.839628729879
 30
0.0
  0
SPLINE
  5
24E
330
23A
100
AcDbEntity
  8
P-SANR-FIXT
100
AcDbSpline
210
0.0
220
0.0
230
1.0
 70
    24
 71
     3
 72
     8
 73
     4
 74
     0
 42
0.000000001
 43
0.0000000001
 40
0.9134179659366601
 40
0.9134179659366601
 40
0.9134179659366601
 40
0.9134179659366601
 40
0.9307343727519715
 40
0.9307343727519715
 40
0.9307343727519715
 40
0.9307343727519715
 10
821.0851387364572
 20
1410.839628729879
 30
0.0
 10
821.0891814151629
 20
1410.839628729879
 30
0.0
 10
821.0925037994437
 20
1410.839628729879
 30
0.0
 10
821.0953718441643
 20
1410.839628729879
 30
0.0
  0
SPLINE
  5
24F
330
23A
100
AcDbEntity
  8
P-SANR-FIXT
100
AcDbSpline
210
0.0
220
0.0
230
1.0
 70
    24
 71
     3
 72
     8
 73
     4
 74
     0
 42
0.000000001
 43
0.0000000001
 40
0.0692656272827192
 40
0.0692656272827192
 40
0.0692656272827192
 40
0.0692656272827192
 40
0.0865820340626463
 40
0.0865820340626463
 40
0.0865820340626463
 40
0.0865820340626463
 10
821.0964356636013
 20
1410.839628729879
 30
0.0
 10
821.0929470575361
 20
1410.839628729879
 30
0.0
 10
821.0894532971824
 20
1410.839628729879
 30
0.0
 10
821.0859215918915
 20
1410.839628729879
 30
0.0
  0
LINE
  5
250
330
23A
100
AcDbEntity
  8
P-SANR-FIXT
100
AcDbLine
 10
839.725001193231
 20
1358.270903597448
 30
0.0
 11
839.725001193231
 21
1353.339628729776
 31
0.0
  0
LINE
  5
251
330
23A
100
AcDbEntity
  8
P-SANR-FIXT
100
AcDbLine
 10
839.7250011932309
 20
1401.339628730129
 30
0.0
 11
839.7250011932309
 21
1396.408353862456
 31
0.0
  0
LINE
  5
252
330
23A
100
AcDbEntity
  8
P-SANR-FIXT
100
AcDbLine
 10
839.7250011932309
 20
1396.408353862456
 30
0.0
 11
839.725001193231
 21
1382.270903597624
 31
0.0
  0
LINE
  5
253
330
23A
100
AcDbEntity
  8
P-SANR-FIXT
100
AcDbLine
 10
839.725001193231
 20
1382.270903597624
 30
0.0
 11
839.725001193231
 21
1372.40835386228
 31
0.0
  0
LINE
  5
254
330
23A
100
AcDbEntity
  8
P-SANR-FIXT
100
AcDbLine
 10
839.725001193231
 20
1372.40835386228
 30
0.0
 11
839.725001193231
 21
1358.270903597448
 31
0.0
  0
LINE
  5
255
330
23A
100
AcDbEntity
  8
P-SANR-FIXT
100
AcDbLine
 10
839.725001193231
 20
1358.270903597448
 30
0.0
 11
821.1250011932451
 21
1358.270903597448
 31
0.0
  0
LINE
  5
256
330
23A
100
AcDbEntity
  8
P-SANR-FIXT
100
AcDbLine
 10
821.1250011932451
 20
1353.339628729776
 30
0.0
 11
839.725001193231
 21
1353.339628729776
 31
0.0
  0
LINE
  5
257
330
23A
100
AcDbEntity
  8
P-SANR-FIXT
100
AcDbLine
 10
821.1250011932449
 20
1401.339628730128
 30
0.0
 11
839.7250011932309
 21
1401.339628730129
 31
0.0
  0
LINE
  5
258
330
23A
100
AcDbEntity
  8
P-SANR-FIXT
100
AcDbLine
 10
821.1250011932449
 20
1396.408353862456
 30
0.0
 11
839.7250011932309
 21
1396.408353862456
 31
0.0
  0
LINE
  5
259
330
23A
100
AcDbEntity
  8
P-SANR-FIXT
100
AcDbLine
 10
821.1250011932449
 20
1382.270903597624
 30
0.0
 11
839.725001193231
 21
1382.270903597624
 31
0.0
  0
LINE
  5
25A
330
23A
100
AcDbEntity
  8
P-SANR-FIXT
100
AcDbLine
 10
821.1250011932449
 20
1372.408353862279
 30
0.0
 11
839.725001193231
 21
1372.40835386228
 31
0.0
  0
LINE
  5
25B
330
23A
100
AcDbEntity
  8
P-SANR-FIXT
100
AcDbLine
 10
821.1250011932449
 20
1410.839628730038
 30
0.0
 11
821.1250011932451
 21
1394.089628730046
 31
0.0
  0
LINE
  5
25C
330
23A
100
AcDbEntity
  8
P-SANR-FIXT
100
AcDbLine
 10
821.1250011932451
 20
1394.089628730046
 30
0.0
 11
821.1250011932451
 21
1377.339628730054
 31
0.0
  0
LINE
  5
25D
330
23A
100
AcDbEntity
  8
P-SANR-FIXT
100
AcDbLine
 10
821.1250011932451
 20
1377.339628730054
 30
0.0
 11
821.1250011932451
 21
1360.589628730062
 31
0.0
  0
LINE
  5
25E
330
23A
100
AcDbEntity
  8
P-SANR-FIXT
100
AcDbLine
 10
821.1250011932451
 20
1360.589628730062
 30
0.0
 11
821.1250011932452
 21
1343.83962873007
 31
0.0
  0
LINE
  5
25F
330
23A
100
AcDbEntity
  8
P-SANR-FIXT
100
AcDbLine
 10
797.125001193245
 20
1377.339628730054
 30
0.0
 11
797.125001193245
 21
1394.089628730046
 31
0.0
  0
LINE
  5
260
330
23A
100
AcDbEntity
  8
P-SANR-FIXT
100
AcDbLine
 10
797.125001193245
 20
1394.089628730046
 30
0.0
 11
797.1250011932449
 21
1410.839628730038
 31
0.0
  0
LINE
  5
261
330
23A
100
AcDbEntity
  8
P-SANR-FIXT
100
AcDbLine
 10
797.125001193245
 20
1343.83962873007
 30
0.0
 11
797.125001193245
 21
1360.589628730062
 31
0.0
  0
LINE
  5
262
330
23A
100
AcDbEntity
  8
P-SANR-FIXT
100
AcDbLine
 10
797.125001193245
 20
1360.589628730062
 30
0.0
 11
797.125001193245
 21
1377.339628730054
 31
0.0
  0
SPLINE
  5
263
330
23A
100
AcDbEntity
  8
P-SANR-FIXT
100
AcDbSpline
210
0.0
220
0.0
230
1.0
 70
    24
 71
     3
 72
     9
 73
     5
 74
     0
 42
0.000000001
 43
0.0000000001
 40
0.0
 40
0.0
 40
0.0
 40
0.0
 40
0.5
 40
1.0
 40
1.0
 40
1.0
 40
1.0
 10
800.117100508727
 20
1343.839628730025
 30
0.0
 10
799.1564713549654
 20
1343.839628730025
 30
0.0
 10
797.6971589819569
 20
1343.839628730025
 30
0.0
 10
797.1617384779776
 20
1343.839628730025
 30
0.0
 10
797.125001193245
 20
1343.839628730025
 30
0.0
  0
SPLINE
  5
264
330
23A
100
AcDbEntity
  8
P-SANR-FIXT
100
AcDbSpline
210
0.0
220
0.0
230
1.0
 70
    24
 71
     3
 72
     8
 73
     4
 74
     0
 42
0.000000001
 43
0.0000000001
 40
0.0692656272654845
 40
0.0692656272654845
 40
0.0692656272654845
 40
0.0692656272654845
 40
0.0865820340817555
 40
0.0865820340817555
 40
0.0865820340817555
 40
0.0865820340817555
 10
797.1535667229009
 20
1343.839628730025
 30
0.0
 10
797.1570553289747
 20
1343.839628730025
 30
0.0
 10
797.1605490893369
 20
1343.839628730025
 30
0.0
 10
797.1640807946365
 20
1343.839628730025
 30
0.0
  0
SPLINE
  5
265
330
23A
100
AcDbEntity
  8
P-SANR-FIXT
100
AcDbSpline
210
0.0
220
0.0
230
1.0
 70
    24
 71
     3
 72
     8
 73
     4
 74
     0
 42
0.000000001
 43
0.0000000001
 40
0.9134179659269866
 40
0.9134179659269866
 40
0.9134179659269866
 40
0.9134179659269866
 40
0.9307343727462754
 40
0.9307343727462754
 40
0.9307343727462754
 40
0.9307343727462754
 10
821.0851387364225
 20
1343.839628730025
 30
0.0
 10
821.0891814151313
 20
1343.839628730025
 30
0.0
 10
821.0925037994149
 20
1343.839628730025
 30
0.0
 10
821.095371844138
 20
1343.839628730025
 30
0.0
  0
SPLINE
  5
266
330
23A
100
AcDbEntity
  8
P-SANR-FIXT
100
AcDbSpline
210
0.0
220
0.0
230
1.0
 70
    24
 71
     3
 72
     9
 73
     5
 74
     0
 42
0.000000001
 43
0.0000000001
 40
0.0
 40
0.0
 40
0.0
 40
0.0
 40
0.5
 40
1.0
 40
1.0
 40
1.0
 40
1.0
 10
821.1250011932452
 20
1343.839628730025
 30
0.0
 10
821.0882639085127
 20
1343.839628730025
 30
0.0
 10
820.5528434045335
 20
1343.839628730025
 30
0.0
 10
819.0935310315248
 20
1343.839628730025
 30
0.0
 10
818.1329018777631
 20
1343.839628730025
 30
0.0
  0
LINE
  5
267
330
23A
100
AcDbEntity
  8
P-SANR-FIXT
100
AcDbLine
 10
818.1329018777631
 20
1343.839628730025
 30
0.0
 11
800.117100508727
 21
1343.839628730025
 31
0.0
  0
SPLINE
  5
268
330
23A
100
AcDbEntity
  8
P-SANR-FIXT
100
AcDbSpline
210
0.0
220
0.0
230
1.0
 70
    24
 71
     3
 72
     8
 73
     4
 74
     0
 42
0.000000001
 43
0.0000000001
 40
0.9134179658437966
 40
0.9134179658437966
 40
0.9134179658437966
 40
0.9134179658437966
 40
0.9307343726586962
 40
0.9307343726586962
 40
0.9307343726586962
 40
0.9307343726586962
 10
797.1648636500978
 20
1410.839628729879
 30
0.0
 10
797.1608209713893
 20
1410.839628729879
 30
0.0
 10
797.1574985871057
 20
1410.839628729879
 30
0.0
 10
797.1546305423826
 20
1410.839628729879
 30
0.0
  0
SPLINE
  5
269
330
23A
100
AcDbEntity
  8
P-SANR-FIXT
100
AcDbSpline
210
0.0
220
0.0
230
1.0
 70
    24
 71
     3
 72
     9
 73
     5
 74
     0
 42
0.000000001
 43
0.0000000001
 40
0.0
 40
0.0
 40
0.0
 40
0.0
 40
0.5
 40
1.0
 40
1.0
 40
1.0
 40
1.0
 10
797.1250011932449
 20
1410.839628729879
 30
0.0
 10
797.16173847792
 20
1410.839628729879
 30
0.0
 10
797.6971589818252
 20
1410.839628729879
 30
0.0
 10
799.1564713548402
 20
1410.839628729879
 30
0.0
 10
800.1171005086252
 20
1410.839628729879
 30
0.0
  0
SPLINE
  5
26A
330
23A
100
AcDbEntity
  8
P-SANR-FIXT
100
AcDbSpline
210
0.0
220
0.0
230
1.0
 70
    24
 71
     3
 72
     9
 73
     5
 74
     0
 42
0.000000001
 43
0.0000000001
 40
0.0
 40
0.0
 40
0.0
 40
0.0
 40
0.5
 40
1.0
 40
1.0
 40
1.0
 40
1.0
 10
818.1329018778644
 20
1410.839628729879
 30
0.0
 10
819.0935310316495
 20
1410.839628729879
 30
0.0
 10
820.5528434046645
 20
1410.839628729879
 30
0.0
 10
821.0882639085697
 20
1410.839628729879
 30
0.0
 10
821.1250011932449
 20
1410.839628729879
 30
0.0
  0
SPLINE
  5
26B
330
23A
100
AcDbEntity
  8
P-SANR-FIXT
100
AcDbSpline
210
0.0
220
0.0
230
1.0
 70
    24
 71
     3
 72
     8
 73
     4
 74
     0
 42
0.000000001
 43
0.0000000001
 40
0.0692656272571952
 40
0.0692656272571952
 40
0.0692656272571952
 40
0.0692656272571952
 40
0.086582034071494
 40
0.086582034071494
 40
0.086582034071494
 40
0.086582034071494
 10
821.0964356636168
 20
1410.839628729879
 30
0.0
 10
821.0929470575456
 20
1410.839628729879
 30
0.0
 10
821.0894532971856
 20
1410.839628729879
 30
0.0
 10
821.0859215918887
 20
1410.839628729879
 30
0.0
  0
SPLINE
  5
26C
330
23A
100
AcDbEntity
  8
P-SANR-FIXT
100
AcDbSpline
210
0.0
220
0.0
230
1.0
 70
     8
 71
     3
 72
     9
 73
     5
 74
     0
 42
0.000000001
 43
0.0000000001
 40
0.0
 40
0.0
 40
0.0
 40
0.0
 40
0.5
 40
1.0
 40
1.0
 40
1.0
 40
1.0
 10
800.1171005086252
 20
1410.839628729879
 30
0.0
 10
799.1564713548456
 20
1408.095978373341
 30
0.0
 10
797.6971589818361
 20
1402.560661350153
 30
0.0
 10
797.1617384779254
 20
1396.92931170674
 30
0.0
 10
797.125001193245
 20
1394.089628729977
 30
0.0
  0
SPLINE
  5
26D
330
23A
100
AcDbEntity
  8
P-SANR-FIXT
100
AcDbSpline
210
0.0
220
0.0
230
1.0
 70
     8
 71
     3
 72
     9
 73
     5
 74
     0
 42
0.000000001
 43
0.0000000001
 40
0.0
 40
0.0
 40
0.0
 40
0.0
 40
0.5
 40
1.0
 40
1.0
 40
1.0
 40
1.0
 10
797.125001193245
 20
1394.089628729977
 30
0.0
 10
797.1617384779267
 20
1391.249945753192
 30
0.0
 10
797.6971589818453
 20
1385.618596109736
 30
0.0
 10
799.1564713548739
 20
1380.083279086509
 30
0.0
 10
800.1171005086659
 20
1377.339628729952
 30
0.0
  0
SPLINE
  5
26E
330
23A
100
AcDbEntity
  8
P-SANR-FIXT
100
AcDbSpline
210
0.0
220
0.0
230
1.0
 70
     8
 71
     3
 72
     9
 73
     5
 74
     0
 42
0.000000001
 43
0.0000000001
 40
0.0
 40
0.0
 40
0.0
 40
0.0
 40
0.5
 40
1.0
 40
1.0
 40
1.0
 40
1.0
 10
818.1329018778239
 20
1377.339628729952
 30
0.0
 10
819.0935310316159
 20
1380.083279086509
 30
0.0
 10
820.5528434046447
 20
1385.618596109736
 30
0.0
 10
821.0882639085635
 20
1391.249945753192
 30
0.0
 10
821.1250011932451
 20
1394.089628729977
 30
0.0
  0
SPLINE
  5
26F
330
23A
100
AcDbEntity
  8
P-SANR-FIXT
100
AcDbSpline
210
0.0
220
0.0
230
1.0
 70
     8
 71
     3
 72
     9
 73
     5
 74
     0
 42
0.000000001
 43
0.0000000001
 40
0.0
 40
0.0
 40
0.0
 40
0.0
 40
0.5
 40
1.0
 40
1.0
 40
1.0
 40
1.0
 10
821.1250011932451
 20
1394.089628729977
 30
0.0
 10
821.0882639085644
 20
1396.92931170674
 30
0.0
 10
820.5528434046536
 20
1402.560661350153
 30
0.0
 10
819.093531031644
 20
1408.095978373341
 30
0.0
 10
818.1329018778644
 20
1410.839628729879
 30
0.0
  0
LINE
  5
270
330
23A
100
AcDbEntity
  8
P-SANR-FIXT
100
AcDbLine
 10
800.1171005086252
 20
1410.839628729879
 30
0.0
 11
818.1329018778644
 21
1410.839628729879
 31
0.0
  0
SPLINE
  5
271
330
23A
100
AcDbEntity
  8
P-SANR-FIXT
100
AcDbSpline
210
0.0
220
0.0
230
1.0
 70
     8
 71
     3
 72
     9
 73
     5
 74
     0
 42
0.000000001
 43
0.0000000001
 40
0.0
 40
0.0
 40
0.0
 40
0.0
 40
0.5
 40
1.0
 40
1.0
 40
1.0
 40
1.0
 10
800.1171005086659
 20
1377.339628729952
 30
0.0
 10
799.1564713549013
 20
1374.595978373416
 30
0.0
 10
797.6971589818996
 20
1369.060661350235
 30
0.0
 10
797.1617384779539
 20
1363.429311706835
 30
0.0
 10
797.125001193245
 20
1360.58962873008
 30
0.0
  0
SPLINE
  5
272
330
23A
100
AcDbEntity
  8
P-SANR-FIXT
100
AcDbSpline
210
0.0
220
0.0
230
1.0
 70
     8
 71
     3
 72
     9
 73
     5
 74
     0
 42
0.000000001
 43
0.0000000001
 40
0.0
 40
0.0
 40
0.0
 40
0.0
 40
0.5
 40
1.0
 40
1.0
 40
1.0
 40
1.0
 10
797.125001193245
 20
1360.58962873008
 30
0.0
 10
797.1617384779556
 20
1357.749945753292
 30
0.0
 10
797.6971589819132
 20
1352.118596109829
 30
0.0
 10
799.1564713549436
 20
1346.583279086589
 30
0.0
 10
800.117100508727
 20
1343.839628730025
 30
0.0
  0
SPLINE
  5
273
330
23A
100
AcDbEntity
  8
P-SANR-FIXT
100
AcDbSpline
210
0.0
220
0.0
230
1.0
 70
     8
 71
     3
 72
     9
 73
     5
 74
     0
 42
0.000000001
 43
0.0000000001
 40
0.0
 40
0.0
 40
0.0
 40
0.0
 40
0.5
 40
1.0
 40
1.0
 40
1.0
 40
1.0
 10
818.1329018777631
 20
1343.839628730025
 30
0.0
 10
819.0935310315465
 20
1346.583279086589
 30
0.0
 10
820.5528434045771
 20
1352.118596109829
 30
0.0
 10
821.0882639085347
 20
1357.749945753292
 30
0.0
 10
821.1250011932451
 20
1360.58962873008
 30
0.0
  0
SPLINE
  5
274
330
23A
100
AcDbEntity
  8
P-SANR-FIXT
100
AcDbSpline
210
0.0
220
0.0
230
1.0
 70
     8
 71
     3
 72
     9
 73
     5
 74
     0
 42
0.000000001
 43
0.0000000001
 40
0.0
 40
0.0
 40
0.0
 40
0.0
 40
0.5
 40
1.0
 40
1.0
 40
1.0
 40
1.0
 10
821.1250011932451
 20
1360.58962873008
 30
0.0
 10
821.088263908536
 20
1363.429311706835
 30
0.0
 10
820.5528434045904
 20
1369.060661350235
 30
0.0
 10
819.0935310315886
 20
1374.595978373416
 30
0.0
 10
818.1329018778239
 20
1377.339628729952
 30
0.0
  0
LINE
  5
275
330
23A
100
AcDbEntity
  8
P-SANR-FIXT
100
AcDbLine
 10
800.1171005086659
 20
1377.339628729952
 30
0.0
 11
818.1329018778239
 21
1377.339628729952
 31
0.0
  0
LINE
  5
276
330
23A
100
AcDbEntity
  8
P-SANR-FIXT
100
AcDbLine
 10
610.3250011931574
 20
1377.339628730053
 30
0.0
 11
610.3250011931574
 21
1394.089628730045
 31
0.0
  0
LINE
  5
277
330
23A
100
AcDbEntity
  8
P-SANR-FIXT
100
AcDbLine
 10
610.3250011931574
 20
1394.089628730045
 30
0.0
 11
610.3250011931571
 21
1410.839628730038
 31
0.0
  0
LINE
  5
278
330
23A
100
AcDbEntity
  8
P-SANR-FIXT
100
AcDbLine
 10
610.3250011931574
 20
1343.839628730069
 30
0.0
 11
610.3250011931574
 21
1360.589628730061
 31
0.0
  0
LINE
  5
279
330
23A
100
AcDbEntity
  8
P-SANR-FIXT
100
AcDbLine
 10
610.3250011931574
 20
1360.589628730061
 30
0.0
 11
610.3250011931574
 21
1377.339628730053
 31
0.0
  0
LINE
  5
27A
330
23A
100
AcDbEntity
  8
P-SANR-FIXT
100
AcDbLine
 10
634.3250011931574
 20
1410.839628730037
 30
0.0
 11
634.3250011931575
 21
1394.089628730045
 31
0.0
  0
LINE
  5
27B
330
23A
100
AcDbEntity
  8
P-SANR-FIXT
100
AcDbLine
 10
634.3250011931575
 20
1394.089628730045
 30
0.0
 11
634.3250011931575
 21
1377.339628730053
 31
0.0
  0
LINE
  5
27C
330
23A
100
AcDbEntity
  8
P-SANR-FIXT
100
AcDbLine
 10
634.3250011931575
 20
1377.339628730053
 30
0.0
 11
634.3250011931575
 21
1360.589628730061
 31
0.0
  0
LINE
  5
27D
330
23A
100
AcDbEntity
  8
P-SANR-FIXT
100
AcDbLine
 10
634.3250011931575
 20
1360.589628730061
 30
0.0
 11
634.3250011931576
 21
1343.83962873007
 31
0.0
  0
SPLINE
  5
27E
330
23A
100
AcDbEntity
  8
P-SANR-FIXT
100
AcDbSpline
210
0.0
220
0.0
230
1.0
 70
    24
 71
     3
 72
     8
 73
     4
 74
     0
 42
0.000000001
 43
0.0000000001
 40
0.9134179659331945
 40
0.9134179659331945
 40
0.9134179659331945
 40
0.9134179659331945
 40
0.9307343727510815
 40
0.9307343727510815
 40
0.9307343727510815
 40
0.9307343727510815
 10
634.2851387363394
 20
1343.839628730025
 30
0.0
 10
634.2891814150475
 20
1343.839628730025
 30
0.0
 10
634.2925037993307
 20
1343.839628730025
 30
0.0
 10
634.2953718440535
 20
1343.839628730025
 30
0.0
  0
SPLINE
  5
27F
330
23A
100
AcDbEntity
  8
P-SANR-FIXT
100
AcDbSpline
210
0.0
220
0.0
230
1.0
 70
    24
 71
     3
 72
     9
 73
     5
 74
     0
 42
0.000000001
 43
0.0000000001
 40
0.0
 40
0.0
 40
0.0
 40
0.0
 40
0.5
 40
1.0
 40
1.0
 40
1.0
 40
1.0
 10
634.3250011931576
 20
1343.839628730025
 30
0.0
 10
634.2882639084251
 20
1343.839628730025
 30
0.0
 10
633.752843404446
 20
1343.839628730025
 30
0.0
 10
632.2935310314372
 20
1343.839628730025
 30
0.0
 10
631.3329018776756
 20
1343.839628730025
 30
0.0
  0
SPLINE
  5
280
330
23A
100
AcDbEntity
  8
P-SANR-FIXT
100
AcDbSpline
210
0.0
220
0.0
230
1.0
 70
    24
 71
     3
 72
     9
 73
     5
 74
     0
 42
0.000000001
 43
0.0000000001
 40
0.0
 40
0.0
 40
0.0
 40
0.0
 40
0.5
 40
1.0
 40
1.0
 40
1.0
 40
1.0
 10
613.3171005086394
 20
1343.839628730025
 30
0.0
 10
612.3564713548778
 20
1343.839628730025
 30
0.0
 10
610.8971589818692
 20
1343.839628730025
 30
0.0
 10
610.3617384778898
 20
1343.839628730025
 30
0.0
 10
610.3250011931574
 20
1343.839628730025
 30
0.0
  0
SPLINE
  5
281
330
23A
100
AcDbEntity
  8
P-SANR-FIXT
100
AcDbSpline
210
0.0
220
0.0
230
1.0
 70
    24
 71
     3
 72
     8
 73
     4
 74
     0
 42
0.000000001
 43
0.0000000001
 40
0.0692656272639188
 40
0.0692656272639188
 40
0.0692656272639188
 40
0.0692656272639188
 40
0.0865820340798985
 40
0.0865820340798985
 40
0.0865820340798985
 40
0.0865820340798985
 10
610.3535667228122
 20
1343.839628730025
 30
0.0
 10
610.3570553288859
 20
1343.839628730025
 30
0.0
 10
610.3605490892481
 20
1343.839628730025
 30
0.0
 10
610.3640807945476
 20
1343.839628730025
 30
0.0
  0
SPLINE
  5
282
330
23A
100
AcDbEntity
  8
P-SANR-FIXT
100
AcDbSpline
210
0.0
220
0.0
230
1.0
 70
    24
 71
     3
 72
     9
 73
     5
 74
     0
 42
0.000000001
 43
0.0000000001
 40
0.0
 40
0.0
 40
0.0
 40
0.0
 40
0.5
 40
1.0
 40
1.0
 40
1.0
 40
1.0
 10
631.3329018777769
 20
1410.839628729879
 30
0.0
 10
632.293531031562
 20
1410.839628729879
 30
0.0
 10
633.7528434045769
 20
1410.839628729879
 30
0.0
 10
634.2882639084822
 20
1410.839628729879
 30
0.0
 10
634.3250011931574
 20
1410.839628729879
 30
0.0
  0
SPLINE
  5
283
330
23A
100
AcDbEntity
  8
P-SANR-FIXT
100
AcDbSpline
210
0.0
220
0.0
230
1.0
 70
    24
 71
     3
 72
     8
 73
     4
 74
     0
 42
0.000000001
 43
0.0000000001
 40
0.0692656272826281
 40
0.0692656272826281
 40
0.0692656272826281
 40
0.0692656272826281
 40
0.0865820341031349
 40
0.0865820341031349
 40
0.0865820341031349
 40
0.0865820341031349
 10
634.2964356635138
 20
1410.839628729879
 30
0.0
 10
634.2929470574405
 20
1410.839628729879
 30
0.0
 10
634.2894532970785
 20
1410.839628729879
 30
0.0
 10
634.2859215917793
 20
1410.839628729879
 30
0.0
  0
SPLINE
  5
284
330
23A
100
AcDbEntity
  8
P-SANR-FIXT
100
AcDbSpline
210
0.0
220
0.0
230
1.0
 70
    24
 71
     3
 72
     8
 73
     4
 74
     0
 42
0.000000001
 43
0.0000000001
 40
0.913417965836307
 40
0.913417965836307
 40
0.913417965836307
 40
0.913417965836307
 40
0.9307343726561489
 40
0.9307343726561489
 40
0.9307343726561489
 40
0.9307343726561489
 10
610.3648636500155
 20
1410.839628729879
 30
0.0
 10
610.3608209713055
 20
1410.839628729879
 30
0.0
 10
610.3574985870209
 20
1410.839628729879
 30
0.0
 10
610.3546305422971
 20
1410.839628729879
 30
0.0
  0
SPLINE
  5
285
330
23A
100
AcDbEntity
  8
P-SANR-FIXT
100
AcDbSpline
210
0.0
220
0.0
230
1.0
 70
    24
 71
     3
 72
     9
 73
     5
 74
     0
 42
0.000000001
 43
0.0000000001
 40
0.0
 40
0.0
 40
0.0
 40
0.0
 40
0.5
 40
1.0
 40
1.0
 40
1.0
 40
1.0
 10
610.3250011931573
 20
1410.839628729879
 30
0.0
 10
610.3617384778325
 20
1410.839628729879
 30
0.0
 10
610.8971589817379
 20
1410.839628729879
 30
0.0
 10
612.3564713547527
 20
1410.839628729879
 30
0.0
 10
613.3171005085377
 20
1410.839628729879
 30
0.0
  0
LINE
  5
286
330
23A
100
AcDbEntity
  8
P-SANR-FIXT
100
AcDbLine
 10
613.3171005085377
 20
1410.839628729879
 30
0.0
 11
631.3329018777769
 21
1410.839628729879
 31
0.0
  0
SPLINE
  5
287
330
23A
100
AcDbEntity
  8
P-SANR-FIXT
100
AcDbSpline
210
0.0
220
0.0
230
1.0
 70
     8
 71
     3
 72
     9
 73
     5
 74
     0
 42
0.000000001
 43
0.0000000001
 40
0.0
 40
0.0
 40
0.0
 40
0.0
 40
0.5
 40
1.0
 40
1.0
 40
1.0
 40
1.0
 10
631.3329018777364
 20
1377.339628729951
 30
0.0
 10
632.2935310315284
 20
1380.083279086508
 30
0.0
 10
633.7528434045572
 20
1385.618596109736
 30
0.0
 10
634.2882639084756
 20
1391.249945753191
 30
0.0
 10
634.3250011931575
 20
1394.089628729976
 30
0.0
  0
SPLINE
  5
288
330
23A
100
AcDbEntity
  8
P-SANR-FIXT
100
AcDbSpline
210
0.0
220
0.0
230
1.0
 70
     8
 71
     3
 72
     9
 73
     5
 74
     0
 42
0.000000001
 43
0.0000000001
 40
0.0
 40
0.0
 40
0.0
 40
0.0
 40
0.5
 40
1.0
 40
1.0
 40
1.0
 40
1.0
 10
634.3250011931575
 20
1394.089628729976
 30
0.0
 10
634.2882639084767
 20
1396.929311706739
 30
0.0
 10
633.7528434045662
 20
1402.560661350152
 30
0.0
 10
632.2935310315565
 20
1408.095978373341
 30
0.0
 10
631.3329018777769
 20
1410.839628729879
 30
0.0
  0
SPLINE
  5
289
330
23A
100
AcDbEntity
  8
P-SANR-FIXT
100
AcDbSpline
210
0.0
220
0.0
230
1.0
 70
     8
 71
     3
 72
     9
 73
     5
 74
     0
 42
0.000000001
 43
0.0000000001
 40
0.0
 40
0.0
 40
0.0
 40
0.0
 40
0.5
 40
1.0
 40
1.0
 40
1.0
 40
1.0
 10
613.3171005085377
 20
1410.839628729879
 30
0.0
 10
612.3564713547582
 20
1408.095978373341
 30
0.0
 10
610.8971589817486
 20
1402.560661350153
 30
0.0
 10
610.361738477838
 20
1396.929311706739
 30
0.0
 10
610.3250011931574
 20
1394.089628729976
 30
0.0
  0
SPLINE
  5
28A
330
23A
100
AcDbEntity
  8
P-SANR-FIXT
100
AcDbSpline
210
0.0
220
0.0
230
1.0
 70
     8
 71
     3
 72
     9
 73
     5
 74
     0
 42
0.000000001
 43
0.0000000001
 40
0.0
 40
0.0
 40
0.0
 40
0.0
 40
0.5
 40
1.0
 40
1.0
 40
1.0
 40
1.0
 10
610.3250011931574
 20
1394.089628729976
 30
0.0
 10
610.3617384778392
 20
1391.24994575319
 30
0.0
 10
610.8971589817578
 20
1385.618596109735
 30
0.0
 10
612.3564713547867
 20
1380.083279086508
 30
0.0
 10
613.3171005085784
 20
1377.339628729951
 30
0.0
  0
LINE
  5
28B
330
23A
100
AcDbEntity
  8
P-SANR-FIXT
100
AcDbLine
 10
613.3171005085784
 20
1377.339628729951
 30
0.0
 11
631.3329018777364
 21
1377.339628729951
 31
0.0
  0
SPLINE
  5
28C
330
23A
100
AcDbEntity
  8
P-SANR-FIXT
100
AcDbSpline
210
0.0
220
0.0
230
1.0
 70
     8
 71
     3
 72
     9
 73
     5
 74
     0
 42
0.000000001
 43
0.0000000001
 40
0.0
 40
0.0
 40
0.0
 40
0.0
 40
0.5
 40
1.0
 40
1.0
 40
1.0
 40
1.0
 10
631.3329018776756
 20
1343.839628730025
 30
0.0
 10
632.2935310314591
 20
1346.583279086589
 30
0.0
 10
633.7528434044895
 20
1352.118596109828
 30
0.0
 10
634.288263908447
 20
1357.749945753292
 30
0.0
 10
634.3250011931575
 20
1360.589628730079
 30
0.0
  0
SPLINE
  5
28D
330
23A
100
AcDbEntity
  8
P-SANR-FIXT
100
AcDbSpline
210
0.0
220
0.0
230
1.0
 70
     8
 71
     3
 72
     9
 73
     5
 74
     0
 42
0.000000001
 43
0.0000000001
 40
0.0
 40
0.0
 40
0.0
 40
0.0
 40
0.5
 40
1.0
 40
1.0
 40
1.0
 40
1.0
 10
634.3250011931575
 20
1360.589628730079
 30
0.0
 10
634.2882639084486
 20
1363.429311706834
 30
0.0
 10
633.7528434045029
 20
1369.060661350235
 30
0.0
 10
632.2935310315012
 20
1374.595978373416
 30
0.0
 10
631.3329018777364
 20
1377.339628729951
 30
0.0
  0
SPLINE
  5
28E
330
23A
100
AcDbEntity
  8
P-SANR-FIXT
100
AcDbSpline
210
0.0
220
0.0
230
1.0
 70
     8
 71
     3
 72
     9
 73
     5
 74
     0
 42
0.000000001
 43
0.0000000001
 40
0.0
 40
0.0
 40
0.0
 40
0.0
 40
0.5
 40
1.0
 40
1.0
 40
1.0
 40
1.0
 10
613.3171005085784
 20
1377.339628729951
 30
0.0
 10
612.3564713548137
 20
1374.595978373416
 30
0.0
 10
610.8971589818122
 20
1369.060661350235
 30
0.0
 10
610.3617384778664
 20
1363.429311706835
 30
0.0
 10
610.3250011931574
 20
1360.58962873008
 30
0.0
  0
SPLINE
  5
28F
330
23A
100
AcDbEntity
  8
P-SANR-FIXT
100
AcDbSpline
210
0.0
220
0.0
230
1.0
 70
     8
 71
     3
 72
     9
 73
     5
 74
     0
 42
0.000000001
 43
0.0000000001
 40
0.0
 40
0.0
 40
0.0
 40
0.0
 40
0.5
 40
1.0
 40
1.0
 40
1.0
 40
1.0
 10
610.3250011931574
 20
1360.58962873008
 30
0.0
 10
610.3617384778682
 20
1357.749945753291
 30
0.0
 10
610.8971589818257
 20
1352.118596109828
 30
0.0
 10
612.356471354856
 20
1346.583279086588
 30
0.0
 10
613.3171005086394
 20
1343.839628730025
 30
0.0
  0
LINE
  5
290
330
23A
100
AcDbEntity
  8
P-SANR-FIXT
100
AcDbLine
 10
631.3329018776756
 20
1343.839628730025
 30
0.0
 11
613.3171005086394
 21
1343.839628730025
 31
0.0
  0
LINE
  5
291
330
23A
100
AcDbEntity
  8
P-SANR-FIXT
100
AcDbLine
 10
591.7250011931717
 20
1358.270903597447
 30
0.0
 11
591.7250011931716
 21
1372.408353862279
 31
0.0
  0
LINE
  5
292
330
23A
100
AcDbEntity
  8
P-SANR-FIXT
100
AcDbLine
 10
591.7250011931716
 20
1372.408353862279
 30
0.0
 11
591.7250011931716
 21
1382.270903597623
 31
0.0
  0
LINE
  5
293
330
23A
100
AcDbEntity
  8
P-SANR-FIXT
100
AcDbLine
 10
591.7250011931716
 20
1382.270903597623
 30
0.0
 11
591.7250011931714
 21
1396.408353862456
 31
0.0
  0
LINE
  5
294
330
23A
100
AcDbEntity
  8
P-SANR-FIXT
100
AcDbLine
 10
591.7250011931714
 20
1396.408353862455
 30
0.0
 11
591.7250011931714
 21
1401.339628730128
 31
0.0
  0
LINE
  5
295
330
23A
100
AcDbEntity
  8
P-SANR-FIXT
100
AcDbLine
 10
591.7250011931717
 20
1353.339628729775
 30
0.0
 11
591.7250011931717
 21
1358.270903597447
 31
0.0
  0
LINE
  5
296
330
23A
100
AcDbEntity
  8
P-SANR-FIXT
100
AcDbLine
 10
591.7250011931717
 20
1353.339628729775
 30
0.0
 11
610.3250011931577
 21
1353.339628729775
 31
0.0
  0
LINE
  5
297
330
23A
100
AcDbEntity
  8
P-SANR-FIXT
100
AcDbLine
 10
591.7250011931714
 20
1401.339628730128
 30
0.0
 11
610.3250011931574
 21
1401.339628730128
 31
0.0
  0
LINE
  5
298
330
23A
100
AcDbEntity
  8
P-SANR-FIXT
100
AcDbLine
 10
591.7250011931714
 20
1396.408353862455
 30
0.0
 11
610.3250011931574
 21
1396.408353862456
 31
0.0
  0
LINE
  5
299
330
23A
100
AcDbEntity
  8
P-SANR-FIXT
100
AcDbLine
 10
591.7250011931716
 20
1382.270903597623
 30
0.0
 11
610.3250011931574
 21
1382.270903597623
 31
0.0
  0
LINE
  5
29A
330
23A
100
AcDbEntity
  8
P-SANR-FIXT
100
AcDbLine
 10
591.7250011931716
 20
1372.408353862279
 30
0.0
 11
610.3250011931574
 21
1372.408353862279
 31
0.0
  0
LINE
  5
29B
330
23A
100
AcDbEntity
  8
P-SANR-FIXT
100
AcDbLine
 10
610.3250011931577
 20
1358.270903597447
 30
0.0
 11
591.7250011931717
 21
1358.270903597447
 31
0.0
  0
SPLINE
  5
29C
330
23A
100
AcDbEntity
  8
P-SANR-FIXT
100
AcDbSpline
210
0.0
220
0.0
230
1.0
 70
    24
 71
     3
 72
     8
 73
     4
 74
     0
 42
0.000000001
 43
0.0000000001
 40
0.9134179659331945
 40
0.9134179659331945
 40
0.9134179659331945
 40
0.9134179659331945
 40
0.9307343727510815
 40
0.9307343727510815
 40
0.9307343727510815
 40
0.9307343727510815
 10
634.2851387363394
 20
1343.839628730024
 30
0.0
 10
634.2891814150475
 20
1343.839628730024
 30
0.0
 10
634.2925037993307
 20
1343.839628730024
 30
0.0
 10
634.2953718440535
 20
1343.839628730024
 30
0.0
  0
SPLINE
  5
29D
330
23A
100
AcDbEntity
  8
P-SANR-FIXT
100
AcDbSpline
210
0.0
220
0.0
230
1.0
 70
    24
 71
     3
 72
     8
 73
     4
 74
     0
 42
0.000000001
 43
0.0000000001
 40
0.0692656272494178
 40
0.0692656272494178
 40
0.0692656272494178
 40
0.0692656272494178
 40
0.0865820340674296
 40
0.0865820340674296
 40
0.0865820340674296
 40
0.0865820340674296
 10
634.2964356635119
 20
1343.839628730024
 30
0.0
 10
634.2929470574383
 20
1343.839628730024
 30
0.0
 10
634.2894532970762
 20
1343.839628730024
 30
0.0
 10
634.2859215917769
 20
1343.839628730024
 30
0.0
  0
SPLINE
  5
29E
330
23A
100
AcDbEntity
  8
P-SANR-FIXT
100
AcDbSpline
210
0.0
220
0.0
230
1.0
 70
    24
 71
     3
 72
     8
 73
     4
 74
     0
 42
0.000000001
 43
0.0000000001
 40
0.913417965922958
 40
0.913417965922958
 40
0.913417965922958
 40
0.913417965922958
 40
0.9307343727393677
 40
0.9307343727393677
 40
0.9307343727393677
 40
0.9307343727393677
 10
610.3648636499825
 20
1343.839628730024
 30
0.0
 10
610.3608209712745
 20
1343.839628730024
 30
0.0
 10
610.3574985869912
 20
1343.839628730024
 30
0.0
 10
610.3546305422685
 20
1343.839628730024
 30
0.0
  0
SPLINE
  5
29F
330
23A
100
AcDbEntity
  8
P-SANR-FIXT
100
AcDbSpline
210
0.0
220
0.0
230
1.0
 70
    24
 71
     3
 72
     8
 73
     4
 74
     0
 42
0.000000001
 43
0.0000000001
 40
0.0692656272653397
 40
0.0692656272653397
 40
0.0692656272653397
 40
0.0692656272653397
 40
0.0865820340764179
 40
0.0865820340764179
 40
0.0865820340764179
 40
0.0865820340764179
 10
610.3535667228133
 20
1343.839628730024
 30
0.0
 10
610.3570553288859
 20
1343.839628730024
 30
0.0
 10
610.3605490892472
 20
1343.839628730024
 30
0.0
 10
610.3640807945456
 20
1343.839628730024
 30
0.0
  0
SPLINE
  5
2A0
330
23A
100
AcDbEntity
  8
P-SANR-FIXT
100
AcDbSpline
210
0.0
220
0.0
230
1.0
 70
    24
 71
     3
 72
     8
 73
     4
 74
     0
 42
0.000000001
 43
0.0000000001
 40
0.9134179658962409
 40
0.9134179658962409
 40
0.9134179658962409
 40
0.9134179658962409
 40
0.9307343727168724
 40
0.9307343727168724
 40
0.9307343727168724
 40
0.9307343727168724
 10
634.2851387363415
 20
1410.839628729879
 30
0.0
 10
634.2891814150497
 20
1410.839628729879
 30
0.0
 10
634.2925037993325
 20
1410.839628729879
 30
0.0
 10
634.295371844055
 20
1410.839628729879
 30
0.0
  0
SPLINE
  5
2A1
330
23A
100
AcDbEntity
  8
P-SANR-FIXT
100
AcDbSpline
210
0.0
220
0.0
230
1.0
 70
    24
 71
     3
 72
     8
 73
     4
 74
     0
 42
0.000000001
 43
0.0000000001
 40
0.0692656272826281
 40
0.0692656272826281
 40
0.0692656272826281
 40
0.0692656272826281
 40
0.0865820341031349
 40
0.0865820341031349
 40
0.0865820341031349
 40
0.0865820341031349
 10
634.2964356635138
 20
1410.839628729879
 30
0.0
 10
634.2929470574405
 20
1410.839628729879
 30
0.0
 10
634.2894532970785
 20
1410.839628729879
 30
0.0
 10
634.2859215917793
 20
1410.839628729879
 30
0.0
  0
SPLINE
  5
2A2
330
23A
100
AcDbEntity
  8
P-SANR-FIXT
100
AcDbSpline
210
0.0
220
0.0
230
1.0
 70
    24
 71
     3
 72
     8
 73
     4
 74
     0
 42
0.000000001
 43
0.0000000001
 40
0.9134179658437963
 40
0.9134179658437963
 40
0.9134179658437963
 40
0.9134179658437963
 40
0.9307343726444775
 40
0.9307343726444775
 40
0.9307343726444775
 40
0.9307343726444775
 10
610.3648636500103
 20
1410.839628729879
 30
0.0
 10
610.3608209713049
 20
1410.839628729879
 30
0.0
 10
610.3574985870237
 20
1410.839628729879
 30
0.0
 10
610.3546305423023
 20
1410.839628729879
 30
0.0
  0
SPLINE
  5
2A3
330
23A
100
AcDbEntity
  8
P-SANR-FIXT
100
AcDbSpline
210
0.0
220
0.0
230
1.0
 70
    24
 71
     3
 72
     8
 73
     4
 74
     0
 42
0.000000001
 43
0.0000000001
 40
0.0692656273560771
 40
0.0692656273560771
 40
0.0692656273560771
 40
0.0692656273560771
 40
0.0865820341749203
 40
0.0865820341749203
 40
0.0865820341749203
 40
0.0865820341749203
 10
610.3535667228449
 20
1410.839628729879
 30
0.0
 10
610.3570553289202
 20
1410.839628729879
 30
0.0
 10
610.3605490892841
 20
1410.839628729879
 30
0.0
 10
610.3640807945853
 20
1410.839628729879
 30
0.0
  0
LINE
  5
2A4
330
23A
100
AcDbEntity
  8
P-SANR-FIXT
100
AcDbLine
 10
703.225001193199
 20
1300.339628730029
 30
0.0
 11
703.225001193199
 21
1295.839628730029
 31
0.0
  0
LINE
  5
2A5
330
23A
100
AcDbEntity
  8
P-SANR-FIXT
100
AcDbLine
 10
728.2250011932069
 20
1295.839628730029
 30
0.0
 11
728.2250011932069
 21
1300.339628730029
 31
0.0
  0
LINE
  5
2A6
330
23A
100
AcDbEntity
  8
P-SANR-FIXT
100
AcDbLine
 10
707.4500839755465
 20
1291.539628730031
 30
0.0
 11
706.7250011932108
 21
1291.539628730031
 31
0.0
  0
LINE
  5
2A7
330
23A
100
AcDbEntity
  8
P-SANR-FIXT
100
AcDbLine
 10
724.7250011931925
 20
1291.539628730031
 30
0.0
 11
723.9999184108541
 21
1291.539628730031
 31
0.0
  0
LINE
  5
2A8
330
23A
100
AcDbEntity
  8
P-SANR-FIXT
100
AcDbLine
 10
723.9999184108541
 20
1291.539628730031
 30
0.0
 11
716.4500839755398
 21
1291.539628730031
 31
0.0
  0
LINE
  5
2A9
330
23A
100
AcDbEntity
  8
P-SANR-FIXT
100
AcDbLine
 10
716.4500839755398
 20
1291.539628730031
 30
0.0
 11
714.9999184108639
 21
1291.539628730031
 31
0.0
  0
LINE
  5
2AA
330
23A
100
AcDbEntity
  8
P-SANR-FIXT
100
AcDbLine
 10
714.9999184108639
 20
1291.539628730031
 30
0.0
 11
707.4500839755465
 21
1291.539628730031
 31
0.0
  0
LINE
  5
2AB
330
23A
100
AcDbEntity
  8
P-SANR-FIXT
100
AcDbLine
 10
707.4500839755465
 20
1291.539628730031
 30
0.0
 11
707.4500839755465
 21
1295.839628730031
 31
0.0
  0
LINE
  5
2AC
330
23A
100
AcDbEntity
  8
P-SANR-FIXT
100
AcDbLine
 10
706.7250011932108
 20
1295.839628730031
 30
0.0
 11
706.7250011932108
 21
1291.539628730031
 31
0.0
  0
LINE
  5
2AD
330
23A
100
AcDbEntity
  8
P-SANR-FIXT
100
AcDbLine
 10
724.7250011931925
 20
1295.839628730031
 30
0.0
 11
724.7250011931925
 21
1291.539628730031
 31
0.0
  0
LINE
  5
2AE
330
23A
100
AcDbEntity
  8
P-SANR-FIXT
100
AcDbLine
 10
723.9999184108541
 20
1295.839628730031
 30
0.0
 11
723.9999184108541
 21
1291.539628730031
 31
0.0
  0
LINE
  5
2AF
330
23A
100
AcDbEntity
  8
P-SANR-FIXT
100
AcDbLine
 10
716.4500839755398
 20
1295.839628730031
 30
0.0
 11
716.4500839755398
 21
1291.539628730031
 31
0.0
  0
LINE
  5
2B0
330
23A
100
AcDbEntity
  8
P-SANR-FIXT
100
AcDbLine
 10
714.9999184108639
 20
1295.839628730031
 30
0.0
 11
714.9999184108639
 21
1291.539628730031
 31
0.0
  0
LINE
  5
2B1
330
23A
100
AcDbEntity
  8
P-SANR-FIXT
100
AcDbLine
 10
703.2250011931976
 20
1295.839628730029
 30
0.0
 11
715.7250011932013
 21
1295.839628730029
 31
0.0
  0
LINE
  5
2B2
330
23A
100
AcDbEntity
  8
P-SANR-FIXT
100
AcDbLine
 10
715.7250011932014
 20
1295.839628730029
 30
0.0
 11
728.2250011932054
 21
1295.839628730029
 31
0.0
  0
LINE
  5
2B3
330
23A
100
AcDbEntity
  8
P-SANR-FIXT
100
AcDbLine
 10
676.6563115488825
 20
1356.139628730053
 30
0.0
 11
676.6965907681684
 21
1356.139628730053
 31
0.0
  0
LINE
  5
2B4
330
23A
100
AcDbEntity
  8
P-SANR-FIXT
100
AcDbLine
 10
754.7534116182376
 20
1356.139628730054
 30
0.0
 11
754.7936908375236
 21
1356.139628730054
 31
0.0
  0
LWPOLYLINE
  5
2B5
330
23A
100
AcDbEntity
  8
P-SANR-FIXT
100
AcDbPolyline
 90
       80
 70
   128
 43
0.0
 10
671.275001193202
 20
1377.339628730054
 10
671.3105564521215
 20
1375.562102825458
 10
671.4171653480505
 20
1373.787420583124
 10
671.5946573294977
 20
1372.018421116061
 10
671.8427484471553
 20
1370.25793444605
 10
672.1610418081588
 20
1368.508776976213
 10
672.5490282110293
 20
1366.773746985367
 10
673.0060869602882
 20
1365.055620151379
 10
673.5314868594375
 20
1363.357145110667
 10
674.1243873807178
 20
1361.681039060975
 10
674.7838400097736
 20
1360.029983414434
 10
675.5087897630748
 20
1358.406619507869
 10
676.298076875663
 20
1356.813544377234
 10
677.1504386565306
 20
1355.253306602899
 10
678.0645115086557
 20
1353.72840223247
 10
679.0388331104669
 20
1352.241270787644
 10
680.0718447552455
 20
1350.794291361495
 10
681.1618938447232
 20
1349.389778812432
 10
682.3072365328895
 20
1348.029980060921
 10
683.5060405157689
 20
1346.717070494889
 10
684.7563879627207
 20
1345.45315048957
 10
686.056278584556
 20
1344.240242047348
 10
687.4036328335753
 20
1343.080285562994
 10
688.7962952304004
 20
1341.975136719436
 10
690.2320378122816
 20
1340.926563519074
 10
691.7085636973634
 20
1339.936243455342
 10
693.2235107592053
 20
1339.005760829087
 10
694.7744554056797
 20
1338.136604214017
 10
696.3589164562026
 20
1337.330164075307
 10
697.9743591110936
 20
1336.587730545148
 10
699.6181990067143
 20
1335.91049135881
 10
701.2878063498988
 20
1335.299529954521
 10
702.980510125062
 20
1334.755823740197
 10
704.6936023672544
 20
1334.280242529796
 10
706.424342494329
 20
1333.873547151803
 10
708.1699616912868
 20
1333.536388232066
 10
709.9276673397922
 20
1333.269305152932
 10
711.6946474857641
 20
1333.072725190355
 10
713.4680753379051
 20
1332.946962830338
 10
715.2451137899626
 20
1332.892219265831
 10
717.0229199594949
 20
1332.908582074858
 10
718.7986497358759
 20
1332.996025080416
 10
720.5694623302652
 20
1333.154408392348
 10
722.3325248202648
 20
1333.383478631144
 10
724.0850166819915
 20
1333.682869333286
 10
725.8241343023105
 20
1334.052101537517
 10
727.547095464022
 20
1334.490584551077
 10
729.2511437968125
 20
1334.997616894681
 10
730.9335531868604
 20
1335.57238742474
 10
732.5916321380365
 20
1336.213976631019
 10
734.2227280777237
 20
1336.921358107652
 10
735.8242316003666
 20
1337.693400195175
 10
737.3935806419654
 20
1338.528867790944
 10
738.9282645788299
 20
1339.426424325028
 10
740.4258282440429
 20
1340.38463389844
 10
741.8838758552034
 20
1341.401963580272
 10
743.3000748471668
 20
1342.47678586005
 10
744.6721596036527
 20
1343.607381251411
 10
745.9979350817461
 20
1344.791941042908
 10
747.2752803234996
 20
1346.028570191569
 10
748.5021518490116
 20
1347.315290354554
 10
749.6765869255603
 20
1348.65004305409
 10
750.7967067075559
 20
1350.030692970589
 10
751.8607192422934
 20
1351.455031358708
 10
752.8669223366945
 20
1352.920779580868
 10
753.813706280453
 20
1354.425592752589
 10
754.6995564212291
 20
1355.967063493808
 10
755.523055587769
 20
1357.542725780167
 10
756.282886357076
 20
1359.150058888132
 10
756.9778331620081
 20
1360.78649142761
 10
757.6067842359253
 20
1362.449405455623
 10
758.1687333912777
 20
1364.136140664465
 10
758.6627816292933
 20
1365.843998637617
 10
759.0881385781825
 20
1367.570247166647
 10
759.4441237575649
 20
1369.312124622155
 10
759.7301676670931
 20
1371.066844371793
 10
759.9458126975314
 20
1372.831599238281
 10
760.0907138628326
 20
1374.603565990294
 10
760.1646393520431
 20
1376.379909859029
 10
760.1750011932033
 20
1377.339628730054
  0
LINE
  5
2B6
330
23A
100
AcDbEntity
  8
P-SANR-FIXT
100
AcDbLine
 10
702.2250011932028
 20
1334.98927454027
 30
0.0
 11
702.2250011932028
 21
1300.339628730053
 31
0.0
  0
LINE
  5
2B7
330
23A
100
AcDbEntity
  8
P-SANR-FIXT
100
AcDbLine
 10
729.225001193203
 20
1300.339628730053
 30
0.0
 11
729.2250011932028
 21
1334.98927454027
 31
0.0
  0
LINE
  5
2B8
330
23A
100
AcDbEntity
  8
P-SANR-FIXT
100
AcDbLine
 10
653.2250011932018
 20
1398.539628730054
 30
0.0
 11
647.2250011932033
 21
1398.539628730054
 31
0.0
  0
LINE
  5
2B9
330
23A
100
AcDbEntity
  8
P-SANR-FIXT
100
AcDbLine
 10
647.2250011932035
 20
1356.139628730053
 30
0.0
 11
676.6345079365635
 21
1356.139628730053
 31
0.0
  0
LINE
  5
2BA
330
23A
100
AcDbEntity
  8
P-SANR-FIXT
100
AcDbLine
 10
784.2250011932017
 20
1398.539628730053
 30
0.0
 11
778.2250011932019
 21
1398.539628730053
 31
0.0
  0
LINE
  5
2BB
330
23A
100
AcDbEntity
  8
P-SANR-FIXT
100
AcDbLine
 10
754.8154944498426
 20
1356.139628730055
 30
0.0
 11
784.2250011932019
 21
1356.139628730055
 31
0.0
  0
SPLINE
  5
2BC
330
23A
100
AcDbEntity
  8
P-SANR-FIXT
100
AcDbSpline
210
0.0
220
0.0
230
1.0
 70
     8
 71
     3
 72
    10
 73
     6
 74
     0
 42
0.000000001
 43
0.0000000001
 40
0.0
 40
0.0
 40
0.0
 40
0.0
 40
0.0555555555555556
 40
0.1111111111111111
 40
0.1388888888888889
 40
0.1388888888888889
 40
0.1388888888888889
 40
0.1388888888888889
 10
671.2750011932
 20
1377.339628730053
 30
0.0
 10
671.2750011932
 20
1376.04151321556
 30
0.0
 10
671.3897518704359
 20
1373.511484892343
 30
0.0
 10
671.7662407103732
 20
1370.569483900562
 30
0.0
 10
672.0874429335203
 20
1368.863710936165
 30
0.0
 10
672.2031435009569
 20
1368.306209497186
 30
0.0
  0
SPLINE
  5
2BD
330
23A
100
AcDbEntity
  8
P-SANR-FIXT
100
AcDbSpline
210
0.0
220
0.0
230
1.0
 70
     8
 71
     3
 72
     9
 73
     5
 74
     0
 42
0.000000001
 43
0.0000000001
 40
0.1666666666666666
 40
0.1666666666666666
 40
0.1666666666666666
 40
0.1666666666666666
 40
0.2222222222222222
 40
0.2777777777777779
 40
0.2777777777777779
 40
0.2777777777777779
 40
0.2777777777777779
 10
672.5741879622425
 20
1366.671460306793
 30
0.0
 10
672.8362082956244
 20
1365.609788583613
 30
0.0
 10
673.4136604786971
 20
1363.611053362813
 30
0.0
 10
674.0417637187529
 20
1361.882411330798
 30
0.0
 10
674.3488061092007
 20
1361.099912557577
 30
0.0
  0
SPLINE
  5
2BE
330
23A
100
AcDbEntity
  8
P-SANR-FIXT
100
AcDbSpline
210
0.0
220
0.0
230
1.0
 70
     8
 71
     3
 72
    11
 73
     7
 74
     0
 42
0.000000001
 43
0.0000000001
 40
0.3055555555555556
 40
0.3055555555555556
 40
0.3055555555555556
 40
0.3055555555555556
 40
0.3333333333333333
 40
0.3611111111111111
 40
0.3888888888888888
 40
0.4166666666666666
 40
0.4166666666666666
 40
0.4166666666666666
 40
0.4166666666666666
 10
674.801653773582
 20
1359.9893184472
 30
0.0
 10
674.9492113547709
 20
1359.640767550292
 30
0.0
 10
675.2359039038163
 20
1358.988151614978
 30
0.0
 10
675.6259208923553
 20
1358.153409493283
 30
0.0
 10
675.9827002432118
 20
1357.4264586832
 30
0.0
 10
676.1805384919263
 20
1357.040067991204
 30
0.0
 10
676.2656790039438
 20
1356.875895141959
 30
0.0
  0
SPLINE
  5
2BF
330
23A
100
AcDbEntity
  8
P-SANR-FIXT
100
AcDbSpline
210
0.0
220
0.0
230
1.0
 70
     8
 71
     3
 72
     8
 73
     4
 74
     0
 42
0.000000001
 43
0.0000000001
 40
0.4444444444444445
 40
0.4444444444444445
 40
0.4444444444444445
 40
0.4444444444444445
 40
0.4722222222222224
 40
0.4722222222222224
 40
0.4722222222222224
 40
0.4722222222222224
 10
676.4786228566301
 20
1356.470410070438
 30
0.0
 10
676.5350642929308
 20
1356.364248245451
 30
0.0
 10
676.5765852671576
 20
1356.287074860519
 30
0.0
 10
676.6041649467011
 20
1356.23598788578
 30
0.0
  0
SPLINE
  5
2C0
330
23A
100
AcDbEntity
  8
P-SANR-FIXT
100
AcDbSpline
210
0.0
220
0.0
230
1.0
 70
     8
 71
     3
 72
    10
 73
     6
 74
     0
 42
0.000000001
 43
0.0000000001
 40
0.5
 40
0.5
 40
0.5
 40
0.5
 40
0.5138888888888889
 40
0.5486111111111111
 40
0.5555555555555556
 40
0.5555555555555556
 40
0.5555555555555556
 40
0.5555555555555556
 10
754.8044359424737
 20
1356.159424897649
 30
0.0
 10
754.804426372992
 20
1356.159410869606
 30
0.0
 10
754.8165013508256
 20
1356.181735061409
 30
0.0
 10
754.8790666253973
 20
1356.297222623422
 30
0.0
 10
754.9584583567888
 20
1356.446093924197
 30
0.0
 10
754.9725874410515
 20
1356.472658003976
 30
0.0
  0
SPLINE
  5
2C1
330
23A
100
AcDbEntity
  8
P-SANR-FIXT
100
AcDbSpline
210
0.0
220
0.0
230
1.0
 70
     8
 71
     3
 72
    11
 73
     7
 74
     0
 42
0.000000001
 43
0.0000000001
 40
0.5833333333333333
 40
0.5833333333333333
 40
0.5833333333333333
 40
0.5833333333333333
 40
0.6180555555555555
 40
0.6527777777777777
 40
0.6875
 40
0.6944444444444446
 40
0.6944444444444446
 40
0.6944444444444446
 40
0.6944444444444446
 10
755.1848944139459
 20
1356.876996274587
 30
0.0
 10
755.2910438596338
 20
1357.081742525305
 30
0.0
 10
755.5472609821413
 20
1357.583416701522
 30
0.0
 10
756.0143030258341
 20
1358.551138625254
 30
0.0
 10
756.390583034742
 20
1359.384008401734
 30
0.0
 10
756.610898217005
 20
1359.899895954637
 30
0.0
 10
756.6479728764211
 20
1359.987486105845
 30
0.0
  0
SPLINE
  5
2C2
330
23A
100
AcDbEntity
  8
P-SANR-FIXT
100
AcDbSpline
210
0.0
220
0.0
230
1.0
 70
     8
 71
     3
 72
    10
 73
     6
 74
     0
 42
0.000000001
 43
0.0000000001
 40
0.7222222222222223
 40
0.7222222222222223
 40
0.7222222222222223
 40
0.7222222222222223
 40
0.7569444444444445
 40
0.7916666666666668
 40
0.8333333333333335
 40
0.8333333333333335
 40
0.8333333333333335
 40
0.8333333333333335
 10
757.1058867243414
 20
1361.109261739169
 30
0.0
 10
757.2999905020646
 20
1361.604273416258
 30
0.0
 10
757.6944955914371
 20
1362.655019615525
 30
0.0
 10
758.2772678030648
 20
1364.475456063118
 30
0.0
 10
758.7039825471655
 20
1365.853834070678
 30
0.0
 10
758.9041840914108
 20
1366.652521337138
 30
0.0
  0
SPLINE
  5
2C3
330
23A
100
AcDbEntity
  8
P-SANR-FIXT
100
AcDbSpline
210
0.0
220
0.0
230
1.0
 70
     8
 71
     3
 72
     8
 73
     4
 74
     0
 42
0.000000001
 43
0.0000000001
 40
0.861111111111111
 40
0.861111111111111
 40
0.861111111111111
 40
0.861111111111111
 40
1.0
 40
1.0
 40
1.0
 40
1.0
 10
759.2492423547703
 20
1368.315054983351
 30
0.0
 10
759.8293086657228
 20
1371.096732894088
 30
0.0
 10
760.1750011932026
 20
1374.094361572009
 30
0.0
 10
760.1750011932026
 20
1377.339628730053
 30
0.0
  0
SPLINE
  5
2C4
330
23A
100
AcDbEntity
  8
P-SANR-FIXT
100
AcDbSpline
210
0.0
220
0.0
230
1.0
 70
     8
 71
     3
 72
    14
 73
    10
 74
     0
 42
0.000000001
 43
0.0000000001
 40
0.0555555555555556
 40
0.0555555555555556
 40
0.0555555555555556
 40
0.0555555555555556
 40
0.1111111111111111
 40
0.1666666666666666
 40
0.2222222222222222
 40
0.2777777777777778
 40
0.3333333333333333
 40
0.3888888888888888
 40
0.4444444444444445
 40
0.4444444444444445
 40
0.4444444444444445
 40
0.4444444444444445
 10
702.4478032181161
 20
1334.91889660612
 30
0.0
 10
702.583239539942
 20
1334.876468285676
 30
0.0
 10
702.9742735825514
 20
1334.754997337662
 30
0.0
 10
703.9904426973999
 20
1334.460699809044
 30
0.0
 10
705.3349814072131
 20
1334.111729458034
 30
0.0
 10
707.00061688706
 20
1333.741390686265
 30
0.0
 10
708.9200968334958
 20
1333.397360704331
 30
0.0
 10
711.0690966380863
 20
1333.115327461593
 30
0.0
 10
712.5920594478004
 20
1332.993076579711
 30
0.0
 10
713.3701934248074
 20
1332.95204735447
 30
0.0
  0
SPLINE
  5
2C5
330
23A
100
AcDbEntity
  8
P-SANR-FIXT
100
AcDbSpline
210
0.0
220
0.0
230
1.0
 70
     8
 71
     3
 72
     9
 73
     5
 74
     0
 42
0.000000001
 43
0.0000000001
 40
0.4722222222222224
 40
0.4722222222222224
 40
0.4722222222222224
 40
0.4722222222222224
 40
0.5138888888888889
 40
0.5277777777777779
 40
0.5277777777777779
 40
0.5277777777777779
 40
0.5277777777777779
 10
714.5472168983097
 20
1332.905657424722
 30
0.0
 10
715.1393001428677
 20
1332.890080655763
 30
0.0
 10
715.9332039424811
 20
1332.884630065262
 30
0.0
 10
716.7170368143684
 20
1332.900098147023
 30
0.0
 10
716.9123793817773
 20
1332.905254498237
 30
0.0
  0
SPLINE
  5
2C6
330
23A
100
AcDbEntity
  8
P-SANR-FIXT
100
AcDbSpline
210
0.0
220
0.0
230
1.0
 70
     8
 71
     3
 72
    15
 73
    11
 74
     0
 42
0.000000001
 43
0.0000000001
 40
0.5555555555555558
 40
0.5555555555555558
 40
0.5555555555555558
 40
0.5555555555555558
 40
0.5833333333333333
 40
0.6527777777777777
 40
0.6875
 40
0.7222222222222223
 40
0.7569444444444445
 40
0.7916666666666668
 40
0.861111111111111
 40
0.9444444444444448
 40
0.9444444444444448
 40
0.9444444444444448
 40
0.9444444444444448
 10
718.0771299061852
 20
1332.951519290343
 30
0.0
 10
718.4629987460965
 20
1332.972001919647
 30
0.0
 10
719.805339581713
 20
1333.061238036304
 30
0.0
 10
721.590020531875
 20
1333.26325946611
 30
0.0
 10
723.2412705440014
 20
1333.524094193683
 30
0.0
 10
724.4264203110307
 20
1333.744331991418
 30
0.0
 10
725.5108069434016
 20
1333.976276383077
 30
0.0
 10
726.7478736931912
 20
1334.269829281087
 30
0.0
 10
728.2220377003523
 20
1334.676369125917
 30
0.0
 10
728.6646434453031
 20
1334.810557981412
 30
0.0
 10
728.8562169425978
 20
1334.871172624339
 30
0.0
  0
LINE
  5
2C7
330
23A
100
AcDbEntity
  8
P-SANR-FIXT
100
AcDbLine
 10
729.2250011932016
 20
1300.339628730053
 30
0.0
 11
702.2250011932015
 21
1300.339628730053
 31
0.0
  0
LINE
  5
2C8
330
23A
100
AcDbEntity
  8
P-SANR-FIXT
100
AcDbLine
 10
647.2250011932019
 20
1398.539628730053
 30
0.0
 11
647.225001193202
 21
1377.339628730053
 31
0.0
  0
LINE
  5
2C9
330
23A
100
AcDbEntity
  8
P-SANR-FIXT
100
AcDbLine
 10
647.225001193202
 20
1377.339628730053
 30
0.0
 11
647.2250011932021
 21
1356.139628730053
 31
0.0
  0
LINE
  5
2CA
330
23A
100
AcDbEntity
  8
P-SANR-FIXT
100
AcDbLine
 10
784.2250011932003
 20
1398.539628730053
 30
0.0
 11
784.2250011932004
 21
1377.339628730054
 31
0.0
  0
LINE
  5
2CB
330
23A
100
AcDbEntity
  8
P-SANR-FIXT
100
AcDbLine
 10
784.2250011932004
 20
1377.339628730054
 30
0.0
 11
784.2250011932005
 21
1356.139628730054
 31
0.0
  0
LINE
  5
2CC
330
23A
100
AcDbEntity
  8
P-SANR-FIXT
100
AcDbLine
 10
638.7250011932025
 20
1407.039628730053
 30
0.0
 11
634.3250011931587
 21
1407.039628730053
 31
0.0
  0
LINE
  5
2CD
330
23A
100
AcDbEntity
  8
P-SANR-FIXT
100
AcDbLine
 10
634.325001193159
 20
1347.639628730053
 30
0.0
 11
638.7250011932025
 21
1347.639628730053
 31
0.0
  0
LINE
  5
2CE
330
23A
100
AcDbEntity
  8
P-SANR-FIXT
100
AcDbLine
 10
797.1250011932463
 20
1407.039628730054
 30
0.0
 11
792.7250011932027
 21
1407.039628730054
 31
0.0
  0
LINE
  5
2CF
330
23A
100
AcDbEntity
  8
P-SANR-FIXT
100
AcDbLine
 10
792.7250011932028
 20
1347.639628730054
 30
0.0
 11
797.1250011932468
 21
1347.639628730054
 31
0.0
  0
LINE
  5
2D0
330
23A
100
AcDbEntity
  8
P-SANR-FIXT
100
AcDbLine
 10
792.7250011932027
 20
1407.039628730054
 30
0.0
 11
784.2250011932019
 21
1398.539628730053
 31
0.0
  0
LINE
  5
2D1
330
23A
100
AcDbEntity
  8
P-SANR-FIXT
100
AcDbLine
 10
784.2250011932019
 20
1356.139628730055
 30
0.0
 11
792.7250011932028
 21
1347.639628730054
 31
0.0
  0
LINE
  5
2D2
330
23A
100
AcDbEntity
  8
P-SANR-FIXT
100
AcDbLine
 10
647.2250011932033
 20
1398.539628730053
 30
0.0
 11
638.7250011932025
 21
1407.039628730053
 31
0.0
  0
LINE
  5
2D3
330
23A
100
AcDbEntity
  8
P-SANR-FIXT
100
AcDbLine
 10
638.7250011932025
 20
1347.639628730053
 30
0.0
 11
647.2250011932033
 21
1356.139628730054
 31
0.0
  0
LINE
  5
2D4
330
23A
100
AcDbEntity
  8
P-SANR-FIXT
100
AcDbLine
 10
638.7250011932012
 20
1377.339628730053
 30
0.0
 11
638.7250011932011
 21
1407.039628730053
 31
0.0
  0
LINE
  5
2D5
330
23A
100
AcDbEntity
  8
P-SANR-FIXT
100
AcDbLine
 10
638.7250011932015
 20
1347.639628730053
 30
0.0
 11
638.7250011932012
 21
1377.339628730053
 31
0.0
  0
LINE
  5
2D6
330
23A
100
AcDbEntity
  8
P-SANR-FIXT
100
AcDbLine
 10
792.7250011932011
 20
1407.039628730054
 30
0.0
 11
792.7250011932012
 21
1377.339628730054
 31
0.0
  0
LINE
  5
2D7
330
23A
100
AcDbEntity
  8
P-SANR-FIXT
100
AcDbLine
 10
792.7250011932012
 20
1377.339628730054
 30
0.0
 11
792.7250011932013
 21
1347.639628730054
 31
0.0
  0
LINE
  5
2D8
330
23A
100
AcDbEntity
  8
P-SANR-FIXT
100
AcDbLine
 10
647.2250011932019
 20
1398.539628730052
 30
0.0
 11
647.225001193202
 21
1377.339628730053
 31
0.0
  0
LINE
  5
2D9
330
23A
100
AcDbEntity
  8
P-SANR-FIXT
100
AcDbLine
 10
647.225001193202
 20
1377.339628730053
 30
0.0
 11
647.2250011932021
 21
1356.139628730054
 31
0.0
  0
LINE
  5
2DA
330
23A
100
AcDbEntity
  8
P-SANR-FIXT
100
AcDbLine
 10
784.2250011932003
 20
1398.539628730053
 30
0.0
 11
784.2250011932004
 21
1377.339628730054
 31
0.0
  0
LINE
  5
2DB
330
23A
100
AcDbEntity
  8
P-SANR-FIXT
100
AcDbLine
 10
784.2250011932004
 20
1377.339628730054
 30
0.0
 11
784.2250011932005
 21
1356.139628730054
 31
0.0
  0
ENDBLK
  5
2DD
330
23A
100
AcDbEntity
  8
0
100
AcDbBlockEnd
  0
BLOCK
  5
3C2
330
2DF
100
AcDbEntity
  8
0
100
AcDbBlockBegin
  2
Automatic flow rate regulator valve_Caleffi_121 DN15 - 1_2__-V2-Est - Idraulica
 70
     0
 10
0.0
 20
0.0
 30
0.0
  3
Automatic flow rate regulator valve_Caleffi_121 DN15 - 1_2__-V2-Est - Idraulica
  1

  0
LINE
  5
2E0
330
2DF
100
AcDbEntity
  8
M-PIPE
100
AcDbLine
 10
1164.864353943105
 20
2214.482558850061
 30
0.0
 11
1164.864353943105
 21
2211.482558850061
 31
0.0
1001
REVIT
1002
{
1070
     3
1000
790271
1002
}
  0
LINE
  5
2E1
330
2DF
100
AcDbEntity
  8
M-PIPE
100
AcDbLine
 10
1179.364353943106
 20
2211.482558850061
 30
0.0
 11
1179.364353943106
 21
2214.48255885006
 31
0.0
1001
REVIT
1002
{
1070
     3
1000
790271
1002
}
  0
LINE
  5
2E2
330
2DF
100
AcDbEntity
  8
M-PIPE
100
AcDbLine
 10
1167.614353943106
 20
2222.868524957246
 30
0.0
 11
1167.614353943105
 21
2214.482558850061
 31
0.0
1001
REVIT
1002
{
1070
     3
1000
790271
1002
}
  0
LINE
  5
2E3
330
2DF
100
AcDbEntity
  8
M-PIPE
100
AcDbLine
 10
1176.614353943105
 20
2214.48255885006
 30
0.0
 11
1176.614353943105
 21
2222.868524957245
 31
0.0
1001
REVIT
1002
{
1070
     3
1000
790271
1002
}
  0
LINE
  5
2E4
330
2DF
100
AcDbEntity
  8
M-PIPE
100
AcDbLine
 10
1172.114353943103
 20
2214.482558850059
 30
0.0
 11
1164.864353943103
 21
2214.482558850059
 31
0.0
1001
REVIT
1002
{
1070
     3
1000
790271
1002
}
  0
LINE
  5
2E5
330
2DF
100
AcDbEntity
  8
M-PIPE
100
AcDbLine
 10
1179.364353943103
 20
2214.482558850059
 30
0.0
 11
1172.114353943103
 21
2214.482558850059
 31
0.0
1001
REVIT
1002
{
1070
     3
1000
790271
1002
}
  0
LINE
  5
2E6
330
2DF
100
AcDbEntity
  8
M-PIPE
100
AcDbLine
 10
1166.114353943106
 20
2233.982558850073
 30
0.0
 11
1166.114353943106
 21
2222.868524957246
 31
0.0
1001
REVIT
1002
{
1070
     3
1000
790271
1002
}
  0
LINE
  5
2E7
330
2DF
100
AcDbEntity
  8
M-PIPE
100
AcDbLine
 10
1178.114353943105
 20
2222.868524957245
 30
0.0
 11
1178.114353943105
 21
2233.982558850073
 31
0.0
1001
REVIT
1002
{
1070
     3
1000
790271
1002
}
  0
LINE
  5
2E8
330
2DF
100
AcDbEntity
  8
M-PIPE
100
AcDbLine
 10
1172.114353943103
 20
2233.982558850072
 30
0.0
 11
1166.114353943103
 21
2233.982558850072
 31
0.0
1001
REVIT
1002
{
1070
     3
1000
790271
1002
}
  0
LINE
  5
2E9
330
2DF
100
AcDbEntity
  8
M-PIPE
100
AcDbLine
 10
1178.114353943104
 20
2233.982558850072
 30
0.0
 11
1172.114353943103
 21
2233.982558850072
 31
0.0
1001
REVIT
1002
{
1070
     3
1000
790271
1002
}
  0
LINE
  5
2EA
330
2DF
100
AcDbEntity
  8
M-PIPE
100
AcDbLine
 10
1166.114353943103
 20
2222.868524957245
 30
0.0
 11
1172.114353943103
 21
2222.868524957245
 31
0.0
1001
REVIT
1002
{
1070
     3
1000
790271
1002
}
  0
LINE
  5
2EB
330
2DF
100
AcDbEntity
  8
M-PIPE
100
AcDbLine
 10
1172.114353943103
 20
2222.868524957245
 30
0.0
 11
1178.114353943103
 21
2222.868524957245
 31
0.0
1001
REVIT
1002
{
1070
     3
1000
790271
1002
}
  0
LINE
  5
2EC
330
2DF
100
AcDbEntity
  8
M-PIPE
100
AcDbLine
 10
1158.114353943105
 20
2142.482558850015
 30
0.0
 11
1158.114353943104
 21
2127.482558850042
 31
0.0
1001
REVIT
1002
{
1070
     3
1000
790271
1002
}
  0
LINE
  5
2ED
330
2DF
100
AcDbEntity
  8
M-PIPE
100
AcDbLine
 10
1186.114353943104
 20
2127.482558850042
 30
0.0
 11
1186.114353943104
 21
2142.482558850014
 31
0.0
1001
REVIT
1002
{
1070
     3
1000
790271
1002
}
  0
LINE
  5
2EE
330
2DF
100
AcDbEntity
  8
M-PIPE
100
AcDbLine
 10
1164.441416449064
 20
2142.482558850014
 30
0.0
 11
1165.809593836619
 21
2142.482558850014
 31
0.0
1001
REVIT
1002
{
1070
     3
1000
790271
1002
}
  0
LINE
  5
2EF
330
2DF
100
AcDbEntity
  8
M-PIPE
100
AcDbLine
 10
1178.419114049585
 20
2142.482558850014
 30
0.0
 11
1179.787291437194
 21
2142.482558850014
 31
0.0
1001
REVIT
1002
{
1070
     3
1000
790271
1002
}
  0
LINE
  5
2F0
330
2DF
100
AcDbEntity
  8
M-PIPE
100
AcDbLine
 10
1168.579290852376
 20
2127.482558850041
 30
0.0
 11
1165.809593836618
 21
2127.482558850041
 31
0.0
1001
REVIT
1002
{
1070
     3
1000
790271
1002
}
  0
LINE
  5
2F1
330
2DF
100
AcDbEntity
  8
M-PIPE
100
AcDbLine
 10
1164.441416449065
 20
2127.482558850041
 30
0.0
 11
1163.060116424588
 21
2127.482558850041
 31
0.0
1001
REVIT
1002
{
1070
     3
1000
790271
1002
}
  0
LINE
  5
2F2
330
2DF
100
AcDbEntity
  8
M-PIPE
100
AcDbLine
 10
1159.532192892918
 20
2127.482558850041
 30
0.0
 11
1158.136656342564
 21
2127.482558850041
 31
0.0
1001
REVIT
1002
{
1070
     3
1000
790271
1002
}
  0
LINE
  5
2F3
330
2DF
100
AcDbEntity
  8
M-PIPE
100
AcDbLine
 10
1186.092051543636
 20
2127.482558850041
 30
0.0
 11
1184.696514993266
 21
2127.482558850041
 31
0.0
1001
REVIT
1002
{
1070
     3
1000
790271
1002
}
  0
LINE
  5
2F4
330
2DF
100
AcDbEntity
  8
M-PIPE
100
AcDbLine
 10
1181.168591461684
 20
2127.482558850041
 30
0.0
 11
1179.787291437194
 21
2127.482558850041
 31
0.0
1001
REVIT
1002
{
1070
     3
1000
790271
1002
}
  0
LINE
  5
2F5
330
2DF
100
AcDbEntity
  8
M-PIPE
100
AcDbLine
 10
1178.419114049586
 20
2127.482558850041
 30
0.0
 11
1175.649417033831
 21
2127.482558850041
 31
0.0
1001
REVIT
1002
{
1070
     3
1000
790271
1002
}
  0
LINE
  5
2F6
330
2DF
100
AcDbEntity
  8
M-PIPE
100
AcDbLine
 10
1158.136656342564
 20
2127.482558850041
 30
0.0
 11
1158.114353943102
 21
2127.482558850041
 31
0.0
1001
REVIT
1002
{
1070
     3
1000
790271
1002
}
  0
LINE
  5
2F7
330
2DF
100
AcDbEntity
  8
M-PIPE
100
AcDbLine
 10
1158.136656342565
 20
2127.482558850041
 30
0.0
 11
1158.136656342565
 21
2142.482558850014
 31
0.0
1001
REVIT
1002
{
1070
     3
1000
790271
1002
}
  0
LINE
  5
2F8
330
2DF
100
AcDbEntity
  8
M-PIPE
100
AcDbLine
 10
1164.441416449064
 20
2142.482558850014
 30
0.0
 11
1164.441416449064
 21
2127.482558850041
 31
0.0
1001
REVIT
1002
{
1070
     3
1000
790271
1002
}
  0
LINE
  5
2F9
330
2DF
100
AcDbEntity
  8
M-PIPE
100
AcDbLine
 10
1165.809593836618
 20
2127.482558850041
 30
0.0
 11
1164.441416449065
 21
2127.482558850041
 31
0.0
1001
REVIT
1002
{
1070
     3
1000
790271
1002
}
  0
LINE
  5
2FA
330
2DF
100
AcDbEntity
  8
M-PIPE
100
AcDbLine
 10
1165.809593836619
 20
2127.482558850041
 30
0.0
 11
1165.809593836619
 21
2142.482558850014
 31
0.0
1001
REVIT
1002
{
1070
     3
1000
790271
1002
}
  0
LINE
  5
2FB
330
2DF
100
AcDbEntity
  8
M-PIPE
100
AcDbLine
 10
1178.419114049585
 20
2142.482558850014
 30
0.0
 11
1178.419114049585
 21
2127.482558850041
 31
0.0
1001
REVIT
1002
{
1070
     3
1000
790271
1002
}
  0
LINE
  5
2FC
330
2DF
100
AcDbEntity
  8
M-PIPE
100
AcDbLine
 10
1179.787291437194
 20
2127.482558850041
 30
0.0
 11
1178.419114049586
 21
2127.482558850041
 31
0.0
1001
REVIT
1002
{
1070
     3
1000
790271
1002
}
  0
LINE
  5
2FD
330
2DF
100
AcDbEntity
  8
M-PIPE
100
AcDbLine
 10
1179.787291437193
 20
2127.482558850041
 30
0.0
 11
1179.787291437193
 21
2142.482558850014
 31
0.0
1001
REVIT
1002
{
1070
     3
1000
790271
1002
}
  0
LINE
  5
2FE
330
2DF
100
AcDbEntity
  8
M-PIPE
100
AcDbLine
 10
1186.092051543636
 20
2142.482558850014
 30
0.0
 11
1186.092051543636
 21
2127.482558850041
 31
0.0
1001
REVIT
1002
{
1070
     3
1000
790271
1002
}
  0
LINE
  5
2FF
330
2DF
100
AcDbEntity
  8
M-PIPE
100
AcDbLine
 10
1186.114353943102
 20
2127.482558850041
 30
0.0
 11
1186.092051543636
 21
2127.482558850041
 31
0.0
1001
REVIT
1002
{
1070
     3
1000
790271
1002
}
  0
LINE
  5
300
330
2DF
100
AcDbEntity
  8
M-PIPE
100
AcDbLine
 10
1148.614353943104
 20
2201.982558850061
 30
0.0
 11
1148.614353943103
 21
2149.482558850029
 31
0.0
1001
REVIT
1002
{
1070
     3
1000
790271
1002
}
  0
LINE
  5
301
330
2DF
100
AcDbEntity
  8
M-PIPE
100
AcDbLine
 10
1195.614353943105
 20
2149.482558850028
 30
0.0
 11
1195.614353943106
 21
2201.98255885006
 31
0.0
1001
REVIT
1002
{
1070
     3
1000
790271
1002
}
  0
LINE
  5
302
330
2DF
100
AcDbEntity
  8
M-PIPE
100
AcDbLine
 10
1144.614353943105
 20
2211.482558850061
 30
0.0
 11
1144.614353943105
 21
2201.982558850061
 31
0.0
1001
REVIT
1002
{
1070
     3
1000
790271
1002
}
  0
LINE
  5
303
330
2DF
100
AcDbEntity
  8
M-PIPE
100
AcDbLine
 10
1199.614353943105
 20
2201.98255885006
 30
0.0
 11
1199.614353943106
 21
2211.482558850061
 31
0.0
1001
REVIT
1002
{
1070
     3
1000
790271
1002
}
  0
LINE
  5
304
330
2DF
100
AcDbEntity
  8
M-PIPE
100
AcDbLine
 10
1170.350943959565
 20
2142.482558850014
 30
0.0
 11
1159.877763926658
 21
2142.482558850014
 31
0.0
1001
REVIT
1002
{
1070
     3
1000
790271
1002
}
  0
LINE
  5
305
330
2DF
100
AcDbEntity
  8
M-PIPE
100
AcDbLine
 10
1184.350943959521
 20
2142.482558850014
 30
0.0
 11
1173.877763926681
 21
2142.482558850014
 31
0.0
1001
REVIT
1002
{
1070
     3
1000
790271
1002
}
  0
LINE
  5
306
330
2DF
100
AcDbEntity
  8
M-PIPE
100
AcDbLine
 10
1159.877763926658
 20
2142.482558850014
 30
0.0
 11
1158.114353943119
 21
2142.482558850014
 31
0.0
1001
REVIT
1002
{
1070
     3
1000
790271
1002
}
  0
LINE
  5
307
330
2DF
100
AcDbEntity
  8
M-PIPE
100
AcDbLine
 10
1159.877763926657
 20
2142.482558850014
 30
0.0
 11
1159.877763926657
 21
2149.482558850016
 31
0.0
1001
REVIT
1002
{
1070
     3
1000
790271
1002
}
  0
LINE
  5
308
330
2DF
100
AcDbEntity
  8
M-PIPE
100
AcDbLine
 10
1158.114353943119
 20
2149.482558850016
 30
0.0
 11
1158.114353943119
 21
2142.482558850014
 31
0.0
1001
REVIT
1002
{
1070
     3
1000
790271
1002
}
  0
LINE
  5
309
330
2DF
100
AcDbEntity
  8
M-PIPE
100
AcDbLine
 10
1170.350943959566
 20
2149.482558850016
 30
0.0
 11
1170.350943959566
 21
2142.482558850014
 31
0.0
1001
REVIT
1002
{
1070
     3
1000
790271
1002
}
  0
LINE
  5
30A
330
2DF
100
AcDbEntity
  8
M-PIPE
100
AcDbLine
 10
1172.114353943102
 20
2142.482558850014
 30
0.0
 11
1170.350943959566
 21
2142.482558850014
 31
0.0
1001
REVIT
1002
{
1070
     3
1000
790271
1002
}
  0
LINE
  5
30B
330
2DF
100
AcDbEntity
  8
M-PIPE
100
AcDbLine
 10
1173.877763926681
 20
2142.482558850014
 30
0.0
 11
1172.114353943102
 21
2142.482558850014
 31
0.0
1001
REVIT
1002
{
1070
     3
1000
790271
1002
}
  0
LINE
  5
30C
330
2DF
100
AcDbEntity
  8
M-PIPE
100
AcDbLine
 10
1173.87776392668
 20
2142.482558850014
 30
0.0
 11
1173.877763926681
 21
2149.482558850016
 31
0.0
1001
REVIT
1002
{
1070
     3
1000
790271
1002
}
  0
LINE
  5
30D
330
2DF
100
AcDbEntity
  8
M-PIPE
100
AcDbLine
 10
1186.114353943119
 20
2142.482558850014
 30
0.0
 11
1184.350943959522
 21
2142.482558850014
 31
0.0
1001
REVIT
1002
{
1070
     3
1000
790271
1002
}
  0
LINE
  5
30E
330
2DF
100
AcDbEntity
  8
M-PIPE
100
AcDbLine
 10
1186.114353943119
 20
2142.482558850014
 30
0.0
 11
1186.114353943119
 21
2149.482558850015
 31
0.0
1001
REVIT
1002
{
1070
     3
1000
790271
1002
}
  0
LINE
  5
30F
330
2DF
100
AcDbEntity
  8
M-PIPE
100
AcDbLine
 10
1184.350943959522
 20
2149.482558850015
 30
0.0
 11
1184.350943959521
 21
2142.482558850014
 31
0.0
1001
REVIT
1002
{
1070
     3
1000
790271
1002
}
  0
LINE
  5
310
330
2DF
100
AcDbEntity
  8
M-PIPE
100
AcDbLine
 10
1172.114353943102
 20
2149.482558850028
 30
0.0
 11
1148.614353943101
 21
2149.482558850028
 31
0.0
1001
REVIT
1002
{
1070
     3
1000
790271
1002
}
  0
LINE
  5
311
330
2DF
100
AcDbEntity
  8
M-PIPE
100
AcDbLine
 10
1195.614353943103
 20
2149.482558850027
 30
0.0
 11
1172.114353943102
 21
2149.482558850028
 31
0.0
1001
REVIT
1002
{
1070
     3
1000
790271
1002
}
  0
LINE
  5
312
330
2DF
100
AcDbEntity
  8
M-PIPE
100
AcDbLine
 10
1144.614353943103
 20
2211.48255885006
 30
0.0
 11
1172.114353943103
 21
2211.482558850059
 31
0.0
1001
REVIT
1002
{
1070
     3
1000
790271
1002
}
  0
LINE
  5
313
330
2DF
100
AcDbEntity
  8
M-PIPE
100
AcDbLine
 10
1172.114353943103
 20
2211.482558850059
 30
0.0
 11
1199.614353943103
 21
2211.482558850059
 31
0.0
1001
REVIT
1002
{
1070
     3
1000
790271
1002
}
  0
LINE
  5
314
330
2DF
100
AcDbEntity
  8
M-PIPE
100
AcDbLine
 10
1144.614353943103
 20
2201.98255885006
 30
0.0
 11
1172.114353943103
 21
2201.98255885006
 31
0.0
1001
REVIT
1002
{
1070
     3
1000
790271
1002
}
  0
LINE
  5
315
330
2DF
100
AcDbEntity
  8
M-PIPE
100
AcDbLine
 10
1172.114353943103
 20
2201.98255885006
 30
0.0
 11
1199.614353943103
 21
2201.982558850059
 31
0.0
1001
REVIT
1002
{
1070
     3
1000
790271
1002
}
  0
LINE
  5
316
330
2DF
100
AcDbEntity
  8
M-PIPE
100
AcDbLine
 10
1169.614353943095
 20
1604.257821109016
 30
0.0
 11
1169.614353943096
 21
1623.082558850108
 31
0.0
1001
REVIT
1002
{
1070
     3
1000
790271
1002
}
  0
LINE
  5
317
330
2DF
100
AcDbEntity
  8
M-PIPE
100
AcDbLine
 10
1174.614353943096
 20
1623.082558850108
 30
0.0
 11
1174.614353943096
 21
1604.257821109016
 31
0.0
1001
REVIT
1002
{
1070
     3
1000
790271
1002
}
  0
LINE
  5
318
330
2DF
100
AcDbEntity
  8
M-PIPE
100
AcDbLine
 10
1174.614353943096
 20
1623.082558850108
 30
0.0
 11
1169.614353943096
 21
1623.082558850108
 31
0.0
1001
REVIT
1002
{
1070
     3
1000
790271
1002
}
  0
ARC
  5
319
330
2DF
100
AcDbEntity
  8
M-PIPE
100
AcDbCircle
 10
1172.114353943095
 20
1600.082558849982
 30
0.0
 40
8.250000000126618
100
AcDbArc
 50
269.9999999999981
 51
72.32300428111884
1001
REVIT
1002
{
1070
     3
1000
790271
1002
}
  0
ARC
  5
31A
330
2DF
100
AcDbEntity
  8
M-PIPE
100
AcDbCircle
 10
1172.114353943095
 20
1600.082558849982
 30
0.0
 40
8.250000000126647
100
AcDbArc
 50
107.6769957188807
 51
269.9999999999981
1001
REVIT
1002
{
1070
     3
1000
790271
1002
}
  0
ARC
  5
31B
330
2DF
100
AcDbEntity
  8
M-PIPE
100
AcDbCircle
 10
1172.114353943095
 20
1600.082558849982
 30
0.0
 40
4.5
100
AcDbArc
 50
269.9999999999997
 51
90.0
1001
REVIT
1002
{
1070
     3
1000
790271
1002
}
  0
ARC
  5
31C
330
2DF
100
AcDbEntity
  8
M-PIPE
100
AcDbCircle
 10
1172.114353943095
 20
1600.082558849982
 30
0.0
 40
4.5
100
AcDbArc
 50
90.0
 51
269.9999999999968
1001
REVIT
1002
{
1070
     3
1000
790271
1002
}
  0
LINE
  5
31D
330
2DF
100
AcDbEntity
  8
M-PIPE
100
AcDbLine
 10
1170.337246681691
 20
1592.042430346302
 30
0.0
 11
1170.337246681691
 21
1591.082558849919
 31
0.0
1001
REVIT
1002
{
1070
     3
1000
790271
1002
}
  0
LINE
  5
31E
330
2DF
100
AcDbEntity
  8
M-PIPE
100
AcDbLine
 10
1170.337246681691
 20
1591.082558849919
 30
0.0
 11
1173.837246681691
 21
1591.082558849919
 31
0.0
1001
REVIT
1002
{
1070
     3
1000
790271
1002
}
  0
LINE
  5
31F
330
2DF
100
AcDbEntity
  8
M-PIPE
100
AcDbLine
 10
1173.837246681691
 20
1591.082558849919
 30
0.0
 11
1173.837246681691
 21
1592.031646407223
 31
0.0
1001
REVIT
1002
{
1070
     3
1000
790271
1002
}
  0
LINE
  5
320
330
2DF
100
AcDbEntity
  8
M-PIPE
100
AcDbLine
 10
1161.114353943098
 20
1592.582558849919
 30
0.0
 11
1162.795931352428
 21
1592.582558849919
 31
0.0
1001
REVIT
1002
{
1070
     3
1000
790271
1002
}
  0
LINE
  5
321
330
2DF
100
AcDbEntity
  8
M-PIPE
100
AcDbLine
 10
1181.432776533768
 20
1592.58255884992
 30
0.0
 11
1183.114353943098
 21
1592.58255884992
 31
0.0
1001
REVIT
1002
{
1070
     3
1000
790271
1002
}
  0
LINE
  5
322
330
2DF
100
AcDbEntity
  8
M-PIPE
100
AcDbLine
 10
1183.114353943098
 20
1607.58255884992
 30
0.0
 11
1179.617222191781
 21
1607.58255884992
 31
0.0
1001
REVIT
1002
{
1070
     3
1000
790271
1002
}
  0
LINE
  5
323
330
2DF
100
AcDbEntity
  8
M-PIPE
100
AcDbLine
 10
1164.611485694415
 20
1607.582558849919
 30
0.0
 11
1161.114353943098
 21
1607.582558849919
 31
0.0
1001
REVIT
1002
{
1070
     3
1000
790271
1002
}
  0
LINE
  5
324
330
2DF
100
AcDbEntity
  8
M-PIPE
100
AcDbLine
 10
1183.114353943096
 20
1594.582558849919
 30
0.0
 11
1183.114353943096
 21
1592.582558849919
 31
0.0
1001
REVIT
1002
{
1070
     3
1000
790271
1002
}
  0
LINE
  5
325
330
2DF
100
AcDbEntity
  8
M-PIPE
100
AcDbLine
 10
1183.114353943095
 20
1607.582558849919
 30
0.0
 11
1183.114353943095
 21
1605.58255884992
 31
0.0
1001
REVIT
1002
{
1070
     3
1000
790271
1002
}
  0
LINE
  5
326
330
2DF
100
AcDbEntity
  8
M-PIPE
100
AcDbLine
 10
1183.114353943095
 20
1605.582558849919
 30
0.0
 11
1183.114353943096
 21
1600.082558849919
 31
0.0
1001
REVIT
1002
{
1070
     3
1000
790271
1002
}
  0
LINE
  5
327
330
2DF
100
AcDbEntity
  8
M-PIPE
100
AcDbLine
 10
1183.114353943096
 20
1600.082558849919
 30
0.0
 11
1183.114353943096
 21
1594.582558849919
 31
0.0
1001
REVIT
1002
{
1070
     3
1000
790271
1002
}
  0
LINE
  5
328
330
2DF
100
AcDbEntity
  8
M-PIPE
100
AcDbLine
 10
1161.114353943096
 20
1594.582558849919
 30
0.0
 11
1161.114353943096
 21
1600.082558849919
 31
0.0
1001
REVIT
1002
{
1070
     3
1000
790271
1002
}
  0
LINE
  5
329
330
2DF
100
AcDbEntity
  8
M-PIPE
100
AcDbLine
 10
1161.114353943096
 20
1600.082558849919
 30
0.0
 11
1161.114353943096
 21
1605.582558849919
 31
0.0
1001
REVIT
1002
{
1070
     3
1000
790271
1002
}
  0
LINE
  5
32A
330
2DF
100
AcDbEntity
  8
M-PIPE
100
AcDbLine
 10
1161.114353943096
 20
1605.582558849919
 30
0.0
 11
1161.114353943095
 21
1607.582558849919
 31
0.0
1001
REVIT
1002
{
1070
     3
1000
790271
1002
}
  0
LINE
  5
32B
330
2DF
100
AcDbEntity
  8
M-PIPE
100
AcDbLine
 10
1161.114353943096
 20
1592.582558849919
 30
0.0
 11
1161.114353943096
 21
1594.582558849919
 31
0.0
1001
REVIT
1002
{
1070
     3
1000
790271
1002
}
  0
LINE
  5
32C
330
2DF
100
AcDbEntity
  8
M-PIPE
100
AcDbLine
 10
1162.614353943097
 20
1612.482558850011
 30
0.0
 11
1162.614353943097
 21
1607.582558849964
 31
0.0
1001
REVIT
1002
{
1070
     3
1000
790271
1002
}
  0
LINE
  5
32D
330
2DF
100
AcDbEntity
  8
M-PIPE
100
AcDbLine
 10
1181.614353943098
 20
1607.582558849965
 30
0.0
 11
1181.614353943098
 21
1612.482558850011
 31
0.0
1001
REVIT
1002
{
1070
     3
1000
790271
1002
}
  0
LINE
  5
32E
330
2DF
100
AcDbEntity
  8
M-PIPE
100
AcDbLine
 10
1161.131992033258
 20
1606.100196940125
 30
0.0
 11
1161.114353943098
 21
1606.082558849965
 31
0.0
1001
REVIT
1002
{
1070
     3
1000
790271
1002
}
  0
LINE
  5
32F
330
2DF
100
AcDbEntity
  8
M-PIPE
100
AcDbLine
 10
1183.114353943098
 20
1606.082558849965
 30
0.0
 11
1183.096715852938
 21
1606.100196940125
 31
0.0
1001
REVIT
1002
{
1070
     3
1000
790271
1002
}
  0
LINE
  5
330
330
2DF
100
AcDbEntity
  8
M-PIPE
100
AcDbLine
 10
1161.114353943098
 20
1592.582558849919
 30
0.0
 11
1161.114353943098
 21
1586.482558849961
 31
0.0
1001
REVIT
1002
{
1070
     3
1000
790271
1002
}
  0
LINE
  5
331
330
2DF
100
AcDbEntity
  8
M-PIPE
100
AcDbLine
 10
1183.114353943098
 20
1586.482558849962
 30
0.0
 11
1183.114353943098
 21
1592.58255884992
 31
0.0
1001
REVIT
1002
{
1070
     3
1000
790271
1002
}
  0
LINE
  5
332
330
2DF
100
AcDbEntity
  8
M-PIPE
100
AcDbLine
 10
1158.114353943098
 20
1586.482558849961
 30
0.0
 11
1158.114353943098
 21
1577.982558849961
 31
0.0
1001
REVIT
1002
{
1070
     3
1000
790271
1002
}
  0
LINE
  5
333
330
2DF
100
AcDbEntity
  8
M-PIPE
100
AcDbLine
 10
1186.114353943098
 20
1577.982558849962
 30
0.0
 11
1186.114353943098
 21
1586.482558849962
 31
0.0
1001
REVIT
1002
{
1070
     3
1000
790271
1002
}
  0
LINE
  5
334
330
2DF
100
AcDbEntity
  8
M-PIPE
100
AcDbLine
 10
1164.814353943097
 20
1577.982558849961
 30
0.0
 11
1164.814353943098
 21
1554.982558849961
 31
0.0
1001
REVIT
1002
{
1070
     3
1000
790271
1002
}
  0
LINE
  5
335
330
2DF
100
AcDbEntity
  8
M-PIPE
100
AcDbLine
 10
1179.414353943099
 20
1554.982558849961
 30
0.0
 11
1179.414353943099
 21
1577.982558849961
 31
0.0
1001
REVIT
1002
{
1070
     3
1000
790271
1002
}
  0
LINE
  5
336
330
2DF
100
AcDbEntity
  8
M-PIPE
100
AcDbLine
 10
1164.37487540956
 20
1607.582558849964
 30
0.0
 11
1168.705525624282
 21
1607.582558849964
 31
0.0
1001
REVIT
1002
{
1070
     3
1000
790271
1002
}
  0
LINE
  5
337
330
2DF
100
AcDbEntity
  8
M-PIPE
100
AcDbLine
 10
1175.523182261909
 20
1607.582558849964
 30
0.0
 11
1179.853832476632
 21
1607.582558849964
 31
0.0
1001
REVIT
1002
{
1070
     3
1000
790271
1002
}
  0
LINE
  5
338
330
2DF
100
AcDbEntity
  8
M-PIPE
100
AcDbLine
 10
1164.010885200798
 20
1606.082558849964
 30
0.0
 11
1166.461352589238
 21
1606.082558849964
 31
0.0
1001
REVIT
1002
{
1070
     3
1000
790271
1002
}
  0
LINE
  5
339
330
2DF
100
AcDbEntity
  8
M-PIPE
100
AcDbLine
 10
1177.767355296952
 20
1606.082558849965
 30
0.0
 11
1180.217822685392
 21
1606.082558849965
 31
0.0
1001
REVIT
1002
{
1070
     3
1000
790271
1002
}
  0
LINE
  5
33A
330
2DF
100
AcDbEntity
  8
M-PIPE
100
AcDbLine
 10
1158.114353943096
 20
1586.482558849961
 30
0.0
 11
1172.114353943096
 21
1586.482558849961
 31
0.0
1001
REVIT
1002
{
1070
     3
1000
790271
1002
}
  0
LINE
  5
33B
330
2DF
100
AcDbEntity
  8
M-PIPE
100
AcDbLine
 10
1172.114353943096
 20
1586.482558849961
 30
0.0
 11
1186.114353943096
 21
1586.482558849961
 31
0.0
1001
REVIT
1002
{
1070
     3
1000
790271
1002
}
  0
LINE
  5
33C
330
2DF
100
AcDbEntity
  8
M-PIPE
100
AcDbLine
 10
1158.114353943096
 20
1577.98255884996
 30
0.0
 11
1172.114353943096
 21
1577.982558849961
 31
0.0
1001
REVIT
1002
{
1070
     3
1000
790271
1002
}
  0
LINE
  5
33D
330
2DF
100
AcDbEntity
  8
M-PIPE
100
AcDbLine
 10
1172.114353943096
 20
1577.982558849961
 30
0.0
 11
1186.114353943096
 21
1577.982558849961
 31
0.0
1001
REVIT
1002
{
1070
     3
1000
790271
1002
}
  0
LINE
  5
33E
330
2DF
100
AcDbEntity
  8
M-PIPE
100
AcDbLine
 10
1164.814353943095
 20
1554.982558849961
 30
0.0
 11
1172.114353943096
 21
1554.982558849961
 31
0.0
1001
REVIT
1002
{
1070
     3
1000
790271
1002
}
  0
LINE
  5
33F
330
2DF
100
AcDbEntity
  8
M-PIPE
100
AcDbLine
 10
1172.114353943096
 20
1554.982558849961
 30
0.0
 11
1179.414353943097
 21
1554.982558849961
 31
0.0
1001
REVIT
1002
{
1070
     3
1000
790271
1002
}
  0
ARC
  5
340
330
2DF
100
AcDbEntity
  8
P-SANR-FIXT
100
AcDbCircle
 10
1172.114353943103
 20
1779.982558850011
 30
0.0
 40
35.00000000000001
100
AcDbArc
 50
223.3259824751832
 51
256.6740175248166
  0
ARC
  5
341
330
2DF
100
AcDbEntity
  8
P-SANR-FIXT
100
AcDbCircle
 10
1172.114353943103
 20
1779.982558850011
 30
0.0
 40
35.0
100
AcDbArc
 50
163.3259824747422
 51
196.6740175252578
  0
ARC
  5
342
330
2DF
100
AcDbEntity
  8
P-SANR-FIXT
100
AcDbCircle
 10
1172.114353943103
 20
1779.982558850011
 30
0.0
 40
34.99999999999999
100
AcDbArc
 50
103.3259824748537
 51
136.6740175251474
  0
ARC
  5
343
330
2DF
100
AcDbEntity
  8
P-SANR-FIXT
100
AcDbCircle
 10
1172.114353943103
 20
2019.98255885001
 30
0.0
 40
35.00000000000011
100
AcDbArc
 50
223.3259824751841
 51
256.6740175248144
  0
ARC
  5
344
330
2DF
100
AcDbEntity
  8
P-SANR-FIXT
100
AcDbCircle
 10
1172.114353943103
 20
2019.98255885001
 30
0.0
 40
35.00000000000014
100
AcDbArc
 50
163.325982474742
 51
196.674017525259
  0
ARC
  5
345
330
2DF
100
AcDbEntity
  8
P-SANR-FIXT
100
AcDbCircle
 10
1172.114353943103
 20
2019.98255885001
 30
0.0
 40
34.99999999999983
100
AcDbArc
 50
103.3259824748529
 51
136.6740175251478
  0
LWPOLYLINE
  5
346
330
2DF
100
AcDbEntity
  8
P-SANR-FIXT
100
AcDbPolyline
 90
       41
 70
   128
 43
0.0
 10
1149.614353943107
 20
1625.482558850011
 10
1148.014780575641
 20
1625.514554583572
 10
1146.41776618434
 20
1625.610490597906
 10
1144.82586565155
 20
1625.770213415856
 10
1143.241625678537
 20
1625.993467514986
 10
1141.667580711304
 20
1626.279895736361
 10
1140.106248886021
 20
1626.62903985593
 10
1138.560128000542
 20
1627.04034131758
 10
1137.031691518462
 20
1627.513142126713
 10
1135.523384612103
 20
1628.046685902893
 10
1134.037620250761
 20
1628.640119089896
 10
1132.576775340467
 20
1629.292492321212
 10
1131.143186921447
 20
1630.002761938839
 10
1129.739148429357
 20
1630.769791662904
 10
1128.366906026271
 20
1631.592354409474
 10
1127.028655007305
 20
1632.469134253623
 10
1125.726536288611
 20
1633.398728534639
 10
1124.462632982368
 20
1634.379650099974
 10
1123.238967064247
 20
1635.410329684375
 10
1122.057496138685
 20
1636.489118420374
 10
1120.920110307126
 20
1637.614290476124
 10
1119.828629144272
 20
1638.784045816358
 10
1118.784798787148
 20
1639.996513082067
 10
1117.790289141652
 20
1641.249752584272
 10
1116.846691211066
 20
1642.541759407112
 10
1115.95551455079
 20
1643.870466615285
 10
1115.118184853373
 20
1645.233748560699
 10
1114.336041667709
 20
1646.629424283061
 10
1113.610336256046
 20
1648.055260998942
 10
1112.942229592235
 20
1649.50897767376
 10
1112.332790504417
 20
1650.988248670944
 10
1111.782993965125
 20
1652.490707472459
 10
1111.293719531537
 20
1654.013950464732
 10
1110.865749938376
 20
1655.555540783916
 10
1110.499769845694
 20
1657.113012214353
 10
1110.196364743568
 20
1658.683873134001
 10
1109.956020015439
 20
1660.265610500484
 10
1109.779120161601
 20
1661.855693871438
 10
1109.665948184083
 20
1663.451579452668
 10
1109.616685133907
 20
1665.05071416768
 10
1109.614353943106
 20
1665.482558850011
  0
LWPOLYLINE
  5
347
330
2DF
100
AcDbEntity
  8
P-SANR-FIXT
100
AcDbPolyline
 90
       25
 70
   128
 43
0.0
 10
1158.614353943108
 20
1625.482558850011
 10
1157.96651090269
 20
1625.482558850011
 10
1157.278198823748
 20
1625.482558850011
 10
1156.613621428119
 20
1625.482558850011
 10
1155.973841897867
 20
1625.482558850011
 10
1155.359883743762
 20
1625.482558850011
 10
1154.772729167879
 20
1625.482558850011
 10
1154.213317492288
 20
1625.482558850011
 10
1153.682543656334
 20
1625.482558850011
 10
1153.181256784929
 20
1625.482558850011
 10
1152.710258830131
 20
1625.482558850011
 10
1152.270303288195
 20
1625.482558850011
 10
1151.862093994135
 20
1625.482558850011
 10
1151.486283995742
 20
1625.482558850011
 10
1151.143474508844
 20
1625.482558850011
 10
1150.834213955491
 20
1625.482558850011
 10
1150.558997086599
 20
1625.482558850011
 10
1150.318264190445
 20
1625.482558850011
 10
1150.112400388311
 20
1625.482558850011
 10
1149.941735018366
 20
1625.482558850011
 10
1149.806541108794
 20
1625.482558850011
 10
1149.707034941009
 20
1625.482558850011
 10
1149.643375703656
 20
1625.482558850011
 10
1149.615665237932
 20
1625.482558850011
 10
1149.614353943106
 20
1625.482558850011
  0
LWPOLYLINE
  5
348
330
2DF
100
AcDbEntity
  8
P-SANR-FIXT
100
AcDbPolyline
 90
       41
 70
   128
 43
0.0
 10
1149.614353943106
 20
1625.482558850011
 10
1149.632351543234
 20
1625.482558850011
 10
1149.686315551297
 20
1625.482558850011
 10
1149.776159636394
 20
1625.482558850011
 10
1149.901740067154
 20
1625.482558850011
 10
1150.062855941678
 20
1625.482558850011
 10
1150.259249508936
 20
1625.482558850011
 10
1150.490606581114
 20
1625.482558850011
 10
1150.756557036251
 20
1625.482558850011
 10
1151.056675410353
 20
1625.482558850011
 10
1151.390481578041
 20
1625.482558850011
 10
1151.757441520657
 20
1625.482558850011
 10
1152.156968180572
 20
1625.482558850011
 10
1152.588422400359
 20
1625.482558850011
 10
1153.051113945304
 20
1625.482558850011
 10
1153.544302607638
 20
1625.482558850011
 10
1154.067199390709
 20
1625.482558850011
 10
1154.61896777121
 20
1625.482558850011
 10
1155.198725037436
 20
1625.482558850011
 10
1155.805543701436
 20
1625.482558850011
 10
1156.438452982795
 20
1625.482558850011
 10
1157.096440361677
 20
1625.482558850011
 10
1157.778453198638
 20
1625.482558850011
 10
1158.483400418628
 20
1625.482558850011
 10
1159.210154256476
 20
1625.482558850011
 10
1159.957552061073
 20
1625.482558850011
 10
1160.724398155368
 20
1625.482558850011
 10
1161.509465749197
 20
1625.482558850011
 10
1162.31149890188
 20
1625.482558850011
 10
1163.129214531465
 20
1625.482558850011
 10
1163.961304467381
 20
1625.482558850011
 10
1164.806437543234
 20
1625.482558850011
 10
1165.663261726387
 20
1625.482558850011
 10
1166.530406280927
 20
1625.482558850011
 10
1167.406483960549
 20
1625.482558850011
 10
1168.29009322785
 20
1625.482558850011
 10
1169.179820496498
 20
1625.482558850011
 10
1170.074242392659
 20
1625.482558850011
 10
1170.9719280321
 20
1625.482558850011
 10
1171.871441309295
 20
1625.482558850011
 10
1172.114353943106
 20
1625.482558850011
  0
LINE
  5
349
330
2DF
100
AcDbEntity
  8
P-SANR-FIXT
100
AcDbLine
 10
1109.614353943106
 20
2075.482558850012
 30
0.0
 11
1109.614353943106
 21
1665.48255885001
 31
0.0
  0
LWPOLYLINE
  5
34A
330
2DF
100
AcDbEntity
  8
P-SANR-FIXT
100
AcDbPolyline
 90
       41
 70
   128
 43
0.0
 10
1109.614353943106
 20
2075.482558850011
 10
1109.646349676666
 20
2077.082132217476
 10
1109.742285691001
 20
2078.679146608779
 10
1109.902008508951
 20
2080.271047141568
 10
1110.125262608081
 20
2081.855287114581
 10
1110.411690829456
 20
2083.429332081814
 10
1110.760834949024
 20
2084.990663907097
 10
1111.172136410675
 20
2086.536784792576
 10
1111.644937219808
 20
2088.065221274657
 10
1112.178480995988
 20
2089.573528181015
 10
1112.77191418299
 20
2091.059292542357
 10
1113.424287414307
 20
2092.520137452652
 10
1114.134557031934
 20
2093.953725871671
 10
1114.901586755999
 20
2095.357764363761
 10
1115.724149502569
 20
2096.730006766847
 10
1116.600929346718
 20
2098.068257785813
 10
1117.530523627734
 20
2099.370376504507
 10
1118.511445193068
 20
2100.63427981075
 10
1119.54212477747
 20
2101.85794572887
 10
1120.620913513469
 20
2103.039416654433
 10
1121.746085569219
 20
2104.176802485992
 10
1122.915840909453
 20
2105.268283648846
 10
1124.128308175162
 20
2106.31211400597
 10
1125.381547677367
 20
2107.306623651466
 10
1126.673554500207
 20
2108.250221582052
 10
1128.00226170838
 20
2109.141398242327
 10
1129.365543653794
 20
2109.978727939745
 10
1130.761219376156
 20
2110.760871125409
 10
1132.187056092037
 20
2111.486576537072
 10
1133.640772766854
 20
2112.154683200882
 10
1135.120043764039
 20
2112.7641222887
 10
1136.622502565554
 20
2113.313918827993
 10
1138.145745557827
 20
2113.80319326158
 10
1139.68733587701
 20
2114.231162854742
 10
1141.244807307449
 20
2114.597142947424
 10
1142.815668227096
 20
2114.90054804955
 10
1144.39740559358
 20
2115.140892777679
 10
1145.987488964533
 20
2115.317792631517
 10
1147.583374545762
 20
2115.430964609035
 10
1149.182509260775
 20
2115.48022765921
 10
1149.614353943106
 20
2115.482558850012
  0
LWPOLYLINE
  5
34B
330
2DF
100
AcDbEntity
  8
P-SANR-FIXT
100
AcDbPolyline
 90
       41
 70
   128
 43
0.0
 10
1172.114353943106
 20
2115.482558850012
 10
1171.214593923906
 20
2115.482558850012
 10
1170.316273328799
 20
2115.482558850012
 10
1169.420829279105
 20
2115.482558850012
 10
1168.529694294285
 20
2115.482558850012
 10
1167.644294000217
 20
2115.482558850012
 10
1166.766044848495
 20
2115.482558850012
 10
1165.896351850413
 20
2115.482558850012
 10
1165.036606329243
 20
2115.482558850012
 10
1164.188183694416
 20
2115.482558850012
 10
1163.352441241161
 20
2115.482558850012
 10
1162.53071597912
 20
2115.482558850012
 10
1161.724322493422
 20
2115.482558850012
 10
1160.934550841621
 20
2115.482558850012
 10
1160.162664489886
 20
2115.482558850012
 10
1159.409898291717
 20
2115.482558850012
 10
1158.677456512452
 20
2115.482558850012
 10
1157.96651090269
 20
2115.482558850012
 10
1157.278198823748
 20
2115.482558850012
 10
1156.613621428118
 20
2115.482558850012
 10
1155.973841897866
 20
2115.482558850012
 10
1155.359883743761
 20
2115.482558850012
 10
1154.772729167879
 20
2115.482558850012
 10
1154.213317492287
 20
2115.482558850012
 10
1153.682543656333
 20
2115.482558850012
 10
1153.181256784928
 20
2115.482558850012
 10
1152.710258830131
 20
2115.482558850012
 10
1152.270303288194
 20
2115.482558850012
 10
1151.862093994134
 20
2115.482558850012
 10
1151.486283995741
 20
2115.482558850012
 10
1151.143474508843
 20
2115.482558850012
 10
1150.834213955491
 20
2115.482558850012
 10
1150.558997086598
 20
2115.482558850012
 10
1150.318264190444
 20
2115.482558850012
 10
1150.112400388311
 20
2115.482558850012
 10
1149.941735018365
 20
2115.482558850012
 10
1149.806541108793
 20
2115.482558850012
 10
1149.707034941009
 20
2115.482558850012
 10
1149.643375703655
 20
2115.482558850012
 10
1149.615665237931
 20
2115.482558850012
 10
1149.614353943106
 20
2115.482558850012
  0
LWPOLYLINE
  5
34C
330
2DF
100
AcDbEntity
  8
P-SANR-FIXT
100
AcDbPolyline
 90
       25
 70
   128
 43
0.0
 10
1149.614353943106
 20
2115.482558850012
 10
1149.632351543234
 20
2115.482558850012
 10
1149.686315551297
 20
2115.482558850012
 10
1149.776159636394
 20
2115.482558850012
 10
1149.901740067154
 20
2115.482558850012
 10
1150.062855941678
 20
2115.482558850012
 10
1150.259249508935
 20
2115.482558850012
 10
1150.490606581113
 20
2115.482558850012
 10
1150.756557036251
 20
2115.482558850012
 10
1151.056675410352
 20
2115.482558850012
 10
1151.390481578041
 20
2115.482558850012
 10
1151.757441520656
 20
2115.482558850012
 10
1152.156968180572
 20
2115.482558850012
 10
1152.588422400358
 20
2115.482558850012
 10
1153.051113945304
 20
2115.482558850012
 10
1153.544302607638
 20
2115.482558850012
 10
1154.067199390709
 20
2115.482558850012
 10
1154.618967771209
 20
2115.482558850012
 10
1155.198725037435
 20
2115.482558850012
 10
1155.805543701435
 20
2115.482558850012
 10
1156.438452982794
 20
2115.482558850012
 10
1157.096440361676
 20
2115.482558850012
 10
1157.778453198637
 20
2115.482558850012
 10
1158.483400418628
 20
2115.482558850012
 10
1159.114353943099
 20
2115.482558850012
  0
LINE
  5
34D
330
2DF
100
AcDbEntity
  8
P-SANR-FIXT
100
AcDbLine
 10
1172.114353943103
 20
1625.48255885001
 30
0.0
 11
1172.114353943103
 21
1665.48255885001
 31
0.0
  0
LINE
  5
34E
330
2DF
100
AcDbEntity
  8
P-SANR-FIXT
100
AcDbLine
 10
1172.114353943103
 20
1665.48255885001
 30
0.0
 11
1172.114353943103
 21
1741.300090814356
 31
0.0
  0
LINE
  5
34F
330
2DF
100
AcDbEntity
  8
P-SANR-FIXT
100
AcDbLine
 10
1172.114353943103
 20
1818.665026885597
 30
0.0
 11
1172.114353943103
 21
1981.300090814355
 31
0.0
  0
LINE
  5
350
330
2DF
100
AcDbEntity
  8
P-SANR-FIXT
100
AcDbLine
 10
1172.114353943103
 20
2058.665026885596
 30
0.0
 11
1172.114353943103
 21
2075.482558850011
 31
0.0
  0
LINE
  5
351
330
2DF
100
AcDbEntity
  8
P-SANR-FIXT
100
AcDbLine
 10
1172.114353943103
 20
2075.48255885001
 30
0.0
 11
1172.114353943103
 21
2115.48255885001
 31
0.0
  0
ARC
  5
352
330
2DF
100
AcDbEntity
  8
P-SANR-FIXT
100
AcDbCircle
 10
1172.114353943103
 20
2019.98255885001
 30
0.0
 40
33.49999999998431
100
AcDbArc
 50
90.0
 51
119.9999999999999
  0
ARC
  5
353
330
2DF
100
AcDbEntity
  8
P-SANR-FIXT
100
AcDbCircle
 10
1172.114353943103
 20
2019.98255885001
 30
0.0
 40
33.49999999998428
100
AcDbArc
 50
119.9999999999993
 51
179.9999999999992
  0
ARC
  5
354
330
2DF
100
AcDbEntity
  8
P-SANR-FIXT
100
AcDbCircle
 10
1172.114353943103
 20
2019.98255885001
 30
0.0
 40
33.49999999998436
100
AcDbArc
 50
179.999999999999
 51
239.9999999999992
  0
ARC
  5
355
330
2DF
100
AcDbEntity
  8
P-SANR-FIXT
100
AcDbCircle
 10
1172.114353943103
 20
2019.98255885001
 30
0.0
 40
33.49999999998404
100
AcDbArc
 50
239.9999999999987
 51
269.9999999999993
  0
ARC
  5
356
330
2DF
100
AcDbEntity
  8
P-SANR-FIXT
100
AcDbCircle
 10
1172.114353943103
 20
2019.98255885001
 30
0.0
 40
33.4999999999842
100
AcDbArc
 50
269.9999999999994
 51
299.9999999999993
  0
ARC
  5
357
330
2DF
100
AcDbEntity
  8
P-SANR-FIXT
100
AcDbCircle
 10
1172.114353943103
 20
2019.98255885001
 30
0.0
 40
33.49999999998397
100
AcDbArc
 50
299.9999999999988
 51
359.9999999999992
  0
ARC
  5
358
330
2DF
100
AcDbEntity
  8
P-SANR-FIXT
100
AcDbCircle
 10
1172.114353943103
 20
2019.98255885001
 30
0.0
 40
33.49999999998408
100
AcDbArc
 50
0.0
 51
59.99999999999921
  0
ARC
  5
359
330
2DF
100
AcDbEntity
  8
P-SANR-FIXT
100
AcDbCircle
 10
1172.114353943103
 20
2019.98255885001
 30
0.0
 40
33.49999999998404
100
AcDbArc
 50
59.99999999999905
 51
89.99999999999884
  0
SPLINE
  5
35A
330
2DF
100
AcDbEntity
  8
P-SANR-FIXT
100
AcDbSpline
210
0.0
220
0.0
230
1.0
 70
    24
 71
     3
 72
     9
 73
     5
 74
     0
 42
0.000000001
 43
0.0000000001
 40
0.0
 40
0.0
 40
0.0
 40
0.0
 40
0.5
 40
1.0
 40
1.0
 40
1.0
 40
1.0
 10
1205.614353943132
 20
2039.323792867785
 30
0.0
 10
1205.614353943132
 20
2036.155698323955
 30
0.0
 10
1205.614353943132
 20
2029.764064777164
 30
0.0
 10
1205.614353943132
 20
2023.261542312106
 30
0.0
 10
1205.614353943132
 20
2019.982558850011
 30
0.0
  0
SPLINE
  5
35B
330
2DF
100
AcDbEntity
  8
P-SANR-FIXT
100
AcDbSpline
210
0.0
220
0.0
230
1.0
 70
    24
 71
     3
 72
     9
 73
     5
 74
     0
 42
0.000000001
 43
0.0000000001
 40
0.0
 40
0.0
 40
0.0
 40
0.0
 40
0.5
 40
1.0
 40
1.0
 40
1.0
 40
1.0
 10
1205.614353943132
 20
2019.982558850011
 30
0.0
 10
1205.614353943132
 20
2016.703575387902
 30
0.0
 10
1205.614353943132
 20
2010.20105292282
 30
0.0
 10
1205.614353943132
 20
2003.809419376005
 30
0.0
 10
1205.614353943132
 20
2000.641324832165
 30
0.0
  0
SPLINE
  5
35C
330
2DF
100
AcDbEntity
  8
P-SANR-FIXT
100
AcDbSpline
210
0.0
220
0.0
230
1.0
 70
    24
 71
     3
 72
     9
 73
     5
 74
     0
 42
0.000000001
 43
0.0000000001
 40
0.0
 40
0.0
 40
0.0
 40
0.0
 40
0.5
 40
1.0
 40
1.0
 40
1.0
 40
1.0
 10
1205.614353943132
 20
2000.641324832165
 30
0.0
 10
1202.870703586571
 20
1999.057277560242
 30
0.0
 10
1197.33538656334
 20
1995.861460786829
 30
0.0
 10
1191.704036919888
 20
1992.610199554282
 30
0.0
 10
1188.864353943108
 20
1990.970707823224
 30
0.0
  0
SPLINE
  5
35D
330
2DF
100
AcDbEntity
  8
P-SANR-FIXT
100
AcDbSpline
210
0.0
220
0.0
230
1.0
 70
    24
 71
     3
 72
     9
 73
     5
 74
     0
 42
0.000000001
 43
0.0000000001
 40
0.0
 40
0.0
 40
0.0
 40
0.0
 40
0.5
 40
1.0
 40
1.0
 40
1.0
 40
1.0
 10
1188.864353943108
 20
1990.970707823224
 30
0.0
 10
1186.024670966349
 20
1989.331216092179
 30
0.0
 10
1180.393321322939
 20
1986.079954859656
 30
0.0
 10
1174.858004299747
 20
1982.884138086266
 30
0.0
 10
1172.114353943205
 20
1981.300090814355
 30
0.0
  0
SPLINE
  5
35E
330
2DF
100
AcDbEntity
  8
P-SANR-FIXT
100
AcDbSpline
210
0.0
220
0.0
230
1.0
 70
    24
 71
     3
 72
     9
 73
     5
 74
     0
 42
0.000000001
 43
0.0000000001
 40
0.0
 40
0.0
 40
0.0
 40
0.0
 40
0.5
 40
1.0
 40
1.0
 40
1.0
 40
1.0
 10
1172.114353943205
 20
1981.300090814355
 30
0.0
 10
1169.370703586642
 20
1982.884138086278
 30
0.0
 10
1163.835386563404
 20
1986.079954859695
 30
0.0
 10
1158.204036919939
 20
1989.33121609225
 30
0.0
 10
1155.364353943149
 20
1990.970707823313
 30
0.0
  0
SPLINE
  5
35F
330
2DF
100
AcDbEntity
  8
P-SANR-FIXT
100
AcDbSpline
210
0.0
220
0.0
230
1.0
 70
    24
 71
     3
 72
     9
 73
     5
 74
     0
 42
0.000000001
 43
0.0000000001
 40
0.0
 40
0.0
 40
0.0
 40
0.0
 40
0.5
 40
1.0
 40
1.0
 40
1.0
 40
1.0
 10
1155.364353943149
 20
1990.970707823313
 30
0.0
 10
1152.524670966393
 20
1992.610199554356
 30
0.0
 10
1146.893321322992
 20
1995.861460786874
 30
0.0
 10
1141.358004299812
 20
1999.057277560257
 30
0.0
 10
1138.614353943278
 20
2000.641324832165
 30
0.0
  0
SPLINE
  5
360
330
2DF
100
AcDbEntity
  8
P-SANR-FIXT
100
AcDbSpline
210
0.0
220
0.0
230
1.0
 70
    24
 71
     3
 72
     9
 73
     5
 74
     0
 42
0.000000001
 43
0.0000000001
 40
0.0
 40
0.0
 40
0.0
 40
0.0
 40
0.5
 40
1.0
 40
1.0
 40
1.0
 40
1.0
 10
1138.614353943278
 20
2000.641324832165
 30
0.0
 10
1138.614353943278
 20
2003.809419375999
 30
0.0
 10
1138.614353943278
 20
2010.201052922807
 30
0.0
 10
1138.614353943278
 20
2016.703575387897
 30
0.0
 10
1138.614353943278
 20
2019.982558850011
 30
0.0
  0
SPLINE
  5
361
330
2DF
100
AcDbEntity
  8
P-SANR-FIXT
100
AcDbSpline
210
0.0
220
0.0
230
1.0
 70
    24
 71
     3
 72
     9
 73
     5
 74
     0
 42
0.000000001
 43
0.0000000001
 40
0.0
 40
0.0
 40
0.0
 40
0.0
 40
0.5
 40
1.0
 40
1.0
 40
1.0
 40
1.0
 10
1138.614353943278
 20
2019.982558850011
 30
0.0
 10
1138.614353943278
 20
2023.261542312113
 30
0.0
 10
1138.614353943278
 20
2029.764064777177
 30
0.0
 10
1138.614353943278
 20
2036.155698323963
 30
0.0
 10
1138.614353943278
 20
2039.323792867786
 30
0.0
  0
SPLINE
  5
362
330
2DF
100
AcDbEntity
  8
P-SANR-FIXT
100
AcDbSpline
210
0.0
220
0.0
230
1.0
 70
    24
 71
     3
 72
     9
 73
     5
 74
     0
 42
0.000000001
 43
0.0000000001
 40
0.0
 40
0.0
 40
0.0
 40
0.0
 40
0.5
 40
1.0
 40
1.0
 40
1.0
 40
1.0
 10
1138.614353943278
 20
2039.323792867786
 30
0.0
 10
1141.358004299815
 20
2040.907840139695
 30
0.0
 10
1146.893321323003
 20
2044.103656913082
 30
0.0
 10
1152.524670966417
 20
2047.354918145608
 30
0.0
 10
1155.364353943181
 20
2048.994409876656
 30
0.0
  0
SPLINE
  5
363
330
2DF
100
AcDbEntity
  8
P-SANR-FIXT
100
AcDbSpline
210
0.0
220
0.0
230
1.0
 70
    24
 71
     3
 72
     9
 73
     5
 74
     0
 42
0.000000001
 43
0.0000000001
 40
0.0
 40
0.0
 40
0.0
 40
0.0
 40
0.5
 40
1.0
 40
1.0
 40
1.0
 40
1.0
 10
1155.364353943181
 20
2048.994409876656
 30
0.0
 10
1158.204036919966
 20
2050.633901607716
 30
0.0
 10
1163.835386563422
 20
2053.885162840266
 30
0.0
 10
1169.370703586649
 20
2057.080979613676
 30
0.0
 10
1172.114353943205
 20
2058.665026885596
 30
0.0
  0
SPLINE
  5
364
330
2DF
100
AcDbEntity
  8
P-SANR-FIXT
100
AcDbSpline
210
0.0
220
0.0
230
1.0
 70
    24
 71
     3
 72
     9
 73
     5
 74
     0
 42
0.000000001
 43
0.0000000001
 40
0.0
 40
0.0
 40
0.0
 40
0.0
 40
0.5
 40
1.0
 40
1.0
 40
1.0
 40
1.0
 10
1172.114353943205
 20
2058.665026885596
 30
0.0
 10
1174.858004299741
 20
2057.080979613688
 30
0.0
 10
1180.393321322922
 20
2053.885162840304
 30
0.0
 10
1186.024670966322
 20
2050.633901607786
 30
0.0
 10
1188.864353943077
 20
2048.994409876744
 30
0.0
  0
SPLINE
  5
365
330
2DF
100
AcDbEntity
  8
P-SANR-FIXT
100
AcDbSpline
210
0.0
220
0.0
230
1.0
 70
    24
 71
     3
 72
     9
 73
     5
 74
     0
 42
0.000000001
 43
0.0000000001
 40
0.0
 40
0.0
 40
0.0
 40
0.0
 40
0.5
 40
1.0
 40
1.0
 40
1.0
 40
1.0
 10
1188.864353943077
 20
2048.994409876744
 30
0.0
 10
1191.704036919865
 20
2047.354918145682
 30
0.0
 10
1197.335386563329
 20
2044.103656913127
 30
0.0
 10
1202.870703586568
 20
2040.90784013971
 30
0.0
 10
1205.614353943132
 20
2039.323792867785
 30
0.0
  0
LINE
  5
366
330
2DF
100
AcDbEntity
  8
P-SANR-FIXT
100
AcDbLine
 10
1191.18307907571
 20
2036.686038182927
 30
0.0
 11
1177.045628810877
 21
2044.848298898982
 31
0.0
  0
ARC
  5
367
330
2DF
100
AcDbEntity
  8
P-SANR-FIXT
100
AcDbCircle
 10
1172.114353943205
 20
2019.982558849975
 30
0.0
 40
25.35000000010511
100
AcDbArc
 50
78.78287089449209
 51
101.2171291055047
  0
LINE
  5
368
330
2DF
100
AcDbEntity
  8
P-SANR-FIXT
100
AcDbLine
 10
1167.183079075533
 20
2044.848298898982
 30
0.0
 11
1153.045628810701
 21
2036.686038182927
 31
0.0
  0
ARC
  5
369
330
2DF
100
AcDbEntity
  8
P-SANR-FIXT
100
AcDbCircle
 10
1172.114353943205
 20
2019.982558849975
 30
0.0
 40
25.3500000001053
100
AcDbArc
 50
138.7828708944926
 51
161.217129105505
  0
LINE
  5
36A
330
2DF
100
AcDbEntity
  8
P-SANR-FIXT
100
AcDbLine
 10
1148.114353943029
 20
2028.144819566032
 30
0.0
 11
1148.114353943028
 21
2011.820298133919
 31
0.0
  0
ARC
  5
36B
330
2DF
100
AcDbEntity
  8
P-SANR-FIXT
100
AcDbCircle
 10
1172.114353943205
 20
2019.982558849975
 30
0.0
 40
25.35000000010516
100
AcDbArc
 50
198.782870894493
 51
221.2171291055055
  0
LINE
  5
36C
330
2DF
100
AcDbEntity
  8
P-SANR-FIXT
100
AcDbLine
 10
1153.0456288107
 20
2003.279079517024
 30
0.0
 11
1167.183079075533
 21
1995.116818800967
 31
0.0
  0
ARC
  5
36D
330
2DF
100
AcDbEntity
  8
P-SANR-FIXT
100
AcDbCircle
 10
1172.114353943205
 20
2019.982558849975
 30
0.0
 40
25.35000000010529
100
AcDbArc
 50
258.7828708944924
 51
281.2171291055054
  0
LINE
  5
36E
330
2DF
100
AcDbEntity
  8
P-SANR-FIXT
100
AcDbLine
 10
1177.045628810877
 20
1995.116818800967
 30
0.0
 11
1191.183079075709
 21
2003.279079517024
 31
0.0
  0
ARC
  5
36F
330
2DF
100
AcDbEntity
  8
P-SANR-FIXT
100
AcDbCircle
 10
1172.114353943205
 20
2019.982558849975
 30
0.0
 40
25.35000000010532
100
AcDbArc
 50
318.7828708944924
 51
341.2171291055052
  0
LINE
  5
370
330
2DF
100
AcDbEntity
  8
P-SANR-FIXT
100
AcDbLine
 10
1196.114353943381
 20
2011.820298133919
 30
0.0
 11
1196.114353943382
 21
2028.144819566031
 31
0.0
  0
ARC
  5
371
330
2DF
100
AcDbEntity
  8
P-SANR-FIXT
100
AcDbCircle
 10
1172.114353943205
 20
2019.982558849975
 30
0.0
 40
25.35000000010523
100
AcDbArc
 50
18.78287089449177
 51
41.21712910550452
  0
ARC
  5
372
330
2DF
100
AcDbEntity
  8
P-SANR-FIXT
100
AcDbCircle
 10
1172.114353943103
 20
2019.98255885001
 30
0.0
 40
15.89999999996485
100
AcDbArc
 50
90.00000000000081
 51
269.9999999999997
  0
ARC
  5
373
330
2DF
100
AcDbEntity
  8
P-SANR-FIXT
100
AcDbCircle
 10
1172.114353943103
 20
2019.98255885001
 30
0.0
 40
15.89999999996473
100
AcDbArc
 50
269.9999999999992
 51
89.99999999999959
  0
ARC
  5
374
330
2DF
100
AcDbEntity
  8
P-SANR-FIXT
100
AcDbCircle
 10
1172.114353943103
 20
1779.982558850012
 30
0.0
 40
33.49999999998363
100
AcDbArc
 50
90.0
 51
119.9999999999996
  0
ARC
  5
375
330
2DF
100
AcDbEntity
  8
P-SANR-FIXT
100
AcDbCircle
 10
1172.114353943103
 20
1779.982558850012
 30
0.0
 40
33.49999999998347
100
AcDbArc
 50
119.9999999999993
 51
179.9999999999996
  0
ARC
  5
376
330
2DF
100
AcDbEntity
  8
P-SANR-FIXT
100
AcDbCircle
 10
1172.114353943103
 20
1779.982558850012
 30
0.0
 40
33.49999999998368
100
AcDbArc
 50
179.9999999999994
 51
239.9999999999989
  0
ARC
  5
377
330
2DF
100
AcDbEntity
  8
P-SANR-FIXT
100
AcDbCircle
 10
1172.114353943103
 20
1779.982558850012
 30
0.0
 40
33.49999999998332
100
AcDbArc
 50
239.9999999999985
 51
269.9999999999989
  0
ARC
  5
378
330
2DF
100
AcDbEntity
  8
P-SANR-FIXT
100
AcDbCircle
 10
1172.114353943103
 20
1779.982558850012
 30
0.0
 40
33.4999999999834
100
AcDbArc
 50
270.0
 51
299.9999999999996
  0
ARC
  5
379
330
2DF
100
AcDbEntity
  8
P-SANR-FIXT
100
AcDbCircle
 10
1172.114353943103
 20
1779.982558850012
 30
0.0
 40
33.49999999998347
100
AcDbArc
 50
299.9999999999989
 51
359.9999999999988
  0
ARC
  5
37A
330
2DF
100
AcDbEntity
  8
P-SANR-FIXT
100
AcDbCircle
 10
1172.114353943103
 20
1779.982558850012
 30
0.0
 40
33.4999999999834
100
AcDbArc
 50
359.9999999999992
 51
59.9999999999997
  0
ARC
  5
37B
330
2DF
100
AcDbEntity
  8
P-SANR-FIXT
100
AcDbCircle
 10
1172.114353943103
 20
1779.982558850012
 30
0.0
 40
33.49999999998361
100
AcDbArc
 50
59.99999999999944
 51
90.0
  0
SPLINE
  5
37C
330
2DF
100
AcDbEntity
  8
P-SANR-FIXT
100
AcDbSpline
210
0.0
220
0.0
230
1.0
 70
    24
 71
     3
 72
     9
 73
     5
 74
     0
 42
0.000000001
 43
0.0000000001
 40
0.0
 40
0.0
 40
0.0
 40
0.0
 40
0.5
 40
1.0
 40
1.0
 40
1.0
 40
1.0
 10
1205.614353943132
 20
1799.323792867786
 30
0.0
 10
1205.614353943132
 20
1796.155698323957
 30
0.0
 10
1205.614353943132
 20
1789.764064777165
 30
0.0
 10
1205.614353943132
 20
1783.261542312107
 30
0.0
 10
1205.614353943132
 20
1779.982558850011
 30
0.0
  0
SPLINE
  5
37D
330
2DF
100
AcDbEntity
  8
P-SANR-FIXT
100
AcDbSpline
210
0.0
220
0.0
230
1.0
 70
    24
 71
     3
 72
     9
 73
     5
 74
     0
 42
0.000000001
 43
0.0000000001
 40
0.0
 40
0.0
 40
0.0
 40
0.0
 40
0.5
 40
1.0
 40
1.0
 40
1.0
 40
1.0
 10
1205.614353943132
 20
1779.982558850011
 30
0.0
 10
1205.614353943132
 20
1776.703575387903
 30
0.0
 10
1205.614353943132
 20
1770.201052922821
 30
0.0
 10
1205.614353943132
 20
1763.809419376006
 30
0.0
 10
1205.614353943132
 20
1760.641324832166
 30
0.0
  0
SPLINE
  5
37E
330
2DF
100
AcDbEntity
  8
P-SANR-FIXT
100
AcDbSpline
210
0.0
220
0.0
230
1.0
 70
    24
 71
     3
 72
     9
 73
     5
 74
     0
 42
0.000000001
 43
0.0000000001
 40
0.0
 40
0.0
 40
0.0
 40
0.0
 40
0.5
 40
1.0
 40
1.0
 40
1.0
 40
1.0
 10
1205.614353943132
 20
1760.641324832166
 30
0.0
 10
1202.870703586571
 20
1759.057277560243
 30
0.0
 10
1197.33538656334
 20
1755.861460786831
 30
0.0
 10
1191.704036919888
 20
1752.610199554283
 30
0.0
 10
1188.864353943107
 20
1750.970707823226
 30
0.0
  0
SPLINE
  5
37F
330
2DF
100
AcDbEntity
  8
P-SANR-FIXT
100
AcDbSpline
210
0.0
220
0.0
230
1.0
 70
    24
 71
     3
 72
     9
 73
     5
 74
     0
 42
0.000000001
 43
0.0000000001
 40
0.0
 40
0.0
 40
0.0
 40
0.0
 40
0.5
 40
1.0
 40
1.0
 40
1.0
 40
1.0
 10
1188.864353943107
 20
1750.970707823226
 30
0.0
 10
1186.024670966348
 20
1749.331216092181
 30
0.0
 10
1180.393321322939
 20
1746.079954859657
 30
0.0
 10
1174.858004299747
 20
1742.884138086268
 30
0.0
 10
1172.114353943205
 20
1741.300090814356
 30
0.0
  0
SPLINE
  5
380
330
2DF
100
AcDbEntity
  8
P-SANR-FIXT
100
AcDbSpline
210
0.0
220
0.0
230
1.0
 70
    24
 71
     3
 72
     9
 73
     5
 74
     0
 42
0.000000001
 43
0.0000000001
 40
0.0
 40
0.0
 40
0.0
 40
0.0
 40
0.5
 40
1.0
 40
1.0
 40
1.0
 40
1.0
 10
1172.114353943205
 20
1741.300090814356
 30
0.0
 10
1169.370703586642
 20
1742.88413808628
 30
0.0
 10
1163.835386563403
 20
1746.079954859697
 30
0.0
 10
1158.204036919939
 20
1749.331216092252
 30
0.0
 10
1155.36435394315
 20
1750.970707823314
 30
0.0
  0
SPLINE
  5
381
330
2DF
100
AcDbEntity
  8
P-SANR-FIXT
100
AcDbSpline
210
0.0
220
0.0
230
1.0
 70
    24
 71
     3
 72
     9
 73
     5
 74
     0
 42
0.000000001
 43
0.0000000001
 40
0.0
 40
0.0
 40
0.0
 40
0.0
 40
0.5
 40
1.0
 40
1.0
 40
1.0
 40
1.0
 10
1155.36435394315
 20
1750.970707823314
 30
0.0
 10
1152.524670966394
 20
1752.610199554357
 30
0.0
 10
1146.893321322993
 20
1755.861460786876
 30
0.0
 10
1141.358004299813
 20
1759.057277560259
 30
0.0
 10
1138.614353943278
 20
1760.641324832167
 30
0.0
  0
SPLINE
  5
382
330
2DF
100
AcDbEntity
  8
P-SANR-FIXT
100
AcDbSpline
210
0.0
220
0.0
230
1.0
 70
    24
 71
     3
 72
     9
 73
     5
 74
     0
 42
0.000000001
 43
0.0000000001
 40
0.0
 40
0.0
 40
0.0
 40
0.0
 40
0.5
 40
1.0
 40
1.0
 40
1.0
 40
1.0
 10
1138.614353943278
 20
1760.641324832166
 30
0.0
 10
1138.614353943278
 20
1763.809419376001
 30
0.0
 10
1138.614353943278
 20
1770.20105292281
 30
0.0
 10
1138.614353943278
 20
1776.703575387898
 30
0.0
 10
1138.614353943278
 20
1779.982558850012
 30
0.0
  0
SPLINE
  5
383
330
2DF
100
AcDbEntity
  8
P-SANR-FIXT
100
AcDbSpline
210
0.0
220
0.0
230
1.0
 70
    24
 71
     3
 72
     9
 73
     5
 74
     0
 42
0.000000001
 43
0.0000000001
 40
0.0
 40
0.0
 40
0.0
 40
0.0
 40
0.5
 40
1.0
 40
1.0
 40
1.0
 40
1.0
 10
1138.614353943278
 20
1779.982558850012
 30
0.0
 10
1138.614353943278
 20
1783.261542312113
 30
0.0
 10
1138.614353943278
 20
1789.764064777178
 30
0.0
 10
1138.614353943278
 20
1796.155698323963
 30
0.0
 10
1138.614353943278
 20
1799.323792867787
 30
0.0
  0
SPLINE
  5
384
330
2DF
100
AcDbEntity
  8
P-SANR-FIXT
100
AcDbSpline
210
0.0
220
0.0
230
1.0
 70
    24
 71
     3
 72
     9
 73
     5
 74
     0
 42
0.000000001
 43
0.0000000001
 40
0.0
 40
0.0
 40
0.0
 40
0.0
 40
0.5
 40
1.0
 40
1.0
 40
1.0
 40
1.0
 10
1138.614353943278
 20
1799.323792867787
 30
0.0
 10
1141.358004299816
 20
1800.907840139696
 30
0.0
 10
1146.893321323004
 20
1804.103656913084
 30
0.0
 10
1152.524670966418
 20
1807.35491814561
 30
0.0
 10
1155.364353943181
 20
1808.994409876657
 30
0.0
  0
SPLINE
  5
385
330
2DF
100
AcDbEntity
  8
P-SANR-FIXT
100
AcDbSpline
210
0.0
220
0.0
230
1.0
 70
    24
 71
     3
 72
     9
 73
     5
 74
     0
 42
0.000000001
 43
0.0000000001
 40
0.0
 40
0.0
 40
0.0
 40
0.0
 40
0.5
 40
1.0
 40
1.0
 40
1.0
 40
1.0
 10
1155.364353943181
 20
1808.994409876657
 30
0.0
 10
1158.204036919965
 20
1810.633901607717
 30
0.0
 10
1163.835386563421
 20
1813.885162840267
 30
0.0
 10
1169.370703586648
 20
1817.080979613677
 30
0.0
 10
1172.114353943205
 20
1818.665026885597
 30
0.0
  0
SPLINE
  5
386
330
2DF
100
AcDbEntity
  8
P-SANR-FIXT
100
AcDbSpline
210
0.0
220
0.0
230
1.0
 70
    24
 71
     3
 72
     9
 73
     5
 74
     0
 42
0.000000001
 43
0.0000000001
 40
0.0
 40
0.0
 40
0.0
 40
0.0
 40
0.5
 40
1.0
 40
1.0
 40
1.0
 40
1.0
 10
1172.114353943205
 20
1818.665026885597
 30
0.0
 10
1174.858004299741
 20
1817.080979613689
 30
0.0
 10
1180.393321322922
 20
1813.885162840305
 30
0.0
 10
1186.024670966323
 20
1810.633901607787
 30
0.0
 10
1188.864353943077
 20
1808.994409876745
 30
0.0
  0
SPLINE
  5
387
330
2DF
100
AcDbEntity
  8
P-SANR-FIXT
100
AcDbSpline
210
0.0
220
0.0
230
1.0
 70
    24
 71
     3
 72
     9
 73
     5
 74
     0
 42
0.000000001
 43
0.0000000001
 40
0.0
 40
0.0
 40
0.0
 40
0.0
 40
0.5
 40
1.0
 40
1.0
 40
1.0
 40
1.0
 10
1188.864353943077
 20
1808.994409876745
 30
0.0
 10
1191.704036919865
 20
1807.354918145683
 30
0.0
 10
1197.335386563328
 20
1804.103656913128
 30
0.0
 10
1202.870703586568
 20
1800.907840139711
 30
0.0
 10
1205.614353943132
 20
1799.323792867786
 30
0.0
  0
LINE
  5
388
330
2DF
100
AcDbEntity
  8
P-SANR-FIXT
100
AcDbLine
 10
1191.18307907571
 20
1796.686038182927
 30
0.0
 11
1177.045628810877
 21
1804.848298898983
 31
0.0
  0
ARC
  5
389
330
2DF
100
AcDbEntity
  8
P-SANR-FIXT
100
AcDbCircle
 10
1172.114353943205
 20
1779.982558849976
 30
0.0
 40
25.35000000010511
100
AcDbArc
 50
78.78287089449209
 51
101.2171291055047
  0
LINE
  5
38A
330
2DF
100
AcDbEntity
  8
P-SANR-FIXT
100
AcDbLine
 10
1167.183079075533
 20
1804.848298898983
 30
0.0
 11
1153.045628810701
 21
1796.686038182927
 31
0.0
  0
ARC
  5
38B
330
2DF
100
AcDbEntity
  8
P-SANR-FIXT
100
AcDbCircle
 10
1172.114353943205
 20
1779.982558849976
 30
0.0
 40
25.3500000001053
100
AcDbArc
 50
138.7828708944922
 51
161.2171291055049
  0
LINE
  5
38C
330
2DF
100
AcDbEntity
  8
P-SANR-FIXT
100
AcDbLine
 10
1148.114353943029
 20
1788.144819566032
 30
0.0
 11
1148.114353943028
 21
1771.82029813392
 31
0.0
  0
ARC
  5
38D
330
2DF
100
AcDbEntity
  8
P-SANR-FIXT
100
AcDbCircle
 10
1172.114353943205
 20
1779.982558849976
 30
0.0
 40
25.35000000010516
100
AcDbArc
 50
198.7828708944925
 51
221.2171291055056
  0
LINE
  5
38E
330
2DF
100
AcDbEntity
  8
P-SANR-FIXT
100
AcDbLine
 10
1153.0456288107
 20
1763.279079517024
 30
0.0
 11
1167.183079075533
 21
1755.116818800968
 31
0.0
  0
ARC
  5
38F
330
2DF
100
AcDbEntity
  8
P-SANR-FIXT
100
AcDbCircle
 10
1172.114353943205
 20
1779.982558849976
 30
0.0
 40
25.35000000010529
100
AcDbArc
 50
258.7828708944924
 51
281.2171291055054
  0
LINE
  5
390
330
2DF
100
AcDbEntity
  8
P-SANR-FIXT
100
AcDbLine
 10
1177.045628810877
 20
1755.116818800968
 30
0.0
 11
1191.183079075709
 21
1763.279079517024
 31
0.0
  0
ARC
  5
391
330
2DF
100
AcDbEntity
  8
P-SANR-FIXT
100
AcDbCircle
 10
1172.114353943205
 20
1779.982558849976
 30
0.0
 40
25.35000000010547
100
AcDbArc
 50
318.7828708944922
 51
341.2171291055051
  0
LINE
  5
392
330
2DF
100
AcDbEntity
  8
P-SANR-FIXT
100
AcDbLine
 10
1196.114353943381
 20
1771.82029813392
 30
0.0
 11
1196.114353943382
 21
1788.144819566031
 31
0.0
  0
ARC
  5
393
330
2DF
100
AcDbEntity
  8
P-SANR-FIXT
100
AcDbCircle
 10
1172.114353943205
 20
1779.982558849976
 30
0.0
 40
25.35000000010523
100
AcDbArc
 50
18.78287089449221
 51
41.21712910550445
  0
ARC
  5
394
330
2DF
100
AcDbEntity
  8
P-SANR-FIXT
100
AcDbCircle
 10
1172.114353943103
 20
1779.982558850012
 30
0.0
 40
15.90000000017403
100
AcDbArc
 50
90.00000000000081
 51
269.9999999999997
  0
ARC
  5
395
330
2DF
100
AcDbEntity
  8
P-SANR-FIXT
100
AcDbCircle
 10
1172.114353943103
 20
1779.982558850012
 30
0.0
 40
15.90000000017376
100
AcDbArc
 50
269.9999999999993
 51
89.99999999999959
  0
LINE
  5
396
330
2DF
100
AcDbEntity
  8
P-SANR-FIXT
100
AcDbLine
 10
1253.61435394313
 20
2009.982558850007
 30
0.0
 11
1257.914353943129
 21
2009.982558850007
 31
0.0
  0
LINE
  5
397
330
2DF
100
AcDbEntity
  8
P-SANR-FIXT
100
AcDbLine
 10
1257.914353943129
 20
2029.982558850015
 30
0.0
 11
1253.61435394313
 21
2029.982558850015
 31
0.0
  0
LINE
  5
398
330
2DF
100
AcDbEntity
  8
P-SANR-FIXT
100
AcDbLine
 10
1249.11435394313
 20
2007.482558850008
 30
0.0
 11
1253.61435394313
 21
2007.482558850008
 31
0.0
  0
LINE
  5
399
330
2DF
100
AcDbEntity
  8
P-SANR-FIXT
100
AcDbLine
 10
1253.61435394313
 20
2032.482558850015
 30
0.0
 11
1249.11435394313
 21
2032.482558850015
 31
0.0
  0
LINE
  5
39A
330
2DF
100
AcDbEntity
  8
P-SANR-FIXT
100
AcDbLine
 10
1257.914353943126
 20
2025.597338012279
 30
0.0
 11
1257.914353943126
 21
2024.341457793581
 31
0.0
  0
LINE
  5
39B
330
2DF
100
AcDbEntity
  8
P-SANR-FIXT
100
AcDbLine
 10
1257.914353943126
 20
2024.341457793581
 30
0.0
 11
1257.914353943126
 21
2015.623659906441
 31
0.0
  0
LINE
  5
39C
330
2DF
100
AcDbEntity
  8
P-SANR-FIXT
100
AcDbLine
 10
1257.914353943126
 20
2015.623659906441
 30
0.0
 11
1257.914353943126
 21
2014.367779687745
 31
0.0
  0
LINE
  5
39D
330
2DF
100
AcDbEntity
  8
P-SANR-FIXT
100
AcDbLine
 10
1257.914353943126
 20
2014.367779687745
 30
0.0
 11
1257.914353943126
 21
2010.008880744174
 31
0.0
  0
LINE
  5
39E
330
2DF
100
AcDbEntity
  8
P-SANR-FIXT
100
AcDbLine
 10
1257.914353943126
 20
2010.008880744174
 30
0.0
 11
1257.914353943126
 21
2009.982558850007
 31
0.0
  0
LINE
  5
39F
330
2DF
100
AcDbEntity
  8
P-SANR-FIXT
100
AcDbLine
 10
1257.914353943126
 20
2029.982558850015
 30
0.0
 11
1257.914353943126
 21
2029.956236955847
 31
0.0
  0
LINE
  5
3A0
330
2DF
100
AcDbEntity
  8
P-SANR-FIXT
100
AcDbLine
 10
1257.914353943126
 20
2029.956236955847
 30
0.0
 11
1257.914353943126
 21
2025.597338012279
 31
0.0
  0
LINE
  5
3A1
330
2DF
100
AcDbEntity
  8
P-SANR-FIXT
100
AcDbLine
 10
1257.914353943126
 20
2025.597338012279
 30
0.0
 11
1253.614353943126
 21
2025.597338012279
 31
0.0
  0
LINE
  5
3A2
330
2DF
100
AcDbEntity
  8
P-SANR-FIXT
100
AcDbLine
 10
1253.614353943126
 20
2024.341457793581
 30
0.0
 11
1257.914353943126
 21
2024.341457793581
 31
0.0
  0
LINE
  5
3A3
330
2DF
100
AcDbEntity
  8
P-SANR-FIXT
100
AcDbLine
 10
1253.614353943126
 20
2015.623659906441
 30
0.0
 11
1257.914353943126
 21
2015.623659906441
 31
0.0
  0
LINE
  5
3A4
330
2DF
100
AcDbEntity
  8
P-SANR-FIXT
100
AcDbLine
 10
1253.614353943126
 20
2014.367779687745
 30
0.0
 11
1257.914353943126
 21
2014.367779687745
 31
0.0
  0
LINE
  5
3A5
330
2DF
100
AcDbEntity
  8
P-SANR-FIXT
100
AcDbLine
 10
1253.614353943126
 20
2010.008880744174
 30
0.0
 11
1257.914353943126
 21
2010.008880744174
 31
0.0
  0
LINE
  5
3A6
330
2DF
100
AcDbEntity
  8
P-SANR-FIXT
100
AcDbLine
 10
1253.614353943126
 20
2029.956236955847
 30
0.0
 11
1257.914353943126
 21
2029.956236955847
 31
0.0
  0
LINE
  5
3A7
330
2DF
100
AcDbEntity
  8
P-SANR-FIXT
100
AcDbLine
 10
1253.614353943128
 20
2007.482558850007
 30
0.0
 11
1253.614353943128
 21
2032.482558850015
 31
0.0
  0
LINE
  5
3A8
330
2DF
100
AcDbEntity
  8
P-SANR-FIXT
100
AcDbLine
 10
1145.183569824044
 20
2092.482558850011
 30
0.0
 11
1145.165924582907
 21
2092.482558850011
 31
0.0
  0
LWPOLYLINE
  5
3A9
330
2DF
100
AcDbEntity
  8
P-SANR-FIXT
100
AcDbPolyline
 90
       41
 70
   128
 43
0.0
 10
1199.064353943106
 20
2092.482558850011
 10
1199.764167291373
 20
2092.468560716579
 10
1200.462861087567
 20
2092.426588710308
 10
1201.159317570662
 20
2092.356709977454
 10
1201.852422558856
 20
2092.259036309085
 10
1202.54106723202
 20
2092.133723962233
 10
1203.224149905582
 20
2091.980973409922
 10
1203.900577792978
 20
2091.80102902045
 10
1204.569268753889
 20
2091.594178666454
 10
1205.229153025421
 20
2091.360753264376
 10
1205.879174933508
 20
2091.101126245062
 10
1206.518294581761
 20
2090.815712956361
 10
1207.145489515082
 20
2090.504969998649
 10
1207.759756355372
 20
2090.16939449437
 10
1208.360112406722
 20
2089.809523292746
 10
1208.94559722752
 20
2089.425932110931
 10
1209.515274166949
 20
2089.019234612987
 10
1210.06823186343
 20
2088.590081428153
 10
1210.603585702607
 20
2088.139159109978
 10
1211.120479232541
 20
2087.667189037977
 10
1211.618085533848
 20
2087.174926263587
 10
1212.095608542596
 20
2086.663158302235
 10
1212.552284323838
 20
2086.132703873487
 10
1212.987382293743
 20
2085.584411591272
 10
1213.400206388374
 20
2085.01915860628
 10
1213.790096177245
 20
2084.437849202704
 10
1214.156427919865
 20
2083.841413351585
 10
1214.498615563593
 20
2083.230805223052
 10
1214.816111681195
 20
2082.607001659854
 10
1215.108408346612
 20
2081.971000614622
 10
1215.375037947533
 20
2081.323819553353
 10
1215.615573933473
 20
2080.66649382769
 10
1215.829631498168
 20
2080.000075018571
 10
1216.016868195176
 20
2079.325629253928
 10
1216.176984485725
 20
2078.644235503112
 10
1216.309724217905
 20
2077.956983850766
 10
1216.414875036461
 20
2077.264973752929
 10
1216.492268722515
 20
2076.569312278137
 10
1216.541781462679
 20
2075.871112336349
 10
1216.563334047131
 20
2075.171490898531
 10
1216.564353943107
 20
2074.982558850011
  0
LWPOLYLINE
  5
3AA
330
2DF
100
AcDbEntity
  8
P-SANR-FIXT
100
AcDbPolyline
 90
       29
 70
   128
 43
0.0
 10
1185.114353943113
 20
2092.482558850011
 10
1185.505273657995
 20
2092.482558850011
 10
1186.429821977074
 20
2092.482558850011
 10
1187.331468601103
 20
2092.482558850011
 10
1188.208771087823
 20
2092.482558850011
 10
1189.060325940404
 20
2092.482558850011
 10
1189.884770852738
 20
2092.482558850011
 10
1190.680786888836
 20
2092.482558850011
 10
1191.447100592849
 20
2092.482558850011
 10
1192.182486026321
 20
2092.482558850011
 10
1192.885766729434
 20
2092.482558850011
 10
1193.555817603087
 20
2092.482558850011
 10
1194.191566708818
 20
2092.482558850011
 10
1194.791996983679
 20
2092.482558850011
 10
1195.356147867315
 20
2092.482558850011
 10
1195.883116838656
 20
2092.482558850011
 10
1196.372060859763
 20
2092.482558850011
 10
1196.822197724506
 20
2092.482558850011
 10
1197.232807309923
 20
2092.482558850011
 10
1197.603232728272
 20
2092.482558850011
 10
1197.932881377901
 20
2092.482558850011
 10
1198.221225891294
 20
2092.482558850011
 10
1198.467804978738
 20
2092.482558850011
 10
1198.672224166296
 20
2092.482558850011
 10
1198.834156426872
 20
2092.482558850011
 10
1198.953342703396
 20
2092.482558850011
 10
1199.029592323248
 20
2092.482558850011
 10
1199.062783303304
 20
2092.482558850011
 10
1199.064353943106
 20
2092.482558850011
  0
LWPOLYLINE
  5
3AB
330
2DF
100
AcDbEntity
  8
P-SANR-FIXT
100
AcDbPolyline
 90
       41
 70
   128
 43
0.0
 10
1199.064353943106
 20
2092.482558850011
 10
1199.04279681762
 20
2092.482558850011
 10
1198.978159927962
 20
2092.482558850011
 10
1198.870546679368
 20
2092.482558850011
 10
1198.72012923008
 20
2092.482558850011
 10
1198.527148215928
 20
2092.482558850011
 10
1198.291912365369
 20
2092.482558850011
 10
1198.014798005582
 20
2092.482558850011
 10
1197.696248460428
 20
2092.482558850011
 10
1197.336773341227
 20
2092.482558850011
 10
1196.936947731484
 20
2092.482558850011
 10
1196.497411266884
 20
2092.482558850011
 10
1196.018867112008
 20
2092.482558850011
 10
1195.502080835419
 20
2092.482558850011
 10
1194.947879184918
 20
2092.482558850011
 10
1194.357148764922
 20
2092.482558850011
 10
1193.730834618088
 20
2092.482558850011
 10
1193.069938713444
 20
2092.482558850011
 10
1192.375518343453
 20
2092.482558850011
 10
1191.648684432573
 20
2092.482558850011
 10
1190.890599760012
 20
2092.482558850011
 10
1190.102477099529
 20
2092.482558850011
 10
1189.285577279258
 20
2092.482558850011
 10
1188.441207164647
 20
2092.482558850011
 10
1187.570717567759
 20
2092.482558850011
 10
1186.675501086252
 20
2092.482558850011
 10
1185.756989875529
 20
2092.482558850011
 10
1184.816653357588
 20
2092.482558850011
 10
1183.855995870263
 20
2092.482558850011
 10
1182.876554260605
 20
2092.482558850011
 10
1181.879895426252
 20
2092.482558850011
 10
1180.867613808731
 20
2092.482558850011
 10
1179.841328842687
 20
2092.482558850011
 10
1178.802682365137
 20
2092.482558850011
 10
1177.75333598888
 20
2092.482558850011
 10
1176.694968444267
 20
2092.482558850011
 10
1175.629272893599
 20
2092.482558850011
 10
1174.557954222419
 20
2092.482558850011
 10
1173.482726312066
 20
2092.482558850011
 10
1172.405309297826
 20
2092.482558850011
 10
1172.114353943106
 20
2092.482558850011
  0
LINE
  5
3AC
330
2DF
100
AcDbEntity
  8
P-SANR-FIXT
100
AcDbLine
 10
1159.114353943099
 20
2127.482558850012
 30
0.0
 11
1159.114353943099
 21
2115.482558850012
 31
0.0
  0
LINE
  5
3AD
330
2DF
100
AcDbEntity
  8
P-SANR-FIXT
100
AcDbLine
 10
1185.114353943113
 20
2092.482558850011
 30
0.0
 11
1185.114353943113
 21
2127.482558850012
 31
0.0
  0
LINE
  5
3AE
330
2DF
100
AcDbEntity
  8
P-SANR-FIXT
100
AcDbLine
 10
1158.614353943108
 20
1625.482558850011
 30
0.0
 11
1158.614353943108
 21
1612.482558850011
 31
0.0
  0
LINE
  5
3AF
330
2DF
100
AcDbEntity
  8
P-SANR-FIXT
100
AcDbLine
 10
1185.614353943105
 20
1612.482558850011
 30
0.0
 11
1185.614353943105
 21
1647.482558850011
 31
0.0
  0
LINE
  5
3B0
330
2DF
100
AcDbEntity
  8
P-SANR-FIXT
100
AcDbLine
 10
1145.183049037142
 20
1647.482558850011
 30
0.0
 11
1145.165924582909
 21
1647.482558850011
 31
0.0
  0
LWPOLYLINE
  5
3B1
330
2DF
100
AcDbEntity
  8
P-SANR-FIXT
100
AcDbPolyline
 90
       41
 70
   128
 43
0.0
 10
1216.564353943107
 20
1664.982558850011
 10
1216.550355809674
 20
1664.282745501745
 10
1216.508383803402
 20
1663.58405170555
 10
1216.438505070549
 20
1662.887595222455
 10
1216.34083140218
 20
1662.194490234261
 10
1216.215519055328
 20
1661.505845561097
 10
1216.062768503017
 20
1660.822762887536
 10
1215.882824113545
 20
1660.146335000139
 10
1215.675973759549
 20
1659.477644039229
 10
1215.44254835747
 20
1658.817759767696
 10
1215.182921338157
 20
1658.167737859609
 10
1214.897508049456
 20
1657.528618211356
 10
1214.586765091744
 20
1656.901423278035
 10
1214.251189587465
 20
1656.287156437745
 10
1213.891318385841
 20
1655.686800386396
 10
1213.507727204026
 20
1655.101315565598
 10
1213.101029706082
 20
1654.531638626169
 10
1212.671876521248
 20
1653.978680929688
 10
1212.220954203072
 20
1653.44332709051
 10
1211.748984131072
 20
1652.926433560576
 10
1211.256721356682
 20
1652.428827259269
 10
1210.74495339533
 20
1651.951304250521
 10
1210.214498966581
 20
1651.494628469279
 10
1209.666206684367
 20
1651.059530499374
 10
1209.100953699374
 20
1650.646706404744
 10
1208.519644295799
 20
1650.256816615873
 10
1207.92320844468
 20
1649.890484873252
 10
1207.312600316147
 20
1649.548297229524
 10
1206.688796752948
 20
1649.230801111922
 10
1206.052795707716
 20
1648.938504446505
 10
1205.405614646448
 20
1648.671874845584
 10
1204.748288920785
 20
1648.431338859644
 10
1204.081870111666
 20
1648.217281294949
 10
1203.407424347023
 20
1648.030044597941
 10
1202.726030596206
 20
1647.869928307393
 10
1202.038778943861
 20
1647.737188575213
 10
1201.346768846024
 20
1647.632037756656
 10
1200.651107371232
 20
1647.554644070602
 10
1199.952907429444
 20
1647.505131330438
 10
1199.253285991626
 20
1647.483578745986
 10
1199.064353943106
 20
1647.482558850011
  0
LWPOLYLINE
  5
3B2
330
2DF
100
AcDbEntity
  8
P-SANR-FIXT
100
AcDbPolyline
 90
       41
 70
   128
 43
0.0
 10
1172.114353943106
 20
1647.482558850011
 10
1173.192066499436
 20
1647.482558850011
 10
1174.268054945575
 20
1647.482558850011
 10
1175.340597929543
 20
1647.482558850011
 10
1176.40797961136
 20
1647.482558850011
 10
1177.468492408033
 20
1647.482558850011
 10
1178.520439725318
 20
1647.482558850011
 10
1179.562138671909
 20
1647.482558850011
 10
1180.591922751711
 20
1647.482558850011
 10
1181.60814452987
 20
1647.482558850011
 10
1182.609178268325
 20
1647.482558850011
 10
1183.593422526635
 20
1647.482558850011
 10
1184.559302723949
 20
1647.482558850011
 10
1185.505273657995
 20
1647.482558850011
 10
1186.429821977074
 20
1647.482558850011
 10
1187.331468601103
 20
1647.482558850011
 10
1188.208771087823
 20
1647.482558850011
 10
1189.060325940404
 20
1647.482558850011
 10
1189.884770852738
 20
1647.482558850011
 10
1190.680786888836
 20
1647.482558850011
 10
1191.447100592849
 20
1647.482558850011
 10
1192.182486026321
 20
1647.482558850011
 10
1192.885766729434
 20
1647.482558850011
 10
1193.555817603086
 20
1647.482558850011
 10
1194.191566708818
 20
1647.482558850011
 10
1194.791996983679
 20
1647.482558850011
 10
1195.356147867314
 20
1647.482558850011
 10
1195.883116838656
 20
1647.482558850011
 10
1196.372060859763
 20
1647.482558850011
 10
1196.822197724506
 20
1647.482558850011
 10
1197.232807309923
 20
1647.482558850011
 10
1197.603232728272
 20
1647.482558850011
 10
1197.932881377901
 20
1647.482558850011
 10
1198.221225891294
 20
1647.482558850011
 10
1198.467804978738
 20
1647.482558850011
 10
1198.672224166295
 20
1647.482558850011
 10
1198.834156426872
 20
1647.482558850011
 10
1198.953342703396
 20
1647.482558850011
 10
1199.029592323248
 20
1647.482558850011
 10
1199.062783303304
 20
1647.482558850011
 10
1199.064353943106
 20
1647.482558850011
  0
LWPOLYLINE
  5
3B3
330
2DF
100
AcDbEntity
  8
P-SANR-FIXT
100
AcDbPolyline
 90
       28
 70
   128
 43
0.0
 10
1199.064353943106
 20
1647.482558850011
 10
1199.04279681762
 20
1647.482558850011
 10
1198.978159927962
 20
1647.482558850011
 10
1198.870546679368
 20
1647.482558850011
 10
1198.72012923008
 20
1647.482558850011
 10
1198.527148215928
 20
1647.482558850011
 10
1198.291912365369
 20
1647.482558850011
 10
1198.014798005582
 20
1647.482558850011
 10
1197.696248460428
 20
1647.482558850011
 10
1197.336773341227
 20
1647.482558850011
 10
1196.936947731485
 20
1647.482558850011
 10
1196.497411266884
 20
1647.482558850011
 10
1196.018867112008
 20
1647.482558850011
 10
1195.502080835419
 20
1647.482558850011
 10
1194.947879184918
 20
1647.482558850011
 10
1194.357148764922
 20
1647.482558850011
 10
1193.730834618088
 20
1647.482558850011
 10
1193.069938713444
 20
1647.482558850011
 10
1192.375518343454
 20
1647.482558850011
 10
1191.648684432574
 20
1647.482558850011
 10
1190.890599760012
 20
1647.482558850011
 10
1190.10247709953
 20
1647.482558850011
 10
1189.285577279258
 20
1647.482558850011
 10
1188.441207164648
 20
1647.482558850011
 10
1187.570717567759
 20
1647.482558850011
 10
1186.675501086253
 20
1647.482558850011
 10
1185.75698987553
 20
1647.482558850011
 10
1185.614353943105
 20
1647.482558850011
  0
LINE
  5
3B4
330
2DF
100
AcDbEntity
  8
P-SANR-FIXT
100
AcDbLine
 10
1216.564353943108
 20
1664.982558850011
 30
0.0
 11
1216.564353943107
 21
2006.488414015028
 31
0.0
  0
LINE
  5
3B5
330
2DF
100
AcDbEntity
  8
P-SANR-FIXT
100
AcDbLine
 10
1216.564353943107
 20
2033.476703684995
 30
0.0
 11
1216.564353943107
 21
2074.982558850011
 31
0.0
  0
LINE
  5
3B6
330
2DF
100
AcDbEntity
  8
P-SANR-FIXT
100
AcDbLine
 10
1216.558796968319
 20
2006.482558850011
 30
0.0
 11
1249.114353943106
 21
2006.482558850011
 31
0.0
  0
LINE
  5
3B7
330
2DF
100
AcDbEntity
  8
P-SANR-FIXT
100
AcDbLine
 10
1249.114353943106
 20
2033.482558850011
 30
0.0
 11
1216.558796968319
 21
2033.482558850011
 31
0.0
  0
LINE
  5
3B8
330
2DF
100
AcDbEntity
  8
P-SANR-FIXT
100
AcDbLine
 10
1172.114353943103
 20
2127.48255885001
 30
0.0
 11
1168.576827081029
 21
2127.48255885001
 31
0.0
  0
LINE
  5
3B9
330
2DF
100
AcDbEntity
  8
P-SANR-FIXT
100
AcDbLine
 10
1163.054800761845
 20
2127.48255885001
 30
0.0
 11
1159.517116109603
 21
2127.48255885001
 31
0.0
  0
LINE
  5
3BA
330
2DF
100
AcDbEntity
  8
P-SANR-FIXT
100
AcDbLine
 10
1184.71159177658
 20
2127.48255885001
 30
0.0
 11
1181.173907124424
 21
2127.48255885001
 31
0.0
  0
LINE
  5
3BB
330
2DF
100
AcDbEntity
  8
P-SANR-FIXT
100
AcDbLine
 10
1175.651880805178
 20
2127.48255885001
 30
0.0
 11
1172.114353943103
 21
2127.48255885001
 31
0.0
  0
LINE
  5
3BC
330
2DF
100
AcDbEntity
  8
P-SANR-FIXT
100
AcDbLine
 10
1169.613402785083
 20
1612.48255885001
 30
0.0
 11
1158.614353943106
 21
1612.48255885001
 31
0.0
  0
LINE
  5
3BD
330
2DF
100
AcDbEntity
  8
P-SANR-FIXT
100
AcDbLine
 10
1185.614353943102
 20
1612.48255885001
 30
0.0
 11
1174.615305101109
 21
1612.48255885001
 31
0.0
  0
SPLINE
  5
3BE
330
2DF
100
AcDbEntity
  8
P-SANR-FIXT
100
AcDbSpline
210
0.0
220
0.0
230
1.0
 70
     8
 71
     3
 72
    14
 73
    10
 74
     0
 42
0.000000001
 43
0.0000000001
 40
0.527777777777793
 40
0.527777777777793
 40
0.527777777777793
 40
0.527777777777793
 40
0.5833333333333333
 40
0.6527777777777777
 40
0.7222222222222223
 40
0.7569444444444445
 40
0.7916666666666668
 40
0.861111111111111
 40
1.0
 40
1.0
 40
1.0
 40
1.0
 10
1216.548791022606
 20
2006.539232335745
 30
0.0
 10
1216.528173164137
 20
2006.606978810392
 30
0.0
 10
1216.435331994087
 20
2006.909866029412
 30
0.0
 10
1216.138997930009
 20
2007.934626575527
 30
0.0
 10
1215.787793177682
 20
2009.286734929855
 30
0.0
 10
1215.478794259929
 20
2010.639628570255
 30
0.0
 10
1215.183269330345
 20
2012.091022506975
 30
0.0
 10
1214.679775288918
 20
2015.101791349615
 30
0.0
 10
1214.474279249797
 20
2017.928572615533
 30
0.0
 10
1214.464708132887
 20
2019.98255885001
 30
0.0
  0
SPLINE
  5
3BF
330
2DF
100
AcDbEntity
  8
P-SANR-FIXT
100
AcDbSpline
210
0.0
220
0.0
230
1.0
 70
     8
 71
     3
 72
    16
 73
    12
 74
     0
 42
0.000000001
 43
0.0000000001
 40
0.0
 40
0.0
 40
0.0
 40
0.0
 40
0.0555555555555556
 40
0.1111111111111111
 40
0.1666666666666666
 40
0.2222222222222222
 40
0.2777777777777778
 40
0.3333333333333333
 40
0.3888888888888888
 40
0.4444444444444445
 40
0.4722222222222148
 40
0.4722222222222148
 40
0.4722222222222148
 40
0.4722222222222148
 10
1214.464708132887
 20
2019.98255885001
 30
0.0
 10
1214.468536579651
 20
2020.804153343802
 30
0.0
 10
1214.516778913534
 20
2022.4014928996
 30
0.0
 10
1214.698985335377
 20
2024.631812104797
 30
0.0
 10
1214.993282864525
 20
2026.780866680942
 30
0.0
 10
1215.342253213591
 20
2028.71244656327
 30
0.0
 10
1215.712591992607
 20
2030.366916211754
 30
0.0
 10
1216.056621947496
 20
2031.725241271637
 30
0.0
 10
1216.338655291167
 20
2032.717753641863
 30
0.0
 10
1216.491468579613
 20
2033.242828182035
 30
0.0
 10
1216.537940735796
 20
2033.395320652093
 30
0.0
 10
1216.548325248435
 20
2033.428754468971
 30
0.0
  0
LINE
  5
3C0
330
2DF
100
AcDbEntity
  8
P-SANR-FIXT
100
AcDbLine
 10
1249.114353943103
 20
2019.98255885001
 30
0.0
 11
1249.114353943103
 21
2006.482558850011
 31
0.0
  0
LINE
  5
3C1
330
2DF
100
AcDbEntity
  8
P-SANR-FIXT
100
AcDbLine
 10
1249.114353943103
 20
2033.48255885001
 30
0.0
 11
1249.114353943103
 21
2019.98255885001
 31
0.0
  0
ENDBLK
  5
3C3
330
2DF
100
AcDbEntity
  8
0
100
AcDbBlockEnd
  0
ENDSEC
  0
SECTION
  2
ENTITIES
  0
INSERT
  5
239
330
71
100
AcDbEntity
  8
P-SANR-FIXT
100
AcDbBlockReference
  2
Automatic flow rate regulator valve_Caleffi_121 DN15 - 1_2__-859151-Est - Idraulica
 10
0.0
 20
0.0
 30
0.0
1001
REVIT
1002
{
1070
     1
1000
863131
1002
}
1002
{
1070
     5
1000
859151
1002
}
1002
{
1070
     2
1000
-2001160
1002
}
  0
INSERT
  5
2DE
330
71
100
AcDbEntity
  8
P-SANR-FIXT
100
AcDbBlockReference
  2
Automatic flow rate regulator valve_Caleffi_121 DN15 - 1_2__-V1-Est - Idraulica
 10
0.0
 20
0.0
 30
0.0
1001
REVIT
1002
{
1070
     1
1000
863152
1002
}
1002
{
1070
     5
1000
859151
1002
}
1002
{
1070
     2
1000
-2001160
1002
}
  0
INSERT
  5
3C4
330
71
100
AcDbEntity
  8
P-SANR-FIXT
100
AcDbBlockReference
  2
Automatic flow rate regulator valve_Caleffi_121 DN15 - 1_2__-V2-Est - Idraulica
 10
0.0
 20
0.0
 30
0.0
1001
REVIT
1002
{
1070
     1
1000
863172
1002
}
1002
{
1070
     5
1000
859151
1002
}
1002
{
1070
     2
1000
-2001160
1002
}
  0
ENDSEC
  0
SECTION
  2
OBJECTS
  0
DICTIONARY
  5
C
330
0
100
AcDbDictionary
281
     1
  3
ACAD_CIP_PREVIOUS_PRODUCT_INFO
350
7A
  3
ACAD_COLOR
350
63
  3
ACAD_DETAILVIEWSTYLE
350
6B
  3
ACAD_GROUP
350
D
  3
ACAD_IMAGE_VARS
350
7B
  3
ACAD_LAYOUT
350
62
  3
ACAD_MATERIAL
350
10
  3
ACAD_MLEADERSTYLE
350
66
  3
ACAD_MLINESTYLE
350
5F
  3
ACAD_PLOTSETTINGS
350
61
  3
ACAD_PLOTSTYLENAME
350
E
  3
ACAD_SCALELIST
350
42
  3
ACAD_SECTIONVIEWSTYLE
350
68
  3
ACAD_TABLESTYLE
350
64
  3
ACAD_VISUALSTYLE
350
29
  3
ACDB_RECOMPOSE_DATA
350
3CF
  3
AcDbVariableDictionary
350
7C
  3
REVIT_DICTIONARY
350
3C6
  0
DICTIONARY
  5
3CB
330
71
100
AcDbDictionary
280
     1
281
     1
  3
ACAD_SORTENTS
360
3CC
  0
XRECORD
  5
7A
102
{ACAD_REACTORS
330
C
102
}
330
C
100
AcDbXrecord
280
     1
300
RVT
300
2013
300
RVT2013
  0
DICTIONARY
  5
63
102
{ACAD_REACTORS
330
C
102
}
330
C
100
AcDbDictionary
281
     1
  0
DICTIONARY
  5
6B
102
{ACAD_REACTORS
330
C
102
}
330
C
100
AcDbDictionary
281
     1
  3
Imperial24
350
6C
  0
DICTIONARY
  5
D
102
{ACAD_REACTORS
330
C
102
}
330
C
100
AcDbDictionary
281
     1
  0
RASTERVARIABLES
  5
7B
102
{ACAD_REACTORS
330
C
102
}
330
C
100
AcDbRasterVariables
 90
        0
 70
     0
 71
     1
 72
     1
  0
DICTIONARY
  5
62
102
{ACAD_REACTORS
330
C
102
}
330
C
100
AcDbDictionary
281
     1
  3
Layout1
350
70
  3
Layout2
350
78
  3
Model
350
74
  0
DICTIONARY
  5
10
102
{ACAD_REACTORS
330
C
102
}
330
C
100
AcDbDictionary
281
     1
  3
ByBlock
350
19
  3
ByLayer
350
11
  3
Global
350
21
  0
DICTIONARY
  5
66
102
{ACAD_REACTORS
330
C
102
}
330
C
100
AcDbDictionary
281
     1
  3
Standard
350
67
  0
DICTIONARY
  5
5F
102
{ACAD_REACTORS
330
C
102
}
330
C
100
AcDbDictionary
281
     1
  3
Standard
350
60
  0
DICTIONARY
  5
61
102
{ACAD_REACTORS
330
C
102
}
330
C
100
AcDbDictionary
281
     1
  0
ACDBDICTIONARYWDFLT
  5
E
102
{ACAD_REACTORS
330
C
102
}
330
C
100
AcDbDictionary
281
     1
  3
Normal
350
F
100
AcDbDictionaryWithDefault
340
F
  0
DICTIONARY
  5
42
102
{ACAD_REACTORS
330
C
102
}
330
C
100
AcDbDictionary
281
     1
  3
A0
350
43
  3
A1
350
44
  3
A2
350
45
  3
A3
350
46
  3
A4
350
47
  3
A5
350
48
  3
A6
350
49
  3
A7
350
4A
  3
A8
350
4B
  3
A9
350
4C
  3
B0
350
4D
  3
B1
350
4E
  3
B2
350
4F
  3
B3
350
50
  3
B4
350
51
  3
B5
350
52
  3
B6
350
53
  0
DICTIONARY
  5
68
102
{ACAD_REACTORS
330
C
102
}
330
C
100
AcDbDictionary
281
     1
  3
Imperial24
350
6A
  0
DICTIONARY
  5
64
102
{ACAD_REACTORS
330
C
102
}
330
C
100
AcDbDictionary
281
     1
  3
Standard
350
65
  0
DICTIONARY
  5
29
102
{ACAD_REACTORS
330
C
102
}
330
C
100
AcDbDictionary
281
     1
  3
2dWireframe
350
2F
  3
Basic
350
2E
  3
Brighten
350
35
  3
ColorChange
350
39
  3
Conceptual
350
32
  3
Dim
350
34
  3
EdgeColorOff
350
41
  3
Facepattern
350
38
  3
Flat
350
2A
  3
FlatWithEdges
350
2B
  3
Gouraud
350
2C
  3
GouraudWithEdges
350
2D
  3
Hidden
350
31
  3
JitterOff
350
3F
  3
Linepattern
350
37
  3
OverhangOff
350
40
  3
Realistic
350
33
  3
Shaded
350
3E
  3
Shaded with edges
350
3D
  3
Shades of Gray
350
3A
  3
Sketchy
350
3B
  3
Thicken
350
36
  3
Wireframe
350
30
  3
X-Ray
350
3C
  0
XRECORD
  5
3CF
102
{ACAD_REACTORS
330
C
102
}
330
C
100
AcDbXrecord
280
     1
 90
        1
330
65
  0
DICTIONARY
  5
7C
102
{ACAD_REACTORS
330
C
102
}
330
C
100
AcDbDictionary
281
     1
  3
CANNOSCALE
350
81
  3
CMLEADERSTYLE
350
7E
  3
CTABLESTYLE
350
7D
  3
CVIEWDETAILSTYLE
350
7F
  3
CVIEWSECTIONSTYLE
350
80
  0
DICTIONARY
  5
3C6
102
{ACAD_REACTORS
330
C
102
}
330
C
100
AcDbDictionary
281
     1
  3
DRAWING_TOOL
350
3CA
  3
REVIT_CATEGORY_MAPPING
350
3C8
  3
REVIT_SUB_CATEGORY_MAPPING
350
3C9
  3
REVIT_TYPE_MAPPING
350
3C7
  0
SORTENTSTABLE
  5
3CC
102
{ACAD_REACTORS
330
3CB
102
}
330
3CB
100
AcDbSortentsTable
330
71
  0
ACDBDETAILVIEWSTYLE
  5
6C
102
{ACAD_REACTORS
330
6B
102
}
330
6B
100
AcDbModelDocViewStyle
 70
     0
  3
Imperial24
290
     1
100
AcDbDetailViewStyle
 70
     0
 71
     0
 90
        3
 71
     1
340
55
 62
   256
 40
0.24
340
0
 62
   256
 40
0.24
300

 40
0.36
280
     3
 71
     2
340
5D
 90
       25
 62
   256
 71
     3
340
55
 62
   256
 40
0.24
 90
        1
 40
0.75
 90
        1
300
%<\AcVar ViewType \f "%tc1">% %<\AcVar ViewDetailId>%\PSCALA %<\AcVar ViewScale \f "%sn">%
 71
     4
340
5D
 90
       25
 62
   256
340
5D
 90
       25
 62
   256
280
     0
  0
LAYOUT
  5
70
102
{ACAD_REACTORS
330
62
102
}
330
62
100
AcDbPlotSettings
  1

  2

  4

  6

 40
0.0
 41
0.0
 42
0.0
 43
0.0
 44
0.0
 45
0.0
 46
0.0
 47
0.0
 48
0.0
 49
0.0
140
0.0
141
0.0
142
1.0
143
1.0
 70
   688
 72
     0
 73
     0
 74
     5
  7

 75
    16
147
1.0
 76
     0
 77
     2
 78
   300
148
0.0
149
0.0
100
AcDbLayout
  1
Layout1
 70
     1
 71
     1
 10
0.0
 20
0.0
 11
12.0
 21
9.0
 12
0.0
 22
0.0
 32
0.0
 14
0.0
 24
0.0
 34
0.0
 15
0.0
 25
0.0
 35
0.0
146
0.0
 13
0.0
 23
0.0
 33
0.0
 16
1.0
 26
0.0
 36
0.0
 17
0.0
 27
1.0
 37
0.0
 76
     0
330
6D
  0
LAYOUT
  5
78
102
{ACAD_REACTORS
330
62
102
}
330
62
100
AcDbPlotSettings
  1

  2

  4

  6

 40
0.0
 41
0.0
 42
0.0
 43
0.0
 44
0.0
 45
0.0
 46
0.0
 47
0.0
 48
0.0
 49
0.0
140
0.0
141
0.0
142
1.0
143
1.0
 70
   688
 72
     0
 73
     0
 74
     5
  7

 75
    16
147
1.0
 76
     0
 77
     2
 78
   300
148
0.0
149
0.0
100
AcDbLayout
  1
Layout2
 70
     1
 71
     2
 10
0.0
 20
0.0
 11
12.0
 21
9.0
 12
0.0
 22
0.0
 32
0.0
 14
0.0
 24
0.0
 34
0.0
 15
0.0
 25
0.0
 35
0.0
146
0.0
 13
0.0
 23
0.0
 33
0.0
 16
1.0
 26
0.0
 36
0.0
 17
0.0
 27
1.0
 37
0.0
 76
     0
330
75
  0
LAYOUT
  5
74
102
{ACAD_REACTORS
330
62
102
}
330
62
100
AcDbPlotSettings
  1

  2

  4

  6

 40
0.0
 41
0.0
 42
0.0
 43
0.0
 44
0.0
 45
0.0
 46
0.0
 47
0.0
 48
0.0
 49
0.0
140
0.0
141
0.0
142
1.0
143
1.0
 70
  1712
 72
     0
 73
     0
 74
     0
  7

 75
     0
147
1.0
 76
     0
 77
     2
 78
   300
148
0.0
149
0.0
100
AcDbLayout
  1
Model
 70
     1
 71
     0
 10
0.0
 20
0.0
 11
12.0
 21
9.0
 12
0.0
 22
0.0
 32
0.0
 14
0.0
 24
0.0
 34
0.0
 15
0.0
 25
0.0
 35
0.0
146
0.0
 13
0.0
 23
0.0
 33
0.0
 16
1.0
 26
0.0
 36
0.0
 17
0.0
 27
1.0
 37
0.0
 76
     0
330
71
  0
MATERIAL
  5
19
102
{ACAD_XDICTIONARY
360
1A
102
}
102
{ACAD_REACTORS
330
10
102
}
330
10
100
AcDbMaterial
  1
ByBlock
 72
     0
 43
0.0208333333333333
 43
0.0
 43
0.0
 43
0.0
 43
0.0
 43
0.0208333333333333
 43
0.0
 43
0.0
 43
0.0
 43
0.0
 43
1.0
 43
0.0
 43
0.0
 43
0.0
 43
0.0
 43
1.0
 77
     0
 47
0.0208333333333333
 47
0.0
 47
0.0
 47
0.0
 47
0.0
 47
0.0208333333333333
 47
0.0
 47
0.0
 47
0.0
 47
0.0
 47
1.0
 47
0.0
 47
0.0
 47
0.0
 47
0.0
 47
1.0
171
     0
 49
0.0208333333333333
 49
0.0
 49
0.0
 49
0.0
 49
0.0
 49
0.0208333333333333
 49
0.0
 49
0.0
 49
0.0
 49
0.0
 49
1.0
 49
0.0
 49
0.0
 49
0.0
 49
0.0
 49
1.0
175
     0
142
0.0208333333333333
142
0.0
142
0.0
142
0.0
142
0.0
142
0.0208333333333333
142
0.0
142
0.0
142
0.0
142
0.0
142
1.0
142
0.0
142
0.0
142
0.0
142
0.0
142
1.0
179
     0
144
0.0208333333333333
144
0.0
144
0.0
144
0.0
144
0.0
144
0.0208333333333333
144
0.0
144
0.0
144
0.0
144
0.0
144
1.0
144
0.0
144
0.0
144
0.0
144
0.0
144
1.0
147
0.0208333333333333
147
0.0
147
0.0
147
0.0
147
0.0
147
0.0208333333333333
147
0.0
147
0.0
147
0.0
147
0.0
147
1.0
147
0.0
147
0.0
147
0.0
147
0.0
147
1.0
  0
MATERIAL
  5
11
102
{ACAD_XDICTIONARY
360
12
102
}
102
{ACAD_REACTORS
330
10
102
}
330
10
100
AcDbMaterial
  1
ByLayer
 72
     0
 43
0.0208333333333333
 43
0.0
 43
0.0
 43
0.0
 43
0.0
 43
0.0208333333333333
 43
0.0
 43
0.0
 43
0.0
 43
0.0
 43
1.0
 43
0.0
 43
0.0
 43
0.0
 43
0.0
 43
1.0
 77
     0
 47
0.0208333333333333
 47
0.0
 47
0.0
 47
0.0
 47
0.0
 47
0.0208333333333333
 47
0.0
 47
0.0
 47
0.0
 47
0.0
 47
1.0
 47
0.0
 47
0.0
 47
0.0
 47
0.0
 47
1.0
171
     0
 49
0.0208333333333333
 49
0.0
 49
0.0
 49
0.0
 49
0.0
 49
0.0208333333333333
 49
0.0
 49
0.0
 49
0.0
 49
0.0
 49
1.0
 49
0.0
 49
0.0
 49
0.0
 49
0.0
 49
1.0
175
     0
142
0.0208333333333333
142
0.0
142
0.0
142
0.0
142
0.0
142
0.0208333333333333
142
0.0
142
0.0
142
0.0
142
0.0
142
1.0
142
0.0
142
0.0
142
0.0
142
0.0
142
1.0
179
     0
144
0.0208333333333333
144
0.0
144
0.0
144
0.0
144
0.0
144
0.0208333333333333
144
0.0
144
0.0
144
0.0
144
0.0
144
1.0
144
0.0
144
0.0
144
0.0
144
0.0
144
1.0
147
0.0208333333333333
147
0.0
147
0.0
147
0.0
147
0.0
147
0.0208333333333333
147
0.0
147
0.0
147
0.0
147
0.0
147
1.0
147
0.0
147
0.0
147
0.0
147
0.0
147
1.0
  0
MATERIAL
  5
21
102
{ACAD_XDICTIONARY
360
22
102
}
102
{ACAD_REACTORS
330
10
102
}
330
10
100
AcDbMaterial
  1
Global
 72
     0
 43
0.0208333333333333
 43
0.0
 43
0.0
 43
0.0
 43
0.0
 43
0.0208333333333333
 43
0.0
 43
0.0
 43
0.0
 43
0.0
 43
1.0
 43
0.0
 43
0.0
 43
0.0
 43
0.0
 43
1.0
 77
     0
 47
0.0208333333333333
 47
0.0
 47
0.0
 47
0.0
 47
0.0
 47
0.0208333333333333
 47
0.0
 47
0.0
 47
0.0
 47
0.0
 47
1.0
 47
0.0
 47
0.0
 47
0.0
 47
0.0
 47
1.0
171
     0
 49
0.0208333333333333
 49
0.0
 49
0.0
 49
0.0
 49
0.0
 49
0.0208333333333333
 49
0.0
 49
0.0
 49
0.0
 49
0.0
 49
1.0
 49
0.0
 49
0.0
 49
0.0
 49
0.0
 49
1.0
175
     0
142
0.0208333333333333
142
0.0
142
0.0
142
0.0
142
0.0
142
0.0208333333333333
142
0.0
142
0.0
142
0.0
142
0.0
142
1.0
142
0.0
142
0.0
142
0.0
142
0.0
142
1.0
179
     0
144
0.0208333333333333
144
0.0
144
0.0
144
0.0
144
0.0
144
0.0208333333333333
144
0.0
144
0.0
144
0.0
144
0.0
144
1.0
144
0.0
144
0.0
144
0.0
144
0.0
144
1.0
147
0.0208333333333333
147
0.0
147
0.0
147
0.0
147
0.0
147
0.0208333333333333
147
0.0
147
0.0
147
0.0
147
0.0
147
1.0
147
0.0
147
0.0
147
0.0
147
0.0
147
1.0
  0
MLEADERSTYLE
  5
67
102
{ACAD_REACTORS
330
66
102
}
330
66
100
AcDbMLeaderStyle
179
     2
170
     2
171
     1
172
     0
 90
        2
 40
0.0
 41
0.0
173
     1
 91
-1056964608
340
5B
 92
       -2
290
     1
 42
0.09
291
     1
 43
0.36
  3
Standard
 44
0.18
300

342
55
174
     1
178
     6
175
     1
176
     0
 93
-1056964608
 45
0.18
292
     0
297
     0
 46
0.18
 94
-1056964608
 47
1.0
 49
1.0
140
1.0
293
     1
141
0.0
294
     1
177
     0
142
1.0
295
     1
296
     0
143
0.125
271
     0
272
     9
273
     9
298
     1
  0
MLINESTYLE
  5
60
102
{ACAD_REACTORS
330
5F
102
}
330
5F
100
AcDbMlineStyle
  2
STANDARD
 70
     0
  3

 62
   256
 51
90.0
 52
90.0
 71
     2
 49
0.5
 62
   256
  6
BYLAYER
 49
-0.5
 62
   256
  6
BYLAYER
  0
ACDBPLACEHOLDER
  5
F
102
{ACAD_REACTORS
330
E
102
}
330
E
  0
SCALE
  5
43
102
{ACAD_REACTORS
330
42
102
}
330
42
100
AcDbScale
 70
     0
300
1:1
140
1.0
141
1.0
290
     1
  0
SCALE
  5
44
102
{ACAD_REACTORS
330
42
102
}
330
42
100
AcDbScale
 70
     0
300
1/128" = 1'-0"
140
0.0078125
141
12.0
290
     0
  0
SCALE
  5
45
102
{ACAD_REACTORS
330
42
102
}
330
42
100
AcDbScale
 70
     0
300
1/64" = 1'-0"
140
0.015625
141
12.0
290
     0
  0
SCALE
  5
46
102
{ACAD_REACTORS
330
42
102
}
330
42
100
AcDbScale
 70
     0
300
1/32" = 1'-0"
140
0.03125
141
12.0
290
     0
  0
SCALE
  5
47
102
{ACAD_REACTORS
330
42
102
}
330
42
100
AcDbScale
 70
     0
300
1/16" = 1'-0"
140
0.0625
141
12.0
290
     0
  0
SCALE
  5
48
102
{ACAD_REACTORS
330
42
102
}
330
42
100
AcDbScale
 70
     0
300
3/32" = 1'-0"
140
0.09375
141
12.0
290
     0
  0
SCALE
  5
49
102
{ACAD_REACTORS
330
42
102
}
330
42
100
AcDbScale
 70
     0
300
1/8" = 1'-0"
140
0.125
141
12.0
290
     0
  0
SCALE
  5
4A
102
{ACAD_REACTORS
330
42
102
}
330
42
100
AcDbScale
 70
     0
300
3/16" = 1'-0"
140
0.1875
141
12.0
290
     0
  0
SCALE
  5
4B
102
{ACAD_REACTORS
330
42
102
}
330
42
100
AcDbScale
 70
     0
300
1/4" = 1'-0"
140
0.25
141
12.0
290
     0
  0
SCALE
  5
4C
102
{ACAD_REACTORS
330
42
102
}
330
42
100
AcDbScale
 70
     0
300
3/8" = 1'-0"
140
0.375
141
12.0
290
     0
  0
SCALE
  5
4D
102
{ACAD_REACTORS
330
42
102
}
330
42
100
AcDbScale
 70
     0
300
1/2" = 1'-0"
140
0.5
141
12.0
290
     0
  0
SCALE
  5
4E
102
{ACAD_REACTORS
330
42
102
}
330
42
100
AcDbScale
 70
     0
300
3/4" = 1'-0"
140
0.75
141
12.0
290
     0
  0
SCALE
  5
4F
102
{ACAD_REACTORS
330
42
102
}
330
42
100
AcDbScale
 70
     0
300
1" = 1'-0"
140
1.0
141
12.0
290
     0
  0
SCALE
  5
50
102
{ACAD_REACTORS
330
42
102
}
330
42
100
AcDbScale
 70
     0
300
1-1/2" = 1'-0"
140
1.5
141
12.0
290
     0
  0
SCALE
  5
51
102
{ACAD_REACTORS
330
42
102
}
330
42
100
AcDbScale
 70
     0
300
3" = 1'-0"
140
3.0
141
12.0
290
     0
  0
SCALE
  5
52
102
{ACAD_REACTORS
330
42
102
}
330
42
100
AcDbScale
 70
     0
300
6" = 1'-0"
140
6.0
141
12.0
290
     0
  0
SCALE
  5
53
102
{ACAD_REACTORS
330
42
102
}
330
42
100
AcDbScale
 70
     0
300
1'-0" = 1'-0"
140
12.0
141
12.0
290
     0
  0
ACDBSECTIONVIEWSTYLE
  5
6A
102
{ACAD_REACTORS
330
68
102
}
330
68
100
AcDbModelDocViewStyle
 70
     0
  3
Imperial24
290
     1
100
AcDbSectionViewStyle
 70
     0
 71
     0
 90
       78
 71
     1
340
55
 62
   256
 40
0.24
340
0
340
0
 62
   256
 40
0.24
300
I, O, Q, S, X, Z
 40
0.48
 90
        3
 40
0.18
 90
        1
 71
     2
340
69
 90
       25
 62
   256
340
5D
 90
       50
 62
   256
 40
0.24
 40
0.0
 40
0.24
 71
     3
340
55
 62
   256
 40
0.24
 90
        1
 40
0.75
 90
        1
300
%<\AcVar ViewType \f "%tc1">% %<\AcVar ViewSectionStartId>%-%<\AcVar ViewSectionEndId>%\PSCALA %<\AcVar ViewScale \f "%sn">%
 71
     4
 62
   256
 62
   257
300
ANSI31
 40
1.0
 90
        0
290
     0
290
     0
 90
        6
 40
0.0
 40
1.570796326794896
 40
0.2617993877991494
 40
1.308996938995747
 40
-0.2617993877991494
 40
1.832595714594046
  0
TABLESTYLE
  5
65
102
{ACAD_XDICTIONARY
360
3CD
102
}
102
{ACAD_REACTORS
330
64
102
}
330
64
100
AcDbTableStyle
280
     0
  3
Standard
 70
     0
 71
     0
 40
0.06
 41
0.06
280
     0
281
     0
  7
Standard
140
0.18
170
     2
 62
     0
 63
     7
283
     0
 90
      512
 91
        0
  1

274
    -2
284
     1
 64
     0
275
    -2
285
     1
 65
     0
276
    -2
286
     1
 66
     0
277
    -2
287
     1
 67
     0
278
    -2
288
     1
 68
     0
279
    -2
289
     1
 69
     0
  7
Standard
140
0.25
170
     5
 62
     0
 63
     7
283
     0
 90
      512
 91
        0
  1

274
    -2
284
     1
 64
     0
275
    -2
285
     1
 65
     0
276
    -2
286
     1
 66
     0
277
    -2
287
     1
 67
     0
278
    -2
288
     1
 68
     0
279
    -2
289
     1
 69
     0
  7
Standard
140
0.18
170
     5
 62
     0
 63
     7
283
     0
 90
      512
 91
        0
  1

274
    -2
284
     1
 64
     0
275
    -2
285
     1
 65
     0
276
    -2
286
     1
 66
     0
277
    -2
287
     1
 67
     0
278
    -2
288
     1
 68
     0
279
    -2
289
     1
 69
     0
  0
VISUALSTYLE
  5
2F
102
{ACAD_REACTORS
330
29
102
}
330
29
100
AcDbVisualStyle
  2
2dWireframe
 70
     4
177
     3
291
     0
 70
    58
 90
        0
176
     1
 90
        2
176
     1
 90
        0
176
     1
 90
        0
176
     1
 40
0.6
176
     1
 40
30.0
176
     1
 62
     7
420
 16777215
176
     1
 90
        1
176
     1
 90
        4
176
     1
 62
     7
176
     1
 62
   257
176
     1
 90
        1
176
     1
 90
        1
176
     1
 40
1.0
176
     1
 90
        0
176
     1
 62
   257
176
     1
 40
1.0
176
     1
 90
        1
176
     1
 90
        6
176
     1
 90
        2
176
     1
 62
     7
176
     1
 90
        5
176
     1
 90
        0
176
     1
 90
        0
176
     1
290
     0
176
     1
 90
        1
176
     1
 40
0.0
176
     1
 90
        0
176
     1
290
     1
176
     1
290
     1
176
     1
290
     0
176
     1
290
     0
176
     1
290
     0
176
     1
290
     0
176
     1
290
     0
176
     1
290
     0
176
     1
290
     0
176
     1
 90
       50
176
     1
 40
0.0
176
     1
 40
1.0
176
     1
 90
        0
176
     1
 62
    18
420
        0
176
     1
 90
       50
176
     1
 90
        3
176
     1
 62
     5
420
      255
176
     1
290
     0
176
     1
 90
       50
176
     1
 90
       50
176
     1
 90
       50
176
     1
290
     0
176
     1
 90
       50
176
     1
 62
   256
176
     0
 40
1.0
176
     0
 90
        2
176
     1
  1
strokes_ogs.tif
176
     1
290
     0
176
     1
 40
1.0
176
     1
 40
1.0
176
     1
  0
VISUALSTYLE
  5
2E
102
{ACAD_REACTORS
330
29
102
}
330
29
100
AcDbVisualStyle
  2
Basic
 70
     7
177
     3
291
     1
 70
    58
 90
        1
176
     1
 90
        0
176
     1
 90
        1
176
     1
 90
        0
176
     1
 40
0.6
176
     1
 40
30.0
176
     1
 62
     7
420
 16777215
176
     1
 90
        0
176
     1
 90
        4
176
     1
 62
     7
176
     1
 62
   257
176
     1
 90
        1
176
     1
 90
        1
176
     1
 40
1.0
176
     1
 90
        8
176
     1
 62
     7
176
     1
 40
1.0
176
     1
 90
        1
176
     1
 90
        6
176
     1
 90
        2
176
     1
 62
     7
176
     1
 90
        5
176
     1
 90
        0
176
     1
 90
        0
176
     1
290
     0
176
     1
 90
        1
176
     1
 40
0.0
176
     1
 90
        0
176
     1
290
     0
176
     1
290
     1
176
     1
290
     1
176
     1
290
     0
176
     1
290
     0
176
     1
290
     0
176
     1
290
     0
176
     1
290
     0
176
     1
290
     0
176
     1
 90
       50
176
     1
 40
0.0
176
     1
 40
1.0
176
     1
 90
        0
176
     1
 62
    18
420
        0
176
     1
 90
       50
176
     1
 90
        3
176
     1
 62
     5
420
      255
176
     1
290
     0
176
     1
 90
       50
176
     1
 90
       50
176
     1
 90
       50
176
     1
290
     0
176
     1
 90
       50
176
     1
 62
   256
176
     0
 40
1.0
176
     0
 90
        2
176
     1
  1
strokes_ogs.tif
176
     1
290
     0
176
     1
 40
1.0
176
     1
 40
1.0
176
     1
  0
VISUALSTYLE
  5
35
102
{ACAD_REACTORS
330
29
102
}
330
29
100
AcDbVisualStyle
  2
Brighten
 70
    12
177
     3
291
     1
 70
    58
 90
        2
176
     1
 90
        2
176
     1
 90
        0
176
     1
 90
        0
176
     1
 40
0.6
176
     1
 40
30.0
176
     1
 62
     7
420
 16777215
176
     1
 90
        1
176
     1
 90
        4
176
     1
 62
     7
176
     1
 62
   257
176
     1
 90
        1
176
     1
 90
        1
176
     1
 40
1.0
176
     1
 90
        8
176
     1
 62
     7
176
     1
 40
1.0
176
     1
 90
        1
176
     1
 90
        6
176
     1
 90
        2
176
     1
 62
     7
176
     1
 90
        5
176
     1
 90
        0
176
     1
 90
        0
176
     1
290
     0
176
     1
 90
        1
176
     1
 40
50.0
176
     1
 90
        0
176
     1
290
     0
176
     1
290
     1
176
     1
290
     1
176
     1
290
     0
176
     1
290
     0
176
     1
290
     0
176
     1
290
     0
176
     1
290
     0
176
     1
290
     0
176
     1
 90
       50
176
     1
 40
0.0
176
     1
 40
1.0
176
     1
 90
        0
176
     1
 62
    18
420
        0
176
     1
 90
       50
176
     1
 90
        3
176
     1
 62
     5
420
      255
176
     1
290
     0
176
     1
 90
       50
176
     1
 90
       50
176
     1
 90
       50
176
     1
290
     0
176
     1
 90
       50
176
     1
 62
   256
176
     0
 40
1.0
176
     0
 90
        2
176
     1
  1
strokes_ogs.tif
176
     1
290
     0
176
     1
 40
1.0
176
     1
 40
1.0
176
     1
  0
VISUALSTYLE
  5
39
102
{ACAD_REACTORS
330
29
102
}
330
29
100
AcDbVisualStyle
  2
ColorChange
 70
    16
177
     3
291
     1
 70
    58
 90
        2
176
     1
 90
        2
176
     1
 90
        3
176
     1
 90
        0
176
     1
 40
0.6
176
     1
 40
30.0
176
     1
 62
     8
420
  8421504
176
     1
 90
        1
176
     1
 90
        4
176
     1
 62
     7
176
     1
 62
   257
176
     1
 90
        1
176
     1
 90
        1
176
     1
 40
1.0
176
     1
 90
        8
176
     1
 62
     8
420
  8421504
176
     1
 40
1.0
176
     1
 90
        1
176
     1
 90
        6
176
     1
 90
        2
176
     1
 62
     7
176
     1
 90
        5
176
     1
 90
        0
176
     1
 90
        0
176
     1
290
     0
176
     1
 90
        1
176
     1
 40
0.0
176
     1
 90
        0
176
     1
290
     0
176
     1
290
     1
176
     1
290
     1
176
     1
290
     0
176
     1
290
     0
176
     1
290
     0
176
     1
290
     0
176
     1
290
     0
176
     1
290
     0
176
     1
 90
       50
176
     1
 40
0.0
176
     1
 40
1.0
176
     1
 90
        0
176
     1
 62
    18
420
        0
176
     1
 90
       50
176
     1
 90
        3
176
     1
 62
     5
420
      255
176
     1
290
     0
176
     1
 90
       50
176
     1
 90
       50
176
     1
 90
       50
176
     1
290
     0
176
     1
 90
       50
176
     1
 62
   256
176
     0
 40
1.0
176
     0
 90
        2
176
     1
  1
strokes_ogs.tif
176
     1
290
     0
176
     1
 40
1.0
176
     1
 40
1.0
176
     1
  0
VISUALSTYLE
  5
32
102
{ACAD_REACTORS
330
29
102
}
330
29
100
AcDbVisualStyle
  2
Conceptual
 70
     9
177
     3
291
     0
 70
    58
 90
        3
176
     1
 90
        2
176
     1
 90
        0
176
     1
 90
        0
176
     1
 40
0.6
176
     1
 40
30.0
176
     1
 62
     7
420
 16777215
176
     1
 90
        2
176
     1
 90
        2
176
     1
 62
     7
176
     1
 62
   257
176
     1
 90
        1
176
     1
 90
        1
176
     1
 40
179.0
176
     1
 90
        8
176
     1
 62
     7
176
     1
 40
1.0
176
     1
 90
        1
176
     1
 90
        6
176
     1
 90
        2
176
     1
 62
     7
176
     1
 90
        3
176
     1
 90
        0
176
     1
 90
        0
176
     1
290
     0
176
     1
 90
        1
176
     1
 40
0.0
176
     1
 90
        0
176
     1
290
     0
176
     1
290
     1
176
     1
290
     1
176
     1
290
     0
176
     1
290
     0
176
     1
290
     0
176
     1
290
     0
176
     1
290
     0
176
     1
290
     0
176
     1
 90
       50
176
     1
 40
0.0
176
     1
 40
1.0
176
     1
 90
        0
176
     1
 62
    18
420
        0
176
     1
 90
       50
176
     1
 90
        3
176
     1
 62
     5
420
      255
176
     1
290
     0
176
     1
 90
       50
176
     1
 90
       50
176
     1
 90
       50
176
     1
290
     0
176
     1
 90
       50
176
     1
 62
   256
176
     0
 40
1.0
176
     0
 90
        2
176
     1
  1
strokes_ogs.tif
176
     1
290
     0
176
     1
 40
1.0
176
     1
 40
1.0
176
     1
  0
VISUALSTYLE
  5
34
102
{ACAD_REACTORS
330
29
102
}
330
29
100
AcDbVisualStyle
  2
Dim
 70
    11
177
     3
291
     1
 70
    58
 90
        2
176
     1
 90
        2
176
     1
 90
        0
176
     1
 90
        0
176
     1
 40
0.6
176
     1
 40
30.0
176
     1
 62
     7
420
 16777215
176
     1
 90
        1
176
     1
 90
        4
176
     1
 62
     7
176
     1
 62
   257
176
     1
 90
        1
176
     1
 90
        1
176
     1
 40
1.0
176
     1
 90
        8
176
     1
 62
     7
176
     1
 40
1.0
176
     1
 90
        1
176
     1
 90
        6
176
     1
 90
        2
176
     1
 62
     7
176
     1
 90
        5
176
     1
 90
        0
176
     1
 90
        0
176
     1
290
     0
176
     1
 90
        1
176
     1
 40
-50.0
176
     1
 90
        0
176
     1
290
     0
176
     1
290
     1
176
     1
290
     1
176
     1
290
     0
176
     1
290
     0
176
     1
290
     0
176
     1
290
     0
176
     1
290
     0
176
     1
290
     0
176
     1
 90
       50
176
     1
 40
0.0
176
     1
 40
1.0
176
     1
 90
        0
176
     1
 62
    18
420
        0
176
     1
 90
       50
176
     1
 90
        3
176
     1
 62
     5
420
      255
176
     1
290
     0
176
     1
 90
       50
176
     1
 90
       50
176
     1
 90
       50
176
     1
290
     0
176
     1
 90
       50
176
     1
 62
   256
176
     0
 40
1.0
176
     0
 90
        2
176
     1
  1
strokes_ogs.tif
176
     1
290
     0
176
     1
 40
1.0
176
     1
 40
1.0
176
     1
  0
VISUALSTYLE
  5
41
102
{ACAD_REACTORS
330
29
102
}
330
29
100
AcDbVisualStyle
  2
EdgeColorOff
 70
    22
177
     3
291
     1
 70
    58
 90
        2
176
     0
 90
        2
176
     0
 90
        0
176
     0
 90
        0
176
     0
 40
0.6
176
     0
 40
30.0
176
     0
 62
     7
420
 16777215
176
     0
 90
        1
176
     0
 90
        4
176
     0
 62
     7
176
     0
 62
   257
176
     0
 90
        1
176
     0
 90
        1
176
     0
 40
1.0
176
     0
 90
        8
176
     2
 62
     7
176
     0
 40
1.0
176
     0
 90
        1
176
     0
 90
        6
176
     0
 90
        2
176
     0
 62
     7
176
     0
 90
        5
176
     0
 90
        0
176
     0
 90
        0
176
     0
290
     0
176
     0
 90
        1
176
     0
 40
0.0
176
     0
 90
        0
176
     0
290
     0
176
     0
290
     1
176
     0
290
     1
176
     0
290
     0
176
     0
290
     0
176
     0
290
     0
176
     0
290
     0
176
     0
290
     0
176
     0
290
     0
176
     0
 90
       50
176
     0
 40
0.0
176
     0
 40
1.0
176
     0
 90
        0
176
     0
 62
    18
420
        0
176
     0
 90
       50
176
     0
 90
        3
176
     0
 62
     5
420
      255
176
     0
290
     0
176
     0
 90
       50
176
     0
 90
       50
176
     0
 90
       50
176
     0
290
     0
176
     0
 90
       50
176
     0
 62
   256
176
     0
 40
1.0
176
     0
 90
        2
176
     0
  1
strokes_ogs.tif
176
     0
290
     0
176
     0
 40
1.0
176
     0
 40
1.0
176
     0
  0
VISUALSTYLE
  5
38
102
{ACAD_REACTORS
330
29
102
}
330
29
100
AcDbVisualStyle
  2
Facepattern
 70
    15
177
     3
291
     1
 70
    58
 90
        2
176
     1
 90
        2
176
     1
 90
        0
176
     1
 90
        0
176
     1
 40
0.6
176
     1
 40
30.0
176
     1
 62
     7
420
 16777215
176
     1
 90
        1
176
     1
 90
        4
176
     1
 62
     7
176
     1
 62
   257
176
     1
 90
        1
176
     1
 90
        1
176
     1
 40
1.0
176
     1
 90
        8
176
     1
 62
     7
176
     1
 40
1.0
176
     1
 90
        1
176
     1
 90
        6
176
     1
 90
        2
176
     1
 62
     7
176
     1
 90
        5
176
     1
 90
        0
176
     1
 90
        0
176
     1
290
     0
176
     1
 90
        1
176
     1
 40
0.0
176
     1
 90
        0
176
     1
290
     0
176
     1
290
     1
176
     1
290
     1
176
     1
290
     0
176
     1
290
     0
176
     1
290
     0
176
     1
290
     0
176
     1
290
     0
176
     1
290
     0
176
     1
 90
       50
176
     1
 40
0.0
176
     1
 40
1.0
176
     1
 90
        0
176
     1
 62
    18
420
        0
176
     1
 90
       50
176
     1
 90
        3
176
     1
 62
     5
420
      255
176
     1
290
     0
176
     1
 90
       50
176
     1
 90
       50
176
     1
 90
       50
176
     1
290
     0
176
     1
 90
       50
176
     1
 62
   256
176
     0
 40
1.0
176
     0
 90
        2
176
     1
  1
strokes_ogs.tif
176
     1
290
     0
176
     1
 40
1.0
176
     1
 40
1.0
176
     1
  0
VISUALSTYLE
  5
2A
102
{ACAD_REACTORS
330
29
102
}
330
29
100
AcDbVisualStyle
  2
Flat
 70
     0
177
     3
291
     1
 70
    58
 90
        2
176
     1
 90
        1
176
     1
 90
        1
176
     1
 90
        2
176
     1
 40
0.6
176
     1
 40
30.0
176
     1
 62
     7
420
 16777215
176
     1
 90
        0
176
     1
 90
        0
176
     1
 62
     7
176
     1
 62
   257
176
     1
 90
        1
176
     1
 90
        1
176
     1
 40
1.0
176
     1
 90
        8
176
     1
 62
     7
176
     1
 40
1.0
176
     1
 90
        1
176
     1
 90
        6
176
     1
 90
        2
176
     1
 62
     7
176
     1
 90
        5
176
     1
 90
        0
176
     1
 90
        0
176
     1
290
     0
176
     1
 90
       13
176
     1
 40
0.0
176
     1
 90
        0
176
     1
290
     0
176
     1
290
     1
176
     1
290
     1
176
     1
290
     0
176
     1
290
     0
176
     1
290
     0
176
     1
290
     0
176
     1
290
     0
176
     1
290
     0
176
     1
 90
       50
176
     1
 40
0.0
176
     1
 40
1.0
176
     1
 90
        0
176
     1
 62
    18
420
        0
176
     1
 90
       50
176
     1
 90
        3
176
     1
 62
     5
420
      255
176
     1
290
     0
176
     1
 90
       50
176
     1
 90
       50
176
     1
 90
       50
176
     1
290
     0
176
     1
 90
       50
176
     1
 62
   256
176
     0
 40
1.0
176
     0
 90
        2
176
     1
  1
strokes_ogs.tif
176
     1
290
     0
176
     1
 40
1.0
176
     1
 40
1.0
176
     1
  0
VISUALSTYLE
  5
2B
102
{ACAD_REACTORS
330
29
102
}
330
29
100
AcDbVisualStyle
  2
FlatWithEdges
 70
     1
177
     3
291
     1
 70
    58
 90
        2
176
     1
 90
        1
176
     1
 90
        1
176
     1
 90
        2
176
     1
 40
0.6
176
     1
 40
30.0
176
     1
 62
     7
420
 16777215
176
     1
 90
        1
176
     1
 90
        0
176
     1
 62
     7
176
     1
 62
   257
176
     1
 90
        1
176
     1
 90
        1
176
     1
 40
1.0
176
     1
 90
        0
176
     1
 62
   257
176
     1
 40
1.0
176
     1
 90
        1
176
     1
 90
        6
176
     1
 90
        2
176
     1
 62
     7
176
     1
 90
        5
176
     1
 90
        0
176
     1
 90
        0
176
     1
290
     0
176
     1
 90
       13
176
     1
 40
0.0
176
     1
 90
        0
176
     1
290
     0
176
     1
290
     1
176
     1
290
     1
176
     1
290
     0
176
     1
290
     0
176
     1
290
     0
176
     1
290
     0
176
     1
290
     0
176
     1
290
     0
176
     1
 90
       50
176
     1
 40
0.0
176
     1
 40
1.0
176
     1
 90
        0
176
     1
 62
    18
420
        0
176
     1
 90
       50
176
     1
 90
        3
176
     1
 62
     5
420
      255
176
     1
290
     0
176
     1
 90
       50
176
     1
 90
       50
176
     1
 90
       50
176
     1
290
     0
176
     1
 90
       50
176
     1
 62
   256
176
     0
 40
1.0
176
     0
 90
        2
176
     1
  1
strokes_ogs.tif
176
     1
290
     0
176
     1
 40
1.0
176
     1
 40
1.0
176
     1
  0
VISUALSTYLE
  5
2C
102
{ACAD_REACTORS
330
29
102
}
330
29
100
AcDbVisualStyle
  2
Gouraud
 70
     2
177
     3
291
     1
 70
    58
 90
        2
176
     1
 90
        2
176
     1
 90
        1
176
     1
 90
        2
176
     1
 40
0.6
176
     1
 40
30.0
176
     1
 62
     7
420
 16777215
176
     1
 90
        0
176
     1
 90
        0
176
     1
 62
     7
176
     1
 62
   257
176
     1
 90
        1
176
     1
 90
        1
176
     1
 40
1.0
176
     1
 90
        0
176
     1
 62
     7
176
     1
 40
1.0
176
     1
 90
        1
176
     1
 90
        6
176
     1
 90
        2
176
     1
 62
     7
176
     1
 90
        5
176
     1
 90
        0
176
     1
 90
        0
176
     1
290
     0
176
     1
 90
       13
176
     1
 40
0.0
176
     1
 90
        0
176
     1
290
     0
176
     1
290
     1
176
     1
290
     1
176
     1
290
     0
176
     1
290
     0
176
     1
290
     0
176
     1
290
     0
176
     1
290
     0
176
     1
290
     0
176
     1
 90
       50
176
     1
 40
0.0
176
     1
 40
1.0
176
     1
 90
        0
176
     1
 62
    18
420
        0
176
     1
 90
       50
176
     1
 90
        3
176
     1
 62
     5
420
      255
176
     1
290
     0
176
     1
 90
       50
176
     1
 90
       50
176
     1
 90
       50
176
     1
290
     0
176
     1
 90
       50
176
     1
 62
   256
176
     0
 40
1.0
176
     0
 90
        2
176
     1
  1
strokes_ogs.tif
176
     1
290
     0
176
     1
 40
1.0
176
     1
 40
1.0
176
     1
  0
VISUALSTYLE
  5
2D
102
{ACAD_REACTORS
330
29
102
}
330
29
100
AcDbVisualStyle
  2
GouraudWithEdges
 70
     3
177
     3
291
     1
 70
    58
 90
        2
176
     1
 90
        2
176
     1
 90
        1
176
     1
 90
        2
176
     1
 40
0.6
176
     1
 40
30.0
176
     1
 62
     7
420
 16777215
176
     1
 90
        1
176
     1
 90
        0
176
     1
 62
     7
176
     1
 62
   257
176
     1
 90
        1
176
     1
 90
        1
176
     1
 40
1.0
176
     1
 90
        0
176
     1
 62
   257
176
     1
 40
1.0
176
     1
 90
        1
176
     1
 90
        6
176
     1
 90
        2
176
     1
 62
     7
176
     1
 90
        5
176
     1
 90
        0
176
     1
 90
        0
176
     1
290
     0
176
     1
 90
       13
176
     1
 40
0.0
176
     1
 90
        0
176
     1
290
     0
176
     1
290
     1
176
     1
290
     1
176
     1
290
     0
176
     1
290
     0
176
     1
290
     0
176
     1
290
     0
176
     1
290
     0
176
     1
290
     0
176
     1
 90
       50
176
     1
 40
0.0
176
     1
 40
1.0
176
     1
 90
        0
176
     1
 62
    18
420
        0
176
     1
 90
       50
176
     1
 90
        3
176
     1
 62
     5
420
      255
176
     1
290
     0
176
     1
 90
       50
176
     1
 90
       50
176
     1
 90
       50
176
     1
290
     0
176
     1
 90
       50
176
     1
 62
   256
176
     0
 40
1.0
176
     0
 90
        2
176
     1
  1
strokes_ogs.tif
176
     1
290
     0
176
     1
 40
1.0
176
     1
 40
1.0
176
     1
  0
VISUALSTYLE
  5
31
102
{ACAD_REACTORS
330
29
102
}
330
29
100
AcDbVisualStyle
  2
Hidden
 70
     6
177
     3
291
     0
 70
    58
 90
        1
176
     1
 90
        2
176
     1
 90
        2
176
     1
 90
        0
176
     1
 40
0.6
176
     1
 40
30.0
176
     1
 62
     7
420
 16777215
176
     1
 90
        2
176
     1
 90
        2
176
     1
 62
     7
176
     1
 62
   257
176
     1
 90
        2
176
     1
 90
        1
176
     1
 40
40.0
176
     1
 90
        0
176
     1
 62
   257
176
     1
 40
1.0
176
     1
 90
        1
176
     1
 90
        6
176
     1
 90
        2
176
     1
 62
     7
176
     1
 90
        3
176
     1
 90
        0
176
     1
 90
        0
176
     1
290
     0
176
     1
 90
        1
176
     1
 40
0.0
176
     1
 90
        0
176
     1
290
     0
176
     1
290
     1
176
     1
290
     1
176
     1
290
     0
176
     1
290
     0
176
     1
290
     0
176
     1
290
     0
176
     1
290
     0
176
     1
290
     0
176
     1
 90
       50
176
     1
 40
0.0
176
     1
 40
1.0
176
     1
 90
        0
176
     1
 62
    18
420
        0
176
     1
 90
       50
176
     1
 90
        3
176
     1
 62
     5
420
      255
176
     1
290
     0
176
     1
 90
       50
176
     1
 90
       50
176
     1
 90
       50
176
     1
290
     0
176
     1
 90
       50
176
     1
 62
   256
176
     0
 40
1.0
176
     0
 90
        2
176
     1
  1
strokes_ogs.tif
176
     1
290
     0
176
     1
 40
1.0
176
     1
 40
1.0
176
     1
  0
VISUALSTYLE
  5
3F
102
{ACAD_REACTORS
330
29
102
}
330
29
100
AcDbVisualStyle
  2
JitterOff
 70
    20
177
     3
291
     1
 70
    58
 90
        2
176
     0
 90
        2
176
     0
 90
        0
176
     0
 90
        0
176
     0
 40
0.6
176
     0
 40
30.0
176
     0
 62
     7
420
 16777215
176
     0
 90
        1
176
     0
 90
        4
176
     0
 62
     7
176
     0
 62
   257
176
     0
 90
        1
176
     0
 90
        1
176
     0
 40
1.0
176
     0
 90
       10
176
     2
 62
     7
176
     0
 40
1.0
176
     0
 90
        1
176
     0
 90
        6
176
     0
 90
        2
176
     0
 62
     7
176
     0
 90
        5
176
     0
 90
        0
176
     0
 90
        0
176
     0
290
     0
176
     0
 90
        1
176
     0
 40
0.0
176
     0
 90
        0
176
     0
290
     0
176
     0
290
     1
176
     0
290
     1
176
     0
290
     0
176
     0
290
     0
176
     0
290
     0
176
     0
290
     0
176
     0
290
     0
176
     0
290
     0
176
     0
 90
       50
176
     0
 40
0.0
176
     0
 40
1.0
176
     0
 90
        0
176
     0
 62
    18
420
        0
176
     0
 90
       50
176
     0
 90
        3
176
     0
 62
     5
420
      255
176
     0
290
     0
176
     0
 90
       50
176
     0
 90
       50
176
     0
 90
       50
176
     0
290
     0
176
     0
 90
       50
176
     0
 62
   256
176
     0
 40
1.0
176
     0
 90
        2
176
     0
  1
strokes_ogs.tif
176
     0
290
     0
176
     0
 40
1.0
176
     0
 40
1.0
176
     0
  0
VISUALSTYLE
  5
37
102
{ACAD_REACTORS
330
29
102
}
330
29
100
AcDbVisualStyle
  2
Linepattern
 70
    14
177
     3
291
     1
 70
    58
 90
        2
176
     1
 90
        2
176
     1
 90
        0
176
     1
 90
        0
176
     1
 40
0.6
176
     1
 40
30.0
176
     1
 62
     7
420
 16777215
176
     1
 90
        1
176
     1
 90
        4
176
     1
 62
     7
176
     1
 62
   257
176
     1
 90
        7
176
     1
 90
        7
176
     1
 40
1.0
176
     1
 90
        8
176
     1
 62
     7
176
     1
 40
1.0
176
     1
 90
        1
176
     1
 90
        6
176
     1
 90
        2
176
     1
 62
     7
176
     1
 90
        5
176
     1
 90
        0
176
     1
 90
        0
176
     1
290
     0
176
     1
 90
        1
176
     1
 40
0.0
176
     1
 90
        0
176
     1
290
     0
176
     1
290
     1
176
     1
290
     1
176
     1
290
     0
176
     1
290
     0
176
     1
290
     0
176
     1
290
     0
176
     1
290
     0
176
     1
290
     0
176
     1
 90
       50
176
     1
 40
0.0
176
     1
 40
1.0
176
     1
 90
        0
176
     1
 62
    18
420
        0
176
     1
 90
       50
176
     1
 90
        3
176
     1
 62
     5
420
      255
176
     1
290
     0
176
     1
 90
       50
176
     1
 90
       50
176
     1
 90
       50
176
     1
290
     0
176
     1
 90
       50
176
     1
 62
   256
176
     0
 40
1.0
176
     0
 90
        2
176
     1
  1
strokes_ogs.tif
176
     1
290
     0
176
     1
 40
1.0
176
     1
 40
1.0
176
     1
  0
VISUALSTYLE
  5
40
102
{ACAD_REACTORS
330
29
102
}
330
29
100
AcDbVisualStyle
  2
OverhangOff
 70
    21
177
     3
291
     1
 70
    58
 90
        2
176
     0
 90
        2
176
     0
 90
        0
176
     0
 90
        0
176
     0
 40
0.6
176
     0
 40
30.0
176
     0
 62
     7
420
 16777215
176
     0
 90
        1
176
     0
 90
        4
176
     0
 62
     7
176
     0
 62
   257
176
     0
 90
        1
176
     0
 90
        1
176
     0
 40
1.0
176
     0
 90
        9
176
     2
 62
     7
176
     0
 40
1.0
176
     0
 90
        1
176
     0
 90
        6
176
     0
 90
        2
176
     0
 62
     7
176
     0
 90
        5
176
     0
 90
        0
176
     0
 90
        0
176
     0
290
     0
176
     0
 90
        1
176
     0
 40
0.0
176
     0
 90
        0
176
     0
290
     0
176
     0
290
     1
176
     0
290
     1
176
     0
290
     0
176
     0
290
     0
176
     0
290
     0
176
     0
290
     0
176
     0
290
     0
176
     0
290
     0
176
     0
 90
       50
176
     0
 40
0.0
176
     0
 40
1.0
176
     0
 90
        0
176
     0
 62
    18
420
        0
176
     0
 90
       50
176
     0
 90
        3
176
     0
 62
     5
420
      255
176
     0
290
     0
176
     0
 90
       50
176
     0
 90
       50
176
     0
 90
       50
176
     0
290
     0
176
     0
 90
       50
176
     0
 62
   256
176
     0
 40
1.0
176
     0
 90
        2
176
     0
  1
strokes_ogs.tif
176
     0
290
     0
176
     0
 40
1.0
176
     0
 40
1.0
176
     0
  0
VISUALSTYLE
  5
33
102
{ACAD_REACTORS
330
29
102
}
330
29
100
AcDbVisualStyle
  2
Realistic
 70
     8
177
     3
291
     0
 70
    58
 90
        2
176
     1
 90
        3
176
     1
 90
        0
176
     1
 90
        2
176
     1
 40
0.6
176
     1
 40
30.0
176
     1
 62
     7
420
 16777215
176
     1
 90
        0
176
     1
 90
        0
176
     1
 62
     7
176
     1
 62
   257
176
     1
 90
        1
176
     1
 90
        1
176
     1
 40
1.0
176
     1
 90
        8
176
     1
 62
   257
176
     1
 40
1.0
176
     1
 90
        1
176
     1
 90
        6
176
     1
 90
        2
176
     1
 62
     7
176
     1
 90
        3
176
     1
 90
        0
176
     1
 90
        0
176
     1
290
     0
176
     1
 90
       13
176
     1
 40
0.0
176
     1
 90
        0
176
     1
290
     0
176
     1
290
     1
176
     1
290
     1
176
     1
290
     0
176
     1
290
     0
176
     1
290
     0
176
     1
290
     0
176
     1
290
     0
176
     1
290
     0
176
     1
 90
       50
176
     1
 40
0.0
176
     1
 40
1.0
176
     1
 90
        0
176
     1
 62
    18
420
        0
176
     1
 90
       50
176
     1
 90
        3
176
     1
 62
     5
420
      255
176
     1
290
     0
176
     1
 90
       50
176
     1
 90
       50
176
     1
 90
       50
176
     1
290
     0
176
     1
 90
       50
176
     1
 62
   256
176
     0
 40
1.0
176
     0
 90
        2
176
     1
  1
strokes_ogs.tif
176
     1
290
     0
176
     1
 40
1.0
176
     1
 40
1.0
176
     1
  0
VISUALSTYLE
  5
3E
102
{ACAD_REACTORS
330
29
102
}
330
29
100
AcDbVisualStyle
  2
Shaded
 70
    27
177
     3
291
     0
 70
    58
 90
        2
176
     1
 90
        2
176
     1
 90
        1
176
     1
 90
        2
176
     1
 40
0.6
176
     1
 40
30.0
176
     1
 62
     7
420
 16777215
176
     1
 90
        0
176
     1
 90
        4
176
     1
 62
     7
176
     1
 62
   257
176
     1
 90
        1
176
     1
 90
        1
176
     1
 40
1.0
176
     1
 90
        8
176
     1
 62
   257
176
     1
 40
1.0
176
     1
 90
        1
176
     1
 90
        6
176
     1
 90
        2
176
     1
 62
     8
420
  7895160
176
     1
 90
        3
176
     1
 90
        0
176
     1
 90
        0
176
     1
290
     0
176
     1
 90
        5
176
     1
 40
0.0
176
     1
 90
        0
176
     1
290
     0
176
     1
290
     1
176
     1
290
     1
176
     1
290
     0
176
     1
290
     0
176
     1
290
     0
176
     1
290
     0
176
     1
290
     0
176
     1
290
     0
176
     1
 90
       50
176
     1
 40
0.0
176
     1
 40
1.0
176
     1
 90
        0
176
     1
 62
    18
420
        0
176
     1
 90
       50
176
     1
 90
        3
176
     1
 62
     5
420
      255
176
     1
290
     0
176
     1
 90
       50
176
     1
 90
       50
176
     1
 90
       50
176
     1
290
     0
176
     1
 90
       50
176
     1
 62
   256
176
     0
 40
1.0
176
     0
 90
        2
176
     1
  1
strokes_ogs.tif
176
     1
290
     0
176
     1
 40
1.0
176
     1
 40
1.0
176
     1
  0
VISUALSTYLE
  5
3D
102
{ACAD_REACTORS
330
29
102
}
330
29
100
AcDbVisualStyle
  2
Shaded with edges
 70
    26
177
     3
291
     0
 70
    58
 90
        2
176
     1
 90
        2
176
     1
 90
        1
176
     1
 90
        2
176
     1
 40
0.6
176
     1
 40
30.0
176
     1
 62
     7
420
 16777215
176
     1
 90
        1
176
     1
 90
       10
176
     1
 62
     7
176
     1
 62
   257
176
     1
 90
        2
176
     1
 90
        1
176
     1
 40
1.0
176
     1
 90
        8
176
     1
 62
   257
176
     1
 40
1.0
176
     1
 90
        1
176
     1
 90
        6
176
     1
 90
        2
176
     1
 62
     7
176
     1
 90
        3
176
     1
 90
        0
176
     1
 90
        0
176
     1
290
     0
176
     1
 90
        5
176
     1
 40
0.0
176
     1
 90
        0
176
     1
290
     0
176
     1
290
     1
176
     1
290
     1
176
     1
290
     0
176
     1
290
     0
176
     1
290
     0
176
     1
290
     0
176
     1
290
     0
176
     1
290
     0
176
     1
 90
       50
176
     1
 40
0.0
176
     1
 40
1.0
176
     1
 90
        0
176
     1
 62
    18
420
        0
176
     1
 90
       50
176
     1
 90
        3
176
     1
 62
     5
420
      255
176
     1
290
     0
176
     1
 90
       50
176
     1
 90
       50
176
     1
 90
       50
176
     1
290
     0
176
     1
 90
       50
176
     1
 62
   256
176
     0
 40
1.0
176
     0
 90
        2
176
     1
  1
strokes_ogs.tif
176
     1
290
     0
176
     1
 40
1.0
176
     1
 40
1.0
176
     1
  0
VISUALSTYLE
  5
3A
102
{ACAD_REACTORS
330
29
102
}
330
29
100
AcDbVisualStyle
  2
Shades of Gray
 70
    23
177
     3
291
     0
 70
    58
 90
        2
176
     1
 90
        2
176
     1
 90
        3
176
     1
 90
        0
176
     1
 40
0.6
176
     1
 40
30.0
176
     1
 62
     7
420
 16777215
176
     1
 90
        2
176
     1
 90
        2
176
     1
 62
     7
176
     1
 62
     7
176
     1
 90
        1
176
     1
 90
        1
176
     1
 40
40.0
176
     1
 90
        8
176
     1
 62
     7
176
     1
 40
1.0
176
     1
 90
        1
176
     1
 90
        6
176
     1
 90
        2
176
     1
 62
     7
176
     1
 90
        3
176
     1
 90
        0
176
     1
 90
        0
176
     1
290
     0
176
     1
 90
        1
176
     1
 40
0.0
176
     1
 90
        0
176
     1
290
     0
176
     1
290
     1
176
     1
290
     1
176
     1
290
     0
176
     1
290
     0
176
     1
290
     0
176
     1
290
     0
176
     1
290
     0
176
     1
290
     0
176
     1
 90
       50
176
     1
 40
0.0
176
     1
 40
1.0
176
     1
 90
        0
176
     1
 62
    18
420
        0
176
     1
 90
       50
176
     1
 90
        3
176
     1
 62
     5
420
      255
176
     1
290
     0
176
     1
 90
       50
176
     1
 90
       50
176
     1
 90
       50
176
     1
290
     0
176
     1
 90
       50
176
     1
 62
   256
176
     0
 40
1.0
176
     0
 90
        2
176
     1
  1
strokes_ogs.tif
176
     1
290
     0
176
     1
 40
1.0
176
     1
 40
1.0
176
     1
  0
VISUALSTYLE
  5
3B
102
{ACAD_REACTORS
330
29
102
}
330
29
100
AcDbVisualStyle
  2
Sketchy
 70
    24
177
     3
291
     0
 70
    58
 90
        1
176
     1
 90
        2
176
     1
 90
        2
176
     1
 90
        0
176
     1
 40
0.6
176
     1
 40
30.0
176
     1
 62
     7
420
 16777215
176
     1
 90
        2
176
     1
 90
        2
176
     1
 62
     7
176
     1
 62
     7
176
     1
 90
        1
176
     1
 90
        1
176
     1
 40
40.0
176
     1
 90
       11
176
     1
 62
     7
176
     1
 40
1.0
176
     1
 90
        1
176
     1
 90
        6
176
     1
 90
        2
176
     1
 62
     7
176
     1
 90
        6
176
     1
 90
        0
176
     1
 90
        0
176
     1
290
     0
176
     1
 90
        1
176
     1
 40
0.0
176
     1
 90
        0
176
     1
290
     0
176
     1
290
     1
176
     1
290
     1
176
     1
290
     0
176
     1
290
     0
176
     1
290
     0
176
     1
290
     0
176
     1
290
     0
176
     1
290
     0
176
     1
 90
       50
176
     1
 40
0.0
176
     1
 40
1.0
176
     1
 90
        0
176
     1
 62
    18
420
        0
176
     1
 90
       50
176
     1
 90
        3
176
     1
 62
     5
420
      255
176
     1
290
     0
176
     1
 90
       50
176
     1
 90
       50
176
     1
 90
       50
176
     1
290
     0
176
     1
 90
       50
176
     1
 62
   256
176
     0
 40
1.0
176
     0
 90
        2
176
     1
  1
strokes_ogs.tif
176
     1
290
     0
176
     1
 40
1.0
176
     1
 40
1.0
176
     1
  0
VISUALSTYLE
  5
36
102
{ACAD_REACTORS
330
29
102
}
330
29
100
AcDbVisualStyle
  2
Thicken
 70
    13
177
     3
291
     1
 70
    58
 90
        2
176
     1
 90
        2
176
     1
 90
        0
176
     1
 90
        0
176
     1
 40
0.6
176
     1
 40
30.0
176
     1
 62
     7
420
 16777215
176
     1
 90
        1
176
     1
 90
        4
176
     1
 62
     7
176
     1
 62
   257
176
     1
 90
        1
176
     1
 90
        1
176
     1
 40
1.0
176
     1
 90
       12
176
     1
 62
     7
176
     1
 40
1.0
176
     1
 90
        1
176
     1
 90
        6
176
     1
 90
        2
176
     1
 62
     7
176
     1
 90
        5
176
     1
 90
        0
176
     1
 90
        0
176
     1
290
     0
176
     1
 90
        1
176
     1
 40
0.0
176
     1
 90
        0
176
     1
290
     0
176
     1
290
     1
176
     1
290
     1
176
     1
290
     0
176
     1
290
     0
176
     1
290
     0
176
     1
290
     0
176
     1
290
     0
176
     1
290
     0
176
     1
 90
       50
176
     1
 40
0.0
176
     1
 40
1.0
176
     1
 90
        0
176
     1
 62
    18
420
        0
176
     1
 90
       50
176
     1
 90
        3
176
     1
 62
     5
420
      255
176
     1
290
     0
176
     1
 90
       50
176
     1
 90
       50
176
     1
 90
       50
176
     1
290
     0
176
     1
 90
       50
176
     1
 62
   256
176
     0
 40
1.0
176
     0
 90
        2
176
     1
  1
strokes_ogs.tif
176
     1
290
     0
176
     1
 40
1.0
176
     1
 40
1.0
176
     1
  0
VISUALSTYLE
  5
30
102
{ACAD_REACTORS
330
29
102
}
330
29
100
AcDbVisualStyle
  2
Wireframe
 70
     5
177
     3
291
     0
 70
    58
 90
        0
176
     1
 90
        2
176
     1
 90
        0
176
     1
 90
        0
176
     1
 40
0.6
176
     1
 40
30.0
176
     1
 62
     7
420
 16777215
176
     1
 90
        1
176
     1
 90
        4
176
     1
 62
     7
176
     1
 62
   257
176
     1
 90
        1
176
     1
 90
        1
176
     1
 40
1.0
176
     1
 90
        0
176
     1
 62
   257
176
     1
 40
1.0
176
     1
 90
        1
176
     1
 90
        6
176
     1
 90
        2
176
     1
 62
     7
176
     1
 90
        3
176
     1
 90
        0
176
     1
 90
        0
176
     1
290
     0
176
     1
 90
        1
176
     1
 40
0.0
176
     1
 90
        0
176
     1
290
     0
176
     1
290
     1
176
     1
290
     1
176
     1
290
     0
176
     1
290
     0
176
     1
290
     0
176
     1
290
     0
176
     1
290
     0
176
     1
290
     0
176
     1
 90
       50
176
     1
 40
0.0
176
     1
 40
1.0
176
     1
 90
        0
176
     1
 62
    18
420
        0
176
     1
 90
       50
176
     1
 90
        3
176
     1
 62
     5
420
      255
176
     1
290
     0
176
     1
 90
       50
176
     1
 90
       50
176
     1
 90
       50
176
     1
290
     0
176
     1
 90
       50
176
     1
 62
   256
176
     0
 40
1.0
176
     0
 90
        2
176
     1
  1
strokes_ogs.tif
176
     1
290
     0
176
     1
 40
1.0
176
     1
 40
1.0
176
     1
  0
VISUALSTYLE
  5
3C
102
{ACAD_REACTORS
330
29
102
}
330
29
100
AcDbVisualStyle
  2
X-Ray
 70
    25
177
     3
291
     0
 70
    58
 90
        2
176
     1
 90
        2
176
     1
 90
        1
176
     1
 90
        1
176
     1
 40
0.5
176
     1
 40
30.0
176
     1
 62
     7
420
 16777215
176
     1
 90
        1
176
     1
 90
        0
176
     1
 62
     7
176
     1
 62
   257
176
     1
 90
        1
176
     1
 90
        1
176
     1
 40
1.0
176
     1
 90
        8
176
     1
 62
     7
176
     1
 40
1.0
176
     1
 90
        1
176
     1
 90
        6
176
     1
 90
        2
176
     1
 62
     7
176
     1
 90
        3
176
     1
 90
        0
176
     1
 90
        0
176
     1
290
     0
176
     1
 90
       13
176
     1
 40
0.0
176
     1
 90
        0
176
     1
290
     0
176
     1
290
     1
176
     1
290
     1
176
     1
290
     0
176
     1
290
     0
176
     1
290
     0
176
     1
290
     0
176
     1
290
     0
176
     1
290
     0
176
     1
 90
       50
176
     1
 40
0.0
176
     1
 40
1.0
176
     1
 90
        0
176
     1
 62
    18
420
        0
176
     1
 90
       50
176
     1
 90
        3
176
     1
 62
     5
420
      255
176
     1
290
     0
176
     1
 90
       50
176
     1
 90
       50
176
     1
 90
       50
176
     1
290
     0
176
     1
 90
       50
176
     1
 62
   256
176
     0
 40
1.0
176
     0
 90
        2
176
     1
  1
strokes_ogs.tif
176
     1
290
     0
176
     1
 40
1.0
176
     1
 40
1.0
176
     1
  0
DICTIONARYVAR
  5
81
102
{ACAD_REACTORS
330
7C
102
}
330
7C
100
DictionaryVariables
280
     0
  1
1:1
  0
DICTIONARYVAR
  5
7E
102
{ACAD_REACTORS
330
7C
102
}
330
7C
100
DictionaryVariables
280
     0
  1
STANDARD
  0
DICTIONARYVAR
  5
7D
102
{ACAD_REACTORS
330
7C
102
}
330
7C
100
DictionaryVariables
280
     0
  1
STANDARD
  0
DICTIONARYVAR
  5
7F
102
{ACAD_REACTORS
330
7C
102
}
330
7C
100
DictionaryVariables
280
     0
  1
Imperial24
  0
DICTIONARYVAR
  5
80
102
{ACAD_REACTORS
330
7C
102
}
330
7C
100
DictionaryVariables
280
     0
  1
Imperial24
  0
XRECORD
  5
3CA
102
{ACAD_REACTORS
330
3C6
102
}
330
3C6
100
AcDbXrecord
280
     1
  1
BUILDING_ID
  1
Progetto per messa in tavola DXF, DWG
  1
FLOOR_ID
  1
694395
  0
XRECORD
  5
3C8
102
{ACAD_REACTORS
330
3C6
102
}
330
3C6
100
AcDbXrecord
280
     1
  1
-2001160
  1
Apparecchi idraulici
  0
XRECORD
  5
3C9
102
{ACAD_REACTORS
330
3C6
102
}
330
3C6
100
AcDbXrecord
280
     1
  1
790271
  1
Body
  0
XRECORD
  5
3C7
102
{ACAD_REACTORS
330
3C6
102
}
330
3C6
100
AcDbXrecord
280
     1
  1
859151
  1
Automatic flow rate regulator valve_Caleffi_121 DN15 : 1/2''
  0
DICTIONARY
  5
1A
330
19
100
AcDbDictionary
280
     1
281
     1
  3
BUMPTILE
360
1C
  3
DIFFUSETILE
360
1B
  3
OPACITYTILE
360
1F
  3
REFLECTIONTILE
360
1E
  3
REFRACTIONTILE
360
20
  3
SPECULARTILE
360
1D
  0
DICTIONARY
  5
12
330
11
100
AcDbDictionary
280
     1
281
     1
  3
BUMPTILE
360
14
  3
DIFFUSETILE
360
13
  3
OPACITYTILE
360
17
  3
REFLECTIONTILE
360
16
  3
REFRACTIONTILE
360
18
  3
SPECULARTILE
360
15
  0
DICTIONARY
  5
22
330
21
100
AcDbDictionary
280
     1
281
     1
  3
BUMPTILE
360
24
  3
DIFFUSETILE
360
23
  3
OPACITYTILE
360
27
  3
REFLECTIONTILE
360
26
  3
REFRACTIONTILE
360
28
  3
SPECULARTILE
360
25
  0
DICTIONARY
  5
3CD
330
65
100
AcDbDictionary
280
     1
281
     1
  3
ACAD_ROUNDTRIP_2008_TABLESTYLE_CELLSTYLEMAP
360
3CE
  0
XRECORD
  5
1C
102
{ACAD_REACTORS
330
1A
102
}
330
1A
100
AcDbXrecord
280
     1
270
     1
271
     1
  0
XRECORD
  5
1B
102
{ACAD_REACTORS
330
1A
102
}
330
1A
100
AcDbXrecord
280
     1
270
     1
271
     1
  0
XRECORD
  5
1F
102
{ACAD_REACTORS
330
1A
102
}
330
1A
100
AcDbXrecord
280
     1
270
     1
271
     1
  0
XRECORD
  5
1E
102
{ACAD_REACTORS
330
1A
102
}
330
1A
100
AcDbXrecord
280
     1
270
     1
271
     1
  0
XRECORD
  5
20
102
{ACAD_REACTORS
330
1A
102
}
330
1A
100
AcDbXrecord
280
     1
270
     1
271
     1
  0
XRECORD
  5
1D
102
{ACAD_REACTORS
330
1A
102
}
330
1A
100
AcDbXrecord
280
     1
270
     1
271
     1
  0
XRECORD
  5
14
102
{ACAD_REACTORS
330
12
102
}
330
12
100
AcDbXrecord
280
     1
270
     1
271
     1
  0
XRECORD
  5
13
102
{ACAD_REACTORS
330
12
102
}
330
12
100
AcDbXrecord
280
     1
270
     1
271
     1
  0
XRECORD
  5
17
102
{ACAD_REACTORS
330
12
102
}
330
12
100
AcDbXrecord
280
     1
270
     1
271
     1
  0
XRECORD
  5
16
102
{ACAD_REACTORS
330
12
102
}
330
12
100
AcDbXrecord
280
     1
270
     1
271
     1
  0
XRECORD
  5
18
102
{ACAD_REACTORS
330
12
102
}
330
12
100
AcDbXrecord
280
     1
270
     1
271
     1
  0
XRECORD
  5
15
102
{ACAD_REACTORS
330
12
102
}
330
12
100
AcDbXrecord
280
     1
270
     1
271
     1
  0
XRECORD
  5
24
102
{ACAD_REACTORS
330
22
102
}
330
22
100
AcDbXrecord
280
     1
270
     1
271
     1
  0
XRECORD
  5
23
102
{ACAD_REACTORS
330
22
102
}
330
22
100
AcDbXrecord
280
     1
270
     1
271
     1
  0
XRECORD
  5
27
102
{ACAD_REACTORS
330
22
102
}
330
22
100
AcDbXrecord
280
     1
270
     1
271
     1
  0
XRECORD
  5
26
102
{ACAD_REACTORS
330
22
102
}
330
22
100
AcDbXrecord
280
     1
270
     1
271
     1
  0
XRECORD
  5
28
102
{ACAD_REACTORS
330
22
102
}
330
22
100
AcDbXrecord
280
     1
270
     1
271
     1
  0
XRECORD
  5
25
102
{ACAD_REACTORS
330
22
102
}
330
22
100
AcDbXrecord
280
     1
270
     1
271
     1
  0
CELLSTYLEMAP
  5
3CE
102
{ACAD_REACTORS
330
3CD
102
}
330
3CD
100
AcDbCellStyleMap
 90
        3
300
CELLSTYLE
  1
TABLEFORMAT_BEGIN
 90
        5
170
     1
 91
        0
 92
    32768
 62
   257
 93
        1
300
CONTENTFORMAT
  1
CONTENTFORMAT_BEGIN
 90
        0
 91
        0
 92
      512
 93
        0
300

 40
0.0
140
1.0
 94
        5
 62
     0
340
55
144
0.25
309
CONTENTFORMAT_END
171
     0
 94
        0
309
TABLEFORMAT_END
  1
CELLSTYLE_BEGIN
 90
        1
 91
        1
300
_TITLE
309
CELLSTYLE_END
300
CELLSTYLE
  1
TABLEFORMAT_BEGIN
 90
        5
170
     1
 91
        0
 92
        0
 62
   257
 93
        1
300
CONTENTFORMAT
  1
CONTENTFORMAT_BEGIN
 90
        0
 91
        0
 92
      512
 93
        0
300

 40
0.0
140
1.0
 94
        5
 62
     0
340
55
144
0.18
309
CONTENTFORMAT_END
171
     0
 94
        0
309
TABLEFORMAT_END
  1
CELLSTYLE_BEGIN
 90
        2
 91
        1
300
_HEADER
309
CELLSTYLE_END
300
CELLSTYLE
  1
TABLEFORMAT_BEGIN
 90
        5
170
     1
 91
        0
 92
        0
 62
   257
 93
        1
300
CONTENTFORMAT
  1
CONTENTFORMAT_BEGIN
 90
        0
 91
        0
 92
      512
 93
        0
300

 40
0.0
140
1.0
 94
        2
 62
     0
340
55
144
0.18
309
CONTENTFORMAT_END
171
     0
 94
        0
309
TABLEFORMAT_END
  1
CELLSTYLE_BEGIN
 90
        3
 91
        2
300
_DATA
309
CELLSTYLE_END
  0
ENDSEC
  0
EOF
