  0
SECTION
  2
HEADER
  9
$ACADVER
  1
AC1027
  9
$ACADMAINTVER
 70
    20
  9
$DWGCODEPAGE
  3
ANSI_1252
  9
$REQUIREDVERSIONS
160
                 0
  9
$INSBASE
 10
0.0
 20
0.0
 30
0.0
  9
$EXTMIN
 10
765.6253026296037
 20
1407.021689272711
 30
-0.00000001
  9
$EXTMAX
 10
1456.399075462772
 20
2051.000000000111
 30
0.00000001
  9
$LIMMIN
 10
0.0
 20
0.0
  9
$LIMMAX
 10
12.0
 20
9.0
  9
$ORTHOMODE
 70
     0
  9
$REGENMODE
 70
     1
  9
$FILLMODE
 70
     1
  9
$QTEXTMODE
 70
     0
  9
$MIRRTEXT
 70
     0
  9
$LTSCALE
 40
1.0
  9
$ATTMODE
 70
     1
  9
$TEXTSIZE
 40
0.2
  9
$TRACEWID
 40
0.05
  9
$TEXTSTYLE
  7
Standard
  9
$CLAYER
  8
0
  9
$CELTYPE
  6
ByLayer
  9
$CECOLOR
 62
   256
  9
$CELTSCALE
 40
1.0
  9
$DISPSILH
 70
     0
  9
$DIMSCALE
 40
1.0
  9
$DIMASZ
 40
0.18
  9
$DIMEXO
 40
0.0625
  9
$DIMDLI
 40
0.38
  9
$DIMRND
 40
0.0
  9
$DIMDLE
 40
0.0
  9
$DIMEXE
 40
0.18
  9
$DIMTP
 40
0.0
  9
$DIMTM
 40
0.0
  9
$DIMTXT
 40
0.18
  9
$DIMCEN
 40
0.09
  9
$DIMTSZ
 40
0.0
  9
$DIMTOL
 70
     0
  9
$DIMLIM
 70
     0
  9
$DIMTIH
 70
     1
  9
$DIMTOH
 70
     1
  9
$DIMSE1
 70
     0
  9
$DIMSE2
 70
     0
  9
$DIMTAD
 70
     0
  9
$DIMZIN
 70
     0
  9
$DIMBLK
  1

  9
$DIMASO
 70
     1
  9
$DIMSHO
 70
     1
  9
$DIMPOST
  1

  9
$DIMAPOST
  1

  9
$DIMALT
 70
     0
  9
$DIMALTD
 70
     2
  9
$DIMALTF
 40
25.4
  9
$DIMLFAC
 40
1.0
  9
$DIMTOFL
 70
     0
  9
$DIMTVP
 40
0.0
  9
$DIMTIX
 70
     0
  9
$DIMSOXD
 70
     0
  9
$DIMSAH
 70
     0
  9
$DIMBLK1
  1

  9
$DIMBLK2
  1

  9
$DIMSTYLE
  2
Standard
  9
$DIMCLRD
 70
     0
  9
$DIMCLRE
 70
     0
  9
$DIMCLRT
 70
     0
  9
$DIMTFAC
 40
1.0
  9
$DIMGAP
 40
0.09
  9
$DIMJUST
 70
     0
  9
$DIMSD1
 70
     0
  9
$DIMSD2
 70
     0
  9
$DIMTOLJ
 70
     1
  9
$DIMTZIN
 70
     0
  9
$DIMALTZ
 70
     0
  9
$DIMALTTZ
 70
     0
  9
$DIMUPT
 70
     0
  9
$DIMDEC
 70
     4
  9
$DIMTDEC
 70
     4
  9
$DIMALTU
 70
     2
  9
$DIMALTTD
 70
     2
  9
$DIMTXSTY
  7
Standard
  9
$DIMAUNIT
 70
     0
  9
$DIMADEC
 70
     0
  9
$DIMALTRND
 40
0.0
  9
$DIMAZIN
 70
     0
  9
$DIMDSEP
 70
    46
  9
$DIMATFIT
 70
     3
  9
$DIMFRAC
 70
     0
  9
$DIMLDRBLK
  1

  9
$DIMLUNIT
 70
     2
  9
$DIMLWD
 70
    -2
  9
$DIMLWE
 70
    -2
  9
$DIMTMOVE
 70
     0
  9
$DIMFXL
 40
1.0
  9
$DIMFXLON
 70
     0
  9
$DIMJOGANG
 40
0.7853981633974483
  9
$DIMTFILL
 70
     0
  9
$DIMTFILLCLR
 70
     0
  9
$DIMARCSYM
 70
     0
  9
$DIMLTYPE
  6

  9
$DIMLTEX1
  6

  9
$DIMLTEX2
  6

  9
$DIMTXTDIRECTION
 70
     0
  9
$LUNITS
 70
     2
  9
$LUPREC
 70
     4
  9
$SKETCHINC
 40
0.1
  9
$FILLETRAD
 40
0.0
  9
$AUNITS
 70
     0
  9
$AUPREC
 70
     0
  9
$MENU
  1
.
  9
$ELEVATION
 40
0.0
  9
$PELEVATION
 40
0.0
  9
$THICKNESS
 40
0.0
  9
$LIMCHECK
 70
     0
  9
$CHAMFERA
 40
0.0
  9
$CHAMFERB
 40
0.0
  9
$CHAMFERC
 40
0.0
  9
$CHAMFERD
 40
0.0
  9
$SKPOLY
 70
     0
  9
$TDCREATE
 40
2457588.484257164
  9
$TDUCREATE
 40
2457588.400923831
  9
$TDUPDATE
 40
2457588.484257164
  9
$TDUUPDATE
 40
2457588.400923831
  9
$TDINDWG
 40
0.0000124537
  9
$TDUSRTIMER
 40
0.0000124537
  9
$USRTIMER
 70
     1
  9
$ANGBASE
 50
0.0
  9
$ANGDIR
 70
     0
  9
$PDMODE
 70
     0
  9
$PDSIZE
 40
0.0
  9
$PLINEWID
 40
0.0
  9
$SPLFRAME
 70
     0
  9
$SPLINETYPE
 70
     6
  9
$SPLINESEGS
 70
     8
  9
$HANDSEED
  5
323
  9
$SURFTAB1
 70
     6
  9
$SURFTAB2
 70
     6
  9
$SURFTYPE
 70
     6
  9
$SURFU
 70
     6
  9
$SURFV
 70
     6
  9
$UCSBASE
  2

  9
$UCSNAME
  2

  9
$UCSORG
 10
0.0
 20
0.0
 30
0.0
  9
$UCSXDIR
 10
1.0
 20
0.0
 30
0.0
  9
$UCSYDIR
 10
0.0
 20
1.0
 30
0.0
  9
$UCSORTHOREF
  2

  9
$UCSORTHOVIEW
 70
     0
  9
$UCSORGTOP
 10
0.0
 20
0.0
 30
0.0
  9
$UCSORGBOTTOM
 10
0.0
 20
0.0
 30
0.0
  9
$UCSORGLEFT
 10
0.0
 20
0.0
 30
0.0
  9
$UCSORGRIGHT
 10
0.0
 20
0.0
 30
0.0
  9
$UCSORGFRONT
 10
0.0
 20
0.0
 30
0.0
  9
$UCSORGBACK
 10
0.0
 20
0.0
 30
0.0
  9
$PUCSBASE
  2

  9
$PUCSNAME
  2

  9
$PUCSORG
 10
0.0
 20
0.0
 30
0.0
  9
$PUCSXDIR
 10
1.0
 20
0.0
 30
0.0
  9
$PUCSYDIR
 10
0.0
 20
1.0
 30
0.0
  9
$PUCSORTHOREF
  2

  9
$PUCSORTHOVIEW
 70
     0
  9
$PUCSORGTOP
 10
0.0
 20
0.0
 30
0.0
  9
$PUCSORGBOTTOM
 10
0.0
 20
0.0
 30
0.0
  9
$PUCSORGLEFT
 10
0.0
 20
0.0
 30
0.0
  9
$PUCSORGRIGHT
 10
0.0
 20
0.0
 30
0.0
  9
$PUCSORGFRONT
 10
0.0
 20
0.0
 30
0.0
  9
$PUCSORGBACK
 10
0.0
 20
0.0
 30
0.0
  9
$USERI1
 70
     0
  9
$USERI2
 70
     0
  9
$USERI3
 70
     0
  9
$USERI4
 70
     0
  9
$USERI5
 70
     0
  9
$USERR1
 40
0.0
  9
$USERR2
 40
0.0
  9
$USERR3
 40
0.0
  9
$USERR4
 40
0.0
  9
$USERR5
 40
0.0
  9
$WORLDVIEW
 70
     1
  9
$SHADEDGE
 70
     3
  9
$SHADEDIF
 70
    70
  9
$TILEMODE
 70
     1
  9
$MAXACTVP
 70
    64
  9
$PINSBASE
 10
0.0
 20
0.0
 30
0.0
  9
$PLIMCHECK
 70
     0
  9
$PEXTMIN
 10
1.000000000000000E+20
 20
1.000000000000000E+20
 30
1.000000000000000E+20
  9
$PEXTMAX
 10
-1.000000000000000E+20
 20
-1.000000000000000E+20
 30
-1.000000000000000E+20
  9
$PLIMMIN
 10
0.0
 20
0.0
  9
$PLIMMAX
 10
12.0
 20
9.0
  9
$UNITMODE
 70
     0
  9
$VISRETAIN
 70
     1
  9
$PLINEGEN
 70
     0
  9
$PSLTSCALE
 70
     1
  9
$TREEDEPTH
 70
  3020
  9
$CMLSTYLE
  2
Standard
  9
$CMLJUST
 70
     0
  9
$CMLSCALE
 40
1.0
  9
$PROXYGRAPHICS
 70
     1
  9
$MEASUREMENT
 70
     1
  9
$CELWEIGHT
370
    -1
  9
$ENDCAPS
280
     0
  9
$JOINSTYLE
280
     0
  9
$LWDISPLAY
290
     0
  9
$INSUNITS
 70
     4
  9
$HYPERLINKBASE
  1

  9
$STYLESHEET
  1

  9
$XEDIT
290
     1
  9
$CEPSNTYPE
380
     0
  9
$PSTYLEMODE
290
     1
  9
$FINGERPRINTGUID
  2
{3FA9F5D9-2CB5-4617-9C9A-2C1226F05D87}
  9
$VERSIONGUID
  2
{65654D8E-6D54-4CAE-8A0B-7ABBC73954E2}
  9
$EXTNAMES
290
     1
  9
$PSVPSCALE
 40
0.0
  9
$OLESTARTUP
290
     0
  9
$SORTENTS
280
   127
  9
$INDEXCTL
280
     0
  9
$HIDETEXT
280
     1
  9
$XCLIPFRAME
280
     2
  9
$HALOGAP
280
     0
  9
$OBSCOLOR
 70
   257
  9
$OBSLTYPE
280
     0
  9
$INTERSECTIONDISPLAY
280
     0
  9
$INTERSECTIONCOLOR
 70
   257
  9
$DIMASSOC
280
     2
  9
$PROJECTNAME
  1

  9
$CAMERADISPLAY
290
     0
  9
$LENSLENGTH
 40
50.0
  9
$CAMERAHEIGHT
 40
0.0
  9
$STEPSPERSEC
 40
2.0
  9
$STEPSIZE
 40
6.0
  9
$3DDWFPREC
 40
2.0
  9
$PSOLWIDTH
 40
0.25
  9
$PSOLHEIGHT
 40
4.0
  9
$LOFTANG1
 40
1.570796326794896
  9
$LOFTANG2
 40
1.570796326794896
  9
$LOFTMAG1
 40
0.0
  9
$LOFTMAG2
 40
0.0
  9
$LOFTPARAM
 70
     7
  9
$LOFTNORMALS
280
     1
  9
$LATITUDE
 40
37.795
  9
$LONGITUDE
 40
-122.394
  9
$NORTHDIRECTION
 40
0.0
  9
$TIMEZONE
 70
 -8000
  9
$LIGHTGLYPHDISPLAY
280
     1
  9
$TILEMODELIGHTSYNCH
280
     1
  9
$CMATERIAL
347
11
  9
$SOLIDHIST
280
     0
  9
$SHOWHIST
280
     1
  9
$DWFFRAME
280
     2
  9
$DGNFRAME
280
     0
  9
$REALWORLDSCALE
290
     1
  9
$INTERFERECOLOR
 62
     1
  9
$INTERFEREOBJVS
345
33
  9
$INTERFEREVPVS
346
30
  9
$CSHADOW
280
     0
  9
$SHADOWPLANELOCATION
 40
0.0
  0
ENDSEC
  0
SECTION
  2
CLASSES
  0
CLASS
  1
ACDBDICTIONARYWDFLT
  2
AcDbDictionaryWithDefault
  3
ObjectDBX Classes
 90
        0
 91
        1
280
     0
281
     0
  0
CLASS
  1
MATERIAL
  2
AcDbMaterial
  3
ObjectDBX Classes
 90
     1153
 91
        3
280
     0
281
     0
  0
CLASS
  1
VISUALSTYLE
  2
AcDbVisualStyle
  3
ObjectDBX Classes
 90
     4095
 91
       24
280
     0
281
     0
  0
CLASS
  1
SCALE
  2
AcDbScale
  3
ObjectDBX Classes
 90
     1153
 91
       17
280
     0
281
     0
  0
CLASS
  1
TABLESTYLE
  2
AcDbTableStyle
  3
ObjectDBX Classes
 90
     4095
 91
        1
280
     0
281
     0
  0
CLASS
  1
MLEADERSTYLE
  2
AcDbMLeaderStyle
  3
ACDB_MLEADERSTYLE_CLASS
 90
     4095
 91
        1
280
     0
281
     0
  0
CLASS
  1
ACDBSECTIONVIEWSTYLE
  2
AcDbSectionViewStyle
  3
ObjectDBX Classes
 90
     1025
 91
        1
280
     0
281
     0
  0
CLASS
  1
ACDBDETAILVIEWSTYLE
  2
AcDbDetailViewStyle
  3
ObjectDBX Classes
 90
     1025
 91
        1
280
     0
281
     0
  0
CLASS
  1
RASTERVARIABLES
  2
AcDbRasterVariables
  3
ISM
 90
        0
 91
        1
280
     0
281
     0
  0
CLASS
  1
DICTIONARYVAR
  2
AcDbDictionaryVar
  3
ObjectDBX Classes
 90
        0
 91
        5
280
     0
281
     0
  0
CLASS
  1
CELLSTYLEMAP
  2
AcDbCellStyleMap
  3
ObjectDBX Classes
 90
     1152
 91
        2
280
     0
281
     0
  0
CLASS
  1
SORTENTSTABLE
  2
AcDbSortentsTable
  3
ObjectDBX Classes
 90
        0
 91
        1
280
     0
281
     0
  0
ENDSEC
  0
SECTION
  2
TABLES
  0
TABLE
  2
VPORT
  5
8
330
0
100
AcDbSymbolTable
 70
     1
  0
VPORT
  5
57
330
8
100
AcDbSymbolTableRecord
100
AcDbViewportTableRecord
  2
*Active
 70
     0
 10
0.0
 20
0.0
 11
1.0
 21
1.0
 12
1111.012189046188
 22
1729.010844636411
 13
0.0
 23
0.0
 14
1.0
 24
1.0
 15
0.0
 25
0.0
 16
0.0
 26
0.0
 36
1.0
 17
0.0
 27
0.0
 37
0.0
 40
643.9783107273997
 41
1.072666208358649
 42
50.0
 43
0.0
 44
0.0
 50
0.0
 51
0.0
 71
     0
 72
  1000
 73
     1
 74
     1
 75
     0
 76
     0
 77
     0
 78
     0
281
     0
 65
     1
110
0.0
120
0.0
130
0.0
111
1.0
121
0.0
131
0.0
112
0.0
122
1.0
132
0.0
 79
     0
146
0.0
 60
     3
 61
     5
292
     1
282
     1
141
0.0
142
0.0
 63
   250
421
  3355443
  0
ENDTAB
  0
TABLE
  2
LTYPE
  5
5
330
0
100
AcDbSymbolTable
 70
     3
  0
LTYPE
  5
5B
330
5
100
AcDbSymbolTableRecord
100
AcDbLinetypeTableRecord
  2
ByBlock
 70
     0
  3

 72
    65
 73
     0
 40
0.0
  0
LTYPE
  5
5C
330
5
100
AcDbSymbolTableRecord
100
AcDbLinetypeTableRecord
  2
ByLayer
 70
     0
  3

 72
    65
 73
     0
 40
0.0
  0
LTYPE
  5
5D
330
5
100
AcDbSymbolTableRecord
100
AcDbLinetypeTableRecord
  2
Continuous
 70
     0
  3
Solid line
 72
    65
 73
     0
 40
0.0
  0
LTYPE
  5
69
330
5
100
AcDbSymbolTableRecord
100
AcDbLinetypeTableRecord
  2
PHANTOM2
 70
     0
  3
___ _ _ ___ _ _ ___ _ _ ___ _ _
 72
    65
 73
     6
 40
1.25
 49
0.625
 74
     0
 49
-0.125
 74
     0
 49
0.125
 74
     0
 49
-0.125
 74
     0
 49
0.125
 74
     0
 49
-0.125
 74
     0
  0
LTYPE
  5
86
330
5
100
AcDbSymbolTableRecord
100
AcDbLinetypeTableRecord
  2
Nascosto 1_5 mm
 70
     0
  3

 72
    65
 73
     2
 40
2.2
 49
1.5
 74
     0
 49
-0.7000000000000001
 74
     0
  0
ENDTAB
  0
TABLE
  2
LAYER
  5
2
330
0
100
AcDbSymbolTable
 70
     3
  0
LAYER
  5
54
330
2
100
AcDbSymbolTableRecord
100
AcDbLayerTableRecord
  2
0
 70
     0
 62
     7
  6
Continuous
370
    -3
390
F
347
21
348
0
  0
LAYER
  5
85
330
2
100
AcDbSymbolTableRecord
100
AcDbLayerTableRecord
  2
P-SANR-FIXT
 70
     0
 62
     6
  6
Continuous
370
    18
390
F
347
21
348
0
  0
ENDTAB
  0
TABLE
  2
STYLE
  5
3
330
0
100
AcDbSymbolTable
 70
     2
  0
STYLE
  5
55
330
3
100
AcDbSymbolTableRecord
100
AcDbTextStyleTableRecord
  2
Standard
 70
     0
 40
0.0
 41
1.0
 50
0.0
 71
     0
 42
0.2
  3
txt
  4

  0
STYLE
  5
5A
330
3
100
AcDbSymbolTableRecord
100
AcDbTextStyleTableRecord
  2
Annotative
 70
     0
 40
0.0
 41
1.0
 50
0.0
 71
     0
 42
0.2
  3
txt
  4

1001
AcadAnnotative
1000
AnnotativeData
1002
{
1070
     1
1070
     1
1002
}
  0
ENDTAB
  0
TABLE
  2
VIEW
  5
6
330
0
100
AcDbSymbolTable
 70
     0
  0
ENDTAB
  0
TABLE
  2
UCS
  5
7
330
0
100
AcDbSymbolTable
 70
     0
  0
ENDTAB
  0
TABLE
  2
APPID
  5
9
330
0
100
AcDbSymbolTable
 70
     3
  0
APPID
  5
56
330
9
100
AcDbSymbolTableRecord
100
AcDbRegAppTableRecord
  2
ACAD
 70
     0
  0
APPID
  5
5E
330
9
100
AcDbSymbolTableRecord
100
AcDbRegAppTableRecord
  2
AcadAnnotative
 70
     0
  0
APPID
  5
79
330
9
100
AcDbSymbolTableRecord
100
AcDbRegAppTableRecord
  2
REVIT
 70
     0
  0
ENDTAB
  0
TABLE
  2
DIMSTYLE
  5
A
330
0
100
AcDbSymbolTable
 70
     2
100
AcDbDimStyleTable
 71
     0
  0
DIMSTYLE
105
58
330
A
100
AcDbSymbolTableRecord
100
AcDbDimStyleTableRecord
  2
Standard
 70
     0
340
55
  0
DIMSTYLE
105
59
330
A
100
AcDbSymbolTableRecord
100
AcDbDimStyleTableRecord
  2
Annotative
 70
     0
340
55
1001
AcadAnnotative
1000
AnnotativeData
1002
{
1070
     1
1070
     1
1002
}
  0
ENDTAB
  0
TABLE
  2
BLOCK_RECORD
  5
1
330
0
100
AcDbSymbolTable
 70
     4
  0
BLOCK_RECORD
  5
71
102
{ACAD_XDICTIONARY
360
31E
102
}
330
1
100
AcDbSymbolTableRecord
100
AcDbBlockTableRecord
  2
*Model_Space
340
74
 70
     0
280
     1
281
     0
  0
BLOCK_RECORD
  5
6D
330
1
100
AcDbSymbolTableRecord
100
AcDbBlockTableRecord
  2
*Paper_Space
340
70
 70
     0
280
     1
281
     0
  0
BLOCK_RECORD
  5
75
330
1
100
AcDbSymbolTableRecord
100
AcDbBlockTableRecord
  2
*Paper_Space0
340
78
 70
     0
280
     1
281
     0
  0
BLOCK_RECORD
  5
87
330
1
100
AcDbSymbolTableRecord
100
AcDbBlockTableRecord
  2
Automatic flow rate regulator valve_Caleffi_121 DN15 - DN20-954632-Est - Idraulica
340
0
102
{BLKREFS
331
1AD
102
}
 70
     0
280
     1
281
     0
  0
BLOCK_RECORD
  5
1AE
330
1
100
AcDbSymbolTableRecord
100
AcDbBlockTableRecord
  2
Automatic flow rate regulator valve_Caleffi_121 DN15 - DN20-V1-Est - Idraulica
340
0
102
{BLKREFS
331
231
102
}
 70
     0
280
     1
281
     0
  0
BLOCK_RECORD
  5
232
330
1
100
AcDbSymbolTableRecord
100
AcDbBlockTableRecord
  2
Automatic flow rate regulator valve_Caleffi_121 DN15 - DN20-V2-Est - Idraulica
340
0
102
{BLKREFS
331
318
102
}
 70
     0
280
     1
281
     0
  0
ENDTAB
  0
ENDSEC
  0
SECTION
  2
BLOCKS
  0
BLOCK
  5
72
330
71
100
AcDbEntity
  8
0
100
AcDbBlockBegin
  2
*Model_Space
 70
     0
 10
0.0
 20
0.0
 30
0.0
  3
*Model_Space
  1

  0
ENDBLK
  5
73
330
71
100
AcDbEntity
  8
0
100
AcDbBlockEnd
  0
BLOCK
  5
6E
330
6D
100
AcDbEntity
 67
     1
  8
0
100
AcDbBlockBegin
  2
*Paper_Space
 70
     0
 10
0.0
 20
0.0
 30
0.0
  3
*Paper_Space
  1

  0
ENDBLK
  5
6F
330
6D
100
AcDbEntity
 67
     1
  8
0
100
AcDbBlockEnd
  0
BLOCK
  5
76
330
75
100
AcDbEntity
 67
     1
  8
0
100
AcDbBlockBegin
  2
*Paper_Space0
 70
     0
 10
0.0
 20
0.0
 30
0.0
  3
*Paper_Space0
  1

  0
ENDBLK
  5
77
330
75
100
AcDbEntity
 67
     1
  8
0
100
AcDbBlockEnd
  0
BLOCK
  5
1AB
330
87
100
AcDbEntity
  8
0
100
AcDbBlockBegin
  2
Automatic flow rate regulator valve_Caleffi_121 DN15 - DN20-954632-Est - Idraulica
 70
     0
 10
0.0
 20
0.0
 30
0.0
  3
Automatic flow rate regulator valve_Caleffi_121 DN15 - DN20-954632-Est - Idraulica
  1

  0
LINE
  5
88
330
87
100
AcDbEntity
  8
P-SANR-FIXT
100
AcDbLine
 10
878.1664074431899
 20
1959.999999999896
 30
0.0
 11
878.1664074431899
 21
1948.99999999991
 31
0.0
  0
LINE
  5
89
330
87
100
AcDbEntity
  8
P-SANR-FIXT
100
AcDbLine
 10
913.1664074431892
 20
1948.99999999991
 30
0.0
 11
913.1664074431892
 21
1959.999999999896
 31
0.0
  0
LINE
  5
8A
330
87
100
AcDbEntity
  8
P-SANR-FIXT
100
AcDbLine
 10
913.1664074431874
 20
1948.999999999909
 30
0.0
 11
913.0671756234058
 21
1948.999999999909
 31
0.0
  0
LINE
  5
8B
330
87
100
AcDbEntity
  8
P-SANR-FIXT
100
AcDbLine
 10
913.0671756234058
 20
1948.999999999909
 30
0.0
 11
905.9784521842168
 21
1948.999999999909
 31
0.0
  0
LINE
  5
8C
330
87
100
AcDbEntity
  8
P-SANR-FIXT
100
AcDbLine
 10
905.9784521842168
 20
1948.999999999909
 30
0.0
 11
902.7551308823763
 21
1948.999999999909
 31
0.0
  0
LINE
  5
8D
330
87
100
AcDbEntity
  8
P-SANR-FIXT
100
AcDbLine
 10
902.7551308823763
 20
1948.999999999909
 30
0.0
 11
888.5776840039987
 21
1948.999999999909
 31
0.0
  0
LINE
  5
8E
330
87
100
AcDbEntity
  8
P-SANR-FIXT
100
AcDbLine
 10
888.5776840039987
 20
1948.999999999909
 30
0.0
 11
885.3543627021583
 21
1948.999999999909
 31
0.0
  0
LINE
  5
8F
330
87
100
AcDbEntity
  8
P-SANR-FIXT
100
AcDbLine
 10
885.3543627021583
 20
1948.999999999909
 30
0.0
 11
878.2656392629696
 21
1948.999999999909
 31
0.0
  0
LINE
  5
90
330
87
100
AcDbEntity
  8
P-SANR-FIXT
100
AcDbLine
 10
878.2656392629696
 20
1948.999999999909
 30
0.0
 11
878.166407443188
 21
1948.999999999909
 31
0.0
  0
LINE
  5
91
330
87
100
AcDbEntity
  8
P-SANR-FIXT
100
AcDbLine
 10
878.2656392629696
 20
1948.999999999909
 30
0.0
 11
878.2656392629696
 21
1959.999999999909
 31
0.0
  0
LINE
  5
92
330
87
100
AcDbEntity
  8
P-SANR-FIXT
100
AcDbLine
 10
885.3543627021583
 20
1948.999999999909
 30
0.0
 11
885.3543627021583
 21
1959.999999999909
 31
0.0
  0
LINE
  5
93
330
87
100
AcDbEntity
  8
P-SANR-FIXT
100
AcDbLine
 10
888.5776840039987
 20
1948.999999999909
 30
0.0
 11
888.5776840039987
 21
1959.999999999909
 31
0.0
  0
LINE
  5
94
330
87
100
AcDbEntity
  8
P-SANR-FIXT
100
AcDbLine
 10
902.7551308823763
 20
1948.999999999909
 30
0.0
 11
902.7551308823763
 21
1959.999999999909
 31
0.0
  0
LINE
  5
95
330
87
100
AcDbEntity
  8
P-SANR-FIXT
100
AcDbLine
 10
905.9784521842168
 20
1948.999999999909
 30
0.0
 11
905.9784521842168
 21
1959.999999999909
 31
0.0
  0
LINE
  5
96
330
87
100
AcDbEntity
  8
P-SANR-FIXT
100
AcDbLine
 10
913.0671756234058
 20
1948.999999999909
 30
0.0
 11
913.0671756234058
 21
1959.999999999909
 31
0.0
  0
LINE
  5
97
330
87
100
AcDbEntity
  8
P-SANR-FIXT
100
AcDbLine
 10
872.1664074431924
 20
1968.999999999996
 30
0.0
 11
872.1664074431927
 21
1966.732050807463
 31
0.0
  0
LINE
  5
98
330
87
100
AcDbEntity
  8
P-SANR-FIXT
100
AcDbLine
 10
919.1664074431873
 20
1966.732050807463
 30
0.0
 11
919.1664074431873
 21
1968.999999999996
 31
0.0
  0
LINE
  5
99
330
87
100
AcDbEntity
  8
P-SANR-FIXT
100
AcDbLine
 10
875.16640744319
 20
1960.999999999896
 30
0.0
 11
876.1664074431902
 21
1959.999999999896
 31
0.0
  0
LINE
  5
9A
330
87
100
AcDbEntity
  8
P-SANR-FIXT
100
AcDbLine
 10
915.1664074431899
 20
1959.999999999896
 30
0.0
 11
916.1664074431898
 21
1960.999999999896
 31
0.0
  0
LINE
  5
9B
330
87
100
AcDbEntity
  8
P-SANR-FIXT
100
AcDbLine
 10
875.16640744319
 20
1964.999999999895
 30
0.0
 11
875.16640744319
 21
1960.999999999896
 31
0.0
  0
LINE
  5
9C
330
87
100
AcDbEntity
  8
P-SANR-FIXT
100
AcDbLine
 10
916.1664074431898
 20
1960.999999999896
 30
0.0
 11
916.1664074431898
 21
1964.999999999896
 31
0.0
  0
LINE
  5
9D
330
87
100
AcDbEntity
  8
P-SANR-FIXT
100
AcDbLine
 10
872.1664074431927
 20
1966.732050807463
 30
0.0
 11
872.2276528999776
 21
1966.696690726501
 31
0.0
  0
LINE
  5
9E
330
87
100
AcDbEntity
  8
P-SANR-FIXT
100
AcDbLine
 10
872.238850100464
 20
1966.690226019786
 30
0.0
 11
875.16640744319
 21
1964.999999999895
 31
0.0
  0
LINE
  5
9F
330
87
100
AcDbEntity
  8
P-SANR-FIXT
100
AcDbLine
 10
916.1664074431898
 20
1964.999999999896
 30
0.0
 11
919.0939647859158
 21
1966.690226019786
 31
0.0
  0
LINE
  5
A0
330
87
100
AcDbEntity
  8
P-SANR-FIXT
100
AcDbLine
 10
919.1051619864023
 20
1966.696690726501
 30
0.0
 11
919.1664074431873
 21
1966.732050807463
 31
0.0
  0
LINE
  5
A1
330
87
100
AcDbEntity
  8
P-SANR-FIXT
100
AcDbLine
 10
919.1664074431855
 20
1968.999999999995
 30
0.0
 11
919.0821830816233
 21
1968.999999999995
 31
0.0
  0
LINE
  5
A2
330
87
100
AcDbEntity
  8
P-SANR-FIXT
100
AcDbLine
 10
919.0229941072665
 20
1968.999999999995
 30
0.0
 11
918.8418312930437
 21
1968.999999999995
 31
0.0
  0
LINE
  5
A3
330
87
100
AcDbEntity
  8
P-SANR-FIXT
100
AcDbLine
 10
918.7028059799839
 20
1968.999999999995
 30
0.0
 11
918.4374477412729
 21
1968.999999999995
 31
0.0
  0
LINE
  5
A4
330
87
100
AcDbEntity
  8
P-SANR-FIXT
100
AcDbLine
 10
918.223524428587
 20
1968.999999999995
 30
0.0
 11
917.7969277717304
 21
1968.999999999995
 31
0.0
  0
LINE
  5
A5
330
87
100
AcDbEntity
  8
P-SANR-FIXT
100
AcDbLine
 10
917.5892474388021
 20
1968.999999999995
 30
0.0
 11
916.9810085319435
 21
1968.999999999995
 31
0.0
  0
LINE
  5
A6
330
87
100
AcDbEntity
  8
P-SANR-FIXT
100
AcDbLine
 10
916.6050607616126
 20
1968.999999999995
 30
0.0
 11
916.0323359987396
 21
1968.999999999995
 31
0.0
  0
LINE
  5
A7
330
87
100
AcDbEntity
  8
P-SANR-FIXT
100
AcDbLine
 10
915.7034513055071
 20
1968.999999999995
 30
0.0
 11
914.9271768441497
 21
1968.999999999995
 31
0.0
  0
LINE
  5
A8
330
87
100
AcDbEntity
  8
P-SANR-FIXT
100
AcDbLine
 10
914.6783068109973
 20
1968.999999999995
 30
0.0
 11
910.9284365789459
 21
1968.999999999995
 31
0.0
  0
LINE
  5
A9
330
87
100
AcDbEntity
  8
P-SANR-FIXT
100
AcDbLine
 10
910.7762949103436
 20
1968.999999999995
 30
0.0
 11
909.4793608720598
 21
1968.999999999995
 31
0.0
  0
LINE
  5
AA
330
87
100
AcDbEntity
  8
P-SANR-FIXT
100
AcDbLine
 10
909.1523848115954
 20
1968.999999999995
 30
0.0
 11
907.9451237140117
 21
1968.999999999995
 31
0.0
  0
LINE
  5
AB
330
87
100
AcDbEntity
  8
P-SANR-FIXT
100
AcDbLine
 10
907.4242800131086
 20
1968.999999999995
 30
0.0
 11
906.0219876140907
 21
1968.999999999995
 31
0.0
  0
LINE
  5
AC
330
87
100
AcDbEntity
  8
P-SANR-FIXT
100
AcDbLine
 10
905.6054378282787
 20
1968.999999999995
 30
0.0
 11
903.7100609377302
 21
1968.999999999995
 31
0.0
  0
LINE
  5
AD
330
87
100
AcDbEntity
  8
P-SANR-FIXT
100
AcDbLine
 10
902.9283068109986
 20
1968.999999999995
 30
0.0
 11
901.7529752593086
 21
1968.999999999995
 31
0.0
  0
LINE
  5
AE
330
87
100
AcDbEntity
  8
P-SANR-FIXT
100
AcDbLine
 10
901.1523734938014
 20
1968.999999999995
 30
0.0
 11
899.74950407962
 21
1968.999999999995
 31
0.0
  0
LINE
  5
AF
330
87
100
AcDbEntity
  8
P-SANR-FIXT
100
AcDbLine
 10
899.3426173716331
 20
1968.999999999995
 30
0.0
 11
893.8226186935839
 21
1968.999999999995
 31
0.0
  0
LINE
  5
B0
330
87
100
AcDbEntity
  8
P-SANR-FIXT
100
AcDbLine
 10
893.6174760193075
 20
1968.999999999995
 30
0.0
 11
891.990197514743
 21
1968.999999999995
 31
0.0
  0
LINE
  5
B1
330
87
100
AcDbEntity
  8
P-SANR-FIXT
100
AcDbLine
 10
891.5833108067559
 20
1968.999999999995
 30
0.0
 11
890.1804413925749
 21
1968.999999999995
 31
0.0
  0
LINE
  5
B2
330
87
100
AcDbEntity
  8
P-SANR-FIXT
100
AcDbLine
 10
889.5798396270677
 20
1968.999999999995
 30
0.0
 11
888.4045080753777
 21
1968.999999999995
 31
0.0
  0
LINE
  5
B3
330
87
100
AcDbEntity
  8
P-SANR-FIXT
100
AcDbLine
 10
887.6227539486462
 20
1968.999999999995
 30
0.0
 11
886.6733467826096
 21
1968.999999999995
 31
0.0
  0
LINE
  5
B4
330
87
100
AcDbEntity
  8
P-SANR-FIXT
100
AcDbLine
 10
885.7273770580976
 20
1968.999999999995
 30
0.0
 11
883.9085348732677
 21
1968.999999999995
 31
0.0
  0
LINE
  5
B5
330
87
100
AcDbEntity
  8
P-SANR-FIXT
100
AcDbLine
 10
883.3876911723647
 20
1968.999999999995
 30
0.0
 11
880.5565199760327
 21
1968.999999999995
 31
0.0
  0
LINE
  5
B6
330
87
100
AcDbEntity
  8
P-SANR-FIXT
100
AcDbLine
 10
880.4043783074305
 20
1968.999999999995
 30
0.0
 11
877.7968672515894
 21
1968.999999999995
 31
0.0
  0
LINE
  5
B7
330
87
100
AcDbEntity
  8
P-SANR-FIXT
100
AcDbLine
 10
877.658574060255
 20
1968.999999999995
 30
0.0
 11
876.654508075379
 21
1968.999999999995
 31
0.0
  0
LINE
  5
B8
330
87
100
AcDbEntity
  8
P-SANR-FIXT
100
AcDbLine
 10
876.4056380422266
 20
1968.999999999995
 30
0.0
 11
875.6293635808692
 21
1968.999999999995
 31
0.0
  0
LINE
  5
B9
330
87
100
AcDbEntity
  8
P-SANR-FIXT
100
AcDbLine
 10
875.3004788876367
 20
1968.999999999995
 30
0.0
 11
874.6408418690558
 21
1968.999999999995
 31
0.0
  0
LINE
  5
BA
330
87
100
AcDbEntity
  8
P-SANR-FIXT
100
AcDbLine
 10
874.351806354433
 20
1968.999999999995
 30
0.0
 11
873.7435674475714
 21
1968.999999999995
 31
0.0
  0
LINE
  5
BB
330
87
100
AcDbEntity
  8
P-SANR-FIXT
100
AcDbLine
 10
873.4589578807426
 20
1968.999999999995
 30
0.0
 11
873.109290457789
 21
1968.999999999995
 31
0.0
  0
LINE
  5
BC
330
87
100
AcDbEntity
  8
P-SANR-FIXT
100
AcDbLine
 10
872.8953671451025
 20
1968.999999999995
 30
0.0
 11
872.6300089063924
 21
1968.999999999995
 31
0.0
  0
LINE
  5
BD
330
87
100
AcDbEntity
  8
P-SANR-FIXT
100
AcDbLine
 10
872.4909835933331
 20
1968.999999999995
 30
0.0
 11
872.3098207791089
 21
1968.999999999995
 31
0.0
  0
LINE
  5
BE
330
87
100
AcDbEntity
  8
P-SANR-FIXT
100
AcDbLine
 10
872.2476266230536
 20
1968.999999999995
 30
0.0
 11
872.1664074431908
 21
1968.999999999995
 31
0.0
  0
LINE
  5
BF
330
87
100
AcDbEntity
  8
P-SANR-FIXT
100
AcDbLine
 10
915.1664074431881
 20
1959.999999999895
 30
0.0
 11
876.1664074431884
 21
1959.999999999894
 31
0.0
  0
LINE
  5
C0
330
87
100
AcDbEntity
  8
P-SANR-FIXT
100
AcDbLine
 10
916.1664074431879
 20
1960.999999999895
 30
0.0
 11
875.1664074431884
 21
1960.999999999895
 31
0.0
  0
LINE
  5
C1
330
87
100
AcDbEntity
  8
P-SANR-FIXT
100
AcDbLine
 10
916.1664074431881
 20
1964.999999999895
 30
0.0
 11
875.1664074431882
 21
1964.999999999895
 31
0.0
  0
LINE
  5
C2
330
87
100
AcDbEntity
  8
P-SANR-FIXT
100
AcDbLine
 10
872.1664074431908
 20
1966.732050807462
 30
0.0
 11
919.1664074431855
 21
1966.732050807462
 31
0.0
  0
LINE
  5
C3
330
87
100
AcDbEntity
  8
P-SANR-FIXT
100
AcDbLine
 10
878.1664074431899
 20
2051.000000000111
 30
0.0
 11
878.1664074431899
 21
2040.000000000096
 31
0.0
  0
LINE
  5
C4
330
87
100
AcDbEntity
  8
P-SANR-FIXT
100
AcDbLine
 10
913.1664074431892
 20
2040.000000000096
 30
0.0
 11
913.1664074431892
 21
2051.000000000111
 31
0.0
  0
LINE
  5
C5
330
87
100
AcDbEntity
  8
P-SANR-FIXT
100
AcDbLine
 10
878.166407443188
 20
2051.00000000011
 30
0.0
 11
878.2656392629696
 21
2051.00000000011
 31
0.0
  0
LINE
  5
C6
330
87
100
AcDbEntity
  8
P-SANR-FIXT
100
AcDbLine
 10
878.2656392629696
 20
2051.00000000011
 30
0.0
 11
885.3543627021583
 21
2051.00000000011
 31
0.0
  0
LINE
  5
C7
330
87
100
AcDbEntity
  8
P-SANR-FIXT
100
AcDbLine
 10
885.3543627021583
 20
2051.00000000011
 30
0.0
 11
888.5776840039987
 21
2051.00000000011
 31
0.0
  0
LINE
  5
C8
330
87
100
AcDbEntity
  8
P-SANR-FIXT
100
AcDbLine
 10
888.5776840039987
 20
2051.00000000011
 30
0.0
 11
902.7551308823763
 21
2051.00000000011
 31
0.0
  0
LINE
  5
C9
330
87
100
AcDbEntity
  8
P-SANR-FIXT
100
AcDbLine
 10
902.7551308823763
 20
2051.00000000011
 30
0.0
 11
905.9784521842168
 21
2051.00000000011
 31
0.0
  0
LINE
  5
CA
330
87
100
AcDbEntity
  8
P-SANR-FIXT
100
AcDbLine
 10
905.9784521842168
 20
2051.00000000011
 30
0.0
 11
913.0671756234058
 21
2051.00000000011
 31
0.0
  0
LINE
  5
CB
330
87
100
AcDbEntity
  8
P-SANR-FIXT
100
AcDbLine
 10
913.0671756234058
 20
2051.00000000011
 30
0.0
 11
913.1664074431874
 21
2051.00000000011
 31
0.0
  0
LINE
  5
CC
330
87
100
AcDbEntity
  8
P-SANR-FIXT
100
AcDbLine
 10
878.2656392629696
 20
2040.000000000081
 30
0.0
 11
878.2656392629696
 21
2051.00000000011
 31
0.0
  0
LINE
  5
CD
330
87
100
AcDbEntity
  8
P-SANR-FIXT
100
AcDbLine
 10
885.3543627021583
 20
2040.000000000081
 30
0.0
 11
885.3543627021583
 21
2051.00000000011
 31
0.0
  0
LINE
  5
CE
330
87
100
AcDbEntity
  8
P-SANR-FIXT
100
AcDbLine
 10
888.5776840039987
 20
2040.000000000081
 30
0.0
 11
888.5776840039987
 21
2051.00000000011
 31
0.0
  0
LINE
  5
CF
330
87
100
AcDbEntity
  8
P-SANR-FIXT
100
AcDbLine
 10
902.7551308823763
 20
2040.000000000081
 30
0.0
 11
902.7551308823763
 21
2051.00000000011
 31
0.0
  0
LINE
  5
D0
330
87
100
AcDbEntity
  8
P-SANR-FIXT
100
AcDbLine
 10
905.9784521842168
 20
2040.000000000081
 30
0.0
 11
905.9784521842168
 21
2051.00000000011
 31
0.0
  0
LINE
  5
D1
330
87
100
AcDbEntity
  8
P-SANR-FIXT
100
AcDbLine
 10
913.0671756234058
 20
2040.000000000081
 30
0.0
 11
913.0671756234058
 21
2051.00000000011
 31
0.0
  0
LINE
  5
D2
330
87
100
AcDbEntity
  8
P-SANR-FIXT
100
AcDbLine
 10
872.1664074431927
 20
2033.267949192529
 30
0.0
 11
872.1664074431924
 21
2030.999999999996
 31
0.0
  0
LINE
  5
D3
330
87
100
AcDbEntity
  8
P-SANR-FIXT
100
AcDbLine
 10
919.1664074431873
 20
2030.999999999996
 30
0.0
 11
919.1664074431873
 21
2033.267949192529
 31
0.0
  0
LINE
  5
D4
330
87
100
AcDbEntity
  8
P-SANR-FIXT
100
AcDbLine
 10
876.1664074431902
 20
2040.000000000096
 30
0.0
 11
875.16640744319
 21
2039.000000000096
 31
0.0
  0
LINE
  5
D5
330
87
100
AcDbEntity
  8
P-SANR-FIXT
100
AcDbLine
 10
916.1664074431898
 20
2039.000000000096
 30
0.0
 11
915.1664074431899
 21
2040.000000000096
 31
0.0
  0
LINE
  5
D6
330
87
100
AcDbEntity
  8
P-SANR-FIXT
100
AcDbLine
 10
875.16640744319
 20
2039.000000000096
 30
0.0
 11
875.16640744319
 21
2035.000000000096
 31
0.0
  0
LINE
  5
D7
330
87
100
AcDbEntity
  8
P-SANR-FIXT
100
AcDbLine
 10
916.1664074431898
 20
2035.000000000096
 30
0.0
 11
916.1664074431898
 21
2039.000000000096
 31
0.0
  0
LINE
  5
D8
330
87
100
AcDbEntity
  8
P-SANR-FIXT
100
AcDbLine
 10
875.16640744319
 20
2035.000000000096
 30
0.0
 11
872.238850100464
 21
2033.309773980205
 31
0.0
  0
LINE
  5
D9
330
87
100
AcDbEntity
  8
P-SANR-FIXT
100
AcDbLine
 10
872.2276528999776
 20
2033.30330927349
 30
0.0
 11
872.1664074431927
 21
2033.267949192529
 31
0.0
  0
LINE
  5
DA
330
87
100
AcDbEntity
  8
P-SANR-FIXT
100
AcDbLine
 10
919.1664074431873
 20
2033.267949192529
 30
0.0
 11
919.1051619864023
 21
2033.30330927349
 31
0.0
  0
LINE
  5
DB
330
87
100
AcDbEntity
  8
P-SANR-FIXT
100
AcDbLine
 10
919.0939647859158
 20
2033.309773980205
 30
0.0
 11
916.1664074431898
 21
2035.000000000096
 31
0.0
  0
LINE
  5
DC
330
87
100
AcDbEntity
  8
P-SANR-FIXT
100
AcDbLine
 10
919.1664074431855
 20
2033.267949192528
 30
0.0
 11
872.1664074431908
 21
2033.267949192528
 31
0.0
  0
LINE
  5
DD
330
87
100
AcDbEntity
  8
P-SANR-FIXT
100
AcDbLine
 10
872.1664074431908
 20
2030.999999999995
 30
0.0
 11
872.2476266230534
 21
2030.999999999995
 31
0.0
  0
LINE
  5
DE
330
87
100
AcDbEntity
  8
P-SANR-FIXT
100
AcDbLine
 10
872.3098207791066
 20
2030.999999999995
 30
0.0
 11
872.4909835933335
 21
2030.999999999995
 31
0.0
  0
LINE
  5
DF
330
87
100
AcDbEntity
  8
P-SANR-FIXT
100
AcDbLine
 10
872.6300089063935
 20
2030.999999999995
 30
0.0
 11
872.8953671451034
 21
2030.999999999995
 31
0.0
  0
LINE
  5
E0
330
87
100
AcDbEntity
  8
P-SANR-FIXT
100
AcDbLine
 10
873.1092904577879
 20
2030.999999999995
 30
0.0
 11
873.4589578807449
 21
2030.999999999995
 31
0.0
  0
LINE
  5
E1
330
87
100
AcDbEntity
  8
P-SANR-FIXT
100
AcDbLine
 10
873.7435674475721
 20
2030.999999999995
 30
0.0
 11
874.3518063544328
 21
2030.999999999995
 31
0.0
  0
LINE
  5
E2
330
87
100
AcDbEntity
  8
P-SANR-FIXT
100
AcDbLine
 10
874.6408418690558
 20
2030.999999999995
 30
0.0
 11
875.3004788876367
 21
2030.999999999995
 31
0.0
  0
LINE
  5
E3
330
87
100
AcDbEntity
  8
P-SANR-FIXT
100
AcDbLine
 10
875.6293635808692
 20
2030.999999999995
 30
0.0
 11
876.4056380422262
 21
2030.999999999995
 31
0.0
  0
LINE
  5
E4
330
87
100
AcDbEntity
  8
P-SANR-FIXT
100
AcDbLine
 10
876.654508075379
 20
2030.999999999995
 30
0.0
 11
877.6585740602545
 21
2030.999999999995
 31
0.0
  0
LINE
  5
E5
330
87
100
AcDbEntity
  8
P-SANR-FIXT
100
AcDbLine
 10
877.7968672515894
 20
2030.999999999995
 30
0.0
 11
880.4043783074305
 21
2030.999999999995
 31
0.0
  0
LINE
  5
E6
330
87
100
AcDbEntity
  8
P-SANR-FIXT
100
AcDbLine
 10
880.5565199760323
 20
2030.999999999995
 30
0.0
 11
883.3876911723647
 21
2030.999999999995
 31
0.0
  0
LINE
  5
E7
330
87
100
AcDbEntity
  8
P-SANR-FIXT
100
AcDbLine
 10
883.9085348732673
 20
2030.999999999995
 30
0.0
 11
885.727377058097
 21
2030.999999999995
 31
0.0
  0
LINE
  5
E8
330
87
100
AcDbEntity
  8
P-SANR-FIXT
100
AcDbLine
 10
886.4068942180344
 20
2030.999999999995
 30
0.0
 11
887.622753948646
 21
2030.999999999995
 31
0.0
  0
LINE
  5
E9
330
87
100
AcDbEntity
  8
P-SANR-FIXT
100
AcDbLine
 10
888.4045080753777
 20
2030.999999999995
 30
0.0
 11
889.5798396270672
 21
2030.999999999995
 31
0.0
  0
LINE
  5
EA
330
87
100
AcDbEntity
  8
P-SANR-FIXT
100
AcDbLine
 10
890.1804413925749
 20
2030.999999999995
 30
0.0
 11
891.5833108067557
 21
2030.999999999995
 31
0.0
  0
LINE
  5
EB
330
87
100
AcDbEntity
  8
P-SANR-FIXT
100
AcDbLine
 10
891.9901975147428
 20
2030.999999999995
 30
0.0
 11
893.617476019307
 21
2030.999999999995
 31
0.0
  0
LINE
  5
EC
330
87
100
AcDbEntity
  8
P-SANR-FIXT
100
AcDbLine
 10
893.8226186935839
 20
2030.999999999995
 30
0.0
 11
899.3426173716329
 21
2030.999999999995
 31
0.0
  0
LINE
  5
ED
330
87
100
AcDbEntity
  8
P-SANR-FIXT
100
AcDbLine
 10
899.7495040796197
 20
2030.999999999995
 30
0.0
 11
902.9283068109984
 21
2030.999999999995
 31
0.0
  0
LINE
  5
EE
330
87
100
AcDbEntity
  8
P-SANR-FIXT
100
AcDbLine
 10
903.7100609377295
 20
2030.999999999995
 30
0.0
 11
905.6054378282784
 21
2030.999999999995
 31
0.0
  0
LINE
  5
EF
330
87
100
AcDbEntity
  8
P-SANR-FIXT
100
AcDbLine
 10
906.0219876140905
 20
2030.999999999995
 30
0.0
 11
907.4242800131084
 21
2030.999999999995
 31
0.0
  0
LINE
  5
F0
330
87
100
AcDbEntity
  8
P-SANR-FIXT
100
AcDbLine
 10
907.9451237140116
 20
2030.999999999995
 30
0.0
 11
909.1523848115953
 21
2030.999999999995
 31
0.0
  0
LINE
  5
F1
330
87
100
AcDbEntity
  8
P-SANR-FIXT
100
AcDbLine
 10
909.4793608720596
 20
2030.999999999995
 30
0.0
 11
910.7762949103433
 21
2030.999999999995
 31
0.0
  0
LINE
  5
F2
330
87
100
AcDbEntity
  8
P-SANR-FIXT
100
AcDbLine
 10
910.9284365789457
 20
2030.999999999995
 30
0.0
 11
914.6783068109973
 21
2030.999999999995
 31
0.0
  0
LINE
  5
F3
330
87
100
AcDbEntity
  8
P-SANR-FIXT
100
AcDbLine
 10
914.9271768441495
 20
2030.999999999995
 30
0.0
 11
915.7034513055071
 21
2030.999999999995
 31
0.0
  0
LINE
  5
F4
330
87
100
AcDbEntity
  8
P-SANR-FIXT
100
AcDbLine
 10
916.0323359987394
 20
2030.999999999995
 30
0.0
 11
916.6050607616126
 21
2030.999999999995
 31
0.0
  0
LINE
  5
F5
330
87
100
AcDbEntity
  8
P-SANR-FIXT
100
AcDbLine
 10
916.9810085319433
 20
2030.999999999995
 30
0.0
 11
917.5892474388049
 21
2030.999999999995
 31
0.0
  0
LINE
  5
F6
330
87
100
AcDbEntity
  8
P-SANR-FIXT
100
AcDbLine
 10
917.79692777173
 20
2030.999999999995
 30
0.0
 11
918.2235244285861
 21
2030.999999999995
 31
0.0
  0
LINE
  5
F7
330
87
100
AcDbEntity
  8
P-SANR-FIXT
100
AcDbLine
 10
918.4374477412738
 20
2030.999999999995
 30
0.0
 11
918.7028059799827
 21
2030.999999999995
 31
0.0
  0
LINE
  5
F8
330
87
100
AcDbEntity
  8
P-SANR-FIXT
100
AcDbLine
 10
918.8418312930428
 20
2030.999999999995
 30
0.0
 11
919.0229941072695
 21
2030.999999999995
 31
0.0
  0
LINE
  5
F9
330
87
100
AcDbEntity
  8
P-SANR-FIXT
100
AcDbLine
 10
919.0821830816233
 20
2030.999999999995
 30
0.0
 11
919.1664074431855
 21
2030.999999999995
 31
0.0
  0
LINE
  5
FA
330
87
100
AcDbEntity
  8
P-SANR-FIXT
100
AcDbLine
 10
876.1664074431884
 20
2040.000000000095
 30
0.0
 11
915.1664074431881
 21
2040.000000000095
 31
0.0
  0
LINE
  5
FB
330
87
100
AcDbEntity
  8
P-SANR-FIXT
100
AcDbLine
 10
875.1664074431884
 20
2039.000000000095
 30
0.0
 11
916.1664074431881
 21
2039.000000000095
 31
0.0
  0
LINE
  5
FC
330
87
100
AcDbEntity
  8
P-SANR-FIXT
100
AcDbLine
 10
875.1664074431884
 20
2035.000000000095
 30
0.0
 11
916.1664074431879
 21
2035.000000000095
 31
0.0
  0
LINE
  5
FD
330
87
100
AcDbEntity
  8
P-SANR-FIXT
100
AcDbLine
 10
801.6664074431899
 20
1896.500000000044
 30
0.0
 11
801.6664074431899
 21
1886.07735026917
 31
0.0
  0
LINE
  5
FE
330
87
100
AcDbEntity
  8
P-SANR-FIXT
100
AcDbLine
 10
829.6664074431911
 20
1886.07735026917
 30
0.0
 11
829.6664074431911
 21
1896.500000000044
 31
0.0
  0
LINE
  5
FF
330
87
100
AcDbEntity
  8
P-SANR-FIXT
100
AcDbLine
 10
828.6664074431904
 20
1885.499999999981
 30
0.0
 11
829.6664074431911
 21
1886.077350269171
 31
0.0
  0
LINE
  5
100
330
87
100
AcDbEntity
  8
P-SANR-FIXT
100
AcDbLine
 10
801.6664074431897
 20
1886.07735026917
 30
0.0
 11
802.6664074431893
 21
1885.499999999981
 31
0.0
  0
LINE
  5
101
330
87
100
AcDbEntity
  8
P-SANR-FIXT
100
AcDbLine
 10
787.1758872132723
 20
1919.499999999995
 30
0.0
 11
787.1758872132723
 21
1917.772871807201
 31
0.0
  0
LINE
  5
102
330
87
100
AcDbEntity
  8
P-SANR-FIXT
100
AcDbLine
 10
844.1569276731073
 20
1917.772871807201
 30
0.0
 11
844.1569276731073
 21
1919.499999999995
 31
0.0
  0
LWPOLYLINE
  5
103
330
87
100
AcDbEntity
  8
P-SANR-FIXT
100
AcDbPolyline
 90
       34
 70
   128
 43
0.0
 10
844.1569276731057
 20
1917.772871807201
 10
844.1561277797669
 20
1917.732882473014
 10
844.1537293794082
 20
1917.692957113231
 10
844.1497363089595
 20
1917.653159599911
 10
844.1441549564816
 20
1917.613553600586
 10
844.1369942509471
 20
1917.574202476405
 10
844.1282656479579
 20
1917.535169180773
 10
844.1179831114165
 20
1917.496516158636
 10
844.1061630911882
 20
1917.458305246584
 10
844.0928244967837
 20
1917.420597573925
 10
844.0779886671087
 20
1917.383453464892
 10
844.0616793363256
 20
1917.346932342134
 10
844.0439225958851
 20
1917.311092631659
 10
844.0247468527834
 20
1917.275991669357
 10
844.0041827841193
 20
1917.241685609279
 10
843.9822632880154
 20
1917.208229333805
 10
843.95902343099
 20
1917.175676365838
 10
843.9345003918566
 20
1917.144078783182
 10
843.9087334022467
 20
1917.113487135228
 10
843.8817636838466
 20
1917.08395036209
 10
843.8536343824528
 20
1917.055515716301
 10
843.8243904989471
 20
1917.02822868723
 10
843.7940788173042
 20
1917.002132928301
 10
843.7627478297491
 20
1916.977270187164
 10
843.7304476591782
 20
1916.953680238899
 10
843.6972299789738
 20
1916.931400822392
 10
843.6631479303382
 20
1916.910467579957
 10
843.6282560372795
 20
1916.890914000315
 10
843.5926101193825
 20
1916.872771365024
 10
843.556267202512
 20
1916.856068698429
 10
843.5192854275824
 20
1916.840832721233
 10
843.4817239575446
 20
1916.827087807751
 10
843.4436428827375
 20
1916.814855946911
 10
843.4325650289228
 20
1916.811610111262
  0
LWPOLYLINE
  5
104
330
87
100
AcDbEntity
  8
P-SANR-FIXT
100
AcDbPolyline
 90
       34
 70
   128
 43
0.0
 10
787.9002498574569
 20
1916.811610111262
 10
787.862030122742
 20
1916.823401572426
 10
787.8243124924194
 20
1916.836711983422
 10
787.7871573066516
 20
1916.851520050433
 10
787.7506240058099
 20
1916.867802083711
 10
787.714771035382
 20
1916.885532035475
 10
787.6796557524725
 20
1916.904681541584
 10
787.6453343340434
 20
1916.925219966914
 10
787.6118616870423
 20
1916.947114454366
 10
787.5792913605643
 20
1916.970329977431
 10
787.5476754601835
 20
1916.994829396223
 10
787.5170645645964
 20
1917.020573516899
 10
787.4875076447056
 20
1917.047521154358
 10
787.4590519852784
 20
1917.075629198129
 10
787.4317431092991
 20
1917.104852681336
 10
787.405624705144
 20
1917.135144852642
 10
787.3807385566879
 20
1917.166457251035
 10
787.3571244764596
 20
1917.198739783355
 10
787.3348202419503
 20
1917.231940804439
 10
787.313861535177
 20
1917.266007199734
 10
787.2942818855996
 20
1917.300884470276
 10
787.2761126164808
 20
1917.336516819872
 10
787.2593827947751
 20
1917.372847244364
 10
787.2441191846285
 20
1917.409817622822
 10
787.2303462045612
 20
1917.447368810528
 10
787.218085888403
 20
1917.485440733591
 10
787.2073578500447
 20
1917.523972485057
 10
787.1981792520592
 20
1917.562902422343
 10
787.1905647782448
 20
1917.602168265853
 10
787.1845266101354
 20
1917.641707198615
 10
787.1800744075124
 20
1917.68145596677
 10
787.1772152929497
 20
1917.721350980768
 10
787.1759538404209
 20
1917.761328417099
 10
787.1758872132738
 20
1917.772871807201
  0
LINE
  5
105
330
87
100
AcDbEntity
  8
P-SANR-FIXT
100
AcDbLine
 10
787.9002498574569
 20
1916.811610111262
 30
0.0
 11
788.6840146119496
 21
1916.58686918439
 31
0.0
  0
LINE
  5
106
330
87
100
AcDbEntity
  8
P-SANR-FIXT
100
AcDbLine
 10
842.6488002744301
 20
1916.58686918439
 30
0.0
 11
843.4325650289228
 21
1916.811610111262
 31
0.0
  0
LWPOLYLINE
  5
107
330
87
100
AcDbEntity
  8
P-SANR-FIXT
100
AcDbPolyline
 90
       28
 70
   128
 43
0.0
 10
842.6488002744301
 20
1916.58686918439
 10
842.6157639386641
 20
1916.576676893076
 10
842.5831616113866
 20
1916.565171653436
 10
842.5510454493663
 20
1916.552371871401
 10
842.5194668316116
 20
1916.538298023889
 10
842.4884762771744
 20
1916.522972626056
 10
842.4581233643305
 20
1916.506420195269
 10
842.4284566512659
 20
1916.488667211885
 10
842.3995235983927
 20
1916.469742076891
 10
842.3713704924239
 20
1916.449675066467
 10
842.3440423723228
 20
1916.428498283548
 10
842.3175829572521
 20
1916.406245606468
 10
842.2920345766314
 20
1916.382952634766
 10
842.2674381024199
 20
1916.358656632226
 10
842.2438328837291
 20
1916.333396467269
 10
842.2212566838739
 20
1916.307212550771
 10
842.1997456199576
 20
1916.280146771413
 10
842.1793341050937
 20
1916.252242428668
 10
842.160054793352
 20
1916.223544163531
 10
842.1419385275184
 20
1916.194097887106
 10
842.1250142897537
 20
1916.163950707152
 10
842.1093091552281
 20
1916.133150852727
 10
842.0948482488062
 20
1916.101747597027
 10
842.0816547048541
 20
1916.069791178563
 10
842.0697496302272
 20
1916.037332720787
 10
842.0591520705054
 20
1916.004424150308
 10
842.0498789795235
 20
1915.971118113817
 10
842.0494847214722
 20
1915.969578084239
  0
LWPOLYLINE
  5
108
330
87
100
AcDbEntity
  8
P-SANR-FIXT
100
AcDbPolyline
 90
       28
 70
   128
 43
0.0
 10
789.2833301649074
 20
1915.969578084239
 10
789.2741183433185
 20
1916.002901118706
 10
789.2635813242431
 20
1916.035829123688
 10
789.2517359646636
 20
1916.0683094214
 10
789.2386012146285
 20
1916.100290050297
 10
789.2241980869362
 20
1916.131719848192
 10
789.2085496235185
 20
1916.162548534115
 10
789.1916808585784
 20
1916.192726788744
 10
789.1736187785413
 20
1916.22220633331
 10
789.1543922788825
 20
1916.25094000683
 10
789.1340321178999
 20
1916.278881841556
 10
789.112570867508
 20
1916.305987136513
 10
789.0900428611289
 20
1916.33221252901
 10
789.0664841387673
 20
1916.357516064016
 10
789.0419323893532
 20
1916.38185726127
 10
789.0164268904487
 20
1916.405197180051
 10
788.9900084454108
 20
1916.427498481468
 10
788.9627193181159
 20
1916.448725488194
 10
788.9346031653465
 20
1916.468844241548
 10
788.905704966949
 20
1916.487822555816
 10
788.8760709538765
 20
1916.505630069744
 10
788.845748534228
 20
1916.522238295108
 10
788.8147862174068
 20
1916.53762066229
 10
788.7832335365146
 20
1916.551752562785
 10
788.7511409691102
 20
1916.564611388566
 10
788.7185598564551
 20
1916.576176568255
 10
788.6855423213797
 20
1916.586429600032
 10
788.6840146119496
 20
1916.58686918439
  0
LWPOLYLINE
  5
109
330
87
100
AcDbEntity
  8
P-SANR-FIXT
100
AcDbPolyline
 90
       19
 70
   128
 43
0.0
 10
842.0494847214722
 20
1915.969578084239
 10
841.7298836916923
 20
1914.813446690643
 10
841.364305383985
 20
1913.671020711234
 10
840.9533346456568
 20
1912.544127783874
 10
840.4976289422199
 20
1911.434570696857
 10
839.997917305588
 20
1910.344124504829
 10
839.4549991677802
 20
1909.27453368908
 10
838.8697430820004
 20
1908.227509366749
 10
838.2430853331381
 20
1907.204726553398
 10
837.5760284399113
 20
1906.207821483347
 10
836.869639551052
 20
1905.238388992045
 10
836.1250487380932
 20
1904.297979964679
 10
835.3434471874987
 20
1903.388098855081
 10
834.5260852950163
 20
1902.51020127893
 10
833.6742706653129
 20
1901.665691685072
 10
832.7893660200855
 20
1900.855921108705
 10
831.8727870179966
 20
1900.082185010009
 10
830.9259999899229
 20
1899.345721201688
 10
830.5804837001636
 20
1899.091708149557
  0
LWPOLYLINE
  5
10A
330
87
100
AcDbEntity
  8
P-SANR-FIXT
100
AcDbPolyline
 90
       19
 70
   128
 43
0.0
 10
800.752331186216
 20
1899.091708149557
 10
799.7951099691343
 20
1899.814558174848
 10
798.8675607181563
 20
1900.575108636359
 10
797.971167314217
 20
1901.372142815595
 10
797.1073637955422
 20
1902.204385627891
 10
796.2775320634936
 20
1903.070505662286
 10
795.4829996718213
 20
1903.969117311486
 10
794.7250377028603
 20
1904.898782988547
 10
794.0048587340717
 20
1905.858015426702
 10
793.3236148981748
 20
1906.845280058677
 10
792.6823960399832
 20
1907.858997471664
 10
792.0822279728841
 20
1908.897545934053
 10
791.5240708377556
 20
1909.959263989847
 10
791.0088175669466
 20
1911.042453116646
 10
790.5372924557759
 20
1912.145380442915
 10
790.1102498438343
 20
1913.26628152021
 10
789.7283729082039
 20
1914.40336314592
 10
789.3922725705185
 20
1915.55480623201
 10
789.2833301649074
 20
1915.969578084239
  0
LWPOLYLINE
  5
10B
330
87
100
AcDbEntity
  8
P-SANR-FIXT
100
AcDbPolyline
 90
       25
 70
   128
 43
0.0
 10
830.5804837001636
 20
1899.091708149557
 10
830.5098427606093
 20
1899.038363317628
 10
830.4413915505833
 20
1898.982236271737
 10
830.3752395774191
 20
1898.923416803182
 10
830.3114926701622
 20
1898.861999010567
 10
830.250252810266
 20
1898.798081149256
 10
830.1916179684422
 20
1898.731765474195
 10
830.1356819479295
 20
1898.663158076316
 10
830.0825342344285
 20
1898.59236871282
 10
830.0322598529433
 20
1898.519510631587
 10
829.9849392317597
 20
1898.444700390007
 10
829.9406480737767
 20
1898.368057668506
 10
829.8994572353992
 20
1898.289705079089
 10
829.8614326131813
 20
1898.209767969185
 10
829.8266350384073
 20
1898.128374221118
 10
829.7951201797742
 20
1898.045654047521
 10
829.766938454332
 20
1897.961739783027
 10
829.7421349468304
 20
1897.876765672556
 10
829.7207493375902
 20
1897.790867656561
 10
829.7028158390236
 20
1897.704183153541
 10
829.6883631409032
 20
1897.616850840211
 10
829.6774143644631
 20
1897.529010429642
 10
829.6699870254094
 20
1897.440802447751
 10
829.6660930059006
 20
1897.352368008495
 10
829.6654554145774
 20
1897.299247720814
  0
LWPOLYLINE
  5
10C
330
87
100
AcDbEntity
  8
P-SANR-FIXT
100
AcDbPolyline
 90
       25
 70
   128
 43
0.0
 10
801.6673594718023
 20
1897.299247720814
 10
801.6655891872247
 20
1897.387750147487
 10
801.660281165569
 20
1897.476110989158
 10
801.6514438985382
 20
1897.564188887327
 10
801.6390915238741
 20
1897.651842936148
 10
801.623243802741
 20
1897.738932907842
 10
801.6039260881122
 20
1897.825319477029
 10
801.5811692842103
 20
1897.91086444363
 10
801.5550097970665
 20
1897.995430953945
 10
801.5254894762806
 20
1898.078883719599
 10
801.4926555480679
 20
1898.161089233968
 10
801.4565605397098
 20
1898.241915985766
 10
801.4172621955193
 20
1898.321234669432
 10
801.3748233844644
 20
1898.398918391992
 10
801.3293119995894
 20
1898.474842876062
 10
801.2808008494015
 20
1898.548886658664
 10
801.2293675413928
 20
1898.620931285541
 10
801.1750943578839
 20
1898.690861500659
 10
801.1180681243908
 20
1898.75856543059
 10
801.0583800707223
 20
1898.82393476349
 10
800.9961256850315
 20
1898.886864922372
 10
800.9314045610553
 20
1898.947255232404
 10
800.8643202387855
 20
1899.005009081974
 10
800.7949800388271
 20
1899.060034077243
 10
800.752331186216
 20
1899.091708149557
  0
LINE
  5
10D
330
87
100
AcDbEntity
  8
P-SANR-FIXT
100
AcDbLine
 10
801.6673594718024
 20
1897.299247720814
 30
0.0
 11
801.6673594718024
 21
1896.500000000044
 31
0.0
  0
LINE
  5
10E
330
87
100
AcDbEntity
  8
P-SANR-FIXT
100
AcDbLine
 10
829.6654554145771
 20
1896.500000000044
 30
0.0
 11
829.6654554145771
 21
1897.299247720814
 31
0.0
  0
LINE
  5
10F
330
87
100
AcDbEntity
  8
P-SANR-FIXT
100
AcDbLine
 10
828.6664074431884
 20
1885.49999999998
 30
0.0
 11
826.9247376923862
 21
1885.49999999998
 31
0.0
  0
LINE
  5
110
330
87
100
AcDbEntity
  8
P-SANR-FIXT
100
AcDbLine
 10
826.9247376923862
 20
1885.49999999998
 30
0.0
 11
815.6664074431882
 21
1885.49999999998
 31
0.0
  0
LINE
  5
111
330
87
100
AcDbEntity
  8
P-SANR-FIXT
100
AcDbLine
 10
815.6664074431882
 20
1885.49999999998
 30
0.0
 11
804.4080771939899
 21
1885.49999999998
 31
0.0
  0
LINE
  5
112
330
87
100
AcDbEntity
  8
P-SANR-FIXT
100
AcDbLine
 10
804.4080771939899
 20
1885.49999999998
 30
0.0
 11
802.6664074431876
 21
1885.49999999998
 31
0.0
  0
LINE
  5
113
330
87
100
AcDbEntity
  8
P-SANR-FIXT
100
AcDbLine
 10
801.6664074431881
 20
1886.077350269169
 30
0.0
 11
801.8100009826369
 21
1886.077350269169
 31
0.0
  0
LINE
  5
114
330
87
100
AcDbEntity
  8
P-SANR-FIXT
100
AcDbLine
 10
801.8100009826369
 20
1886.077350269169
 30
0.0
 11
801.8100009826369
 21
1896.500000000043
 31
0.0
  0
SPLINE
  5
115
330
87
100
AcDbEntity
  8
P-SANR-FIXT
100
AcDbSpline
210
0.0
220
0.0
230
1.0
 70
     8
 71
     3
 72
     9
 73
     5
 74
     0
 42
0.000000001
 43
0.0000000001
 40
0.0
 40
0.0
 40
0.0
 40
0.0
 40
0.5
 40
1.0
 40
1.0
 40
1.0
 40
1.0
 10
801.8100009826369
 20
1886.077350269169
 30
0.0
 10
802.2380118014366
 20
1885.888757843082
 30
0.0
 10
803.0990353221286
 20
1885.60394037213
 30
0.0
 10
803.9700626090057
 20
1885.503857663623
 30
0.0
 10
804.4080771939908
 20
1885.49999999998
 30
0.0
  0
SPLINE
  5
116
330
87
100
AcDbEntity
  8
P-SANR-FIXT
100
AcDbSpline
210
0.0
220
0.0
230
1.0
 70
     8
 71
     3
 72
     9
 73
     5
 74
     0
 42
0.000000001
 43
0.0000000001
 40
0.0
 40
0.0
 40
0.0
 40
0.0
 40
0.5
 40
1.0
 40
1.0
 40
1.0
 40
1.0
 10
804.4080771939908
 20
1885.49999999998
 30
0.0
 10
804.8460917789757
 20
1885.503857663623
 30
0.0
 10
805.7171190658531
 20
1885.60394037213
 30
0.0
 10
806.5781425865452
 20
1885.888757843082
 30
0.0
 10
807.0061534053449
 20
1886.077350269169
 30
0.0
  0
LINE
  5
117
330
87
100
AcDbEntity
  8
P-SANR-FIXT
100
AcDbLine
 10
807.0061534053449
 20
1886.077350269169
 30
0.0
 11
807.0061534053449
 21
1896.500000000043
 31
0.0
  0
LINE
  5
118
330
87
100
AcDbEntity
  8
P-SANR-FIXT
100
AcDbLine
 10
807.0061534053447
 20
1886.077350269169
 30
0.0
 11
810.4702550204804
 21
1886.077350269169
 31
0.0
  0
LINE
  5
119
330
87
100
AcDbEntity
  8
P-SANR-FIXT
100
AcDbLine
 10
810.4702550204805
 20
1886.077350269169
 30
0.0
 11
810.4702550204805
 21
1896.500000000043
 31
0.0
  0
SPLINE
  5
11A
330
87
100
AcDbEntity
  8
P-SANR-FIXT
100
AcDbSpline
210
0.0
220
0.0
230
1.0
 70
     8
 71
     3
 72
     9
 73
     5
 74
     0
 42
0.000000001
 43
0.0000000001
 40
0.0
 40
0.0
 40
0.0
 40
0.0
 40
0.5
 40
1.0
 40
1.0
 40
1.0
 40
1.0
 10
810.4702550204805
 20
1886.077350269169
 30
0.0
 10
811.3262766580799
 20
1885.888757843083
 30
0.0
 10
813.0483236994637
 20
1885.603940372131
 30
0.0
 10
814.7903782732182
 20
1885.503857663623
 30
0.0
 10
815.666407443188
 20
1885.49999999998
 30
0.0
  0
SPLINE
  5
11B
330
87
100
AcDbEntity
  8
P-SANR-FIXT
100
AcDbSpline
210
0.0
220
0.0
230
1.0
 70
     8
 71
     3
 72
     9
 73
     5
 74
     0
 42
0.000000001
 43
0.0000000001
 40
0.0
 40
0.0
 40
0.0
 40
0.0
 40
0.5
 40
1.0
 40
1.0
 40
1.0
 40
1.0
 10
815.666407443188
 20
1885.49999999998
 30
0.0
 10
816.5424366131579
 20
1885.503857663623
 30
0.0
 10
818.2844911869128
 20
1885.603940372131
 30
0.0
 10
820.0065382282971
 20
1885.888757843083
 30
0.0
 10
820.8625598658967
 20
1886.077350269169
 30
0.0
  0
LINE
  5
11C
330
87
100
AcDbEntity
  8
P-SANR-FIXT
100
AcDbLine
 10
820.8625598658965
 20
1886.077350269169
 30
0.0
 11
820.8625598658965
 21
1896.500000000043
 31
0.0
  0
LINE
  5
11D
330
87
100
AcDbEntity
  8
P-SANR-FIXT
100
AcDbLine
 10
820.8625598658963
 20
1886.077350269169
 30
0.0
 11
824.3266614810321
 21
1886.077350269169
 31
0.0
  0
LINE
  5
11E
330
87
100
AcDbEntity
  8
P-SANR-FIXT
100
AcDbLine
 10
824.3266614810325
 20
1886.07735026917
 30
0.0
 11
824.3266614810325
 21
1896.500000000043
 31
0.0
  0
SPLINE
  5
11F
330
87
100
AcDbEntity
  8
P-SANR-FIXT
100
AcDbSpline
210
0.0
220
0.0
230
1.0
 70
     8
 71
     3
 72
     9
 73
     5
 74
     0
 42
0.000000001
 43
0.0000000001
 40
0.0
 40
0.0
 40
0.0
 40
0.0
 40
0.5
 40
1.0
 40
1.0
 40
1.0
 40
1.0
 10
824.3266614810325
 20
1886.07735026917
 30
0.0
 10
824.754672299832
 20
1885.888757843083
 30
0.0
 10
825.6156958205242
 20
1885.603940372131
 30
0.0
 10
826.4867231074013
 20
1885.503857663623
 30
0.0
 10
826.9247376923862
 20
1885.49999999998
 30
0.0
  0
SPLINE
  5
120
330
87
100
AcDbEntity
  8
P-SANR-FIXT
100
AcDbSpline
210
0.0
220
0.0
230
1.0
 70
     8
 71
     3
 72
     9
 73
     5
 74
     0
 42
0.000000001
 43
0.0000000001
 40
0.0
 40
0.0
 40
0.0
 40
0.0
 40
0.5
 40
1.0
 40
1.0
 40
1.0
 40
1.0
 10
826.9247376923862
 20
1885.49999999998
 30
0.0
 10
827.3627522773715
 20
1885.503857663623
 30
0.0
 10
828.2337795642487
 20
1885.603940372131
 30
0.0
 10
829.0948030849406
 20
1885.888757843083
 30
0.0
 10
829.5228139037405
 20
1886.07735026917
 30
0.0
  0
LINE
  5
121
330
87
100
AcDbEntity
  8
P-SANR-FIXT
100
AcDbLine
 10
829.5228139037405
 20
1886.07735026917
 30
0.0
 11
829.5228139037405
 21
1896.500000000043
 31
0.0
  0
LINE
  5
122
330
87
100
AcDbEntity
  8
P-SANR-FIXT
100
AcDbLine
 10
829.5228139037405
 20
1886.077350269169
 30
0.0
 11
829.6664074431893
 21
1886.077350269169
 31
0.0
  0
LWPOLYLINE
  5
123
330
87
100
AcDbEntity
  8
P-SANR-FIXT
100
AcDbPolyline
 90
        3
 70
   128
 43
0.0
 10
801.8100009826369
 20
1896.500000000043
 10
803.6121959231516
 20
1896.500000000043
 10
807.0048706063179
 20
1896.500000000043
  0
LWPOLYLINE
  5
124
330
87
100
AcDbEntity
  8
P-SANR-FIXT
100
AcDbPolyline
 90
        3
 70
   128
 43
0.0
 10
810.4702550204805
 20
1896.500000000043
 10
815.7073534948038
 20
1896.500000000043
 10
820.8599942678407
 20
1896.500000000043
  0
LWPOLYLINE
  5
125
330
87
100
AcDbEntity
  8
P-SANR-FIXT
100
AcDbPolyline
 90
        3
 70
   128
 43
0.0
 10
824.3273029818709
 20
1896.500000000043
 10
827.721864548857
 20
1896.500000000043
 10
829.5215311047119
 20
1896.500000000043
  0
LINE
  5
126
330
87
100
AcDbEntity
  8
P-SANR-FIXT
100
AcDbLine
 10
801.026986025387
 20
1880.299999999965
 30
0.0
 11
801.026986025387
 21
1873.449999999965
 31
0.0
  0
LINE
  5
127
330
87
100
AcDbEntity
  8
P-SANR-FIXT
100
AcDbLine
 10
830.3058288609923
 20
1866.780578582162
 30
0.0
 11
830.3058288609923
 21
1880.299999999965
 31
0.0
  0
LINE
  5
128
330
87
100
AcDbEntity
  8
P-SANR-FIXT
100
AcDbLine
 10
831.0864074431892
 20
1856.499999999949
 30
0.0
 11
831.0864074431892
 21
1866.780578582162
 31
0.0
  0
LINE
  5
129
330
87
100
AcDbEntity
  8
P-SANR-FIXT
100
AcDbLine
 10
800.2464074431902
 20
1860.549999999966
 30
0.0
 11
800.2464074431902
 21
1856.499999999949
 31
0.0
  0
LINE
  5
12A
330
87
100
AcDbEntity
  8
P-SANR-FIXT
100
AcDbLine
 10
801.1664074431912
 20
1856.499999999949
 30
0.0
 11
801.1664074431912
 21
1854.999999999949
 31
0.0
  0
LINE
  5
12B
330
87
100
AcDbEntity
  8
P-SANR-FIXT
100
AcDbLine
 10
830.1664074431881
 20
1854.999999999949
 30
0.0
 11
830.1664074431881
 21
1856.499999999949
 31
0.0
  0
LINE
  5
12C
330
87
100
AcDbEntity
  8
P-SANR-FIXT
100
AcDbLine
 10
803.91640744319
 20
1854.999999999949
 30
0.0
 11
803.91640744319
 21
1851.999999999949
 31
0.0
  0
LINE
  5
12D
330
87
100
AcDbEntity
  8
P-SANR-FIXT
100
AcDbLine
 10
827.4164074431894
 20
1851.999999999949
 30
0.0
 11
827.4164074431894
 21
1854.999999999949
 31
0.0
  0
LINE
  5
12E
330
87
100
AcDbEntity
  8
P-SANR-FIXT
100
AcDbLine
 10
802.2800423085163
 20
1851.999999999949
 30
0.0
 11
802.2800423085163
 21
1849.999999999978
 31
0.0
  0
LINE
  5
12F
330
87
100
AcDbEntity
  8
P-SANR-FIXT
100
AcDbLine
 10
829.052772577863
 20
1849.999999999978
 30
0.0
 11
829.052772577863
 21
1851.999999999949
 31
0.0
  0
LINE
  5
130
330
87
100
AcDbEntity
  8
P-SANR-FIXT
100
AcDbLine
 10
800.8664074432022
 20
1849.999999999978
 30
0.0
 11
800.8664074432022
 21
1840.999999999978
 31
0.0
  0
LINE
  5
131
330
87
100
AcDbEntity
  8
P-SANR-FIXT
100
AcDbLine
 10
830.4664074431769
 20
1840.999999999978
 30
0.0
 11
830.4664074431771
 21
1849.999999999978
 31
0.0
  0
LINE
  5
132
330
87
100
AcDbEntity
  8
P-SANR-FIXT
100
AcDbLine
 10
808.1664074431895
 20
1840.999999999978
 30
0.0
 11
808.1664074431895
 21
1817.999999999978
 31
0.0
  0
LINE
  5
133
330
87
100
AcDbEntity
  8
P-SANR-FIXT
100
AcDbLine
 10
823.16640744319
 20
1817.999999999978
 30
0.0
 11
823.16640744319
 21
1840.999999999978
 31
0.0
  0
LINE
  5
134
330
87
100
AcDbEntity
  8
P-SANR-FIXT
100
AcDbLine
 10
804.1714435505962
 20
1885.499999999981
 30
0.0
 11
804.1714435505962
 21
1880.299999999965
 31
0.0
  0
LINE
  5
135
330
87
100
AcDbEntity
  8
P-SANR-FIXT
100
AcDbLine
 10
827.1613713357831
 20
1880.299999999965
 30
0.0
 11
827.1613713357831
 21
1885.499999999981
 31
0.0
  0
LINE
  5
136
330
87
100
AcDbEntity
  8
P-SANR-FIXT
100
AcDbLine
 10
801.026986025387
 20
1873.449999999965
 30
0.0
 11
793.6664074431901
 21
1873.449999999965
 31
0.0
  0
LINE
  5
137
330
87
100
AcDbEntity
  8
P-SANR-FIXT
100
AcDbLine
 10
793.6664074431901
 20
1860.549999999966
 30
0.0
 11
800.2464074431902
 21
1860.549999999966
 31
0.0
  0
LINE
  5
138
330
87
100
AcDbEntity
  8
P-SANR-FIXT
100
AcDbLine
 10
793.66640744319
 20
1870.749999999903
 30
0.0
 11
789.16640744319
 21
1870.749999999903
 31
0.0
  0
LINE
  5
139
330
87
100
AcDbEntity
  8
P-SANR-FIXT
100
AcDbLine
 10
789.16640744319
 20
1863.250000000029
 30
0.0
 11
793.66640744319
 21
1863.250000000029
 31
0.0
  0
LINE
  5
13A
330
87
100
AcDbEntity
  8
P-SANR-FIXT
100
AcDbLine
 10
823.1664074431883
 20
1817.999999999977
 30
0.0
 11
808.1664074431875
 21
1817.999999999977
 31
0.0
  0
LINE
  5
13B
330
87
100
AcDbEntity
  8
P-SANR-FIXT
100
AcDbLine
 10
801.0269860253854
 20
1880.299999999965
 30
0.0
 11
830.3058288609905
 21
1880.299999999965
 31
0.0
  0
SPLINE
  5
13C
330
87
100
AcDbEntity
  8
P-SANR-FIXT
100
AcDbSpline
210
0.0
220
0.0
230
1.0
 70
     8
 71
     3
 72
    16
 73
    12
 74
     0
 42
0.000000001
 43
0.0000000001
 40
0.0
 40
0.0
 40
0.0
 40
0.0
 40
0.1428571428571428
 40
0.2857142857142857
 40
0.5714285714285714
 40
0.6785714285714287
 40
0.7321428571428572
 40
0.7857142857142857
 40
0.8392857142857142
 40
0.8928571428571427
 40
1.0
 40
1.0
 40
1.0
 40
1.0
 10
801.0269860253854
 20
1873.449999999965
 30
0.0
 10
801.0269860253854
 20
1873.447472047307
 30
0.0
 10
801.0791800924222
 20
1873.334131597657
 30
0.0
 10
801.3686606046629
 20
1872.651578393265
 30
0.0
 10
801.8177888727683
 20
1871.466523936577
 30
0.0
 10
802.1538133348006
 20
1870.173086530172
 30
0.0
 10
802.2894975062369
 20
1869.511487458478
 30
0.0
 10
802.3779462471628
 20
1868.988351528258
 30
0.0
 10
802.4488891994741
 20
1868.448387265744
 30
0.0
 10
802.5127242050061
 20
1867.723407483353
 30
0.0
 10
802.5278433045219
 20
1867.16194436281
 30
0.0
 10
802.522652073941
 20
1866.780578582162
 30
0.0
  0
LINE
  5
13D
330
87
100
AcDbEntity
  8
P-SANR-FIXT
100
AcDbLine
 10
801.6584794822589
 20
1866.780578582162
 30
0.0
 11
831.0864074431874
 21
1866.780578582162
 31
0.0
  0
SPLINE
  5
13E
330
87
100
AcDbEntity
  8
P-SANR-FIXT
100
AcDbSpline
210
0.0
220
0.0
230
1.0
 70
     8
 71
     3
 72
    12
 73
     8
 74
     0
 42
0.000000001
 43
0.0000000001
 40
0.0
 40
0.0
 40
0.0
 40
0.0
 40
0.1428571428571428
 40
0.2857142857142857
 40
0.5714285714285714
 40
0.7857142857142857
 40
1.0
 40
1.0
 40
1.0
 40
1.0
 10
801.6584794822589
 20
1866.780578582162
 30
0.0
 10
801.6494440941075
 20
1866.294564070315
 30
0.0
 10
801.5868927143378
 20
1865.356359503966
 30
0.0
 10
801.2905314441589
 20
1863.576313825086
 30
0.0
 10
800.7932791522403
 20
1861.933481040905
 30
0.0
 10
800.350350784616
 20
1860.792236455944
 30
0.0
 10
800.2464074431886
 20
1860.553120748778
 30
0.0
 10
800.2464074431886
 20
1860.549999999965
 30
0.0
  0
LINE
  5
13F
330
87
100
AcDbEntity
  8
P-SANR-FIXT
100
AcDbLine
 10
800.2464074431886
 20
1856.499999999948
 30
0.0
 11
831.0864074431874
 21
1856.499999999948
 31
0.0
  0
LINE
  5
140
330
87
100
AcDbEntity
  8
P-SANR-FIXT
100
AcDbLine
 10
801.1664074431896
 20
1854.999999999948
 30
0.0
 11
830.1664074431863
 21
1854.999999999948
 31
0.0
  0
LINE
  5
141
330
87
100
AcDbEntity
  8
P-SANR-FIXT
100
AcDbLine
 10
802.2800423085147
 20
1851.999999999948
 30
0.0
 11
829.0527725778613
 21
1851.999999999948
 31
0.0
  0
LINE
  5
142
330
87
100
AcDbEntity
  8
P-SANR-FIXT
100
AcDbLine
 10
800.8664074432006
 20
1849.999999999977
 30
0.0
 11
830.4664074431752
 21
1849.999999999977
 31
0.0
  0
LINE
  5
143
330
87
100
AcDbEntity
  8
P-SANR-FIXT
100
AcDbLine
 10
800.8664074432006
 20
1840.999999999977
 30
0.0
 11
830.4664074431752
 21
1840.999999999977
 31
0.0
  0
LINE
  5
144
330
87
100
AcDbEntity
  8
P-SANR-FIXT
100
AcDbLine
 10
804.1715498397635
 20
1885.49999999998
 30
0.0
 11
804.6287559019074
 21
1885.49999999998
 31
0.0
  0
LINE
  5
145
330
87
100
AcDbEntity
  8
P-SANR-FIXT
100
AcDbLine
 10
815.1983952674422
 20
1885.49999999998
 30
0.0
 11
816.1344196189036
 21
1885.49999999998
 31
0.0
  0
LINE
  5
146
330
87
100
AcDbEntity
  8
P-SANR-FIXT
100
AcDbLine
 10
826.7040589845134
 20
1885.49999999998
 30
0.0
 11
827.1612650466073
 21
1885.49999999998
 31
0.0
  0
LINE
  5
147
330
87
100
AcDbEntity
  8
P-SANR-FIXT
100
AcDbLine
 10
789.1664074431883
 20
1863.250000000028
 30
0.0
 11
789.1664074431883
 21
1870.749999999902
 31
0.0
  0
LINE
  5
148
330
87
100
AcDbEntity
  8
P-SANR-FIXT
100
AcDbLine
 10
793.6664074431884
 20
1873.449999999965
 30
0.0
 11
793.6664074431884
 21
1860.549999999965
 31
0.0
  0
LINE
  5
149
330
87
100
AcDbEntity
  8
P-SANR-FIXT
100
AcDbLine
 10
845.1664074431901
 20
1919.499999999995
 30
0.0
 11
845.1664074431901
 21
1923.999999999995
 31
0.0
  0
LINE
  5
14A
330
87
100
AcDbEntity
  8
P-SANR-FIXT
100
AcDbLine
 10
786.1664074431903
 20
1923.999999999995
 30
0.0
 11
786.1664074431903
 21
1919.499999999995
 31
0.0
  0
LINE
  5
14B
330
87
100
AcDbEntity
  8
P-SANR-FIXT
100
AcDbLine
 10
845.1664074431905
 20
1923.999999999995
 30
0.0
 11
844.6137824334153
 21
1924.552625009771
 31
0.0
  0
LINE
  5
14C
330
87
100
AcDbEntity
  8
P-SANR-FIXT
100
AcDbLine
 10
786.7190324529652
 20
1924.55262500977
 30
0.0
 11
786.1664074431903
 21
1923.999999999995
 31
0.0
  0
LINE
  5
14D
330
87
100
AcDbEntity
  8
P-SANR-FIXT
100
AcDbLine
 10
844.6137824334153
 20
1924.552625009771
 30
0.0
 11
844.6137824334151
 21
1961.614300367775
 31
0.0
  0
LINE
  5
14E
330
87
100
AcDbEntity
  8
P-SANR-FIXT
100
AcDbLine
 10
786.7190324529651
 20
1961.614300367774
 30
0.0
 11
786.7190324529652
 21
1924.55262500977
 31
0.0
  0
LINE
  5
14F
330
87
100
AcDbEntity
  8
P-SANR-FIXT
100
AcDbLine
 10
859.0596444923075
 20
1977.499999999995
 30
0.0
 11
871.6664074431898
 21
1977.499999999995
 31
0.0
  0
LINE
  5
150
330
87
100
AcDbEntity
  8
P-SANR-FIXT
100
AcDbLine
 10
871.6664074431898
 20
2022.499999999996
 30
0.0
 11
855.3352735472486
 21
2022.499999999996
 31
0.0
  0
LINE
  5
151
330
87
100
AcDbEntity
  8
P-SANR-FIXT
100
AcDbLine
 10
871.6664074431898
 20
2030.499999999996
 30
0.0
 11
871.6664074431898
 21
2022.499999999996
 31
0.0
  0
LINE
  5
152
330
87
100
AcDbEntity
  8
P-SANR-FIXT
100
AcDbLine
 10
871.6664074431898
 20
1977.499999999995
 30
0.0
 11
871.6664074431898
 21
1969.499999999996
 31
0.0
  0
LINE
  5
153
330
87
100
AcDbEntity
  8
P-SANR-FIXT
100
AcDbLine
 10
919.6664074431899
 20
1969.499999999996
 30
0.0
 11
919.66640744319
 21
2030.499999999996
 31
0.0
  0
LINE
  5
154
330
87
100
AcDbEntity
  8
P-SANR-FIXT
100
AcDbLine
 10
919.66640744319
 20
2030.499999999996
 30
0.0
 11
919.16640744319
 21
2030.999999999996
 31
0.0
  0
LINE
  5
155
330
87
100
AcDbEntity
  8
P-SANR-FIXT
100
AcDbLine
 10
872.1664074431899
 20
2030.999999999996
 30
0.0
 11
871.6664074431898
 21
2030.499999999996
 31
0.0
  0
LINE
  5
156
330
87
100
AcDbEntity
  8
P-SANR-FIXT
100
AcDbLine
 10
919.16640744319
 20
1968.999999999996
 30
0.0
 11
919.66640744319
 21
1969.499999999996
 31
0.0
  0
LINE
  5
157
330
87
100
AcDbEntity
  8
P-SANR-FIXT
100
AcDbLine
 10
871.6664074431898
 20
1969.499999999996
 30
0.0
 11
872.1664074431899
 21
1968.999999999996
 31
0.0
  0
LWPOLYLINE
  5
158
330
87
100
AcDbEntity
  8
P-SANR-FIXT
100
AcDbPolyline
 90
       32
 70
   128
 43
0.0
 10
786.7190324529651
 20
1961.614300367774
 10
785.1106936715384
 20
1962.802876431503
 10
783.5511717550084
 20
1964.054818158172
 10
782.0429616057617
 20
1965.368122708083
 10
780.5884760383023
 20
1966.740689074115
 10
779.1900419192646
 20
1968.170321442881
 10
777.8498964449225
 20
1969.654732707561
 10
776.5701835621521
 20
1971.191548126791
 10
775.3529505385753
 20
1972.778309123736
 10
774.2001446873673
 20
1974.412477219291
 10
773.1136102519713
 20
1976.091438093108
 10
772.0950854557021
 20
1977.812505765948
 10
771.1461997209601
 20
1979.572926896676
 10
770.2684710625025
 20
1981.369885187019
 10
769.4633036589443
 20
1983.200505887043
 10
768.7319856063713
 20
1985.06186039414
 10
768.0756868576613
 20
1986.950970938167
 10
767.4954573508095
 20
1988.864815345241
 10
766.992225329251
 20
1990.800331872577
 10
766.5667958568699
 20
1992.754424106618
 10
766.2198495300685
 20
1994.723965916641
 10
765.9519413889587
 20
1996.705806455897
 10
765.7635000294151
 20
1998.696775202292
 10
765.6548269174146
 20
2000.693687030551
 10
765.626095906754
 20
2002.693347307732
 10
765.6773529609214
 20
2004.692557003965
 10
765.8085160795643
 20
2006.688117810209
 10
766.0193754296732
 20
2008.676837254872
 10
766.3095936812684
 20
2010.65553381108
 10
766.6787065470573
 20
2012.621041986443
 10
767.1261235251948
 20
2014.570217387166
 10
767.2416448807372
 20
2015.022075834227
  0
LWPOLYLINE
  5
159
330
87
100
AcDbEntity
  8
P-SANR-FIXT
100
AcDbPolyline
 90
       12
 70
   128
 43
0.0
 10
859.0596444923075
 20
1977.499999999995
 10
858.0287652474845
 20
1975.78630379655
 10
856.9301810259286
 20
1974.11520254191
 10
855.7656493280422
 20
1972.489369641601
 10
854.5370331561223
 20
1970.911406081436
 10
853.2462980339525
 20
1969.383836266499
 10
851.8955088623865
 20
1967.909103982628
 10
850.4868266159459
 20
1966.489568486885
 10
849.0225048857219
 20
1965.127500733246
 10
847.5048862741108
 20
1963.825079739558
 10
845.9363986471499
 20
1962.584389101573
 10
844.6137824334151
 20
1961.614300367775
  0
LWPOLYLINE
  5
15A
330
87
100
AcDbEntity
  8
P-SANR-FIXT
100
AcDbPolyline
 90
       34
 70
   128
 43
0.0
 10
767.2416448807372
 20
2015.022075834228
 10
767.3502413672265
 20
2015.407024494345
 10
767.4741448287237
 20
2015.787322535405
 10
767.6131570461221
 20
2016.162361561665
 10
767.7670556295275
 20
2016.531541590689
 10
767.9355943740371
 20
2016.894272013185
 10
768.1185036536123
 20
2017.249972537854
 10
768.3154908524245
 20
2017.598074119735
 10
768.5262408329775
 20
2017.938019870556
 10
768.7504164402594
 20
2018.269265949633
 10
768.9876590411206
 20
2018.591282433902
 10
769.2375890980088
 20
2018.903554165682
 10
769.4998067761483
 20
2019.205581576815
 10
769.7738925831911
 20
2019.496881487872
 10
770.0594080403143
 20
2019.776987881138
 10
770.3558963836932
 20
2020.045452646134
 10
770.662883295226
 20
2020.301846296508
 10
770.9798776613411
 20
2020.545758657112
 10
771.3063723586749
 20
2020.776799520203
 10
771.6418450653599
 20
2020.994599269684
 10
771.9857590966291
 20
2021.198809472417
 10
772.3375642633969
 20
2021.389103435642
 10
772.6966977524443
 20
2021.565176729611
 10
773.0625850267998
 20
2021.726747674614
 10
773.4346407448764
 20
2021.873557791605
 10
773.8122696968928
 20
2022.005372215716
 10
774.1948677570818
 20
2022.121980071985
 10
774.5818228501645
 20
2022.223194812719
 10
774.9725159305373
 20
2022.308854515924
 10
775.3663219726154
 20
2022.378822144347
 10
775.762610970739
 20
2022.432985764709
 10
776.1607489470478
 20
2022.471258726771
 10
776.5600989657117
 20
2022.49357980196
 10
776.9183764305105
 20
2022.499999999995
  0
LWPOLYLINE
  5
15B
330
87
100
AcDbEntity
  8
P-SANR-FIXT
100
AcDbPolyline
 90
        4
 70
   128
 43
0.0
 10
854.2108695352858
 20
2022.499999999996
 10
854.2912011631056
 20
2022.499999999996
 10
854.3837891024431
 20
2022.499999999996
 10
854.4144384558686
 20
2022.499999999996
  0
LWPOLYLINE
  5
15C
330
87
100
AcDbEntity
  8
P-SANR-FIXT
100
AcDbPolyline
 90
        4
 70
   128
 43
0.0
 10
776.9183764305106
 20
2022.499999999995
 10
776.9493707224179
 20
2022.499999999995
 10
777.0423040138845
 20
2022.499999999995
 10
777.1159620472761
 20
2022.499999999995
  0
LWPOLYLINE
  5
15D
330
87
100
AcDbEntity
  8
P-SANR-FIXT
100
AcDbPolyline
 90
       27
 70
   128
 43
0.0
 10
796.0439100071199
 20
2022.499999999995
 10
794.7234788326889
 20
2022.499999999995
 10
793.4365518764479
 20
2022.499999999995
 10
792.1851879469975
 20
2022.499999999995
 10
790.9713889596816
 20
2022.499999999995
 10
789.7970967339493
 20
2022.499999999995
 10
788.6641898868603
 20
2022.499999999995
 10
787.5744808276951
 20
2022.499999999995
 10
786.5297128584902
 20
2022.499999999995
 10
785.5315573851241
 20
2022.499999999995
 10
784.5816112434258
 20
2022.499999999995
 10
783.6813941445775
 20
2022.499999999995
 10
782.8323462439015
 20
2022.499999999995
 10
782.0358258369183
 20
2022.499999999995
 10
781.2931071863634
 20
2022.499999999995
 10
780.6053784836399
 20
2022.499999999995
 10
779.9737399479645
 20
2022.499999999995
 10
779.3992020662517
 20
2022.499999999995
 10
778.8826839765508
 20
2022.499999999995
 10
778.4250119976207
 20
2022.499999999995
 10
778.0269183069963
 20
2022.499999999995
 10
777.6890397696603
 20
2022.499999999995
 10
777.4119169191957
 20
2022.499999999995
 10
777.1959930930464
 20
2022.499999999995
 10
777.0416137232737
 20
2022.499999999995
 10
776.9490257839362
 20
2022.499999999995
 10
776.9183764305106
 20
2022.499999999995
  0
LWPOLYLINE
  5
15E
330
87
100
AcDbEntity
  8
P-SANR-FIXT
100
AcDbPolyline
 90
       27
 70
   128
 43
0.0
 10
854.4144384558686
 20
2022.499999999996
 10
854.3834441639615
 20
2022.499999999996
 10
854.290510872495
 20
2022.499999999996
 10
854.1357872549108
 20
2022.499999999996
 10
853.9195208359913
 20
2022.499999999996
 10
853.6420575958722
 20
2022.499999999996
 10
853.3038414165488
 20
2022.499999999996
 10
852.9054133717592
 20
2022.499999999996
 10
852.4474108613812
 20
2022.499999999996
 10
851.9305665917299
 20
2022.499999999996
 10
851.3557074033823
 20
2022.499999999996
 10
850.7237529484095
 20
2022.499999999996
 10
850.0357142191299
 20
2022.499999999996
 10
849.2926919307366
 20
2022.499999999996
 10
848.4958747603881
 20
2022.499999999996
 10
847.6465374455781
 20
2022.499999999996
 10
846.7460387448282
 20
2022.499999999996
 10
845.7958192639633
 20
2022.499999999996
 10
844.7973991514505
 20
2022.499999999996
 10
843.7523756664845
 20
2022.499999999996
 10
842.6624206237146
 20
2022.499999999996
 10
841.5292777186987
 20
2022.499999999996
 10
840.3547597383596
 20
2022.499999999996
 10
839.1407456609163
 20
2022.499999999996
 10
837.8891776499161
 20
2022.499999999996
 10
836.6020579471902
 20
2022.499999999996
 10
835.2889048792587
 20
2022.499999999996
  0
LINE
  5
15F
330
87
100
AcDbEntity
  8
P-SANR-FIXT
100
AcDbLine
 10
845.1664074431885
 20
1919.499999999995
 30
0.0
 11
786.1664074431887
 21
1919.499999999995
 31
0.0
  0
LINE
  5
160
330
87
100
AcDbEntity
  8
P-SANR-FIXT
100
AcDbLine
 10
845.1664074431885
 20
1923.999999999995
 30
0.0
 11
786.1664074431887
 21
1923.999999999995
 31
0.0
  0
LINE
  5
161
330
87
100
AcDbEntity
  8
P-SANR-FIXT
100
AcDbLine
 10
844.6137824334135
 20
1924.55262500977
 30
0.0
 11
786.7190324529636
 21
1924.55262500977
 31
0.0
  0
LINE
  5
162
330
87
100
AcDbEntity
  8
P-SANR-FIXT
100
AcDbLine
 10
844.6137824334135
 20
1961.614300367774
 30
0.0
 11
786.7190324529635
 21
1961.614300367774
 31
0.0
  0
LINE
  5
163
330
87
100
AcDbEntity
  8
P-SANR-FIXT
100
AcDbLine
 10
796.0439100071184
 20
2022.499999999995
 30
0.0
 11
835.2889048792572
 21
2022.499999999995
 31
0.0
  0
SPLINE
  5
164
330
87
100
AcDbEntity
  8
P-SANR-FIXT
100
AcDbSpline
210
0.0
220
0.0
230
1.0
 70
     8
 71
     3
 72
    73
 73
    69
 74
     0
 42
0.000000001
 43
0.0000000001
 40
0.0
 40
0.0
 40
0.0
 40
0.0
 40
0.0555555555555556
 40
0.0833333333333333
 40
0.1111111111111111
 40
0.1388888888888889
 40
0.1666666666666666
 40
0.1944444444444444
 40
0.2083333333333333
 40
0.2152777777777778
 40
0.2222222222222222
 40
0.2291666666666666
 40
0.2361111111111111
 40
0.25
 40
0.2777777777777778
 40
0.2916666666666667
 40
0.3055555555555556
 40
0.3194444444444444
 40
0.3263888888888888
 40
0.3298611111111111
 40
0.3333333333333333
 40
0.3368055555555556
 40
0.3402777777777778
 40
0.3472222222222222
 40
0.3611111111111111
 40
0.375
 40
0.3888888888888888
 40
0.4166666666666666
 40
0.4305555555555556
 40
0.4375
 40
0.4444444444444445
 40
0.4513888888888889
 40
0.4583333333333333
 40
0.4722222222222223
 40
0.5
 40
0.5277777777777778
 40
0.5416666666666668
 40
0.5486111111111112
 40
0.5555555555555556
 40
0.5625
 40
0.5694444444444445
 40
0.5833333333333334
 40
0.6111111111111112
 40
0.625
 40
0.6388888888888889
 40
0.6527777777777777
 40
0.6597222222222222
 40
0.6631944444444445
 40
0.6666666666666666
 40
0.6701388888888889
 40
0.6736111111111112
 40
0.6805555555555556
 40
0.6944444444444445
 40
0.7083333333333333
 40
0.7222222222222223
 40
0.75
 40
0.7638888888888889
 40
0.7708333333333333
 40
0.7777777777777778
 40
0.7847222222222224
 40
0.7916666666666668
 40
0.8055555555555555
 40
0.8333333333333332
 40
0.861111111111111
 40
0.8888888888888889
 40
0.9166666666666666
 40
0.9444444444444444
 40
1.0
 40
1.0
 40
1.0
 40
1.0
 10
871.666407443188
 20
1977.499999999995
 30
0.0
 10
871.7286686999916
 20
1977.499999999995
 30
0.0
 10
871.9621606317106
 20
1977.721611677235
 30
0.0
 10
872.5596455814137
 20
1978.400111423926
 30
0.0
 10
873.1389159186294
 20
1979.083967136601
 30
0.0
 10
873.8970411291852
 20
1979.923501252376
 30
0.0
 10
874.8252780088728
 20
1980.900220658502
 30
0.0
 10
875.6827069323323
 20
1981.816657318697
 30
0.0
 10
876.3034285278315
 20
1982.5063908073
 30
0.0
 10
876.6608127093947
 20
1982.913474528672
 30
0.0
 10
876.9278392950964
 20
1983.225442887619
 30
0.0
 10
877.1990871834466
 20
1983.542454123588
 30
0.0
 10
877.5733039871514
 20
1983.969934519
 30
0.0
 10
878.2526242881688
 20
1984.732031088512
 30
0.0
 10
879.0720413739714
 20
1985.635873381615
 30
0.0
 10
879.9041461831016
 20
1986.579214337271
 30
0.0
 10
880.5271337533325
 20
1987.308882517967
 30
0.0
 10
881.0392364464227
 20
1987.937592399206
 30
0.0
 10
881.3905283963473
 20
1988.389905397299
 30
0.0
 10
881.5890495338887
 20
1988.651987191241
 30
0.0
 10
881.7358682193054
 20
1988.850621161235
 30
0.0
 10
881.8839659476379
 20
1989.050510270083
 30
0.0
 10
882.087227641059
 20
1989.317594490179
 30
0.0
 10
882.4537970328455
 20
1989.787362771184
 30
0.0
 10
883.0020367029948
 20
1990.465707875939
 30
0.0
 10
883.6732634928329
 20
1991.294503250379
 30
0.0
 10
884.5521283676974
 20
1992.423772516219
 30
0.0
 10
885.3560218371837
 20
1993.596716588772
 30
0.0
 10
885.9038600080507
 20
1994.674722593114
 30
0.0
 10
886.1606443844992
 20
1995.307756855653
 30
0.0
 10
886.3192998774717
 20
1995.790814937886
 30
0.0
 10
886.4515255012603
 20
1996.285601548743
 30
0.0
 10
886.606856917421
 20
1996.96273931538
 30
0.0
 10
886.8145314433609
 20
1998.185081936119
 30
0.0
 10
886.9328720932612
 20
2000.004671929496
 30
0.0
 10
886.8124099617132
 20
2001.82385584006
 30
0.0
 10
886.6038441670546
 20
2003.045507799871
 30
0.0
 10
886.4482563824941
 20
2003.722134166423
 30
0.0
 10
886.3159902444923
 20
2004.216495970335
 30
0.0
 10
886.157450296683
 20
2004.699025083424
 30
0.0
 10
885.9009839970278
 20
2005.331158313587
 30
0.0
 10
885.3540908760802
 20
2006.407204237917
 30
0.0
 10
884.5519007481776
 20
2007.577355821949
 30
0.0
 10
883.6748466420306
 20
2008.703936740789
 30
0.0
 10
883.0049020374467
 20
2009.530916403791
 30
0.0
 10
882.4575602674871
 20
2010.208032789357
 30
0.0
 10
882.0914725808425
 20
2010.677146592465
 30
0.0
 10
881.8884371286788
 20
2010.943921741578
 30
0.0
 10
881.740479716136
 20
2011.143616085726
 30
0.0
 10
881.5937815738946
 20
2011.342082307705
 30
0.0
 10
881.3954106731982
 20
2011.603960082184
 30
0.0
 10
881.0443452137956
 20
2012.05597549785
 30
0.0
 10
880.5324729583599
 20
2012.684413110415
 30
0.0
 10
879.9096301448908
 20
2013.413963501677
 30
0.0
 10
879.0775684512547
 20
2014.357377807574
 30
0.0
 10
878.2580064405715
 20
2015.261570676362
 30
0.0
 10
877.5784625304089
 20
2016.02410593716
 30
0.0
 10
877.2040973450678
 20
2016.451863509005
 30
0.0
 10
876.9327368035895
 20
2016.769086340795
 30
0.0
 10
876.6655716117233
 20
2017.081292909743
 30
0.0
 10
876.3079397096106
 20
2017.488752437381
 30
0.0
 10
875.6866616338919
 20
2018.179245237927
 30
0.0
 10
874.8281929630978
 20
2019.09690414622
 30
0.0
 10
873.8986579243871
 20
2020.074910714193
 30
0.0
 10
873.1396272302569
 20
2020.915250432765
 30
0.0
 10
872.5598997104937
 20
2021.599527214237
 30
0.0
 10
871.9619974776708
 20
2022.278367473085
 30
0.0
 10
871.728522944231
 20
2022.499999999995
 30
0.0
 10
871.6664074431882
 20
2022.499999999995
 30
0.0
  0
SPLINE
  5
165
330
87
100
AcDbEntity
  8
P-SANR-FIXT
100
AcDbSpline
210
0.0
220
0.0
230
1.0
 70
     8
 71
     3
 72
    15
 73
    11
 74
     0
 42
0.000000001
 43
0.0000000001
 40
0.0833333333333333
 40
0.0833333333333333
 40
0.0833333333333333
 40
0.0833333333333333
 40
0.1666666666666666
 40
0.3333333333333333
 40
0.5
 40
0.5833333333333333
 40
0.6666666666666666
 40
0.75
 40
0.8333333333333332
 40
1.0
 40
1.0
 40
1.0
 40
1.0
 10
855.3372069275434
 20
2022.455251393628
 30
0.0
 10
855.6372334440389
 20
2022.425120371484
 30
0.0
 10
856.5152455906083
 20
2022.288186991285
 30
0.0
 10
857.8774064274838
 20
2021.813825316644
 30
0.0
 10
859.0314894192971
 20
2020.98548191621
 30
0.0
 10
859.8052090662992
 20
2020.091443333738
 30
0.0
 10
860.2954901374102
 20
2019.305510895922
 30
0.0
 10
860.6870188904549
 20
2018.401030269714
 30
0.0
 10
861.0607211112911
 20
2017.043922614158
 30
0.0
 10
861.1338925508961
 20
2015.870650524878
 30
0.0
 10
861.1017504219672
 20
2015.022075834227
 30
0.0
  0
SPLINE
  5
166
330
87
100
AcDbEntity
  8
P-SANR-FIXT
100
AcDbSpline
210
0.0
220
0.0
230
1.0
 70
     8
 71
     3
 72
    15
 73
    11
 74
     0
 42
0.000000001
 43
0.0000000001
 40
0.0
 40
0.0
 40
0.0
 40
0.0
 40
0.2
 40
0.3
 40
0.4
 40
0.5
 40
0.6
 40
0.7
 40
0.8
 40
1.0
 40
1.0
 40
1.0
 40
1.0
 10
861.1017504219672
 20
2015.022075834227
 30
0.0
 10
860.9634583814207
 20
2012.453766266118
 30
0.0
 10
860.7188749248946
 20
2007.790288938628
 30
0.0
 10
860.3489992351351
 20
2000.925889920057
 30
0.0
 10
860.0674420353644
 20
1995.730576551418
 30
0.0
 10
859.7955997028975
 20
1990.758335785133
 30
0.0
 10
859.548391838577
 20
1986.271102910902
 30
0.0
 10
859.3396609132275
 20
1982.507945428879
 30
0.0
 10
859.1280223788976
 20
1978.71857005601
 30
0.0
 10
859.0603277565699
 20
1977.499999999995
 30
0.0
 10
859.0596444923059
 20
1977.499999999995
 30
0.0
  0
LINE
  5
167
330
87
100
AcDbEntity
  8
P-SANR-FIXT
100
AcDbLine
 10
872.2558320380322
 20
2030.999999999995
 30
0.0
 11
872.3098376264854
 21
2030.999999999995
 31
0.0
  0
LINE
  5
168
330
87
100
AcDbEntity
  8
P-SANR-FIXT
100
AcDbLine
 10
872.4909288429966
 20
2030.999999999995
 30
0.0
 11
872.6300607747822
 21
2030.999999999995
 31
0.0
  0
LINE
  5
169
330
87
100
AcDbEntity
  8
P-SANR-FIXT
100
AcDbLine
 10
872.8952673476483
 20
2030.999999999995
 30
0.0
 11
873.1093880797132
 21
2030.999999999995
 31
0.0
  0
LINE
  5
16A
330
87
100
AcDbEntity
  8
P-SANR-FIXT
100
AcDbLine
 10
873.4588185244744
 20
2030.999999999995
 30
0.0
 11
873.7437133215967
 21
2030.999999999995
 31
0.0
  0
LINE
  5
16B
330
87
100
AcDbEntity
  8
P-SANR-FIXT
100
AcDbLine
 10
874.3681744478267
 20
2030.999999999995
 30
0.0
 11
874.7090263139801
 21
2030.999999999995
 31
0.0
  0
LINE
  5
16C
330
87
100
AcDbEntity
  8
P-SANR-FIXT
100
AcDbLine
 10
875.3148104542539
 20
2030.999999999995
 30
0.0
 11
875.6139086338773
 21
2030.999999999995
 31
0.0
  0
LINE
  5
16D
330
87
100
AcDbEntity
  8
P-SANR-FIXT
100
AcDbLine
 10
876.6434725107693
 20
2030.999999999995
 30
0.0
 11
877.6643630298922
 21
2030.999999999995
 31
0.0
  0
LINE
  5
16E
330
87
100
AcDbEntity
  8
P-SANR-FIXT
100
AcDbLine
 10
877.7910995581368
 20
2030.999999999995
 30
0.0
 11
880.3988385614809
 21
2030.999999999995
 31
0.0
  0
LINE
  5
16F
330
87
100
AcDbEntity
  8
P-SANR-FIXT
100
AcDbLine
 10
880.5608986155545
 20
2030.999999999995
 30
0.0
 11
881.8446679576451
 21
2030.999999999995
 31
0.0
  0
LINE
  5
170
330
87
100
AcDbEntity
  8
P-SANR-FIXT
100
AcDbLine
 10
882.1873611889385
 20
2030.999999999995
 30
0.0
 11
883.3775774462003
 21
2030.999999999995
 31
0.0
  0
LINE
  5
171
330
87
100
AcDbEntity
  8
P-SANR-FIXT
100
AcDbLine
 10
883.9164074431881
 20
2030.999999999995
 30
0.0
 11
884.9877250845725
 21
2030.999999999995
 31
0.0
  0
LINE
  5
172
330
87
100
AcDbEntity
  8
P-SANR-FIXT
100
AcDbLine
 10
885.7348782922816
 20
2030.999999999995
 30
0.0
 11
886.4028874314627
 21
2030.999999999995
 31
0.0
  0
LINE
  5
173
330
87
100
AcDbEntity
  8
P-SANR-FIXT
100
AcDbLine
 10
886.6647853645124
 20
2030.999999999995
 30
0.0
 11
887.6289340750346
 21
2030.999999999995
 31
0.0
  0
LINE
  5
174
330
87
100
AcDbEntity
  8
P-SANR-FIXT
100
AcDbLine
 10
888.3980081748264
 20
2030.999999999995
 30
0.0
 11
891.585675268015
 21
2030.999999999995
 31
0.0
  0
LINE
  5
175
330
87
100
AcDbEntity
  8
P-SANR-FIXT
100
AcDbLine
 10
891.9882122492191
 20
2030.999999999995
 30
0.0
 11
893.6182474886178
 21
2030.999999999995
 31
0.0
  0
LINE
  5
176
330
87
100
AcDbEntity
  8
P-SANR-FIXT
100
AcDbLine
 10
893.8221747112589
 20
2030.999999999995
 30
0.0
 11
897.5106401751176
 21
2030.999999999995
 31
0.0
  0
LINE
  5
177
330
87
100
AcDbEntity
  8
P-SANR-FIXT
100
AcDbLine
 10
897.7145673977579
 20
2030.999999999995
 30
0.0
 11
899.3446026371573
 21
2030.999999999995
 31
0.0
  0
LINE
  5
178
330
87
100
AcDbEntity
  8
P-SANR-FIXT
100
AcDbLine
 10
899.7471396183607
 20
2030.999999999995
 30
0.0
 11
901.1565310464609
 21
2030.999999999995
 31
0.0
  0
LINE
  5
179
330
87
100
AcDbEntity
  8
P-SANR-FIXT
100
AcDbLine
 10
901.7486550030971
 20
2030.999999999995
 30
0.0
 11
902.9348067115499
 21
2030.999999999995
 31
0.0
  0
LINE
  5
17A
330
87
100
AcDbEntity
  8
P-SANR-FIXT
100
AcDbLine
 10
904.6680295218639
 20
2030.999999999995
 30
0.0
 11
906.0244597301513
 21
2030.999999999995
 31
0.0
  0
LINE
  5
17B
330
87
100
AcDbEntity
  8
P-SANR-FIXT
100
AcDbLine
 10
906.3450898018043
 20
2030.999999999995
 30
0.0
 11
907.416407443188
 21
2030.999999999995
 31
0.0
  0
LINE
  5
17C
330
87
100
AcDbEntity
  8
P-SANR-FIXT
100
AcDbLine
 10
907.9552374401764
 20
2030.999999999995
 30
0.0
 11
909.1454536974376
 21
2030.999999999995
 31
0.0
  0
LINE
  5
17D
330
87
100
AcDbEntity
  8
P-SANR-FIXT
100
AcDbLine
 10
909.4881469287313
 20
2030.999999999995
 30
0.0
 11
910.7719162708217
 21
2030.999999999995
 31
0.0
  0
LINE
  5
17E
330
87
100
AcDbEntity
  8
P-SANR-FIXT
100
AcDbLine
 10
910.9339763248957
 20
2030.999999999995
 30
0.0
 11
913.5417153282398
 21
2030.999999999995
 31
0.0
  0
LINE
  5
17F
330
87
100
AcDbEntity
  8
P-SANR-FIXT
100
AcDbLine
 10
913.6684518564839
 20
2030.999999999995
 30
0.0
 11
914.689342375607
 21
2030.999999999995
 31
0.0
  0
LINE
  5
180
330
87
100
AcDbEntity
  8
P-SANR-FIXT
100
AcDbLine
 10
915.718906252499
 20
2030.999999999995
 30
0.0
 11
916.0180044321222
 21
2030.999999999995
 31
0.0
  0
LINE
  5
181
330
87
100
AcDbEntity
  8
P-SANR-FIXT
100
AcDbLine
 10
916.6237885723964
 20
2030.999999999995
 30
0.0
 11
916.9646404385492
 21
2030.999999999995
 31
0.0
  0
LINE
  5
182
330
87
100
AcDbEntity
  8
P-SANR-FIXT
100
AcDbLine
 10
917.5891015647787
 20
2030.999999999995
 30
0.0
 11
917.785261260821
 21
2030.999999999995
 31
0.0
  0
LINE
  5
183
330
87
100
AcDbEntity
  8
P-SANR-FIXT
100
AcDbLine
 10
918.2234268066636
 20
2030.999999999995
 30
0.0
 11
918.4375475387279
 21
2030.999999999995
 31
0.0
  0
LINE
  5
184
330
87
100
AcDbEntity
  8
P-SANR-FIXT
100
AcDbLine
 10
918.7027541115952
 20
2030.999999999995
 30
0.0
 11
918.8418860433793
 21
2030.999999999995
 31
0.0
  0
LINE
  5
185
330
87
100
AcDbEntity
  8
P-SANR-FIXT
100
AcDbLine
 10
919.0229772598909
 20
2030.999999999995
 30
0.0
 11
919.0769828483441
 21
2030.999999999995
 31
0.0
  0
LINE
  5
186
330
87
100
AcDbEntity
  8
P-SANR-FIXT
100
AcDbLine
 10
871.666407443188
 20
1969.499999999995
 30
0.0
 11
919.6664074431879
 21
1969.499999999995
 31
0.0
  0
LINE
  5
187
330
87
100
AcDbEntity
  8
P-SANR-FIXT
100
AcDbLine
 10
919.6664074431881
 20
2030.499999999995
 30
0.0
 11
871.6664074431882
 21
2030.499999999995
 31
0.0
  0
LINE
  5
188
330
87
100
AcDbEntity
  8
P-SANR-FIXT
100
AcDbLine
 10
919.0769828483441
 20
1968.999999999995
 30
0.0
 11
919.0229772598909
 21
1968.999999999995
 31
0.0
  0
LINE
  5
189
330
87
100
AcDbEntity
  8
P-SANR-FIXT
100
AcDbLine
 10
918.8418860433793
 20
1968.999999999995
 30
0.0
 11
918.7027541115959
 21
1968.999999999995
 31
0.0
  0
LINE
  5
18A
330
87
100
AcDbEntity
  8
P-SANR-FIXT
100
AcDbLine
 10
918.4375475387275
 20
1968.999999999995
 30
0.0
 11
918.2234268066642
 21
1968.999999999995
 31
0.0
  0
LINE
  5
18B
330
87
100
AcDbEntity
  8
P-SANR-FIXT
100
AcDbLine
 10
917.785261260821
 20
1968.999999999995
 30
0.0
 11
917.5891015647795
 21
1968.999999999995
 31
0.0
  0
LINE
  5
18C
330
87
100
AcDbEntity
  8
P-SANR-FIXT
100
AcDbLine
 10
916.9646404385495
 20
1968.999999999995
 30
0.0
 11
916.6237885723964
 21
1968.999999999995
 31
0.0
  0
LINE
  5
18D
330
87
100
AcDbEntity
  8
P-SANR-FIXT
100
AcDbLine
 10
916.0180044321226
 20
1968.999999999995
 30
0.0
 11
915.718906252499
 21
1968.999999999995
 31
0.0
  0
LINE
  5
18E
330
87
100
AcDbEntity
  8
P-SANR-FIXT
100
AcDbLine
 10
914.6893423756072
 20
1968.999999999995
 30
0.0
 11
913.6684518564843
 21
1968.999999999995
 31
0.0
  0
LINE
  5
18F
330
87
100
AcDbEntity
  8
P-SANR-FIXT
100
AcDbLine
 10
913.54171532824
 20
1968.999999999995
 30
0.0
 11
910.9339763248955
 21
1968.999999999995
 31
0.0
  0
LINE
  5
190
330
87
100
AcDbEntity
  8
P-SANR-FIXT
100
AcDbLine
 10
910.7719162708219
 20
1968.999999999995
 30
0.0
 11
909.4881469287313
 21
1968.999999999995
 31
0.0
  0
LINE
  5
191
330
87
100
AcDbEntity
  8
P-SANR-FIXT
100
AcDbLine
 10
909.145453697438
 20
1968.999999999995
 30
0.0
 11
907.9552374401766
 21
1968.999999999995
 31
0.0
  0
LINE
  5
192
330
87
100
AcDbEntity
  8
P-SANR-FIXT
100
AcDbLine
 10
907.4164074431882
 20
1968.999999999995
 30
0.0
 11
906.3450898018043
 21
1968.999999999995
 31
0.0
  0
LINE
  5
193
330
87
100
AcDbEntity
  8
P-SANR-FIXT
100
AcDbLine
 10
906.0244597301513
 20
1968.999999999995
 30
0.0
 11
904.6680295218639
 21
1968.999999999995
 31
0.0
  0
LINE
  5
194
330
87
100
AcDbEntity
  8
P-SANR-FIXT
100
AcDbLine
 10
902.9348067115499
 20
1968.999999999995
 30
0.0
 11
901.7486550030975
 21
1968.999999999995
 31
0.0
  0
LINE
  5
195
330
87
100
AcDbEntity
  8
P-SANR-FIXT
100
AcDbLine
 10
901.1565310464609
 20
1968.999999999995
 30
0.0
 11
899.7471396183611
 21
1968.999999999995
 31
0.0
  0
LINE
  5
196
330
87
100
AcDbEntity
  8
P-SANR-FIXT
100
AcDbLine
 10
899.3446026371573
 20
1968.999999999995
 30
0.0
 11
897.7145673977581
 21
1968.999999999995
 31
0.0
  0
LINE
  5
197
330
87
100
AcDbEntity
  8
P-SANR-FIXT
100
AcDbLine
 10
897.5106401751176
 20
1968.999999999995
 30
0.0
 11
893.8221747112589
 21
1968.999999999995
 31
0.0
  0
LINE
  5
198
330
87
100
AcDbEntity
  8
P-SANR-FIXT
100
AcDbLine
 10
893.6182474886184
 20
1968.999999999995
 30
0.0
 11
891.9882122492191
 21
1968.999999999995
 31
0.0
  0
LINE
  5
199
330
87
100
AcDbEntity
  8
P-SANR-FIXT
100
AcDbLine
 10
891.5856752680154
 20
1968.999999999995
 30
0.0
 11
888.3980081748264
 21
1968.999999999995
 31
0.0
  0
LINE
  5
19A
330
87
100
AcDbEntity
  8
P-SANR-FIXT
100
AcDbLine
 10
886.6647853645124
 20
1968.999999999995
 30
0.0
 11
885.7348782922818
 21
1968.999999999995
 31
0.0
  0
LINE
  5
19B
330
87
100
AcDbEntity
  8
P-SANR-FIXT
100
AcDbLine
 10
884.9877250845725
 20
1968.999999999995
 30
0.0
 11
883.9164074431884
 21
1968.999999999995
 31
0.0
  0
LINE
  5
19C
330
87
100
AcDbEntity
  8
P-SANR-FIXT
100
AcDbLine
 10
883.3775774462003
 20
1968.999999999995
 30
0.0
 11
882.1873611889387
 21
1968.999999999995
 31
0.0
  0
LINE
  5
19D
330
87
100
AcDbEntity
  8
P-SANR-FIXT
100
AcDbLine
 10
881.8446679576455
 20
1968.999999999995
 30
0.0
 11
880.5608986155545
 21
1968.999999999995
 31
0.0
  0
LINE
  5
19E
330
87
100
AcDbEntity
  8
P-SANR-FIXT
100
AcDbLine
 10
880.3988385614809
 20
1968.999999999995
 30
0.0
 11
877.7910995581368
 21
1968.999999999995
 31
0.0
  0
LINE
  5
19F
330
87
100
AcDbEntity
  8
P-SANR-FIXT
100
AcDbLine
 10
877.6643630298924
 20
1968.999999999995
 30
0.0
 11
876.6434725107693
 21
1968.999999999995
 31
0.0
  0
LINE
  5
1A0
330
87
100
AcDbEntity
  8
P-SANR-FIXT
100
AcDbLine
 10
875.6139086338775
 20
1968.999999999995
 30
0.0
 11
875.3148104542541
 21
1968.999999999995
 31
0.0
  0
LINE
  5
1A1
330
87
100
AcDbEntity
  8
P-SANR-FIXT
100
AcDbLine
 10
874.7090263139801
 20
1968.999999999995
 30
0.0
 11
874.3681744478271
 21
1968.999999999995
 31
0.0
  0
LINE
  5
1A2
330
87
100
AcDbEntity
  8
P-SANR-FIXT
100
AcDbLine
 10
873.7437133215962
 20
1968.999999999995
 30
0.0
 11
873.4588185244746
 21
1968.999999999995
 31
0.0
  0
LINE
  5
1A3
330
87
100
AcDbEntity
  8
P-SANR-FIXT
100
AcDbLine
 10
873.1093880797132
 20
1968.999999999995
 30
0.0
 11
872.8952673476483
 21
1968.999999999995
 31
0.0
  0
LINE
  5
1A4
330
87
100
AcDbEntity
  8
P-SANR-FIXT
100
AcDbLine
 10
872.6300607747825
 20
1968.999999999995
 30
0.0
 11
872.4909288429964
 21
1968.999999999995
 31
0.0
  0
LINE
  5
1A5
330
87
100
AcDbEntity
  8
P-SANR-FIXT
100
AcDbLine
 10
872.3098376264859
 20
1968.999999999995
 30
0.0
 11
872.2558320380322
 21
1968.999999999995
 31
0.0
  0
SPLINE
  5
1A6
330
87
100
AcDbEntity
  8
P-SANR-FIXT
100
AcDbSpline
210
0.0
220
0.0
230
1.0
 70
     8
 71
     3
 72
    15
 73
    11
 74
     0
 42
0.000000001
 43
0.0000000001
 40
-1.0
 40
-1.0
 40
-1.0
 40
-1.0
 40
-0.7857142857142857
 40
-0.5714285714285714
 40
-0.4285714285714286
 40
-0.3571428571428571
 40
-0.2857142857142857
 40
-0.2142857142857143
 40
-0.1428571428571428
 40
0.0
 40
0.0
 40
0.0
 40
0.0
 10
849.6138759741461
 20
2015.022075834228
 30
0.0
 10
850.7287540660518
 20
2010.596510226758
 30
0.0
 10
851.7700184719835
 20
2001.553611665749
 30
0.0
 10
849.9923945507465
 20
1989.443813577341
 30
0.0
 10
846.675481671008
 20
1981.068244270459
 30
0.0
 10
843.6553411987384
 20
1975.92530576699
 30
0.0
 10
841.0015342186699
 20
1972.360065142449
 30
0.0
 10
837.9333597079092
 20
1969.116116794571
 30
0.0
 10
833.3545901957213
 20
1965.313125243005
 30
0.0
 10
829.4375691967093
 20
1963.242737694897
 30
0.0
 10
826.591799855486
 20
1962.139063530029
 30
0.0
  0
LINE
  5
1A7
330
87
100
AcDbEntity
  8
P-SANR-FIXT
100
AcDbLine
 10
826.5917998554872
 20
1962.139063530029
 30
0.0
 11
804.7410150308866
 21
1962.139063530029
 31
0.0
  0
SPLINE
  5
1A8
330
87
100
AcDbEntity
  8
P-SANR-FIXT
100
AcDbSpline
210
0.0
220
0.0
230
1.0
 70
     8
 71
     3
 72
    18
 73
    14
 74
     0
 42
0.000000001
 43
0.0000000001
 40
-1.0
 40
-1.0
 40
-1.0
 40
-1.0
 40
-0.8928571428571427
 40
-0.8392857142857142
 40
-0.7857142857142857
 40
-0.7321428571428572
 40
-0.7053571428571429
 40
-0.6785714285714287
 40
-0.5714285714285714
 40
-0.4285714285714286
 40
-0.2857142857142857
 40
-0.1428571428571428
 40
0.0
 40
0.0
 40
0.0
 40
0.0
 10
804.7410150308882
 20
1962.139063530029
 30
0.0
 10
802.6066880249709
 20
1962.96681915368
 30
0.0
 10
799.5964038889447
 20
1964.461308780754
 30
0.0
 10
795.9712483936815
 20
1966.957367885654
 30
0.0
 10
793.4261973612396
 20
1969.143018946868
 30
0.0
 10
791.4765294398181
 20
1971.156304639901
 30
0.0
 10
790.0377215486792
 20
1972.827694854086
 30
0.0
 10
787.9891733605196
 20
1975.452862357314
 30
0.0
 10
784.9342671216955
 20
1980.372909876271
 30
0.0
 10
781.892942295377
 20
1988.050707253765
 30
0.0
 10
780.1638704662389
 20
1996.974978253147
 30
0.0
 10
780.0171267233862
 20
2006.120768659415
 30
0.0
 10
780.9756868509591
 20
2012.071698762581
 30
0.0
 10
781.7189389122295
 20
2015.022075834229
 30
0.0
  0
SPLINE
  5
1A9
330
87
100
AcDbEntity
  8
P-SANR-FIXT
100
AcDbSpline
210
0.0
220
0.0
230
1.0
 70
     8
 71
     3
 72
    26
 73
    22
 74
     0
 42
0.000000001
 43
0.0000000001
 40
-1.0
 40
-1.0
 40
-1.0
 40
-1.0
 40
-0.85
 40
-0.8125
 40
-0.775
 40
-0.7
 40
-0.625
 40
-0.60625
 40
-0.5875
 40
-0.55
 40
-0.475
 40
-0.4375
 40
-0.4
 40
-0.375
 40
-0.35
 40
-0.3
 40
-0.25
 40
-0.2
 40
-0.15
 40
-0.1
 40
0.0
 40
0.0
 40
0.0
 40
0.0
 10
835.2889048792572
 20
2022.499999999996
 30
0.0
 10
836.1619080056128
 20
2022.515086165801
 30
0.0
 10
837.247612770494
 20
2022.477555882313
 30
0.0
 10
838.5415518953987
 20
2022.347195088577
 30
0.0
 10
839.4027354925878
 20
2022.238644891748
 30
0.0
 10
840.4860731588474
 20
2022.07390341988
 30
0.0
 10
841.4465988560452
 20
2021.863294723702
 30
0.0
 10
842.0728360982081
 20
2021.687241359086
 30
0.0
 10
842.4863958128092
 20
2021.559931213215
 30
0.0
 10
843.2135529340971
 20
2021.321784431163
 30
0.0
 10
844.0340854605212
 20
2021.003845217185
 30
0.0
 10
844.8205411077259
 20
2020.626800711453
 30
0.0
 10
845.3203653509362
 20
2020.345314157959
 30
0.0
 10
845.7455773719452
 20
2020.076349247232
 30
0.0
 10
846.2299429490279
 20
2019.750735353175
 30
0.0
 10
846.8180039667441
 20
2019.309099602728
 30
0.0
 10
847.4744929554534
 20
2018.725689916834
 30
0.0
 10
848.0505985134922
 20
2018.090921824747
 30
0.0
 10
848.54263761611
 20
2017.404995521287
 30
0.0
 10
849.1145472032103
 20
2016.419974302198
 30
0.0
 10
849.4409591964235
 20
2015.602374982365
 30
0.0
 10
849.6138759741461
 20
2015.022075834228
 30
0.0
  0
SPLINE
  5
1AA
330
87
100
AcDbEntity
  8
P-SANR-FIXT
100
AcDbSpline
210
0.0
220
0.0
230
1.0
 70
     8
 71
     3
 72
    28
 73
    24
 74
     0
 42
0.000000001
 43
0.0000000001
 40
-1.0
 40
-1.0
 40
-1.0
 40
-1.0
 40
-0.9
 40
-0.85
 40
-0.825
 40
-0.8
 40
-0.75
 40
-0.7000000000000001
 40
-0.6500000000000002
 40
-0.6250000000000001
 40
-0.6000000000000001
 40
-0.5750000000000001
 40
-0.55
 40
-0.5
 40
-0.45
 40
-0.4
 40
-0.375
 40
-0.35
 40
-0.3
 40
-0.25
 40
-0.2
 40
-0.1
 40
0.0
 40
0.0
 40
0.0
 40
0.0
 10
781.7189389122295
 20
2015.022075834229
 30
0.0
 10
781.8918556899522
 20
2015.602374982365
 30
0.0
 10
782.2188077767865
 20
2016.420014805357
 30
0.0
 10
782.7179684470499
 20
2017.281813864688
 30
0.0
 10
783.0374570400238
 20
2017.748053180388
 30
0.0
 10
783.3775059801013
 20
2018.196661996272
 30
0.0
 10
783.8585727107718
 20
2018.725707974376
 30
0.0
 10
784.5147315391487
 20
2019.309096396654
 30
0.0
 10
785.1029143256684
 20
2019.75073045779
 30
0.0
 10
785.5871770915496
 20
2020.076358700139
 30
0.0
 10
785.9519299670115
 20
2020.306854095963
 30
0.0
 10
786.3236533951232
 20
2020.522027362162
 30
0.0
 10
786.8373699329788
 20
2020.788051731206
 30
0.0
 10
787.5031361007704
 20
2021.085125556754
 30
0.0
 10
788.3269940868989
 20
2021.392344017859
 30
0.0
 10
789.0180543662982
 20
2021.616699714336
 30
0.0
 10
789.5725062973654
 20
2021.776369563357
 30
0.0
 10
790.1354506495338
 20
2021.917721218759
 30
0.0
 10
790.8484544253174
 20
2022.066272293583
 30
0.0
 10
791.7130870394353
 20
2022.207198512489
 30
0.0
 10
792.8639095256912
 20
2022.362087877435
 30
0.0
 10
794.3012765786211
 20
2022.490762809798
 30
0.0
 10
795.4619079228812
 20
2022.510057443867
 30
0.0
 10
796.0439100071184
 20
2022.499999999996
 30
0.0
  0
ENDBLK
  5
1AC
330
87
100
AcDbEntity
  8
0
100
AcDbBlockEnd
  0
BLOCK
  5
22F
330
1AE
100
AcDbEntity
  8
0
100
AcDbBlockBegin
  2
Automatic flow rate regulator valve_Caleffi_121 DN15 - DN20-V1-Est - Idraulica
 70
     0
 10
0.0
 20
0.0
 30
0.0
  3
Automatic flow rate regulator valve_Caleffi_121 DN15 - DN20-V1-Est - Idraulica
  1

  0
LINE
  5
1AF
330
1AE
100
AcDbEntity
  8
P-SANR-FIXT
100
AcDbLine
 10
885.3543627021583
 20
1456.416084706235
 30
0.0
 11
878.2656392629695
 21
1444.138055548756
 31
0.0
  0
ARC
  5
1B0
330
1AE
100
AcDbEntity
  8
P-SANR-FIXT
100
AcDbCircle
 10
895.6664074431875
 20
1442.277070127453
 30
0.0
 40
17.49999999999968
100
AcDbArc
 50
173.895508185481
 51
186.1044918145178
  0
LINE
  5
1B1
330
1AE
100
AcDbEntity
  8
P-SANR-FIXT
100
AcDbLine
 10
878.2656392629693
 20
1440.416084706151
 30
0.0
 11
885.3543627021581
 21
1428.138055548672
 31
0.0
  0
ARC
  5
1B2
330
1AE
100
AcDbEntity
  8
P-SANR-FIXT
100
AcDbCircle
 10
895.6664074431875
 20
1442.277070127453
 30
0.0
 40
17.49999999999968
100
AcDbArc
 50
233.8955081854799
 51
246.1044918145176
  0
LINE
  5
1B3
330
1AE
100
AcDbEntity
  8
P-SANR-FIXT
100
AcDbLine
 10
888.5776840039985
 20
1426.27707012737
 30
0.0
 11
902.7551308823761
 21
1426.277070127369
 31
0.0
  0
ARC
  5
1B4
330
1AE
100
AcDbEntity
  8
P-SANR-FIXT
100
AcDbCircle
 10
895.6664074431875
 20
1442.277070127453
 30
0.0
 40
17.49999999999977
100
AcDbArc
 50
293.8955081854795
 51
306.1044918145176
  0
LINE
  5
1B5
330
1AE
100
AcDbEntity
  8
P-SANR-FIXT
100
AcDbLine
 10
905.9784521842166
 20
1428.138055548672
 30
0.0
 11
913.0671756234056
 21
1440.416084706151
 31
0.0
  0
ARC
  5
1B6
330
1AE
100
AcDbEntity
  8
P-SANR-FIXT
100
AcDbCircle
 10
895.6664074431875
 20
1442.277070127453
 30
0.0
 40
17.4999999999997
100
AcDbArc
 50
353.8955081854807
 51
6.104491814518221
  0
LINE
  5
1B7
330
1AE
100
AcDbEntity
  8
P-SANR-FIXT
100
AcDbLine
 10
913.0671756234056
 20
1444.138055548755
 30
0.0
 11
905.9784521842168
 21
1456.416084706235
 31
0.0
  0
ARC
  5
1B8
330
1AE
100
AcDbEntity
  8
P-SANR-FIXT
100
AcDbCircle
 10
895.6664074431875
 20
1442.277070127453
 30
0.0
 40
17.4999999999997
100
AcDbArc
 50
53.89550818548059
 51
66.10449181451864
  0
LINE
  5
1B9
330
1AE
100
AcDbEntity
  8
P-SANR-FIXT
100
AcDbLine
 10
902.7551308823763
 20
1458.277070127537
 30
0.0
 11
888.5776840039987
 21
1458.277070127537
 31
0.0
  0
ARC
  5
1BA
330
1AE
100
AcDbEntity
  8
P-SANR-FIXT
100
AcDbCircle
 10
895.6664074431875
 20
1442.277070127453
 30
0.0
 40
17.49999999999966
100
AcDbArc
 50
113.8955081854808
 51
126.1044918145184
  0
ARC
  5
1BB
330
1AE
100
AcDbEntity
  8
P-SANR-FIXT
100
AcDbCircle
 10
895.6664074431879
 20
1442.277070127453
 30
0.0
 40
9.55000000000032
100
AcDbArc
 50
359.9999999999992
 51
179.9999999999996
  0
ARC
  5
1BC
330
1AE
100
AcDbEntity
  8
P-SANR-FIXT
100
AcDbCircle
 10
895.6664074431879
 20
1442.277070127453
 30
0.0
 40
9.550000000000125
100
AcDbArc
 50
180.0000000000004
 51
0.0000000000003562
  0
ARC
  5
1BD
330
1AE
100
AcDbEntity
  8
P-SANR-FIXT
100
AcDbCircle
 10
895.6664074431879
 20
1442.277070127453
 30
0.0
 40
23.49999999999741
100
AcDbArc
 50
359.9999999999995
 51
179.9999999999998
  0
ARC
  5
1BE
330
1AE
100
AcDbEntity
  8
P-SANR-FIXT
100
AcDbCircle
 10
895.6664074431879
 20
1442.277070127453
 30
0.0
 40
23.49999999999727
100
AcDbArc
 50
180.0000000000002
 51
0.0
  0
ARC
  5
1BF
330
1AE
100
AcDbEntity
  8
P-SANR-FIXT
100
AcDbCircle
 10
895.6664074431879
 20
1442.277070127453
 30
0.0
 40
19.50000000000002
100
AcDbArc
 50
359.9999999999995
 51
179.9999999999998
  0
ARC
  5
1C0
330
1AE
100
AcDbEntity
  8
P-SANR-FIXT
100
AcDbCircle
 10
895.6664074431879
 20
1442.277070127453
 30
0.0
 40
19.49999999999977
100
AcDbArc
 50
180.0
 51
0.0
  0
ARC
  5
1C1
330
1AE
100
AcDbEntity
  8
P-SANR-FIXT
100
AcDbCircle
 10
895.6664074431879
 20
1442.277070127453
 30
0.0
 40
20.50000000000002
100
AcDbArc
 50
359.9999999999995
 51
179.9999999999998
  0
ARC
  5
1C2
330
1AE
100
AcDbEntity
  8
P-SANR-FIXT
100
AcDbCircle
 10
895.6664074431879
 20
1442.277070127453
 30
0.0
 40
20.49999999999989
100
AcDbArc
 50
180.0
 51
0.0
  0
LINE
  5
1C3
330
1AE
100
AcDbEntity
  8
P-SANR-FIXT
100
AcDbLine
 10
886.8851135810482
 20
1464.777070127454
 30
0.0
 11
860.3532508787004
 21
1464.777070127454
 31
0.0
  0
LINE
  5
1C4
330
1AE
100
AcDbEntity
  8
P-SANR-FIXT
100
AcDbLine
 10
860.3532508787001
 20
1419.777070127453
 30
0.0
 11
886.885113581048
 21
1419.777070127453
 31
0.0
  0
LWPOLYLINE
  5
1C5
330
1AE
100
AcDbEntity
  8
P-SANR-FIXT
100
AcDbPolyline
 90
        9
 70
   128
 43
0.0
 10
860.428896114837
 20
1464.647402688343
 10
859.4985161936669
 20
1466.419530926852
 10
858.4980142488474
 20
1468.153036378198
 10
857.428990870061
 20
1469.845145803456
 10
856.2931562666673
 20
1471.493152188507
 10
855.0923275317336
 20
1473.094419074693
 10
853.8284257350726
 20
1474.64638477658
 10
852.5034728499413
 20
1476.146566480114
 10
851.1859612408503
 20
1477.525807253473
  0
LWPOLYLINE
  5
1C6
330
1AE
100
AcDbEntity
  8
P-SANR-FIXT
100
AcDbPolyline
 90
       21
 70
   128
 43
0.0
 10
780.1468536455275
 20
1477.525807253473
 10
778.7656919714262
 20
1476.077208716463
 10
777.4435635703468
 20
1474.574537168021
 10
776.1825835656921
 20
1473.020196562073
 10
774.984769256475
 20
1471.416673512014
 10
773.8520368900698
 20
1469.766533312657
 10
772.7861985966263
 20
1468.072415836309
 10
771.7889594900474
 20
1466.337031309541
 10
770.8619149401705
 20
1464.5631559774
 10
770.0065480205162
 20
1462.75362766201
 10
769.2242271356879
 20
1460.911341222664
 10
768.5162038322148
 20
1459.039243924665
 10
767.8836107963457
 20
1457.14033072433
 10
767.3274600419919
 20
1455.217639477699
 10
766.8486412917211
 20
1453.274246080617
 10
766.4479205533914
 20
1451.313259547947
 10
766.1259388947016
 20
1449.337817039823
 10
765.8832114176195
 20
1447.351078842851
 10
765.7201264343294
 20
1445.356223314333
 10
765.6369448460154
 20
1443.356441797566
 10
765.6253026296037
 20
1442.277070127454
  0
LWPOLYLINE
  5
1C7
330
1AE
100
AcDbEntity
  8
P-SANR-FIXT
100
AcDbPolyline
 90
       21
 70
   128
 43
0.0
 10
765.6253026296037
 20
1442.277070127454
 10
765.6653301760213
 20
1440.275959663995
 10
765.7853487797391
 20
1438.278050550397
 10
765.985166436593
 20
1436.286539015044
 10
766.2644634809582
 20
1434.304611051558
 10
766.6227930971436
 20
1432.335437321894
 10
767.0595820342031
 20
1430.382168083949
 10
767.5741315230136
 20
1428.447928151831
 10
768.1656183941583
 20
1426.535811896814
 10
768.83309639482
 20
1424.64887829701
 10
769.5754977025856
 20
1422.790146043654
 10
770.391634633733
 20
1420.962588711844
 10
771.2802015432727
 20
1419.169130003452
 10
772.2397769137
 20
1417.412639069827
 10
773.2688256291206
 20
1415.695925921765
 10
774.3657014311087
 20
1414.021736934091
 10
775.5286495523688
 20
1412.392750452043
 10
776.7558095239891
 20
1410.811572506495
 10
778.0452181517953
 20
1409.280732644858
 10
779.3948126570422
 20
1407.80267988435
 10
780.1468536455272
 20
1407.028333001434
  0
LWPOLYLINE
  5
1C8
330
1AE
100
AcDbEntity
  8
P-SANR-FIXT
100
AcDbPolyline
 90
        9
 70
   128
 43
0.0
 10
851.1859612408501
 20
1407.028333001434
 10
852.5671229149518
 20
1408.476931538445
 10
853.8892513160311
 20
1409.979603086886
 10
855.1502313206857
 20
1411.533943692834
 10
856.3480456299028
 20
1413.137466742893
 10
857.480777996308
 20
1414.78760694225
 10
858.5466162897516
 20
1416.481724418598
 10
859.5438553963303
 20
1418.217108945366
 10
860.4288961148368
 20
1419.906737566564
  0
LINE
  5
1C9
330
1AE
100
AcDbEntity
  8
P-SANR-FIXT
100
AcDbLine
 10
780.1497168214678
 20
1407.025263846094
 30
0.0
 11
851.1830980649094
 21
1407.025263846094
 31
0.0
  0
LINE
  5
1CA
330
1AE
100
AcDbEntity
  8
P-SANR-FIXT
100
AcDbLine
 10
851.1830980649097
 20
1477.528876408813
 30
0.0
 11
780.149716821468
 21
1477.528876408813
 31
0.0
  0
LINE
  5
1CB
330
1AE
100
AcDbEntity
  8
P-SANR-FIXT
100
AcDbLine
 10
835.2889048792569
 20
1475.689156289964
 30
0.0
 11
796.0439100071186
 21
1475.689156289964
 31
0.0
  0
LINE
  5
1CC
330
1AE
100
AcDbEntity
  8
P-SANR-FIXT
100
AcDbLine
 10
796.043910007118
 20
1408.864983964944
 30
0.0
 11
835.2889048792571
 21
1408.864983964944
 31
0.0
  0
SPLINE
  5
1CD
330
1AE
100
AcDbEntity
  8
P-SANR-FIXT
100
AcDbSpline
210
0.0
220
0.0
230
1.0
 70
     8
 71
     3
 72
     8
 73
     4
 74
     0
 42
0.000000001
 43
0.0000000001
 40
0.0185185185185185
 40
0.0185185185185185
 40
0.0185185185185185
 40
0.0185185185185185
 40
0.037037037037037
 40
0.037037037037037
 40
0.037037037037037
 40
0.037037037037037
 10
871.7597750845383
 20
1443.752685768707
 30
0.0
 10
871.8013397043138
 20
1444.240577033678
 30
0.0
 10
871.8533710893042
 20
1444.724171563017
 30
0.0
 10
871.915943317178
 20
1445.20252099617
 30
0.0
  0
SPLINE
  5
1CE
330
1AE
100
AcDbEntity
  8
P-SANR-FIXT
100
AcDbSpline
210
0.0
220
0.0
230
1.0
 70
     8
 71
     3
 72
     8
 73
     4
 74
     0
 42
0.000000001
 43
0.0000000001
 40
0.053101403600551
 40
0.053101403600551
 40
0.053101403600551
 40
0.053101403600551
 40
0.0555555555555556
 40
0.0555555555555556
 40
0.0555555555555556
 40
0.0555555555555556
 10
872.1026277569903
 20
1446.434930552564
 30
0.0
 10
872.1133510623481
 20
1446.497022885962
 30
0.0
 10
872.1242606215859
 20
1446.559008653042
 30
0.0
 10
872.1353566071181
 20
1446.620885646516
 30
0.0
  0
SPLINE
  5
1CF
330
1AE
100
AcDbEntity
  8
P-SANR-FIXT
100
AcDbSpline
210
0.0
220
0.0
230
1.0
 70
     8
 71
     3
 72
     9
 73
     5
 74
     0
 42
0.000000001
 43
0.0000000001
 40
0.0740740740740741
 40
0.0740740740740741
 40
0.0740740740740741
 40
0.0740740740740741
 40
0.0833333333333333
 40
0.0925925925925926
 40
0.0925925925925926
 40
0.0925925925925926
 40
0.0925925925925926
 10
872.4177927213531
 20
1448.002362186864
 30
0.0
 10
872.4699753268854
 20
1448.229286305182
 30
0.0
 10
872.5793516875521
 20
1448.679699948392
 30
0.0
 10
872.6984540367478
 20
1449.122906539695
 30
0.0
 10
872.7607330191522
 20
1449.342603527181
 30
0.0
  0
SPLINE
  5
1D0
330
1AE
100
AcDbEntity
  8
P-SANR-FIXT
100
AcDbSpline
210
0.0
220
0.0
230
1.0
 70
     8
 71
     3
 72
     8
 73
     4
 74
     0
 42
0.000000001
 43
0.0000000001
 40
0.1089308040008695
 40
0.1089308040008695
 40
0.1089308040008695
 40
0.1089308040008695
 40
0.1111111111111111
 40
0.1111111111111111
 40
0.1111111111111111
 40
0.1111111111111111
 10
873.1175192805556
 20
1450.487206663432
 30
0.0
 10
873.1346683538895
 20
1450.537278623628
 30
0.0
 10
873.1519976683351
 20
1450.587234655012
 30
0.0
 10
873.169511092651
 20
1450.637073392596
 30
0.0
  0
SPLINE
  5
1D1
330
1AE
100
AcDbEntity
  8
P-SANR-FIXT
100
AcDbSpline
210
0.0
220
0.0
230
1.0
 70
     8
 71
     3
 72
     9
 73
     5
 74
     0
 42
0.000000001
 43
0.0000000001
 40
0.1296296296296296
 40
0.1296296296296296
 40
0.1296296296296296
 40
0.1296296296296296
 40
0.1388888888888889
 40
0.1481481481481481
 40
0.1481481481481481
 40
0.1481481481481481
 40
0.1481481481481481
 10
873.6551744703621
 20
1451.881175906362
 30
0.0
 10
873.7426143882528
 20
1452.084150812199
 30
0.0
 10
873.9239178272876
 20
1452.485652752731
 30
0.0
 10
874.1178512177731
 20
1452.878041876922
 30
0.0
 10
874.2175440615058
 20
1453.07194593241
 30
0.0
  0
SPLINE
  5
1D2
330
1AE
100
AcDbEntity
  8
P-SANR-FIXT
100
AcDbSpline
210
0.0
220
0.0
230
1.0
 70
     8
 71
     3
 72
     8
 73
     4
 74
     0
 42
0.000000001
 43
0.0000000001
 40
0.1666666666666666
 40
0.1666666666666666
 40
0.1666666666666666
 40
0.1666666666666666
 40
0.1678310546046822
 40
0.1678310546046822
 40
0.1678310546046822
 40
0.1678310546046822
 10
874.8449641908045
 20
1454.20778576584
 30
0.0
 10
874.8586552791978
 20
1454.231011607628
 30
0.0
 10
874.8723758365812
 20
1454.254200838142
 30
0.0
 10
874.8861251986745
 20
1454.277353432902
 30
0.0
  0
SPLINE
  5
1D3
330
1AE
100
AcDbEntity
  8
P-SANR-FIXT
100
AcDbSpline
210
0.0
220
0.0
230
1.0
 70
     8
 71
     3
 72
     9
 73
     5
 74
     0
 42
0.000000001
 43
0.0000000001
 40
0.1851851851851852
 40
0.1851851851851852
 40
0.1851851851851852
 40
0.1851851851851852
 40
0.1944444444444444
 40
0.2037037037037037
 40
0.2037037037037037
 40
0.2037037037037037
 40
0.2037037037037037
 10
875.5178860587738
 20
1455.288062863297
 30
0.0
 10
875.632875892861
 20
1455.463445997423
 30
0.0
 10
875.8652463754284
 20
1455.809532804154
 30
0.0
 10
876.1010623616845
 20
1456.146211449636
 30
0.0
 10
876.2195158365493
 20
1456.312179088988
 30
0.0
  0
SPLINE
  5
1D4
330
1AE
100
AcDbEntity
  8
P-SANR-FIXT
100
AcDbSpline
210
0.0
220
0.0
230
1.0
 70
     8
 71
     3
 72
    10
 73
     6
 74
     0
 42
0.000000001
 43
0.0000000001
 40
0.2222222222222222
 40
0.2222222222222222
 40
0.2222222222222222
 40
0.2222222222222222
 40
0.2291666666666666
 40
0.2361111111111111
 40
0.2407407407407407
 40
0.2407407407407407
 40
0.2407407407407407
 40
0.2407407407407407
 10
876.9334360285245
 20
1457.279595980702
 30
0.0
 10
877.0231903174153
 20
1457.396847885975
 30
0.0
 10
877.2040973450673
 20
1457.62826142037
 30
0.0
 10
877.4536741352948
 20
1457.927575962545
 30
0.0
 10
877.6128877820726
 20
1458.110219224466
 30
0.0
 10
877.6770501091872
 20
1458.182587251919
 30
0.0
  0
SPLINE
  5
1D5
330
1AE
100
AcDbEntity
  8
P-SANR-FIXT
100
AcDbSpline
210
0.0
220
0.0
230
1.0
 70
     8
 71
     3
 72
     8
 73
     4
 74
     0
 42
0.000000001
 43
0.0000000001
 40
0.2592592592592593
 40
0.2592592592592593
 40
0.2592592592592593
 40
0.2592592592592593
 40
0.2777777777777778
 40
0.2777777777777778
 40
0.2777777777777778
 40
0.2777777777777778
 10
878.467292287384
 20
1459.019128509496
 30
0.0
 10
878.7365472313569
 20
1459.287731904138
 30
0.0
 10
879.0106604706922
 20
1459.546450859942
 30
0.0
 10
879.2866255149094
 20
1459.796341053683
 30
0.0
  0
SPLINE
  5
1D6
330
1AE
100
AcDbEntity
  8
P-SANR-FIXT
100
AcDbSpline
210
0.0
220
0.0
230
1.0
 70
     8
 71
     3
 72
     9
 73
     5
 74
     0
 42
0.000000001
 43
0.0000000001
 40
0.2962962962962963
 40
0.2962962962962963
 40
0.2962962962962963
 40
0.2962962962962963
 40
0.3055555555555556
 40
0.3148148148148148
 40
0.3148148148148148
 40
0.3148148148148148
 40
0.3148148148148148
 10
880.1171319236949
 20
1460.520240808997
 30
0.0
 10
880.2554947429854
 20
1460.636711376396
 30
0.0
 10
880.5316770225314
 20
1460.865578372559
 30
0.0
 10
880.8053123074262
 20
1461.086581373079
 30
0.0
 10
880.9410999090642
 20
1461.195161184837
 30
0.0
  0
SPLINE
  5
1D7
330
1AE
100
AcDbEntity
  8
P-SANR-FIXT
100
AcDbSpline
210
0.0
220
0.0
230
1.0
 70
     8
 71
     3
 72
    11
 73
     7
 74
     0
 42
0.000000001
 43
0.0000000001
 40
0.3333333333333333
 40
0.3333333333333333
 40
0.3333333333333333
 40
0.3333333333333333
 40
0.3368055555555556
 40
0.3402777777777778
 40
0.3472222222222222
 40
0.3518518518518517
 40
0.3518518518518517
 40
0.3518518518518517
 40
0.3518518518518517
 10
881.7406895945191
 20
1461.823793187835
 30
0.0
 10
881.7897988536499
 20
1461.861624484255
 30
0.0
 10
881.8884371286783
 20
1461.936623195788
 30
0.0
 10
882.0914725808419
 20
1462.083357416964
 30
0.0
 10
882.318098291622
 20
1462.237378353081
 30
0.0
 10
882.4969367541319
 20
1462.351746159357
 30
0.0
 10
882.5690343887293
 20
1462.396849139769
 30
0.0
  0
SPLINE
  5
1D8
330
1AE
100
AcDbEntity
  8
P-SANR-FIXT
100
AcDbSpline
210
0.0
220
0.0
230
1.0
 70
     8
 71
     3
 72
     9
 73
     5
 74
     0
 42
0.000000001
 43
0.0000000001
 40
0.3703703703703702
 40
0.3703703703703702
 40
0.3703703703703702
 40
0.3703703703703702
 40
0.375
 40
0.3888888888888888
 40
0.3888888888888888
 40
0.3888888888888888
 40
0.3888888888888888
 10
883.4510126521125
 20
1462.907981828853
 30
0.0
 10
883.5250697650877
 20
1462.948124636016
 30
0.0
 10
883.8210223263883
 20
1463.106290314463
 30
0.0
 10
884.1133736951041
 20
1463.254960919577
 30
0.0
 10
884.3263985567871
 20
1463.36126230083
 30
0.0
  0
SPLINE
  5
1D9
330
1AE
100
AcDbEntity
  8
P-SANR-FIXT
100
AcDbSpline
210
0.0
220
0.0
230
1.0
 70
     8
 71
     3
 72
     9
 73
     5
 74
     0
 42
0.000000001
 43
0.0000000001
 40
0.4074074074074073
 40
0.4074074074074073
 40
0.4074074074074073
 40
0.4074074074074073
 40
0.4166666666666666
 40
0.4259259259259257
 40
0.4259259259259257
 40
0.4259259259259257
 40
0.4259259259259257
 10
885.1351208833115
 20
1463.758493573697
 30
0.0
 10
885.260994377533
 20
1463.819997655202
 30
0.0
 10
885.5021437656118
 20
1463.938265932288
 30
0.0
 10
885.7170458324688
 20
1464.046938171678
 30
0.0
 10
885.8167743738031
 20
1464.098774594362
 30
0.0
  0
SPLINE
  5
1DA
330
1AE
100
AcDbEntity
  8
P-SANR-FIXT
100
AcDbSpline
210
0.0
220
0.0
230
1.0
 70
     8
 71
     3
 72
    10
 73
     6
 74
     0
 42
0.000000001
 43
0.0000000001
 40
0.4629629629629627
 40
0.4629629629629627
 40
0.4629629629629627
 40
0.4629629629629627
 40
0.4722222222222223
 40
0.5
 40
0.5000178383657287
 40
0.5000178383657287
 40
0.5000178383657287
 40
0.5000178383657287
 10
886.6296052503985
 20
1464.593452006797
 30
0.0
 10
886.672051365247
 20
1464.62314387398
 30
0.0
 10
886.8204407704833
 20
1464.728811229291
 30
0.0
 10
886.8847181840457
 20
1464.776944457909
 30
0.0
 10
886.8851120622256
 20
1464.777069834873
 30
0.0
 10
886.8851122953081
 20
1464.777069900518
 30
0.0
  0
SPLINE
  5
1DB
330
1AE
100
AcDbEntity
  8
P-SANR-FIXT
100
AcDbSpline
210
0.0
220
0.0
230
1.0
 70
     8
 71
     3
 72
    10
 73
     6
 74
     0
 42
0.000000001
 43
0.0000000001
 40
0.7290022976702483
 40
0.7290022976702483
 40
0.7290022976702483
 40
0.7290022976702483
 40
0.8
 40
0.9
 40
1.0
 40
1.0
 40
1.0
 40
1.0
 10
860.4288559610377
 20
1464.644131651033
 30
0.0
 10
860.4944885731933
 20
1464.51332855558
 30
0.0
 10
860.6508381590435
 20
1463.960765490794
 30
0.0
 10
860.8842680514905
 20
1462.185987127234
 30
0.0
 10
861.0326044016936
 20
1460.1794396023
 30
0.0
 10
861.1017504219669
 20
1459.027808547911
 30
0.0
  0
SPLINE
  5
1DC
330
1AE
100
AcDbEntity
  8
P-SANR-FIXT
100
AcDbSpline
210
0.0
220
0.0
230
1.0
 70
     8
 71
     3
 72
    15
 73
    11
 74
     0
 42
0.000000001
 43
0.0000000001
 40
0.0
 40
0.0
 40
0.0
 40
0.0
 40
0.1666666666666666
 40
0.25
 40
0.3333333333333333
 40
0.4166666666666666
 40
0.5
 40
0.6666666666666666
 40
0.8333333333333332
 40
1.0
 40
1.0
 40
1.0
 40
1.0
 10
861.1017504219669
 20
1459.027808547911
 30
0.0
 10
861.1338925508958
 20
1458.266806075423
 30
0.0
 10
861.060721111291
 20
1457.040389440803
 30
0.0
 10
860.6870188904547
 20
1455.260978452912
 30
0.0
 10
860.2954901374101
 20
1453.872127731135
 30
0.0
 10
859.8052090662989
 20
1452.448177932747
 30
0.0
 10
859.0314894192967
 20
1450.512199109169
 30
0.0
 10
857.8774064274833
 20
1448.06436388285
 30
0.0
 10
856.2428134232328
 20
1445.125884476452
 30
0.0
 10
855.0451458302761
 20
1443.213786163728
 30
0.0
 10
854.4144503568842
 20
1442.277070127453
 30
0.0
  0
SPLINE
  5
1DD
330
1AE
100
AcDbEntity
  8
P-SANR-FIXT
100
AcDbSpline
210
0.0
220
0.0
230
1.0
 70
     8
 71
     3
 72
    10
 73
     6
 74
     0
 42
0.000000001
 43
0.0000000001
 40
0.4999821616342687
 40
0.4999821616342687
 40
0.4999821616342687
 40
0.4999821616342687
 40
0.5
 40
0.5277777777777778
 40
0.5370370370370371
 40
0.5370370370370371
 40
0.5370370370370371
 40
0.5370370370370371
 10
886.8851122953078
 20
1419.777070354388
 30
0.0
 10
886.8851120622251
 20
1419.777070420033
 30
0.0
 10
886.8847181840438
 20
1419.777195796997
 30
0.0
 10
886.820440744951
 20
1419.825329030819
 30
0.0
 10
886.6720513652474
 20
1419.930996380927
 30
0.0
 10
886.6296052503987
 20
1419.960688248109
 30
0.0
  0
SPLINE
  5
1DE
330
1AE
100
AcDbEntity
  8
P-SANR-FIXT
100
AcDbSpline
210
0.0
220
0.0
230
1.0
 70
     8
 71
     3
 72
     9
 73
     5
 74
     0
 42
0.000000001
 43
0.0000000001
 40
0.574074074074074
 40
0.574074074074074
 40
0.574074074074074
 40
0.574074074074074
 40
0.5833333333333334
 40
0.5925925925925925
 40
0.5925925925925925
 40
0.5925925925925925
 40
0.5925925925925925
 10
885.8167743738029
 20
1420.455365660544
 30
0.0
 10
885.7170458324686
 20
1420.507202083228
 30
0.0
 10
885.5021437656116
 20
1420.615874322618
 30
0.0
 10
885.2609943775329
 20
1420.734142599704
 30
0.0
 10
885.1351208833113
 20
1420.795646681209
 30
0.0
  0
SPLINE
  5
1DF
330
1AE
100
AcDbEntity
  8
P-SANR-FIXT
100
AcDbSpline
210
0.0
220
0.0
230
1.0
 70
     8
 71
     3
 72
     9
 73
     5
 74
     0
 42
0.000000001
 43
0.0000000001
 40
0.6111111111111112
 40
0.6111111111111112
 40
0.6111111111111112
 40
0.6111111111111112
 40
0.625
 40
0.6296296296296294
 40
0.6296296296296294
 40
0.6296296296296294
 40
0.6296296296296294
 10
884.3263985567871
 20
1421.192877954077
 30
0.0
 10
884.1133736951039
 20
1421.299179335329
 30
0.0
 10
883.8210223263883
 20
1421.447849940443
 30
0.0
 10
883.5250697650879
 20
1421.60601561889
 30
0.0
 10
883.4510126521125
 20
1421.646158426054
 30
0.0
  0
SPLINE
  5
1E0
330
1AE
100
AcDbEntity
  8
P-SANR-FIXT
100
AcDbSpline
210
0.0
220
0.0
230
1.0
 70
     8
 71
     3
 72
    11
 73
     7
 74
     0
 42
0.000000001
 43
0.0000000001
 40
0.648148148148148
 40
0.648148148148148
 40
0.648148148148148
 40
0.648148148148148
 40
0.6527777777777777
 40
0.6597222222222222
 40
0.6631944444444445
 40
0.6666666666666666
 40
0.6666666666666666
 40
0.6666666666666666
 40
0.6666666666666666
 10
882.5690343887293
 20
1422.157291115137
 30
0.0
 10
882.4969367541321
 20
1422.202394095549
 30
0.0
 10
882.3180982916223
 20
1422.316761901825
 30
0.0
 10
882.0914725808421
 20
1422.470782837943
 30
0.0
 10
881.8884371286785
 20
1422.617517059119
 30
0.0
 10
881.7897988536499
 20
1422.692515770651
 30
0.0
 10
881.7406895945193
 20
1422.730347067071
 30
0.0
  0
SPLINE
  5
1E1
330
1AE
100
AcDbEntity
  8
P-SANR-FIXT
100
AcDbSpline
210
0.0
220
0.0
230
1.0
 70
     8
 71
     3
 72
     9
 73
     5
 74
     0
 42
0.000000001
 43
0.0000000001
 40
0.685185185185185
 40
0.685185185185185
 40
0.685185185185185
 40
0.685185185185185
 40
0.6944444444444445
 40
0.7037037037037034
 40
0.7037037037037034
 40
0.7037037037037034
 40
0.7037037037037034
 10
880.9410999090644
 20
1423.358979070069
 30
0.0
 10
880.8053123074262
 20
1423.467558881827
 30
0.0
 10
880.5316770223551
 20
1423.688561882166
 30
0.0
 10
880.2554947433382
 20
1423.917428878872
 30
0.0
 10
880.1171319240182
 20
1424.033899446241
 30
0.0
  0
SPLINE
  5
1E2
330
1AE
100
AcDbEntity
  8
P-SANR-FIXT
100
AcDbSpline
210
0.0
220
0.0
230
1.0
 70
     8
 71
     3
 72
     8
 73
     4
 74
     0
 42
0.000000001
 43
0.0000000001
 40
0.7222222222222223
 40
0.7222222222222223
 40
0.7222222222222223
 40
0.7222222222222223
 40
0.7407407407407404
 40
0.7407407407407404
 40
0.7407407407407404
 40
0.7407407407407404
 10
879.2866255149096
 20
1424.757799201224
 30
0.0
 10
879.0106604706922
 20
1425.007689394965
 30
0.0
 10
878.7365472428389
 20
1425.266408361252
 30
0.0
 10
878.467292298866
 20
1425.535011755894
 30
0.0
  0
SPLINE
  5
1E3
330
1AE
100
AcDbEntity
  8
P-SANR-FIXT
100
AcDbSpline
210
0.0
220
0.0
230
1.0
 70
     8
 71
     3
 72
    10
 73
     6
 74
     0
 42
0.000000001
 43
0.0000000001
 40
0.7592592592592589
 40
0.7592592592592589
 40
0.7592592592592589
 40
0.7592592592592589
 40
0.7638888888888889
 40
0.7708333333333333
 40
0.7777777777777778
 40
0.7777777777777778
 40
0.7777777777777778
 40
0.7777777777777778
 10
877.6770501091876
 20
1426.371553002987
 30
0.0
 10
877.6128877820728
 20
1426.44392103044
 30
0.0
 10
877.4536741198948
 20
1426.626564279481
 30
0.0
 10
877.2040974282274
 20
1426.925878904089
 30
0.0
 10
877.0231901418551
 20
1427.157292222097
 30
0.0
 10
876.9334360285245
 20
1427.274544274204
 30
0.0
  0
SPLINE
  5
1E4
330
1AE
100
AcDbEntity
  8
P-SANR-FIXT
100
AcDbSpline
210
0.0
220
0.0
230
1.0
 70
     8
 71
     3
 72
     9
 73
     5
 74
     0
 42
0.000000001
 43
0.0000000001
 40
0.7962962962962959
 40
0.7962962962962959
 40
0.7962962962962959
 40
0.7962962962962959
 40
0.8055555555555555
 40
0.8148148148148143
 40
0.8148148148148143
 40
0.8148148148148143
 40
0.8148148148148143
 10
876.2195158365493
 20
1428.241961165918
 30
0.0
 10
876.1010623616845
 20
1428.40792880527
 30
0.0
 10
875.8652700758249
 20
1428.744623846008
 30
0.0
 10
875.6328284920682
 20
1429.090661466972
 30
0.0
 10
875.5178070574523
 20
1429.266022740756
 30
0.0
  0
SPLINE
  5
1E5
330
1AE
100
AcDbEntity
  8
P-SANR-FIXT
100
AcDbSpline
210
0.0
220
0.0
230
1.0
 70
     8
 71
     3
 72
     8
 73
     4
 74
     0
 42
0.000000001
 43
0.0000000001
 40
0.8321689453953215
 40
0.8321689453953215
 40
0.8321689453953215
 40
0.8321689453953215
 40
0.8333333333333332
 40
0.8333333333333332
 40
0.8333333333333332
 40
0.8333333333333332
 10
874.8861251986744
 20
1430.276786822005
 30
0.0
 10
874.8723758365812
 20
1430.299939416764
 30
0.0
 10
874.8586544603444
 20
1430.323128123021
 30
0.0
 10
874.8449641908047
 20
1430.346354489066
 30
0.0
  0
SPLINE
  5
1E6
330
1AE
100
AcDbEntity
  8
P-SANR-FIXT
100
AcDbSpline
210
0.0
220
0.0
230
1.0
 70
     8
 71
     3
 72
     9
 73
     5
 74
     0
 42
0.000000001
 43
0.0000000001
 40
0.8518518518518513
 40
0.8518518518518513
 40
0.8518518518518513
 40
0.8518518518518513
 40
0.861111111111111
 40
0.8703703703703698
 40
0.8703703703703698
 40
0.8703703703703698
 40
0.8703703703703698
 10
874.2175440615058
 20
1431.482194322496
 30
0.0
 10
874.1178512177731
 20
1431.676098377983
 30
0.0
 10
873.9241610049987
 20
1432.068628805904
 30
0.0
 10
873.7421280328307
 20
1432.469706835249
 30
0.0
 10
873.654363877992
 20
1432.672493336115
 30
0.0
  0
SPLINE
  5
1E7
330
1AE
100
AcDbEntity
  8
P-SANR-FIXT
100
AcDbSpline
210
0.0
220
0.0
230
1.0
 70
     8
 71
     3
 72
     8
 73
     4
 74
     0
 42
0.000000001
 43
0.0000000001
 40
0.8888888888888889
 40
0.8888888888888889
 40
0.8888888888888889
 40
0.8888888888888889
 40
0.8910691959991332
 40
0.8910691959991332
 40
0.8910691959991332
 40
0.8910691959991332
 10
873.1695110926512
 20
1433.91706686231
 30
0.0
 10
873.1519976683353
 20
1433.966905599894
 30
0.0
 10
873.1347208405649
 20
1434.016891139633
 30
0.0
 10
873.1176643813784
 20
1434.067015168114
 30
0.0
  0
SPLINE
  5
1E8
330
1AE
100
AcDbEntity
  8
P-SANR-FIXT
100
AcDbSpline
210
0.0
220
0.0
230
1.0
 70
     8
 71
     3
 72
     9
 73
     5
 74
     0
 42
0.000000001
 43
0.0000000001
 40
0.9074074074074067
 40
0.9074074074074067
 40
0.9074074074074067
 40
0.9074074074074067
 40
0.9166666666666666
 40
0.9259259259259252
 40
0.9259259259259252
 40
0.9259259259259252
 40
0.9259259259259252
 10
872.7607330191522
 20
1435.211536727725
 30
0.0
 10
872.6984540367478
 20
1435.431233715211
 30
0.0
 10
872.5811703841618
 20
1435.875346570407
 30
0.0
 10
872.4663379336659
 20
1436.32304142194
 30
0.0
 10
872.4117303993205
 20
1436.548757188401
 30
0.0
  0
SPLINE
  5
1E9
330
1AE
100
AcDbEntity
  8
P-SANR-FIXT
100
AcDbSpline
210
0.0
220
0.0
230
1.0
 70
     8
 71
     3
 72
     8
 73
     4
 74
     0
 42
0.000000001
 43
0.0000000001
 40
0.9444444444444444
 40
0.9444444444444444
 40
0.9444444444444444
 40
0.9444444444444444
 40
0.9468985963994484
 40
0.9468985963994484
 40
0.9468985963994484
 40
0.9468985963994484
 10
872.1353566071181
 20
1437.93325460839
 30
0.0
 10
872.1242606215859
 20
1437.995131601864
 30
0.0
 10
872.1137035488847
 20
1438.057275436357
 30
0.0
 10
872.1036385036022
 20
1438.119662956821
 30
0.0
  0
SPLINE
  5
1EA
330
1AE
100
AcDbEntity
  8
P-SANR-FIXT
100
AcDbSpline
210
0.0
220
0.0
230
1.0
 70
     8
 71
     3
 72
     8
 73
     4
 74
     0
 42
0.000000001
 43
0.0000000001
 40
0.9629629629629622
 40
0.9629629629629622
 40
0.9629629629629622
 40
0.9629629629629622
 40
0.9814814814814807
 40
0.9814814814814807
 40
0.9814814814814807
 40
0.9814814814814807
 10
871.915943317178
 20
1439.351619258736
 30
0.0
 10
871.8533710893042
 20
1439.829968691889
 30
0.0
 10
871.8117694306943
 20
1440.317385776583
 30
0.0
 10
871.7754196741092
 20
1440.807188319231
 30
0.0
  0
SPLINE
  5
1EB
330
1AE
100
AcDbEntity
  8
P-SANR-FIXT
100
AcDbSpline
210
0.0
220
0.0
230
1.0
 70
     8
 71
     3
 72
    15
 73
    11
 74
     0
 42
0.000000001
 43
0.0000000001
 40
0.0
 40
0.0
 40
0.0
 40
0.0
 40
0.1666666666666666
 40
0.3333333333333333
 40
0.5
 40
0.5833333333333333
 40
0.6666666666666666
 40
0.75
 40
0.8333333333333332
 40
1.0
 40
1.0
 40
1.0
 40
1.0
 10
854.4144503568842
 20
1442.277070127453
 30
0.0
 10
855.0451458302761
 20
1441.340354091179
 30
0.0
 10
856.242813423233
 20
1439.428255778454
 30
0.0
 10
857.8774064274837
 20
1436.489776372056
 30
0.0
 10
859.0314894192969
 20
1434.041941145737
 30
0.0
 10
859.8052090662989
 20
1432.105962322159
 30
0.0
 10
860.2954901374101
 20
1430.682012523771
 30
0.0
 10
860.6870188904547
 20
1429.293161801995
 30
0.0
 10
861.060721111291
 20
1427.513750814102
 30
0.0
 10
861.1338925508958
 20
1426.287334179483
 30
0.0
 10
861.1017504219669
 20
1425.526331706995
 30
0.0
  0
SPLINE
  5
1EC
330
1AE
100
AcDbEntity
  8
P-SANR-FIXT
100
AcDbSpline
210
0.0
220
0.0
230
1.0
 70
     8
 71
     3
 72
     9
 73
     5
 74
     0
 42
0.000000001
 43
0.0000000001
 40
0.0
 40
0.0
 40
0.0
 40
0.0
 40
0.2
 40
0.2709977023297503
 40
0.2709977023297503
 40
0.2709977023297503
 40
0.2709977023297503
 10
861.1017504219669
 20
1425.526331706995
 30
0.0
 10
860.9634583814203
 20
1423.223069598216
 30
0.0
 10
860.7425198655986
 20
1420.919113036977
 30
0.0
 10
860.4947976176433
 20
1420.038212078474
 30
0.0
 10
860.4291170460118
 20
1419.906867738508
 30
0.0
  0
ARC
  5
1ED
330
1AE
100
AcDbEntity
  8
P-SANR-FIXT
100
AcDbCircle
 10
895.6664074431879
 20
1442.277070127453
 30
0.0
 40
23.49999999999988
100
AcDbArc
 50
4.501085829478711
 51
5.000000000000325
  0
ARC
  5
1EE
330
1AE
100
AcDbEntity
  8
P-SANR-FIXT
100
AcDbCircle
 10
895.6664074431879
 20
1442.277070127453
 30
0.0
 40
23.4999999999999
100
AcDbArc
 50
9.004900680459515
 51
10.00000000000057
  0
ARC
  5
1EF
330
1AE
100
AcDbEntity
  8
P-SANR-FIXT
100
AcDbCircle
 10
895.6664074431879
 20
1442.277070127453
 30
0.0
 40
23.49999999999994
100
AcDbArc
 50
13.51042486647067
 51
15.0000000000002
  0
ARC
  5
1F0
330
1AE
100
AcDbEntity
  8
P-SANR-FIXT
100
AcDbCircle
 10
895.6664074431879
 20
1442.277070127453
 30
0.0
 40
23.49999999999987
100
AcDbArc
 50
18.01666386288339
 51
27.02710863729027
  0
ARC
  5
1F1
330
1AE
100
AcDbEntity
  8
P-SANR-FIXT
100
AcDbCircle
 10
895.6664074431879
 20
1442.277070127453
 30
0.0
 40
23.49999999999997
100
AcDbArc
 50
30.00000000000021
 51
31.52892460084285
  0
ARC
  5
1F2
330
1AE
100
AcDbEntity
  8
P-SANR-FIXT
100
AcDbCircle
 10
895.6664074431879
 20
1442.277070127453
 30
0.0
 40
23.50000000000002
100
AcDbArc
 50
35.00000000000058
 51
36.02648281026002
  0
ARC
  5
1F3
330
1AE
100
AcDbEntity
  8
P-SANR-FIXT
100
AcDbCircle
 10
895.6664074431879
 20
1442.277070127453
 30
0.0
 40
23.49999999999996
100
AcDbArc
 50
40.00000000000038
 51
40.5177646484118
  0
ARC
  5
1F4
330
1AE
100
AcDbEntity
  8
P-SANR-FIXT
100
AcDbCircle
 10
895.6664074431879
 20
1442.277070127453
 30
0.0
 40
23.49999999999999
100
AcDbArc
 50
49.4822353515886
 51
50.00000000000063
  0
ARC
  5
1F5
330
1AE
100
AcDbEntity
  8
P-SANR-FIXT
100
AcDbCircle
 10
895.6664074431879
 20
1442.277070127453
 30
0.0
 40
23.49999999999996
100
AcDbArc
 50
53.9735171897402
 51
55.00000000000049
  0
ARC
  5
1F6
330
1AE
100
AcDbEntity
  8
P-SANR-FIXT
100
AcDbCircle
 10
895.6664074431879
 20
1442.277070127453
 30
0.0
 40
23.50000000000005
100
AcDbArc
 50
58.47107539915747
 51
60.00000000000023
  0
ARC
  5
1F7
330
1AE
100
AcDbEntity
  8
P-SANR-FIXT
100
AcDbCircle
 10
895.6664074431879
 20
1442.277070127453
 30
0.0
 40
23.50000000000004
100
AcDbArc
 50
62.9728913627092
 51
71.98333613711693
  0
ARC
  5
1F8
330
1AE
100
AcDbEntity
  8
P-SANR-FIXT
100
AcDbCircle
 10
895.6664074431879
 20
1442.277070127453
 30
0.0
 40
23.50000000000004
100
AcDbArc
 50
75.00000000000013
 51
76.48957513352965
  0
ARC
  5
1F9
330
1AE
100
AcDbEntity
  8
P-SANR-FIXT
100
AcDbCircle
 10
895.6664074431879
 20
1442.277070127453
 30
0.0
 40
23.49999999999998
100
AcDbArc
 50
80.00000000000017
 51
80.99509931954051
  0
ARC
  5
1FA
330
1AE
100
AcDbEntity
  8
P-SANR-FIXT
100
AcDbCircle
 10
895.6664074431879
 20
1442.277070127453
 30
0.0
 40
23.5000000000001
100
AcDbArc
 50
85.00000000000023
 51
85.4989141705213
  0
ARC
  5
1FB
330
1AE
100
AcDbEntity
  8
P-SANR-FIXT
100
AcDbCircle
 10
895.6664074431879
 20
1442.277070127453
 30
0.0
 40
23.5
100
AcDbArc
 50
94.50108582947871
 51
95.00000000000005
  0
ARC
  5
1FC
330
1AE
100
AcDbEntity
  8
P-SANR-FIXT
100
AcDbCircle
 10
895.6664074431879
 20
1442.277070127453
 30
0.0
 40
23.49999999999999
100
AcDbArc
 50
99.0049006804587
 51
100.0000000000001
  0
ARC
  5
1FD
330
1AE
100
AcDbEntity
  8
P-SANR-FIXT
100
AcDbCircle
 10
895.6664074431879
 20
1442.277070127453
 30
0.0
 40
23.50000000000006
100
AcDbArc
 50
103.5104248664701
 51
105.0000000000001
  0
ARC
  5
1FE
330
1AE
100
AcDbEntity
  8
P-SANR-FIXT
100
AcDbCircle
 10
895.6664074431879
 20
1442.277070127453
 30
0.0
 40
23.50000000000004
100
AcDbArc
 50
108.0166638628826
 51
117.0271086372904
  0
ARC
  5
1FF
330
1AE
100
AcDbEntity
  8
P-SANR-FIXT
100
AcDbCircle
 10
895.6664074431879
 20
1442.277070127453
 30
0.0
 40
23.50000000000012
100
AcDbArc
 50
120.0000000000001
 51
121.5289246008426
  0
ARC
  5
200
330
1AE
100
AcDbEntity
  8
P-SANR-FIXT
100
AcDbCircle
 10
895.6664074431879
 20
1442.277070127453
 30
0.0
 40
23.50000000000002
100
AcDbArc
 50
125.0000000000003
 51
126.0264828102598
  0
ARC
  5
201
330
1AE
100
AcDbEntity
  8
P-SANR-FIXT
100
AcDbCircle
 10
895.6664074431879
 20
1442.277070127453
 30
0.0
 40
23.50000000000014
100
AcDbArc
 50
130.0
 51
130.5177646484122
  0
ARC
  5
202
330
1AE
100
AcDbEntity
  8
P-SANR-FIXT
100
AcDbCircle
 10
895.6664074431879
 20
1442.277070127453
 30
0.0
 40
23.50000000000012
100
AcDbArc
 50
139.4822353515877
 51
139.9999999999998
  0
ARC
  5
203
330
1AE
100
AcDbEntity
  8
P-SANR-FIXT
100
AcDbCircle
 10
895.6664074431879
 20
1442.277070127453
 30
0.0
 40
23.5
100
AcDbArc
 50
143.9735171897399
 51
145.0000000000001
  0
ARC
  5
204
330
1AE
100
AcDbEntity
  8
P-SANR-FIXT
100
AcDbCircle
 10
895.6664074431879
 20
1442.277070127453
 30
0.0
 40
23.50000000000016
100
AcDbArc
 50
148.4710753991572
 51
149.9999999999999
  0
ARC
  5
205
330
1AE
100
AcDbEntity
  8
P-SANR-FIXT
100
AcDbCircle
 10
895.6664074431879
 20
1442.277070127453
 30
0.0
 40
23.50000000000009
100
AcDbArc
 50
152.9728913627093
 51
161.9833361371163
  0
ARC
  5
206
330
1AE
100
AcDbEntity
  8
P-SANR-FIXT
100
AcDbCircle
 10
895.6664074431879
 20
1442.277070127453
 30
0.0
 40
23.5000000000001
100
AcDbArc
 50
165.0000000000002
 51
166.4895751335292
  0
ARC
  5
207
330
1AE
100
AcDbEntity
  8
P-SANR-FIXT
100
AcDbCircle
 10
895.6664074431879
 20
1442.277070127453
 30
0.0
 40
23.50000000000002
100
AcDbArc
 50
170.0
 51
170.9950993195405
  0
ARC
  5
208
330
1AE
100
AcDbEntity
  8
P-SANR-FIXT
100
AcDbCircle
 10
895.6664074431879
 20
1442.277070127453
 30
0.0
 40
23.50000000000012
100
AcDbArc
 50
174.9999999999997
 51
175.4989141705213
  0
ARC
  5
209
330
1AE
100
AcDbEntity
  8
P-SANR-FIXT
100
AcDbCircle
 10
895.6664074431879
 20
1442.277070127453
 30
0.0
 40
23.5
100
AcDbArc
 50
184.5010858294789
 51
185.0
  0
ARC
  5
20A
330
1AE
100
AcDbEntity
  8
P-SANR-FIXT
100
AcDbCircle
 10
895.6664074431879
 20
1442.277070127453
 30
0.0
 40
23.50000000000004
100
AcDbArc
 50
189.0049006804592
 51
189.9999999999997
  0
ARC
  5
20B
330
1AE
100
AcDbEntity
  8
P-SANR-FIXT
100
AcDbCircle
 10
895.6664074431879
 20
1442.277070127453
 30
0.0
 40
23.5
100
AcDbArc
 50
193.5104248664709
 51
194.9999999999992
  0
ARC
  5
20C
330
1AE
100
AcDbEntity
  8
P-SANR-FIXT
100
AcDbCircle
 10
895.6664074431879
 20
1442.277070127453
 30
0.0
 40
23.50000000000004
100
AcDbArc
 50
198.0166638628837
 51
207.0271086372908
  0
ARC
  5
20D
330
1AE
100
AcDbEntity
  8
P-SANR-FIXT
100
AcDbCircle
 10
895.6664074431879
 20
1442.277070127453
 30
0.0
 40
23.5
100
AcDbArc
 50
209.9999999999996
 51
211.5289246008427
  0
ARC
  5
20E
330
1AE
100
AcDbEntity
  8
P-SANR-FIXT
100
AcDbCircle
 10
895.6664074431879
 20
1442.277070127453
 30
0.0
 40
23.50000000000008
100
AcDbArc
 50
214.9999999999995
 51
216.0264828102601
  0
ARC
  5
20F
330
1AE
100
AcDbEntity
  8
P-SANR-FIXT
100
AcDbCircle
 10
895.6664074431879
 20
1442.277070127453
 30
0.0
 40
23.49999999999999
100
AcDbArc
 50
219.9999999999994
 51
220.5177646484129
  0
ARC
  5
210
330
1AE
100
AcDbEntity
  8
P-SANR-FIXT
100
AcDbCircle
 10
895.6664074431879
 20
1442.277070127453
 30
0.0
 40
23.49999999999998
100
AcDbArc
 50
229.482235351588
 51
229.9999999999998
  0
ARC
  5
211
330
1AE
100
AcDbEntity
  8
P-SANR-FIXT
100
AcDbCircle
 10
895.6664074431879
 20
1442.277070127453
 30
0.0
 40
23.49999999999996
100
AcDbArc
 50
233.9735171897401
 51
234.9999999999991
  0
ARC
  5
212
330
1AE
100
AcDbEntity
  8
P-SANR-FIXT
100
AcDbCircle
 10
895.6664074431879
 20
1442.277070127453
 30
0.0
 40
23.49999999999999
100
AcDbArc
 50
238.4710753991575
 51
239.9999999999992
  0
ARC
  5
213
330
1AE
100
AcDbEntity
  8
P-SANR-FIXT
100
AcDbCircle
 10
895.6664074431879
 20
1442.277070127453
 30
0.0
 40
23.50000000000009
100
AcDbArc
 50
242.9728913627094
 51
251.9833361371165
  0
ARC
  5
214
330
1AE
100
AcDbEntity
  8
P-SANR-FIXT
100
AcDbCircle
 10
895.6664074431879
 20
1442.277070127453
 30
0.0
 40
23.50000000000001
100
AcDbArc
 50
254.9999999999989
 51
256.4895751335296
  0
ARC
  5
215
330
1AE
100
AcDbEntity
  8
P-SANR-FIXT
100
AcDbCircle
 10
895.6664074431879
 20
1442.277070127453
 30
0.0
 40
23.50000000000006
100
AcDbArc
 50
259.9999999999988
 51
260.9950993195407
  0
ARC
  5
216
330
1AE
100
AcDbEntity
  8
P-SANR-FIXT
100
AcDbCircle
 10
895.6664074431879
 20
1442.277070127453
 30
0.0
 40
23.50000000000001
100
AcDbArc
 50
264.999999999999
 51
265.4989141705209
  0
ARC
  5
217
330
1AE
100
AcDbEntity
  8
P-SANR-FIXT
100
AcDbCircle
 10
895.6664074431879
 20
1442.277070127453
 30
0.0
 40
23.49999999999988
100
AcDbArc
 50
274.5010858294784
 51
274.9999999999992
  0
ARC
  5
218
330
1AE
100
AcDbEntity
  8
P-SANR-FIXT
100
AcDbCircle
 10
895.6664074431879
 20
1442.277070127453
 30
0.0
 40
23.49999999999993
100
AcDbArc
 50
279.0049006804592
 51
279.9999999999989
  0
ARC
  5
219
330
1AE
100
AcDbEntity
  8
P-SANR-FIXT
100
AcDbCircle
 10
895.6664074431879
 20
1442.277070127453
 30
0.0
 40
23.49999999999997
100
AcDbArc
 50
283.5104248664701
 51
284.9999999999986
  0
ARC
  5
21A
330
1AE
100
AcDbEntity
  8
P-SANR-FIXT
100
AcDbCircle
 10
895.6664074431879
 20
1442.277070127453
 30
0.0
 40
23.49999999999983
100
AcDbArc
 50
288.0166638628824
 51
297.027108637291
  0
ARC
  5
21B
330
1AE
100
AcDbEntity
  8
P-SANR-FIXT
100
AcDbCircle
 10
895.6664074431879
 20
1442.277070127453
 30
0.0
 40
23.5
100
AcDbArc
 50
299.9999999999993
 51
301.5289246008423
  0
ARC
  5
21C
330
1AE
100
AcDbEntity
  8
P-SANR-FIXT
100
AcDbCircle
 10
895.6664074431879
 20
1442.277070127453
 30
0.0
 40
23.49999999999992
100
AcDbArc
 50
304.9999999999994
 51
306.0264828102601
  0
ARC
  5
21D
330
1AE
100
AcDbEntity
  8
P-SANR-FIXT
100
AcDbCircle
 10
895.6664074431879
 20
1442.277070127453
 30
0.0
 40
23.49999999999992
100
AcDbArc
 50
309.9999999999993
 51
310.5177646484118
  0
ARC
  5
21E
330
1AE
100
AcDbEntity
  8
P-SANR-FIXT
100
AcDbCircle
 10
895.6664074431879
 20
1442.277070127453
 30
0.0
 40
23.49999999999999
100
AcDbArc
 50
319.4822353515882
 51
319.9999999999989
  0
ARC
  5
21F
330
1AE
100
AcDbEntity
  8
P-SANR-FIXT
100
AcDbCircle
 10
895.6664074431879
 20
1442.277070127453
 30
0.0
 40
23.49999999999989
100
AcDbArc
 50
323.9735171897402
 51
324.999999999999
  0
ARC
  5
220
330
1AE
100
AcDbEntity
  8
P-SANR-FIXT
100
AcDbCircle
 10
895.6664074431879
 20
1442.277070127453
 30
0.0
 40
23.49999999999999
100
AcDbArc
 50
328.4710753991574
 51
329.9999999999993
  0
ARC
  5
221
330
1AE
100
AcDbEntity
  8
P-SANR-FIXT
100
AcDbCircle
 10
895.6664074431879
 20
1442.277070127453
 30
0.0
 40
23.49999999999994
100
AcDbArc
 50
332.9728913627095
 51
341.9833361371169
  0
ARC
  5
222
330
1AE
100
AcDbEntity
  8
P-SANR-FIXT
100
AcDbCircle
 10
895.6664074431879
 20
1442.277070127453
 30
0.0
 40
23.50000000000001
100
AcDbArc
 50
344.9999999999994
 51
346.4895751335295
  0
ARC
  5
223
330
1AE
100
AcDbEntity
  8
P-SANR-FIXT
100
AcDbCircle
 10
895.6664074431879
 20
1442.277070127453
 30
0.0
 40
23.50000000000004
100
AcDbArc
 50
349.9999999999989
 51
350.9950993195406
  0
ARC
  5
224
330
1AE
100
AcDbEntity
  8
P-SANR-FIXT
100
AcDbCircle
 10
895.6664074431879
 20
1442.277070127453
 30
0.0
 40
23.50000000000001
100
AcDbArc
 50
354.9999999999993
 51
355.4989141705215
  0
ARC
  5
225
330
1AE
100
AcDbEntity
  8
P-SANR-FIXT
100
AcDbCircle
 10
895.6664074431879
 20
1442.277070127453
 30
0.0
 40
24.0
100
AcDbArc
 50
0.0
 51
179.9999999999994
  0
ARC
  5
226
330
1AE
100
AcDbEntity
  8
P-SANR-FIXT
100
AcDbCircle
 10
895.6664074431879
 20
1442.277070127453
 30
0.0
 40
23.99999999999989
100
AcDbArc
 50
180.0000000000007
 51
0.0
  0
SPLINE
  5
227
330
1AE
100
AcDbEntity
  8
P-SANR-FIXT
100
AcDbSpline
210
0.0
220
0.0
230
1.0
 70
     8
 71
     3
 72
     8
 73
     4
 74
     0
 42
0.000000001
 43
0.0000000001
 40
-1.0
 40
-1.0
 40
-1.0
 40
-1.0
 40
-0.7993539079397538
 40
-0.7993539079397538
 40
-0.7993539079397538
 40
-0.7993539079397538
 10
781.7189389122296
 20
1476.810054498479
 30
0.0
 10
780.6750245616625
 20
1477.286192384272
 30
0.0
 10
780.1521143325202
 20
1477.532450982196
 30
0.0
 10
780.1496948879621
 20
1477.529128067742
 30
0.0
  0
SPLINE
  5
228
330
1AE
100
AcDbEntity
  8
P-SANR-FIXT
100
AcDbSpline
210
0.0
220
0.0
230
1.0
 70
     8
 71
     3
 72
     9
 73
     5
 74
     0
 42
0.000000001
 43
0.0000000001
 40
-0.2006460920602265
 40
-0.2006460920602265
 40
-0.2006460920602265
 40
-0.2006460920602265
 40
-0.1428571428571428
 40
0.0
 40
0.0
 40
0.0
 40
0.0
 10
851.1831050788297
 20
1477.528174204515
 30
0.0
 10
851.1824669156718
 20
1477.528840095015
 30
0.0
 10
851.0302877380244
 20
1477.460809344511
 30
0.0
 10
850.3571280354165
 20
1477.149057851458
 30
0.0
 10
849.6138759741461
 20
1476.810054498479
 30
0.0
  0
SPLINE
  5
229
330
1AE
100
AcDbEntity
  8
P-SANR-FIXT
100
AcDbSpline
210
0.0
220
0.0
230
1.0
 70
     8
 71
     3
 72
     8
 73
     4
 74
     0
 42
0.000000001
 43
0.0000000001
 40
-1.0
 40
-1.0
 40
-1.0
 40
-1.0
 40
-0.7993539079398026
 40
-0.7993539079398026
 40
-0.7993539079398026
 40
-0.7993539079398026
 10
849.6138759741459
 20
1407.744085756428
 30
0.0
 10
850.657790324713
 20
1407.267947870634
 30
0.0
 10
851.1807005538553
 20
1407.021689272711
 30
0.0
 10
851.1831199984134
 20
1407.025012187165
 30
0.0
  0
SPLINE
  5
22A
330
1AE
100
AcDbEntity
  8
P-SANR-FIXT
100
AcDbSpline
210
0.0
220
0.0
230
1.0
 70
     8
 71
     3
 72
     9
 73
     5
 74
     0
 42
0.000000001
 43
0.0000000001
 40
-0.2006460920602009
 40
-0.2006460920602009
 40
-0.2006460920602009
 40
-0.2006460920602009
 40
-0.1428571428571428
 40
0.0
 40
0.0
 40
0.0
 40
0.0
 10
780.1497098075459
 20
1407.025966050392
 30
0.0
 10
780.1503479707039
 20
1407.025300159892
 30
0.0
 10
780.3025271483511
 20
1407.093330910396
 30
0.0
 10
780.975686850959
 20
1407.405082403449
 30
0.0
 10
781.7189389122291
 20
1407.744085756428
 30
0.0
  0
SPLINE
  5
22B
330
1AE
100
AcDbEntity
  8
P-SANR-FIXT
100
AcDbSpline
210
0.0
220
0.0
230
1.0
 70
     8
 71
     3
 72
    28
 73
    24
 74
     0
 42
0.000000001
 43
0.0000000001
 40
-1.0
 40
-1.0
 40
-1.0
 40
-1.0
 40
-0.9
 40
-0.85
 40
-0.825
 40
-0.8
 40
-0.75
 40
-0.7000000000000001
 40
-0.6500000000000002
 40
-0.6250000000000001
 40
-0.6000000000000001
 40
-0.5750000000000001
 40
-0.55
 40
-0.5
 40
-0.45
 40
-0.4
 40
-0.375
 40
-0.35
 40
-0.3
 40
-0.25
 40
-0.2
 40
-0.1
 40
0.0
 40
0.0
 40
0.0
 40
0.0
 10
849.6138759741461
 20
1476.810054498479
 30
0.0
 10
849.4409591964233
 20
1476.743377137528
 30
0.0
 10
849.1140071095891
 20
1476.642430087659
 30
0.0
 10
848.6148464393256
 20
1476.527125727632
 30
0.0
 10
848.2953578463517
 20
1476.462456420619
 30
0.0
 10
847.9553089062742
 20
1476.39879173953
 30
0.0
 10
847.4742421756037
 20
1476.321208566197
 30
0.0
 10
846.8180833472267
 20
1476.23231322324
 30
0.0
 10
846.229900560707
 20
1476.162698418489
 30
0.0
 10
845.7456377948258
 20
1476.110242305071
 30
0.0
 10
845.3808849193638
 20
1476.072593372896
 30
0.0
 10
845.0091614912521
 20
1476.036992467779
 30
0.0
 10
844.4954449533964
 20
1475.992455725958
 30
0.0
 10
843.8296787856048
 20
1475.941881279355
 30
0.0
 10
843.0058207994763
 20
1475.888622460475
 30
0.0
 10
842.3147605200769
 20
1475.849118025815
 30
0.0
 10
841.7603085890098
 20
1475.820727493765
 30
0.0
 10
841.1973642368412
 20
1475.795441224797
 30
0.0
 10
840.4843604610576
 20
1475.768644255921
 30
0.0
 10
839.6197278469397
 20
1475.743013577823
 30
0.0
 10
838.4689053606841
 20
1475.714655790363
 30
0.0
 10
837.0315383077539
 20
1475.69087727076
 30
0.0
 10
835.8709069634938
 20
1475.687293152139
 30
0.0
 10
835.2889048792569
 20
1475.689156289964
 30
0.0
  0
SPLINE
  5
22C
330
1AE
100
AcDbEntity
  8
P-SANR-FIXT
100
AcDbSpline
210
0.0
220
0.0
230
1.0
 70
     8
 71
     3
 72
    26
 73
    22
 74
     0
 42
0.000000001
 43
0.0000000001
 40
-1.0
 40
-1.0
 40
-1.0
 40
-1.0
 40
-0.85
 40
-0.8125
 40
-0.775
 40
-0.7
 40
-0.625
 40
-0.60625
 40
-0.5875
 40
-0.55
 40
-0.475
 40
-0.4375
 40
-0.4
 40
-0.375
 40
-0.35
 40
-0.3
 40
-0.25
 40
-0.2
 40
-0.15
 40
-0.1
 40
0.0
 40
0.0
 40
0.0
 40
0.0
 10
796.0439100071186
 20
1475.689156289964
 30
0.0
 10
795.1709068807632
 20
1475.686361583226
 30
0.0
 10
794.0852021158819
 20
1475.693350399358
 30
0.0
 10
792.7912629909772
 20
1475.717360883349
 30
0.0
 10
791.9300793937881
 20
1475.737271856806
 30
0.0
 10
790.8467417275286
 20
1475.767306857826
 30
0.0
 10
789.8862160303305
 20
1475.805250913587
 30
0.0
 10
789.2599787881675
 20
1475.836578065405
 30
0.0
 10
788.8464190735666
 20
1475.859118778521
 30
0.0
 10
788.1192619522787
 20
1475.90095714705
 30
0.0
 10
787.2987294258547
 20
1475.955909016002
 30
0.0
 10
786.51227377865
 20
1476.019577569124
 30
0.0
 10
786.0124495354396
 20
1476.066311027887
 30
0.0
 10
785.5872375144305
 20
1476.110243917388
 30
0.0
 10
785.102871937348
 20
1476.162697572607
 30
0.0
 10
784.5148109196315
 20
1476.232312774589
 30
0.0
 10
783.8583219309224
 20
1476.321211286131
 30
0.0
 10
783.2822163728835
 20
1476.414297943112
 30
0.0
 10
782.7901772702658
 20
1476.510643471444
 30
0.0
 10
782.2182676831655
 20
1476.642436210513
 30
0.0
 10
781.8918556899524
 20
1476.743377137528
 30
0.0
 10
781.7189389122297
 20
1476.810054498479
 30
0.0
  0
SPLINE
  5
22D
330
1AE
100
AcDbEntity
  8
P-SANR-FIXT
100
AcDbSpline
210
0.0
220
0.0
230
1.0
 70
     8
 71
     3
 72
    26
 73
    22
 74
     0
 42
0.000000001
 43
0.0000000001
 40
-1.0
 40
-1.0
 40
-1.0
 40
-1.0
 40
-0.85
 40
-0.8125
 40
-0.775
 40
-0.7
 40
-0.625
 40
-0.60625
 40
-0.5875
 40
-0.55
 40
-0.475
 40
-0.4375
 40
-0.4
 40
-0.375
 40
-0.35
 40
-0.3
 40
-0.25
 40
-0.2
 40
-0.15
 40
-0.1
 40
0.0
 40
0.0
 40
0.0
 40
0.0
 10
835.2889048792571
 20
1408.864983964944
 30
0.0
 10
836.1619080056126
 20
1408.86777867168
 30
0.0
 10
837.2476127704937
 20
1408.860789855549
 30
0.0
 10
838.5415518953983
 20
1408.836779371558
 30
0.0
 10
839.4027354925874
 20
1408.816868398101
 30
0.0
 10
840.486073158847
 20
1408.786833397081
 30
0.0
 10
841.4465988560451
 20
1408.748889341321
 30
0.0
 10
842.072836098208
 20
1408.717562189502
 30
0.0
 10
842.486395812809
 20
1408.695021476386
 30
0.0
 10
843.2135529340969
 20
1408.653183107857
 30
0.0
 10
844.0340854605208
 20
1408.598231238905
 30
0.0
 10
844.8205411077255
 20
1408.534562685784
 30
0.0
 10
845.320365350936
 20
1408.487829227021
 30
0.0
 10
845.7455773719448
 20
1408.443896337519
 30
0.0
 10
846.2299429490276
 20
1408.3914426823
 30
0.0
 10
846.8180039667439
 20
1408.321827480318
 30
0.0
 10
847.4744929554532
 20
1408.232928968776
 30
0.0
 10
848.050598513492
 20
1408.139842311794
 30
0.0
 10
848.5426376161097
 20
1408.043496783463
 30
0.0
 10
849.11454720321
 20
1407.911704044394
 30
0.0
 10
849.4409591964233
 20
1407.810763117379
 30
0.0
 10
849.6138759741459
 20
1407.744085756428
 30
0.0
  0
SPLINE
  5
22E
330
1AE
100
AcDbEntity
  8
P-SANR-FIXT
100
AcDbSpline
210
0.0
220
0.0
230
1.0
 70
     8
 71
     3
 72
    28
 73
    24
 74
     0
 42
0.000000001
 43
0.0000000001
 40
-1.0
 40
-1.0
 40
-1.0
 40
-1.0
 40
-0.9
 40
-0.85
 40
-0.825
 40
-0.8
 40
-0.75
 40
-0.7000000000000001
 40
-0.6500000000000002
 40
-0.6250000000000001
 40
-0.6000000000000001
 40
-0.5750000000000001
 40
-0.55
 40
-0.5
 40
-0.45
 40
-0.4
 40
-0.375
 40
-0.35
 40
-0.3
 40
-0.25
 40
-0.2
 40
-0.1
 40
0.0
 40
0.0
 40
0.0
 40
0.0
 10
781.7189389122291
 20
1407.744085756428
 30
0.0
 10
781.8918556899519
 20
1407.810763117379
 30
0.0
 10
782.2188077767862
 20
1407.911710167248
 30
0.0
 10
782.7179684470496
 20
1408.027014527274
 30
0.0
 10
783.0374570400234
 20
1408.091683834288
 30
0.0
 10
783.3775059801009
 20
1408.155348515377
 30
0.0
 10
783.8585727107714
 20
1408.23293168871
 30
0.0
 10
784.5147315391483
 20
1408.321827031666
 30
0.0
 10
785.1029143256681
 20
1408.391441836418
 30
0.0
 10
785.5871770915493
 20
1408.443897949836
 30
0.0
 10
785.9519299670112
 20
1408.481546882011
 30
0.0
 10
786.3236533951229
 20
1408.517147787128
 30
0.0
 10
786.8373699329786
 20
1408.561684528949
 30
0.0
 10
787.50313610077
 20
1408.612258975552
 30
0.0
 10
788.3269940868985
 20
1408.665517794432
 30
0.0
 10
789.0180543662979
 20
1408.705022229092
 30
0.0
 10
789.5725062973651
 20
1408.733412761142
 30
0.0
 10
790.1354506495335
 20
1408.75869903011
 30
0.0
 10
790.8484544253171
 20
1408.785495998986
 30
0.0
 10
791.7130870394351
 20
1408.811126677084
 30
0.0
 10
792.8639095256909
 20
1408.839484464544
 30
0.0
 10
794.3012765786209
 20
1408.863262984147
 30
0.0
 10
795.461907922881
 20
1408.866847102768
 30
0.0
 10
796.043910007118
 20
1408.864983964944
 30
0.0
  0
ENDBLK
  5
230
330
1AE
100
AcDbEntity
  8
0
100
AcDbBlockEnd
  0
BLOCK
  5
316
330
232
100
AcDbEntity
  8
0
100
AcDbBlockBegin
  2
Automatic flow rate regulator valve_Caleffi_121 DN15 - DN20-V2-Est - Idraulica
 70
     0
 10
0.0
 20
0.0
 30
0.0
  3
Automatic flow rate regulator valve_Caleffi_121 DN15 - DN20-V2-Est - Idraulica
  1

  0
LINE
  5
233
330
232
100
AcDbEntity
  8
P-SANR-FIXT
100
AcDbLine
 10
1406.944147966909
 20
2050.982558850126
 30
0.0
 11
1419.222177124388
 21
2050.982558850126
 31
0.0
  0
LINE
  5
234
330
232
100
AcDbEntity
  8
P-SANR-FIXT
100
AcDbLine
 10
1419.222177124388
 20
2050.982558850126
 30
0.0
 11
1422.944147966993
 21
2050.982558850126
 31
0.0
  0
LINE
  5
235
330
232
100
AcDbEntity
  8
P-SANR-FIXT
100
AcDbLine
 10
1422.944147966993
 20
2050.982558850126
 30
0.0
 11
1435.222177124472
 21
2050.982558850126
 31
0.0
  0
LINE
  5
236
330
232
100
AcDbEntity
  8
P-SANR-FIXT
100
AcDbLine
 10
1435.222177124472
 20
2050.982558850126
 30
0.0
 11
1437.083162545774
 21
2050.982558850126
 31
0.0
  0
LINE
  5
237
330
232
100
AcDbEntity
  8
P-SANR-FIXT
100
AcDbLine
 10
1405.083162545607
 20
2050.982558850126
 30
0.0
 11
1406.944147966909
 21
2050.982558850126
 31
0.0
  0
LINE
  5
238
330
232
100
AcDbEntity
  8
P-SANR-FIXT
100
AcDbLine
 10
1406.944147966909
 20
2050.982558850126
 30
0.0
 11
1406.944147966909
 21
2039.982558850097
 31
0.0
  0
LINE
  5
239
330
232
100
AcDbEntity
  8
P-SANR-FIXT
100
AcDbLine
 10
1419.222177124388
 20
2039.982558850097
 30
0.0
 11
1419.222177124388
 21
2050.982558850126
 31
0.0
  0
LINE
  5
23A
330
232
100
AcDbEntity
  8
P-SANR-FIXT
100
AcDbLine
 10
1422.944147966993
 20
2039.982558850097
 30
0.0
 11
1422.944147966993
 21
2050.982558850126
 31
0.0
  0
LINE
  5
23B
330
232
100
AcDbEntity
  8
P-SANR-FIXT
100
AcDbLine
 10
1435.222177124472
 20
2039.982558850097
 30
0.0
 11
1435.222177124472
 21
2050.982558850126
 31
0.0
  0
LINE
  5
23C
330
232
100
AcDbEntity
  8
P-SANR-FIXT
100
AcDbLine
 10
1437.083162545774
 20
2039.982558850097
 30
0.0
 11
1437.083162545774
 21
2050.982558850126
 31
0.0
  0
LINE
  5
23D
330
232
100
AcDbEntity
  8
P-SANR-FIXT
100
AcDbLine
 10
1405.083162545607
 20
2039.982558850097
 30
0.0
 11
1405.083162545607
 21
2050.982558850126
 31
0.0
  0
LINE
  5
23E
330
232
100
AcDbEntity
  8
P-SANR-FIXT
100
AcDbLine
 10
1397.583162545696
 20
2033.250508042545
 30
0.0
 11
1397.583162545696
 21
2030.982558850011
 31
0.0
  0
LINE
  5
23F
330
232
100
AcDbEntity
  8
P-SANR-FIXT
100
AcDbLine
 10
1444.58316254569
 20
2030.982558850011
 30
0.0
 11
1444.58316254569
 21
2033.250508042545
 31
0.0
  0
LINE
  5
240
330
232
100
AcDbEntity
  8
P-SANR-FIXT
100
AcDbLine
 10
1401.583162545693
 20
2039.982558850112
 30
0.0
 11
1400.583162545693
 21
2038.982558850112
 31
0.0
  0
LINE
  5
241
330
232
100
AcDbEntity
  8
P-SANR-FIXT
100
AcDbLine
 10
1441.583162545693
 20
2038.982558850112
 30
0.0
 11
1440.583162545693
 21
2039.982558850112
 31
0.0
  0
LINE
  5
242
330
232
100
AcDbEntity
  8
P-SANR-FIXT
100
AcDbLine
 10
1400.583162545693
 20
2038.982558850112
 30
0.0
 11
1400.583162545693
 21
2034.982558850112
 31
0.0
  0
LINE
  5
243
330
232
100
AcDbEntity
  8
P-SANR-FIXT
100
AcDbLine
 10
1441.583162545693
 20
2034.982558850112
 30
0.0
 11
1441.583162545693
 21
2038.982558850112
 31
0.0
  0
LINE
  5
244
330
232
100
AcDbEntity
  8
P-SANR-FIXT
100
AcDbLine
 10
1400.583162545693
 20
2034.982558850112
 30
0.0
 11
1397.655605202967
 21
2033.292332830221
 31
0.0
  0
LINE
  5
245
330
232
100
AcDbEntity
  8
P-SANR-FIXT
100
AcDbLine
 10
1397.64440800248
 20
2033.285868123506
 30
0.0
 11
1397.583162545696
 21
2033.250508042545
 31
0.0
  0
LINE
  5
246
330
232
100
AcDbEntity
  8
P-SANR-FIXT
100
AcDbLine
 10
1444.58316254569
 20
2033.250508042545
 30
0.0
 11
1444.521917088905
 21
2033.285868123506
 31
0.0
  0
LINE
  5
247
330
232
100
AcDbEntity
  8
P-SANR-FIXT
100
AcDbLine
 10
1444.510719888419
 20
2033.292332830221
 30
0.0
 11
1441.583162545693
 21
2034.982558850112
 31
0.0
  0
LINE
  5
248
330
232
100
AcDbEntity
  8
P-SANR-FIXT
100
AcDbLine
 10
1421.083162545691
 20
2033.250508042544
 30
0.0
 11
1397.583162545693
 21
2033.250508042544
 31
0.0
  0
LINE
  5
249
330
232
100
AcDbEntity
  8
P-SANR-FIXT
100
AcDbLine
 10
1444.583162545688
 20
2033.250508042544
 30
0.0
 11
1421.083162545691
 21
2033.250508042544
 31
0.0
  0
LINE
  5
24A
330
232
100
AcDbEntity
  8
P-SANR-FIXT
100
AcDbLine
 10
1397.583162545693
 20
2030.982558850011
 30
0.0
 11
1397.664381725556
 21
2030.982558850011
 31
0.0
  0
LINE
  5
24B
330
232
100
AcDbEntity
  8
P-SANR-FIXT
100
AcDbLine
 10
1397.726575881608
 20
2030.982558850011
 30
0.0
 11
1397.907738695836
 21
2030.982558850011
 31
0.0
  0
LINE
  5
24C
330
232
100
AcDbEntity
  8
P-SANR-FIXT
100
AcDbLine
 10
1398.046764008897
 20
2030.982558850011
 30
0.0
 11
1398.312122247607
 21
2030.982558850011
 31
0.0
  0
LINE
  5
24D
330
232
100
AcDbEntity
  8
P-SANR-FIXT
100
AcDbLine
 10
1398.526045560293
 20
2030.982558850011
 30
0.0
 11
1398.875712983247
 21
2030.982558850011
 31
0.0
  0
LINE
  5
24E
330
232
100
AcDbEntity
  8
P-SANR-FIXT
100
AcDbLine
 10
1399.160322550075
 20
2030.982558850011
 30
0.0
 11
1399.768561456936
 21
2030.982558850011
 31
0.0
  0
LINE
  5
24F
330
232
100
AcDbEntity
  8
P-SANR-FIXT
100
AcDbLine
 10
1400.095312494019
 20
2030.982558850011
 30
0.0
 11
1400.717233990139
 21
2030.982558850011
 31
0.0
  0
LINE
  5
250
330
232
100
AcDbEntity
  8
P-SANR-FIXT
100
AcDbLine
 10
1401.046118683372
 20
2030.982558850011
 30
0.0
 11
1401.822393144729
 21
2030.982558850011
 31
0.0
  0
LINE
  5
251
330
232
100
AcDbEntity
  8
P-SANR-FIXT
100
AcDbLine
 10
1402.071263177881
 20
2030.982558850011
 30
0.0
 11
1403.075329162757
 21
2030.982558850011
 31
0.0
  0
LINE
  5
252
330
232
100
AcDbEntity
  8
P-SANR-FIXT
100
AcDbLine
 10
1403.213622354092
 20
2030.982558850011
 30
0.0
 11
1405.821133409933
 21
2030.982558850011
 31
0.0
  0
LINE
  5
253
330
232
100
AcDbEntity
  8
P-SANR-FIXT
100
AcDbLine
 10
1405.973275078535
 20
2030.982558850011
 30
0.0
 11
1408.804446274867
 21
2030.982558850011
 31
0.0
  0
LINE
  5
254
330
232
100
AcDbEntity
  8
P-SANR-FIXT
100
AcDbLine
 10
1409.32528997577
 20
2030.982558850011
 30
0.0
 11
1411.1441321606
 21
2030.982558850011
 31
0.0
  0
LINE
  5
255
330
232
100
AcDbEntity
  8
P-SANR-FIXT
100
AcDbLine
 10
1411.859312104654
 20
2030.982558850011
 30
0.0
 11
1413.039509051149
 21
2030.982558850011
 31
0.0
  0
LINE
  5
256
330
232
100
AcDbEntity
  8
P-SANR-FIXT
100
AcDbLine
 10
1413.82126317788
 20
2030.982558850011
 30
0.0
 11
1414.99659472957
 21
2030.982558850011
 31
0.0
  0
LINE
  5
257
330
232
100
AcDbEntity
  8
P-SANR-FIXT
100
AcDbLine
 10
1415.597196495077
 20
2030.982558850011
 30
0.0
 11
1417.000065909259
 21
2030.982558850011
 31
0.0
  0
LINE
  5
258
330
232
100
AcDbEntity
  8
P-SANR-FIXT
100
AcDbLine
 10
1417.406952617245
 20
2030.982558850011
 30
0.0
 11
1419.03423112181
 21
2030.982558850011
 31
0.0
  0
LINE
  5
259
330
232
100
AcDbEntity
  8
P-SANR-FIXT
100
AcDbLine
 10
1419.239373796086
 20
2030.982558850011
 30
0.0
 11
1421.08316254569
 21
2030.982558850011
 31
0.0
  0
LINE
  5
25A
330
232
100
AcDbEntity
  8
P-SANR-FIXT
100
AcDbLine
 10
1421.083162545691
 20
2030.982558850011
 30
0.0
 11
1424.759372474136
 21
2030.982558850011
 31
0.0
  0
LINE
  5
25B
330
232
100
AcDbEntity
  8
P-SANR-FIXT
100
AcDbLine
 10
1425.166259182122
 20
2030.982558850011
 30
0.0
 11
1428.345061913501
 21
2030.982558850011
 31
0.0
  0
LINE
  5
25C
330
232
100
AcDbEntity
  8
P-SANR-FIXT
100
AcDbLine
 10
1429.126816040232
 20
2030.982558850011
 30
0.0
 11
1431.022192930781
 21
2030.982558850011
 31
0.0
  0
LINE
  5
25D
330
232
100
AcDbEntity
  8
P-SANR-FIXT
100
AcDbLine
 10
1431.473547612795
 20
2030.982558850011
 30
0.0
 11
1432.841035115611
 21
2030.982558850011
 31
0.0
  0
LINE
  5
25E
330
232
100
AcDbEntity
  8
P-SANR-FIXT
100
AcDbLine
 10
1433.361878816514
 20
2030.982558850011
 30
0.0
 11
1434.569139914098
 21
2030.982558850011
 31
0.0
  0
LINE
  5
25F
330
232
100
AcDbEntity
  8
P-SANR-FIXT
100
AcDbLine
 10
1434.896115974562
 20
2030.982558850011
 30
0.0
 11
1436.193050012846
 21
2030.982558850011
 31
0.0
  0
LINE
  5
260
330
232
100
AcDbEntity
  8
P-SANR-FIXT
100
AcDbLine
 10
1436.345191681448
 20
2030.982558850011
 30
0.0
 11
1438.952702737289
 21
2030.982558850011
 31
0.0
  0
LINE
  5
261
330
232
100
AcDbEntity
  8
P-SANR-FIXT
100
AcDbLine
 10
1439.090995928624
 20
2030.982558850011
 30
0.0
 11
1440.0950619135
 21
2030.982558850011
 31
0.0
  0
LINE
  5
262
330
232
100
AcDbEntity
  8
P-SANR-FIXT
100
AcDbLine
 10
1440.343931946652
 20
2030.982558850011
 30
0.0
 11
1441.12020640801
 21
2030.982558850011
 31
0.0
  0
LINE
  5
263
330
232
100
AcDbEntity
  8
P-SANR-FIXT
100
AcDbLine
 10
1441.449091101242
 20
2030.982558850011
 30
0.0
 11
1442.021815864115
 21
2030.982558850011
 31
0.0
  0
LINE
  5
264
330
232
100
AcDbEntity
  8
P-SANR-FIXT
100
AcDbLine
 10
1442.397763634446
 20
2030.982558850011
 30
0.0
 11
1443.006002541308
 21
2030.982558850011
 31
0.0
  0
LINE
  5
265
330
232
100
AcDbEntity
  8
P-SANR-FIXT
100
AcDbLine
 10
1443.247710012352
 20
2030.982558850011
 30
0.0
 11
1443.640279531089
 21
2030.982558850011
 31
0.0
  0
LINE
  5
266
330
232
100
AcDbEntity
  8
P-SANR-FIXT
100
AcDbLine
 10
1443.854202843777
 20
2030.982558850011
 30
0.0
 11
1444.119561082485
 21
2030.982558850011
 31
0.0
  0
LINE
  5
267
330
232
100
AcDbEntity
  8
P-SANR-FIXT
100
AcDbLine
 10
1444.258586395546
 20
2030.982558850011
 30
0.0
 11
1444.439749209773
 21
2030.982558850011
 31
0.0
  0
LINE
  5
268
330
232
100
AcDbEntity
  8
P-SANR-FIXT
100
AcDbLine
 10
1444.498938184126
 20
2030.982558850011
 30
0.0
 11
1444.583162545688
 21
2030.982558850011
 31
0.0
  0
LINE
  5
269
330
232
100
AcDbEntity
  8
P-SANR-FIXT
100
AcDbLine
 10
1401.583162545691
 20
2039.982558850111
 30
0.0
 11
1421.083162545691
 21
2039.982558850111
 31
0.0
  0
LINE
  5
26A
330
232
100
AcDbEntity
  8
P-SANR-FIXT
100
AcDbLine
 10
1421.083162545691
 20
2039.982558850111
 30
0.0
 11
1440.583162545691
 21
2039.982558850111
 31
0.0
  0
LINE
  5
26B
330
232
100
AcDbEntity
  8
P-SANR-FIXT
100
AcDbLine
 10
1400.583162545691
 20
2038.982558850111
 30
0.0
 11
1421.083162545691
 21
2038.982558850111
 31
0.0
  0
LINE
  5
26C
330
232
100
AcDbEntity
  8
P-SANR-FIXT
100
AcDbLine
 10
1421.083162545691
 20
2038.982558850111
 30
0.0
 11
1441.583162545691
 21
2038.982558850111
 31
0.0
  0
LINE
  5
26D
330
232
100
AcDbEntity
  8
P-SANR-FIXT
100
AcDbLine
 10
1400.583162545691
 20
2034.982558850111
 30
0.0
 11
1421.083162545691
 21
2034.982558850111
 31
0.0
  0
LINE
  5
26E
330
232
100
AcDbEntity
  8
P-SANR-FIXT
100
AcDbLine
 10
1421.083162545691
 20
2034.982558850111
 30
0.0
 11
1441.583162545691
 21
2034.982558850111
 31
0.0
  0
LINE
  5
26F
330
232
100
AcDbEntity
  8
P-SANR-FIXT
100
AcDbLine
 10
1392.592642315775
 20
1919.482558850011
 30
0.0
 11
1392.592642315775
 21
1917.755430657216
 31
0.0
  0
LINE
  5
270
330
232
100
AcDbEntity
  8
P-SANR-FIXT
100
AcDbLine
 10
1449.57368277561
 20
1917.755430657216
 30
0.0
 11
1449.57368277561
 21
1919.482558850011
 31
0.0
  0
LWPOLYLINE
  5
271
330
232
100
AcDbEntity
  8
P-SANR-FIXT
100
AcDbPolyline
 90
       34
 70
   128
 43
0.0
 10
1393.317004959959
 20
1916.794168961278
 10
1393.278785225245
 20
1916.805960422442
 10
1393.241067594922
 20
1916.819270833438
 10
1393.203912409154
 20
1916.834078900449
 10
1393.167379108312
 20
1916.850360933726
 10
1393.131526137884
 20
1916.86809088549
 10
1393.096410854975
 20
1916.887240391599
 10
1393.062089436546
 20
1916.90777881693
 10
1393.028616789545
 20
1916.929673304382
 10
1392.996046463067
 20
1916.952888827447
 10
1392.964430562686
 20
1916.977388246239
 10
1392.933819667099
 20
1917.003132366915
 10
1392.904262747208
 20
1917.030080004374
 10
1392.875807087781
 20
1917.058188048144
 10
1392.848498211802
 20
1917.087411531352
 10
1392.822379807646
 20
1917.117703702658
 10
1392.79749365919
 20
1917.14901610105
 10
1392.773879578962
 20
1917.181298633371
 10
1392.751575344453
 20
1917.214499654454
 10
1392.730616637679
 20
1917.24856604975
 10
1392.711036988102
 20
1917.283443320292
 10
1392.692867718983
 20
1917.319075669888
 10
1392.676137897277
 20
1917.35540609438
 10
1392.660874287131
 20
1917.392376472838
 10
1392.647101307064
 20
1917.429927660543
 10
1392.634840990905
 20
1917.467999583607
 10
1392.624112952547
 20
1917.506531335073
 10
1392.614934354561
 20
1917.545461272359
 10
1392.607319880747
 20
1917.584727115869
 10
1392.601281712638
 20
1917.62426604863
 10
1392.596829510015
 20
1917.664014816785
 10
1392.593970395452
 20
1917.703909830784
 10
1392.592708942923
 20
1917.743887267115
 10
1392.592642315776
 20
1917.755430657216
  0
LWPOLYLINE
  5
272
330
232
100
AcDbEntity
  8
P-SANR-FIXT
100
AcDbPolyline
 90
       34
 70
   128
 43
0.0
 10
1449.573682775608
 20
1917.755430657216
 10
1449.572882882269
 20
1917.715441323029
 10
1449.570484481911
 20
1917.675515963247
 10
1449.566491411462
 20
1917.635718449927
 10
1449.560910058984
 20
1917.596112450602
 10
1449.55374935345
 20
1917.556761326421
 10
1449.54502075046
 20
1917.517728030789
 10
1449.534738213919
 20
1917.479075008652
 10
1449.522918193691
 20
1917.4408640966
 10
1449.509579599286
 20
1917.403156423941
 10
1449.494743769611
 20
1917.366012314907
 10
1449.478434438828
 20
1917.32949119215
 10
1449.460677698387
 20
1917.293651481674
 10
1449.441501955286
 20
1917.258550519372
 10
1449.420937886621
 20
1917.224244459295
 10
1449.399018390518
 20
1917.190788183821
 10
1449.375778533493
 20
1917.158235215854
 10
1449.351255494359
 20
1917.126637633198
 10
1449.325488504749
 20
1917.096045985245
 10
1449.298518786349
 20
1917.066509212105
 10
1449.270389484956
 20
1917.038074566317
 10
1449.241145601449
 20
1917.010787537245
 10
1449.210833919807
 20
1916.984691778317
 10
1449.179502932251
 20
1916.95982903718
 10
1449.147202761681
 20
1916.936239088915
 10
1449.113985081476
 20
1916.913959672408
 10
1449.079903032841
 20
1916.893026429973
 10
1449.045011139782
 20
1916.873472850331
 10
1449.009365221885
 20
1916.855330215039
 10
1448.973022305015
 20
1916.838627548444
 10
1448.936040530085
 20
1916.823391571249
 10
1448.898479060047
 20
1916.809646657766
 10
1448.86039798524
 20
1916.797414796927
 10
1448.849320131425
 20
1916.794168961278
  0
LINE
  5
273
330
232
100
AcDbEntity
  8
P-SANR-FIXT
100
AcDbLine
 10
1393.317004959959
 20
1916.794168961278
 30
0.0
 11
1394.100769714452
 21
1916.569428034406
 31
0.0
  0
LINE
  5
274
330
232
100
AcDbEntity
  8
P-SANR-FIXT
100
AcDbLine
 10
1448.065555376932
 20
1916.569428034406
 30
0.0
 11
1448.849320131425
 21
1916.794168961278
 31
0.0
  0
LWPOLYLINE
  5
275
330
232
100
AcDbEntity
  8
P-SANR-FIXT
100
AcDbPolyline
 90
       28
 70
   128
 43
0.0
 10
1394.70008526741
 20
1915.952136934255
 10
1394.690873445821
 20
1915.985459968722
 10
1394.680336426745
 20
1916.018387973704
 10
1394.668491067166
 20
1916.050868271416
 10
1394.655356317131
 20
1916.082848900312
 10
1394.640953189439
 20
1916.114278698208
 10
1394.625304726021
 20
1916.145107384131
 10
1394.608435961081
 20
1916.17528563876
 10
1394.590373881044
 20
1916.204765183326
 10
1394.571147381385
 20
1916.233498856846
 10
1394.550787220402
 20
1916.261440691572
 10
1394.52932597001
 20
1916.288545986528
 10
1394.506797963632
 20
1916.314771379026
 10
1394.48323924127
 20
1916.340074914032
 10
1394.458687491856
 20
1916.364416111286
 10
1394.433181992951
 20
1916.387756030067
 10
1394.406763547913
 20
1916.410057331483
 10
1394.379474420619
 20
1916.431284338209
 10
1394.351358267849
 20
1916.451403091564
 10
1394.322460069451
 20
1916.470381405832
 10
1394.292826056379
 20
1916.488188919759
 10
1394.26250363673
 20
1916.504797145124
 10
1394.231541319909
 20
1916.520179512305
 10
1394.199988639017
 20
1916.5343114128
 10
1394.167896071613
 20
1916.547170238582
 10
1394.135314958958
 20
1916.558735418271
 10
1394.102297423882
 20
1916.568988450048
 10
1394.100769714452
 20
1916.569428034406
  0
LWPOLYLINE
  5
276
330
232
100
AcDbEntity
  8
P-SANR-FIXT
100
AcDbPolyline
 90
       28
 70
   128
 43
0.0
 10
1448.065555376932
 20
1916.569428034406
 10
1448.032519041167
 20
1916.559235743092
 10
1447.999916713889
 20
1916.547730503452
 10
1447.967800551869
 20
1916.534930721416
 10
1447.936221934114
 20
1916.520856873905
 10
1447.905231379677
 20
1916.505531476072
 10
1447.874878466833
 20
1916.488979045285
 10
1447.845211753768
 20
1916.471226061901
 10
1447.816278700895
 20
1916.452300926907
 10
1447.788125594926
 20
1916.432233916483
 10
1447.760797474825
 20
1916.411057133563
 10
1447.734338059755
 20
1916.388804456484
 10
1447.708789679134
 20
1916.365511484782
 10
1447.684193204922
 20
1916.341215482242
 10
1447.660587986232
 20
1916.315955317285
 10
1447.638011786376
 20
1916.289771400787
 10
1447.61650072246
 20
1916.262705621429
 10
1447.596089207596
 20
1916.234801278683
 10
1447.576809895854
 20
1916.206103013547
 10
1447.558693630021
 20
1916.176656737121
 10
1447.541769392256
 20
1916.146509557168
 10
1447.526064257731
 20
1916.115709702743
 10
1447.511603351309
 20
1916.084306447043
 10
1447.498409807356
 20
1916.052350028579
 10
1447.48650473273
 20
1916.019891570803
 10
1447.475907173008
 20
1915.986983000323
 10
1447.466634082026
 20
1915.953676963833
 10
1447.466239823974
 20
1915.952136934255
  0
LWPOLYLINE
  5
277
330
232
100
AcDbEntity
  8
P-SANR-FIXT
100
AcDbPolyline
 90
       19
 70
   128
 43
0.0
 10
1406.169086288718
 20
1899.074266999573
 10
1405.211865071637
 20
1899.797117024864
 10
1404.284315820659
 20
1900.557667486375
 10
1403.38792241672
 20
1901.35470166561
 10
1402.524118898045
 20
1902.186944477907
 10
1401.694287165996
 20
1903.053064512302
 10
1400.899754774324
 20
1903.951676161502
 10
1400.141792805363
 20
1904.881341838563
 10
1399.421613836574
 20
1905.840574276718
 10
1398.740370000677
 20
1906.827838908692
 10
1398.099151142486
 20
1907.84155632168
 10
1397.498983075387
 20
1908.880104784068
 10
1396.940825940258
 20
1909.941822839863
 10
1396.425572669449
 20
1911.025011966662
 10
1395.954047558278
 20
1912.12793929293
 10
1395.527004946337
 20
1913.248840370226
 10
1395.145128010706
 20
1914.385921995936
 10
1394.809027673021
 20
1915.537365082025
 10
1394.70008526741
 20
1915.952136934255
  0
LWPOLYLINE
  5
278
330
232
100
AcDbEntity
  8
P-SANR-FIXT
100
AcDbPolyline
 90
       19
 70
   128
 43
0.0
 10
1447.466239823974
 20
1915.952136934255
 10
1447.146638794195
 20
1914.796005540659
 10
1446.781060486487
 20
1913.65357956125
 10
1446.370089748159
 20
1912.52668663389
 10
1445.914384044723
 20
1911.417129546873
 10
1445.414672408091
 20
1910.326683354844
 10
1444.871754270282
 20
1909.257092539095
 10
1444.286498184503
 20
1908.210068216765
 10
1443.659840435641
 20
1907.187285403414
 10
1442.992783542414
 20
1906.190380333363
 10
1442.286394653554
 20
1905.220947842061
 10
1441.541803840596
 20
1904.280538814695
 10
1440.760202290001
 20
1903.370657705097
 10
1439.942840397519
 20
1902.492760128945
 10
1439.091025767815
 20
1901.648250535087
 10
1438.206121122588
 20
1900.83847995872
 10
1437.289542120499
 20
1900.064743860025
 10
1436.342755092425
 20
1899.328280051704
 10
1435.997238802666
 20
1899.074266999573
  0
LWPOLYLINE
  5
279
330
232
100
AcDbEntity
  8
P-SANR-FIXT
100
AcDbPolyline
 90
       25
 70
   128
 43
0.0
 10
1407.084114574305
 20
1897.281806570829
 10
1407.082344289727
 20
1897.370308997503
 10
1407.077036268072
 20
1897.458669839173
 10
1407.068199001041
 20
1897.546747737343
 10
1407.055846626376
 20
1897.634401786164
 10
1407.039998905244
 20
1897.721491757857
 10
1407.020681190615
 20
1897.807878327045
 10
1406.997924386712
 20
1897.893423293646
 10
1406.971764899569
 20
1897.977989803961
 10
1406.942244578783
 20
1898.061442569615
 10
1406.909410650571
 20
1898.143648083984
 10
1406.873315642212
 20
1898.224474835782
 10
1406.834017298022
 20
1898.303793519447
 10
1406.791578486967
 20
1898.381477242007
 10
1406.746067102092
 20
1898.457401726078
 10
1406.697555951904
 20
1898.53144550868
 10
1406.646122643895
 20
1898.603490135557
 10
1406.591849460386
 20
1898.673420350674
 10
1406.534823226893
 20
1898.741124280606
 10
1406.475135173225
 20
1898.806493613506
 10
1406.412880787534
 20
1898.869423772387
 10
1406.348159663558
 20
1898.92981408242
 10
1406.281075341287
 20
1898.98756793199
 10
1406.21173514133
 20
1899.042592927258
 10
1406.169086288718
 20
1899.074266999573
  0
LWPOLYLINE
  5
27A
330
232
100
AcDbEntity
  8
P-SANR-FIXT
100
AcDbPolyline
 90
       25
 70
   128
 43
0.0
 10
1435.997238802666
 20
1899.074266999573
 10
1435.926597863112
 20
1899.020922167644
 10
1435.858146653085
 20
1898.964795121752
 10
1435.791994679921
 20
1898.905975653198
 10
1435.728247772665
 20
1898.844557860582
 10
1435.667007912768
 20
1898.780639999272
 10
1435.608373070945
 20
1898.714324324211
 10
1435.552437050432
 20
1898.645716926331
 10
1435.499289336931
 20
1898.574927562836
 10
1435.449014955446
 20
1898.502069481603
 10
1435.401694334262
 20
1898.427259240023
 10
1435.357403176279
 20
1898.350616518521
 10
1435.316212337902
 20
1898.272263929104
 10
1435.278187715684
 20
1898.192326819201
 10
1435.24339014091
 20
1898.110933071134
 10
1435.211875282276
 20
1898.028212897537
 10
1435.183693556834
 20
1897.944298633042
 10
1435.158890049333
 20
1897.859324522572
 10
1435.137504440092
 20
1897.773426506577
 10
1435.119570941526
 20
1897.686742003557
 10
1435.105118243406
 20
1897.599409690227
 10
1435.094169466965
 20
1897.511569279657
 10
1435.086742127912
 20
1897.423361297767
 10
1435.082848108403
 20
1897.33492685851
 10
1435.08221051708
 20
1897.281806570829
  0
LINE
  5
27B
330
232
100
AcDbEntity
  8
P-SANR-FIXT
100
AcDbLine
 10
1407.084114574305
 20
1897.281806570829
 30
0.0
 11
1407.084114574305
 21
1896.482558850059
 31
0.0
  0
LINE
  5
27C
330
232
100
AcDbEntity
  8
P-SANR-FIXT
100
AcDbLine
 10
1435.08221051708
 20
1896.482558850059
 30
0.0
 11
1435.08221051708
 21
1897.281806570829
 31
0.0
  0
LINE
  5
27D
330
232
100
AcDbEntity
  8
P-SANR-FIXT
100
AcDbLine
 10
1414.58316254569
 20
1885.482558849995
 30
0.0
 11
1408.08316254569
 21
1885.482558849995
 31
0.0
  0
LINE
  5
27E
330
232
100
AcDbEntity
  8
P-SANR-FIXT
100
AcDbLine
 10
1434.083162545691
 20
1885.482558849995
 30
0.0
 11
1427.583162545691
 21
1885.482558849995
 31
0.0
  0
LINE
  5
27F
330
232
100
AcDbEntity
  8
P-SANR-FIXT
100
AcDbLine
 10
1427.583162545691
 20
1885.482558849995
 30
0.0
 11
1421.083162545691
 21
1885.482558849995
 31
0.0
  0
LINE
  5
280
330
232
100
AcDbEntity
  8
P-SANR-FIXT
100
AcDbLine
 10
1421.08316254569
 20
1885.482558849995
 30
0.0
 11
1414.58316254569
 21
1885.482558849995
 31
0.0
  0
LINE
  5
281
330
232
100
AcDbEntity
  8
P-SANR-FIXT
100
AcDbLine
 10
1410.083162545689
 20
1896.482558850059
 30
0.0
 11
1410.083162545689
 21
1886.059909119185
 31
0.0
  0
SPLINE
  5
282
330
232
100
AcDbEntity
  8
P-SANR-FIXT
100
AcDbSpline
210
0.0
220
0.0
230
1.0
 70
     8
 71
     3
 72
     9
 73
     5
 74
     0
 42
0.000000001
 43
0.0000000001
 40
0.0
 40
0.0
 40
0.0
 40
0.0
 40
0.5
 40
1.0
 40
1.0
 40
1.0
 40
1.0
 10
1410.083162545689
 20
1886.059909119185
 30
0.0
 10
1410.824499030039
 20
1885.871316693098
 30
0.0
 10
1412.31583551439
 20
1885.586499222146
 30
0.0
 10
1413.82449903004
 20
1885.486416513638
 30
0.0
 10
1414.583162545691
 20
1885.482558849995
 30
0.0
  0
SPLINE
  5
283
330
232
100
AcDbEntity
  8
P-SANR-FIXT
100
AcDbSpline
210
0.0
220
0.0
230
1.0
 70
     8
 71
     3
 72
     9
 73
     5
 74
     0
 42
0.000000001
 43
0.0000000001
 40
0.0
 40
0.0
 40
0.0
 40
0.0
 40
0.5
 40
1.0
 40
1.0
 40
1.0
 40
1.0
 10
1414.583162545691
 20
1885.482558849995
 30
0.0
 10
1415.341826061341
 20
1885.486416513638
 30
0.0
 10
1416.850489576991
 20
1885.586499222146
 30
0.0
 10
1418.341826061341
 20
1885.871316693098
 30
0.0
 10
1419.083162545692
 20
1886.059909119184
 30
0.0
  0
LINE
  5
284
330
232
100
AcDbEntity
  8
P-SANR-FIXT
100
AcDbLine
 10
1419.083162545692
 20
1886.059909119184
 30
0.0
 11
1419.083162545692
 21
1896.482558850059
 31
0.0
  0
LINE
  5
285
330
232
100
AcDbEntity
  8
P-SANR-FIXT
100
AcDbLine
 10
1419.083162545692
 20
1886.059909119185
 30
0.0
 11
1421.08316254569
 21
1886.059909119185
 31
0.0
  0
LINE
  5
286
330
232
100
AcDbEntity
  8
P-SANR-FIXT
100
AcDbLine
 10
1421.08316254569
 20
1886.059909119185
 30
0.0
 11
1423.083162545689
 21
1886.059909119185
 31
0.0
  0
LINE
  5
287
330
232
100
AcDbEntity
  8
P-SANR-FIXT
100
AcDbLine
 10
1423.083162545689
 20
1886.059909119184
 30
0.0
 11
1423.083162545689
 21
1896.482558850059
 31
0.0
  0
SPLINE
  5
288
330
232
100
AcDbEntity
  8
P-SANR-FIXT
100
AcDbSpline
210
0.0
220
0.0
230
1.0
 70
     8
 71
     3
 72
     9
 73
     5
 74
     0
 42
0.000000001
 43
0.0000000001
 40
0.0
 40
0.0
 40
0.0
 40
0.0
 40
0.5
 40
1.0
 40
1.0
 40
1.0
 40
1.0
 10
1423.083162545689
 20
1886.059909119184
 30
0.0
 10
1423.824499030039
 20
1885.871316693098
 30
0.0
 10
1425.315835514389
 20
1885.586499222146
 30
0.0
 10
1426.82449903004
 20
1885.486416513638
 30
0.0
 10
1427.58316254569
 20
1885.482558849995
 30
0.0
  0
SPLINE
  5
289
330
232
100
AcDbEntity
  8
P-SANR-FIXT
100
AcDbSpline
210
0.0
220
0.0
230
1.0
 70
     8
 71
     3
 72
     9
 73
     5
 74
     0
 42
0.000000001
 43
0.0000000001
 40
0.0
 40
0.0
 40
0.0
 40
0.0
 40
0.5
 40
1.0
 40
1.0
 40
1.0
 40
1.0
 10
1427.58316254569
 20
1885.482558849995
 30
0.0
 10
1428.34182606134
 20
1885.486416513638
 30
0.0
 10
1429.850489576991
 20
1885.586499222146
 30
0.0
 10
1431.341826061341
 20
1885.871316693098
 30
0.0
 10
1432.083162545691
 20
1886.059909119185
 30
0.0
  0
LINE
  5
28A
330
232
100
AcDbEntity
  8
P-SANR-FIXT
100
AcDbLine
 10
1432.083162545691
 20
1886.059909119185
 30
0.0
 11
1432.083162545691
 21
1896.482558850059
 31
0.0
  0
LINE
  5
28B
330
232
100
AcDbEntity
  8
P-SANR-FIXT
100
AcDbLine
 10
1432.083162545691
 20
1886.059909119185
 30
0.0
 11
1434.08316254569
 21
1886.059909119185
 31
0.0
  0
LINE
  5
28C
330
232
100
AcDbEntity
  8
P-SANR-FIXT
100
AcDbLine
 10
1434.08316254569
 20
1886.059909119185
 30
0.0
 11
1434.08316254569
 21
1896.482558850059
 31
0.0
  0
SPLINE
  5
28D
330
232
100
AcDbEntity
  8
P-SANR-FIXT
100
AcDbSpline
210
0.0
220
0.0
230
1.0
 70
    24
 71
     3
 72
     9
 73
     5
 74
     0
 42
0.000000001
 43
0.0000000001
 40
0.0
 40
0.0
 40
0.0
 40
0.0
 40
0.5
 40
0.660679069617931
 40
0.660679069617931
 40
0.660679069617931
 40
0.660679069617931
 10
1434.08316254569
 20
1886.059909119185
 30
0.0
 10
1434.08316254569
 20
1885.871316693098
 30
0.0
 10
1434.08316254569
 20
1885.683143751379
 30
0.0
 10
1434.08316254569
 20
1885.575606948417
 30
0.0
 10
1434.08316254569
 20
1885.554223123833
 30
0.0
  0
SPLINE
  5
28E
330
232
100
AcDbEntity
  8
P-SANR-FIXT
100
AcDbSpline
210
0.0
220
0.0
230
1.0
 70
    24
 71
     3
 72
     9
 73
     5
 74
     0
 42
0.000000001
 43
0.0000000001
 40
0.3393209307778588
 40
0.3393209307778588
 40
0.3393209307778588
 40
0.3393209307778588
 40
0.5
 40
1.0
 40
1.0
 40
1.0
 40
1.0
 10
1408.08316254569
 20
1885.554223123991
 30
0.0
 10
1408.08316254569
 20
1885.575606948546
 30
0.0
 10
1408.08316254569
 20
1885.683143751491
 30
0.0
 10
1408.08316254569
 20
1885.871316693098
 30
0.0
 10
1408.08316254569
 20
1886.059909119185
 30
0.0
  0
LINE
  5
28F
330
232
100
AcDbEntity
  8
P-SANR-FIXT
100
AcDbLine
 10
1408.08316254569
 20
1886.059909119185
 30
0.0
 11
1408.08316254569
 21
1896.482558850059
 31
0.0
  0
LINE
  5
290
330
232
100
AcDbEntity
  8
P-SANR-FIXT
100
AcDbLine
 10
1408.08316254569
 20
1886.059909119185
 30
0.0
 11
1410.083162545689
 21
1886.059909119185
 31
0.0
  0
LINE
  5
291
330
232
100
AcDbEntity
  8
P-SANR-FIXT
100
AcDbLine
 10
1407.08414237027
 20
1896.482558850059
 30
0.0
 11
1408.08316254569
 21
1896.482558850059
 31
0.0
  0
LINE
  5
292
330
232
100
AcDbEntity
  8
P-SANR-FIXT
100
AcDbLine
 10
1410.08538441878
 20
1896.482558850059
 30
0.0
 11
1419.080940672601
 21
1896.482558850059
 31
0.0
  0
LWPOLYLINE
  5
293
330
232
100
AcDbEntity
  8
P-SANR-FIXT
100
AcDbPolyline
 90
        3
 70
   128
 43
0.0
 10
1423.083162545689
 20
1896.482558850059
 10
1428.201401705442
 20
1896.482558850059
 10
1432.080940672601
 20
1896.482558850059
  0
LINE
  5
294
330
232
100
AcDbEntity
  8
P-SANR-FIXT
100
AcDbLine
 10
1434.08416680387
 20
1896.482558850059
 30
0.0
 11
1435.082150635051
 21
1896.482558850059
 31
0.0
  0
LINE
  5
295
330
232
100
AcDbEntity
  8
P-SANR-FIXT
100
AcDbLine
 10
1406.44374112789
 20
1880.282558849981
 30
0.0
 11
1406.44374112789
 21
1866.763137432178
 31
0.0
  0
LINE
  5
296
330
232
100
AcDbEntity
  8
P-SANR-FIXT
100
AcDbLine
 10
1435.722583963495
 20
1866.763137432178
 30
0.0
 11
1435.722583963495
 21
1880.282558849981
 31
0.0
  0
LINE
  5
297
330
232
100
AcDbEntity
  8
P-SANR-FIXT
100
AcDbLine
 10
1405.663162545693
 20
1866.763137432178
 30
0.0
 11
1405.663162545693
 21
1856.482558849965
 31
0.0
  0
LINE
  5
298
330
232
100
AcDbEntity
  8
P-SANR-FIXT
100
AcDbLine
 10
1436.503162545692
 20
1856.482558849965
 30
0.0
 11
1436.503162545692
 21
1866.763137432178
 31
0.0
  0
LINE
  5
299
330
232
100
AcDbEntity
  8
P-SANR-FIXT
100
AcDbLine
 10
1406.583162545694
 20
1856.482558849965
 30
0.0
 11
1406.583162545694
 21
1854.982558849965
 31
0.0
  0
LINE
  5
29A
330
232
100
AcDbEntity
  8
P-SANR-FIXT
100
AcDbLine
 10
1435.583162545691
 20
1854.982558849965
 30
0.0
 11
1435.583162545691
 21
1856.482558849965
 31
0.0
  0
LINE
  5
29B
330
232
100
AcDbEntity
  8
P-SANR-FIXT
100
AcDbLine
 10
1409.333162545692
 20
1854.982558849965
 30
0.0
 11
1409.333162545692
 21
1851.982558849965
 31
0.0
  0
LINE
  5
29C
330
232
100
AcDbEntity
  8
P-SANR-FIXT
100
AcDbLine
 10
1432.833162545692
 20
1851.982558849965
 30
0.0
 11
1432.833162545692
 21
1854.982558849965
 31
0.0
  0
LINE
  5
29D
330
232
100
AcDbEntity
  8
P-SANR-FIXT
100
AcDbLine
 10
1407.696797411019
 20
1851.982558849965
 30
0.0
 11
1407.696797411019
 21
1849.982558849994
 31
0.0
  0
LINE
  5
29E
330
232
100
AcDbEntity
  8
P-SANR-FIXT
100
AcDbLine
 10
1434.469527680365
 20
1849.982558849994
 30
0.0
 11
1434.469527680365
 21
1851.982558849965
 31
0.0
  0
LINE
  5
29F
330
232
100
AcDbEntity
  8
P-SANR-FIXT
100
AcDbLine
 10
1406.283162545705
 20
1849.982558849994
 30
0.0
 11
1406.283162545705
 21
1840.982558849994
 31
0.0
  0
LINE
  5
2A0
330
232
100
AcDbEntity
  8
P-SANR-FIXT
100
AcDbLine
 10
1435.88316254568
 20
1840.982558849994
 30
0.0
 11
1435.88316254568
 21
1849.982558849994
 31
0.0
  0
LINE
  5
2A1
330
232
100
AcDbEntity
  8
P-SANR-FIXT
100
AcDbLine
 10
1413.583162545692
 20
1840.982558849994
 30
0.0
 11
1413.583162545692
 21
1817.982558849994
 31
0.0
  0
LINE
  5
2A2
330
232
100
AcDbEntity
  8
P-SANR-FIXT
100
AcDbLine
 10
1428.583162545693
 20
1817.982558849994
 30
0.0
 11
1428.583162545693
 21
1840.982558849994
 31
0.0
  0
LINE
  5
2A3
330
232
100
AcDbEntity
  8
P-SANR-FIXT
100
AcDbLine
 10
1409.588198653099
 20
1885.482558849996
 30
0.0
 11
1409.588198653099
 21
1880.282558849981
 31
0.0
  0
LINE
  5
2A4
330
232
100
AcDbEntity
  8
P-SANR-FIXT
100
AcDbLine
 10
1432.578126438286
 20
1880.282558849981
 30
0.0
 11
1432.578126438286
 21
1885.482558849996
 31
0.0
  0
LINE
  5
2A5
330
232
100
AcDbEntity
  8
P-SANR-FIXT
100
AcDbLine
 10
1421.08316254569
 20
1817.982558849993
 30
0.0
 11
1413.58316254569
 21
1817.982558849993
 31
0.0
  0
LINE
  5
2A6
330
232
100
AcDbEntity
  8
P-SANR-FIXT
100
AcDbLine
 10
1428.58316254569
 20
1817.982558849993
 30
0.0
 11
1421.08316254569
 21
1817.982558849993
 31
0.0
  0
LINE
  5
2A7
330
232
100
AcDbEntity
  8
P-SANR-FIXT
100
AcDbLine
 10
1406.443741127888
 20
1880.28255884998
 30
0.0
 11
1421.08316254569
 21
1880.28255884998
 31
0.0
  0
SPLINE
  5
2A8
330
232
100
AcDbEntity
  8
P-SANR-FIXT
100
AcDbSpline
210
0.0
220
0.0
230
1.0
 70
     8
 71
     3
 72
     8
 73
     4
 74
     0
 42
0.000000001
 43
0.0000000001
 40
0.0
 40
0.0
 40
0.0
 40
0.0
 40
0.0210889920831893
 40
0.0210889920831893
 40
0.0210889920831893
 40
0.0210889920831893
 10
1414.636895855473
 20
1866.763137432178
 30
0.0
 10
1414.634812448475
 20
1866.838201884847
 30
0.0
 10
1414.633890260165
 20
1866.912936917233
 30
0.0
 10
1414.634143458385
 20
1866.98736263411
 30
0.0
  0
SPLINE
  5
2A9
330
232
100
AcDbEntity
  8
P-SANR-FIXT
100
AcDbSpline
210
0.0
220
0.0
230
1.0
 70
     8
 71
     3
 72
     8
 73
     4
 74
     0
 42
0.000000001
 43
0.0000000001
 40
0.1287371869165718
 40
0.1287371869165718
 40
0.1287371869165718
 40
0.1287371869165718
 40
0.1428571428571428
 40
0.1428571428571428
 40
0.1428571428571428
 40
0.1428571428571428
 10
1414.731781485158
 20
1868.105570560287
 30
0.0
 10
1414.740232310143
 20
1868.153638134433
 30
0.0
 10
1414.749267229663
 20
1868.201584032473
 30
0.0
 10
1414.758816199256
 20
1868.249501346839
 30
0.0
  0
SPLINE
  5
2AA
330
232
100
AcDbEntity
  8
P-SANR-FIXT
100
AcDbSpline
210
0.0
220
0.0
230
1.0
 70
     8
 71
     3
 72
     9
 73
     5
 74
     0
 42
0.000000001
 43
0.0000000001
 40
0.2381267307807871
 40
0.2381267307807871
 40
0.2381267307807871
 40
0.2381267307807871
 40
0.2857142857142857
 40
0.3483576774385022
 40
0.3483576774385022
 40
0.3483576774385022
 40
0.3483576774385022
 10
1415.027080627197
 20
1869.201440411831
 30
0.0
 10
1415.083732808282
 20
1869.356118163743
 30
0.0
 10
1415.227218897432
 20
1869.710727353327
 30
0.0
 10
1415.405285496362
 20
1870.040513043207
 30
0.0
 10
1415.515931603512
 20
1870.221257573222
 30
0.0
  0
SPLINE
  5
2AB
330
232
100
AcDbEntity
  8
P-SANR-FIXT
100
AcDbSpline
210
0.0
220
0.0
230
1.0
 70
     8
 71
     3
 72
     8
 73
     4
 74
     0
 42
0.000000001
 43
0.0000000001
 40
0.4285714285714286
 40
0.4285714285714286
 40
0.4285714285714286
 40
0.4285714285714286
 40
0.4581451304227763
 40
0.4581451304227763
 40
0.4581451304227763
 40
0.4581451304227763
 10
1415.967381188105
 20
1870.911988187284
 30
0.0
 10
1416.028730750773
 20
1870.991873661506
 30
0.0
 10
1416.092370832119
 20
1871.06944807684
 30
0.0
 10
1416.157975621723
 20
1871.145166780033
 30
0.0
  0
SPLINE
  5
2AC
330
232
100
AcDbEntity
  8
P-SANR-FIXT
100
AcDbSpline
210
0.0
220
0.0
230
1.0
 70
     8
 71
     3
 72
     8
 73
     4
 74
     0
 42
0.000000001
 43
0.0000000001
 40
0.5665654572485214
 40
0.5665654572485214
 40
0.5665654572485214
 40
0.5665654572485214
 40
0.5714285714285714
 40
0.5714285714285714
 40
0.5714285714285714
 40
0.5714285714285714
 10
1416.94170912041
 20
1871.927407126704
 30
0.0
 10
1416.954447766271
 20
1871.938054216965
 30
0.0
 10
1416.967242166354
 20
1871.948624470235
 30
0.0
 10
1416.980054741877
 20
1871.95920494452
 30
0.0
  0
SPLINE
  5
2AD
330
232
100
AcDbEntity
  8
P-SANR-FIXT
100
AcDbSpline
210
0.0
220
0.0
230
1.0
 70
     8
 71
     3
 72
     9
 73
     5
 74
     0
 42
0.000000001
 43
0.0000000001
 40
0.6735812698738709
 40
0.6735812698738709
 40
0.6735812698738709
 40
0.6735812698738709
 40
0.7857142857142857
 40
0.8921230629203009
 40
0.8921230629203009
 40
0.8921230629203009
 40
0.8921230629203009
 10
1417.841093906281
 20
1872.557615244417
 30
0.0
 10
1418.173961387748
 20
1872.751154567885
 30
0.0
 10
1418.852490364321
 20
1873.093737210403
 30
0.0
 10
1419.597760318347
 20
1873.224814372928
 30
0.0
 10
1419.964965951382
 20
1873.276093693754
 30
0.0
  0
LINE
  5
2AE
330
232
100
AcDbEntity
  8
P-SANR-FIXT
100
AcDbLine
 10
1421.08316254569
 20
1880.28255884998
 30
0.0
 11
1435.722583963493
 21
1880.28255884998
 31
0.0
  0
SPLINE
  5
2AF
330
232
100
AcDbEntity
  8
P-SANR-FIXT
100
AcDbSpline
210
0.0
220
0.0
230
1.0
 70
     8
 71
     3
 72
    10
 73
     6
 74
     0
 42
0.000000001
 43
0.0000000001
 40
0.1078769370796663
 40
0.1078769370796663
 40
0.1078769370796663
 40
0.1078769370796663
 40
0.1428571428571428
 40
0.2857142857142857
 40
0.326418730126129
 40
0.326418730126129
 40
0.326418730126129
 40
0.326418730126129
 10
1422.21042900235
 20
1873.332986972364
 30
0.0
 10
1422.329815277738
 20
1873.31194890352
 30
0.0
 10
1422.932940264335
 20
1873.18783224161
 30
0.0
 10
1423.651651083166
 20
1872.92682084081
 30
0.0
 10
1424.20689639809
 20
1872.627511871111
 30
0.0
 10
1424.327492636169
 20
1872.557353751376
 30
0.0
  0
SPLINE
  5
2B0
330
232
100
AcDbEntity
  8
P-SANR-FIXT
100
AcDbSpline
210
0.0
220
0.0
230
1.0
 70
     8
 71
     3
 72
     8
 73
     4
 74
     0
 42
0.000000001
 43
0.0000000001
 40
0.4285714285714286
 40
0.4285714285714286
 40
0.4285714285714286
 40
0.4285714285714286
 40
0.4334345427514675
 40
0.4334345427514675
 40
0.4334345427514675
 40
0.4334345427514675
 10
1425.185530683402
 20
1871.96008147537
 30
0.0
 10
1425.19831335686
 20
1871.949542729849
 30
0.0
 10
1425.211054437505
 20
1871.938955199977
 30
0.0
 10
1425.223753685865
 20
1871.928319147858
 30
0.0
  0
SPLINE
  5
2B1
330
232
100
AcDbEntity
  8
P-SANR-FIXT
100
AcDbSpline
210
0.0
220
0.0
230
1.0
 70
     8
 71
     3
 72
     8
 73
     4
 74
     0
 42
0.000000001
 43
0.0000000001
 40
0.5418548695772213
 40
0.5418548695772213
 40
0.5418548695772213
 40
0.5418548695772213
 40
0.5714285714285714
 40
0.5714285714285714
 40
0.5714285714285714
 40
0.5714285714285714
 10
1426.008144696706
 20
1871.147524571147
 30
0.0
 10
1426.073296160613
 20
1871.070475122098
 30
0.0
 10
1426.136686406084
 20
1870.991839863508
 30
0.0
 10
1426.198283405116
 20
1870.911685800521
 30
0.0
  0
SPLINE
  5
2B2
330
232
100
AcDbEntity
  8
P-SANR-FIXT
100
AcDbSpline
210
0.0
220
0.0
230
1.0
 70
     8
 71
     3
 72
    10
 73
     6
 74
     0
 42
0.000000001
 43
0.0000000001
 40
0.6516423225614978
 40
0.6516423225614978
 40
0.6516423225614978
 40
0.6516423225614978
 40
0.6785714285714287
 40
0.7321428571428572
 40
0.7618732692192213
 40
0.7618732692192213
 40
0.7618732692192213
 40
0.7618732692192213
 10
1426.657254227876
 20
1870.228480352681
 30
0.0
 10
1426.7036474459
 20
1870.148863061853
 30
0.0
 10
1426.837157080823
 20
1869.908002486804
 30
0.0
 10
1426.997028206959
 20
1869.567572860831
 30
0.0
 10
1427.103119681843
 20
1869.299701678494
 30
0.0
 10
1427.138631206102
 20
1869.202954145359
 30
0.0
  0
SPLINE
  5
2B3
330
232
100
AcDbEntity
  8
P-SANR-FIXT
100
AcDbSpline
210
0.0
220
0.0
230
1.0
 70
     8
 71
     3
 72
     8
 73
     4
 74
     0
 42
0.000000001
 43
0.0000000001
 40
0.8571428571428569
 40
0.8571428571428569
 40
0.8571428571428569
 40
0.8571428571428569
 40
0.871262813083428
 40
0.871262813083428
 40
0.871262813083428
 40
0.871262813083428
 10
1427.407548747139
 20
1868.249442013063
 30
0.0
 10
1427.417047132555
 20
1868.201686756432
 30
0.0
 10
1427.426453311607
 20
1868.153971904535
 30
0.0
 10
1427.435212380091
 20
1868.106136350054
 30
0.0
  0
SPLINE
  5
2B4
330
232
100
AcDbEntity
  8
P-SANR-FIXT
100
AcDbSpline
210
0.0
220
0.0
230
1.0
 70
     8
 71
     3
 72
     8
 73
     4
 74
     0
 42
0.000000001
 43
0.0000000001
 40
0.9789110079168148
 40
0.9789110079168148
 40
0.9789110079168148
 40
0.9789110079168148
 40
1.0
 40
1.0
 40
1.0
 40
1.0
 10
1427.532093880391
 20
1866.987504303571
 30
0.0
 10
1427.532400098875
 20
1866.912992931928
 30
0.0
 10
1427.531512642906
 20
1866.838201884847
 30
0.0
 10
1427.529429235908
 20
1866.763137432178
 30
0.0
  0
LINE
  5
2B5
330
232
100
AcDbEntity
  8
P-SANR-FIXT
100
AcDbLine
 10
1414.711102655072
 20
1866.763137432178
 30
0.0
 11
1414.69524788393
 21
1866.763137432178
 31
0.0
  0
LINE
  5
2B6
330
232
100
AcDbEntity
  8
P-SANR-FIXT
100
AcDbLine
 10
1427.47107720745
 20
1866.763137432178
 30
0.0
 11
1427.455222436309
 21
1866.763137432178
 31
0.0
  0
SPLINE
  5
2B7
330
232
100
AcDbEntity
  8
P-SANR-FIXT
100
AcDbSpline
210
0.0
220
0.0
230
1.0
 70
     8
 71
     3
 72
     8
 73
     4
 74
     0
 42
0.000000001
 43
0.0000000001
 40
0.1126271867333541
 40
0.1126271867333541
 40
0.1126271867333541
 40
0.1126271867333541
 40
0.1428571428571428
 40
0.1428571428571428
 40
0.1428571428571428
 40
0.1428571428571428
 10
1419.957436353969
 20
1860.631754121351
 30
0.0
 10
1419.858650671635
 20
1860.649163881976
 30
0.0
 10
1419.760347491167
 20
1860.668889169061
 30
0.0
 10
1419.662507400875
 20
1860.690958182463
 30
0.0
  0
SPLINE
  5
2B8
330
232
100
AcDbEntity
  8
P-SANR-FIXT
100
AcDbSpline
210
0.0
220
0.0
230
1.0
 70
     8
 71
     3
 72
     9
 73
     5
 74
     0
 42
0.000000001
 43
0.0000000001
 40
0.2265250231610939
 40
0.2265250231610939
 40
0.2265250231610939
 40
0.2265250231610939
 40
0.2857142857142857
 40
0.3410372669498729
 40
0.3410372669498729
 40
0.3410372669498729
 40
0.3410372669498729
 10
1418.86373776673
 20
1860.92656517962
 30
0.0
 10
1418.679326448534
 20
1860.994151411686
 30
0.0
 10
1418.329001114079
 20
1861.140956822304
 30
0.0
 10
1417.994998905011
 20
1861.316806912739
 30
0.0
 10
1417.837836444256
 20
1861.40821240905
 30
0.0
  0
SPLINE
  5
2B9
330
232
100
AcDbEntity
  8
P-SANR-FIXT
100
AcDbSpline
210
0.0
220
0.0
230
1.0
 70
     8
 71
     3
 72
     8
 73
     4
 74
     0
 42
0.000000001
 43
0.0000000001
 40
0.4285714285714286
 40
0.4285714285714286
 40
0.4285714285714286
 40
0.4285714285714286
 40
0.4552969128866511
 40
0.4552969128866511
 40
0.4552969128866511
 40
0.4552969128866511
 10
1417.125481014078
 20
1861.889578058157
 30
0.0
 10
1417.056480990206
 20
1861.943212830993
 30
0.0
 10
1416.988582840141
 20
1861.998217790245
 30
0.0
 10
1416.921836411699
 20
1862.054558626904
 30
0.0
  0
SPLINE
  5
2BA
330
232
100
AcDbEntity
  8
P-SANR-FIXT
100
AcDbSpline
210
0.0
220
0.0
230
1.0
 70
     8
 71
     3
 72
     8
 73
     4
 74
     0
 42
0.000000001
 43
0.0000000001
 40
0.568423401859358
 40
0.568423401859358
 40
0.568423401859358
 40
0.568423401859358
 40
0.5714285714285714
 40
0.5714285714285714
 40
0.5714285714285714
 40
0.5714285714285714
 10
1416.139958169744
 20
1862.839234914667
 30
0.0
 10
1416.133640849036
 20
1862.84676795783
 30
0.0
 10
1416.127340018148
 20
1862.854315682963
 30
0.0
 10
1416.121056788146
 20
1862.861878511621
 30
0.0
  0
SPLINE
  5
2BB
330
232
100
AcDbEntity
  8
P-SANR-FIXT
100
AcDbSpline
210
0.0
220
0.0
230
1.0
 70
     8
 71
     3
 72
     8
 73
     4
 74
     0
 42
0.000000001
 43
0.0000000001
 40
0.6809174518772067
 40
0.6809174518772067
 40
0.6809174518772067
 40
0.6809174518772067
 40
0.7142857142857143
 40
0.7142857142857143
 40
0.7142857142857143
 40
0.7142857142857143
 10
1415.505473649667
 20
1863.743020756557
 30
0.0
 10
1415.450570182103
 20
1863.837634216883
 30
0.0
 10
1415.39786714745
 20
1863.933588869299
 30
0.0
 10
1415.347590073163
 20
1864.030929472232
 30
0.0
  0
SPLINE
  5
2BC
330
232
100
AcDbEntity
  8
P-SANR-FIXT
100
AcDbSpline
210
0.0
220
0.0
230
1.0
 70
     8
 71
     3
 72
    10
 73
     6
 74
     0
 42
0.000000001
 43
0.0000000001
 40
0.7949950094914107
 40
0.7949950094914107
 40
0.7949950094914107
 40
0.7949950094914107
 40
0.8392857142857142
 40
0.8928571428571427
 40
0.908893303758022
 40
0.908893303758022
 40
0.908893303758022
 40
0.908893303758022
 10
1415.027802525102
 20
1864.761939445006
 30
0.0
 10
1414.977061192325
 20
1864.899849215841
 30
0.0
 10
1414.87655328312
 20
1865.209621283944
 30
0.0
 10
1414.780902123834
 20
1865.571506060038
 30
0.0
 10
1414.746647081244
 20
1865.800503219218
 30
0.0
 10
1414.739654614995
 20
1865.853551040812
 30
0.0
  0
LINE
  5
2BD
330
232
100
AcDbEntity
  8
P-SANR-FIXT
100
AcDbLine
 10
1414.702692927774
 20
1866.763137432178
 30
0.0
 11
1414.687515081085
 21
1866.763137432178
 31
0.0
  0
LINE
  5
2BE
330
232
100
AcDbEntity
  8
P-SANR-FIXT
100
AcDbLine
 10
1405.663162545691
 20
1866.763137432178
 30
0.0
 11
1414.636895855473
 21
1866.763137432178
 31
0.0
  0
LINE
  5
2BF
330
232
100
AcDbEntity
  8
P-SANR-FIXT
100
AcDbLine
 10
1427.529429235908
 20
1866.763137432178
 30
0.0
 11
1436.50316254569
 21
1866.763137432178
 31
0.0
  0
LINE
  5
2C0
330
232
100
AcDbEntity
  8
P-SANR-FIXT
100
AcDbLine
 10
1427.478810010296
 20
1866.763137432178
 30
0.0
 11
1427.463632163606
 21
1866.763137432178
 31
0.0
  0
SPLINE
  5
2C1
330
232
100
AcDbEntity
  8
P-SANR-FIXT
100
AcDbSpline
210
0.0
220
0.0
230
1.0
 70
     8
 71
     3
 72
     9
 73
     5
 74
     0
 42
0.000000001
 43
0.0000000001
 40
0.0911066962419848
 40
0.0911066962419848
 40
0.0911066962419848
 40
0.0911066962419848
 40
0.1428571428571428
 40
0.2050049905085958
 40
0.2050049905085958
 40
0.2050049905085958
 40
0.2050049905085958
 10
1427.432653838622
 20
1865.852648030568
 30
0.0
 10
1427.402907974428
 20
1865.683685022196
 30
0.0
 10
1427.322417274202
 20
1865.316454622828
 30
0.0
 10
1427.211029930911
 20
1864.95399997702
 30
0.0
 10
1427.140731304623
 20
1864.760175250011
 30
0.0
  0
SPLINE
  5
2C2
330
232
100
AcDbEntity
  8
P-SANR-FIXT
100
AcDbSpline
210
0.0
220
0.0
230
1.0
 70
     8
 71
     3
 72
     8
 73
     4
 74
     0
 42
0.000000001
 43
0.0000000001
 40
0.2857142857142857
 40
0.2857142857142857
 40
0.2857142857142857
 40
0.2857142857142857
 40
0.3190825481228063
 40
0.3190825481228063
 40
0.3190825481228063
 40
0.3190825481228063
 10
1426.817970753564
 20
1864.030529917381
 30
0.0
 10
1426.767711156223
 20
1863.93280898618
 30
0.0
 10
1426.714520897454
 20
1863.837388516897
 30
0.0
 10
1426.658653230891
 20
1863.744051163538
 30
0.0
  0
SPLINE
  5
2C3
330
232
100
AcDbEntity
  8
P-SANR-FIXT
100
AcDbSpline
210
0.0
220
0.0
230
1.0
 70
     8
 71
     3
 72
     8
 73
     4
 74
     0
 42
0.000000001
 43
0.0000000001
 40
0.4285714285714286
 40
0.4285714285714286
 40
0.4285714285714286
 40
0.4285714285714286
 40
0.4315765981405938
 40
0.4315765981405938
 40
0.4315765981405938
 40
0.4315765981405938
 10
1426.045612673172
 20
1862.861594115879
 30
0.0
 10
1426.03934557342
 20
1862.85404527114
 30
0.0
 10
1426.033057032953
 20
1862.84651924889
 30
0.0
 10
1426.026747375984
 20
1862.839015584708
 30
0.0
  0
SPLINE
  5
2C4
330
232
100
AcDbEntity
  8
P-SANR-FIXT
100
AcDbSpline
210
0.0
220
0.0
230
1.0
 70
     8
 71
     3
 72
     8
 73
     4
 74
     0
 42
0.000000001
 43
0.0000000001
 40
0.5447030871133489
 40
0.5447030871133489
 40
0.5447030871133489
 40
0.5447030871133489
 40
0.5714285714285714
 40
0.5714285714285714
 40
0.5714285714285714
 40
0.5714285714285714
 10
1425.2453435605
 20
1862.054949947776
 30
0.0
 10
1425.178524266789
 20
1861.998583740244
 30
0.0
 10
1425.110202101965
 20
1861.944293889889
 30
0.0
 10
1425.041326883504
 20
1861.889874383527
 30
0.0
  0
SPLINE
  5
2C5
330
232
100
AcDbEntity
  8
P-SANR-FIXT
100
AcDbSpline
210
0.0
220
0.0
230
1.0
 70
     8
 71
     3
 72
     8
 73
     4
 74
     0
 42
0.000000001
 43
0.0000000001
 40
0.658962733050127
 40
0.658962733050127
 40
0.658962733050127
 40
0.658962733050127
 40
0.7734749768389209
 40
0.7734749768389209
 40
0.7734749768389209
 40
0.7734749768389209
 10
1424.326571121914
 20
1861.408141991036
 30
0.0
 10
1424.00068081069
 20
1861.218669402687
 30
0.0
 10
1423.66335642048
 20
1861.035474262476
 30
0.0
 10
1423.30434696875
 20
1860.920614651871
 30
0.0
  0
SPLINE
  5
2C6
330
232
100
AcDbEntity
  8
P-SANR-FIXT
100
AcDbSpline
210
0.0
220
0.0
230
1.0
 70
     8
 71
     3
 72
     8
 73
     4
 74
     0
 42
0.000000001
 43
0.0000000001
 40
0.8571428571428569
 40
0.8571428571428569
 40
0.8571428571428569
 40
0.8571428571428569
 40
0.8873728132666798
 40
0.8873728132666798
 40
0.8873728132666798
 40
0.8873728132666798
 10
1422.507330147426
 20
1860.692559644687
 30
0.0
 10
1422.409586949844
 20
1860.670533197693
 30
0.0
 10
1422.310388678734
 20
1860.654369689688
 30
0.0
 10
1422.210294644924
 20
1860.641789997639
 30
0.0
  0
LINE
  5
2C7
330
232
100
AcDbEntity
  8
P-SANR-FIXT
100
AcDbLine
 10
1405.663162545691
 20
1856.482558849964
 30
0.0
 11
1421.08316254569
 21
1856.482558849964
 31
0.0
  0
LINE
  5
2C8
330
232
100
AcDbEntity
  8
P-SANR-FIXT
100
AcDbLine
 10
1421.08316254569
 20
1856.482558849964
 30
0.0
 11
1436.50316254569
 21
1856.482558849964
 31
0.0
  0
LINE
  5
2C9
330
232
100
AcDbEntity
  8
P-SANR-FIXT
100
AcDbLine
 10
1406.583162545692
 20
1854.982558849964
 30
0.0
 11
1421.08316254569
 21
1854.982558849964
 31
0.0
  0
LINE
  5
2CA
330
232
100
AcDbEntity
  8
P-SANR-FIXT
100
AcDbLine
 10
1421.08316254569
 20
1854.982558849964
 30
0.0
 11
1435.583162545689
 21
1854.982558849964
 31
0.0
  0
LINE
  5
2CB
330
232
100
AcDbEntity
  8
P-SANR-FIXT
100
AcDbLine
 10
1407.696797411017
 20
1851.982558849964
 30
0.0
 11
1421.08316254569
 21
1851.982558849964
 31
0.0
  0
LINE
  5
2CC
330
232
100
AcDbEntity
  8
P-SANR-FIXT
100
AcDbLine
 10
1421.08316254569
 20
1851.982558849964
 30
0.0
 11
1434.469527680364
 21
1851.982558849964
 31
0.0
  0
LINE
  5
2CD
330
232
100
AcDbEntity
  8
P-SANR-FIXT
100
AcDbLine
 10
1406.283162545703
 20
1849.982558849993
 30
0.0
 11
1421.08316254569
 21
1849.982558849993
 31
0.0
  0
LINE
  5
2CE
330
232
100
AcDbEntity
  8
P-SANR-FIXT
100
AcDbLine
 10
1421.08316254569
 20
1849.982558849993
 30
0.0
 11
1435.883162545678
 21
1849.982558849993
 31
0.0
  0
LINE
  5
2CF
330
232
100
AcDbEntity
  8
P-SANR-FIXT
100
AcDbLine
 10
1406.283162545703
 20
1840.982558849993
 30
0.0
 11
1421.08316254569
 21
1840.982558849993
 31
0.0
  0
LINE
  5
2D0
330
232
100
AcDbEntity
  8
P-SANR-FIXT
100
AcDbLine
 10
1421.08316254569
 20
1840.982558849993
 30
0.0
 11
1435.883162545678
 21
1840.982558849993
 31
0.0
  0
LINE
  5
2D1
330
232
100
AcDbEntity
  8
P-SANR-FIXT
100
AcDbLine
 10
1414.175011097843
 20
1885.482558849995
 30
0.0
 11
1414.97659655422
 21
1885.482558849995
 31
0.0
  0
LINE
  5
2D2
330
232
100
AcDbEntity
  8
P-SANR-FIXT
100
AcDbLine
 10
1427.189728538521
 20
1885.482558849995
 30
0.0
 11
1427.991313992062
 21
1885.482558849995
 31
0.0
  0
ARC
  5
2D3
330
232
100
AcDbEntity
  8
P-SANR-FIXT
100
AcDbCircle
 10
1421.08316254569
 20
1866.982558849981
 30
0.0
 40
3.74999999993679
100
AcDbArc
 50
90.0
 51
269.9999999999997
  0
ARC
  5
2D4
330
232
100
AcDbEntity
  8
P-SANR-FIXT
100
AcDbCircle
 10
1421.08316254569
 20
1866.982558849981
 30
0.0
 40
3.749999999937017
100
AcDbArc
 50
269.9999999999997
 51
90.0
  0
ARC
  5
2D5
330
232
100
AcDbEntity
  8
P-SANR-FIXT
100
AcDbCircle
 10
1421.08316254569
 20
1866.982558849981
 30
0.0
 40
6.449999999999818
100
AcDbArc
 50
90.0
 51
269.9999999999997
  0
ARC
  5
2D6
330
232
100
AcDbEntity
  8
P-SANR-FIXT
100
AcDbCircle
 10
1421.08316254569
 20
1866.982558849981
 30
0.0
 40
6.450000000000045
100
AcDbArc
 50
269.9999999999997
 51
90.0
  0
LINE
  5
2D7
330
232
100
AcDbEntity
  8
P-SANR-FIXT
100
AcDbLine
 10
1391.583162545692
 20
1923.982558850011
 30
0.0
 11
1391.583162545692
 21
1919.482558850011
 31
0.0
  0
LINE
  5
2D8
330
232
100
AcDbEntity
  8
P-SANR-FIXT
100
AcDbLine
 10
1450.583162545692
 20
1919.482558850011
 30
0.0
 11
1450.583162545692
 21
1923.982558850011
 31
0.0
  0
LINE
  5
2D9
330
232
100
AcDbEntity
  8
P-SANR-FIXT
100
AcDbLine
 10
1392.135787555467
 20
1924.535183859786
 30
0.0
 11
1391.583162545692
 21
1923.982558850011
 31
0.0
  0
LINE
  5
2DA
330
232
100
AcDbEntity
  8
P-SANR-FIXT
100
AcDbLine
 10
1450.583162545692
 20
1923.982558850011
 30
0.0
 11
1450.030537535917
 21
1924.535183859786
 31
0.0
  0
LINE
  5
2DB
330
232
100
AcDbEntity
  8
P-SANR-FIXT
100
AcDbLine
 10
1392.135787555467
 20
1961.59685921779
 30
0.0
 11
1392.135787555467
 21
1924.535183859786
 31
0.0
  0
LINE
  5
2DC
330
232
100
AcDbEntity
  8
P-SANR-FIXT
100
AcDbLine
 10
1450.030537535917
 20
1924.535183859786
 30
0.0
 11
1450.030537535917
 21
1961.59685921779
 31
0.0
  0
LINE
  5
2DD
330
232
100
AcDbEntity
  8
P-SANR-FIXT
100
AcDbLine
 10
1397.083162545693
 20
2030.482558850012
 30
0.0
 11
1397.083162545693
 21
2022.482558850011
 31
0.0
  0
LINE
  5
2DE
330
232
100
AcDbEntity
  8
P-SANR-FIXT
100
AcDbLine
 10
1445.083162545693
 20
2022.482558850011
 30
0.0
 11
1445.083162545693
 21
2030.482558850012
 31
0.0
  0
LINE
  5
2DF
330
232
100
AcDbEntity
  8
P-SANR-FIXT
100
AcDbLine
 10
1397.583162545693
 20
2030.982558850011
 30
0.0
 11
1397.083162545693
 21
2030.482558850012
 31
0.0
  0
LINE
  5
2E0
330
232
100
AcDbEntity
  8
P-SANR-FIXT
100
AcDbLine
 10
1445.083162545693
 20
2030.482558850012
 30
0.0
 11
1444.583162545693
 21
2030.982558850011
 31
0.0
  0
LINE
  5
2E1
330
232
100
AcDbEntity
  8
P-SANR-FIXT
100
AcDbLine
 10
1392.135787555467
 20
1961.59685921779
 30
0.0
 11
1391.409052138143
 21
1962.121622380046
 31
0.0
  0
LINE
  5
2E2
330
232
100
AcDbEntity
  8
P-SANR-FIXT
100
AcDbLine
 10
1450.757272953241
 20
1962.121622380046
 30
0.0
 11
1450.030537535917
 21
1961.59685921779
 31
0.0
  0
LWPOLYLINE
  5
2E3
330
232
100
AcDbEntity
  8
P-SANR-FIXT
100
AcDbPolyline
 90
       27
 70
   128
 43
0.0
 10
1387.671076383182
 20
2022.482558850011
 10
1388.482493095894
 20
2022.482558850011
 10
1389.346063925287
 20
2022.482558850011
 10
1390.260407342252
 20
2022.482558850011
 10
1391.224060592373
 20
2022.482558850011
 10
1392.235482036016
 20
2022.482558850012
 10
1393.293053614632
 20
2022.482558850012
 10
1394.395083439297
 20
2022.482558850012
 10
1395.539808497379
 20
2022.482558850012
 10
1396.72539747298
 20
2022.482558850012
 10
1397.949953676651
 20
2022.482558850012
 10
1399.211518079691
 20
2022.482558850012
 10
1400.508072448175
 20
2022.482558850012
 10
1401.837542571696
 20
2022.482558850012
 10
1403.197801581663
 20
2022.482558850012
 10
1404.586673353832
 20
2022.482558850012
 10
1406.001935989644
 20
2022.482558850012
 10
1407.44132537079
 20
2022.482558850012
 10
1408.902538781312
 20
2022.482558850012
 10
1410.383238591462
 20
2022.482558850012
 10
1411.88105599741
 20
2022.482558850012
 10
1413.393594810825
 20
2022.482558850012
 10
1414.918435292261
 20
2022.482558850012
 10
1416.453138022231
 20
2022.482558850012
 10
1417.995247803753
 20
2022.482558850012
 10
1419.542297590143
 20
2022.482558850012
 10
1421.083162545692
 20
2022.482558850012
  0
LWPOLYLINE
  5
2E4
330
232
100
AcDbEntity
  8
P-SANR-FIXT
100
AcDbPolyline
 90
       27
 70
   128
 43
0.0
 10
1421.083162545692
 20
2022.482558850011
 10
1419.533654584452
 20
2022.482558850011
 10
1417.986625505406
 20
2022.482558850011
 10
1416.444550225065
 20
2022.482558850011
 10
1414.909895734919
 20
2022.482558850011
 10
1413.385117154777
 20
2022.482558850011
 10
1411.872653805098
 20
2022.482558850011
 10
1410.374925304601
 20
2022.482558850011
 10
1408.894327699387
 20
2022.482558850011
 10
1407.433229629781
 20
2022.482558850011
 10
1405.99396854101
 20
2022.482558850011
 10
1404.57884694379
 20
2022.482558850011
 10
1403.190128730801
 20
2022.482558850011
 10
1401.830035554938
 20
2022.482558850011
 10
1400.500743275147
 20
2022.482558850011
 10
1399.204378475505
 20
2022.482558850011
 10
1397.943015063152
 20
2022.482558850011
 10
1396.718670950468
 20
2022.482558850011
 10
1395.533304826856
 20
2022.482558850011
 10
1394.388813025249
 20
2022.482558850011
 10
1393.287026488383
 20
2022.482558850011
 10
1392.229707839683
 20
2022.482558850011
 10
1391.218548563437
 20
2022.482558850011
 10
1390.255166298785
 20
2022.482558850011
 10
1389.34110225184
 20
2022.482558850011
 10
1388.477818730086
 20
2022.482558850011
 10
1387.671076383182
 20
2022.482558850011
  0
LWPOLYLINE
  5
2E5
330
232
100
AcDbEntity
  8
P-SANR-FIXT
100
AcDbPolyline
 90
       27
 70
   128
 43
0.0
 10
1454.495248708202
 20
2022.482558850011
 10
1453.68383199549
 20
2022.482558850011
 10
1452.820261166097
 20
2022.482558850011
 10
1451.905917749132
 20
2022.482558850011
 10
1450.942264499012
 20
2022.482558850011
 10
1449.930843055368
 20
2022.482558850011
 10
1448.873271476753
 20
2022.482558850011
 10
1447.771241652087
 20
2022.482558850011
 10
1446.626516594006
 20
2022.482558850011
 10
1445.440927618405
 20
2022.482558850011
 10
1444.216371414734
 20
2022.482558850011
 10
1442.954807011693
 20
2022.482558850011
 10
1441.658252643209
 20
2022.482558850011
 10
1440.328782519688
 20
2022.482558850011
 10
1438.968523509721
 20
2022.482558850011
 10
1437.579651737552
 20
2022.482558850011
 10
1436.164389101739
 20
2022.482558850011
 10
1434.724999720594
 20
2022.482558850011
 10
1433.263786310072
 20
2022.482558850011
 10
1431.783086499922
 20
2022.482558850011
 10
1430.285269093974
 20
2022.482558850011
 10
1428.772730280559
 20
2022.482558850011
 10
1427.247889799122
 20
2022.482558850011
 10
1425.713187069152
 20
2022.482558850011
 10
1424.17107728763
 20
2022.482558850011
 10
1422.624027501241
 20
2022.482558850011
 10
1421.083162545692
 20
2022.482558850011
  0
LWPOLYLINE
  5
2E6
330
232
100
AcDbEntity
  8
P-SANR-FIXT
100
AcDbPolyline
 90
       27
 70
   128
 43
0.0
 10
1421.083162545692
 20
2022.482558850012
 10
1422.632670506932
 20
2022.482558850012
 10
1424.179699585979
 20
2022.482558850012
 10
1425.72177486632
 20
2022.482558850012
 10
1427.256429356465
 20
2022.482558850012
 10
1428.781207936608
 20
2022.482558850012
 10
1430.293671286286
 20
2022.482558850012
 10
1431.791399786784
 20
2022.482558850012
 10
1433.271997391998
 20
2022.482558850012
 10
1434.733095461604
 20
2022.482558850012
 10
1436.172356550374
 20
2022.482558850012
 10
1437.587478147594
 20
2022.482558850012
 10
1438.976196360583
 20
2022.482558850012
 10
1440.336289536446
 20
2022.482558850012
 10
1441.665581816238
 20
2022.482558850012
 10
1442.961946615879
 20
2022.482558850012
 10
1444.223310028233
 20
2022.482558850012
 10
1445.447654140917
 20
2022.482558850012
 10
1446.633020264529
 20
2022.482558850012
 10
1447.777512066136
 20
2022.482558850012
 10
1448.879298603002
 20
2022.482558850012
 10
1449.936617251702
 20
2022.482558850012
 10
1450.947776527947
 20
2022.482558850011
 10
1451.9111587926
 20
2022.482558850011
 10
1452.825222839545
 20
2022.482558850011
 10
1453.688506361298
 20
2022.482558850011
 10
1454.495248708203
 20
2022.482558850011
  0
LINE
  5
2E7
330
232
100
AcDbEntity
  8
P-SANR-FIXT
100
AcDbLine
 10
1421.08316254569
 20
1919.48255885001
 30
0.0
 11
1391.58316254569
 21
1919.48255885001
 31
0.0
  0
LINE
  5
2E8
330
232
100
AcDbEntity
  8
P-SANR-FIXT
100
AcDbLine
 10
1450.58316254569
 20
1919.48255885001
 30
0.0
 11
1421.08316254569
 21
1919.48255885001
 31
0.0
  0
LINE
  5
2E9
330
232
100
AcDbEntity
  8
P-SANR-FIXT
100
AcDbLine
 10
1421.08316254569
 20
1923.982558850011
 30
0.0
 11
1391.58316254569
 21
1923.982558850011
 31
0.0
  0
LINE
  5
2EA
330
232
100
AcDbEntity
  8
P-SANR-FIXT
100
AcDbLine
 10
1450.58316254569
 20
1923.982558850011
 30
0.0
 11
1421.08316254569
 21
1923.982558850011
 31
0.0
  0
LINE
  5
2EB
330
232
100
AcDbEntity
  8
P-SANR-FIXT
100
AcDbLine
 10
1421.08316254569
 20
1924.535183859785
 30
0.0
 11
1392.135787555466
 21
1924.535183859785
 31
0.0
  0
LINE
  5
2EC
330
232
100
AcDbEntity
  8
P-SANR-FIXT
100
AcDbLine
 10
1421.08316254569
 20
1961.596859217789
 30
0.0
 11
1392.135787555466
 21
1961.59685921779
 31
0.0
  0
LINE
  5
2ED
330
232
100
AcDbEntity
  8
P-SANR-FIXT
100
AcDbLine
 10
1450.030537535915
 20
1924.535183859785
 30
0.0
 11
1421.08316254569
 21
1924.535183859785
 31
0.0
  0
LINE
  5
2EE
330
232
100
AcDbEntity
  8
P-SANR-FIXT
100
AcDbLine
 10
1450.030537535915
 20
1961.59685921779
 30
0.0
 11
1421.08316254569
 21
1961.596859217789
 31
0.0
  0
LINE
  5
2EF
330
232
100
AcDbEntity
  8
P-SANR-FIXT
100
AcDbLine
 10
1397.672587140535
 20
2030.982558850011
 30
0.0
 11
1397.726592728991
 21
2030.982558850011
 31
0.0
  0
LINE
  5
2F0
330
232
100
AcDbEntity
  8
P-SANR-FIXT
100
AcDbLine
 10
1397.9076839455
 20
2030.982558850011
 30
0.0
 11
1398.046815877282
 21
2030.982558850011
 31
0.0
  0
LINE
  5
2F1
330
232
100
AcDbEntity
  8
P-SANR-FIXT
100
AcDbLine
 10
1398.312022450151
 20
2030.982558850011
 30
0.0
 11
1398.526143182215
 21
2030.982558850011
 31
0.0
  0
LINE
  5
2F2
330
232
100
AcDbEntity
  8
P-SANR-FIXT
100
AcDbLine
 10
1398.875573626978
 20
2030.982558850011
 30
0.0
 11
1399.160468424099
 21
2030.982558850011
 31
0.0
  0
LINE
  5
2F3
330
232
100
AcDbEntity
  8
P-SANR-FIXT
100
AcDbLine
 10
1399.784929550329
 20
2030.982558850011
 30
0.0
 11
1400.125781416483
 21
2030.982558850011
 31
0.0
  0
LINE
  5
2F4
330
232
100
AcDbEntity
  8
P-SANR-FIXT
100
AcDbLine
 10
1400.731565556757
 20
2030.982558850011
 30
0.0
 11
1401.03066373638
 21
2030.982558850011
 31
0.0
  0
LINE
  5
2F5
330
232
100
AcDbEntity
  8
P-SANR-FIXT
100
AcDbLine
 10
1402.060227613272
 20
2030.982558850011
 30
0.0
 11
1403.081118132395
 21
2030.982558850011
 31
0.0
  0
LINE
  5
2F6
330
232
100
AcDbEntity
  8
P-SANR-FIXT
100
AcDbLine
 10
1403.207854660639
 20
2030.982558850011
 30
0.0
 11
1405.815593663983
 21
2030.982558850011
 31
0.0
  0
LINE
  5
2F7
330
232
100
AcDbEntity
  8
P-SANR-FIXT
100
AcDbLine
 10
1405.977653718057
 20
2030.982558850011
 30
0.0
 11
1407.261423060147
 21
2030.982558850011
 31
0.0
  0
LINE
  5
2F8
330
232
100
AcDbEntity
  8
P-SANR-FIXT
100
AcDbLine
 10
1407.604116291441
 20
2030.982558850011
 30
0.0
 11
1408.794332548702
 21
2030.982558850011
 31
0.0
  0
LINE
  5
2F9
330
232
100
AcDbEntity
  8
P-SANR-FIXT
100
AcDbLine
 10
1409.333162545691
 20
2030.982558850011
 30
0.0
 11
1410.404480187074
 21
2030.982558850011
 31
0.0
  0
LINE
  5
2FA
330
232
100
AcDbEntity
  8
P-SANR-FIXT
100
AcDbLine
 10
1411.151633394784
 20
2030.982558850011
 30
0.0
 11
1411.85469699834
 21
2030.982558850011
 31
0.0
  0
LINE
  5
2FB
330
232
100
AcDbEntity
  8
P-SANR-FIXT
100
AcDbLine
 10
1412.081540467015
 20
2030.982558850011
 30
0.0
 11
1413.045689177537
 21
2030.982558850011
 31
0.0
  0
LINE
  5
2FC
330
232
100
AcDbEntity
  8
P-SANR-FIXT
100
AcDbLine
 10
1413.814763277329
 20
2030.982558850011
 30
0.0
 11
1417.002430370518
 21
2030.982558850011
 31
0.0
  0
LINE
  5
2FD
330
232
100
AcDbEntity
  8
P-SANR-FIXT
100
AcDbLine
 10
1417.404967351721
 20
2030.982558850011
 30
0.0
 11
1421.083162545691
 21
2030.982558850011
 31
0.0
  0
LINE
  5
2FE
330
232
100
AcDbEntity
  8
P-SANR-FIXT
100
AcDbLine
 10
1421.083162545691
 20
2030.982558850011
 30
0.0
 11
1422.92739527762
 21
2030.982558850011
 31
0.0
  0
LINE
  5
2FF
330
232
100
AcDbEntity
  8
P-SANR-FIXT
100
AcDbLine
 10
1423.131322500261
 20
2030.982558850011
 30
0.0
 11
1424.76135773966
 21
2030.982558850011
 31
0.0
  0
LINE
  5
300
330
232
100
AcDbEntity
  8
P-SANR-FIXT
100
AcDbLine
 10
1425.163894720864
 20
2030.982558850011
 30
0.0
 11
1426.573286148964
 21
2030.982558850011
 31
0.0
  0
LINE
  5
301
330
232
100
AcDbEntity
  8
P-SANR-FIXT
100
AcDbLine
 10
1427.1654101056
 20
2030.982558850011
 30
0.0
 11
1428.351561814053
 21
2030.982558850011
 31
0.0
  0
LINE
  5
302
330
232
100
AcDbEntity
  8
P-SANR-FIXT
100
AcDbLine
 10
1430.084784624366
 20
2030.982558850011
 30
0.0
 11
1431.47684867651
 21
2030.982558850011
 31
0.0
  0
LINE
  5
303
330
232
100
AcDbEntity
  8
P-SANR-FIXT
100
AcDbLine
 10
1431.761844904307
 20
2030.982558850011
 30
0.0
 11
1432.833162545691
 21
2030.982558850011
 31
0.0
  0
LINE
  5
304
330
232
100
AcDbEntity
  8
P-SANR-FIXT
100
AcDbLine
 10
1433.371992542679
 20
2030.982558850011
 30
0.0
 11
1434.56220879994
 21
2030.982558850011
 31
0.0
  0
LINE
  5
305
330
232
100
AcDbEntity
  8
P-SANR-FIXT
100
AcDbLine
 10
1434.904902031234
 20
2030.982558850011
 30
0.0
 11
1436.188671373324
 21
2030.982558850011
 31
0.0
  0
LINE
  5
306
330
232
100
AcDbEntity
  8
P-SANR-FIXT
100
AcDbLine
 10
1436.350731427398
 20
2030.982558850011
 30
0.0
 11
1438.958470430743
 21
2030.982558850011
 31
0.0
  0
LINE
  5
307
330
232
100
AcDbEntity
  8
P-SANR-FIXT
100
AcDbLine
 10
1439.085206958987
 20
2030.982558850011
 30
0.0
 11
1440.10609747811
 21
2030.982558850011
 31
0.0
  0
LINE
  5
308
330
232
100
AcDbEntity
  8
P-SANR-FIXT
100
AcDbLine
 10
1441.135661355002
 20
2030.982558850011
 30
0.0
 11
1441.434759534625
 21
2030.982558850011
 31
0.0
  0
LINE
  5
309
330
232
100
AcDbEntity
  8
P-SANR-FIXT
100
AcDbLine
 10
1442.040543674899
 20
2030.982558850011
 30
0.0
 11
1442.381395541052
 21
2030.982558850011
 31
0.0
  0
LINE
  5
30A
330
232
100
AcDbEntity
  8
P-SANR-FIXT
100
AcDbLine
 10
1443.005856667284
 20
2030.982558850011
 30
0.0
 11
1443.241310940936
 21
2030.982558850011
 31
0.0
  0
LINE
  5
30B
330
232
100
AcDbEntity
  8
P-SANR-FIXT
100
AcDbLine
 10
1443.640181909169
 20
2030.982558850011
 30
0.0
 11
1443.85430264123
 21
2030.982558850011
 31
0.0
  0
LINE
  5
30C
330
232
100
AcDbEntity
  8
P-SANR-FIXT
100
AcDbLine
 10
1444.119509214098
 20
2030.982558850011
 30
0.0
 11
1444.258641145882
 21
2030.982558850011
 31
0.0
  0
LINE
  5
30D
330
232
100
AcDbEntity
  8
P-SANR-FIXT
100
AcDbLine
 10
1444.439732362392
 20
2030.982558850011
 30
0.0
 11
1444.493737950847
 21
2030.982558850011
 31
0.0
  0
LINE
  5
30E
330
232
100
AcDbEntity
  8
P-SANR-FIXT
100
AcDbLine
 10
1421.08316254569
 20
2030.482558850011
 30
0.0
 11
1397.083162545691
 21
2030.482558850011
 31
0.0
  0
LINE
  5
30F
330
232
100
AcDbEntity
  8
P-SANR-FIXT
100
AcDbLine
 10
1445.083162545691
 20
2030.482558850011
 30
0.0
 11
1421.083162545691
 21
2030.482558850011
 31
0.0
  0
SPLINE
  5
310
330
232
100
AcDbEntity
  8
P-SANR-FIXT
100
AcDbSpline
210
0.0
220
0.0
230
1.0
 70
     8
 71
     3
 72
    15
 73
    11
 74
     0
 42
0.000000001
 43
0.0000000001
 40
-1.0
 40
-1.0
 40
-1.0
 40
-1.0
 40
-0.7857142857142857
 40
-0.5714285714285714
 40
-0.4285714285714286
 40
-0.3571428571428571
 40
-0.2857142857142857
 40
-0.2142857142857143
 40
-0.1428571428571428
 40
0.0
 40
0.0
 40
0.0
 40
0.0
 10
1386.550178174664
 20
2015.004634684243
 30
0.0
 10
1386.041673145196
 20
2010.579069076774
 30
0.0
 10
1385.549053647299
 20
2001.536170515768
 30
0.0
 10
1386.418599992782
 20
1989.426372427364
 30
0.0
 10
1387.875118835904
 20
1981.050803120482
 30
0.0
 10
1389.059935695647
 20
1975.907864617014
 30
0.0
 10
1390.013682498882
 20
1972.342623992473
 30
0.0
 10
1390.994606167462
 20
1969.098675644596
 30
0.0
 10
1392.268909596414
 20
1965.295684093029
 30
0.0
 10
1393.058443909685
 20
1963.225296544916
 30
0.0
 10
1393.493515409194
 20
1962.121622380044
 30
0.0
  0
LINE
  5
311
330
232
100
AcDbEntity
  8
P-SANR-FIXT
100
AcDbLine
 10
1393.493515409195
 20
1962.121622380045
 30
0.0
 11
1391.435089501254
 21
1962.121622380045
 31
0.0
  0
LINE
  5
312
330
232
100
AcDbEntity
  8
P-SANR-FIXT
100
AcDbLine
 10
1450.731235590127
 20
1962.121622380045
 30
0.0
 11
1448.67280968219
 21
1962.121622380045
 31
0.0
  0
SPLINE
  5
313
330
232
100
AcDbEntity
  8
P-SANR-FIXT
100
AcDbSpline
210
0.0
220
0.0
230
1.0
 70
     8
 71
     3
 72
    18
 73
    14
 74
     0
 42
0.000000001
 43
0.0000000001
 40
-1.0
 40
-1.0
 40
-1.0
 40
-1.0
 40
-0.8928571428571427
 40
-0.8392857142857142
 40
-0.7857142857142857
 40
-0.7321428571428572
 40
-0.7053571428571429
 40
-0.6785714285714287
 40
-0.5714285714285714
 40
-0.4285714285714286
 40
-0.2857142857142857
 40
-0.1428571428571428
 40
0.0
 40
0.0
 40
0.0
 40
0.0
 10
1448.672809682188
 20
1962.121622380045
 30
0.0
 10
1448.999113306818
 20
1962.949378003696
 30
0.0
 10
1449.571361583979
 20
1964.44386763077
 30
0.0
 10
1450.450759924366
 20
1966.939926735669
 30
0.0
 10
1451.173155273605
 20
1969.125577796884
 30
0.0
 10
1451.788966396916
 20
1971.138863489916
 30
0.0
 10
1452.267659417358
 20
1972.810253704102
 30
0.0
 10
1452.985490357089
 20
1975.43542120733
 30
0.0
 10
1454.171211332192
 20
1980.355468726287
 30
0.0
 10
1455.503135164045
 20
1988.033266103781
 30
0.0
 10
1456.323676477595
 20
1996.957537103162
 30
0.0
 10
1456.399075462772
 20
2006.103327509431
 30
0.0
 10
1455.955150269694
 20
2012.054257612597
 30
0.0
 10
1455.616146916716
 20
2015.004634684244
 30
0.0
  0
SPLINE
  5
314
330
232
100
AcDbEntity
  8
P-SANR-FIXT
100
AcDbSpline
210
0.0
220
0.0
230
1.0
 70
     8
 71
     3
 72
    26
 73
    22
 74
     0
 42
0.000000001
 43
0.0000000001
 40
-1.0
 40
-1.0
 40
-1.0
 40
-1.0
 40
-0.85
 40
-0.8125
 40
-0.775
 40
-0.7
 40
-0.625
 40
-0.60625
 40
-0.5875
 40
-0.55
 40
-0.475
 40
-0.4375
 40
-0.4
 40
-0.375
 40
-0.35
 40
-0.3
 40
-0.25
 40
-0.2
 40
-0.15
 40
-0.1
 40
0.0
 40
0.0
 40
0.0
 40
0.0
 10
1387.67107638318
 20
2022.48255885001
 30
0.0
 10
1387.673871089917
 20
2022.497645015816
 30
0.0
 10
1387.666882273785
 20
2022.460114732329
 30
0.0
 10
1387.642871789794
 20
2022.329753938592
 30
0.0
 10
1387.622960816338
 20
2022.221203741763
 30
0.0
 10
1387.592925815317
 20
2022.056462269896
 30
0.0
 10
1387.554981759557
 20
2021.845853573718
 30
0.0
 10
1387.523654607739
 20
2021.669800209101
 30
0.0
 10
1387.501113894623
 20
2021.542490063231
 30
0.0
 10
1387.459275526094
 20
2021.304343281178
 30
0.0
 10
1387.404323657141
 20
2020.986404067201
 30
0.0
 10
1387.34065510402
 20
2020.609359561468
 30
0.0
 10
1387.293921645257
 20
2020.327873007974
 30
0.0
 10
1387.249988755755
 20
2020.058908097247
 30
0.0
 10
1387.197535100536
 20
2019.733294203191
 30
0.0
 10
1387.127919898555
 20
2019.291658452743
 30
0.0
 10
1387.039021387013
 20
2018.708248766849
 30
0.0
 10
1386.945934730031
 20
2018.073480674762
 30
0.0
 10
1386.849589201699
 20
2017.387554371302
 30
0.0
 10
1386.717796462631
 20
2016.402533152213
 30
0.0
 10
1386.616855535616
 20
2015.584933832379
 30
0.0
 10
1386.550178174664
 20
2015.004634684243
 30
0.0
  0
SPLINE
  5
315
330
232
100
AcDbEntity
  8
P-SANR-FIXT
100
AcDbSpline
210
0.0
220
0.0
230
1.0
 70
     8
 71
     3
 72
    28
 73
    24
 74
     0
 42
0.000000001
 43
0.0000000001
 40
-1.0
 40
-1.0
 40
-1.0
 40
-1.0
 40
-0.9
 40
-0.85
 40
-0.825
 40
-0.8
 40
-0.75
 40
-0.7000000000000001
 40
-0.6500000000000002
 40
-0.6250000000000001
 40
-0.6000000000000001
 40
-0.5750000000000001
 40
-0.55
 40
-0.5
 40
-0.45
 40
-0.4
 40
-0.375
 40
-0.35
 40
-0.3
 40
-0.25
 40
-0.2
 40
-0.1
 40
0.0
 40
0.0
 40
0.0
 40
0.0
 10
1455.616146916716
 20
2015.004634684244
 30
0.0
 10
1455.549469555764
 20
2015.58493383238
 30
0.0
 10
1455.448522505895
 20
2016.402573655373
 30
0.0
 10
1455.333218145869
 20
2017.264372714704
 30
0.0
 10
1455.268548838856
 20
2017.730612030403
 30
0.0
 10
1455.204884157766
 20
2018.179220846288
 30
0.0
 10
1455.127300984434
 20
2018.708266824392
 30
0.0
 10
1455.038405641477
 20
2019.29165524667
 30
0.0
 10
1454.968790836726
 20
2019.733289307806
 30
0.0
 10
1454.916334723307
 20
2020.058917550155
 30
0.0
 10
1454.878685791133
 20
2020.289412945979
 30
0.0
 10
1454.843084886015
 20
2020.504586212177
 30
0.0
 10
1454.798548144195
 20
2020.770610581221
 30
0.0
 10
1454.747973697591
 20
2021.06768440677
 30
0.0
 10
1454.694714878711
 20
2021.374902867874
 30
0.0
 10
1454.655210444051
 20
2021.599258564352
 30
0.0
 10
1454.626819912002
 20
2021.758928413373
 30
0.0
 10
1454.601533643033
 20
2021.900280068775
 30
0.0
 10
1454.574736674158
 20
2022.048831143599
 30
0.0
 10
1454.54910599606
 20
2022.189757362506
 30
0.0
 10
1454.520748208599
 20
2022.344646727451
 30
0.0
 10
1454.496969688996
 20
2022.473321659814
 30
0.0
 10
1454.493385570375
 20
2022.492616293882
 30
0.0
 10
1454.4952487082
 20
2022.482558850012
 30
0.0
  0
ENDBLK
  5
317
330
232
100
AcDbEntity
  8
0
100
AcDbBlockEnd
  0
ENDSEC
  0
SECTION
  2
ENTITIES
  0
INSERT
  5
1AD
330
71
100
AcDbEntity
  8
P-SANR-FIXT
100
AcDbBlockReference
  2
Automatic flow rate regulator valve_Caleffi_121 DN15 - DN20-954632-Est - Idraulica
 10
0.0
 20
0.0
 30
0.0
1001
REVIT
1002
{
1070
     1
1000
863131
1002
}
1002
{
1070
     5
1000
954632
1002
}
1002
{
1070
     2
1000
-2001160
1002
}
  0
INSERT
  5
231
330
71
100
AcDbEntity
  8
P-SANR-FIXT
100
AcDbBlockReference
  2
Automatic flow rate regulator valve_Caleffi_121 DN15 - DN20-V1-Est - Idraulica
 10
0.0
 20
0.0
 30
0.0
1001
REVIT
1002
{
1070
     1
1000
863152
1002
}
1002
{
1070
     5
1000
954632
1002
}
1002
{
1070
     2
1000
-2001160
1002
}
  0
INSERT
  5
318
330
71
100
AcDbEntity
  8
P-SANR-FIXT
100
AcDbBlockReference
  2
Automatic flow rate regulator valve_Caleffi_121 DN15 - DN20-V2-Est - Idraulica
 10
0.0
 20
0.0
 30
0.0
1001
REVIT
1002
{
1070
     1
1000
863172
1002
}
1002
{
1070
     5
1000
954632
1002
}
1002
{
1070
     2
1000
-2001160
1002
}
  0
ENDSEC
  0
SECTION
  2
OBJECTS
  0
DICTIONARY
  5
C
330
0
100
AcDbDictionary
281
     1
  3
ACAD_CIP_PREVIOUS_PRODUCT_INFO
350
7A
  3
ACAD_COLOR
350
63
  3
ACAD_DETAILVIEWSTYLE
350
6B
  3
ACAD_GROUP
350
D
  3
ACAD_IMAGE_VARS
350
7B
  3
ACAD_LAYOUT
350
62
  3
ACAD_MATERIAL
350
10
  3
ACAD_MLEADERSTYLE
350
66
  3
ACAD_MLINESTYLE
350
5F
  3
ACAD_PLOTSETTINGS
350
61
  3
ACAD_PLOTSTYLENAME
350
E
  3
ACAD_SCALELIST
350
42
  3
ACAD_SECTIONVIEWSTYLE
350
68
  3
ACAD_TABLESTYLE
350
64
  3
ACAD_VISUALSTYLE
350
29
  3
ACDB_RECOMPOSE_DATA
350
322
  3
AcDbVariableDictionary
350
7C
  3
REVIT_DICTIONARY
350
31A
  0
DICTIONARY
  5
31E
330
71
100
AcDbDictionary
280
     1
281
     1
  3
ACAD_SORTENTS
360
31F
  0
XRECORD
  5
7A
102
{ACAD_REACTORS
330
C
102
}
330
C
100
AcDbXrecord
280
     1
300
RVT
300
2013
300
RVT2013
  0
DICTIONARY
  5
63
102
{ACAD_REACTORS
330
C
102
}
330
C
100
AcDbDictionary
281
     1
  0
DICTIONARY
  5
6B
102
{ACAD_REACTORS
330
C
102
}
330
C
100
AcDbDictionary
281
     1
  3
Imperial24
350
6C
  0
DICTIONARY
  5
D
102
{ACAD_REACTORS
330
C
102
}
330
C
100
AcDbDictionary
281
     1
  0
RASTERVARIABLES
  5
7B
102
{ACAD_REACTORS
330
C
102
}
330
C
100
AcDbRasterVariables
 90
        0
 70
     0
 71
     1
 72
     1
  0
DICTIONARY
  5
62
102
{ACAD_REACTORS
330
C
102
}
330
C
100
AcDbDictionary
281
     1
  3
Layout1
350
70
  3
Layout2
350
78
  3
Model
350
74
  0
DICTIONARY
  5
10
102
{ACAD_REACTORS
330
C
102
}
330
C
100
AcDbDictionary
281
     1
  3
ByBlock
350
19
  3
ByLayer
350
11
  3
Global
350
21
  0
DICTIONARY
  5
66
102
{ACAD_REACTORS
330
C
102
}
330
C
100
AcDbDictionary
281
     1
  3
Standard
350
67
  0
DICTIONARY
  5
5F
102
{ACAD_REACTORS
330
C
102
}
330
C
100
AcDbDictionary
281
     1
  3
Standard
350
60
  0
DICTIONARY
  5
61
102
{ACAD_REACTORS
330
C
102
}
330
C
100
AcDbDictionary
281
     1
  0
ACDBDICTIONARYWDFLT
  5
E
102
{ACAD_REACTORS
330
C
102
}
330
C
100
AcDbDictionary
281
     1
  3
Normal
350
F
100
AcDbDictionaryWithDefault
340
F
  0
DICTIONARY
  5
42
102
{ACAD_REACTORS
330
C
102
}
330
C
100
AcDbDictionary
281
     1
  3
A0
350
43
  3
A1
350
44
  3
A2
350
45
  3
A3
350
46
  3
A4
350
47
  3
A5
350
48
  3
A6
350
49
  3
A7
350
4A
  3
A8
350
4B
  3
A9
350
4C
  3
B0
350
4D
  3
B1
350
4E
  3
B2
350
4F
  3
B3
350
50
  3
B4
350
51
  3
B5
350
52
  3
B6
350
53
  0
DICTIONARY
  5
68
102
{ACAD_REACTORS
330
C
102
}
330
C
100
AcDbDictionary
281
     1
  3
Imperial24
350
6A
  0
DICTIONARY
  5
64
102
{ACAD_REACTORS
330
C
102
}
330
C
100
AcDbDictionary
281
     1
  3
Standard
350
65
  0
DICTIONARY
  5
29
102
{ACAD_REACTORS
330
C
102
}
330
C
100
AcDbDictionary
281
     1
  3
2dWireframe
350
2F
  3
Basic
350
2E
  3
Brighten
350
35
  3
ColorChange
350
39
  3
Conceptual
350
32
  3
Dim
350
34
  3
EdgeColorOff
350
41
  3
Facepattern
350
38
  3
Flat
350
2A
  3
FlatWithEdges
350
2B
  3
Gouraud
350
2C
  3
GouraudWithEdges
350
2D
  3
Hidden
350
31
  3
JitterOff
350
3F
  3
Linepattern
350
37
  3
OverhangOff
350
40
  3
Realistic
350
33
  3
Shaded
350
3E
  3
Shaded with edges
350
3D
  3
Shades of Gray
350
3A
  3
Sketchy
350
3B
  3
Thicken
350
36
  3
Wireframe
350
30
  3
X-Ray
350
3C
  0
XRECORD
  5
322
102
{ACAD_REACTORS
330
C
102
}
330
C
100
AcDbXrecord
280
     1
 90
        1
330
65
  0
DICTIONARY
  5
7C
102
{ACAD_REACTORS
330
C
102
}
330
C
100
AcDbDictionary
281
     1
  3
CANNOSCALE
350
81
  3
CMLEADERSTYLE
350
7E
  3
CTABLESTYLE
350
7D
  3
CVIEWDETAILSTYLE
350
7F
  3
CVIEWSECTIONSTYLE
350
80
  0
DICTIONARY
  5
31A
102
{ACAD_REACTORS
330
C
102
}
330
C
100
AcDbDictionary
281
     1
  3
DRAWING_TOOL
350
31D
  3
REVIT_CATEGORY_MAPPING
350
31C
  3
REVIT_TYPE_MAPPING
350
31B
  0
SORTENTSTABLE
  5
31F
102
{ACAD_REACTORS
330
31E
102
}
330
31E
100
AcDbSortentsTable
330
71
  0
ACDBDETAILVIEWSTYLE
  5
6C
102
{ACAD_REACTORS
330
6B
102
}
330
6B
100
AcDbModelDocViewStyle
 70
     0
  3
Imperial24
290
     1
100
AcDbDetailViewStyle
 70
     0
 71
     0
 90
        3
 71
     1
340
55
 62
   256
 40
0.24
340
0
 62
   256
 40
0.24
300

 40
0.36
280
     3
 71
     2
340
5D
 90
       25
 62
   256
 71
     3
340
55
 62
   256
 40
0.24
 90
        1
 40
0.75
 90
        1
300
%<\AcVar ViewType \f "%tc1">% %<\AcVar ViewDetailId>%\PSCALA %<\AcVar ViewScale \f "%sn">%
 71
     4
340
5D
 90
       25
 62
   256
340
5D
 90
       25
 62
   256
280
     0
  0
LAYOUT
  5
70
102
{ACAD_REACTORS
330
62
102
}
330
62
100
AcDbPlotSettings
  1

  2

  4

  6

 40
0.0
 41
0.0
 42
0.0
 43
0.0
 44
0.0
 45
0.0
 46
0.0
 47
0.0
 48
0.0
 49
0.0
140
0.0
141
0.0
142
1.0
143
1.0
 70
   688
 72
     0
 73
     0
 74
     5
  7

 75
    16
147
1.0
 76
     0
 77
     2
 78
   300
148
0.0
149
0.0
100
AcDbLayout
  1
Layout1
 70
     1
 71
     1
 10
0.0
 20
0.0
 11
12.0
 21
9.0
 12
0.0
 22
0.0
 32
0.0
 14
0.0
 24
0.0
 34
0.0
 15
0.0
 25
0.0
 35
0.0
146
0.0
 13
0.0
 23
0.0
 33
0.0
 16
1.0
 26
0.0
 36
0.0
 17
0.0
 27
1.0
 37
0.0
 76
     0
330
6D
  0
LAYOUT
  5
78
102
{ACAD_REACTORS
330
62
102
}
330
62
100
AcDbPlotSettings
  1

  2

  4

  6

 40
0.0
 41
0.0
 42
0.0
 43
0.0
 44
0.0
 45
0.0
 46
0.0
 47
0.0
 48
0.0
 49
0.0
140
0.0
141
0.0
142
1.0
143
1.0
 70
   688
 72
     0
 73
     0
 74
     5
  7

 75
    16
147
1.0
 76
     0
 77
     2
 78
   300
148
0.0
149
0.0
100
AcDbLayout
  1
Layout2
 70
     1
 71
     2
 10
0.0
 20
0.0
 11
12.0
 21
9.0
 12
0.0
 22
0.0
 32
0.0
 14
0.0
 24
0.0
 34
0.0
 15
0.0
 25
0.0
 35
0.0
146
0.0
 13
0.0
 23
0.0
 33
0.0
 16
1.0
 26
0.0
 36
0.0
 17
0.0
 27
1.0
 37
0.0
 76
     0
330
75
  0
LAYOUT
  5
74
102
{ACAD_REACTORS
330
62
102
}
330
62
100
AcDbPlotSettings
  1

  2

  4

  6

 40
0.0
 41
0.0
 42
0.0
 43
0.0
 44
0.0
 45
0.0
 46
0.0
 47
0.0
 48
0.0
 49
0.0
140
0.0
141
0.0
142
1.0
143
1.0
 70
  1712
 72
     0
 73
     0
 74
     0
  7

 75
     0
147
1.0
 76
     0
 77
     2
 78
   300
148
0.0
149
0.0
100
AcDbLayout
  1
Model
 70
     1
 71
     0
 10
0.0
 20
0.0
 11
12.0
 21
9.0
 12
0.0
 22
0.0
 32
0.0
 14
0.0
 24
0.0
 34
0.0
 15
0.0
 25
0.0
 35
0.0
146
0.0
 13
0.0
 23
0.0
 33
0.0
 16
1.0
 26
0.0
 36
0.0
 17
0.0
 27
1.0
 37
0.0
 76
     0
330
71
  0
MATERIAL
  5
19
102
{ACAD_XDICTIONARY
360
1A
102
}
102
{ACAD_REACTORS
330
10
102
}
330
10
100
AcDbMaterial
  1
ByBlock
 72
     0
 43
0.0208333333333333
 43
0.0
 43
0.0
 43
0.0
 43
0.0
 43
0.0208333333333333
 43
0.0
 43
0.0
 43
0.0
 43
0.0
 43
1.0
 43
0.0
 43
0.0
 43
0.0
 43
0.0
 43
1.0
 77
     0
 47
0.0208333333333333
 47
0.0
 47
0.0
 47
0.0
 47
0.0
 47
0.0208333333333333
 47
0.0
 47
0.0
 47
0.0
 47
0.0
 47
1.0
 47
0.0
 47
0.0
 47
0.0
 47
0.0
 47
1.0
171
     0
 49
0.0208333333333333
 49
0.0
 49
0.0
 49
0.0
 49
0.0
 49
0.0208333333333333
 49
0.0
 49
0.0
 49
0.0
 49
0.0
 49
1.0
 49
0.0
 49
0.0
 49
0.0
 49
0.0
 49
1.0
175
     0
142
0.0208333333333333
142
0.0
142
0.0
142
0.0
142
0.0
142
0.0208333333333333
142
0.0
142
0.0
142
0.0
142
0.0
142
1.0
142
0.0
142
0.0
142
0.0
142
0.0
142
1.0
179
     0
144
0.0208333333333333
144
0.0
144
0.0
144
0.0
144
0.0
144
0.0208333333333333
144
0.0
144
0.0
144
0.0
144
0.0
144
1.0
144
0.0
144
0.0
144
0.0
144
0.0
144
1.0
147
0.0208333333333333
147
0.0
147
0.0
147
0.0
147
0.0
147
0.0208333333333333
147
0.0
147
0.0
147
0.0
147
0.0
147
1.0
147
0.0
147
0.0
147
0.0
147
0.0
147
1.0
  0
MATERIAL
  5
11
102
{ACAD_XDICTIONARY
360
12
102
}
102
{ACAD_REACTORS
330
10
102
}
330
10
100
AcDbMaterial
  1
ByLayer
 72
     0
 43
0.0208333333333333
 43
0.0
 43
0.0
 43
0.0
 43
0.0
 43
0.0208333333333333
 43
0.0
 43
0.0
 43
0.0
 43
0.0
 43
1.0
 43
0.0
 43
0.0
 43
0.0
 43
0.0
 43
1.0
 77
     0
 47
0.0208333333333333
 47
0.0
 47
0.0
 47
0.0
 47
0.0
 47
0.0208333333333333
 47
0.0
 47
0.0
 47
0.0
 47
0.0
 47
1.0
 47
0.0
 47
0.0
 47
0.0
 47
0.0
 47
1.0
171
     0
 49
0.0208333333333333
 49
0.0
 49
0.0
 49
0.0
 49
0.0
 49
0.0208333333333333
 49
0.0
 49
0.0
 49
0.0
 49
0.0
 49
1.0
 49
0.0
 49
0.0
 49
0.0
 49
0.0
 49
1.0
175
     0
142
0.0208333333333333
142
0.0
142
0.0
142
0.0
142
0.0
142
0.0208333333333333
142
0.0
142
0.0
142
0.0
142
0.0
142
1.0
142
0.0
142
0.0
142
0.0
142
0.0
142
1.0
179
     0
144
0.0208333333333333
144
0.0
144
0.0
144
0.0
144
0.0
144
0.0208333333333333
144
0.0
144
0.0
144
0.0
144
0.0
144
1.0
144
0.0
144
0.0
144
0.0
144
0.0
144
1.0
147
0.0208333333333333
147
0.0
147
0.0
147
0.0
147
0.0
147
0.0208333333333333
147
0.0
147
0.0
147
0.0
147
0.0
147
1.0
147
0.0
147
0.0
147
0.0
147
0.0
147
1.0
  0
MATERIAL
  5
21
102
{ACAD_XDICTIONARY
360
22
102
}
102
{ACAD_REACTORS
330
10
102
}
330
10
100
AcDbMaterial
  1
Global
 72
     0
 43
0.0208333333333333
 43
0.0
 43
0.0
 43
0.0
 43
0.0
 43
0.0208333333333333
 43
0.0
 43
0.0
 43
0.0
 43
0.0
 43
1.0
 43
0.0
 43
0.0
 43
0.0
 43
0.0
 43
1.0
 77
     0
 47
0.0208333333333333
 47
0.0
 47
0.0
 47
0.0
 47
0.0
 47
0.0208333333333333
 47
0.0
 47
0.0
 47
0.0
 47
0.0
 47
1.0
 47
0.0
 47
0.0
 47
0.0
 47
0.0
 47
1.0
171
     0
 49
0.0208333333333333
 49
0.0
 49
0.0
 49
0.0
 49
0.0
 49
0.0208333333333333
 49
0.0
 49
0.0
 49
0.0
 49
0.0
 49
1.0
 49
0.0
 49
0.0
 49
0.0
 49
0.0
 49
1.0
175
     0
142
0.0208333333333333
142
0.0
142
0.0
142
0.0
142
0.0
142
0.0208333333333333
142
0.0
142
0.0
142
0.0
142
0.0
142
1.0
142
0.0
142
0.0
142
0.0
142
0.0
142
1.0
179
     0
144
0.0208333333333333
144
0.0
144
0.0
144
0.0
144
0.0
144
0.0208333333333333
144
0.0
144
0.0
144
0.0
144
0.0
144
1.0
144
0.0
144
0.0
144
0.0
144
0.0
144
1.0
147
0.0208333333333333
147
0.0
147
0.0
147
0.0
147
0.0
147
0.0208333333333333
147
0.0
147
0.0
147
0.0
147
0.0
147
1.0
147
0.0
147
0.0
147
0.0
147
0.0
147
1.0
  0
MLEADERSTYLE
  5
67
102
{ACAD_REACTORS
330
66
102
}
330
66
100
AcDbMLeaderStyle
179
     2
170
     2
171
     1
172
     0
 90
        2
 40
0.0
 41
0.0
173
     1
 91
-1056964608
340
5B
 92
       -2
290
     1
 42
0.09
291
     1
 43
0.36
  3
Standard
 44
0.18
300

342
55
174
     1
178
     6
175
     1
176
     0
 93
-1056964608
 45
0.18
292
     0
297
     0
 46
0.18
 94
-1056964608
 47
1.0
 49
1.0
140
1.0
293
     1
141
0.0
294
     1
177
     0
142
1.0
295
     1
296
     0
143
0.125
271
     0
272
     9
273
     9
298
     1
  0
MLINESTYLE
  5
60
102
{ACAD_REACTORS
330
5F
102
}
330
5F
100
AcDbMlineStyle
  2
STANDARD
 70
     0
  3

 62
   256
 51
90.0
 52
90.0
 71
     2
 49
0.5
 62
   256
  6
BYLAYER
 49
-0.5
 62
   256
  6
BYLAYER
  0
ACDBPLACEHOLDER
  5
F
102
{ACAD_REACTORS
330
E
102
}
330
E
  0
SCALE
  5
43
102
{ACAD_REACTORS
330
42
102
}
330
42
100
AcDbScale
 70
     0
300
1:1
140
1.0
141
1.0
290
     1
  0
SCALE
  5
44
102
{ACAD_REACTORS
330
42
102
}
330
42
100
AcDbScale
 70
     0
300
1/128" = 1'-0"
140
0.0078125
141
12.0
290
     0
  0
SCALE
  5
45
102
{ACAD_REACTORS
330
42
102
}
330
42
100
AcDbScale
 70
     0
300
1/64" = 1'-0"
140
0.015625
141
12.0
290
     0
  0
SCALE
  5
46
102
{ACAD_REACTORS
330
42
102
}
330
42
100
AcDbScale
 70
     0
300
1/32" = 1'-0"
140
0.03125
141
12.0
290
     0
  0
SCALE
  5
47
102
{ACAD_REACTORS
330
42
102
}
330
42
100
AcDbScale
 70
     0
300
1/16" = 1'-0"
140
0.0625
141
12.0
290
     0
  0
SCALE
  5
48
102
{ACAD_REACTORS
330
42
102
}
330
42
100
AcDbScale
 70
     0
300
3/32" = 1'-0"
140
0.09375
141
12.0
290
     0
  0
SCALE
  5
49
102
{ACAD_REACTORS
330
42
102
}
330
42
100
AcDbScale
 70
     0
300
1/8" = 1'-0"
140
0.125
141
12.0
290
     0
  0
SCALE
  5
4A
102
{ACAD_REACTORS
330
42
102
}
330
42
100
AcDbScale
 70
     0
300
3/16" = 1'-0"
140
0.1875
141
12.0
290
     0
  0
SCALE
  5
4B
102
{ACAD_REACTORS
330
42
102
}
330
42
100
AcDbScale
 70
     0
300
1/4" = 1'-0"
140
0.25
141
12.0
290
     0
  0
SCALE
  5
4C
102
{ACAD_REACTORS
330
42
102
}
330
42
100
AcDbScale
 70
     0
300
3/8" = 1'-0"
140
0.375
141
12.0
290
     0
  0
SCALE
  5
4D
102
{ACAD_REACTORS
330
42
102
}
330
42
100
AcDbScale
 70
     0
300
1/2" = 1'-0"
140
0.5
141
12.0
290
     0
  0
SCALE
  5
4E
102
{ACAD_REACTORS
330
42
102
}
330
42
100
AcDbScale
 70
     0
300
3/4" = 1'-0"
140
0.75
141
12.0
290
     0
  0
SCALE
  5
4F
102
{ACAD_REACTORS
330
42
102
}
330
42
100
AcDbScale
 70
     0
300
1" = 1'-0"
140
1.0
141
12.0
290
     0
  0
SCALE
  5
50
102
{ACAD_REACTORS
330
42
102
}
330
42
100
AcDbScale
 70
     0
300
1-1/2" = 1'-0"
140
1.5
141
12.0
290
     0
  0
SCALE
  5
51
102
{ACAD_REACTORS
330
42
102
}
330
42
100
AcDbScale
 70
     0
300
3" = 1'-0"
140
3.0
141
12.0
290
     0
  0
SCALE
  5
52
102
{ACAD_REACTORS
330
42
102
}
330
42
100
AcDbScale
 70
     0
300
6" = 1'-0"
140
6.0
141
12.0
290
     0
  0
SCALE
  5
53
102
{ACAD_REACTORS
330
42
102
}
330
42
100
AcDbScale
 70
     0
300
1'-0" = 1'-0"
140
12.0
141
12.0
290
     0
  0
ACDBSECTIONVIEWSTYLE
  5
6A
102
{ACAD_REACTORS
330
68
102
}
330
68
100
AcDbModelDocViewStyle
 70
     0
  3
Imperial24
290
     1
100
AcDbSectionViewStyle
 70
     0
 71
     0
 90
       78
 71
     1
340
55
 62
   256
 40
0.24
340
0
340
0
 62
   256
 40
0.24
300
I, O, Q, S, X, Z
 40
0.48
 90
        3
 40
0.18
 90
        1
 71
     2
340
69
 90
       25
 62
   256
340
5D
 90
       50
 62
   256
 40
0.24
 40
0.0
 40
0.24
 71
     3
340
55
 62
   256
 40
0.24
 90
        1
 40
0.75
 90
        1
300
%<\AcVar ViewType \f "%tc1">% %<\AcVar ViewSectionStartId>%-%<\AcVar ViewSectionEndId>%\PSCALA %<\AcVar ViewScale \f "%sn">%
 71
     4
 62
   256
 62
   257
300
ANSI31
 40
1.0
 90
        0
290
     0
290
     0
 90
        6
 40
0.0
 40
1.570796326794896
 40
0.2617993877991494
 40
1.308996938995747
 40
-0.2617993877991494
 40
1.832595714594046
  0
TABLESTYLE
  5
65
102
{ACAD_XDICTIONARY
360
320
102
}
102
{ACAD_REACTORS
330
64
102
}
330
64
100
AcDbTableStyle
280
     0
  3
Standard
 70
     0
 71
     0
 40
0.06
 41
0.06
280
     0
281
     0
  7
Standard
140
0.18
170
     2
 62
     0
 63
     7
283
     0
 90
      512
 91
        0
  1

274
    -2
284
     1
 64
     0
275
    -2
285
     1
 65
     0
276
    -2
286
     1
 66
     0
277
    -2
287
     1
 67
     0
278
    -2
288
     1
 68
     0
279
    -2
289
     1
 69
     0
  7
Standard
140
0.25
170
     5
 62
     0
 63
     7
283
     0
 90
      512
 91
        0
  1

274
    -2
284
     1
 64
     0
275
    -2
285
     1
 65
     0
276
    -2
286
     1
 66
     0
277
    -2
287
     1
 67
     0
278
    -2
288
     1
 68
     0
279
    -2
289
     1
 69
     0
  7
Standard
140
0.18
170
     5
 62
     0
 63
     7
283
     0
 90
      512
 91
        0
  1

274
    -2
284
     1
 64
     0
275
    -2
285
     1
 65
     0
276
    -2
286
     1
 66
     0
277
    -2
287
     1
 67
     0
278
    -2
288
     1
 68
     0
279
    -2
289
     1
 69
     0
  0
VISUALSTYLE
  5
2F
102
{ACAD_REACTORS
330
29
102
}
330
29
100
AcDbVisualStyle
  2
2dWireframe
 70
     4
177
     3
291
     0
 70
    58
 90
        0
176
     1
 90
        2
176
     1
 90
        0
176
     1
 90
        0
176
     1
 40
0.6
176
     1
 40
30.0
176
     1
 62
     7
420
 16777215
176
     1
 90
        1
176
     1
 90
        4
176
     1
 62
     7
176
     1
 62
   257
176
     1
 90
        1
176
     1
 90
        1
176
     1
 40
1.0
176
     1
 90
        0
176
     1
 62
   257
176
     1
 40
1.0
176
     1
 90
        1
176
     1
 90
        6
176
     1
 90
        2
176
     1
 62
     7
176
     1
 90
        5
176
     1
 90
        0
176
     1
 90
        0
176
     1
290
     0
176
     1
 90
        1
176
     1
 40
0.0
176
     1
 90
        0
176
     1
290
     1
176
     1
290
     1
176
     1
290
     0
176
     1
290
     0
176
     1
290
     0
176
     1
290
     0
176
     1
290
     0
176
     1
290
     0
176
     1
290
     0
176
     1
 90
       50
176
     1
 40
0.0
176
     1
 40
1.0
176
     1
 90
        0
176
     1
 62
    18
420
        0
176
     1
 90
       50
176
     1
 90
        3
176
     1
 62
     5
420
      255
176
     1
290
     0
176
     1
 90
       50
176
     1
 90
       50
176
     1
 90
       50
176
     1
290
     0
176
     1
 90
       50
176
     1
 62
   256
176
     0
 40
1.0
176
     0
 90
        2
176
     1
  1
strokes_ogs.tif
176
     1
290
     0
176
     1
 40
1.0
176
     1
 40
1.0
176
     1
  0
VISUALSTYLE
  5
2E
102
{ACAD_REACTORS
330
29
102
}
330
29
100
AcDbVisualStyle
  2
Basic
 70
     7
177
     3
291
     1
 70
    58
 90
        1
176
     1
 90
        0
176
     1
 90
        1
176
     1
 90
        0
176
     1
 40
0.6
176
     1
 40
30.0
176
     1
 62
     7
420
 16777215
176
     1
 90
        0
176
     1
 90
        4
176
     1
 62
     7
176
     1
 62
   257
176
     1
 90
        1
176
     1
 90
        1
176
     1
 40
1.0
176
     1
 90
        8
176
     1
 62
     7
176
     1
 40
1.0
176
     1
 90
        1
176
     1
 90
        6
176
     1
 90
        2
176
     1
 62
     7
176
     1
 90
        5
176
     1
 90
        0
176
     1
 90
        0
176
     1
290
     0
176
     1
 90
        1
176
     1
 40
0.0
176
     1
 90
        0
176
     1
290
     0
176
     1
290
     1
176
     1
290
     1
176
     1
290
     0
176
     1
290
     0
176
     1
290
     0
176
     1
290
     0
176
     1
290
     0
176
     1
290
     0
176
     1
 90
       50
176
     1
 40
0.0
176
     1
 40
1.0
176
     1
 90
        0
176
     1
 62
    18
420
        0
176
     1
 90
       50
176
     1
 90
        3
176
     1
 62
     5
420
      255
176
     1
290
     0
176
     1
 90
       50
176
     1
 90
       50
176
     1
 90
       50
176
     1
290
     0
176
     1
 90
       50
176
     1
 62
   256
176
     0
 40
1.0
176
     0
 90
        2
176
     1
  1
strokes_ogs.tif
176
     1
290
     0
176
     1
 40
1.0
176
     1
 40
1.0
176
     1
  0
VISUALSTYLE
  5
35
102
{ACAD_REACTORS
330
29
102
}
330
29
100
AcDbVisualStyle
  2
Brighten
 70
    12
177
     3
291
     1
 70
    58
 90
        2
176
     1
 90
        2
176
     1
 90
        0
176
     1
 90
        0
176
     1
 40
0.6
176
     1
 40
30.0
176
     1
 62
     7
420
 16777215
176
     1
 90
        1
176
     1
 90
        4
176
     1
 62
     7
176
     1
 62
   257
176
     1
 90
        1
176
     1
 90
        1
176
     1
 40
1.0
176
     1
 90
        8
176
     1
 62
     7
176
     1
 40
1.0
176
     1
 90
        1
176
     1
 90
        6
176
     1
 90
        2
176
     1
 62
     7
176
     1
 90
        5
176
     1
 90
        0
176
     1
 90
        0
176
     1
290
     0
176
     1
 90
        1
176
     1
 40
50.0
176
     1
 90
        0
176
     1
290
     0
176
     1
290
     1
176
     1
290
     1
176
     1
290
     0
176
     1
290
     0
176
     1
290
     0
176
     1
290
     0
176
     1
290
     0
176
     1
290
     0
176
     1
 90
       50
176
     1
 40
0.0
176
     1
 40
1.0
176
     1
 90
        0
176
     1
 62
    18
420
        0
176
     1
 90
       50
176
     1
 90
        3
176
     1
 62
     5
420
      255
176
     1
290
     0
176
     1
 90
       50
176
     1
 90
       50
176
     1
 90
       50
176
     1
290
     0
176
     1
 90
       50
176
     1
 62
   256
176
     0
 40
1.0
176
     0
 90
        2
176
     1
  1
strokes_ogs.tif
176
     1
290
     0
176
     1
 40
1.0
176
     1
 40
1.0
176
     1
  0
VISUALSTYLE
  5
39
102
{ACAD_REACTORS
330
29
102
}
330
29
100
AcDbVisualStyle
  2
ColorChange
 70
    16
177
     3
291
     1
 70
    58
 90
        2
176
     1
 90
        2
176
     1
 90
        3
176
     1
 90
        0
176
     1
 40
0.6
176
     1
 40
30.0
176
     1
 62
     8
420
  8421504
176
     1
 90
        1
176
     1
 90
        4
176
     1
 62
     7
176
     1
 62
   257
176
     1
 90
        1
176
     1
 90
        1
176
     1
 40
1.0
176
     1
 90
        8
176
     1
 62
     8
420
  8421504
176
     1
 40
1.0
176
     1
 90
        1
176
     1
 90
        6
176
     1
 90
        2
176
     1
 62
     7
176
     1
 90
        5
176
     1
 90
        0
176
     1
 90
        0
176
     1
290
     0
176
     1
 90
        1
176
     1
 40
0.0
176
     1
 90
        0
176
     1
290
     0
176
     1
290
     1
176
     1
290
     1
176
     1
290
     0
176
     1
290
     0
176
     1
290
     0
176
     1
290
     0
176
     1
290
     0
176
     1
290
     0
176
     1
 90
       50
176
     1
 40
0.0
176
     1
 40
1.0
176
     1
 90
        0
176
     1
 62
    18
420
        0
176
     1
 90
       50
176
     1
 90
        3
176
     1
 62
     5
420
      255
176
     1
290
     0
176
     1
 90
       50
176
     1
 90
       50
176
     1
 90
       50
176
     1
290
     0
176
     1
 90
       50
176
     1
 62
   256
176
     0
 40
1.0
176
     0
 90
        2
176
     1
  1
strokes_ogs.tif
176
     1
290
     0
176
     1
 40
1.0
176
     1
 40
1.0
176
     1
  0
VISUALSTYLE
  5
32
102
{ACAD_REACTORS
330
29
102
}
330
29
100
AcDbVisualStyle
  2
Conceptual
 70
     9
177
     3
291
     0
 70
    58
 90
        3
176
     1
 90
        2
176
     1
 90
        0
176
     1
 90
        0
176
     1
 40
0.6
176
     1
 40
30.0
176
     1
 62
     7
420
 16777215
176
     1
 90
        2
176
     1
 90
        2
176
     1
 62
     7
176
     1
 62
   257
176
     1
 90
        1
176
     1
 90
        1
176
     1
 40
179.0
176
     1
 90
        8
176
     1
 62
     7
176
     1
 40
1.0
176
     1
 90
        1
176
     1
 90
        6
176
     1
 90
        2
176
     1
 62
     7
176
     1
 90
        3
176
     1
 90
        0
176
     1
 90
        0
176
     1
290
     0
176
     1
 90
        1
176
     1
 40
0.0
176
     1
 90
        0
176
     1
290
     0
176
     1
290
     1
176
     1
290
     1
176
     1
290
     0
176
     1
290
     0
176
     1
290
     0
176
     1
290
     0
176
     1
290
     0
176
     1
290
     0
176
     1
 90
       50
176
     1
 40
0.0
176
     1
 40
1.0
176
     1
 90
        0
176
     1
 62
    18
420
        0
176
     1
 90
       50
176
     1
 90
        3
176
     1
 62
     5
420
      255
176
     1
290
     0
176
     1
 90
       50
176
     1
 90
       50
176
     1
 90
       50
176
     1
290
     0
176
     1
 90
       50
176
     1
 62
   256
176
     0
 40
1.0
176
     0
 90
        2
176
     1
  1
strokes_ogs.tif
176
     1
290
     0
176
     1
 40
1.0
176
     1
 40
1.0
176
     1
  0
VISUALSTYLE
  5
34
102
{ACAD_REACTORS
330
29
102
}
330
29
100
AcDbVisualStyle
  2
Dim
 70
    11
177
     3
291
     1
 70
    58
 90
        2
176
     1
 90
        2
176
     1
 90
        0
176
     1
 90
        0
176
     1
 40
0.6
176
     1
 40
30.0
176
     1
 62
     7
420
 16777215
176
     1
 90
        1
176
     1
 90
        4
176
     1
 62
     7
176
     1
 62
   257
176
     1
 90
        1
176
     1
 90
        1
176
     1
 40
1.0
176
     1
 90
        8
176
     1
 62
     7
176
     1
 40
1.0
176
     1
 90
        1
176
     1
 90
        6
176
     1
 90
        2
176
     1
 62
     7
176
     1
 90
        5
176
     1
 90
        0
176
     1
 90
        0
176
     1
290
     0
176
     1
 90
        1
176
     1
 40
-50.0
176
     1
 90
        0
176
     1
290
     0
176
     1
290
     1
176
     1
290
     1
176
     1
290
     0
176
     1
290
     0
176
     1
290
     0
176
     1
290
     0
176
     1
290
     0
176
     1
290
     0
176
     1
 90
       50
176
     1
 40
0.0
176
     1
 40
1.0
176
     1
 90
        0
176
     1
 62
    18
420
        0
176
     1
 90
       50
176
     1
 90
        3
176
     1
 62
     5
420
      255
176
     1
290
     0
176
     1
 90
       50
176
     1
 90
       50
176
     1
 90
       50
176
     1
290
     0
176
     1
 90
       50
176
     1
 62
   256
176
     0
 40
1.0
176
     0
 90
        2
176
     1
  1
strokes_ogs.tif
176
     1
290
     0
176
     1
 40
1.0
176
     1
 40
1.0
176
     1
  0
VISUALSTYLE
  5
41
102
{ACAD_REACTORS
330
29
102
}
330
29
100
AcDbVisualStyle
  2
EdgeColorOff
 70
    22
177
     3
291
     1
 70
    58
 90
        2
176
     0
 90
        2
176
     0
 90
        0
176
     0
 90
        0
176
     0
 40
0.6
176
     0
 40
30.0
176
     0
 62
     7
420
 16777215
176
     0
 90
        1
176
     0
 90
        4
176
     0
 62
     7
176
     0
 62
   257
176
     0
 90
        1
176
     0
 90
        1
176
     0
 40
1.0
176
     0
 90
        8
176
     2
 62
     7
176
     0
 40
1.0
176
     0
 90
        1
176
     0
 90
        6
176
     0
 90
        2
176
     0
 62
     7
176
     0
 90
        5
176
     0
 90
        0
176
     0
 90
        0
176
     0
290
     0
176
     0
 90
        1
176
     0
 40
0.0
176
     0
 90
        0
176
     0
290
     0
176
     0
290
     1
176
     0
290
     1
176
     0
290
     0
176
     0
290
     0
176
     0
290
     0
176
     0
290
     0
176
     0
290
     0
176
     0
290
     0
176
     0
 90
       50
176
     0
 40
0.0
176
     0
 40
1.0
176
     0
 90
        0
176
     0
 62
    18
420
        0
176
     0
 90
       50
176
     0
 90
        3
176
     0
 62
     5
420
      255
176
     0
290
     0
176
     0
 90
       50
176
     0
 90
       50
176
     0
 90
       50
176
     0
290
     0
176
     0
 90
       50
176
     0
 62
   256
176
     0
 40
1.0
176
     0
 90
        2
176
     0
  1
strokes_ogs.tif
176
     0
290
     0
176
     0
 40
1.0
176
     0
 40
1.0
176
     0
  0
VISUALSTYLE
  5
38
102
{ACAD_REACTORS
330
29
102
}
330
29
100
AcDbVisualStyle
  2
Facepattern
 70
    15
177
     3
291
     1
 70
    58
 90
        2
176
     1
 90
        2
176
     1
 90
        0
176
     1
 90
        0
176
     1
 40
0.6
176
     1
 40
30.0
176
     1
 62
     7
420
 16777215
176
     1
 90
        1
176
     1
 90
        4
176
     1
 62
     7
176
     1
 62
   257
176
     1
 90
        1
176
     1
 90
        1
176
     1
 40
1.0
176
     1
 90
        8
176
     1
 62
     7
176
     1
 40
1.0
176
     1
 90
        1
176
     1
 90
        6
176
     1
 90
        2
176
     1
 62
     7
176
     1
 90
        5
176
     1
 90
        0
176
     1
 90
        0
176
     1
290
     0
176
     1
 90
        1
176
     1
 40
0.0
176
     1
 90
        0
176
     1
290
     0
176
     1
290
     1
176
     1
290
     1
176
     1
290
     0
176
     1
290
     0
176
     1
290
     0
176
     1
290
     0
176
     1
290
     0
176
     1
290
     0
176
     1
 90
       50
176
     1
 40
0.0
176
     1
 40
1.0
176
     1
 90
        0
176
     1
 62
    18
420
        0
176
     1
 90
       50
176
     1
 90
        3
176
     1
 62
     5
420
      255
176
     1
290
     0
176
     1
 90
       50
176
     1
 90
       50
176
     1
 90
       50
176
     1
290
     0
176
     1
 90
       50
176
     1
 62
   256
176
     0
 40
1.0
176
     0
 90
        2
176
     1
  1
strokes_ogs.tif
176
     1
290
     0
176
     1
 40
1.0
176
     1
 40
1.0
176
     1
  0
VISUALSTYLE
  5
2A
102
{ACAD_REACTORS
330
29
102
}
330
29
100
AcDbVisualStyle
  2
Flat
 70
     0
177
     3
291
     1
 70
    58
 90
        2
176
     1
 90
        1
176
     1
 90
        1
176
     1
 90
        2
176
     1
 40
0.6
176
     1
 40
30.0
176
     1
 62
     7
420
 16777215
176
     1
 90
        0
176
     1
 90
        0
176
     1
 62
     7
176
     1
 62
   257
176
     1
 90
        1
176
     1
 90
        1
176
     1
 40
1.0
176
     1
 90
        8
176
     1
 62
     7
176
     1
 40
1.0
176
     1
 90
        1
176
     1
 90
        6
176
     1
 90
        2
176
     1
 62
     7
176
     1
 90
        5
176
     1
 90
        0
176
     1
 90
        0
176
     1
290
     0
176
     1
 90
       13
176
     1
 40
0.0
176
     1
 90
        0
176
     1
290
     0
176
     1
290
     1
176
     1
290
     1
176
     1
290
     0
176
     1
290
     0
176
     1
290
     0
176
     1
290
     0
176
     1
290
     0
176
     1
290
     0
176
     1
 90
       50
176
     1
 40
0.0
176
     1
 40
1.0
176
     1
 90
        0
176
     1
 62
    18
420
        0
176
     1
 90
       50
176
     1
 90
        3
176
     1
 62
     5
420
      255
176
     1
290
     0
176
     1
 90
       50
176
     1
 90
       50
176
     1
 90
       50
176
     1
290
     0
176
     1
 90
       50
176
     1
 62
   256
176
     0
 40
1.0
176
     0
 90
        2
176
     1
  1
strokes_ogs.tif
176
     1
290
     0
176
     1
 40
1.0
176
     1
 40
1.0
176
     1
  0
VISUALSTYLE
  5
2B
102
{ACAD_REACTORS
330
29
102
}
330
29
100
AcDbVisualStyle
  2
FlatWithEdges
 70
     1
177
     3
291
     1
 70
    58
 90
        2
176
     1
 90
        1
176
     1
 90
        1
176
     1
 90
        2
176
     1
 40
0.6
176
     1
 40
30.0
176
     1
 62
     7
420
 16777215
176
     1
 90
        1
176
     1
 90
        0
176
     1
 62
     7
176
     1
 62
   257
176
     1
 90
        1
176
     1
 90
        1
176
     1
 40
1.0
176
     1
 90
        0
176
     1
 62
   257
176
     1
 40
1.0
176
     1
 90
        1
176
     1
 90
        6
176
     1
 90
        2
176
     1
 62
     7
176
     1
 90
        5
176
     1
 90
        0
176
     1
 90
        0
176
     1
290
     0
176
     1
 90
       13
176
     1
 40
0.0
176
     1
 90
        0
176
     1
290
     0
176
     1
290
     1
176
     1
290
     1
176
     1
290
     0
176
     1
290
     0
176
     1
290
     0
176
     1
290
     0
176
     1
290
     0
176
     1
290
     0
176
     1
 90
       50
176
     1
 40
0.0
176
     1
 40
1.0
176
     1
 90
        0
176
     1
 62
    18
420
        0
176
     1
 90
       50
176
     1
 90
        3
176
     1
 62
     5
420
      255
176
     1
290
     0
176
     1
 90
       50
176
     1
 90
       50
176
     1
 90
       50
176
     1
290
     0
176
     1
 90
       50
176
     1
 62
   256
176
     0
 40
1.0
176
     0
 90
        2
176
     1
  1
strokes_ogs.tif
176
     1
290
     0
176
     1
 40
1.0
176
     1
 40
1.0
176
     1
  0
VISUALSTYLE
  5
2C
102
{ACAD_REACTORS
330
29
102
}
330
29
100
AcDbVisualStyle
  2
Gouraud
 70
     2
177
     3
291
     1
 70
    58
 90
        2
176
     1
 90
        2
176
     1
 90
        1
176
     1
 90
        2
176
     1
 40
0.6
176
     1
 40
30.0
176
     1
 62
     7
420
 16777215
176
     1
 90
        0
176
     1
 90
        0
176
     1
 62
     7
176
     1
 62
   257
176
     1
 90
        1
176
     1
 90
        1
176
     1
 40
1.0
176
     1
 90
        0
176
     1
 62
     7
176
     1
 40
1.0
176
     1
 90
        1
176
     1
 90
        6
176
     1
 90
        2
176
     1
 62
     7
176
     1
 90
        5
176
     1
 90
        0
176
     1
 90
        0
176
     1
290
     0
176
     1
 90
       13
176
     1
 40
0.0
176
     1
 90
        0
176
     1
290
     0
176
     1
290
     1
176
     1
290
     1
176
     1
290
     0
176
     1
290
     0
176
     1
290
     0
176
     1
290
     0
176
     1
290
     0
176
     1
290
     0
176
     1
 90
       50
176
     1
 40
0.0
176
     1
 40
1.0
176
     1
 90
        0
176
     1
 62
    18
420
        0
176
     1
 90
       50
176
     1
 90
        3
176
     1
 62
     5
420
      255
176
     1
290
     0
176
     1
 90
       50
176
     1
 90
       50
176
     1
 90
       50
176
     1
290
     0
176
     1
 90
       50
176
     1
 62
   256
176
     0
 40
1.0
176
     0
 90
        2
176
     1
  1
strokes_ogs.tif
176
     1
290
     0
176
     1
 40
1.0
176
     1
 40
1.0
176
     1
  0
VISUALSTYLE
  5
2D
102
{ACAD_REACTORS
330
29
102
}
330
29
100
AcDbVisualStyle
  2
GouraudWithEdges
 70
     3
177
     3
291
     1
 70
    58
 90
        2
176
     1
 90
        2
176
     1
 90
        1
176
     1
 90
        2
176
     1
 40
0.6
176
     1
 40
30.0
176
     1
 62
     7
420
 16777215
176
     1
 90
        1
176
     1
 90
        0
176
     1
 62
     7
176
     1
 62
   257
176
     1
 90
        1
176
     1
 90
        1
176
     1
 40
1.0
176
     1
 90
        0
176
     1
 62
   257
176
     1
 40
1.0
176
     1
 90
        1
176
     1
 90
        6
176
     1
 90
        2
176
     1
 62
     7
176
     1
 90
        5
176
     1
 90
        0
176
     1
 90
        0
176
     1
290
     0
176
     1
 90
       13
176
     1
 40
0.0
176
     1
 90
        0
176
     1
290
     0
176
     1
290
     1
176
     1
290
     1
176
     1
290
     0
176
     1
290
     0
176
     1
290
     0
176
     1
290
     0
176
     1
290
     0
176
     1
290
     0
176
     1
 90
       50
176
     1
 40
0.0
176
     1
 40
1.0
176
     1
 90
        0
176
     1
 62
    18
420
        0
176
     1
 90
       50
176
     1
 90
        3
176
     1
 62
     5
420
      255
176
     1
290
     0
176
     1
 90
       50
176
     1
 90
       50
176
     1
 90
       50
176
     1
290
     0
176
     1
 90
       50
176
     1
 62
   256
176
     0
 40
1.0
176
     0
 90
        2
176
     1
  1
strokes_ogs.tif
176
     1
290
     0
176
     1
 40
1.0
176
     1
 40
1.0
176
     1
  0
VISUALSTYLE
  5
31
102
{ACAD_REACTORS
330
29
102
}
330
29
100
AcDbVisualStyle
  2
Hidden
 70
     6
177
     3
291
     0
 70
    58
 90
        1
176
     1
 90
        2
176
     1
 90
        2
176
     1
 90
        0
176
     1
 40
0.6
176
     1
 40
30.0
176
     1
 62
     7
420
 16777215
176
     1
 90
        2
176
     1
 90
        2
176
     1
 62
     7
176
     1
 62
   257
176
     1
 90
        2
176
     1
 90
        1
176
     1
 40
40.0
176
     1
 90
        0
176
     1
 62
   257
176
     1
 40
1.0
176
     1
 90
        1
176
     1
 90
        6
176
     1
 90
        2
176
     1
 62
     7
176
     1
 90
        3
176
     1
 90
        0
176
     1
 90
        0
176
     1
290
     0
176
     1
 90
        1
176
     1
 40
0.0
176
     1
 90
        0
176
     1
290
     0
176
     1
290
     1
176
     1
290
     1
176
     1
290
     0
176
     1
290
     0
176
     1
290
     0
176
     1
290
     0
176
     1
290
     0
176
     1
290
     0
176
     1
 90
       50
176
     1
 40
0.0
176
     1
 40
1.0
176
     1
 90
        0
176
     1
 62
    18
420
        0
176
     1
 90
       50
176
     1
 90
        3
176
     1
 62
     5
420
      255
176
     1
290
     0
176
     1
 90
       50
176
     1
 90
       50
176
     1
 90
       50
176
     1
290
     0
176
     1
 90
       50
176
     1
 62
   256
176
     0
 40
1.0
176
     0
 90
        2
176
     1
  1
strokes_ogs.tif
176
     1
290
     0
176
     1
 40
1.0
176
     1
 40
1.0
176
     1
  0
VISUALSTYLE
  5
3F
102
{ACAD_REACTORS
330
29
102
}
330
29
100
AcDbVisualStyle
  2
JitterOff
 70
    20
177
     3
291
     1
 70
    58
 90
        2
176
     0
 90
        2
176
     0
 90
        0
176
     0
 90
        0
176
     0
 40
0.6
176
     0
 40
30.0
176
     0
 62
     7
420
 16777215
176
     0
 90
        1
176
     0
 90
        4
176
     0
 62
     7
176
     0
 62
   257
176
     0
 90
        1
176
     0
 90
        1
176
     0
 40
1.0
176
     0
 90
       10
176
     2
 62
     7
176
     0
 40
1.0
176
     0
 90
        1
176
     0
 90
        6
176
     0
 90
        2
176
     0
 62
     7
176
     0
 90
        5
176
     0
 90
        0
176
     0
 90
        0
176
     0
290
     0
176
     0
 90
        1
176
     0
 40
0.0
176
     0
 90
        0
176
     0
290
     0
176
     0
290
     1
176
     0
290
     1
176
     0
290
     0
176
     0
290
     0
176
     0
290
     0
176
     0
290
     0
176
     0
290
     0
176
     0
290
     0
176
     0
 90
       50
176
     0
 40
0.0
176
     0
 40
1.0
176
     0
 90
        0
176
     0
 62
    18
420
        0
176
     0
 90
       50
176
     0
 90
        3
176
     0
 62
     5
420
      255
176
     0
290
     0
176
     0
 90
       50
176
     0
 90
       50
176
     0
 90
       50
176
     0
290
     0
176
     0
 90
       50
176
     0
 62
   256
176
     0
 40
1.0
176
     0
 90
        2
176
     0
  1
strokes_ogs.tif
176
     0
290
     0
176
     0
 40
1.0
176
     0
 40
1.0
176
     0
  0
VISUALSTYLE
  5
37
102
{ACAD_REACTORS
330
29
102
}
330
29
100
AcDbVisualStyle
  2
Linepattern
 70
    14
177
     3
291
     1
 70
    58
 90
        2
176
     1
 90
        2
176
     1
 90
        0
176
     1
 90
        0
176
     1
 40
0.6
176
     1
 40
30.0
176
     1
 62
     7
420
 16777215
176
     1
 90
        1
176
     1
 90
        4
176
     1
 62
     7
176
     1
 62
   257
176
     1
 90
        7
176
     1
 90
        7
176
     1
 40
1.0
176
     1
 90
        8
176
     1
 62
     7
176
     1
 40
1.0
176
     1
 90
        1
176
     1
 90
        6
176
     1
 90
        2
176
     1
 62
     7
176
     1
 90
        5
176
     1
 90
        0
176
     1
 90
        0
176
     1
290
     0
176
     1
 90
        1
176
     1
 40
0.0
176
     1
 90
        0
176
     1
290
     0
176
     1
290
     1
176
     1
290
     1
176
     1
290
     0
176
     1
290
     0
176
     1
290
     0
176
     1
290
     0
176
     1
290
     0
176
     1
290
     0
176
     1
 90
       50
176
     1
 40
0.0
176
     1
 40
1.0
176
     1
 90
        0
176
     1
 62
    18
420
        0
176
     1
 90
       50
176
     1
 90
        3
176
     1
 62
     5
420
      255
176
     1
290
     0
176
     1
 90
       50
176
     1
 90
       50
176
     1
 90
       50
176
     1
290
     0
176
     1
 90
       50
176
     1
 62
   256
176
     0
 40
1.0
176
     0
 90
        2
176
     1
  1
strokes_ogs.tif
176
     1
290
     0
176
     1
 40
1.0
176
     1
 40
1.0
176
     1
  0
VISUALSTYLE
  5
40
102
{ACAD_REACTORS
330
29
102
}
330
29
100
AcDbVisualStyle
  2
OverhangOff
 70
    21
177
     3
291
     1
 70
    58
 90
        2
176
     0
 90
        2
176
     0
 90
        0
176
     0
 90
        0
176
     0
 40
0.6
176
     0
 40
30.0
176
     0
 62
     7
420
 16777215
176
     0
 90
        1
176
     0
 90
        4
176
     0
 62
     7
176
     0
 62
   257
176
     0
 90
        1
176
     0
 90
        1
176
     0
 40
1.0
176
     0
 90
        9
176
     2
 62
     7
176
     0
 40
1.0
176
     0
 90
        1
176
     0
 90
        6
176
     0
 90
        2
176
     0
 62
     7
176
     0
 90
        5
176
     0
 90
        0
176
     0
 90
        0
176
     0
290
     0
176
     0
 90
        1
176
     0
 40
0.0
176
     0
 90
        0
176
     0
290
     0
176
     0
290
     1
176
     0
290
     1
176
     0
290
     0
176
     0
290
     0
176
     0
290
     0
176
     0
290
     0
176
     0
290
     0
176
     0
290
     0
176
     0
 90
       50
176
     0
 40
0.0
176
     0
 40
1.0
176
     0
 90
        0
176
     0
 62
    18
420
        0
176
     0
 90
       50
176
     0
 90
        3
176
     0
 62
     5
420
      255
176
     0
290
     0
176
     0
 90
       50
176
     0
 90
       50
176
     0
 90
       50
176
     0
290
     0
176
     0
 90
       50
176
     0
 62
   256
176
     0
 40
1.0
176
     0
 90
        2
176
     0
  1
strokes_ogs.tif
176
     0
290
     0
176
     0
 40
1.0
176
     0
 40
1.0
176
     0
  0
VISUALSTYLE
  5
33
102
{ACAD_REACTORS
330
29
102
}
330
29
100
AcDbVisualStyle
  2
Realistic
 70
     8
177
     3
291
     0
 70
    58
 90
        2
176
     1
 90
        3
176
     1
 90
        0
176
     1
 90
        2
176
     1
 40
0.6
176
     1
 40
30.0
176
     1
 62
     7
420
 16777215
176
     1
 90
        0
176
     1
 90
        0
176
     1
 62
     7
176
     1
 62
   257
176
     1
 90
        1
176
     1
 90
        1
176
     1
 40
1.0
176
     1
 90
        8
176
     1
 62
   257
176
     1
 40
1.0
176
     1
 90
        1
176
     1
 90
        6
176
     1
 90
        2
176
     1
 62
     7
176
     1
 90
        3
176
     1
 90
        0
176
     1
 90
        0
176
     1
290
     0
176
     1
 90
       13
176
     1
 40
0.0
176
     1
 90
        0
176
     1
290
     0
176
     1
290
     1
176
     1
290
     1
176
     1
290
     0
176
     1
290
     0
176
     1
290
     0
176
     1
290
     0
176
     1
290
     0
176
     1
290
     0
176
     1
 90
       50
176
     1
 40
0.0
176
     1
 40
1.0
176
     1
 90
        0
176
     1
 62
    18
420
        0
176
     1
 90
       50
176
     1
 90
        3
176
     1
 62
     5
420
      255
176
     1
290
     0
176
     1
 90
       50
176
     1
 90
       50
176
     1
 90
       50
176
     1
290
     0
176
     1
 90
       50
176
     1
 62
   256
176
     0
 40
1.0
176
     0
 90
        2
176
     1
  1
strokes_ogs.tif
176
     1
290
     0
176
     1
 40
1.0
176
     1
 40
1.0
176
     1
  0
VISUALSTYLE
  5
3E
102
{ACAD_REACTORS
330
29
102
}
330
29
100
AcDbVisualStyle
  2
Shaded
 70
    27
177
     3
291
     0
 70
    58
 90
        2
176
     1
 90
        2
176
     1
 90
        1
176
     1
 90
        2
176
     1
 40
0.6
176
     1
 40
30.0
176
     1
 62
     7
420
 16777215
176
     1
 90
        0
176
     1
 90
        4
176
     1
 62
     7
176
     1
 62
   257
176
     1
 90
        1
176
     1
 90
        1
176
     1
 40
1.0
176
     1
 90
        8
176
     1
 62
   257
176
     1
 40
1.0
176
     1
 90
        1
176
     1
 90
        6
176
     1
 90
        2
176
     1
 62
     8
420
  7895160
176
     1
 90
        3
176
     1
 90
        0
176
     1
 90
        0
176
     1
290
     0
176
     1
 90
        5
176
     1
 40
0.0
176
     1
 90
        0
176
     1
290
     0
176
     1
290
     1
176
     1
290
     1
176
     1
290
     0
176
     1
290
     0
176
     1
290
     0
176
     1
290
     0
176
     1
290
     0
176
     1
290
     0
176
     1
 90
       50
176
     1
 40
0.0
176
     1
 40
1.0
176
     1
 90
        0
176
     1
 62
    18
420
        0
176
     1
 90
       50
176
     1
 90
        3
176
     1
 62
     5
420
      255
176
     1
290
     0
176
     1
 90
       50
176
     1
 90
       50
176
     1
 90
       50
176
     1
290
     0
176
     1
 90
       50
176
     1
 62
   256
176
     0
 40
1.0
176
     0
 90
        2
176
     1
  1
strokes_ogs.tif
176
     1
290
     0
176
     1
 40
1.0
176
     1
 40
1.0
176
     1
  0
VISUALSTYLE
  5
3D
102
{ACAD_REACTORS
330
29
102
}
330
29
100
AcDbVisualStyle
  2
Shaded with edges
 70
    26
177
     3
291
     0
 70
    58
 90
        2
176
     1
 90
        2
176
     1
 90
        1
176
     1
 90
        2
176
     1
 40
0.6
176
     1
 40
30.0
176
     1
 62
     7
420
 16777215
176
     1
 90
        1
176
     1
 90
       10
176
     1
 62
     7
176
     1
 62
   257
176
     1
 90
        2
176
     1
 90
        1
176
     1
 40
1.0
176
     1
 90
        8
176
     1
 62
   257
176
     1
 40
1.0
176
     1
 90
        1
176
     1
 90
        6
176
     1
 90
        2
176
     1
 62
     7
176
     1
 90
        3
176
     1
 90
        0
176
     1
 90
        0
176
     1
290
     0
176
     1
 90
        5
176
     1
 40
0.0
176
     1
 90
        0
176
     1
290
     0
176
     1
290
     1
176
     1
290
     1
176
     1
290
     0
176
     1
290
     0
176
     1
290
     0
176
     1
290
     0
176
     1
290
     0
176
     1
290
     0
176
     1
 90
       50
176
     1
 40
0.0
176
     1
 40
1.0
176
     1
 90
        0
176
     1
 62
    18
420
        0
176
     1
 90
       50
176
     1
 90
        3
176
     1
 62
     5
420
      255
176
     1
290
     0
176
     1
 90
       50
176
     1
 90
       50
176
     1
 90
       50
176
     1
290
     0
176
     1
 90
       50
176
     1
 62
   256
176
     0
 40
1.0
176
     0
 90
        2
176
     1
  1
strokes_ogs.tif
176
     1
290
     0
176
     1
 40
1.0
176
     1
 40
1.0
176
     1
  0
VISUALSTYLE
  5
3A
102
{ACAD_REACTORS
330
29
102
}
330
29
100
AcDbVisualStyle
  2
Shades of Gray
 70
    23
177
     3
291
     0
 70
    58
 90
        2
176
     1
 90
        2
176
     1
 90
        3
176
     1
 90
        0
176
     1
 40
0.6
176
     1
 40
30.0
176
     1
 62
     7
420
 16777215
176
     1
 90
        2
176
     1
 90
        2
176
     1
 62
     7
176
     1
 62
     7
176
     1
 90
        1
176
     1
 90
        1
176
     1
 40
40.0
176
     1
 90
        8
176
     1
 62
     7
176
     1
 40
1.0
176
     1
 90
        1
176
     1
 90
        6
176
     1
 90
        2
176
     1
 62
     7
176
     1
 90
        3
176
     1
 90
        0
176
     1
 90
        0
176
     1
290
     0
176
     1
 90
        1
176
     1
 40
0.0
176
     1
 90
        0
176
     1
290
     0
176
     1
290
     1
176
     1
290
     1
176
     1
290
     0
176
     1
290
     0
176
     1
290
     0
176
     1
290
     0
176
     1
290
     0
176
     1
290
     0
176
     1
 90
       50
176
     1
 40
0.0
176
     1
 40
1.0
176
     1
 90
        0
176
     1
 62
    18
420
        0
176
     1
 90
       50
176
     1
 90
        3
176
     1
 62
     5
420
      255
176
     1
290
     0
176
     1
 90
       50
176
     1
 90
       50
176
     1
 90
       50
176
     1
290
     0
176
     1
 90
       50
176
     1
 62
   256
176
     0
 40
1.0
176
     0
 90
        2
176
     1
  1
strokes_ogs.tif
176
     1
290
     0
176
     1
 40
1.0
176
     1
 40
1.0
176
     1
  0
VISUALSTYLE
  5
3B
102
{ACAD_REACTORS
330
29
102
}
330
29
100
AcDbVisualStyle
  2
Sketchy
 70
    24
177
     3
291
     0
 70
    58
 90
        1
176
     1
 90
        2
176
     1
 90
        2
176
     1
 90
        0
176
     1
 40
0.6
176
     1
 40
30.0
176
     1
 62
     7
420
 16777215
176
     1
 90
        2
176
     1
 90
        2
176
     1
 62
     7
176
     1
 62
     7
176
     1
 90
        1
176
     1
 90
        1
176
     1
 40
40.0
176
     1
 90
       11
176
     1
 62
     7
176
     1
 40
1.0
176
     1
 90
        1
176
     1
 90
        6
176
     1
 90
        2
176
     1
 62
     7
176
     1
 90
        6
176
     1
 90
        0
176
     1
 90
        0
176
     1
290
     0
176
     1
 90
        1
176
     1
 40
0.0
176
     1
 90
        0
176
     1
290
     0
176
     1
290
     1
176
     1
290
     1
176
     1
290
     0
176
     1
290
     0
176
     1
290
     0
176
     1
290
     0
176
     1
290
     0
176
     1
290
     0
176
     1
 90
       50
176
     1
 40
0.0
176
     1
 40
1.0
176
     1
 90
        0
176
     1
 62
    18
420
        0
176
     1
 90
       50
176
     1
 90
        3
176
     1
 62
     5
420
      255
176
     1
290
     0
176
     1
 90
       50
176
     1
 90
       50
176
     1
 90
       50
176
     1
290
     0
176
     1
 90
       50
176
     1
 62
   256
176
     0
 40
1.0
176
     0
 90
        2
176
     1
  1
strokes_ogs.tif
176
     1
290
     0
176
     1
 40
1.0
176
     1
 40
1.0
176
     1
  0
VISUALSTYLE
  5
36
102
{ACAD_REACTORS
330
29
102
}
330
29
100
AcDbVisualStyle
  2
Thicken
 70
    13
177
     3
291
     1
 70
    58
 90
        2
176
     1
 90
        2
176
     1
 90
        0
176
     1
 90
        0
176
     1
 40
0.6
176
     1
 40
30.0
176
     1
 62
     7
420
 16777215
176
     1
 90
        1
176
     1
 90
        4
176
     1
 62
     7
176
     1
 62
   257
176
     1
 90
        1
176
     1
 90
        1
176
     1
 40
1.0
176
     1
 90
       12
176
     1
 62
     7
176
     1
 40
1.0
176
     1
 90
        1
176
     1
 90
        6
176
     1
 90
        2
176
     1
 62
     7
176
     1
 90
        5
176
     1
 90
        0
176
     1
 90
        0
176
     1
290
     0
176
     1
 90
        1
176
     1
 40
0.0
176
     1
 90
        0
176
     1
290
     0
176
     1
290
     1
176
     1
290
     1
176
     1
290
     0
176
     1
290
     0
176
     1
290
     0
176
     1
290
     0
176
     1
290
     0
176
     1
290
     0
176
     1
 90
       50
176
     1
 40
0.0
176
     1
 40
1.0
176
     1
 90
        0
176
     1
 62
    18
420
        0
176
     1
 90
       50
176
     1
 90
        3
176
     1
 62
     5
420
      255
176
     1
290
     0
176
     1
 90
       50
176
     1
 90
       50
176
     1
 90
       50
176
     1
290
     0
176
     1
 90
       50
176
     1
 62
   256
176
     0
 40
1.0
176
     0
 90
        2
176
     1
  1
strokes_ogs.tif
176
     1
290
     0
176
     1
 40
1.0
176
     1
 40
1.0
176
     1
  0
VISUALSTYLE
  5
30
102
{ACAD_REACTORS
330
29
102
}
330
29
100
AcDbVisualStyle
  2
Wireframe
 70
     5
177
     3
291
     0
 70
    58
 90
        0
176
     1
 90
        2
176
     1
 90
        0
176
     1
 90
        0
176
     1
 40
0.6
176
     1
 40
30.0
176
     1
 62
     7
420
 16777215
176
     1
 90
        1
176
     1
 90
        4
176
     1
 62
     7
176
     1
 62
   257
176
     1
 90
        1
176
     1
 90
        1
176
     1
 40
1.0
176
     1
 90
        0
176
     1
 62
   257
176
     1
 40
1.0
176
     1
 90
        1
176
     1
 90
        6
176
     1
 90
        2
176
     1
 62
     7
176
     1
 90
        3
176
     1
 90
        0
176
     1
 90
        0
176
     1
290
     0
176
     1
 90
        1
176
     1
 40
0.0
176
     1
 90
        0
176
     1
290
     0
176
     1
290
     1
176
     1
290
     1
176
     1
290
     0
176
     1
290
     0
176
     1
290
     0
176
     1
290
     0
176
     1
290
     0
176
     1
290
     0
176
     1
 90
       50
176
     1
 40
0.0
176
     1
 40
1.0
176
     1
 90
        0
176
     1
 62
    18
420
        0
176
     1
 90
       50
176
     1
 90
        3
176
     1
 62
     5
420
      255
176
     1
290
     0
176
     1
 90
       50
176
     1
 90
       50
176
     1
 90
       50
176
     1
290
     0
176
     1
 90
       50
176
     1
 62
   256
176
     0
 40
1.0
176
     0
 90
        2
176
     1
  1
strokes_ogs.tif
176
     1
290
     0
176
     1
 40
1.0
176
     1
 40
1.0
176
     1
  0
VISUALSTYLE
  5
3C
102
{ACAD_REACTORS
330
29
102
}
330
29
100
AcDbVisualStyle
  2
X-Ray
 70
    25
177
     3
291
     0
 70
    58
 90
        2
176
     1
 90
        2
176
     1
 90
        1
176
     1
 90
        1
176
     1
 40
0.5
176
     1
 40
30.0
176
     1
 62
     7
420
 16777215
176
     1
 90
        1
176
     1
 90
        0
176
     1
 62
     7
176
     1
 62
   257
176
     1
 90
        1
176
     1
 90
        1
176
     1
 40
1.0
176
     1
 90
        8
176
     1
 62
     7
176
     1
 40
1.0
176
     1
 90
        1
176
     1
 90
        6
176
     1
 90
        2
176
     1
 62
     7
176
     1
 90
        3
176
     1
 90
        0
176
     1
 90
        0
176
     1
290
     0
176
     1
 90
       13
176
     1
 40
0.0
176
     1
 90
        0
176
     1
290
     0
176
     1
290
     1
176
     1
290
     1
176
     1
290
     0
176
     1
290
     0
176
     1
290
     0
176
     1
290
     0
176
     1
290
     0
176
     1
290
     0
176
     1
 90
       50
176
     1
 40
0.0
176
     1
 40
1.0
176
     1
 90
        0
176
     1
 62
    18
420
        0
176
     1
 90
       50
176
     1
 90
        3
176
     1
 62
     5
420
      255
176
     1
290
     0
176
     1
 90
       50
176
     1
 90
       50
176
     1
 90
       50
176
     1
290
     0
176
     1
 90
       50
176
     1
 62
   256
176
     0
 40
1.0
176
     0
 90
        2
176
     1
  1
strokes_ogs.tif
176
     1
290
     0
176
     1
 40
1.0
176
     1
 40
1.0
176
     1
  0
DICTIONARYVAR
  5
81
102
{ACAD_REACTORS
330
7C
102
}
330
7C
100
DictionaryVariables
280
     0
  1
1:1
  0
DICTIONARYVAR
  5
7E
102
{ACAD_REACTORS
330
7C
102
}
330
7C
100
DictionaryVariables
280
     0
  1
STANDARD
  0
DICTIONARYVAR
  5
7D
102
{ACAD_REACTORS
330
7C
102
}
330
7C
100
DictionaryVariables
280
     0
  1
STANDARD
  0
DICTIONARYVAR
  5
7F
102
{ACAD_REACTORS
330
7C
102
}
330
7C
100
DictionaryVariables
280
     0
  1
Imperial24
  0
DICTIONARYVAR
  5
80
102
{ACAD_REACTORS
330
7C
102
}
330
7C
100
DictionaryVariables
280
     0
  1
Imperial24
  0
XRECORD
  5
31D
102
{ACAD_REACTORS
330
31A
102
}
330
31A
100
AcDbXrecord
280
     1
  1
BUILDING_ID
  1
Progetto per messa in tavola DXF, DWG
  1
FLOOR_ID
  1
694395
  0
XRECORD
  5
31C
102
{ACAD_REACTORS
330
31A
102
}
330
31A
100
AcDbXrecord
280
     1
  1
-2001160
  1
Apparecchi idraulici
  0
XRECORD
  5
31B
102
{ACAD_REACTORS
330
31A
102
}
330
31A
100
AcDbXrecord
280
     1
  1
954632
  1
Automatic flow rate regulator valve_Caleffi_121 DN15 : DN20
  0
DICTIONARY
  5
1A
330
19
100
AcDbDictionary
280
     1
281
     1
  3
BUMPTILE
360
1C
  3
DIFFUSETILE
360
1B
  3
OPACITYTILE
360
1F
  3
REFLECTIONTILE
360
1E
  3
REFRACTIONTILE
360
20
  3
SPECULARTILE
360
1D
  0
DICTIONARY
  5
12
330
11
100
AcDbDictionary
280
     1
281
     1
  3
BUMPTILE
360
14
  3
DIFFUSETILE
360
13
  3
OPACITYTILE
360
17
  3
REFLECTIONTILE
360
16
  3
REFRACTIONTILE
360
18
  3
SPECULARTILE
360
15
  0
DICTIONARY
  5
22
330
21
100
AcDbDictionary
280
     1
281
     1
  3
BUMPTILE
360
24
  3
DIFFUSETILE
360
23
  3
OPACITYTILE
360
27
  3
REFLECTIONTILE
360
26
  3
REFRACTIONTILE
360
28
  3
SPECULARTILE
360
25
  0
DICTIONARY
  5
320
330
65
100
AcDbDictionary
280
     1
281
     1
  3
ACAD_ROUNDTRIP_2008_TABLESTYLE_CELLSTYLEMAP
360
321
  0
XRECORD
  5
1C
102
{ACAD_REACTORS
330
1A
102
}
330
1A
100
AcDbXrecord
280
     1
270
     1
271
     1
  0
XRECORD
  5
1B
102
{ACAD_REACTORS
330
1A
102
}
330
1A
100
AcDbXrecord
280
     1
270
     1
271
     1
  0
XRECORD
  5
1F
102
{ACAD_REACTORS
330
1A
102
}
330
1A
100
AcDbXrecord
280
     1
270
     1
271
     1
  0
XRECORD
  5
1E
102
{ACAD_REACTORS
330
1A
102
}
330
1A
100
AcDbXrecord
280
     1
270
     1
271
     1
  0
XRECORD
  5
20
102
{ACAD_REACTORS
330
1A
102
}
330
1A
100
AcDbXrecord
280
     1
270
     1
271
     1
  0
XRECORD
  5
1D
102
{ACAD_REACTORS
330
1A
102
}
330
1A
100
AcDbXrecord
280
     1
270
     1
271
     1
  0
XRECORD
  5
14
102
{ACAD_REACTORS
330
12
102
}
330
12
100
AcDbXrecord
280
     1
270
     1
271
     1
  0
XRECORD
  5
13
102
{ACAD_REACTORS
330
12
102
}
330
12
100
AcDbXrecord
280
     1
270
     1
271
     1
  0
XRECORD
  5
17
102
{ACAD_REACTORS
330
12
102
}
330
12
100
AcDbXrecord
280
     1
270
     1
271
     1
  0
XRECORD
  5
16
102
{ACAD_REACTORS
330
12
102
}
330
12
100
AcDbXrecord
280
     1
270
     1
271
     1
  0
XRECORD
  5
18
102
{ACAD_REACTORS
330
12
102
}
330
12
100
AcDbXrecord
280
     1
270
     1
271
     1
  0
XRECORD
  5
15
102
{ACAD_REACTORS
330
12
102
}
330
12
100
AcDbXrecord
280
     1
270
     1
271
     1
  0
XRECORD
  5
24
102
{ACAD_REACTORS
330
22
102
}
330
22
100
AcDbXrecord
280
     1
270
     1
271
     1
  0
XRECORD
  5
23
102
{ACAD_REACTORS
330
22
102
}
330
22
100
AcDbXrecord
280
     1
270
     1
271
     1
  0
XRECORD
  5
27
102
{ACAD_REACTORS
330
22
102
}
330
22
100
AcDbXrecord
280
     1
270
     1
271
     1
  0
XRECORD
  5
26
102
{ACAD_REACTORS
330
22
102
}
330
22
100
AcDbXrecord
280
     1
270
     1
271
     1
  0
XRECORD
  5
28
102
{ACAD_REACTORS
330
22
102
}
330
22
100
AcDbXrecord
280
     1
270
     1
271
     1
  0
XRECORD
  5
25
102
{ACAD_REACTORS
330
22
102
}
330
22
100
AcDbXrecord
280
     1
270
     1
271
     1
  0
CELLSTYLEMAP
  5
321
102
{ACAD_REACTORS
330
320
102
}
330
320
100
AcDbCellStyleMap
 90
        3
300
CELLSTYLE
  1
TABLEFORMAT_BEGIN
 90
        5
170
     1
 91
        0
 92
    32768
 62
   257
 93
        1
300
CONTENTFORMAT
  1
CONTENTFORMAT_BEGIN
 90
        0
 91
        0
 92
      512
 93
        0
300

 40
0.0
140
1.0
 94
        5
 62
     0
340
55
144
0.25
309
CONTENTFORMAT_END
171
     0
 94
        0
309
TABLEFORMAT_END
  1
CELLSTYLE_BEGIN
 90
        1
 91
        1
300
_TITLE
309
CELLSTYLE_END
300
CELLSTYLE
  1
TABLEFORMAT_BEGIN
 90
        5
170
     1
 91
        0
 92
        0
 62
   257
 93
        1
300
CONTENTFORMAT
  1
CONTENTFORMAT_BEGIN
 90
        0
 91
        0
 92
      512
 93
        0
300

 40
0.0
140
1.0
 94
        5
 62
     0
340
55
144
0.18
309
CONTENTFORMAT_END
171
     0
 94
        0
309
TABLEFORMAT_END
  1
CELLSTYLE_BEGIN
 90
        2
 91
        1
300
_HEADER
309
CELLSTYLE_END
300
CELLSTYLE
  1
TABLEFORMAT_BEGIN
 90
        5
170
     1
 91
        0
 92
        0
 62
   257
 93
        1
300
CONTENTFORMAT
  1
CONTENTFORMAT_BEGIN
 90
        0
 91
        0
 92
      512
 93
        0
300

 40
0.0
140
1.0
 94
        2
 62
     0
340
55
144
0.18
309
CONTENTFORMAT_END
171
     0
 94
        0
309
TABLEFORMAT_END
  1
CELLSTYLE_BEGIN
 90
        3
 91
        2
300
_DATA
309
CELLSTYLE_END
  0
ENDSEC
  0
EOF
