  0
SECTION
  2
HEADER
  9
$ACADVER
  1
AC1027
  9
$ACADMAINTVER
 70
    20
  9
$DWGCODEPAGE
  3
ANSI_1252
  9
$REQUIREDVERSIONS
160
                 0
  9
$INSBASE
 10
0.0
 20
0.0
 30
0.0
  9
$EXTMIN
 10
640.6664074431877
 20
1044.777070127454
 30
-0.00000001
  9
$EXTMAX
 10
1583.583162555697
 20
2195.000000000011
 30
0.00000001
  9
$LIMMIN
 10
0.0
 20
0.0
  9
$LIMMAX
 10
12.0
 20
9.0
  9
$ORTHOMODE
 70
     0
  9
$REGENMODE
 70
     1
  9
$FILLMODE
 70
     1
  9
$QTEXTMODE
 70
     0
  9
$MIRRTEXT
 70
     0
  9
$LTSCALE
 40
1.0
  9
$ATTMODE
 70
     1
  9
$TEXTSIZE
 40
0.2
  9
$TRACEWID
 40
0.05
  9
$TEXTSTYLE
  7
Standard
  9
$CLAYER
  8
0
  9
$CELTYPE
  6
ByLayer
  9
$CECOLOR
 62
   256
  9
$CELTSCALE
 40
1.0
  9
$DISPSILH
 70
     0
  9
$DIMSCALE
 40
1.0
  9
$DIMASZ
 40
0.18
  9
$DIMEXO
 40
0.0625
  9
$DIMDLI
 40
0.38
  9
$DIMRND
 40
0.0
  9
$DIMDLE
 40
0.0
  9
$DIMEXE
 40
0.18
  9
$DIMTP
 40
0.0
  9
$DIMTM
 40
0.0
  9
$DIMTXT
 40
0.18
  9
$DIMCEN
 40
0.09
  9
$DIMTSZ
 40
0.0
  9
$DIMTOL
 70
     0
  9
$DIMLIM
 70
     0
  9
$DIMTIH
 70
     1
  9
$DIMTOH
 70
     1
  9
$DIMSE1
 70
     0
  9
$DIMSE2
 70
     0
  9
$DIMTAD
 70
     0
  9
$DIMZIN
 70
     0
  9
$DIMBLK
  1

  9
$DIMASO
 70
     1
  9
$DIMSHO
 70
     1
  9
$DIMPOST
  1

  9
$DIMAPOST
  1

  9
$DIMALT
 70
     0
  9
$DIMALTD
 70
     2
  9
$DIMALTF
 40
25.4
  9
$DIMLFAC
 40
1.0
  9
$DIMTOFL
 70
     0
  9
$DIMTVP
 40
0.0
  9
$DIMTIX
 70
     0
  9
$DIMSOXD
 70
     0
  9
$DIMSAH
 70
     0
  9
$DIMBLK1
  1

  9
$DIMBLK2
  1

  9
$DIMSTYLE
  2
Standard
  9
$DIMCLRD
 70
     0
  9
$DIMCLRE
 70
     0
  9
$DIMCLRT
 70
     0
  9
$DIMTFAC
 40
1.0
  9
$DIMGAP
 40
0.09
  9
$DIMJUST
 70
     0
  9
$DIMSD1
 70
     0
  9
$DIMSD2
 70
     0
  9
$DIMTOLJ
 70
     1
  9
$DIMTZIN
 70
     0
  9
$DIMALTZ
 70
     0
  9
$DIMALTTZ
 70
     0
  9
$DIMUPT
 70
     0
  9
$DIMDEC
 70
     4
  9
$DIMTDEC
 70
     4
  9
$DIMALTU
 70
     2
  9
$DIMALTTD
 70
     2
  9
$DIMTXSTY
  7
Standard
  9
$DIMAUNIT
 70
     0
  9
$DIMADEC
 70
     0
  9
$DIMALTRND
 40
0.0
  9
$DIMAZIN
 70
     0
  9
$DIMDSEP
 70
    46
  9
$DIMATFIT
 70
     3
  9
$DIMFRAC
 70
     0
  9
$DIMLDRBLK
  1

  9
$DIMLUNIT
 70
     2
  9
$DIMLWD
 70
    -2
  9
$DIMLWE
 70
    -2
  9
$DIMTMOVE
 70
     0
  9
$DIMFXL
 40
1.0
  9
$DIMFXLON
 70
     0
  9
$DIMJOGANG
 40
0.7853981633974483
  9
$DIMTFILL
 70
     0
  9
$DIMTFILLCLR
 70
     0
  9
$DIMARCSYM
 70
     0
  9
$DIMLTYPE
  6

  9
$DIMLTEX1
  6

  9
$DIMLTEX2
  6

  9
$DIMTXTDIRECTION
 70
     0
  9
$LUNITS
 70
     2
  9
$LUPREC
 70
     4
  9
$SKETCHINC
 40
0.1
  9
$FILLETRAD
 40
0.0
  9
$AUNITS
 70
     0
  9
$AUPREC
 70
     0
  9
$MENU
  1
.
  9
$ELEVATION
 40
0.0
  9
$PELEVATION
 40
0.0
  9
$THICKNESS
 40
0.0
  9
$LIMCHECK
 70
     0
  9
$CHAMFERA
 40
0.0
  9
$CHAMFERB
 40
0.0
  9
$CHAMFERC
 40
0.0
  9
$CHAMFERD
 40
0.0
  9
$SKPOLY
 70
     0
  9
$TDCREATE
 40
2457588.443109873
  9
$TDUCREATE
 40
2457588.359776539
  9
$TDUPDATE
 40
2457588.443109873
  9
$TDUUPDATE
 40
2457588.359776539
  9
$TDINDWG
 40
0.0000404398
  9
$TDUSRTIMER
 40
0.0000404398
  9
$USRTIMER
 70
     1
  9
$ANGBASE
 50
0.0
  9
$ANGDIR
 70
     0
  9
$PDMODE
 70
     0
  9
$PDSIZE
 40
0.0
  9
$PLINEWID
 40
0.0
  9
$SPLFRAME
 70
     0
  9
$SPLINETYPE
 70
     6
  9
$SPLINESEGS
 70
     8
  9
$HANDSEED
  5
2A9
  9
$SURFTAB1
 70
     6
  9
$SURFTAB2
 70
     6
  9
$SURFTYPE
 70
     6
  9
$SURFU
 70
     6
  9
$SURFV
 70
     6
  9
$UCSBASE
  2

  9
$UCSNAME
  2

  9
$UCSORG
 10
0.0
 20
0.0
 30
0.0
  9
$UCSXDIR
 10
1.0
 20
0.0
 30
0.0
  9
$UCSYDIR
 10
0.0
 20
1.0
 30
0.0
  9
$UCSORTHOREF
  2

  9
$UCSORTHOVIEW
 70
     0
  9
$UCSORGTOP
 10
0.0
 20
0.0
 30
0.0
  9
$UCSORGBOTTOM
 10
0.0
 20
0.0
 30
0.0
  9
$UCSORGLEFT
 10
0.0
 20
0.0
 30
0.0
  9
$UCSORGRIGHT
 10
0.0
 20
0.0
 30
0.0
  9
$UCSORGFRONT
 10
0.0
 20
0.0
 30
0.0
  9
$UCSORGBACK
 10
0.0
 20
0.0
 30
0.0
  9
$PUCSBASE
  2

  9
$PUCSNAME
  2

  9
$PUCSORG
 10
0.0
 20
0.0
 30
0.0
  9
$PUCSXDIR
 10
1.0
 20
0.0
 30
0.0
  9
$PUCSYDIR
 10
0.0
 20
1.0
 30
0.0
  9
$PUCSORTHOREF
  2

  9
$PUCSORTHOVIEW
 70
     0
  9
$PUCSORGTOP
 10
0.0
 20
0.0
 30
0.0
  9
$PUCSORGBOTTOM
 10
0.0
 20
0.0
 30
0.0
  9
$PUCSORGLEFT
 10
0.0
 20
0.0
 30
0.0
  9
$PUCSORGRIGHT
 10
0.0
 20
0.0
 30
0.0
  9
$PUCSORGFRONT
 10
0.0
 20
0.0
 30
0.0
  9
$PUCSORGBACK
 10
0.0
 20
0.0
 30
0.0
  9
$USERI1
 70
     0
  9
$USERI2
 70
     0
  9
$USERI3
 70
     0
  9
$USERI4
 70
     0
  9
$USERI5
 70
     0
  9
$USERR1
 40
0.0
  9
$USERR2
 40
0.0
  9
$USERR3
 40
0.0
  9
$USERR4
 40
0.0
  9
$USERR5
 40
0.0
  9
$WORLDVIEW
 70
     1
  9
$SHADEDGE
 70
     3
  9
$SHADEDIF
 70
    70
  9
$TILEMODE
 70
     1
  9
$MAXACTVP
 70
    64
  9
$PINSBASE
 10
0.0
 20
0.0
 30
0.0
  9
$PLIMCHECK
 70
     0
  9
$PEXTMIN
 10
1.000000000000000E+20
 20
1.000000000000000E+20
 30
1.000000000000000E+20
  9
$PEXTMAX
 10
-1.000000000000000E+20
 20
-1.000000000000000E+20
 30
-1.000000000000000E+20
  9
$PLIMMIN
 10
0.0
 20
0.0
  9
$PLIMMAX
 10
12.0
 20
9.0
  9
$UNITMODE
 70
     0
  9
$VISRETAIN
 70
     1
  9
$PLINEGEN
 70
     0
  9
$PSLTSCALE
 70
     1
  9
$TREEDEPTH
 70
  3020
  9
$CMLSTYLE
  2
Standard
  9
$CMLJUST
 70
     0
  9
$CMLSCALE
 40
1.0
  9
$PROXYGRAPHICS
 70
     1
  9
$MEASUREMENT
 70
     1
  9
$CELWEIGHT
370
    -1
  9
$ENDCAPS
280
     0
  9
$JOINSTYLE
280
     0
  9
$LWDISPLAY
290
     0
  9
$INSUNITS
 70
     4
  9
$HYPERLINKBASE
  1

  9
$STYLESHEET
  1

  9
$XEDIT
290
     1
  9
$CEPSNTYPE
380
     0
  9
$PSTYLEMODE
290
     1
  9
$FINGERPRINTGUID
  2
{253736CB-0F39-422F-BB3C-C95E1F199226}
  9
$VERSIONGUID
  2
{D963FBAF-3548-4B4D-87F1-43FF6714268B}
  9
$EXTNAMES
290
     1
  9
$PSVPSCALE
 40
0.0
  9
$OLESTARTUP
290
     0
  9
$SORTENTS
280
   127
  9
$INDEXCTL
280
     0
  9
$HIDETEXT
280
     1
  9
$XCLIPFRAME
280
     2
  9
$HALOGAP
280
     0
  9
$OBSCOLOR
 70
   257
  9
$OBSLTYPE
280
     0
  9
$INTERSECTIONDISPLAY
280
     0
  9
$INTERSECTIONCOLOR
 70
   257
  9
$DIMASSOC
280
     2
  9
$PROJECTNAME
  1

  9
$CAMERADISPLAY
290
     0
  9
$LENSLENGTH
 40
50.0
  9
$CAMERAHEIGHT
 40
0.0
  9
$STEPSPERSEC
 40
2.0
  9
$STEPSIZE
 40
6.0
  9
$3DDWFPREC
 40
2.0
  9
$PSOLWIDTH
 40
0.25
  9
$PSOLHEIGHT
 40
4.0
  9
$LOFTANG1
 40
1.570796326794896
  9
$LOFTANG2
 40
1.570796326794896
  9
$LOFTMAG1
 40
0.0
  9
$LOFTMAG2
 40
0.0
  9
$LOFTPARAM
 70
     7
  9
$LOFTNORMALS
280
     1
  9
$LATITUDE
 40
37.795
  9
$LONGITUDE
 40
-122.394
  9
$NORTHDIRECTION
 40
0.0
  9
$TIMEZONE
 70
 -8000
  9
$LIGHTGLYPHDISPLAY
280
     1
  9
$TILEMODELIGHTSYNCH
280
     1
  9
$CMATERIAL
347
11
  9
$SOLIDHIST
280
     0
  9
$SHOWHIST
280
     1
  9
$DWFFRAME
280
     2
  9
$DGNFRAME
280
     0
  9
$REALWORLDSCALE
290
     1
  9
$INTERFERECOLOR
 62
     1
  9
$INTERFEREOBJVS
345
33
  9
$INTERFEREVPVS
346
30
  9
$CSHADOW
280
     0
  9
$SHADOWPLANELOCATION
 40
0.0
  0
ENDSEC
  0
SECTION
  2
CLASSES
  0
CLASS
  1
ACDBDICTIONARYWDFLT
  2
AcDbDictionaryWithDefault
  3
ObjectDBX Classes
 90
        0
 91
        1
280
     0
281
     0
  0
CLASS
  1
MATERIAL
  2
AcDbMaterial
  3
ObjectDBX Classes
 90
     1153
 91
        3
280
     0
281
     0
  0
CLASS
  1
VISUALSTYLE
  2
AcDbVisualStyle
  3
ObjectDBX Classes
 90
     4095
 91
       24
280
     0
281
     0
  0
CLASS
  1
SCALE
  2
AcDbScale
  3
ObjectDBX Classes
 90
     1153
 91
       17
280
     0
281
     0
  0
CLASS
  1
TABLESTYLE
  2
AcDbTableStyle
  3
ObjectDBX Classes
 90
     4095
 91
        1
280
     0
281
     0
  0
CLASS
  1
MLEADERSTYLE
  2
AcDbMLeaderStyle
  3
ACDB_MLEADERSTYLE_CLASS
 90
     4095
 91
        1
280
     0
281
     0
  0
CLASS
  1
ACDBSECTIONVIEWSTYLE
  2
AcDbSectionViewStyle
  3
ObjectDBX Classes
 90
     1025
 91
        1
280
     0
281
     0
  0
CLASS
  1
ACDBDETAILVIEWSTYLE
  2
AcDbDetailViewStyle
  3
ObjectDBX Classes
 90
     1025
 91
        1
280
     0
281
     0
  0
CLASS
  1
RASTERVARIABLES
  2
AcDbRasterVariables
  3
ISM
 90
        0
 91
        1
280
     0
281
     0
  0
CLASS
  1
DICTIONARYVAR
  2
AcDbDictionaryVar
  3
ObjectDBX Classes
 90
        0
 91
        5
280
     0
281
     0
  0
CLASS
  1
CELLSTYLEMAP
  2
AcDbCellStyleMap
  3
ObjectDBX Classes
 90
     1152
 91
        2
280
     0
281
     0
  0
CLASS
  1
SORTENTSTABLE
  2
AcDbSortentsTable
  3
ObjectDBX Classes
 90
        0
 91
        1
280
     0
281
     0
  0
ENDSEC
  0
SECTION
  2
TABLES
  0
TABLE
  2
VPORT
  5
8
330
0
100
AcDbSymbolTable
 70
     1
  0
VPORT
  5
57
330
8
100
AcDbSymbolTableRecord
100
AcDbViewportTableRecord
  2
*Active
 70
     0
 10
0.0
 20
0.0
 11
1.0
 21
1.0
 12
1112.124784999442
 22
1619.888535063732
 13
0.0
 23
0.0
 14
1.0
 24
1.0
 15
0.0
 25
0.0
 16
0.0
 26
0.0
 36
1.0
 17
0.0
 27
0.0
 37
0.0
 40
1150.222929872557
 41
0.8197686992876969
 42
50.0
 43
0.0
 44
0.0
 50
0.0
 51
0.0
 71
     0
 72
  1000
 73
     1
 74
     1
 75
     0
 76
     0
 77
     0
 78
     0
281
     0
 65
     1
110
0.0
120
0.0
130
0.0
111
1.0
121
0.0
131
0.0
112
0.0
122
1.0
132
0.0
 79
     0
146
0.0
 60
     3
 61
     5
292
     1
282
     1
141
0.0
142
0.0
 63
   250
421
  3355443
  0
ENDTAB
  0
TABLE
  2
LTYPE
  5
5
330
0
100
AcDbSymbolTable
 70
     3
  0
LTYPE
  5
5B
330
5
100
AcDbSymbolTableRecord
100
AcDbLinetypeTableRecord
  2
ByBlock
 70
     0
  3

 72
    65
 73
     0
 40
0.0
  0
LTYPE
  5
5C
330
5
100
AcDbSymbolTableRecord
100
AcDbLinetypeTableRecord
  2
ByLayer
 70
     0
  3

 72
    65
 73
     0
 40
0.0
  0
LTYPE
  5
5D
330
5
100
AcDbSymbolTableRecord
100
AcDbLinetypeTableRecord
  2
Continuous
 70
     0
  3
Solid line
 72
    65
 73
     0
 40
0.0
  0
LTYPE
  5
69
330
5
100
AcDbSymbolTableRecord
100
AcDbLinetypeTableRecord
  2
PHANTOM2
 70
     0
  3
___ _ _ ___ _ _ ___ _ _ ___ _ _
 72
    65
 73
     6
 40
1.25
 49
0.625
 74
     0
 49
-0.125
 74
     0
 49
0.125
 74
     0
 49
-0.125
 74
     0
 49
0.125
 74
     0
 49
-0.125
 74
     0
  0
LTYPE
  5
86
330
5
100
AcDbSymbolTableRecord
100
AcDbLinetypeTableRecord
  2
Nascosto 1_5 mm
 70
     0
  3

 72
    65
 73
     2
 40
2.2
 49
1.5
 74
     0
 49
-0.7000000000000001
 74
     0
  0
ENDTAB
  0
TABLE
  2
LAYER
  5
2
330
0
100
AcDbSymbolTable
 70
     4
  0
LAYER
  5
54
330
2
100
AcDbSymbolTableRecord
100
AcDbLayerTableRecord
  2
0
 70
     0
 62
     7
  6
Continuous
370
    -3
390
F
347
21
348
0
  0
LAYER
  5
85
330
2
100
AcDbSymbolTableRecord
100
AcDbLayerTableRecord
  2
P-SANR-FIXT
 70
     0
 62
     6
  6
Continuous
370
    18
390
F
347
21
348
0
  0
LAYER
  5
88
330
2
100
AcDbSymbolTableRecord
100
AcDbLayerTableRecord
  2
M-PIPE
 70
     0
 62
     3
  6
Continuous
370
    18
390
F
347
21
348
0
  0
ENDTAB
  0
TABLE
  2
STYLE
  5
3
330
0
100
AcDbSymbolTable
 70
     2
  0
STYLE
  5
55
330
3
100
AcDbSymbolTableRecord
100
AcDbTextStyleTableRecord
  2
Standard
 70
     0
 40
0.0
 41
1.0
 50
0.0
 71
     0
 42
0.2
  3
txt
  4

  0
STYLE
  5
5A
330
3
100
AcDbSymbolTableRecord
100
AcDbTextStyleTableRecord
  2
Annotative
 70
     0
 40
0.0
 41
1.0
 50
0.0
 71
     0
 42
0.2
  3
txt
  4

1001
AcadAnnotative
1000
AnnotativeData
1002
{
1070
     1
1070
     1
1002
}
  0
ENDTAB
  0
TABLE
  2
VIEW
  5
6
330
0
100
AcDbSymbolTable
 70
     0
  0
ENDTAB
  0
TABLE
  2
UCS
  5
7
330
0
100
AcDbSymbolTable
 70
     0
  0
ENDTAB
  0
TABLE
  2
APPID
  5
9
330
0
100
AcDbSymbolTable
 70
     3
  0
APPID
  5
56
330
9
100
AcDbSymbolTableRecord
100
AcDbRegAppTableRecord
  2
ACAD
 70
     0
  0
APPID
  5
5E
330
9
100
AcDbSymbolTableRecord
100
AcDbRegAppTableRecord
  2
AcadAnnotative
 70
     0
  0
APPID
  5
79
330
9
100
AcDbSymbolTableRecord
100
AcDbRegAppTableRecord
  2
REVIT
 70
     0
  0
ENDTAB
  0
TABLE
  2
DIMSTYLE
  5
A
330
0
100
AcDbSymbolTable
 70
     2
100
AcDbDimStyleTable
 71
     0
  0
DIMSTYLE
105
58
330
A
100
AcDbSymbolTableRecord
100
AcDbDimStyleTableRecord
  2
Standard
 70
     0
340
55
  0
DIMSTYLE
105
59
330
A
100
AcDbSymbolTableRecord
100
AcDbDimStyleTableRecord
  2
Annotative
 70
     0
340
55
1001
AcadAnnotative
1000
AnnotativeData
1002
{
1070
     1
1070
     1
1002
}
  0
ENDTAB
  0
TABLE
  2
BLOCK_RECORD
  5
1
330
0
100
AcDbSymbolTable
 70
     4
  0
BLOCK_RECORD
  5
71
102
{ACAD_XDICTIONARY
360
2A4
102
}
330
1
100
AcDbSymbolTableRecord
100
AcDbBlockTableRecord
  2
*Model_Space
340
74
 70
     0
280
     1
281
     0
  0
BLOCK_RECORD
  5
6D
330
1
100
AcDbSymbolTableRecord
100
AcDbBlockTableRecord
  2
*Paper_Space
340
70
 70
     0
280
     1
281
     0
  0
BLOCK_RECORD
  5
75
330
1
100
AcDbSymbolTableRecord
100
AcDbBlockTableRecord
  2
*Paper_Space0
340
78
 70
     0
280
     1
281
     0
  0
BLOCK_RECORD
  5
87
330
1
100
AcDbSymbolTableRecord
100
AcDbBlockTableRecord
  2
Automatic flow rate regulator valve_Caleffi_121 DN15 - 1_2__-859151-Est - Idraulica
340
0
102
{BLKREFS
331
1AB
102
}
 70
     0
280
     1
281
     0
  0
BLOCK_RECORD
  5
1AC
330
1
100
AcDbSymbolTableRecord
100
AcDbBlockTableRecord
  2
Automatic flow rate regulator valve_Caleffi_121 DN15 - 1_2__-V1-Est - Idraulica
340
0
102
{BLKREFS
331
1EB
102
}
 70
     0
280
     1
281
     0
  0
BLOCK_RECORD
  5
1EC
330
1
100
AcDbSymbolTableRecord
100
AcDbBlockTableRecord
  2
Automatic flow rate regulator valve_Caleffi_121 DN15 - 1_2__-V2-Est - Idraulica
340
0
102
{BLKREFS
331
29D
102
}
 70
     0
280
     1
281
     0
  0
ENDTAB
  0
ENDSEC
  0
SECTION
  2
BLOCKS
  0
BLOCK
  5
72
330
71
100
AcDbEntity
  8
0
100
AcDbBlockBegin
  2
*Model_Space
 70
     0
 10
0.0
 20
0.0
 30
0.0
  3
*Model_Space
  1

  0
ENDBLK
  5
73
330
71
100
AcDbEntity
  8
0
100
AcDbBlockEnd
  0
BLOCK
  5
6E
330
6D
100
AcDbEntity
 67
     1
  8
0
100
AcDbBlockBegin
  2
*Paper_Space
 70
     0
 10
0.0
 20
0.0
 30
0.0
  3
*Paper_Space
  1

  0
ENDBLK
  5
6F
330
6D
100
AcDbEntity
 67
     1
  8
0
100
AcDbBlockEnd
  0
BLOCK
  5
76
330
75
100
AcDbEntity
 67
     1
  8
0
100
AcDbBlockBegin
  2
*Paper_Space0
 70
     0
 10
0.0
 20
0.0
 30
0.0
  3
*Paper_Space0
  1

  0
ENDBLK
  5
77
330
75
100
AcDbEntity
 67
     1
  8
0
100
AcDbBlockEnd
  0
BLOCK
  5
1A9
330
87
100
AcDbEntity
  8
0
100
AcDbBlockBegin
  2
Automatic flow rate regulator valve_Caleffi_121 DN15 - 1_2__-859151-Est - Idraulica
 70
     0
 10
0.0
 20
0.0
 30
0.0
  3
Automatic flow rate regulator valve_Caleffi_121 DN15 - 1_2__-859151-Est - Idraulica
  1

  0
LINE
  5
89
330
87
100
AcDbEntity
  8
M-PIPE
100
AcDbLine
 10
786.5101574431903
 20
1628.999999999917
 30
0.0
 11
774.5664074431906
 21
1628.999999999917
 31
0.0
1001
REVIT
1002
{
1070
     3
1000
790271
1002
}
  0
LINE
  5
8A
330
87
100
AcDbEntity
  8
M-PIPE
100
AcDbLine
 10
774.5664074431906
 20
1597.999999999916
 30
0.0
 11
786.5101574431906
 21
1597.999999999916
 31
0.0
1001
REVIT
1002
{
1070
     3
1000
790271
1002
}
  0
LINE
  5
8B
330
87
100
AcDbEntity
  8
M-PIPE
100
AcDbLine
 10
760.8645395993221
 20
1624.698132156048
 30
0.0
 11
758.1664074431905
 21
1621.999999999917
 31
0.0
1001
REVIT
1002
{
1070
     3
1000
790271
1002
}
  0
LINE
  5
8C
330
87
100
AcDbEntity
  8
M-PIPE
100
AcDbLine
 10
758.1664074431905
 20
1604.999999999917
 30
0.0
 11
760.8645395993031
 21
1602.301867843804
 31
0.0
1001
REVIT
1002
{
1070
     3
1000
790271
1002
}
  0
LINE
  5
8D
330
87
100
AcDbEntity
  8
M-PIPE
100
AcDbLine
 10
786.5101574431884
 20
1597.999999999916
 30
0.0
 11
786.5101574431884
 21
1628.999999999916
 31
0.0
1001
REVIT
1002
{
1070
     3
1000
790271
1002
}
  0
LINE
  5
8E
330
87
100
AcDbEntity
  8
M-PIPE
100
AcDbLine
 10
774.5664074431885
 20
1628.706906325662
 30
0.0
 11
774.1664074431883
 21
1628.706906325662
 31
0.0
1001
REVIT
1002
{
1070
     3
1000
790271
1002
}
  0
LINE
  5
8F
330
87
100
AcDbEntity
  8
M-PIPE
100
AcDbLine
 10
774.1664074431883
 20
1598.293093674171
 30
0.0
 11
774.5664074431885
 21
1598.293093674171
 31
0.0
1001
REVIT
1002
{
1070
     3
1000
790271
1002
}
  0
LINE
  5
90
330
87
100
AcDbEntity
  8
M-PIPE
100
AcDbLine
 10
774.1664074431883
 20
1628.706906325662
 30
0.0
 11
774.1664074431883
 21
1598.293093674171
 31
0.0
1001
REVIT
1002
{
1070
     3
1000
790271
1002
}
  0
ARC
  5
91
330
87
100
AcDbEntity
  8
M-PIPE
100
AcDbCircle
 10
1292.77338402876
 20
1119.376690285583
 30
0.0
 40
726.8909582149595
100
AcDbArc
 50
135.5170596040587
 51
135.9688475438157
1001
REVIT
1002
{
1070
     3
1000
790271
1002
}
  0
ARC
  5
92
330
87
100
AcDbEntity
  8
M-PIPE
100
AcDbCircle
 10
1292.773384030082
 20
2107.623309715528
 30
0.0
 40
726.8909582167967
100
AcDbArc
 50
224.0311524561831
 51
224.4829403959389
1001
REVIT
1002
{
1070
     3
1000
790271
1002
}
  0
LINE
  5
93
330
87
100
AcDbEntity
  8
M-PIPE
100
AcDbLine
 10
770.1664074432516
 20
1624.601801655569
 30
0.0
 11
770.1664074432516
 21
1602.398198344263
 31
0.0
1001
REVIT
1002
{
1070
     3
1000
790271
1002
}
  0
LINE
  5
94
330
87
100
AcDbEntity
  8
M-PIPE
100
AcDbLine
 10
770.1664074432516
 20
1624.601801655569
 30
0.0
 11
761.1664074432516
 21
1624.601801655569
 31
0.0
1001
REVIT
1002
{
1070
     3
1000
790271
1002
}
  0
LINE
  5
95
330
87
100
AcDbEntity
  8
M-PIPE
100
AcDbLine
 10
761.1664074432516
 20
1602.398198344263
 30
0.0
 11
770.1664074432516
 21
1602.398198344263
 31
0.0
1001
REVIT
1002
{
1070
     3
1000
790271
1002
}
  0
LINE
  5
96
330
87
100
AcDbEntity
  8
M-PIPE
100
AcDbLine
 10
760.9255522351809
 20
1602.64788769645
 30
0.0
 11
761.1664074432497
 21
1602.398198344265
 31
0.0
1001
REVIT
1002
{
1070
     3
1000
790271
1002
}
  0
LINE
  5
97
330
87
100
AcDbEntity
  8
M-PIPE
100
AcDbLine
 10
761.1664074432516
 20
1624.601801655569
 30
0.0
 11
761.1664074432516
 21
1602.398198344263
 31
0.0
1001
REVIT
1002
{
1070
     3
1000
790271
1002
}
  0
LINE
  5
98
330
87
100
AcDbEntity
  8
M-PIPE
100
AcDbLine
 10
761.1664074432535
 20
1624.601801655571
 30
0.0
 11
760.9255522352039
 21
1624.352112303407
 31
0.0
1001
REVIT
1002
{
1070
     3
1000
790271
1002
}
  0
LINE
  5
99
330
87
100
AcDbEntity
  8
M-PIPE
100
AcDbLine
 10
758.1664074431884
 20
1621.999999999916
 30
0.0
 11
758.1664074431884
 21
1604.999999999916
 31
0.0
1001
REVIT
1002
{
1070
     3
1000
790271
1002
}
  0
LINE
  5
9A
330
87
100
AcDbEntity
  8
M-PIPE
100
AcDbLine
 10
774.5664074431886
 20
1646.000000000043
 30
0.0
 11
758.1664074431885
 21
1646.000000000043
 31
0.0
1001
REVIT
1002
{
1070
     3
1000
790271
1002
}
  0
LINE
  5
9B
330
87
100
AcDbEntity
  8
M-PIPE
100
AcDbLine
 10
758.1664074431885
 20
1646.000000000043
 30
0.0
 11
758.1664074431885
 21
1640.000000000043
 31
0.0
1001
REVIT
1002
{
1070
     3
1000
790271
1002
}
  0
LINE
  5
9C
330
87
100
AcDbEntity
  8
M-PIPE
100
AcDbLine
 10
758.1664074431885
 20
1640.000000000043
 30
0.0
 11
760.9255522352018
 21
1624.352112303405
 31
0.0
1001
REVIT
1002
{
1070
     3
1000
790271
1002
}
  0
LINE
  5
9D
330
87
100
AcDbEntity
  8
M-PIPE
100
AcDbLine
 10
774.5664074431885
 20
1628.706906325662
 30
0.0
 11
774.5664074431886
 21
1646.000000000043
 31
0.0
1001
REVIT
1002
{
1070
     3
1000
790271
1002
}
  0
LINE
  5
9E
330
87
100
AcDbEntity
  8
M-PIPE
100
AcDbLine
 10
758.1664074431884
 20
1586.999999999916
 30
0.0
 11
758.1664074431884
 21
1580.999999999916
 31
0.0
1001
REVIT
1002
{
1070
     3
1000
790271
1002
}
  0
LINE
  5
9F
330
87
100
AcDbEntity
  8
M-PIPE
100
AcDbLine
 10
758.1664074431884
 20
1580.999999999916
 30
0.0
 11
774.5664074431884
 21
1580.999999999916
 31
0.0
1001
REVIT
1002
{
1070
     3
1000
790271
1002
}
  0
LINE
  5
A0
330
87
100
AcDbEntity
  8
M-PIPE
100
AcDbLine
 10
774.5664074431884
 20
1580.999999999916
 30
0.0
 11
774.5664074431885
 21
1598.293093674171
 31
0.0
1001
REVIT
1002
{
1070
     3
1000
790271
1002
}
  0
LINE
  5
A1
330
87
100
AcDbEntity
  8
M-PIPE
100
AcDbLine
 10
760.925552235183
 20
1602.647887696447
 30
0.0
 11
758.1664074431884
 21
1586.999999999916
 31
0.0
1001
REVIT
1002
{
1070
     3
1000
790271
1002
}
  0
LINE
  5
A2
330
87
100
AcDbEntity
  8
M-PIPE
100
AcDbLine
 10
796.1664074431911
 20
1577.598075309111
 30
0.0
 11
797.6664069222929
 21
1574.999999999979
 31
0.0
1001
REVIT
1002
{
1070
     3
1000
790271
1002
}
  0
LINE
  5
A3
330
87
100
AcDbEntity
  8
M-PIPE
100
AcDbLine
 10
833.6664079640891
 20
1574.999999999979
 30
0.0
 11
835.1664074431909
 21
1577.598075309111
 31
0.0
1001
REVIT
1002
{
1070
     3
1000
790271
1002
}
  0
LINE
  5
A4
330
87
100
AcDbEntity
  8
M-PIPE
100
AcDbLine
 10
796.1664074431911
 20
1589.34591799932
 30
0.0
 11
796.1664074431911
 21
1577.598075309111
 31
0.0
1001
REVIT
1002
{
1070
     3
1000
790271
1002
}
  0
LINE
  5
A5
330
87
100
AcDbEntity
  8
M-PIPE
100
AcDbLine
 10
835.1664074431909
 20
1577.598075309111
 30
0.0
 11
835.1664074431909
 21
1589.34591799932
 31
0.0
1001
REVIT
1002
{
1070
     3
1000
790271
1002
}
  0
LINE
  5
A6
330
87
100
AcDbEntity
  8
M-PIPE
100
AcDbLine
 10
835.1664074431909
 20
1589.34591799932
 30
0.0
 11
832.666407443191
 21
1590.789293672294
 31
0.0
1001
REVIT
1002
{
1070
     3
1000
790271
1002
}
  0
LINE
  5
A7
330
87
100
AcDbEntity
  8
M-PIPE
100
AcDbLine
 10
798.6664074431908
 20
1590.789293672294
 30
0.0
 11
796.1664074431911
 21
1589.34591799932
 31
0.0
1001
REVIT
1002
{
1070
     3
1000
790271
1002
}
  0
LINE
  5
A8
330
87
100
AcDbEntity
  8
M-PIPE
100
AcDbLine
 10
832.666407443191
 20
1590.789293672294
 30
0.0
 11
832.666407443191
 21
1597.914263954511
 31
0.0
1001
REVIT
1002
{
1070
     3
1000
790271
1002
}
  0
LINE
  5
A9
330
87
100
AcDbEntity
  8
M-PIPE
100
AcDbLine
 10
798.6664074431908
 20
1597.914263954511
 30
0.0
 11
798.6664074431908
 21
1590.789293672294
 31
0.0
1001
REVIT
1002
{
1070
     3
1000
790271
1002
}
  0
LINE
  5
AA
330
87
100
AcDbEntity
  8
M-PIPE
100
AcDbLine
 10
832.666407443191
 20
1597.914263954511
 30
0.0
 11
838.0970474521868
 21
1601.049645425576
 31
0.0
1001
REVIT
1002
{
1070
     3
1000
790271
1002
}
  0
LINE
  5
AB
330
87
100
AcDbEntity
  8
M-PIPE
100
AcDbLine
 10
838.1064838784061
 20
1601.055093548794
 30
0.0
 11
838.1664074431915
 21
1601.089690435054
 31
0.0
1001
REVIT
1002
{
1070
     3
1000
790271
1002
}
  0
LINE
  5
AC
330
87
100
AcDbEntity
  8
M-PIPE
100
AcDbLine
 10
793.1664074431903
 20
1601.089690435054
 30
0.0
 11
798.6664074431908
 21
1597.914263954511
 31
0.0
1001
REVIT
1002
{
1070
     3
1000
790271
1002
}
  0
LINE
  5
AD
330
87
100
AcDbEntity
  8
M-PIPE
100
AcDbLine
 10
838.1664074431915
 20
1601.089690435054
 30
0.0
 11
838.1664074431915
 21
1628.999999999782
 31
0.0
1001
REVIT
1002
{
1070
     3
1000
790271
1002
}
  0
LINE
  5
AE
330
87
100
AcDbEntity
  8
M-PIPE
100
AcDbLine
 10
793.1664074431903
 20
1628.999999999782
 30
0.0
 11
793.1664074431903
 21
1624.499999999916
 31
0.0
1001
REVIT
1002
{
1070
     3
1000
790271
1002
}
  0
LINE
  5
AF
330
87
100
AcDbEntity
  8
M-PIPE
100
AcDbLine
 10
793.1664074431903
 20
1602.499999999916
 30
0.0
 11
793.1664074431903
 21
1601.089690435054
 31
0.0
1001
REVIT
1002
{
1070
     3
1000
790271
1002
}
  0
LINE
  5
B0
330
87
100
AcDbEntity
  8
M-PIPE
100
AcDbLine
 10
839.1664074431917
 20
1628.999999999782
 30
0.0
 11
839.1664074431917
 21
1631.928203230121
 31
0.0
1001
REVIT
1002
{
1070
     3
1000
790271
1002
}
  0
LINE
  5
B1
330
87
100
AcDbEntity
  8
M-PIPE
100
AcDbLine
 10
792.1664074431904
 20
1631.928203230121
 30
0.0
 11
792.1664074431904
 21
1628.999999999782
 31
0.0
1001
REVIT
1002
{
1070
     3
1000
790271
1002
}
  0
LINE
  5
B2
330
87
100
AcDbEntity
  8
M-PIPE
100
AcDbLine
 10
839.1664074431917
 20
1631.928203230121
 30
0.0
 11
835.1664074431917
 21
1632.999999999846
 31
0.0
1001
REVIT
1002
{
1070
     3
1000
790271
1002
}
  0
LINE
  5
B3
330
87
100
AcDbEntity
  8
M-PIPE
100
AcDbLine
 10
796.1664074431902
 20
1632.999999999846
 30
0.0
 11
792.1664074431904
 21
1631.928203230121
 31
0.0
1001
REVIT
1002
{
1070
     3
1000
790271
1002
}
  0
LINE
  5
B4
330
87
100
AcDbEntity
  8
M-PIPE
100
AcDbLine
 10
796.1664074431902
 20
1647.133974596192
 30
0.0
 11
796.1664074431902
 21
1632.999999999846
 31
0.0
1001
REVIT
1002
{
1070
     3
1000
790271
1002
}
  0
LINE
  5
B5
330
87
100
AcDbEntity
  8
M-PIPE
100
AcDbLine
 10
835.1664074431917
 20
1632.999999999846
 30
0.0
 11
835.1664074431917
 21
1647.133974596192
 31
0.0
1001
REVIT
1002
{
1070
     3
1000
790271
1002
}
  0
LINE
  5
B6
330
87
100
AcDbEntity
  8
M-PIPE
100
AcDbLine
 10
797.666407443164
 20
1647.999999999961
 30
0.0
 11
796.1664074431902
 21
1647.133974596192
 31
0.0
1001
REVIT
1002
{
1070
     3
1000
790271
1002
}
  0
LINE
  5
B7
330
87
100
AcDbEntity
  8
M-PIPE
100
AcDbLine
 10
835.1664074431917
 20
1647.133974596192
 30
0.0
 11
833.666407443218
 21
1647.999999999961
 31
0.0
1001
REVIT
1002
{
1070
     3
1000
790271
1002
}
  0
LINE
  5
B8
330
87
100
AcDbEntity
  8
M-PIPE
100
AcDbLine
 10
786.5101574431903
 20
1602.499999999916
 30
0.0
 11
793.1664074431903
 21
1602.499999999916
 31
0.0
1001
REVIT
1002
{
1070
     3
1000
790271
1002
}
  0
LINE
  5
B9
330
87
100
AcDbEntity
  8
M-PIPE
100
AcDbLine
 10
793.1664074431903
 20
1624.499999999916
 30
0.0
 11
786.5101574431903
 21
1624.499999999916
 31
0.0
1001
REVIT
1002
{
1070
     3
1000
790271
1002
}
  0
LINE
  5
BA
330
87
100
AcDbEntity
  8
M-PIPE
100
AcDbLine
 10
815.670737905024
 20
1574.999999999979
 30
0.0
 11
797.6664069222907
 21
1574.999999999979
 31
0.0
1001
REVIT
1002
{
1070
     3
1000
790271
1002
}
  0
SPLINE
  5
BB
330
87
100
AcDbEntity
  8
M-PIPE
100
AcDbSpline
210
0.0
220
0.0
230
1.0
 70
     8
 71
     3
 72
     9
 73
     5
 74
     0
 42
0.000000001
 43
0.0000000001
 40
-1.0
 40
-1.0
 40
-1.0
 40
-1.0
 40
-0.5
 40
0.0
 40
0.0
 40
0.0
 40
0.0
 10
815.670737905024
 20
1574.999999999979
 30
0.0
 10
814.2835879049705
 20
1575.062166492514
 30
0.0
 10
811.6457161612716
 20
1575.557345536571
 30
0.0
 10
809.280700930388
 20
1576.794216698601
 30
0.0
 10
808.1664074431502
 20
1577.59807530911
 30
0.0
1001
REVIT
1002
{
1070
     3
1000
790271
1002
}
  0
SPLINE
  5
BC
330
87
100
AcDbEntity
  8
M-PIPE
100
AcDbSpline
210
0.0
220
0.0
230
1.0
 70
     8
 71
     3
 72
    13
 73
     9
 74
     0
 42
0.000000001
 43
0.0000000001
 40
-1.0
 40
-1.0
 40
-1.0
 40
-1.0
 40
-0.8333333333333332
 40
-0.75
 40
-0.6666666666666666
 40
-0.3333333333333333
 40
-0.1666666666666666
 40
0.0
 40
0.0
 40
0.0
 40
0.0
 10
803.827950175105
 20
1577.59807530911
 30
0.0
 10
803.4361596711116
 20
1577.02787024618
 30
0.0
 10
802.8367002688382
 20
1576.315920363669
 30
0.0
 10
802.0111050159817
 20
1575.653771259809
 30
0.0
 10
800.7574711159104
 20
1574.946057080617
 30
0.0
 10
799.1212365830714
 20
1574.971885689791
 30
0.0
 10
797.4948534752748
 20
1576.099223943893
 30
0.0
 10
796.7093323528338
 20
1577.036604678335
 30
0.0
 10
796.327950175063
 20
1577.598075309111
 30
0.0
1001
REVIT
1002
{
1070
     3
1000
790271
1002
}
  0
SPLINE
  5
BD
330
87
100
AcDbEntity
  8
M-PIPE
100
AcDbSpline
210
0.0
220
0.0
230
1.0
 70
     8
 71
     3
 72
    11
 73
     7
 74
     0
 42
0.000000001
 43
0.0000000001
 40
-1.0
 40
-1.0
 40
-1.0
 40
-1.0
 40
-0.8333333333333332
 40
-0.75
 40
-0.6666666666666666
 40
-0.5520833333334556
 40
-0.5520833333334556
 40
-0.5520833333334556
 40
-0.5520833333334556
 10
835.0048647113077
 20
1577.59807530911
 30
0.0
 10
834.6130742073162
 20
1577.027870246188
 30
0.0
 10
834.0136148050461
 20
1576.315920363686
 30
0.0
 10
833.1880195521945
 20
1575.653771259834
 30
0.0
 10
832.4828504834091
 20
1575.255682034044
 30
0.0
 10
831.9586329625032
 20
1575.112772738286
 30
0.0
 10
831.6522806822678
 20
1575.075084692338
 30
0.0
1001
REVIT
1002
{
1070
     3
1000
790271
1002
}
  0
SPLINE
  5
BE
330
87
100
AcDbEntity
  8
M-PIPE
100
AcDbSpline
210
0.0
220
0.0
230
1.0
 70
     8
 71
     3
 72
     8
 73
     4
 74
     0
 42
0.000000001
 43
0.0000000001
 40
-0.5496312596270409
 40
-0.5496312596270409
 40
-0.5496312596270409
 40
-0.5496312596270409
 40
-0.4635416666666642
 40
-0.4635416666666642
 40
-0.4635416666666642
 40
-0.4635416666666642
 10
831.6326090806024
 20
1575.072727011324
 30
0.0
 10
831.4023485746034
 20
1575.045859249276
 30
0.0
 10
831.1715683929559
 20
1575.052465855185
 30
0.0
 10
830.9418233019968
 20
1575.082525950851
 30
0.0
1001
REVIT
1002
{
1070
     3
1000
790271
1002
}
  0
SPLINE
  5
BF
330
87
100
AcDbEntity
  8
M-PIPE
100
AcDbSpline
210
0.0
220
0.0
230
1.0
 70
     8
 71
     3
 72
    10
 73
     6
 74
     0
 42
0.000000001
 43
0.0000000001
 40
-0.4613426592610953
 40
-0.4613426592610953
 40
-0.4613426592610953
 40
-0.4613426592610953
 40
-0.3333333333333333
 40
-0.1666666666666666
 40
0.0
 40
0.0
 40
0.0
 40
0.0
 10
830.9223250840936
 20
1575.069832030115
 30
0.0
 10
830.5795899977626
 20
1575.106774892658
 30
0.0
 10
829.7972478734033
 20
1575.319090101872
 30
0.0
 10
828.6717680115176
 20
1576.099223943913
 30
0.0
 10
827.886246889081
 20
1577.036604678342
 30
0.0
 10
827.5048647113123
 20
1577.59807530911
 30
0.0
1001
REVIT
1002
{
1070
     3
1000
790271
1002
}
  0
SPLINE
  5
C0
330
87
100
AcDbEntity
  8
M-PIPE
100
AcDbSpline
210
0.0
220
0.0
230
1.0
 70
     8
 71
     3
 72
     9
 73
     5
 74
     0
 42
0.000000001
 43
0.0000000001
 40
-1.0
 40
-1.0
 40
-1.0
 40
-1.0
 40
-0.5
 40
0.0
 40
0.0
 40
0.0
 40
0.0
 10
823.1664074432256
 20
1577.59807530911
 30
0.0
 10
822.053347852487
 20
1576.795211767377
 30
0.0
 10
819.6910100053814
 20
1575.559335674122
 30
0.0
 10
817.0562348270191
 20
1575.063161561289
 30
0.0
 10
815.670737905024
 20
1574.999999999979
 30
0.0
1001
REVIT
1002
{
1070
     3
1000
790271
1002
}
  0
LINE
  5
C1
330
87
100
AcDbEntity
  8
M-PIPE
100
AcDbLine
 10
833.6664079640868
 20
1574.999999999979
 30
0.0
 11
831.6445286819769
 21
1574.999999999979
 31
0.0
1001
REVIT
1002
{
1070
     3
1000
790271
1002
}
  0
LINE
  5
C2
330
87
100
AcDbEntity
  8
M-PIPE
100
AcDbLine
 10
831.6202721450322
 20
1574.999999999979
 30
0.0
 11
830.9081088975121
 21
1574.999999999979
 31
0.0
1001
REVIT
1002
{
1070
     3
1000
790271
1002
}
  0
LINE
  5
C3
330
87
100
AcDbEntity
  8
M-PIPE
100
AcDbLine
 10
830.8746045961818
 20
1574.999999999979
 30
0.0
 11
815.670737905024
 21
1574.999999999979
 31
0.0
1001
REVIT
1002
{
1070
     3
1000
790271
1002
}
  0
SPLINE
  5
C4
330
87
100
AcDbEntity
  8
M-PIPE
100
AcDbSpline
210
0.0
220
0.0
230
1.0
 70
     8
 71
     3
 72
     8
 73
     4
 74
     0
 42
0.000000001
 43
0.0000000001
 40
-0.5056742803469776
 40
-0.5056742803469776
 40
-0.5056742803469776
 40
-0.5056742803469776
 40
-0.5
 40
-0.5
 40
-0.5
 40
-0.5
 10
800.0537477949404
 20
1575.051398150729
 30
0.0
 10
800.0689803179906
 20
1575.051331219338
 30
0.0
 10
800.0842083473692
 20
1575.051416190876
 30
0.0
 10
800.0994315871009
 20
1575.051648765386
 30
0.0
1001
REVIT
1002
{
1070
     3
1000
790271
1002
}
  0
LINE
  5
C5
330
87
100
AcDbEntity
  8
M-PIPE
100
AcDbLine
 10
799.7114425706318
 20
1574.999999999979
 30
0.0
 11
800.4213279445876
 21
1574.999999999979
 31
0.0
1001
REVIT
1002
{
1070
     3
1000
790271
1002
}
  0
LINE
  5
C6
330
87
100
AcDbEntity
  8
M-PIPE
100
AcDbLine
 10
815.0020271106493
 20
1574.999999999979
 30
0.0
 11
815.6620771130729
 21
1574.999999999979
 31
0.0
1001
REVIT
1002
{
1070
     3
1000
790271
1002
}
  0
LINE
  5
C7
330
87
100
AcDbEntity
  8
M-PIPE
100
AcDbLine
 10
815.6620771130729
 20
1574.999999999979
 30
0.0
 11
816.3257510159782
 21
1574.999999999979
 31
0.0
1001
REVIT
1002
{
1070
     3
1000
790271
1002
}
  0
LINE
  5
C8
330
87
100
AcDbEntity
  8
M-PIPE
100
AcDbLine
 10
831.0094766645818
 20
1574.999999999979
 30
0.0
 11
831.7207584151899
 21
1574.999999999979
 31
0.0
1001
REVIT
1002
{
1070
     3
1000
790271
1002
}
  0
SPLINE
  5
C9
330
87
100
AcDbEntity
  8
M-PIPE
100
AcDbSpline
210
0.0
220
0.0
230
1.0
 70
     8
 71
     3
 72
     8
 73
     4
 74
     0
 42
0.000000001
 43
0.0000000001
 40
-0.5056742803503913
 40
-0.5056742803503913
 40
-0.5056742803503913
 40
-0.5056742803503913
 40
-0.5
 40
-0.5
 40
-0.5
 40
-0.5
 10
831.230662331167
 20
1575.051398150762
 30
0.0
 10
831.2458948542261
 20
1575.051331219371
 30
0.0
 10
831.2611228836136
 20
1575.051416190908
 30
0.0
 10
831.2763461233545
 20
1575.051648765419
 30
0.0
1001
REVIT
1002
{
1070
     3
1000
790271
1002
}
  0
LINE
  5
CA
330
87
100
AcDbEntity
  8
M-PIPE
100
AcDbLine
 10
808.1664074431504
 20
1577.59807530911
 30
0.0
 11
803.827950175105
 21
1577.59807530911
 31
0.0
1001
REVIT
1002
{
1070
     3
1000
790271
1002
}
  0
LINE
  5
CB
330
87
100
AcDbEntity
  8
M-PIPE
100
AcDbLine
 10
808.1664074431508
 20
1577.59807530911
 30
0.0
 11
808.1664074431508
 21
1589.34591799932
 31
0.0
1001
REVIT
1002
{
1070
     3
1000
790271
1002
}
  0
LINE
  5
CC
330
87
100
AcDbEntity
  8
M-PIPE
100
AcDbLine
 10
803.8279501751047
 20
1589.34591799932
 30
0.0
 11
803.8279501751047
 21
1577.59807530911
 31
0.0
1001
REVIT
1002
{
1070
     3
1000
790271
1002
}
  0
LINE
  5
CD
330
87
100
AcDbEntity
  8
M-PIPE
100
AcDbLine
 10
827.5048647113125
 20
1577.59807530911
 30
0.0
 11
823.1664074432258
 21
1577.59807530911
 31
0.0
1001
REVIT
1002
{
1070
     3
1000
790271
1002
}
  0
LINE
  5
CE
330
87
100
AcDbEntity
  8
M-PIPE
100
AcDbLine
 10
827.5048647113125
 20
1577.59807530911
 30
0.0
 11
827.5048647113125
 21
1589.34591799932
 31
0.0
1001
REVIT
1002
{
1070
     3
1000
790271
1002
}
  0
LINE
  5
CF
330
87
100
AcDbEntity
  8
M-PIPE
100
AcDbLine
 10
823.166407443225
 20
1589.34591799932
 30
0.0
 11
823.166407443225
 21
1577.59807530911
 31
0.0
1001
REVIT
1002
{
1070
     3
1000
790271
1002
}
  0
LINE
  5
D0
330
87
100
AcDbEntity
  8
M-PIPE
100
AcDbLine
 10
796.327950175063
 20
1577.598075309111
 30
0.0
 11
796.1664074431889
 21
1577.598075309111
 31
0.0
1001
REVIT
1002
{
1070
     3
1000
790271
1002
}
  0
LINE
  5
D1
330
87
100
AcDbEntity
  8
M-PIPE
100
AcDbLine
 10
796.327950175063
 20
1577.598075309111
 30
0.0
 11
796.327950175063
 21
1589.34591799932
 31
0.0
1001
REVIT
1002
{
1070
     3
1000
790271
1002
}
  0
LINE
  5
D2
330
87
100
AcDbEntity
  8
M-PIPE
100
AcDbLine
 10
835.0048647113077
 20
1589.34591799932
 30
0.0
 11
835.0048647113077
 21
1577.59807530911
 31
0.0
1001
REVIT
1002
{
1070
     3
1000
790271
1002
}
  0
LINE
  5
D3
330
87
100
AcDbEntity
  8
M-PIPE
100
AcDbLine
 10
835.1664074431885
 20
1577.598075309111
 30
0.0
 11
835.0048647113077
 21
1577.59807530911
 31
0.0
1001
REVIT
1002
{
1070
     3
1000
790271
1002
}
  0
LINE
  5
D4
330
87
100
AcDbEntity
  8
M-PIPE
100
AcDbLine
 10
796.327950175063
 20
1589.34591799932
 30
0.0
 11
796.1664074431889
 21
1589.34591799932
 31
0.0
1001
REVIT
1002
{
1070
     3
1000
790271
1002
}
  0
SPLINE
  5
D5
330
87
100
AcDbEntity
  8
M-PIPE
100
AcDbSpline
210
0.0
220
0.0
230
1.0
 70
     8
 71
     3
 72
     9
 73
     5
 74
     0
 42
0.000000001
 43
0.0000000001
 40
-1.0
 40
-1.0
 40
-1.0
 40
-1.0
 40
-0.5
 40
0.0
 40
0.0
 40
0.0
 40
0.0
 10
796.327950175063
 20
1589.34591799932
 30
0.0
 10
797.5568682828894
 20
1589.923225501795
 30
0.0
 10
800.0357863907227
 20
1590.50053300427
 30
0.0
 10
802.5568682829176
 20
1589.923225501795
 30
0.0
 10
803.8279501751052
 20
1589.34591799932
 30
0.0
1001
REVIT
1002
{
1070
     3
1000
790271
1002
}
  0
LINE
  5
D6
330
87
100
AcDbEntity
  8
M-PIPE
100
AcDbLine
 10
808.1664074431499
 20
1589.34591799932
 30
0.0
 11
803.8279501751054
 21
1589.34591799932
 31
0.0
1001
REVIT
1002
{
1070
     3
1000
790271
1002
}
  0
SPLINE
  5
D7
330
87
100
AcDbEntity
  8
M-PIPE
100
AcDbSpline
210
0.0
220
0.0
230
1.0
 70
     8
 71
     3
 72
     9
 73
     5
 74
     0
 42
0.000000001
 43
0.0000000001
 40
-1.0
 40
-1.0
 40
-1.0
 40
-1.0
 40
-0.5
 40
0.0
 40
0.0
 40
0.0
 40
0.0
 10
808.1664074431499
 20
1589.34591799932
 30
0.0
 10
810.6242436588011
 20
1589.923225501794
 30
0.0
 10
815.5820798744654
 20
1590.500533004268
 30
0.0
 10
820.6242436588521
 20
1589.923225501794
 30
0.0
 10
823.1664074432259
 20
1589.34591799932
 30
0.0
1001
REVIT
1002
{
1070
     3
1000
790271
1002
}
  0
LINE
  5
D8
330
87
100
AcDbEntity
  8
M-PIPE
100
AcDbLine
 10
827.5048647113123
 20
1589.34591799932
 30
0.0
 11
823.1664074432261
 21
1589.34591799932
 31
0.0
1001
REVIT
1002
{
1070
     3
1000
790271
1002
}
  0
SPLINE
  5
D9
330
87
100
AcDbEntity
  8
M-PIPE
100
AcDbSpline
210
0.0
220
0.0
230
1.0
 70
     8
 71
     3
 72
     9
 73
     5
 74
     0
 42
0.000000001
 43
0.0000000001
 40
-1.0
 40
-1.0
 40
-1.0
 40
-1.0
 40
-0.5
 40
0.0
 40
0.0
 40
0.0
 40
0.0
 10
827.5048647113122
 20
1589.34591799932
 30
0.0
 10
828.733782819131
 20
1589.923225501787
 30
0.0
 10
831.212700926949
 20
1590.500533004254
 30
0.0
 10
833.733782819128
 20
1589.923225501787
 30
0.0
 10
835.0048647113077
 20
1589.34591799932
 30
0.0
1001
REVIT
1002
{
1070
     3
1000
790271
1002
}
  0
LINE
  5
DA
330
87
100
AcDbEntity
  8
M-PIPE
100
AcDbLine
 10
835.1664074431885
 20
1589.34591799932
 30
0.0
 11
835.0048647113077
 21
1589.34591799932
 31
0.0
1001
REVIT
1002
{
1070
     3
1000
790271
1002
}
  0
LINE
  5
DB
330
87
100
AcDbEntity
  8
M-PIPE
100
AcDbLine
 10
832.6664074431889
 20
1590.789293672294
 30
0.0
 11
798.6664074431887
 21
1590.789293672294
 31
0.0
1001
REVIT
1002
{
1070
     3
1000
790271
1002
}
  0
LINE
  5
DC
330
87
100
AcDbEntity
  8
M-PIPE
100
AcDbLine
 10
832.6664074431889
 20
1597.91426395451
 30
0.0
 11
798.6664074431888
 21
1597.91426395451
 31
0.0
1001
REVIT
1002
{
1070
     3
1000
790271
1002
}
  0
LINE
  5
DD
330
87
100
AcDbEntity
  8
M-PIPE
100
AcDbLine
 10
838.1664074431894
 20
1601.089690435054
 30
0.0
 11
793.1664074431881
 21
1601.089690435054
 31
0.0
1001
REVIT
1002
{
1070
     3
1000
790271
1002
}
  0
SPLINE
  5
DE
330
87
100
AcDbEntity
  8
M-PIPE
100
AcDbSpline
210
0.0
220
0.0
230
1.0
 70
     8
 71
     3
 72
    25
 73
    21
 74
     0
 42
0.000000001
 43
0.0000000001
 40
0.0
 40
0.0
 40
0.0
 40
0.0
 40
0.1111111111111111
 40
0.2222222222222222
 40
0.2777777777777778
 40
0.3333333333333333
 40
0.3611111111111111
 40
0.3888888888888888
 40
0.4444444444444445
 40
0.4791666666666666
 40
0.5138888888888889
 40
0.5486111111111111
 40
0.5833333333333333
 40
0.6180555555555555
 40
0.6527777777777777
 40
0.6875
 40
0.7222222222222223
 40
0.7916666666666668
 40
0.861111111111111
 40
1.0
 40
1.0
 40
1.0
 40
1.0
 10
793.1664074431881
 20
1624.499999999916
 30
0.0
 10
793.1664074431881
 20
1624.47813897382
 30
0.0
 10
793.4024278837096
 20
1624.038449511874
 30
0.0
 10
794.1385516459346
 20
1622.399479555306
 30
0.0
 10
794.8043029079025
 20
1620.613680001135
 30
0.0
 10
795.2086067976281
 20
1619.317032178062
 30
0.0
 10
795.4861036582131
 20
1618.200179544663
 30
0.0
 10
795.7413646694144
 20
1617.001836282465
 30
0.0
 10
795.9407235416064
 20
1615.683761370123
 30
0.0
 10
796.0313434371264
 20
1614.248211075833
 30
0.0
 10
796.0388606735515
 20
1613.003671119758
 30
0.0
 10
795.97626345345
 20
1611.789012600181
 30
0.0
 10
795.8409639332684
 20
1610.627837706413
 30
0.0
 10
795.6348581470081
 20
1609.467089234439
 30
0.0
 10
795.3847182542144
 20
1608.366558028851
 30
0.0
 10
795.1113666707583
 20
1607.363866227321
 30
0.0
 10
794.7000595645953
 20
1606.089759764507
 30
0.0
 10
794.1843348250658
 20
1604.737861968601
 30
0.0
 10
793.4439782577704
 20
1603.038139568608
 30
0.0
 10
793.1664074431881
 20
1602.527015069027
 30
0.0
 10
793.1664074431881
 20
1602.499999999916
 30
0.0
1001
REVIT
1002
{
1070
     3
1000
790271
1002
}
  0
LINE
  5
DF
330
87
100
AcDbEntity
  8
M-PIPE
100
AcDbLine
 10
839.1664074431895
 20
1628.999999999782
 30
0.0
 11
792.1664074431882
 21
1628.999999999782
 31
0.0
1001
REVIT
1002
{
1070
     3
1000
790271
1002
}
  0
LINE
  5
E0
330
87
100
AcDbEntity
  8
M-PIPE
100
AcDbLine
 10
839.1664074431895
 20
1631.92820323012
 30
0.0
 11
792.1664074431882
 21
1631.92820323012
 31
0.0
1001
REVIT
1002
{
1070
     3
1000
790271
1002
}
  0
LINE
  5
E1
330
87
100
AcDbEntity
  8
M-PIPE
100
AcDbLine
 10
835.0048647113057
 20
1632.999999999845
 30
0.0
 11
827.5048647112908
 21
1632.999999999845
 31
0.0
1001
REVIT
1002
{
1070
     3
1000
790271
1002
}
  0
LINE
  5
E2
330
87
100
AcDbEntity
  8
M-PIPE
100
AcDbLine
 10
823.1664074432067
 20
1632.999999999845
 30
0.0
 11
808.1664074431234
 21
1632.999999999845
 31
0.0
1001
REVIT
1002
{
1070
     3
1000
790271
1002
}
  0
LINE
  5
E3
330
87
100
AcDbEntity
  8
M-PIPE
100
AcDbLine
 10
803.8279501750874
 20
1632.999999999845
 30
0.0
 11
796.3279501750587
 21
1632.999999999845
 31
0.0
1001
REVIT
1002
{
1070
     3
1000
790271
1002
}
  0
LINE
  5
E4
330
87
100
AcDbEntity
  8
M-PIPE
100
AcDbLine
 10
827.5048647112908
 20
1632.999999999845
 30
0.0
 11
823.1664074432067
 21
1632.999999999845
 31
0.0
1001
REVIT
1002
{
1070
     3
1000
790271
1002
}
  0
LINE
  5
E5
330
87
100
AcDbEntity
  8
M-PIPE
100
AcDbLine
 10
827.5048647112916
 20
1632.999999999845
 30
0.0
 11
827.5048647112917
 21
1647.133974596191
 31
0.0
1001
REVIT
1002
{
1070
     3
1000
790271
1002
}
  0
LINE
  5
E6
330
87
100
AcDbEntity
  8
M-PIPE
100
AcDbLine
 10
823.1664074432043
 20
1647.133974596191
 30
0.0
 11
823.1664074432041
 21
1632.999999999845
 31
0.0
1001
REVIT
1002
{
1070
     3
1000
790271
1002
}
  0
LINE
  5
E7
330
87
100
AcDbEntity
  8
M-PIPE
100
AcDbLine
 10
808.166407443123
 20
1632.999999999845
 30
0.0
 11
803.8279501750874
 21
1632.999999999845
 31
0.0
1001
REVIT
1002
{
1070
     3
1000
790271
1002
}
  0
LINE
  5
E8
330
87
100
AcDbEntity
  8
M-PIPE
100
AcDbLine
 10
808.1664074431255
 20
1632.999999999845
 30
0.0
 11
808.1664074431255
 21
1647.133974596191
 31
0.0
1001
REVIT
1002
{
1070
     3
1000
790271
1002
}
  0
LINE
  5
E9
330
87
100
AcDbEntity
  8
M-PIPE
100
AcDbLine
 10
803.827950175086
 20
1647.133974596191
 30
0.0
 11
803.827950175086
 21
1632.999999999845
 31
0.0
1001
REVIT
1002
{
1070
     3
1000
790271
1002
}
  0
LINE
  5
EA
330
87
100
AcDbEntity
  8
M-PIPE
100
AcDbLine
 10
796.3279501750585
 20
1632.999999999845
 30
0.0
 11
796.1664074431881
 21
1632.999999999845
 31
0.0
1001
REVIT
1002
{
1070
     3
1000
790271
1002
}
  0
LINE
  5
EB
330
87
100
AcDbEntity
  8
M-PIPE
100
AcDbLine
 10
796.3279501750588
 20
1632.999999999845
 30
0.0
 11
796.3279501750588
 21
1647.133974596191
 31
0.0
1001
REVIT
1002
{
1070
     3
1000
790271
1002
}
  0
LINE
  5
EC
330
87
100
AcDbEntity
  8
M-PIPE
100
AcDbLine
 10
835.0048647113057
 20
1647.133974596191
 30
0.0
 11
835.0048647113055
 21
1632.999999999845
 31
0.0
1001
REVIT
1002
{
1070
     3
1000
790271
1002
}
  0
LINE
  5
ED
330
87
100
AcDbEntity
  8
M-PIPE
100
AcDbLine
 10
835.1664074431896
 20
1632.999999999845
 30
0.0
 11
835.0048647113057
 21
1632.999999999845
 31
0.0
1001
REVIT
1002
{
1070
     3
1000
790271
1002
}
  0
LINE
  5
EE
330
87
100
AcDbEntity
  8
M-PIPE
100
AcDbLine
 10
796.3279501750585
 20
1647.133974596191
 30
0.0
 11
796.1664074431881
 21
1647.133974596191
 31
0.0
1001
REVIT
1002
{
1070
     3
1000
790271
1002
}
  0
SPLINE
  5
EF
330
87
100
AcDbEntity
  8
M-PIPE
100
AcDbSpline
210
0.0
220
0.0
230
1.0
 70
     8
 71
     3
 72
     8
 73
     4
 74
     0
 42
0.000000001
 43
0.0000000001
 40
-1.0
 40
-1.0
 40
-1.0
 40
-1.0
 40
-0.62500000000001
 40
-0.62500000000001
 40
-0.62500000000001
 40
-0.62500000000001
 10
796.3279501750585
 20
1647.133974596191
 30
0.0
 10
797.2496387559267
 20
1647.566955223048
 30
0.0
 10
798.1772566189706
 20
1647.837568114833
 30
0.0
 10
799.1108037641903
 20
1647.945813271548
 30
0.0
1001
REVIT
1002
{
1070
     3
1000
790271
1002
}
  0
SPLINE
  5
F0
330
87
100
AcDbEntity
  8
M-PIPE
100
AcDbSpline
210
0.0
220
0.0
230
1.0
 70
     8
 71
     3
 72
     9
 73
     5
 74
     0
 42
0.000000001
 43
0.0000000001
 40
-0.5851103724680876
 40
-0.5851103724680876
 40
-0.5851103724680876
 40
-0.5851103724680876
 40
-0.5
 40
0.0
 40
0.0
 40
0.0
 40
0.0
 10
799.4089158182536
 20
1647.974844534244
 30
0.0
 10
799.6210808994483
 20
1647.991572078018
 30
0.0
 10
801.08175711794
 20
1648.049070706469
 30
0.0
 10
802.5568682829021
 20
1647.711282098667
 30
0.0
 10
803.8279501750874
 20
1647.133974596191
 30
0.0
1001
REVIT
1002
{
1070
     3
1000
790271
1002
}
  0
LINE
  5
F1
330
87
100
AcDbEntity
  8
M-PIPE
100
AcDbLine
 10
808.1664074431227
 20
1647.133974596191
 30
0.0
 11
803.8279501750876
 21
1647.133974596191
 31
0.0
1001
REVIT
1002
{
1070
     3
1000
790271
1002
}
  0
SPLINE
  5
F2
330
87
100
AcDbEntity
  8
M-PIPE
100
AcDbSpline
210
0.0
220
0.0
230
1.0
 70
     8
 71
     3
 72
     9
 73
     5
 74
     0
 42
0.000000001
 43
0.0000000001
 40
-1.0
 40
-1.0
 40
-1.0
 40
-1.0
 40
-0.5
 40
0.0
 40
0.0
 40
0.0
 40
0.0
 10
808.1664074431227
 20
1647.133974596191
 30
0.0
 10
809.4008941366819
 20
1647.416400443547
 30
0.0
 10
811.8853808302699
 20
1647.843163858198
 30
0.0
 10
814.4008941367966
 20
1647.993750712726
 30
0.0
 10
815.6664074432944
 20
1647.99999999996
 30
0.0
1001
REVIT
1002
{
1070
     3
1000
790271
1002
}
  0
SPLINE
  5
F3
330
87
100
AcDbEntity
  8
M-PIPE
100
AcDbSpline
210
0.0
220
0.0
230
1.0
 70
     8
 71
     3
 72
     9
 73
     5
 74
     0
 42
0.000000001
 43
0.0000000001
 40
-1.0
 40
-1.0
 40
-1.0
 40
-1.0
 40
-0.5
 40
0.0
 40
0.0
 40
0.0
 40
0.0
 10
815.6664074432944
 20
1647.99999999996
 30
0.0
 10
816.9319207497563
 20
1647.993750712716
 30
0.0
 10
819.4474340562035
 20
1647.843163858176
 30
0.0
 10
821.931920749698
 20
1647.416400443536
 30
0.0
 10
823.1664074432071
 20
1647.133974596191
 30
0.0
1001
REVIT
1002
{
1070
     3
1000
790271
1002
}
  0
LINE
  5
F4
330
87
100
AcDbEntity
  8
M-PIPE
100
AcDbLine
 10
827.5048647112907
 20
1647.133974596191
 30
0.0
 11
823.1664074432073
 21
1647.133974596191
 31
0.0
1001
REVIT
1002
{
1070
     3
1000
790271
1002
}
  0
SPLINE
  5
F5
330
87
100
AcDbEntity
  8
M-PIPE
100
AcDbSpline
210
0.0
220
0.0
230
1.0
 70
     8
 71
     3
 72
     8
 73
     4
 74
     0
 42
0.000000001
 43
0.0000000001
 40
-1.0
 40
-1.0
 40
-1.0
 40
-1.0
 40
-0.5833333333333128
 40
-0.5833333333333128
 40
-0.5833333333333128
 40
-0.5833333333333128
 10
827.5048647112905
 20
1647.133974596191
 30
0.0
 10
828.5289631344756
 20
1647.615064181581
 30
0.0
 10
829.5603816591123
 20
1647.895699773058
 30
0.0
 10
830.5991202852004
 20
1647.975881370623
 30
0.0
1001
REVIT
1002
{
1070
     3
1000
790271
1002
}
  0
SPLINE
  5
F6
330
87
100
AcDbEntity
  8
M-PIPE
100
AcDbSpline
210
0.0
220
0.0
230
1.0
 70
     8
 71
     3
 72
     9
 73
     5
 74
     0
 42
0.000000001
 43
0.0000000001
 40
-0.5827944014594884
 40
-0.5827944014594884
 40
-0.5827944014594884
 40
-0.5827944014594884
 40
-0.5
 40
-0.4162430945513092
 40
-0.4162430945513092
 40
-0.4162430945513092
 40
-0.4162430945513092
 10
830.6031509492894
 20
1647.976191493972
 30
0.0
 10
830.809558894799
 20
1647.992021064586
 30
0.0
 10
831.2249404837382
 20
1648.019314149747
 30
0.0
 10
831.6431623637772
 20
1647.968828573149
 30
0.0
 10
831.8539701531403
 20
1647.930065751333
 30
0.0
1001
REVIT
1002
{
1070
     3
1000
790271
1002
}
  0
SPLINE
  5
F7
330
87
100
AcDbEntity
  8
M-PIPE
100
AcDbSpline
210
0.0
220
0.0
230
1.0
 70
     8
 71
     3
 72
     8
 73
     4
 74
     0
 42
0.000000001
 43
0.0000000001
 40
-0.3958333333334734
 40
-0.3958333333334734
 40
-0.3958333333334734
 40
-0.3958333333334734
 40
0.0
 40
0.0
 40
0.0
 40
0.0
 10
832.00586439205
 20
1647.962350726034
 30
0.0
 10
832.9989247735753
 20
1647.867135078926
 30
0.0
 10
833.9985915466604
 20
1647.591009702312
 30
0.0
 10
835.0048647113057
 20
1647.133974596191
 30
0.0
1001
REVIT
1002
{
1070
     3
1000
790271
1002
}
  0
LINE
  5
F8
330
87
100
AcDbEntity
  8
M-PIPE
100
AcDbLine
 10
835.1664074431896
 20
1647.133974596191
 30
0.0
 11
835.0048647113057
 21
1647.133974596191
 31
0.0
1001
REVIT
1002
{
1070
     3
1000
790271
1002
}
  0
LINE
  5
F9
330
87
100
AcDbEntity
  8
M-PIPE
100
AcDbLine
 10
815.6664074433063
 20
1647.99999999996
 30
0.0
 11
797.666407443162
 21
1647.99999999996
 31
0.0
1001
REVIT
1002
{
1070
     3
1000
790271
1002
}
  0
LINE
  5
FA
330
87
100
AcDbEntity
  8
M-PIPE
100
AcDbLine
 10
833.6664074432158
 20
1647.99999999996
 30
0.0
 11
815.6664074433063
 21
1647.99999999996
 31
0.0
1001
REVIT
1002
{
1070
     3
1000
790271
1002
}
  0
LINE
  5
FB
330
87
100
AcDbEntity
  8
M-PIPE
100
AcDbLine
 10
885.8765869277673
 20
1677.148114265988
 30
0.0
 11
883.4178059992932
 21
1686.324409615718
 31
0.0
1001
REVIT
1002
{
1070
     3
1000
924063
1002
}
  0
LINE
  5
FC
330
87
100
AcDbEntity
  8
M-PIPE
100
AcDbLine
 10
866.9970669524056
 20
1681.924485848975
 30
0.0
 11
869.4531970869844
 21
1672.758083396742
 31
0.0
1001
REVIT
1002
{
1070
     3
1000
924063
1002
}
  0
LINE
  5
FD
330
87
100
AcDbEntity
  8
M-PIPE
100
AcDbLine
 10
883.4178059992932
 20
1686.324409615718
 30
0.0
 11
882.8054335635867
 21
1686.677963006317
 31
0.0
1001
REVIT
1002
{
1070
     3
1000
924063
1002
}
  0
LINE
  5
FE
330
87
100
AcDbEntity
  8
M-PIPE
100
AcDbLine
 10
867.3506203430047
 20
1682.536858284682
 30
0.0
 11
866.9970669524056
 21
1681.924485848975
 31
0.0
1001
REVIT
1002
{
1070
     3
1000
924063
1002
}
  0
LINE
  5
FF
330
87
100
AcDbEntity
  8
M-PIPE
100
AcDbLine
 10
893.2476484808917
 20
1668.955929824257
 30
0.0
 11
890.7058348728243
 21
1678.442107352918
 31
0.0
1001
REVIT
1002
{
1070
     3
1000
924063
1002
}
  0
LINE
  5
100
330
87
100
AcDbEntity
  8
M-PIPE
100
AcDbLine
 10
864.6265999358222
 20
1671.454197412314
 30
0.0
 11
867.1684135438894
 21
1661.968019883654
 31
0.0
1001
REVIT
1002
{
1070
     3
1000
924063
1002
}
  0
LINE
  5
101
330
87
100
AcDbEntity
  8
M-PIPE
100
AcDbLine
 10
867.3506203430024
 20
1682.536858284681
 30
0.0
 11
882.8054335635846
 21
1686.677963006317
 31
0.0
1001
REVIT
1002
{
1070
     3
1000
924063
1002
}
  0
LINE
  5
102
330
87
100
AcDbEntity
  8
M-PIPE
100
AcDbLine
 10
883.4178059992908
 20
1686.324409615718
 30
0.0
 11
866.9970669524033
 21
1681.924485848975
 31
0.0
1001
REVIT
1002
{
1070
     3
1000
924063
1002
}
  0
LINE
  5
103
330
87
100
AcDbEntity
  8
M-PIPE
100
AcDbLine
 10
881.6108428499134
 20
1665.837857152953
 30
0.0
 11
878.8052191748457
 21
1665.086092554952
 31
0.0
1001
REVIT
1002
{
1070
     3
1000
924063
1002
}
  0
SPLINE
  5
104
330
87
100
AcDbEntity
  8
M-PIPE
100
AcDbSpline
210
0.0
220
0.0
230
1.0
 70
    24
 71
     3
 72
     8
 73
     4
 74
     0
 42
0.000000001
 43
0.0000000001
 40
0.0043677869019033
 40
0.0043677869019033
 40
0.0043677869019033
 40
0.0043677869019033
 40
0.0185301883273134
 40
0.0185301883273134
 40
0.0185301883273134
 40
0.0185301883273134
 10
878.8052191748457
 20
1665.086092554952
 30
0.0
 10
877.1144399377652
 20
1664.633049623796
 30
0.0
 10
874.8575609744962
 20
1664.028320728172
 30
0.0
 10
872.0345822850392
 20
1663.271905868081
 30
0.0
1001
REVIT
1002
{
1070
     3
1000
924063
1002
}
  0
LINE
  5
105
330
87
100
AcDbEntity
  8
M-PIPE
100
AcDbLine
 10
872.0345822850392
 20
1663.271905868081
 30
0.0
 11
870.0029549288242
 21
1662.727532958661
 31
0.0
1001
REVIT
1002
{
1070
     3
1000
924063
1002
}
  0
SPLINE
  5
106
330
87
100
AcDbEntity
  8
M-PIPE
100
AcDbSpline
210
0.0
220
0.0
230
1.0
 70
    24
 71
     3
 72
     8
 73
     4
 74
     0
 42
0.000000001
 43
0.0000000001
 40
0.0033094438410981
 40
0.0033094438410981
 40
0.0033094438410981
 40
0.0033094438410981
 40
0.0174718452665524
 40
0.0174718452665524
 40
0.0174718452665524
 40
0.0174718452665524
 10
870.0029549288242
 20
1662.727532958661
 30
0.0
 10
869.8861283984316
 20
1662.696229384188
 30
0.0
 10
869.0244812108675
 20
1662.465351716119
 30
0.0
 10
867.4180133661323
 20
1662.034899954455
 30
0.0
1001
REVIT
1002
{
1070
     3
1000
924063
1002
}
  0
LINE
  5
107
330
87
100
AcDbEntity
  8
M-PIPE
100
AcDbLine
 10
867.4180133661323
 20
1662.034899954455
 30
0.0
 11
867.1964031129588
 21
1661.975519666083
 31
0.0
1001
REVIT
1002
{
1070
     3
1000
924063
1002
}
  0
LINE
  5
108
330
87
100
AcDbEntity
  8
M-PIPE
100
AcDbLine
 10
893.2196589118174
 20
1668.948430041827
 30
0.0
 11
892.9980486586499
 21
1668.889049753457
 31
0.0
1001
REVIT
1002
{
1070
     3
1000
924063
1002
}
  0
SPLINE
  5
109
330
87
100
AcDbEntity
  8
M-PIPE
100
AcDbSpline
210
0.0
220
0.0
230
1.0
 70
    24
 71
     3
 72
     8
 73
     4
 74
     0
 42
0.000000001
 43
0.0000000001
 40
0.0043677869018712
 40
0.0043677869018712
 40
0.0043677869018712
 40
0.0043677869018712
 40
0.0185301883275437
 40
0.0185301883275437
 40
0.0185301883275437
 40
0.0185301883275437
 10
892.9980486586499
 20
1668.889049753456
 30
0.0
 10
891.3915808138858
 20
1668.458597991784
 30
0.0
 10
890.5299336263155
 20
1668.227720323714
 30
0.0
 10
890.4131070959397
 20
1668.196416749245
 30
0.0
1001
REVIT
1002
{
1070
     3
1000
924063
1002
}
  0
LINE
  5
10A
330
87
100
AcDbEntity
  8
M-PIPE
100
AcDbLine
 10
890.4131070959397
 20
1668.196416749245
 30
0.0
 11
888.3814797398223
 21
1667.652043839852
 31
0.0
1001
REVIT
1002
{
1070
     3
1000
924063
1002
}
  0
SPLINE
  5
10B
330
87
100
AcDbEntity
  8
M-PIPE
100
AcDbSpline
210
0.0
220
0.0
230
1.0
 70
    24
 71
     3
 72
     8
 73
     4
 74
     0
 42
0.000000001
 43
0.0000000001
 40
0.0033094438410097
 40
0.0033094438410097
 40
0.0033094438410097
 40
0.0033094438410097
 40
0.017471845266611
 40
0.017471845266611
 40
0.017471845266611
 40
0.017471845266611
 10
888.3814797398223
 20
1667.652043839852
 30
0.0
 10
885.5585010503158
 20
1666.895628979747
 30
0.0
 10
883.3016220870129
 20
1666.290900084114
 30
0.0
 10
881.6108428499134
 20
1665.837857152953
 30
0.0
1001
REVIT
1002
{
1070
     3
1000
924063
1002
}
  0
LINE
  5
10C
330
87
100
AcDbEntity
  8
M-PIPE
100
AcDbLine
 10
876.2634055667785
 20
1674.572270083613
 30
0.0
 11
879.069029241846
 21
1675.324034681614
 31
0.0
1001
REVIT
1002
{
1070
     3
1000
924063
1002
}
  0
SPLINE
  5
10D
330
87
100
AcDbEntity
  8
M-PIPE
100
AcDbSpline
210
0.0
220
0.0
230
1.0
 70
    24
 71
     3
 72
     8
 73
     4
 74
     0
 42
0.000000001
 43
0.0000000001
 40
-0.017471845266611
 40
-0.017471845266611
 40
-0.017471845266611
 40
-0.017471845266611
 40
-0.0033094438410097
 40
-0.0033094438410097
 40
-0.0033094438410097
 40
-0.0033094438410097
 10
879.0690292418462
 20
1675.324034681614
 30
0.0
 10
880.7598084789455
 20
1675.777077612775
 30
0.0
 10
883.0166874422486
 20
1676.381806508407
 30
0.0
 10
885.839666131755
 20
1677.138221368512
 30
0.0
1001
REVIT
1002
{
1070
     3
1000
924063
1002
}
  0
LINE
  5
10E
330
87
100
AcDbEntity
  8
M-PIPE
100
AcDbLine
 10
885.839666131755
 20
1677.138221368512
 30
0.0
 11
887.8712934878723
 21
1677.682594277906
 31
0.0
1001
REVIT
1002
{
1070
     3
1000
924063
1002
}
  0
SPLINE
  5
10F
330
87
100
AcDbEntity
  8
M-PIPE
100
AcDbSpline
210
0.0
220
0.0
230
1.0
 70
    24
 71
     3
 72
     8
 73
     4
 74
     0
 42
0.000000001
 43
0.0000000001
 40
-0.0185301883275437
 40
-0.0185301883275437
 40
-0.0185301883275437
 40
-0.0185301883275437
 40
-0.0043677869018712
 40
-0.0043677869018712
 40
-0.0043677869018712
 40
-0.0043677869018712
 10
887.8712934878723
 20
1677.682594277906
 30
0.0
 10
887.9881200182483
 20
1677.713897852375
 30
0.0
 10
888.8497672058184
 20
1677.944775520445
 30
0.0
 10
890.4562350505827
 20
1678.375227282117
 30
0.0
1001
REVIT
1002
{
1070
     3
1000
924063
1002
}
  0
LINE
  5
110
330
87
100
AcDbEntity
  8
M-PIPE
100
AcDbLine
 10
890.4562350505827
 20
1678.375227282117
 30
0.0
 11
890.67784530375
 21
1678.434607570488
 31
0.0
1001
REVIT
1002
{
1070
     3
1000
924063
1002
}
  0
LINE
  5
111
330
87
100
AcDbEntity
  8
M-PIPE
100
AcDbLine
 10
864.6545895048914
 20
1671.461697194743
 30
0.0
 11
864.8761997580651
 21
1671.521077483116
 31
0.0
1001
REVIT
1002
{
1070
     3
1000
924063
1002
}
  0
SPLINE
  5
112
330
87
100
AcDbEntity
  8
M-PIPE
100
AcDbSpline
210
0.0
220
0.0
230
1.0
 70
    24
 71
     3
 72
     8
 73
     4
 74
     0
 42
0.000000001
 43
0.0000000001
 40
-0.0174718452665524
 40
-0.0174718452665524
 40
-0.0174718452665524
 40
-0.0174718452665524
 40
-0.0033094438410981
 40
-0.0033094438410981
 40
-0.0033094438410981
 40
-0.0033094438410981
 10
864.8761997580651
 20
1671.521077483116
 30
0.0
 10
866.4826676028003
 20
1671.95152924478
 30
0.0
 10
867.3443147903642
 20
1672.182406912849
 30
0.0
 10
867.4611413207568
 20
1672.213710487322
 30
0.0
1001
REVIT
1002
{
1070
     3
1000
924063
1002
}
  0
LINE
  5
113
330
87
100
AcDbEntity
  8
M-PIPE
100
AcDbLine
 10
867.461141320757
 20
1672.213710487322
 30
0.0
 11
869.492768676972
 21
1672.758083396742
 31
0.0
1001
REVIT
1002
{
1070
     3
1000
924063
1002
}
  0
SPLINE
  5
114
330
87
100
AcDbEntity
  8
M-PIPE
100
AcDbSpline
210
0.0
220
0.0
230
1.0
 70
    24
 71
     3
 72
     8
 73
     4
 74
     0
 42
0.000000001
 43
0.0000000001
 40
-0.0185301883273134
 40
-0.0185301883273134
 40
-0.0185301883273134
 40
-0.0185301883273134
 40
-0.0043677869019033
 40
-0.0043677869019033
 40
-0.0043677869019033
 40
-0.0043677869019033
 10
869.492768676972
 20
1672.758083396742
 30
0.0
 10
872.315747366429
 20
1673.514498256833
 30
0.0
 10
874.5726263296978
 20
1674.119227152457
 30
0.0
 10
876.2634055667785
 20
1674.572270083612
 30
0.0
1001
REVIT
1002
{
1070
     3
1000
924063
1002
}
  0
LINE
  5
115
330
87
100
AcDbEntity
  8
M-PIPE
100
AcDbLine
 10
879.0690292418462
 20
1675.324034681614
 30
0.0
 11
881.6108428499134
 21
1665.837857152953
 31
0.0
1001
REVIT
1002
{
1070
     3
1000
924063
1002
}
  0
LINE
  5
116
330
87
100
AcDbEntity
  8
M-PIPE
100
AcDbLine
 10
888.3814797398223
 20
1667.652043839852
 30
0.0
 11
885.839666131755
 21
1677.138221368512
 31
0.0
1001
REVIT
1002
{
1070
     3
1000
924063
1002
}
  0
LINE
  5
117
330
87
100
AcDbEntity
  8
M-PIPE
100
AcDbLine
 10
878.8052191748457
 20
1665.086092554952
 30
0.0
 11
876.2634055667785
 21
1674.572270083612
 31
0.0
1001
REVIT
1002
{
1070
     3
1000
924063
1002
}
  0
LINE
  5
118
330
87
100
AcDbEntity
  8
M-PIPE
100
AcDbLine
 10
869.492768676972
 20
1672.758083396742
 30
0.0
 11
872.0345822850392
 21
1663.271905868081
 31
0.0
1001
REVIT
1002
{
1070
     3
1000
924063
1002
}
  0
LINE
  5
119
330
87
100
AcDbEntity
  8
M-PIPE
100
AcDbLine
 10
864.8761997580651
 20
1671.521077483116
 30
0.0
 11
867.4180133661323
 21
1662.034899954455
 31
0.0
1001
REVIT
1002
{
1070
     3
1000
924063
1002
}
  0
LINE
  5
11A
330
87
100
AcDbEntity
  8
M-PIPE
100
AcDbLine
 10
870.0029549288242
 20
1662.727532958661
 30
0.0
 11
867.461141320757
 21
1672.213710487322
 31
0.0
1001
REVIT
1002
{
1070
     3
1000
924063
1002
}
  0
LINE
  5
11B
330
87
100
AcDbEntity
  8
M-PIPE
100
AcDbLine
 10
892.9980486586499
 20
1668.889049753456
 30
0.0
 11
890.4562350505827
 21
1678.375227282117
 31
0.0
1001
REVIT
1002
{
1070
     3
1000
924063
1002
}
  0
LINE
  5
11C
330
87
100
AcDbEntity
  8
M-PIPE
100
AcDbLine
 10
887.8712934878723
 20
1677.682594277906
 30
0.0
 11
890.4131070959397
 21
1668.196416749245
 31
0.0
1001
REVIT
1002
{
1070
     3
1000
924063
1002
}
  0
LWPOLYLINE
  5
11D
330
87
100
AcDbEntity
  8
P-SANR-FIXT
100
AcDbPolyline
 90
        9
 70
   128
 43
0.0
 10
785.6674231492985
 20
2149.999999999996
 10
785.7012910235396
 20
2149.999999999996
 10
785.7830966918347
 20
2149.999999999996
 10
785.9127092825659
 20
2149.999999999996
 10
786.0899214432366
 20
2149.999999999996
 10
786.3144496721937
 20
2149.999999999996
 10
786.5859347721673
 20
2149.999999999996
 10
786.9039424249112
 20
2149.999999999996
 10
787.0586970885481
 20
2149.999999999996
  0
LWPOLYLINE
  5
11E
330
87
100
AcDbEntity
  8
P-SANR-FIXT
100
AcDbPolyline
 90
       10
 70
   128
 43
0.0
 10
844.276021915433
 20
2149.999999999996
 10
844.3847045883089
 20
2149.999999999996
 10
844.7086492094623
 20
2149.999999999996
 10
844.9861324391372
 20
2149.999999999996
 10
845.21671036336
 20
2149.999999999996
 10
845.4000141066385
 20
2149.999999999996
 10
845.5357504220868
 20
2149.999999999996
 10
845.6237021605558
 20
2149.999999999996
 10
845.6637286180253
 20
2149.999999999996
 10
845.6653917370816
 20
2149.999999999996
  0
LINE
  5
11F
330
87
100
AcDbEntity
  8
P-SANR-FIXT
100
AcDbLine
 10
785.6674231492968
 20
2149.999999999995
 30
0.0
 11
802.2164074431882
 21
2149.999999999995
 31
0.0
  0
LINE
  5
120
330
87
100
AcDbEntity
  8
P-SANR-FIXT
100
AcDbLine
 10
829.1164074431879
 20
2149.999999999995
 30
0.0
 11
845.6653917370793
 21
2149.999999999995
 31
0.0
  0
LWPOLYLINE
  5
121
330
87
100
AcDbEntity
  8
P-SANR-FIXT
100
AcDbPolyline
 90
        6
 70
   128
 43
0.0
 10
845.6653917370793
 20
2149.999999999995
 10
863.1605472177671
 20
2148.842704159253
 10
880.347329442095
 20
2145.391872505929
 10
896.9279444235255
 20
2139.708422864206
 10
912.6151555851292
 20
2131.891393547297
 10
927.1357826512151
 20
2122.077235052503
  0
SPLINE
  5
122
330
87
100
AcDbEntity
  8
P-SANR-FIXT
100
AcDbSpline
210
0.0
220
0.0
230
1.0
 70
     8
 71
     3
 72
    11
 73
     7
 74
     0
 42
0.000000001
 43
0.0000000001
 40
-1.0
 40
-1.0
 40
-1.0
 40
-1.0
 40
-0.85
 40
-0.7
 40
-0.4
 40
-0.2
 40
-0.2
 40
-0.2
 40
-0.2
 10
704.1970322351611
 20
2122.077235052503
 30
0.0
 10
707.6813659897428
 20
2124.780415823437
 30
0.0
 10
714.8606142743476
 20
2129.808026876106
 30
0.0
 10
730.1592788549417
 20
2138.399712244801
 30
0.0
 10
748.0055702086919
 20
2145.189097277968
 30
0.0
 10
762.3844087190896
 20
2148.073519076378
 30
0.0
 10
768.1722676686089
 20
2148.842704159253
 30
0.0
  0
SPLINE
  5
123
330
87
100
AcDbEntity
  8
P-SANR-FIXT
100
AcDbSpline
210
0.0
220
0.0
230
1.0
 70
     8
 71
     3
 72
     8
 73
     4
 74
     0
 42
0.000000001
 43
0.0000000001
 40
-0.1911358971353005
 40
-0.1911358971353005
 40
-0.1911358971353005
 40
-0.1911358971353005
 40
0.0
 40
0.0
 40
0.0
 40
0.0
 10
768.9420463451564
 20
2148.942710176539
 30
0.0
 10
774.4765039051997
 20
2149.645232127628
 30
0.0
 10
780.0450517529196
 20
2149.996646223002
 30
0.0
 10
785.6674231492968
 20
2149.999999999995
 30
0.0
  0
LWPOLYLINE
  5
124
330
87
100
AcDbEntity
  8
P-SANR-FIXT
100
AcDbPolyline
 90
        5
 70
   128
 43
0.0
 10
927.1357826512149
 20
2122.077235052503
 10
932.8222139167888
 20
2116.516195108283
 10
937.1056488230649
 20
2109.816157545816
 10
939.7658196399387
 20
2102.323248385025
 10
940.6661636776108
 20
2094.43570487396
  0
SPLINE
  5
125
330
87
100
AcDbEntity
  8
P-SANR-FIXT
100
AcDbSpline
210
0.0
220
0.0
230
1.0
 70
     8
 71
     3
 72
    11
 73
     7
 74
     0
 42
0.000000001
 43
0.0000000001
 40
-1.0
 40
-1.0
 40
-1.0
 40
-1.0
 40
-0.75
 40
-0.5
 40
-0.25
 40
0.0
 40
0.0
 40
0.0
 40
0.0
 10
690.6666512087651
 20
2094.43570487396
 30
0.0
 10
690.673461424789
 20
2097.130658436027
 30
0.0
 10
691.2686825308712
 20
2102.369126540613
 30
0.0
 10
693.9513904833916
 20
2109.951559763961
 30
0.0
 10
698.2887519154291
 20
2116.721579678437
 30
0.0
 10
702.0677224200868
 20
2120.413388007471
 30
0.0
 10
704.1970322351611
 20
2122.077235052503
 30
0.0
  0
LINE
  5
126
330
87
100
AcDbEntity
  8
P-SANR-FIXT
100
AcDbLine
 10
940.6661636776107
 20
2094.435704873959
 30
0.0
 11
940.6661636776107
 21
2037.999999999994
 31
0.0
  0
LINE
  5
127
330
87
100
AcDbEntity
  8
P-SANR-FIXT
100
AcDbLine
 10
690.6666512087654
 20
2037.999999999996
 30
0.0
 11
690.6666512087654
 21
2094.435704873959
 31
0.0
  0
LINE
  5
128
330
87
100
AcDbEntity
  8
P-SANR-FIXT
100
AcDbLine
 10
940.6661636776107
 20
1961.999999999995
 30
0.0
 11
940.6661636776107
 21
1744.113567765511
 31
0.0
  0
LINE
  5
129
330
87
100
AcDbEntity
  8
P-SANR-FIXT
100
AcDbLine
 10
690.6666512087654
 20
1744.113567765511
 30
0.0
 11
690.6666512087654
 21
1961.999999999994
 31
0.0
  0
LWPOLYLINE
  5
12A
330
87
100
AcDbEntity
  8
P-SANR-FIXT
100
AcDbPolyline
 90
        6
 70
   128
 43
0.0
 10
940.6661636776115
 20
1744.113567765511
 10
939.7950567289351
 20
1736.353507049028
 10
937.2259593724338
 20
1728.981520307928
 10
933.0876337983447
 20
1722.363576648801
 10
927.5863670493476
 20
1716.827977517044
 10
921.0035900557803
 20
1712.653085310107
  0
SPLINE
  5
12B
330
87
100
AcDbEntity
  8
P-SANR-FIXT
100
AcDbSpline
210
0.0
220
0.0
230
1.0
 70
     8
 71
     3
 72
    12
 73
     8
 74
     0
 42
0.000000001
 43
0.0000000001
 40
-1.0
 40
-1.0
 40
-1.0
 40
-1.0
 40
-0.85
 40
-0.7
 40
-0.4
 40
-0.2
 40
0.0
 40
0.0
 40
0.0
 40
0.0
 10
710.3292248305957
 20
1712.653085310107
 30
0.0
 10
708.5483418016328
 20
1713.526719996239
 30
0.0
 10
705.1981922249268
 20
1715.521009344094
 30
0.0
 10
699.2383592720364
 20
1720.595018815922
 30
0.0
 10
694.273217174269
 20
1727.607271359955
 30
0.0
 10
691.2497768928707
 20
1736.307864640244
 30
0.0
 10
690.674021790353
 20
1741.46220186412
 30
0.0
 10
690.6666512087654
 20
1744.113567765511
 30
0.0
  0
LWPOLYLINE
  5
12C
330
87
100
AcDbEntity
  8
P-SANR-FIXT
100
AcDbPolyline
 90
        3
 70
   128
 43
0.0
 10
921.0035900557802
 20
1712.653085310107
 10
895.8946540116052
 20
1702.238894307577
 10
886.6800448738571
 20
1699.274894773645
  0
LWPOLYLINE
  5
12D
330
87
100
AcDbEntity
  8
P-SANR-FIXT
100
AcDbPolyline
 90
        3
 70
   128
 43
0.0
 10
861.3647509378427
 20
1693.306078626518
 10
842.7980940951222
 20
1690.825148984674
 10
833.3203346628325
 20
1690.215644494011
  0
SPLINE
  5
12E
330
87
100
AcDbEntity
  8
P-SANR-FIXT
100
AcDbSpline
210
0.0
220
0.0
230
1.0
 70
     8
 71
     3
 72
    11
 73
     7
 74
     0
 42
0.000000001
 43
0.0000000001
 40
-0.8284759140936925
 40
-0.8284759140936925
 40
-0.8284759140936925
 40
-0.8284759140936925
 40
-0.75
 40
-0.5
 40
-0.25
 40
0.0
 40
0.0
 40
0.0
 40
0.0
 10
797.0342689654195
 20
1690.211081928074
 30
0.0
 10
794.1994034475976
 20
1690.361890682202
 30
0.0
 10
782.3423736034027
 20
1691.218501833478
 30
0.0
 10
761.4864943730286
 20
1694.391778451953
 30
0.0
 10
735.2463822633692
 20
1701.72715427488
 30
0.0
 10
718.5200886358672
 20
1708.664364954289
 30
0.0
 10
710.3292248305957
 20
1712.653085310107
 30
0.0
  0
LINE
  5
12F
330
87
100
AcDbEntity
  8
P-SANR-FIXT
100
AcDbLine
 10
845.4746616260301
 20
1710.321688676207
 30
0.0
 11
856.0705348067058
 21
1713.160844338085
 31
0.0
  0
LINE
  5
130
330
87
100
AcDbEntity
  8
P-SANR-FIXT
100
AcDbLine
 10
856.0705348067058
 20
1713.160844338085
 30
0.0
 11
877.2622811680568
 21
1718.839155661841
 31
0.0
  0
LINE
  5
131
330
87
100
AcDbEntity
  8
P-SANR-FIXT
100
AcDbLine
 10
877.2622811680568
 20
1718.839155661841
 30
0.0
 11
887.8581543487323
 21
1721.678311323719
 31
0.0
  0
LINE
  5
132
330
87
100
AcDbEntity
  8
P-SANR-FIXT
100
AcDbLine
 10
890.4463447997649
 20
1712.019053060846
 30
0.0
 11
879.8504716190892
 21
1709.179897398968
 31
0.0
  0
LINE
  5
133
330
87
100
AcDbEntity
  8
P-SANR-FIXT
100
AcDbLine
 10
879.8504716190892
 20
1709.179897398968
 30
0.0
 11
858.6587252577382
 21
1703.501586075212
 31
0.0
  0
LINE
  5
134
330
87
100
AcDbEntity
  8
P-SANR-FIXT
100
AcDbLine
 10
858.6587252577382
 20
1703.501586075212
 30
0.0
 11
848.0628520770627
 21
1700.662430413334
 31
0.0
  0
LINE
  5
135
330
87
100
AcDbEntity
  8
P-SANR-FIXT
100
AcDbLine
 10
845.4746616260301
 20
1710.321688676207
 30
0.0
 11
848.0628520770627
 21
1700.662430413334
 31
0.0
  0
LINE
  5
136
330
87
100
AcDbEntity
  8
P-SANR-FIXT
100
AcDbLine
 10
858.6587252577382
 20
1703.501586075212
 30
0.0
 11
856.0705348067058
 21
1713.160844338085
 31
0.0
  0
LINE
  5
137
330
87
100
AcDbEntity
  8
P-SANR-FIXT
100
AcDbLine
 10
879.8504716190892
 20
1709.179897398968
 30
0.0
 11
877.2622811680568
 21
1718.839155661841
 31
0.0
  0
LINE
  5
138
330
87
100
AcDbEntity
  8
P-SANR-FIXT
100
AcDbLine
 10
890.4463447997649
 20
1712.019053060846
 30
0.0
 11
887.8581543487323
 21
1721.678311323719
 31
0.0
  0
LINE
  5
139
330
87
100
AcDbEntity
  8
P-SANR-FIXT
100
AcDbLine
 10
858.1464514361693
 20
1703.364322718419
 30
0.0
 11
856.7322378737454
 21
1700.914832975545
 31
0.0
  0
LINE
  5
13A
330
87
100
AcDbEntity
  8
P-SANR-FIXT
100
AcDbLine
 10
882.8122351835487
 20
1707.902947193325
 30
0.0
 11
882.7524904707841
 21
1707.937440819322
 31
0.0
  0
LINE
  5
13B
330
87
100
AcDbEntity
  8
P-SANR-FIXT
100
AcDbLine
 10
882.7494440258309
 20
1707.939199685136
 30
0.0
 11
880.3627454406582
 21
1709.317160755758
 31
0.0
  0
LINE
  5
13C
330
87
100
AcDbEntity
  8
P-SANR-FIXT
100
AcDbLine
 10
856.7322378737454
 20
1700.914832975545
 30
0.0
 11
857.6381045315892
 21
1697.534092583595
 31
0.0
  0
LINE
  5
13D
330
87
100
AcDbEntity
  8
P-SANR-FIXT
100
AcDbLine
 10
883.7181018413923
 20
1704.522206801375
 30
0.0
 11
882.8122351835487
 21
1707.902947193325
 31
0.0
  0
LINE
  5
13E
330
87
100
AcDbEntity
  8
P-SANR-FIXT
100
AcDbLine
 10
857.6381045315892
 20
1697.534092583595
 30
0.0
 11
857.6978492443533
 21
1697.499598957598
 31
0.0
  0
LINE
  5
13F
330
87
100
AcDbEntity
  8
P-SANR-FIXT
100
AcDbLine
 10
857.7008956893067
 20
1697.497840091784
 30
0.0
 11
860.0875942743732
 21
1696.119879021223
 31
0.0
  0
LINE
  5
140
330
87
100
AcDbEntity
  8
P-SANR-FIXT
100
AcDbLine
 10
882.3038882790203
 20
1702.072717058591
 30
0.0
 11
883.7181018413925
 21
1704.522206801375
 31
0.0
  0
LINE
  5
141
330
87
100
AcDbEntity
  8
P-SANR-FIXT
100
AcDbLine
 10
860.0875942743732
 20
1696.119879021223
 30
0.0
 11
860.8640514096821
 21
1693.222101542356
 31
0.0
  0
LINE
  5
142
330
87
100
AcDbEntity
  8
P-SANR-FIXT
100
AcDbLine
 10
883.0803454143291
 20
1699.174939579724
 30
0.0
 11
882.3038882790203
 21
1702.072717058591
 31
0.0
  0
LINE
  5
143
330
87
100
AcDbEntity
  8
P-SANR-FIXT
100
AcDbLine
 10
857.483311017671
 20
1692.316234884496
 30
0.0
 11
858.4124409191947
 21
1688.848674885184
 31
0.0
  0
LINE
  5
144
330
87
100
AcDbEntity
  8
P-SANR-FIXT
100
AcDbLine
 10
887.3902157078642
 20
1696.613246238272
 30
0.0
 11
886.4610858063404
 21
1700.080806237584
 31
0.0
  0
LINE
  5
145
330
87
100
AcDbEntity
  8
P-SANR-FIXT
100
AcDbLine
 10
865.1739217032712
 20
1690.660408200919
 30
0.0
 11
867.3506203429992
 21
1682.536858284702
 31
0.0
  0
LINE
  5
146
330
87
100
AcDbEntity
  8
P-SANR-FIXT
100
AcDbLine
 10
882.8054335635156
 20
1686.677963006321
 30
0.0
 11
880.6287349237877
 21
1694.801512922537
 31
0.0
  0
LINE
  5
147
330
87
100
AcDbEntity
  8
P-SANR-FIXT
100
AcDbLine
 10
882.8054335635135
 20
1686.67796300632
 30
0.0
 11
867.3506203429969
 21
1682.536858284701
 31
0.0
  0
LINE
  5
148
330
87
100
AcDbEntity
  8
P-SANR-FIXT
100
AcDbLine
 10
856.7322378737431
 20
1700.914832975545
 30
0.0
 11
882.8122351835462
 21
1707.902947193324
 31
0.0
  0
LINE
  5
149
330
87
100
AcDbEntity
  8
P-SANR-FIXT
100
AcDbLine
 10
857.6381045315869
 20
1697.534092583595
 30
0.0
 11
883.7181018413902
 21
1704.522206801375
 31
0.0
  0
LINE
  5
14A
330
87
100
AcDbEntity
  8
P-SANR-FIXT
100
AcDbLine
 10
860.087594274371
 20
1696.119879021222
 30
0.0
 11
882.303888279018
 21
1702.07271705859
 31
0.0
  0
LINE
  5
14B
330
87
100
AcDbEntity
  8
P-SANR-FIXT
100
AcDbLine
 10
857.4833110176687
 20
1692.316234884495
 30
0.0
 11
886.4610858063381
 21
1700.080806237584
 31
0.0
  0
LINE
  5
14C
330
87
100
AcDbEntity
  8
P-SANR-FIXT
100
AcDbLine
 10
858.4124409191925
 20
1688.848674885183
 30
0.0
 11
887.3902157078619
 21
1696.613246238271
 31
0.0
  0
LINE
  5
14D
330
87
100
AcDbEntity
  8
P-SANR-FIXT
100
AcDbLine
 10
804.6664074431898
 20
2195.000000000011
 30
0.0
 11
803.7650726445569
 21
2194.47961411139
 31
0.0
  0
LINE
  5
14E
330
87
100
AcDbEntity
  8
P-SANR-FIXT
100
AcDbLine
 10
803.5938405584333
 20
2194.380753220373
 30
0.0
 11
802.9647015210381
 21
2194.017519627775
 31
0.0
  0
LINE
  5
14F
330
87
100
AcDbEntity
  8
P-SANR-FIXT
100
AcDbLine
 10
828.3681133653374
 20
2194.017519627778
 30
0.0
 11
827.7230020979029
 21
2194.389974791688
 31
0.0
  0
LINE
  5
150
330
87
100
AcDbEntity
  8
P-SANR-FIXT
100
AcDbLine
 10
827.5677422418187
 20
2194.479614111393
 30
0.0
 11
826.6664074431906
 21
2195.000000000011
 31
0.0
  0
LINE
  5
151
330
87
100
AcDbEntity
  8
P-SANR-FIXT
100
AcDbLine
 10
831.1664074431519
 20
2170.000000000023
 30
0.0
 11
831.1664074431519
 21
2186.499999999949
 31
0.0
  0
LINE
  5
152
330
87
100
AcDbEntity
  8
P-SANR-FIXT
100
AcDbLine
 10
800.1664074432236
 20
2186.499999999949
 30
0.0
 11
800.1664074432236
 21
2170.000000000023
 31
0.0
  0
LINE
  5
153
330
87
100
AcDbEntity
  8
P-SANR-FIXT
100
AcDbLine
 10
822.0172604042641
 20
2194.017519627778
 30
0.0
 11
822.0172604042641
 21
2186.499999999947
 31
0.0
  0
SPLINE
  5
154
330
87
100
AcDbEntity
  8
P-SANR-FIXT
100
AcDbSpline
210
0.0
220
0.0
230
1.0
 70
     8
 71
     3
 72
     9
 73
     5
 74
     0
 42
0.000000001
 43
0.0000000001
 40
0.0
 40
0.0
 40
0.0
 40
0.0
 40
0.5
 40
1.0
 40
1.0
 40
1.0
 40
1.0
 10
828.3681133653429
 20
2194.017519627773
 30
0.0
 10
827.8427174689774
 20
2194.334644458346
 30
0.0
 10
826.7880838258546
 20
2194.815516017626
 30
0.0
 10
825.725766481948
 20
2194.989631373171
 30
0.0
 10
825.1926868847984
 20
2195.00000000001
 30
0.0
  0
SPLINE
  5
155
330
87
100
AcDbEntity
  8
P-SANR-FIXT
100
AcDbSpline
210
0.0
220
0.0
230
1.0
 70
     8
 71
     3
 72
     9
 73
     5
 74
     0
 42
0.000000001
 43
0.0000000001
 40
0.0
 40
0.0
 40
0.0
 40
0.0
 40
0.5
 40
1.0
 40
1.0
 40
1.0
 40
1.0
 10
825.1926868847984
 20
2195.00000000001
 30
0.0
 10
824.659607287651
 20
2194.989631373171
 30
0.0
 10
823.5972899437474
 20
2194.815516017627
 30
0.0
 10
822.5426563006278
 20
2194.33464445835
 30
0.0
 10
822.0172604042641
 20
2194.017519627778
 30
0.0
  0
LINE
  5
156
330
87
100
AcDbEntity
  8
P-SANR-FIXT
100
AcDbLine
 10
828.3681133653429
 20
2186.499999999947
 30
0.0
 11
828.3681133653429
 21
2194.017519627773
 31
0.0
  0
LINE
  5
157
330
87
100
AcDbEntity
  8
P-SANR-FIXT
100
AcDbLine
 10
825.7169765672241
 20
2195.00000000001
 30
0.0
 11
825.1926868848173
 21
2195.00000000001
 31
0.0
  0
LINE
  5
158
330
87
100
AcDbEntity
  8
P-SANR-FIXT
100
AcDbLine
 10
825.1926868848173
 20
2195.00000000001
 30
0.0
 11
824.6807612142587
 21
2195.00000000001
 31
0.0
  0
LINE
  5
159
330
87
100
AcDbEntity
  8
P-SANR-FIXT
100
AcDbLine
 10
816.7265166919635
 20
2195.00000000001
 30
0.0
 11
815.6664074431882
 21
2195.00000000001
 31
0.0
  0
LINE
  5
15A
330
87
100
AcDbEntity
  8
P-SANR-FIXT
100
AcDbLine
 10
815.6664074431882
 20
2195.00000000001
 30
0.0
 11
814.6062981944089
 21
2195.00000000001
 31
0.0
  0
LINE
  5
15B
330
87
100
AcDbEntity
  8
P-SANR-FIXT
100
AcDbLine
 10
806.6520536721036
 20
2195.00000000001
 30
0.0
 11
806.1401280015589
 21
2195.00000000001
 31
0.0
  0
LINE
  5
15C
330
87
100
AcDbEntity
  8
P-SANR-FIXT
100
AcDbLine
 10
806.1401280015589
 20
2195.00000000001
 30
0.0
 11
805.6158383191496
 21
2195.00000000001
 31
0.0
  0
LINE
  5
15D
330
87
100
AcDbEntity
  8
P-SANR-FIXT
100
AcDbLine
 10
804.6664074431877
 20
2195.00000000001
 30
0.0
 11
806.1401280015589
 21
2195.00000000001
 31
0.0
  0
LINE
  5
15E
330
87
100
AcDbEntity
  8
P-SANR-FIXT
100
AcDbLine
 10
806.1401280015589
 20
2195.00000000001
 30
0.0
 11
815.666407443188
 21
2195.00000000001
 31
0.0
  0
LINE
  5
15F
330
87
100
AcDbEntity
  8
P-SANR-FIXT
100
AcDbLine
 10
815.666407443188
 20
2195.00000000001
 30
0.0
 11
825.1926868848171
 21
2195.00000000001
 31
0.0
  0
LINE
  5
160
330
87
100
AcDbEntity
  8
P-SANR-FIXT
100
AcDbLine
 10
825.1926868848171
 20
2195.00000000001
 30
0.0
 11
826.6664074431883
 21
2195.00000000001
 31
0.0
  0
LINE
  5
161
330
87
100
AcDbEntity
  8
P-SANR-FIXT
100
AcDbLine
 10
802.9647015210283
 20
2194.01751962777
 30
0.0
 11
802.9647015210283
 21
2186.499999999947
 31
0.0
  0
SPLINE
  5
162
330
87
100
AcDbEntity
  8
P-SANR-FIXT
100
AcDbSpline
210
0.0
220
0.0
230
1.0
 70
     8
 71
     3
 72
     9
 73
     5
 74
     0
 42
0.000000001
 43
0.0000000001
 40
0.0
 40
0.0
 40
0.0
 40
0.0
 40
0.5
 40
1.0
 40
1.0
 40
1.0
 40
1.0
 10
809.3155544821069
 20
2194.017519627777
 30
0.0
 10
808.7901585857432
 20
2194.334644458348
 30
0.0
 10
807.7355249426242
 20
2194.815516017624
 30
0.0
 10
806.6732075987212
 20
2194.98963137317
 30
0.0
 10
806.1401280015738
 20
2195.00000000001
 30
0.0
  0
SPLINE
  5
163
330
87
100
AcDbEntity
  8
P-SANR-FIXT
100
AcDbSpline
210
0.0
220
0.0
230
1.0
 70
     8
 71
     3
 72
     9
 73
     5
 74
     0
 42
0.000000001
 43
0.0000000001
 40
0.0
 40
0.0
 40
0.0
 40
0.0
 40
0.5
 40
1.0
 40
1.0
 40
1.0
 40
1.0
 10
806.1401280015738
 20
2195.00000000001
 30
0.0
 10
805.6070484044242
 20
2194.98963137317
 30
0.0
 10
804.5447310605171
 20
2194.815516017623
 30
0.0
 10
803.490097417394
 20
2194.334644458343
 30
0.0
 10
802.9647015210283
 20
2194.01751962777
 30
0.0
  0
LINE
  5
164
330
87
100
AcDbEntity
  8
P-SANR-FIXT
100
AcDbLine
 10
809.3155544821069
 20
2186.499999999947
 30
0.0
 11
809.3155544821069
 21
2194.017519627777
 31
0.0
  0
SPLINE
  5
165
330
87
100
AcDbEntity
  8
P-SANR-FIXT
100
AcDbSpline
210
0.0
220
0.0
230
1.0
 70
     8
 71
     3
 72
     9
 73
     5
 74
     0
 42
0.000000001
 43
0.0000000001
 40
0.0
 40
0.0
 40
0.0
 40
0.0
 40
0.5
 40
1.0
 40
1.0
 40
1.0
 40
1.0
 10
822.0172604042641
 20
2194.017519627778
 30
0.0
 10
820.9664686115356
 20
2194.334644458351
 30
0.0
 10
818.8572013252942
 20
2194.81551601763
 30
0.0
 10
816.7325666374846
 20
2194.989631373172
 30
0.0
 10
815.666407443188
 20
2195.00000000001
 30
0.0
  0
SPLINE
  5
166
330
87
100
AcDbEntity
  8
P-SANR-FIXT
100
AcDbSpline
210
0.0
220
0.0
230
1.0
 70
     8
 71
     3
 72
     9
 73
     5
 74
     0
 42
0.000000001
 43
0.0000000001
 40
0.0
 40
0.0
 40
0.0
 40
0.0
 40
0.5
 40
1.0
 40
1.0
 40
1.0
 40
1.0
 10
815.666407443188
 20
2195.00000000001
 30
0.0
 10
814.6002482488903
 20
2194.989631373172
 30
0.0
 10
812.4756135610793
 20
2194.815516017629
 30
0.0
 10
810.3663462748363
 20
2194.33464445835
 30
0.0
 10
809.3155544821069
 20
2194.017519627776
 30
0.0
  0
LINE
  5
167
330
87
100
AcDbEntity
  8
P-SANR-FIXT
100
AcDbLine
 10
831.1664074431497
 20
2170.000000000021
 30
0.0
 11
800.1664074432213
 21
2170.000000000021
 31
0.0
  0
LINE
  5
168
330
87
100
AcDbEntity
  8
P-SANR-FIXT
100
AcDbLine
 10
800.1664074432213
 20
2186.499999999947
 30
0.0
 11
831.1664074431497
 21
2186.499999999947
 31
0.0
  0
LINE
  5
169
330
87
100
AcDbEntity
  8
P-SANR-FIXT
100
AcDbLine
 10
802.2164074431906
 20
2170.000000000023
 30
0.0
 11
802.2164074431906
 21
2095.184660397605
 31
0.0
  0
LINE
  5
16A
330
87
100
AcDbEntity
  8
P-SANR-FIXT
100
AcDbLine
 10
829.11640744319
 20
2095.192035676815
 30
0.0
 11
829.11640744319
 21
2170.000000000023
 31
0.0
  0
LINE
  5
16B
330
87
100
AcDbEntity
  8
P-SANR-FIXT
100
AcDbLine
 10
798.8164074431913
 20
1719.961681942531
 30
0.0
 11
798.8164074431913
 21
1647.999999999961
 31
0.0
  0
LINE
  5
16C
330
87
100
AcDbEntity
  8
P-SANR-FIXT
100
AcDbLine
 10
832.516407443189
 20
1647.999999999961
 30
0.0
 11
832.516407443189
 21
1719.942775274143
 31
0.0
  0
LINE
  5
16D
330
87
100
AcDbEntity
  8
P-SANR-FIXT
100
AcDbLine
 10
990.6664074431905
 20
2060.999999999996
 30
0.0
 11
988.6664074431903
 21
2060.999999999996
 31
0.0
  0
LINE
  5
16E
330
87
100
AcDbEntity
  8
P-SANR-FIXT
100
AcDbLine
 10
988.6664074431903
 20
1938.999999999996
 30
0.0
 11
990.6664074431905
 21
1938.999999999996
 31
0.0
  0
LWPOLYLINE
  5
16F
330
87
100
AcDbEntity
  8
P-SANR-FIXT
100
AcDbPolyline
 90
       14
 70
   128
 43
0.0
 10
835.9626691094943
 20
2095.168812749121
 10
838.5720155136304
 20
2095.116618861668
 10
842.4171128429582
 20
2094.885635775659
 10
846.2498976447271
 20
2094.501074569399
 10
850.0642382808704
 20
2093.963550458784
 10
853.8540326200536
 20
2093.273923367723
 10
857.6132177997799
 20
2092.433296552451
 10
861.3357799256785
 20
2091.443014836548
 10
865.0157636924523
 20
2090.30466245951
 10
868.647281911096
 20
2089.020060542305
 10
872.2245249271422
 20
2087.591264173966
 10
875.7417699148696
 20
2086.020559123889
 10
879.1933900326036
 20
2084.31045818509
 10
881.7622582112301
 20
2082.923187541418
  0
LWPOLYLINE
  5
170
330
87
100
AcDbEntity
  8
P-SANR-FIXT
100
AcDbPolyline
 90
       14
 70
   128
 43
0.0
 10
749.5705566751503
 20
2082.923187541418
 10
752.968755584052
 20
2084.737125476841
 10
756.4367744665752
 20
2086.413720743592
 10
759.9690652323125
 20
2087.950291146897
 10
763.5599769695538
 20
2089.344378501897
 10
767.2037649855401
 20
2090.593752566212
 10
770.8945999967453
 20
2091.696414607859
 10
774.6265774544883
 20
2092.650600602793
 10
778.3937269909489
 20
2093.45478405697
 10
782.1900219704848
 20
2094.107678448414
 10
786.0093891309615
 20
2094.608239285377
 10
789.8457182996772
 20
2094.955665777298
 10
793.6928721683353
 20
2095.149402115904
 10
795.1472243049886
 20
2095.171448765212
  0
LWPOLYLINE
  5
171
330
87
100
AcDbEntity
  8
P-SANR-FIXT
100
AcDbPolyline
 90
       11
 70
   128
 43
0.0
 10
796.6120578941545
 20
2095.193654303762
 10
796.6272993414379
 20
2095.193654303762
 10
796.6729993002247
 20
2095.193654303762
 10
796.7490846603292
 20
2095.193654303762
 10
796.855433701406
 20
2095.193654303762
 10
796.991876287676
 20
2095.193654303762
 10
797.1581941401073
 20
2095.193654303762
 10
797.3541211856151
 20
2095.193654303762
 10
797.5793439827224
 20
2095.193654303762
 10
797.8335022229986
 20
2095.193654303762
 10
797.923297688538
 20
2095.193654303762
  0
LWPOLYLINE
  5
172
330
87
100
AcDbEntity
  8
P-SANR-FIXT
100
AcDbPolyline
 90
       11
 70
   128
 43
0.0
 10
833.601082944275
 20
2095.193654303762
 10
833.6198412752015
 20
2095.193654303762
 10
833.8607316156934
 20
2095.193654303762
 10
834.0725149187585
 20
2095.193654303762
 10
834.2548523762893
 20
2095.193654303762
 10
834.4074522872503
 20
2095.193654303762
 10
834.5300705243376
 20
2095.193654303762
 10
834.6225109245285
 20
2095.193654303762
 10
834.6846256029021
 20
2095.193654303762
 10
834.7163151892239
 20
2095.193654303762
 10
834.7207569922259
 20
2095.193654303762
  0
LWPOLYLINE
  5
173
330
87
100
AcDbEntity
  8
P-SANR-FIXT
100
AcDbPolyline
 90
       80
 70
   128
 43
0.0
 10
834.7207569922259
 20
2095.193654303762
 10
834.7055155449423
 20
2095.193654303762
 10
834.6598155861554
 20
2095.193654303762
 10
834.5837302260513
 20
2095.193654303762
 10
834.4773811849742
 20
2095.193654303762
 10
834.3409385987044
 20
2095.193654303762
 10
834.1746207462731
 20
2095.193654303762
 10
833.9786937007652
 20
2095.193654303762
 10
833.7534709036582
 20
2095.193654303762
 10
833.4993126633817
 20
2095.193654303762
 10
833.2166255789035
 20
2095.193654303762
 10
832.9058618892549
 20
2095.193654303762
 10
832.5675187500467
 20
2095.193654303762
 10
832.2021374381256
 20
2095.193654303762
 10
831.8103024856469
 20
2095.193654303762
 10
831.3926407449475
 20
2095.193654303762
 10
830.9498203857163
 20
2095.193654303762
 10
830.4825498260644
 20
2095.193654303762
 10
829.9915765992086
 20
2095.193654303762
 10
829.477686157576
 20
2095.193654303762
 10
828.9417006162496
 20
2095.193654303762
 10
828.3844774377577
 20
2095.193654303762
 10
827.8069080603179
 20
2095.193654303762
 10
827.2099164717264
 20
2095.193654303762
 10
826.5944577311728
 20
2095.193654303762
 10
825.9615164413517
 20
2095.193654303762
 10
825.3121051733062
 20
2095.193654303762
 10
824.6472628465316
 20
2095.193654303762
 10
823.9680530669255
 20
2095.193654303762
 10
823.2755624252448
 20
2095.193654303762
 10
822.5708987587923
 20
2095.193654303762
 10
821.8551893791145
 20
2095.193654303762
 10
821.1295792685422
 20
2095.193654303762
 10
820.3952292484641
 20
2095.193654303762
 10
819.6533141222591
 20
2095.193654303762
 10
818.905020795862
 20
2095.193654303762
 10
818.1515463789683
 20
2095.193654303762
 10
817.394096269912
 20
2095.193654303762
 10
816.6338822272868
 20
2095.193654303762
 10
815.8721204313907
 20
2095.193654303762
 10
815.1100295385964
 20
2095.193654303762
 10
814.3488287317619
 20
2095.193654303762
 10
813.5897357697974
 20
2095.193654303762
 10
812.8339650395107
 20
2095.193654303762
 10
812.0827256128475
 20
2095.193654303762
 10
811.3372193126348
 20
2095.193654303762
 10
810.5986387899202
 20
2095.193654303762
 10
809.8681656159845
 20
2095.193654303762
 10
809.1469683920802
 20
2095.193654303762
 10
808.436200879918
 20
2095.193654303762
 10
807.7370001558954
 20
2095.193654303762
 10
807.0504847920156
 20
2095.193654303762
 10
806.3777530664122
 20
2095.193654303762
 10
805.7198812063381
 20
2095.193654303762
 10
805.0779216664301
 20
2095.193654303762
 10
804.4529014450088
 20
2095.193654303762
 10
803.8458204410972
 20
2095.193654303762
 10
803.2576498547985
 20
2095.193654303762
 10
802.6893306335805
 20
2095.193654303762
 10
802.1417719669628
 20
2095.193654303762
 10
801.615849832005
 20
2095.193654303762
 10
801.1124055919328
 20
2095.193654303762
 10
800.6322446501345
 20
2095.193654303762
 10
800.1761351616881
 20
2095.193654303762
 10
799.7448068044771
 20
2095.193654303762
 10
799.3389496118609
 20
2095.193654303762
 10
798.9592128687696
 20
2095.193654303762
 10
798.6062040729859
 20
2095.193654303762
 10
798.2804879632785
 20
2095.193654303762
 10
797.9825856159406
 20
2095.193654303762
 10
797.7129736111788
 20
2095.193654303762
 10
797.4720832706867
 20
2095.193654303762
 10
797.2602999676218
 20
2095.193654303762
 10
797.077962510091
 20
2095.193654303762
 10
796.9253625991298
 20
2095.193654303762
 10
796.8027443620425
 20
2095.193654303762
 10
796.7103039618518
 20
2095.193654303762
 10
796.6481892834781
 20
2095.193654303762
 10
796.6164996971565
 20
2095.193654303762
 10
796.6120578941545
 20
2095.193654303762
  0
LWPOLYLINE
  5
174
330
87
100
AcDbEntity
  8
P-SANR-FIXT
100
AcDbPolyline
 90
       28
 70
   128
 43
0.0
 10
881.7622582112306
 20
2082.923187541417
 10
882.9698839956042
 20
2082.215106581696
 10
884.1482281220274
 20
2081.459299860154
 10
885.2954054912647
 20
2080.656976506316
 10
886.409580864243
 20
2079.809420066394
 10
887.4889717980439
 20
2078.917986449891
 10
888.5318514974315
 20
2077.98410176043
 10
889.5365515773551
 20
2077.009260014296
 10
890.501464732012
 20
2075.995020750328
 10
891.4250473061917
 20
2074.943006534988
 10
892.3058217647961
 20
2073.854900366606
 10
893.1423790565796
 20
2072.73244298293
 10
893.9333808683318
 20
2071.577430076331
 10
894.6775617658916
 20
2070.391709421071
 10
895.3737312185737
 20
2069.177177917257
 10
896.0207755037613
 20
2067.935778556209
 10
896.6176594886269
 20
2066.669497312087
 10
897.1634282861236
 20
2065.380359964756
 10
897.6572087825996
 20
2064.070428858971
 10
898.0982110345948
 20
2062.741799605063
 10
898.4857295325813
 20
2061.396597726414
 10
898.8191443296289
 20
2060.036975259067
 10
899.0979220331869
 20
2058.665107308934
 10
899.3216166583989
 20
2057.283188572085
 10
899.4898703415834
 20
2055.893429823704
 10
899.6024139127399
 20
2054.498054381325
 10
899.6590673261623
 20
2053.09929454799
 10
899.6664074431903
 20
2052.382527978846
  0
LWPOLYLINE
  5
175
330
87
100
AcDbEntity
  8
P-SANR-FIXT
100
AcDbPolyline
 90
       28
 70
   128
 43
0.0
 10
731.66640744319
 20
2052.382527978846
 10
731.694403710056
 20
2053.782154675378
 10
731.7783477225983
 20
2055.179542267767
 10
731.9181051883048
 20
2056.572455233958
 10
732.1134525250433
 20
2057.958665210344
 10
732.3640772187466
 20
2059.335954556673
 10
732.6695783233691
 20
2060.702119903796
 10
733.0294671023131
 20
2062.05497567859
 10
733.4431678103046
 20
2063.39235760041
 10
733.9100186144624
 20
2064.712126143474
 10
734.4292726530891
 20
2066.012169959648
 10
735.0000992304915
 20
2067.290409256156
 10
735.621585145915
 20
2068.544799122797
 10
736.2927361544724
 20
2069.773332803376
 10
737.0124785577206
 20
2070.974044906076
 10
737.7796609213516
 20
2072.145014547672
 10
738.59305591724
 20
2073.284368426529
 10
739.4513622869077
 20
2074.390283819492
 10
740.3532069232589
 20
2075.460991497847
 10
741.2971470672585
 20
2076.494778557715
 10
742.2816726160394
 20
2077.489991160329
 10
743.3052085387445
 20
2078.445037177826
 10
744.36611739624
 20
2079.35838874031
 10
745.462701960669
 20
2080.228584680118
 10
746.5932079306543
 20
2081.054232869381
 10
747.7558267378054
 20
2081.834012447122
 10
748.9486984400431
 20
2082.566675932363
 10
749.5705566751499
 20
2082.923187541417
  0
LINE
  5
176
330
87
100
AcDbEntity
  8
P-SANR-FIXT
100
AcDbLine
 10
731.6664074431905
 20
2052.382527978846
 30
0.0
 11
731.6664074431905
 21
2037.999999999997
 31
0.0
  0
LINE
  5
177
330
87
100
AcDbEntity
  8
P-SANR-FIXT
100
AcDbLine
 10
899.6664074431899
 20
2037.999999999995
 30
0.0
 11
899.6664074431899
 21
2052.382527978846
 31
0.0
  0
LINE
  5
178
330
87
100
AcDbEntity
  8
P-SANR-FIXT
100
AcDbLine
 10
731.6664074431905
 20
1961.999999999995
 30
0.0
 11
731.6664074431905
 21
1762.488553350956
 31
0.0
  0
LINE
  5
179
330
87
100
AcDbEntity
  8
P-SANR-FIXT
100
AcDbLine
 10
899.6664074431899
 20
1762.488553350956
 30
0.0
 11
899.6664074431899
 21
1961.999999999996
 31
0.0
  0
LWPOLYLINE
  5
17A
330
87
100
AcDbEntity
  8
P-SANR-FIXT
100
AcDbPolyline
 90
       26
 70
   128
 43
0.0
 10
899.6664074431908
 20
1762.488553350956
 10
899.638411176325
 20
1761.088926654424
 10
899.5544671637825
 20
1759.691539062036
 10
899.4147096980761
 20
1758.298626095844
 10
899.2193623613378
 20
1756.912416119458
 10
898.9687376676343
 20
1755.535126773129
 10
898.6632365630118
 20
1754.168961426007
 10
898.3033477840677
 20
1752.816105651212
 10
897.8896470760762
 20
1751.478723729392
 10
897.4227962719185
 20
1750.158955186329
 10
896.9035422332918
 20
1748.858911370154
 10
896.3327156558895
 20
1747.580672073646
 10
895.7112297404659
 20
1746.326282207004
 10
895.0400787319086
 20
1745.097748526426
 10
894.3203363286603
 20
1743.897036423726
 10
893.5531539650295
 20
1742.72606678213
 10
892.7397589691409
 20
1741.586712903273
 10
891.8814525994733
 20
1740.48079751031
 10
890.9796079631222
 20
1739.410089831955
 10
890.0356678191226
 20
1738.376302772087
 10
889.0511422703417
 20
1737.381090169473
 10
888.0276063476365
 20
1736.426044151976
 10
886.9666974901411
 20
1735.512692589492
 10
885.870112925712
 20
1734.642496649684
 10
884.7396069557269
 20
1733.816848460421
 10
883.8029354822673
 20
1733.18337813207
  0
LWPOLYLINE
  5
17B
330
87
100
AcDbEntity
  8
P-SANR-FIXT
100
AcDbPolyline
 90
       28
 70
   128
 43
0.0
 10
749.505323317216
 20
1731.984501298462
 10
748.2992136225251
 20
1732.695161614631
 10
747.1224875198217
 20
1733.453485001993
 10
745.9770275198482
 20
1734.258258304896
 10
744.8646661142532
 20
1735.108194057731
 10
743.7871828439944
 20
1736.001932544602
 10
742.7463014524533
 20
1736.938043974587
 10
741.7436871278137
 20
1737.915030769089
 10
740.780943839115
 20
1738.93132995765
 10
739.8596117702454
 20
1739.985315678367
 10
738.9811648559743
 20
1741.075301778926
 10
738.1470084239728
 20
1742.199544514084
 10
737.3584769465877
 20
1743.356245335289
 10
736.6168319059725
 20
1744.543553767979
 10
735.9232597759825
 20
1745.759570371938
 10
735.2788701240714
 20
1747.002349780005
 10
734.6846938362204
 20
1748.269903810237
 10
734.1416814677385
 20
1749.560204646585
 10
733.6507017225795
 20
1750.871188082959
 10
733.2125400635982
 20
1752.200756825523
 10
732.8278974559801
 20
1753.546783847915
 10
732.4973892458444
 20
1754.907115794036
 10
732.2215441758226
 20
1756.27957642296
 10
732.0008035391829
 20
1757.66197009046
 10
731.8355204738552
 20
1759.052085261558
 10
731.7259593974855
 20
1760.447698048526
 10
731.6722955844245
 20
1761.846575768619
 10
731.6664074431895
 20
1762.488553350956
  0
LWPOLYLINE
  5
17C
330
87
100
AcDbEntity
  8
P-SANR-FIXT
100
AcDbPolyline
 90
        4
 70
   128
 43
0.0
 10
843.7828961780185
 20
1720.264659319866
 10
840.0355999333809
 20
1720.019958541105
 10
836.2815157048308
 20
1719.92530537869
 10
835.7925442776885
 20
1719.924032083968
  0
LWPOLYLINE
  5
17D
330
87
100
AcDbEntity
  8
P-SANR-FIXT
100
AcDbPolyline
 90
       14
 70
   128
 43
0.0
 10
793.7551742492449
 20
1719.959738772176
 10
791.7857443369464
 20
1719.999132623075
 10
788.0372245063126
 20
1720.224314095555
 10
784.3007079488784
 20
1720.599216259087
 10
780.5821722940543
 20
1721.123239350185
 10
776.8875664056426
 20
1721.795545043688
 10
773.2228008649248
 20
1722.615057793905
 10
769.5937385149903
 20
1723.580466555255
 10
766.0061850814411
 20
1724.690226879663
 10
762.4658798844666
 20
1725.942563387347
 10
758.978486657157
 20
1727.335472607044
 10
755.5495844847387
 20
1728.866726181142
 10
752.1846588792274
 20
1730.533874430571
 10
749.505323317216
 20
1731.984501298462
  0
LWPOLYLINE
  5
17E
330
87
100
AcDbEntity
  8
P-SANR-FIXT
100
AcDbPolyline
 90
       14
 70
   128
 43
0.0
 10
835.7925442776885
 20
1719.924032083968
 10
835.7764455148942
 20
1719.924032083968
 10
835.7281749810979
 20
1719.924032083968
 10
835.6478098988565
 20
1719.924032083968
 10
835.5354788351581
 20
1719.924032083968
 10
835.3913614957415
 20
1719.924032083968
 10
835.2156884376066
 20
1719.924032083968
 10
835.0087407001716
 20
1719.924032083968
 10
834.7708493556696
 20
1719.924032083968
 10
834.5023949795045
 20
1719.924032083968
 10
834.2038070414112
 20
1719.924032083968
 10
833.8755632183952
 20
1719.924032083968
 10
833.5181886305514
 20
1719.924032083968
 10
833.1322550009845
 20
1719.924032083968
  0
LWPOLYLINE
  5
17F
330
87
100
AcDbEntity
  8
P-SANR-FIXT
100
AcDbPolyline
 90
       15
 70
   128
 43
0.0
 10
798.2093035004123
 20
1719.924032083968
 10
798.0194506021787
 20
1719.924032083968
 10
797.6465854298758
 20
1719.924032083968
 10
797.3025481287702
 20
1719.924032083968
 10
796.9878890851533
 20
1719.924032083968
 10
796.7031116863716
 20
1719.924032083968
 10
796.4486715155133
 20
1719.924032083968
 10
796.2249756225741
 20
1719.924032083968
 10
796.0323818732637
 20
1719.924032083968
 10
795.8711983764962
 20
1719.924032083968
 10
795.7416829914828
 20
1719.924032083968
 10
795.6440429152113
 20
1719.924032083968
 10
795.5784343509742
 20
1719.924032083968
 10
795.5449622584794
 20
1719.924032083968
 10
795.540270608692
 20
1719.924032083968
  0
LWPOLYLINE
  5
180
330
87
100
AcDbEntity
  8
P-SANR-FIXT
100
AcDbPolyline
 90
       80
 70
   128
 43
0.0
 10
795.540270608692
 20
1719.924032083968
 10
795.5563693714861
 20
1719.924032083968
 10
795.6046399052825
 20
1719.924032083968
 10
795.6850049875237
 20
1719.924032083968
 10
795.7973360512222
 20
1719.924032083968
 10
795.9414533906389
 20
1719.924032083968
 10
796.1171264487737
 20
1719.924032083968
 10
796.324074186209
 20
1719.924032083968
 10
796.5619655307107
 20
1719.924032083968
 10
796.8304199068759
 20
1719.924032083968
 10
797.1290078449692
 20
1719.924032083968
 10
797.4572516679853
 20
1719.924032083968
 10
797.8146262558291
 20
1719.924032083968
 10
798.2005598853959
 20
1719.924032083968
 10
798.6144351452062
 20
1719.924032083968
 10
799.0555899231333
 20
1719.924032083968
 10
799.5233184656405
 20
1719.924032083968
 10
800.0168725068363
 20
1719.924032083968
 10
800.535462465541
 20
1719.924032083968
 10
801.078258708447
 20
1719.924032083968
 10
801.6443928773561
 20
1719.924032083968
 10
802.232959278367
 20
1719.924032083968
 10
802.8430163307923
 20
1719.924032083968
 10
803.4735880734865
 20
1719.924032083968
 10
804.1236657261764
 20
1719.924032083968
 10
804.7922093032932
 20
1719.924032083968
 10
805.4781492777284
 20
1719.924032083968
 10
806.1803882918491
 20
1719.924032083968
 10
806.8978029130361
 20
1719.924032083968
 10
807.6292454309353
 20
1719.924032083968
 10
808.3735456935512
 20
1719.924032083968
 10
809.1295129792388
 20
1719.924032083968
 10
809.8959379016058
 20
1719.924032083968
 10
810.6715943442713
 20
1719.924032083968
 10
811.4552414223917
 20
1719.924032083968
 10
812.2456254678112
 20
1719.924032083968
 10
813.0414820346635
 20
1719.924032083968
 10
813.8415379222152
 20
1719.924032083968
 10
814.6445132117158
 20
1719.924032083968
 10
815.4491233139941
 20
1719.924032083968
 10
816.2540810245278
 20
1719.924032083968
 10
817.058098582695
 20
1719.924032083968
 10
817.8598897319174
 20
1719.924032083968
 10
818.6581717773957
 20
1719.924032083968
 10
819.451667638148
 20
1719.924032083968
 10
820.2391078900678
 20
1719.924032083968
 10
821.0192327967298
 20
1719.924032083968
 10
821.7907943247016
 20
1719.924032083968
 10
822.552558140129
 20
1719.924032083968
 10
823.3033055834084
 20
1719.924032083968
 10
824.0418356187815
 20
1719.924032083968
 10
824.7669667557364
 20
1719.924032083968
 10
825.4775389391404
 20
1719.924032083968
 10
826.1724154050805
 20
1719.924032083968
 10
826.8504844994438
 20
1719.924032083968
 10
827.5106614563263
 20
1719.924032083968
 10
828.1518901334271
 20
1719.924032083968
 10
828.7731447016515
 20
1719.924032083968
 10
829.3734312862167
 20
1719.924032083968
 10
829.9517895566426
 20
1719.924032083968
 10
830.5072942630724
 20
1719.924032083968
 10
831.0390567164775
 20
1719.924032083968
 10
831.5462262103689
 20
1719.924032083968
 10
832.0279913817469
 20
1719.924032083968
 10
832.4835815091081
 20
1719.924032083968
 10
832.9122677454362
 20
1719.924032083968
 10
833.3133642842017
 20
1719.924032083968
 10
833.6862294565047
 20
1719.924032083968
 10
834.0302667576102
 20
1719.924032083968
 10
834.344925801227
 20
1719.924032083968
 10
834.6297032000087
 20
1719.924032083968
 10
834.884143370867
 20
1719.924032083968
 10
835.1078392638063
 20
1719.924032083968
 10
835.3004330131167
 20
1719.924032083968
 10
835.4616165098841
 20
1719.924032083968
 10
835.5911318948972
 20
1719.924032083968
 10
835.6887719711691
 20
1719.924032083968
 10
835.754380535406
 20
1719.924032083968
 10
835.787852627901
 20
1719.924032083968
 10
835.7925442776885
 20
1719.924032083968
  0
LINE
  5
181
330
87
100
AcDbEntity
  8
P-SANR-FIXT
100
AcDbLine
 10
843.782896178018
 20
1720.264659319866
 30
0.0
 11
845.9700838297514
 21
1712.10196387791
 31
0.0
  0
LINE
  5
182
330
87
100
AcDbEntity
  8
P-SANR-FIXT
100
AcDbLine
 10
886.5389685338923
 20
1722.972363772216
 30
0.0
 11
883.8029354822669
 21
1733.18337813207
 31
0.0
  0
LWPOLYLINE
  5
183
330
87
100
AcDbEntity
  8
P-SANR-FIXT
100
AcDbPolyline
 90
       28
 70
   128
 43
0.0
 10
886.5389685338922
 20
1722.972363772216
 10
886.5462125334518
 20
1722.942991208099
 10
886.552276149302
 20
1722.913352456181
 10
886.557149680951
 20
1722.883494932142
 10
886.5608253317875
 20
1722.853466401652
 10
886.5632972215548
 20
1722.823314903954
 10
886.5645613957561
 20
1722.793088675012
 10
886.5646158319826
 20
1722.762836070345
 10
886.5634604431479
 20
1722.732605487667
 10
886.5610970776277
 20
1722.70244528946
 10
886.5575295163024
 20
1722.672403725609
 10
886.5527634665093
 20
1722.642528856206
 10
886.5468065529116
 20
1722.612868474671
 10
886.5396683052999
 20
1722.583470031285
 10
886.5313601433481
 20
1722.554380557288
 10
886.5218953583422
 20
1722.525646589632
 10
886.5112890919201
 20
1722.497314096536
 10
886.4995583118449
 20
1722.469428403945
 10
886.4867217848628
 20
1722.442034123019
 10
886.4728000466779
 20
1722.415175078762
 10
886.4578153691022
 20
1722.388894239918
 10
886.4417917244228
 20
1722.363233650219
 10
886.4247547470535
 20
1722.338234361138
 10
886.4067316925233
 20
1722.313936366204
 10
886.3877513938748
 20
1722.290378537024
 10
886.3678442155372
 20
1722.2675985611
 10
886.3470420047487
 20
1722.245632881535
 10
886.3432064101518
 20
1722.24176958022
  0
LWPOLYLINE
  5
184
330
87
100
AcDbEntity
  8
P-SANR-FIXT
100
AcDbPolyline
 90
       28
 70
   128
 43
0.0
 10
846.5049158980075
 20
1711.567131809654
 10
846.4758565115278
 20
1711.575544604069
 10
846.4471567915049
 20
1711.585112734663
 10
846.4188626513692
 20
1711.595820894468
 10
846.3910193557083
 20
1711.607651952714
 10
846.363671447856
 20
1711.620586982229
 10
846.3368626786314
 20
1711.634605289726
 10
846.3106359363456
 20
1711.649684448905
 10
846.2850331781922
 20
1711.665800336326
 10
846.260095363122
 20
1711.682927170009
 10
846.2358623863201
 20
1711.701037550671
 10
846.2123730153789
 20
1711.720102505569
 10
846.1896648282822
 20
1711.740091534841
 10
846.1677741532847
 20
1711.760972660303
 10
846.1467360107963
 20
1711.782712476612
 10
846.1265840573577
 20
1711.805276204696
 10
846.1073505317953
 20
1711.828627747405
 10
846.0890662036469
 20
1711.852729747251
 10
846.0717603239372
 20
1711.877543646178
 10
846.0554605783821
 20
1711.903029747239
 10
846.0401930430975
 20
1711.92914727811
 10
846.0259821428826
 20
1711.955854456311
 10
846.0128506121465
 20
1711.983108556058
 10
846.000819458537
 20
1712.010865976602
 10
845.9899079293336
 20
1712.039082311993
 10
845.9801334806551
 20
1712.067712422113
 10
845.9715117495344
 20
1712.096710504894
 10
845.9700838297514
 20
1712.10196387791
  0
LINE
  5
185
330
87
100
AcDbEntity
  8
P-SANR-FIXT
100
AcDbLine
 10
846.5049158980075
 20
1711.567131809654
 30
0.0
 11
847.925588720237
 21
1711.186463674229
 31
0.0
  0
LINE
  5
186
330
87
100
AcDbEntity
  8
P-SANR-FIXT
100
AcDbLine
 10
885.3032017233475
 20
1721.201764893415
 30
0.0
 11
886.3432064101518
 21
1722.241769580219
 31
0.0
  0
LWPOLYLINE
  5
187
330
87
100
AcDbEntity
  8
P-SANR-FIXT
100
AcDbPolyline
 90
       15
 70
   128
 43
0.0
 10
885.3032017233475
 20
1721.201764893415
 10
885.2599382142736
 20
1721.160198214354
 10
885.215047087572
 20
1721.120394863125
 10
885.1686001594698
 20
1721.082418516599
 10
885.1206717351436
 20
1721.046329928829
 10
885.0713384898481
 20
1721.012186833858
 10
885.0206793462518
 20
1720.980043853353
 10
884.9687753481781
 20
1720.949952409228
 10
884.9157095309514
 20
1720.921960641373
 10
884.8615667885592
 20
1720.896113330645
 10
884.8064337378394
 20
1720.872451827229
 10
884.7503985799122
 20
1720.851013984482
 10
884.6935509590768
 20
1720.831834098378
 10
884.6359818193992
 20
1720.814942852645
 10
884.6307701192216
 20
1720.813536325762
  0
LWPOLYLINE
  5
188
330
87
100
AcDbEntity
  8
P-SANR-FIXT
100
AcDbPolyline
 90
       15
 70
   128
 43
0.0
 10
848.6688893516975
 20
1711.178286461701
 10
848.6437952180988
 20
1711.172097628748
 10
848.5850166863563
 20
1711.160072478778
 10
848.525804293429
 20
1711.150407461995
 10
848.4662527665143
 20
1711.143118040363
 10
848.4064573753517
 20
1711.138215875402
 10
848.3465137798113
 20
1711.13570880953
 10
848.2865178768587
 20
1711.135600853518
 10
848.2265656471401
 20
1711.137892180071
 10
848.1667530014341
 20
1711.142579123558
 10
848.1071756272145
 20
1711.149654185868
 10
848.0479288355706
 20
1711.15910604841
 10
847.9891074087307
 20
1711.17091959022
 10
847.9308054484295
 20
1711.185075912152
 10
847.925588720237
 20
1711.186463674229
  0
LWPOLYLINE
  5
189
330
87
100
AcDbEntity
  8
P-SANR-FIXT
100
AcDbPolyline
 90
        3
 70
   128
 43
0.0
 10
848.736110380312
 20
1711.195591236131
 10
848.706233569087
 20
1711.187585768691
 10
848.7020458555445
 20
1711.186463674229
  0
LWPOLYLINE
  5
18A
330
87
100
AcDbEntity
  8
P-SANR-FIXT
100
AcDbPolyline
 90
        3
 70
   128
 43
0.0
 10
848.7020458555445
 20
1711.186463674229
 10
848.7164154291537
 20
1711.190313989873
 10
848.7455200980669
 20
1711.198112562404
  0
LWPOLYLINE
  5
18B
330
87
100
AcDbEntity
  8
P-SANR-FIXT
100
AcDbPolyline
 90
        3
 70
   128
 43
0.0
 10
884.5967055944543
 20
1720.804408763859
 10
884.6265824056793
 20
1720.812414231299
 10
884.6307701192216
 20
1720.813536325762
  0
LINE
  5
18C
330
87
100
AcDbEntity
  8
P-SANR-FIXT
100
AcDbLine
 10
988.6664074431903
 20
2092.499999999995
 30
0.0
 11
972.6664074431905
 21
2092.499999999995
 31
0.0
  0
LINE
  5
18D
330
87
100
AcDbEntity
  8
P-SANR-FIXT
100
AcDbLine
 10
972.6664074431905
 20
1907.499999999997
 30
0.0
 11
988.6664074431903
 21
1907.499999999997
 31
0.0
  0
LINE
  5
18E
330
87
100
AcDbEntity
  8
P-SANR-FIXT
100
AcDbLine
 10
972.6664074431903
 20
2037.999999999995
 30
0.0
 11
899.6664074431899
 21
2037.999999999995
 31
0.0
  0
LINE
  5
18F
330
87
100
AcDbEntity
  8
P-SANR-FIXT
100
AcDbLine
 10
899.6664074431899
 20
1961.999999999996
 30
0.0
 11
972.6664074431903
 21
1961.999999999996
 31
0.0
  0
LINE
  5
190
330
87
100
AcDbEntity
  8
P-SANR-FIXT
100
AcDbLine
 10
731.6664074431905
 20
2037.999999999997
 30
0.0
 11
658.6664074431898
 21
2037.999999999997
 31
0.0
  0
LINE
  5
191
330
87
100
AcDbEntity
  8
P-SANR-FIXT
100
AcDbLine
 10
658.6664074431898
 20
1961.999999999995
 30
0.0
 11
731.6664074431905
 21
1961.999999999995
 31
0.0
  0
LINE
  5
192
330
87
100
AcDbEntity
  8
P-SANR-FIXT
100
AcDbLine
 10
658.6664074431898
 20
2092.499999999997
 30
0.0
 11
642.6664074431901
 21
2092.499999999997
 31
0.0
  0
LINE
  5
193
330
87
100
AcDbEntity
  8
P-SANR-FIXT
100
AcDbLine
 10
642.6664074431901
 20
1907.499999999996
 30
0.0
 11
658.6664074431898
 21
1907.499999999996
 31
0.0
  0
LINE
  5
194
330
87
100
AcDbEntity
  8
P-SANR-FIXT
100
AcDbLine
 10
642.6664074431898
 20
2060.999999999996
 30
0.0
 11
640.6664074431899
 21
2060.999999999996
 31
0.0
  0
LINE
  5
195
330
87
100
AcDbEntity
  8
P-SANR-FIXT
100
AcDbLine
 10
640.6664074431899
 20
1938.999999999996
 30
0.0
 11
642.6664074431898
 21
1938.999999999996
 31
0.0
  0
LINE
  5
196
330
87
100
AcDbEntity
  8
P-SANR-FIXT
100
AcDbLine
 10
822.1146232785395
 20
1719.981208292655
 30
0.0
 11
821.1508238404634
 21
1719.981208292655
 31
0.0
  0
LINE
  5
197
330
87
100
AcDbEntity
  8
P-SANR-FIXT
100
AcDbLine
 10
818.9536793691598
 20
1719.981208292655
 30
0.0
 11
817.3179962577412
 21
1719.981208292655
 31
0.0
  0
LINE
  5
198
330
87
100
AcDbEntity
  8
P-SANR-FIXT
100
AcDbLine
 10
815.6664074431882
 20
1719.981208292655
 30
0.0
 11
814.0148186286351
 21
1719.981208292655
 31
0.0
  0
LINE
  5
199
330
87
100
AcDbEntity
  8
P-SANR-FIXT
100
AcDbLine
 10
809.9151370399573
 20
1719.981208292655
 30
0.0
 11
809.2181916078367
 21
1719.981208292655
 31
0.0
  0
LINE
  5
19A
330
87
100
AcDbEntity
  8
P-SANR-FIXT
100
AcDbLine
 10
799.4384608061253
 20
1647.99999999996
 30
0.0
 11
800.6313589035464
 21
1647.99999999996
 31
0.0
  0
LINE
  5
19B
330
87
100
AcDbEntity
  8
P-SANR-FIXT
100
AcDbLine
 10
814.1470313789371
 20
1647.99999999996
 30
0.0
 11
817.1857835076298
 21
1647.99999999996
 31
0.0
  0
LINE
  5
19C
330
87
100
AcDbEntity
  8
P-SANR-FIXT
100
AcDbLine
 10
830.6380448758417
 20
1647.99999999996
 30
0.0
 11
831.8266434176326
 21
1647.99999999996
 31
0.0
  0
LINE
  5
19D
330
87
100
AcDbEntity
  8
P-SANR-FIXT
100
AcDbLine
 10
990.666407443188
 20
1938.999999999995
 30
0.0
 11
990.666407443188
 21
2060.999999999995
 31
0.0
  0
SPLINE
  5
19E
330
87
100
AcDbEntity
  8
P-SANR-FIXT
100
AcDbSpline
210
0.0
220
0.0
230
1.0
 70
     8
 71
     3
 72
    17
 73
    13
 74
     0
 42
0.000000001
 43
0.0000000001
 40
0.0
 40
0.0
 40
0.0
 40
0.0
 40
0.1428571428571428
 40
0.2857142857142857
 40
0.4285714285714286
 40
0.5714285714285714
 40
0.6785714285714287
 40
0.7321428571428572
 40
0.7857142857142857
 40
0.8392857142857142
 40
0.8928571428571427
 40
1.0
 40
1.0
 40
1.0
 40
1.0
 10
731.6664074431884
 20
2037.999999999996
 30
0.0
 10
731.6664074431884
 20
2037.985857924356
 30
0.0
 10
731.9693148935335
 20
2037.3437849851
 30
0.0
 10
733.2335029811911
 20
2034.449937180297
 30
0.0
 10
735.0585081754961
 20
2029.893467075544
 30
0.0
 10
736.9375878329097
 20
2024.421166836512
 30
0.0
 10
738.3147240098075
 20
2019.426032602206
 30
0.0
 10
739.1499344214105
 20
2015.658843693467
 30
0.0
 10
739.7053919270843
 20
2012.677958242022
 30
0.0
 10
740.16430415818
 20
2009.594271116819
 30
0.0
 10
740.6022022141192
 20
2005.436242758898
 30
0.0
 10
740.7454568205585
 20
2002.202622213152
 30
0.0
 10
740.7531242418768
 20
1999.999999999995
 30
0.0
  0
SPLINE
  5
19F
330
87
100
AcDbEntity
  8
P-SANR-FIXT
100
AcDbSpline
210
0.0
220
0.0
230
1.0
 70
     8
 71
     3
 72
    14
 73
    10
 74
     0
 42
0.000000001
 43
0.0000000001
 40
0.0
 40
0.0
 40
0.0
 40
0.0
 40
0.1428571428571428
 40
0.2857142857142857
 40
0.4285714285714286
 40
0.5714285714285714
 40
0.7857142857142857
 40
0.8928571428571427
 40
1.0
 40
1.0
 40
1.0
 40
1.0
 10
890.5796906445003
 20
1999.999999999995
 30
0.0
 10
890.5899138729244
 20
2002.936829617538
 30
0.0
 10
890.9157724913152
 20
2008.616850012803
 30
0.0
 10
892.3080413808586
 20
2016.753053914734
 30
0.0
 10
894.2208511537559
 20
2023.914161640208
 30
0.0
 10
896.618266331072
 20
2030.892554635748
 30
0.0
 10
898.5279277685428
 20
2035.44096503829
 30
0.0
 10
899.4948975311427
 20
2037.623117474158
 30
0.0
 10
899.6664074431876
 20
2037.989393443265
 30
0.0
 10
899.6664074431876
 20
2037.999999999994
 30
0.0
  0
SPLINE
  5
1A0
330
87
100
AcDbEntity
  8
P-SANR-FIXT
100
AcDbSpline
210
0.0
220
0.0
230
1.0
 70
     8
 71
     3
 72
    17
 73
    13
 74
     0
 42
0.000000001
 43
0.0000000001
 40
0.0
 40
0.0
 40
0.0
 40
0.0
 40
0.1428571428571428
 40
0.2857142857142857
 40
0.4285714285714286
 40
0.5714285714285714
 40
0.6785714285714287
 40
0.7321428571428572
 40
0.7857142857142857
 40
0.8392857142857142
 40
0.8928571428571427
 40
1.0
 40
1.0
 40
1.0
 40
1.0
 10
899.6664074431876
 20
1961.999999999996
 30
0.0
 10
899.6664074431878
 20
1962.014142075635
 30
0.0
 10
899.3634999928429
 20
1962.656215014891
 30
0.0
 10
898.0993119051852
 20
1965.550062819693
 30
0.0
 10
896.2743067108801
 20
1970.106532924447
 30
0.0
 10
894.3952270534667
 20
1975.578833163478
 30
0.0
 10
893.0180908765688
 20
1980.573967397785
 30
0.0
 10
892.182880464966
 20
1984.341156306524
 30
0.0
 10
891.6274229592922
 20
1987.322041757968
 30
0.0
 10
891.1685107281964
 20
1990.405728883171
 30
0.0
 10
890.7306126722575
 20
1994.563757241092
 30
0.0
 10
890.5873580658184
 20
1997.797377786838
 30
0.0
 10
890.5796906445003
 20
1999.999999999995
 30
0.0
  0
SPLINE
  5
1A1
330
87
100
AcDbEntity
  8
P-SANR-FIXT
100
AcDbSpline
210
0.0
220
0.0
230
1.0
 70
     8
 71
     3
 72
    14
 73
    10
 74
     0
 42
0.000000001
 43
0.0000000001
 40
0.0
 40
0.0
 40
0.0
 40
0.0
 40
0.1428571428571428
 40
0.2857142857142857
 40
0.4285714285714286
 40
0.5714285714285714
 40
0.7857142857142857
 40
0.8928571428571427
 40
1.0
 40
1.0
 40
1.0
 40
1.0
 10
740.7531242418768
 20
1999.999999999995
 30
0.0
 10
740.7429010134523
 20
1997.063170382452
 30
0.0
 10
740.4170423950611
 20
1991.383149987187
 30
0.0
 10
739.0247735055179
 20
1983.246946085255
 30
0.0
 10
737.1119637326204
 20
1976.085838359782
 30
0.0
 10
734.714548555304
 20
1969.107445364241
 30
0.0
 10
732.8048871178333
 20
1964.559034961698
 30
0.0
 10
731.8379173552334
 20
1962.376882525831
 30
0.0
 10
731.6664074431884
 20
1962.010606556724
 30
0.0
 10
731.6664074431884
 20
1961.999999999994
 30
0.0
  0
SPLINE
  5
1A2
330
87
100
AcDbEntity
  8
P-SANR-FIXT
100
AcDbSpline
210
0.0
220
0.0
230
1.0
 70
     8
 71
     3
 72
    10
 73
     6
 74
     0
 42
0.000000001
 43
0.0000000001
 40
-1.0
 40
-1.0
 40
-1.0
 40
-1.0
 40
-0.6666666666666666
 40
-0.3333333333333333
 40
0.0
 40
0.0
 40
0.0
 40
0.0
 10
880.9079786268567
 20
1731.984501298462
 30
0.0
 10
881.5343052078905
 20
1732.235453113248
 30
0.0
 10
882.6019319790518
 20
1732.663947748161
 30
0.0
 10
883.5825597866572
 20
1733.088377651668
 30
0.0
 10
883.8034030077542
 20
1733.181633303188
 30
0.0
 10
883.8029354822648
 20
1733.183378132069
 30
0.0
  0
SPLINE
  5
1A3
330
87
100
AcDbEntity
  8
P-SANR-FIXT
100
AcDbSpline
210
0.0
220
0.0
230
1.0
 70
     8
 71
     3
 72
    16
 73
    12
 74
     0
 42
0.000000001
 43
0.0000000001
 40
-1.0
 40
-1.0
 40
-1.0
 40
-1.0
 40
-0.8888888888888889
 40
-0.7777777777777778
 40
-0.6666666666666666
 40
-0.5555555555555556
 40
-0.4444444444444445
 40
-0.3333333333333333
 40
-0.2222222222222222
 40
-0.1111111111111111
 40
0.0
 40
0.0
 40
0.0
 40
0.0
 10
843.7828961780157
 20
1720.264659319866
 30
0.0
 10
843.786606189567
 20
1720.25081336826
 30
0.0
 10
844.3601333061137
 20
1720.351631469244
 30
0.0
 10
846.8873612138843
 20
1720.798314752363
 30
0.0
 10
850.8274370271585
 20
1721.717364789403
 30
0.0
 10
855.8202157314726
 20
1723.107043263689
 30
0.0
 10
861.4373233119309
 20
1724.873004859832
 30
0.0
 10
867.2258952148157
 20
1726.852357218584
 30
0.0
 10
872.7110909669002
 20
1728.840813233309
 30
0.0
 10
877.4735132839973
 20
1730.647886022653
 30
0.0
 10
879.9211897223058
 20
1731.588540378021
 30
0.0
 10
880.9079786268567
 20
1731.984501298462
 30
0.0
  0
LINE
  5
1A4
330
87
100
AcDbEntity
  8
P-SANR-FIXT
100
AcDbLine
 10
988.666407443188
 20
2092.499999999994
 30
0.0
 11
988.666407443188
 21
1907.499999999997
 31
0.0
  0
LINE
  5
1A5
330
87
100
AcDbEntity
  8
P-SANR-FIXT
100
AcDbLine
 10
972.6664074431882
 20
2092.499999999994
 30
0.0
 11
972.6664074431882
 21
1907.499999999997
 31
0.0
  0
LINE
  5
1A6
330
87
100
AcDbEntity
  8
P-SANR-FIXT
100
AcDbLine
 10
658.666407443188
 20
2092.499999999995
 30
0.0
 11
658.666407443188
 21
1907.499999999995
 31
0.0
  0
LINE
  5
1A7
330
87
100
AcDbEntity
  8
P-SANR-FIXT
100
AcDbLine
 10
642.6664074431881
 20
2092.499999999995
 30
0.0
 11
642.6664074431881
 21
1907.499999999995
 31
0.0
  0
LINE
  5
1A8
330
87
100
AcDbEntity
  8
P-SANR-FIXT
100
AcDbLine
 10
640.666407443188
 20
2060.999999999995
 30
0.0
 11
640.666407443188
 21
1938.999999999995
 31
0.0
  0
ENDBLK
  5
1AA
330
87
100
AcDbEntity
  8
0
100
AcDbBlockEnd
  0
BLOCK
  5
1E9
330
1AC
100
AcDbEntity
  8
0
100
AcDbBlockBegin
  2
Automatic flow rate regulator valve_Caleffi_121 DN15 - 1_2__-V1-Est - Idraulica
 70
     0
 10
0.0
 20
0.0
 30
0.0
  3
Automatic flow rate regulator valve_Caleffi_121 DN15 - 1_2__-V1-Est - Idraulica
  1

  0
LWPOLYLINE
  5
1AD
330
1AC
100
AcDbEntity
  8
P-SANR-FIXT
100
AcDbPolyline
 90
       80
 70
   128
 43
0.0
 10
940.6661636776123
 20
1137.523933115488
 10
940.5563053186943
 20
1142.522392676734
 10
940.2466497649326
 20
1147.512460840844
 10
939.737692399157
 20
1152.486154563246
 10
939.0302474445812
 20
1157.435516994983
 10
938.1254466622189
 20
1162.352630211971
 10
937.024737540308
 20
1167.229627881991
 10
935.7298809786378
 20
1172.058707849142
 10
934.2429484714859
 20
1176.832144615624
 10
932.5663187936683
 20
1181.542301700893
 10
930.702674195008
 20
1186.181643858389
 10
928.6549961093058
 20
1190.742749130335
 10
926.4265603846846
 20
1195.21832072128
 10
924.0209320429297
 20
1199.601198671416
 10
921.4419595762143
 20
1203.884371310986
 10
918.6937687903336
 20
1208.060986477462
 10
915.7807562042957
 20
1212.124362477542
 10
912.7075820168288
 20
1216.067998776433
 10
909.4791626510573
 20
1219.88558639732
 10
906.1006628892736
 20
1223.571018014385
 10
902.5774876103884
 20
1227.118397723226
 10
898.9152731432771
 20
1230.52205047304
 10
895.1198782498567
 20
1233.776531145504
 10
891.1973747523152
 20
1236.876633265792
 10
887.154037819493
 20
1239.817397331833
 10
882.9963359279499
 20
1242.594118748449
 10
878.7309205137832
 20
1245.202355353711
 10
874.3646153317486
 20
1247.637934525444
 10
869.9044055387091
 20
1249.896959856535
 10
865.3574265188726
 20
1251.975817388356
 10
860.7309524687002
 20
1253.871181392319
 10
856.0323847597439
 20
1255.580019690343
 10
851.2692400980304
 20
1257.099598505683
 10
846.4491384989349
 20
1258.427486836393
 10
841.5797910967828
 20
1259.561560344414
 10
836.6689878086786
 20
1260.500004754054
 10
831.7245848723011
 20
1261.241318754448
 10
826.7544922775988
 20
1261.784316401336
 10
821.7666611124935
 20
1262.128129014314
 10
816.7690708428354
 20
1262.272206566545
 10
811.76971654696
 20
1262.216318564682
 10
806.7765961252691
 20
1261.960554417603
 10
801.7976975052945
 20
1261.505323293385
 10
796.8409858627205
 20
1260.851353464715
 10
791.9143908787994
 20
1259.999691143814
 10
787.0257940545546
 20
1258.951698808715
 10
782.1830161020602
 20
1257.709053023597
 10
777.3938044329691
 20
1256.273741756631
 10
772.6658207643075
 20
1254.648061199661
 10
768.006628861363
 20
1252.834612094784
 10
763.4236824372725
 20
1250.836295573721
 10
758.9243132286711
 20
1248.65630851662
 10
754.5157192664781
 20
1246.298138437734
 10
750.2049533605836
 20
1243.765557906138
 10
745.9989118168557
 20
1241.062618510429
 10
741.9043234045239
 20
1238.193644377044
 10
737.9277385915814
 20
1235.163225252579
 10
734.0755190654373
 20
1231.976209161181
 10
730.3538275555691
 20
1228.637694648735
 10
726.768617974475
 20
1225.153022626281
 10
723.3256258926803
 20
1221.5277678257
 10
720.0303593630504
 20
1217.767729881324
 10
716.8880901090799
 20
1213.878924051768
 10
713.9038450912602
 20
1209.86757159679
 10
711.0823984650148
 20
1205.740089824609
 10
708.4282639430689
 20
1201.503081825578
 10
705.9456875744727
 20
1197.163325908648
 10
703.6386409518278
 20
1192.727764757522
 10
701.5108148575872
 20
1188.203494323838
 10
699.5656133595891
 20
1183.597752475164
 10
697.806148365276
 20
1178.917907415952
 10
696.235234643307
 20
1174.171445899984
 10
694.8553853205263
 20
1169.36596125316
 10
693.6688078614983
 20
1164.5091412258
 10
692.6774005370344
 20
1159.608755693881
 10
691.8827493873647
 20
1154.672644228895
 10
691.2861256848126
 20
1149.708703556204
 10
690.8884839000287
 20
1144.724874921968
 10
690.6904601750432
 20
1139.729131388841
 10
690.6666512087666
 20
1137.52393311549
  0
LINE
  5
1AE
330
1AC
100
AcDbEntity
  8
P-SANR-FIXT
100
AcDbLine
 10
785.6674231492965
 20
1137.523933115489
 30
0.0
 11
800.1771857140473
 21
1137.523933115489
 31
0.0
  0
LINE
  5
1AF
330
1AC
100
AcDbEntity
  8
P-SANR-FIXT
100
AcDbLine
 10
831.1556291723231
 20
1137.523933115489
 30
0.0
 11
845.665391737079
 21
1137.523933115488
 31
0.0
  0
LWPOLYLINE
  5
1B0
330
1AC
100
AcDbEntity
  8
P-SANR-FIXT
100
AcDbPolyline
 90
        6
 70
   128
 43
0.0
 10
845.665391737079
 20
1137.523933115488
 10
863.1605472177669
 20
1137.523933115488
 10
880.3473294420948
 20
1137.523933115488
 10
896.9279444235251
 20
1137.523933115488
 10
912.615155585129
 20
1137.523933115488
 10
927.1357826512147
 20
1137.523933115488
  0
SPLINE
  5
1B1
330
1AC
100
AcDbEntity
  8
P-SANR-FIXT
100
AcDbSpline
210
0.0
220
0.0
230
1.0
 70
    24
 71
     3
 72
    12
 73
     8
 74
     0
 42
0.000000001
 43
0.0000000001
 40
-1.0
 40
-1.0
 40
-1.0
 40
-1.0
 40
-0.85
 40
-0.7
 40
-0.4
 40
-0.2
 40
0.0
 40
0.0
 40
0.0
 40
0.0
 10
704.1970322351608
 20
1137.52393311549
 30
0.0
 10
707.6813659897426
 20
1137.52393311549
 30
0.0
 10
714.8606142743474
 20
1137.52393311549
 30
0.0
 10
730.1592788549414
 20
1137.523933115489
 30
0.0
 10
748.0055702086915
 20
1137.523933115489
 30
0.0
 10
768.1359441232485
 20
1137.523933115489
 30
0.0
 10
779.7843091130072
 20
1137.523933115489
 30
0.0
 10
785.6674231492965
 20
1137.523933115489
 30
0.0
  0
LWPOLYLINE
  5
1B2
330
1AC
100
AcDbEntity
  8
P-SANR-FIXT
100
AcDbPolyline
 90
        5
 70
   128
 43
0.0
 10
927.1357826512145
 20
1137.523933115488
 10
932.8222139167884
 20
1137.523933115488
 10
937.1056488230648
 20
1137.523933115488
 10
939.7658196399383
 20
1137.523933115488
 10
940.6661636776107
 20
1137.523933115488
  0
SPLINE
  5
1B3
330
1AC
100
AcDbEntity
  8
P-SANR-FIXT
100
AcDbSpline
210
0.0
220
0.0
230
1.0
 70
    24
 71
     3
 72
    11
 73
     7
 74
     0
 42
0.000000001
 43
0.0000000001
 40
-1.0
 40
-1.0
 40
-1.0
 40
-1.0
 40
-0.75
 40
-0.5
 40
-0.25
 40
0.0
 40
0.0
 40
0.0
 40
0.0
 10
690.666651208765
 20
1137.52393311549
 30
0.0
 10
690.6734614247888
 20
1137.52393311549
 30
0.0
 10
691.2686825308711
 20
1137.52393311549
 30
0.0
 10
693.9513904833914
 20
1137.52393311549
 30
0.0
 10
698.288751915429
 20
1137.52393311549
 30
0.0
 10
702.0677224200866
 20
1137.52393311549
 30
0.0
 10
704.1970322351608
 20
1137.52393311549
 30
0.0
  0
SPLINE
  5
1B4
330
1AC
100
AcDbEntity
  8
P-SANR-FIXT
100
AcDbSpline
210
0.0
220
0.0
230
1.0
 70
    24
 71
     3
 72
     9
 73
     5
 74
     0
 42
0.000000001
 43
0.0000000001
 40
0.0
 40
0.0
 40
0.0
 40
0.0
 40
0.5
 40
1.0
 40
1.0
 40
1.0
 40
1.0
 10
828.3681133653425
 20
1137.277070127467
 30
0.0
 10
827.8427174689772
 20
1136.367057740874
 30
0.0
 10
826.7880838258545
 20
1134.540378687614
 30
0.0
 10
825.7257664819476
 20
1132.700391074206
 30
0.0
 10
825.1926868847982
 20
1131.777070127465
 30
0.0
  0
SPLINE
  5
1B5
330
1AC
100
AcDbEntity
  8
P-SANR-FIXT
100
AcDbSpline
210
0.0
220
0.0
230
1.0
 70
    24
 71
     3
 72
     9
 73
     5
 74
     0
 42
0.000000001
 43
0.0000000001
 40
0.0
 40
0.0
 40
0.0
 40
0.0
 40
0.5
 40
1.0
 40
1.0
 40
1.0
 40
1.0
 10
825.1926868847982
 20
1131.777070127465
 30
0.0
 10
824.6596072876506
 20
1130.853749180727
 30
0.0
 10
823.5972899437472
 20
1129.013761567324
 30
0.0
 10
822.5426563006276
 20
1127.18708251407
 30
0.0
 10
822.0172604042639
 20
1126.277070127479
 30
0.0
  0
SPLINE
  5
1B6
330
1AC
100
AcDbEntity
  8
P-SANR-FIXT
100
AcDbSpline
210
0.0
220
0.0
230
1.0
 70
    24
 71
     3
 72
     9
 73
     5
 74
     0
 42
0.000000001
 43
0.0000000001
 40
0.0
 40
0.0
 40
0.0
 40
0.0
 40
0.5
 40
1.0
 40
1.0
 40
1.0
 40
1.0
 10
822.0172604042639
 20
1148.277070127454
 30
0.0
 10
822.5426563006298
 20
1147.367057740861
 30
0.0
 10
823.597289943753
 20
1145.540378687599
 30
0.0
 10
824.6596072876601
 20
1143.700391074191
 30
0.0
 10
825.1926868848094
 20
1142.77707012745
 30
0.0
  0
SPLINE
  5
1B7
330
1AC
100
AcDbEntity
  8
P-SANR-FIXT
100
AcDbSpline
210
0.0
220
0.0
230
1.0
 70
    24
 71
     3
 72
     9
 73
     5
 74
     0
 42
0.000000001
 43
0.0000000001
 40
0.0
 40
0.0
 40
0.0
 40
0.0
 40
0.5
 40
1.0
 40
1.0
 40
1.0
 40
1.0
 10
825.1926868848094
 20
1142.77707012745
 30
0.0
 10
825.7257664819567
 20
1141.853749180713
 30
0.0
 10
826.7880838258593
 20
1140.013761567312
 30
0.0
 10
827.8427174689788
 20
1138.187082514057
 30
0.0
 10
828.3681133653425
 20
1137.277070127467
 30
0.0
  0
ARC
  5
1B8
330
1AC
100
AcDbEntity
  8
P-SANR-FIXT
100
AcDbCircle
 10
815.6664074431878
 20
1137.277070127454
 30
0.0
 40
11.00000000000052
100
AcDbArc
 50
0.0000000000005979
 51
29.99999999999984
  0
ARC
  5
1B9
330
1AC
100
AcDbEntity
  8
P-SANR-FIXT
100
AcDbCircle
 10
815.6664074431878
 20
1137.277070127454
 30
0.0
 40
11.00000000000027
100
AcDbArc
 50
30.00000000000003
 51
89.99999999999941
  0
ARC
  5
1BA
330
1AC
100
AcDbEntity
  8
P-SANR-FIXT
100
AcDbCircle
 10
815.6664074431878
 20
1137.277070127454
 30
0.0
 40
11.00000000000032
100
AcDbArc
 50
89.99999999999911
 51
150.0000000000003
  0
ARC
  5
1BB
330
1AC
100
AcDbEntity
  8
P-SANR-FIXT
100
AcDbCircle
 10
815.6664074431878
 20
1137.277070127454
 30
0.0
 40
11.00000000000042
100
AcDbArc
 50
149.9999999999994
 51
180.0
  0
ARC
  5
1BC
330
1AC
100
AcDbEntity
  8
P-SANR-FIXT
100
AcDbCircle
 10
815.6664074431878
 20
1137.277070127454
 30
0.0
 40
11.00000000000034
100
AcDbArc
 50
180.0
 51
209.9999999999989
  0
ARC
  5
1BD
330
1AC
100
AcDbEntity
  8
P-SANR-FIXT
100
AcDbCircle
 10
815.6664074431878
 20
1137.277070127454
 30
0.0
 40
11.00000000000031
100
AcDbArc
 50
209.9999999999987
 51
269.999999999999
  0
ARC
  5
1BE
330
1AC
100
AcDbEntity
  8
P-SANR-FIXT
100
AcDbCircle
 10
815.6664074431878
 20
1137.277070127454
 30
0.0
 40
11.0000000000002
100
AcDbArc
 50
269.9999999999988
 51
329.9999999999989
  0
ARC
  5
1BF
330
1AC
100
AcDbEntity
  8
P-SANR-FIXT
100
AcDbCircle
 10
815.6664074431878
 20
1137.277070127454
 30
0.0
 40
11.00000000000028
100
AcDbArc
 50
329.9999999999988
 51
0.0
  0
SPLINE
  5
1C0
330
1AC
100
AcDbEntity
  8
P-SANR-FIXT
100
AcDbSpline
210
0.0
220
0.0
230
1.0
 70
    24
 71
     3
 72
     9
 73
     5
 74
     0
 42
0.000000001
 43
0.0000000001
 40
0.0
 40
0.0
 40
0.0
 40
0.0
 40
0.5
 40
1.0
 40
1.0
 40
1.0
 40
1.0
 10
809.3155544821067
 20
1126.27707012748
 30
0.0
 10
808.790158585743
 20
1127.18708251407
 30
0.0
 10
807.7355249426238
 20
1129.013761567324
 30
0.0
 10
806.6732075987209
 20
1130.853749180725
 30
0.0
 10
806.1401280015735
 20
1131.777070127462
 30
0.0
  0
SPLINE
  5
1C1
330
1AC
100
AcDbEntity
  8
P-SANR-FIXT
100
AcDbSpline
210
0.0
220
0.0
230
1.0
 70
    24
 71
     3
 72
     9
 73
     5
 74
     0
 42
0.000000001
 43
0.0000000001
 40
0.0
 40
0.0
 40
0.0
 40
0.0
 40
0.5
 40
1.0
 40
1.0
 40
1.0
 40
1.0
 10
806.1401280015735
 20
1131.777070127462
 30
0.0
 10
805.6070484044241
 20
1132.700391074204
 30
0.0
 10
804.5447310605167
 20
1134.540378687613
 30
0.0
 10
803.4900974173936
 20
1136.367057740874
 30
0.0
 10
802.9647015210279
 20
1137.277070127467
 30
0.0
  0
SPLINE
  5
1C2
330
1AC
100
AcDbEntity
  8
P-SANR-FIXT
100
AcDbSpline
210
0.0
220
0.0
230
1.0
 70
    24
 71
     3
 72
     9
 73
     5
 74
     0
 42
0.000000001
 43
0.0000000001
 40
0.0
 40
0.0
 40
0.0
 40
0.0
 40
0.5
 40
1.0
 40
1.0
 40
1.0
 40
1.0
 10
822.0172604042639
 20
1126.277070127479
 30
0.0
 10
820.9664686115353
 20
1126.277070127479
 30
0.0
 10
818.857201325294
 20
1126.277070127479
 30
0.0
 10
816.7325666374845
 20
1126.277070127479
 30
0.0
 10
815.6664074431878
 20
1126.277070127479
 30
0.0
  0
SPLINE
  5
1C3
330
1AC
100
AcDbEntity
  8
P-SANR-FIXT
100
AcDbSpline
210
0.0
220
0.0
230
1.0
 70
    24
 71
     3
 72
     9
 73
     5
 74
     0
 42
0.000000001
 43
0.0000000001
 40
0.0
 40
0.0
 40
0.0
 40
0.0
 40
0.5
 40
1.0
 40
1.0
 40
1.0
 40
1.0
 10
815.6664074431878
 20
1126.277070127479
 30
0.0
 10
814.6002482488901
 20
1126.277070127479
 30
0.0
 10
812.4756135610789
 20
1126.27707012748
 30
0.0
 10
810.3663462748359
 20
1126.27707012748
 30
0.0
 10
809.3155544821067
 20
1126.27707012748
 30
0.0
  0
SPLINE
  5
1C4
330
1AC
100
AcDbEntity
  8
P-SANR-FIXT
100
AcDbSpline
210
0.0
220
0.0
230
1.0
 70
    24
 71
     3
 72
     9
 73
     5
 74
     0
 42
0.000000001
 43
0.0000000001
 40
0.0
 40
0.0
 40
0.0
 40
0.0
 40
0.5
 40
1.0
 40
1.0
 40
1.0
 40
1.0
 10
809.3155544821067
 20
1148.277070127454
 30
0.0
 10
810.3663462748368
 20
1148.277070127454
 30
0.0
 10
812.4756135610807
 20
1148.277070127454
 30
0.0
 10
814.600248248891
 20
1148.277070127454
 30
0.0
 10
815.666407443188
 20
1148.277070127454
 30
0.0
  0
SPLINE
  5
1C5
330
1AC
100
AcDbEntity
  8
P-SANR-FIXT
100
AcDbSpline
210
0.0
220
0.0
230
1.0
 70
    24
 71
     3
 72
     9
 73
     5
 74
     0
 42
0.000000001
 43
0.0000000001
 40
0.0
 40
0.0
 40
0.0
 40
0.0
 40
0.5
 40
1.0
 40
1.0
 40
1.0
 40
1.0
 10
815.666407443188
 20
1148.277070127454
 30
0.0
 10
816.7325666374837
 20
1148.277070127454
 30
0.0
 10
818.8572013252922
 20
1148.277070127454
 30
0.0
 10
820.9664686115344
 20
1148.277070127454
 30
0.0
 10
822.0172604042639
 20
1148.277070127454
 30
0.0
  0
SPLINE
  5
1C6
330
1AC
100
AcDbEntity
  8
P-SANR-FIXT
100
AcDbSpline
210
0.0
220
0.0
230
1.0
 70
    24
 71
     3
 72
     9
 73
     5
 74
     0
 42
0.000000001
 43
0.0000000001
 40
0.0
 40
0.0
 40
0.0
 40
0.0
 40
0.5
 40
1.0
 40
1.0
 40
1.0
 40
1.0
 10
802.9647015210279
 20
1137.277070127467
 30
0.0
 10
803.4900974173922
 20
1138.187082514058
 30
0.0
 10
804.5447310605119
 20
1140.013761567313
 30
0.0
 10
805.607048404415
 20
1141.853749180715
 30
0.0
 10
806.1401280015624
 20
1142.777070127452
 30
0.0
  0
SPLINE
  5
1C7
330
1AC
100
AcDbEntity
  8
P-SANR-FIXT
100
AcDbSpline
210
0.0
220
0.0
230
1.0
 70
    24
 71
     3
 72
     9
 73
     5
 74
     0
 42
0.000000001
 43
0.0000000001
 40
0.0
 40
0.0
 40
0.0
 40
0.0
 40
0.5
 40
1.0
 40
1.0
 40
1.0
 40
1.0
 10
806.1401280015624
 20
1142.777070127452
 30
0.0
 10
806.6732075987115
 20
1143.700391074193
 30
0.0
 10
807.7355249426181
 20
1145.5403786876
 30
0.0
 10
808.7901585857411
 20
1147.367057740861
 30
0.0
 10
809.3155544821067
 20
1148.277070127454
 30
0.0
  0
ARC
  5
1C8
330
1AC
100
AcDbEntity
  8
P-SANR-FIXT
100
AcDbCircle
 10
815.6664074431853
 20
1137.277070127467
 30
0.0
 40
15.49999999996421
100
AcDbArc
 50
179.9999999999998
 51
359.9999999999994
  0
ARC
  5
1C9
330
1AC
100
AcDbEntity
  8
P-SANR-FIXT
100
AcDbCircle
 10
815.6664074431853
 20
1137.277070127467
 30
0.0
 40
15.49999999996419
100
AcDbArc
 50
0.0
 51
180.0
  0
LINE
  5
1CA
330
1AC
100
AcDbEntity
  8
P-SANR-FIXT
100
AcDbLine
 10
990.6664074431898
 20
1198.277070127453
 30
0.0
 11
988.6664074431896
 21
1198.277070127453
 31
0.0
  0
LINE
  5
1CB
330
1AC
100
AcDbEntity
  8
P-SANR-FIXT
100
AcDbLine
 10
988.6664074431894
 20
1076.277070127453
 30
0.0
 11
990.6664074431896
 21
1076.277070127453
 31
0.0
  0
LINE
  5
1CC
330
1AC
100
AcDbEntity
  8
P-SANR-FIXT
100
AcDbLine
 10
899.6664074431896
 20
1137.277070127454
 30
0.0
 11
899.6614695250222
 21
1137.523933115488
 31
0.0
  0
LINE
  5
1CD
330
1AC
100
AcDbEntity
  8
P-SANR-FIXT
100
AcDbLine
 10
731.6690727602394
 20
1137.523933115489
 30
0.0
 11
731.6664074431892
 21
1137.277070127454
 31
0.0
  0
LWPOLYLINE
  5
1CE
330
1AC
100
AcDbEntity
  8
P-SANR-FIXT
100
AcDbPolyline
 90
       80
 70
   128
 43
0.0
 10
731.6664074431892
 20
1137.277070127453
 10
731.7335984836672
 20
1133.917966055776
 10
731.9350641137693
 20
1130.564235834043
 10
732.2704820314645
 20
1127.221244715184
 10
732.7393156396367
 20
1123.894340771857
 10
733.340814904525
 20
1120.588846340669
 10
734.074017555619
 20
1117.310049507574
 10
734.9377506250846
 20
1114.063195648068
 10
735.9306323242642
 20
1110.853479035699
 10
737.0510742542429
 20
1107.686034532346
 10
738.297283946947
 20
1104.565929373527
 10
739.6672677327124
 20
1101.498155061909
 10
741.1588339297296
 20
1098.487619381969
 10
742.7695963502668
 20
1095.539138548579
 10
744.4969781180624
 20
1092.657429502099
 10
746.3382157907765
 20
1089.84710236227
 10
748.2903637809088
 20
1087.112653053012
 10
750.3502990681115
 20
1084.458456109902
 10
752.5147261953544
 20
1081.888757681849
 10
754.7801825409534
 20
1079.407668738167
 10
757.1430438580278
 20
1077.019158491894
 10
759.5995300725197
 20
1074.727048049901
 10
762.1457113305088
 20
1072.53500429994
 10
764.7775142851386
 20
1070.446534044399
 10
767.4907286131031
 20
1068.464978390169
 10
770.2810137502658
 20
1066.59350740359
 10
773.1439058356364
 20
1064.835115039013
 10
776.0748248525954
 20
1063.192614349118
 10
779.0690819559459
 20
1061.668632984627
 10
782.1218869730626
 20
1060.265608990625
 10
785.2283560671492
 20
1058.985786906206
 10
788.3835195503325
 20
1057.831214173692
 10
791.5823298341056
 20
1056.803737863159
 10
794.8196695043905
 20
1055.905001717519
 10
798.0903595083105
 20
1055.136443522887
 10
801.3891674395695
 20
1054.499292808423
 10
804.7108159091855
 20
1053.994568879352
 10
808.0499909881877
 20
1053.623079186292
 10
811.401350708769
 20
1053.385418033505
 10
814.7595336102952
 20
1053.281965628136
 10
818.1191673164981
 20
1053.312887471967
 10
821.4748771301309
 20
1053.478134096643
 10
824.821294631339
 20
1053.777441142815
 10
828.1530662659843
 20
1054.210329783058
 10
831.4648619101918
 20
1054.776107487894
 10
834.7513833974092
 20
1055.473869133685
 10
838.0073729943442
 20
1056.302498450648
 10
841.2276218122157
 20
1057.260669808639
 10
844.4069781398654
 20
1058.346850337886
 10
847.5403556853947
 20
1059.559302381248
 10
850.6227417131498
 20
1060.896086274096
 10
853.6492050630265
 20
1062.35506344737
 10
856.614904039276
 20
1063.933899848823
 10
859.5150941561852
 20
1065.630069677013
 10
862.3451357282412
 20
1067.440859422045
 10
865.1005012926388
 20
1069.363372206609
 10
867.7767828522545
 20
1071.394532420363
 10
870.3696989275034
 20
1073.531090640257
 10
872.8751014057905
 20
1075.769628828913
 10
875.2889821776079
 20
1078.106565802759
 10
877.6074795486545
 20
1080.538162961157
 10
879.8268844177229
 20
1083.060530267367
 10
881.9436462104706
 20
1085.669632471774
 10
883.9543785595806
 20
1088.361295567431
 10
885.8558647222279
 20
1091.131213467575
 10
887.6450627261814
 20
1093.974954894451
 10
889.3191102363093
 20
1096.887970468408
 10
890.875329133707
 20
1099.865599985937
 10
892.3112298001141
 20
1102.903079875005
 10
893.6245151007735
 20
1105.995550815749
 10
894.8130840593568
 20
1109.138065514358
 10
895.8750352190781
 20
1112.32559661768
 10
896.8086696846194
 20
1115.553044755921
 10
897.6124938400005
 20
1118.815246700544
 10
898.2852217380461
 20
1122.106983624338
 10
898.825777157627
 20
1125.422989450425
 10
899.2332953253843
 20
1128.757959276859
 10
899.5071242991818
 20
1132.106557863341
 10
899.6468260110756
 20
1135.463428166462
 10
899.6664074431896
 20
1137.277070127454
  0
LINE
  5
1CF
330
1AC
100
AcDbEntity
  8
P-SANR-FIXT
100
AcDbLine
 10
988.6664074431898
 20
1229.777070127452
 30
0.0
 11
972.66640744319
 21
1229.777070127452
 31
0.0
  0
LINE
  5
1D0
330
1AC
100
AcDbEntity
  8
P-SANR-FIXT
100
AcDbLine
 10
972.6664074431894
 20
1044.777070127454
 30
0.0
 11
988.6664074431893
 21
1044.777070127454
 31
0.0
  0
LINE
  5
1D1
330
1AC
100
AcDbEntity
  8
P-SANR-FIXT
100
AcDbLine
 10
972.66640744319
 20
1175.277070127452
 30
0.0
 11
934.7185554405216
 21
1175.277070127453
 31
0.0
  0
LINE
  5
1D2
330
1AC
100
AcDbEntity
  8
P-SANR-FIXT
100
AcDbLine
 10
890.5796906445015
 20
1099.277070127454
 30
0.0
 11
972.6664074431896
 21
1099.277070127453
 31
0.0
  0
LINE
  5
1D3
330
1AC
100
AcDbEntity
  8
P-SANR-FIXT
100
AcDbLine
 10
696.6142594458578
 20
1175.277070127455
 30
0.0
 11
658.6664074431893
 21
1175.277070127455
 31
0.0
  0
LINE
  5
1D4
330
1AC
100
AcDbEntity
  8
P-SANR-FIXT
100
AcDbLine
 10
658.6664074431888
 20
1099.277070127453
 30
0.0
 11
740.7531242418778
 21
1099.277070127453
 31
0.0
  0
LINE
  5
1D5
330
1AC
100
AcDbEntity
  8
P-SANR-FIXT
100
AcDbLine
 10
658.6664074431894
 20
1229.777070127454
 30
0.0
 11
642.6664074431895
 21
1229.777070127454
 31
0.0
  0
LINE
  5
1D6
330
1AC
100
AcDbEntity
  8
P-SANR-FIXT
100
AcDbLine
 10
642.666407443189
 20
1044.777070127454
 30
0.0
 11
658.6664074431888
 21
1044.777070127454
 31
0.0
  0
LINE
  5
1D7
330
1AC
100
AcDbEntity
  8
P-SANR-FIXT
100
AcDbLine
 10
642.6664074431892
 20
1198.277070127454
 30
0.0
 11
640.6664074431891
 21
1198.277070127454
 31
0.0
  0
LINE
  5
1D8
330
1AC
100
AcDbEntity
  8
P-SANR-FIXT
100
AcDbLine
 10
640.666407443189
 20
1076.277070127454
 30
0.0
 11
642.666407443189
 21
1076.277070127454
 31
0.0
  0
LINE
  5
1D9
330
1AC
100
AcDbEntity
  8
P-SANR-FIXT
100
AcDbLine
 10
990.6664074431878
 20
1137.277070127453
 30
0.0
 11
990.666407443188
 21
1198.277070127453
 31
0.0
  0
LINE
  5
1DA
330
1AC
100
AcDbEntity
  8
P-SANR-FIXT
100
AcDbLine
 10
990.6664074431876
 20
1076.277070127453
 30
0.0
 11
990.6664074431878
 21
1137.277070127453
 31
0.0
  0
SPLINE
  5
1DB
330
1AC
100
AcDbEntity
  8
P-SANR-FIXT
100
AcDbSpline
210
0.0
220
0.0
230
1.0
 70
     8
 71
     3
 72
     8
 73
     4
 74
     0
 42
0.000000001
 43
0.0000000001
 40
0.0
 40
0.0
 40
0.0
 40
0.0
 40
0.0040423558065415
 40
0.0040423558065415
 40
0.0040423558065415
 40
0.0040423558065415
 10
899.6664074431874
 20
1137.277070127454
 30
0.0
 10
899.6664074431874
 20
1137.360037470411
 30
0.0
 10
899.6662861754948
 20
1137.442939395467
 30
0.0
 10
899.666044013551
 20
1137.525776234042
 30
0.0
  0
SPLINE
  5
1DC
330
1AC
100
AcDbEntity
  8
P-SANR-FIXT
100
AcDbSpline
210
0.0
220
0.0
230
1.0
 70
     8
 71
     3
 72
     8
 73
     4
 74
     0
 42
0.000000001
 43
0.0000000001
 40
0.9959576441934446
 40
0.9959576441934446
 40
0.9959576441934446
 40
0.9959576441934446
 40
1.0
 40
1.0
 40
1.0
 40
1.0
 10
731.6667732303961
 20
1137.525775531993
 30
0.0
 10
731.6665295111959
 20
1137.442939077234
 30
0.0
 10
731.6664074431882
 20
1137.360037470411
 30
0.0
 10
731.6664074431882
 20
1137.277070127454
 30
0.0
  0
SPLINE
  5
1DD
330
1AC
100
AcDbEntity
  8
P-SANR-FIXT
100
AcDbSpline
210
0.0
220
0.0
230
1.0
 70
     8
 71
     3
 72
    17
 73
    13
 74
     0
 42
0.000000001
 43
0.0000000001
 40
0.0
 40
0.0
 40
0.0
 40
0.0
 40
0.1428571428571428
 40
0.2857142857142857
 40
0.4285714285714286
 40
0.5714285714285714
 40
0.6785714285714287
 40
0.7321428571428572
 40
0.7857142857142857
 40
0.8392857142857142
 40
0.8928571428571427
 40
1.0
 40
1.0
 40
1.0
 40
1.0
 10
731.6664074431882
 20
1137.277070127453
 30
0.0
 10
731.6664074431882
 20
1134.344998302879
 30
0.0
 10
731.9693148935332
 20
1128.644258186841
 30
0.0
 10
733.2335029811908
 20
1120.495591641461
 30
0.0
 10
735.0585081754958
 20
1113.317049979108
 30
0.0
 10
736.9375878329093
 20
1107.851823335316
 30
0.0
 10
738.3147240098073
 20
1104.492927297668
 30
0.0
 10
739.1499344214103
 20
1102.608529693298
 30
0.0
 10
739.705391927084
 20
1101.410647886259
 30
0.0
 10
740.1643041581798
 20
1100.457223181589
 30
0.0
 10
740.6022022141189
 20
1099.572259169068
 30
0.0
 10
740.7454568205581
 20
1099.292185698628
 30
0.0
 10
740.7531242418764
 20
1099.277070127453
 30
0.0
  0
SPLINE
  5
1DE
330
1AC
100
AcDbEntity
  8
P-SANR-FIXT
100
AcDbSpline
210
0.0
220
0.0
230
1.0
 70
     8
 71
     3
 72
    14
 73
    10
 74
     0
 42
0.000000001
 43
0.0000000001
 40
0.0
 40
0.0
 40
0.0
 40
0.0
 40
0.1428571428571428
 40
0.2857142857142857
 40
0.4285714285714286
 40
0.5714285714285714
 40
0.7857142857142857
 40
0.8928571428571427
 40
1.0
 40
1.0
 40
1.0
 40
1.0
 10
890.5796906445001
 20
1099.277070127455
 30
0.0
 10
890.5899138729241
 20
1099.297224222354
 30
0.0
 10
890.915772491315
 20
1099.928895269412
 30
0.0
 10
892.3080413808582
 20
1102.815642408009
 30
0.0
 10
894.2208511537556
 20
1107.34868526275
 30
0.0
 10
896.6182663310716
 20
1114.308123004535
 30
0.0
 10
898.5279277685426
 20
1122.443220091514
 30
0.0
 10
899.4948975311425
 20
1130.772270139088
 30
0.0
 10
899.6664074431874
 20
1135.078016259023
 30
0.0
 10
899.6664074431874
 20
1137.277070127454
 30
0.0
  0
LINE
  5
1DF
330
1AC
100
AcDbEntity
  8
P-SANR-FIXT
100
AcDbLine
 10
988.666407443188
 20
1229.777070127451
 30
0.0
 11
988.6664074431877
 21
1137.277070127454
 31
0.0
  0
LINE
  5
1E0
330
1AC
100
AcDbEntity
  8
P-SANR-FIXT
100
AcDbLine
 10
988.6664074431877
 20
1137.277070127453
 30
0.0
 11
988.6664074431875
 21
1044.777070127455
 31
0.0
  0
LINE
  5
1E1
330
1AC
100
AcDbEntity
  8
P-SANR-FIXT
100
AcDbLine
 10
972.6664074431882
 20
1229.777070127451
 30
0.0
 11
972.6664074431878
 21
1137.277070127454
 31
0.0
  0
LINE
  5
1E2
330
1AC
100
AcDbEntity
  8
P-SANR-FIXT
100
AcDbLine
 10
972.6664074431878
 20
1137.277070127453
 30
0.0
 11
972.6664074431877
 21
1044.777070127455
 31
0.0
  0
LINE
  5
1E3
330
1AC
100
AcDbEntity
  8
P-SANR-FIXT
100
AcDbLine
 10
658.666407443188
 20
1229.777070127454
 30
0.0
 11
658.6664074431877
 21
1137.277070127455
 31
0.0
  0
LINE
  5
1E4
330
1AC
100
AcDbEntity
  8
P-SANR-FIXT
100
AcDbLine
 10
658.6664074431877
 20
1137.277070127455
 30
0.0
 11
658.6664074431874
 21
1044.777070127454
 31
0.0
  0
LINE
  5
1E5
330
1AC
100
AcDbEntity
  8
P-SANR-FIXT
100
AcDbLine
 10
642.6664074431881
 20
1229.777070127454
 30
0.0
 11
642.6664074431878
 21
1137.277070127455
 31
0.0
  0
LINE
  5
1E6
330
1AC
100
AcDbEntity
  8
P-SANR-FIXT
100
AcDbLine
 10
642.6664074431878
 20
1137.277070127455
 30
0.0
 11
642.6664074431876
 21
1044.777070127454
 31
0.0
  0
LINE
  5
1E7
330
1AC
100
AcDbEntity
  8
P-SANR-FIXT
100
AcDbLine
 10
640.6664074431879
 20
1198.277070127454
 30
0.0
 11
640.6664074431878
 21
1137.277070127455
 31
0.0
  0
LINE
  5
1E8
330
1AC
100
AcDbEntity
  8
P-SANR-FIXT
100
AcDbLine
 10
640.6664074431878
 20
1137.277070127455
 30
0.0
 11
640.6664074431877
 21
1076.277070127454
 31
0.0
  0
ENDBLK
  5
1EA
330
1AC
100
AcDbEntity
  8
0
100
AcDbBlockEnd
  0
BLOCK
  5
29B
330
1EC
100
AcDbEntity
  8
0
100
AcDbBlockBegin
  2
Automatic flow rate regulator valve_Caleffi_121 DN15 - 1_2__-V2-Est - Idraulica
 70
     0
 10
0.0
 20
0.0
 30
0.0
  3
Automatic flow rate regulator valve_Caleffi_121 DN15 - 1_2__-V2-Est - Idraulica
  1

  0
ARC
  5
1ED
330
1EC
100
AcDbEntity
  8
M-PIPE
100
AcDbCircle
 10
1491.083162545685
 20
1613.482558849932
 30
0.0
 40
15.49999999999978
100
AcDbArc
 50
281.1599368721831
 51
78.84006312781611
1001
REVIT
1002
{
1070
     3
1000
790271
1002
}
  0
ARC
  5
1EE
330
1EC
100
AcDbEntity
  8
M-PIPE
100
AcDbCircle
 10
1491.083162545685
 20
1613.482558849932
 30
0.0
 40
15.50000000000027
100
AcDbArc
 50
101.1599368721878
 51
258.8400631278111
1001
REVIT
1002
{
1070
     3
1000
790271
1002
}
  0
SPLINE
  5
1EF
330
1EC
100
AcDbEntity
  8
M-PIPE
100
AcDbSpline
210
0.0
220
0.0
230
1.0
 70
     8
 71
     3
 72
     9
 73
     5
 74
     0
 42
0.000000001
 43
0.0000000001
 40
-1.0
 40
-1.0
 40
-1.0
 40
-1.0
 40
-0.5
 40
0.0
 40
0.0
 40
0.0
 40
0.0
 10
1491.083162545685
 20
1602.284426693819
 30
0.0
 10
1491.589991253288
 20
1602.284658007038
 30
0.0
 10
1492.596819960891
 20
1602.342559295698
 30
0.0
 10
1493.589991253287
 20
1602.515337908801
 30
0.0
 10
1494.083162545684
 20
1602.630446546463
 30
0.0
1001
REVIT
1002
{
1070
     3
1000
790271
1002
}
  0
ARC
  5
1F0
330
1EC
100
AcDbEntity
  8
M-PIPE
100
AcDbCircle
 10
1491.083162545685
 20
1613.482558849932
 30
0.0
 40
11.50000000006284
100
AcDbArc
 50
285.1216653148206
 51
74.87833468517798
1001
REVIT
1002
{
1070
     3
1000
790271
1002
}
  0
SPLINE
  5
1F1
330
1EC
100
AcDbEntity
  8
M-PIPE
100
AcDbSpline
210
0.0
220
0.0
230
1.0
 70
     8
 71
     3
 72
     9
 73
     5
 74
     0
 42
0.000000001
 43
0.0000000001
 40
-1.0
 40
-1.0
 40
-1.0
 40
-1.0
 40
-0.5
 40
0.0
 40
0.0
 40
0.0
 40
0.0
 10
1494.083162545684
 20
1624.33467115342
 30
0.0
 10
1493.589991253288
 20
1624.449779791082
 30
0.0
 10
1492.596819960891
 20
1624.622558404185
 30
0.0
 10
1491.589991253288
 20
1624.680459692844
 30
0.0
 10
1491.083162545685
 20
1624.680691006064
 30
0.0
1001
REVIT
1002
{
1070
     3
1000
790271
1002
}
  0
SPLINE
  5
1F2
330
1EC
100
AcDbEntity
  8
M-PIPE
100
AcDbSpline
210
0.0
220
0.0
230
1.0
 70
     8
 71
     3
 72
     9
 73
     5
 74
     0
 42
0.000000001
 43
0.0000000001
 40
-1.0
 40
-1.0
 40
-1.0
 40
-1.0
 40
-0.5
 40
0.0
 40
0.0
 40
0.0
 40
0.0
 10
1491.083162545685
 20
1624.680691006064
 30
0.0
 10
1490.576333838081
 20
1624.680459692844
 30
0.0
 10
1489.569505130478
 20
1624.622558404185
 30
0.0
 10
1488.576333838081
 20
1624.449779791082
 30
0.0
 10
1488.083162545684
 20
1624.33467115342
 30
0.0
1001
REVIT
1002
{
1070
     3
1000
790271
1002
}
  0
ARC
  5
1F3
330
1EC
100
AcDbEntity
  8
M-PIPE
100
AcDbCircle
 10
1491.083162545685
 20
1613.482558849932
 30
0.0
 40
11.50000000006342
100
AcDbArc
 50
105.1216653148274
 51
254.8783346851714
1001
REVIT
1002
{
1070
     3
1000
790271
1002
}
  0
SPLINE
  5
1F4
330
1EC
100
AcDbEntity
  8
M-PIPE
100
AcDbSpline
210
0.0
220
0.0
230
1.0
 70
     8
 71
     3
 72
     9
 73
     5
 74
     0
 42
0.000000001
 43
0.0000000001
 40
-1.0
 40
-1.0
 40
-1.0
 40
-1.0
 40
-0.5
 40
0.0
 40
0.0
 40
0.0
 40
0.0
 10
1488.083162545684
 20
1602.630446546464
 30
0.0
 10
1488.57633383808
 20
1602.515337908801
 30
0.0
 10
1489.569505130477
 20
1602.342559295698
 30
0.0
 10
1490.576333838081
 20
1602.284658007039
 30
0.0
 10
1491.083162545685
 20
1602.284426693819
 30
0.0
1001
REVIT
1002
{
1070
     3
1000
790271
1002
}
  0
ARC
  5
1F5
330
1EC
100
AcDbEntity
  8
M-PIPE
100
AcDbCircle
 10
1491.083162545685
 20
1613.482558849932
 30
0.0
 40
8.5
100
AcDbArc
 50
269.9999999999981
 51
90.0
1001
REVIT
1002
{
1070
     3
1000
790271
1002
}
  0
ARC
  5
1F6
330
1EC
100
AcDbEntity
  8
M-PIPE
100
AcDbCircle
 10
1491.083162545685
 20
1613.482558849932
 30
0.0
 40
8.5
100
AcDbArc
 50
90.0
 51
269.9999999999981
1001
REVIT
1002
{
1070
     3
1000
790271
1002
}
  0
LINE
  5
1F7
330
1EC
100
AcDbEntity
  8
M-PIPE
100
AcDbLine
 10
1488.083162545683
 20
1580.982558849932
 30
0.0
 11
1488.083162545683
 21
1586.982558849932
 31
0.0
1001
REVIT
1002
{
1070
     3
1000
790271
1002
}
  0
LINE
  5
1F8
330
1EC
100
AcDbEntity
  8
M-PIPE
100
AcDbLine
 10
1488.083162545683
 20
1586.982558849932
 30
0.0
 11
1488.083162545684
 21
1602.630446546464
 31
0.0
1001
REVIT
1002
{
1070
     3
1000
790271
1002
}
  0
LINE
  5
1F9
330
1EC
100
AcDbEntity
  8
M-PIPE
100
AcDbLine
 10
1488.083162545684
 20
1639.982558850059
 30
0.0
 11
1488.083162545684
 21
1645.982558850059
 31
0.0
1001
REVIT
1002
{
1070
     3
1000
790271
1002
}
  0
LINE
  5
1FA
330
1EC
100
AcDbEntity
  8
M-PIPE
100
AcDbLine
 10
1488.083162545684
 20
1624.33467115342
 30
0.0
 11
1488.083162545684
 21
1639.982558850059
 31
0.0
1001
REVIT
1002
{
1070
     3
1000
790271
1002
}
  0
LINE
  5
1FB
330
1EC
100
AcDbEntity
  8
M-PIPE
100
AcDbLine
 10
1494.083162545685
 20
1645.982558850059
 30
0.0
 11
1494.083162545685
 21
1639.982558850059
 31
0.0
1001
REVIT
1002
{
1070
     3
1000
790271
1002
}
  0
LINE
  5
1FC
330
1EC
100
AcDbEntity
  8
M-PIPE
100
AcDbLine
 10
1494.083162545685
 20
1639.982558850059
 30
0.0
 11
1494.083162545684
 21
1624.33467115342
 31
0.0
1001
REVIT
1002
{
1070
     3
1000
790271
1002
}
  0
LINE
  5
1FD
330
1EC
100
AcDbEntity
  8
M-PIPE
100
AcDbLine
 10
1494.083162545684
 20
1586.982558849932
 30
0.0
 11
1494.083162545684
 21
1580.982558849932
 31
0.0
1001
REVIT
1002
{
1070
     3
1000
790271
1002
}
  0
LINE
  5
1FE
330
1EC
100
AcDbEntity
  8
M-PIPE
100
AcDbLine
 10
1494.083162545684
 20
1602.630446546463
 30
0.0
 11
1494.083162545684
 21
1586.982558849932
 31
0.0
1001
REVIT
1002
{
1070
     3
1000
790271
1002
}
  0
LINE
  5
1FF
330
1EC
100
AcDbEntity
  8
M-PIPE
100
AcDbLine
 10
1494.083162545684
 20
1580.982558849932
 30
0.0
 11
1488.083162545683
 21
1580.982558849932
 31
0.0
1001
REVIT
1002
{
1070
     3
1000
790271
1002
}
  0
LINE
  5
200
330
1EC
100
AcDbEntity
  8
M-PIPE
100
AcDbLine
 10
1494.083162545684
 20
1586.982558849932
 30
0.0
 11
1488.083162545683
 21
1586.982558849932
 31
0.0
1001
REVIT
1002
{
1070
     3
1000
790271
1002
}
  0
LINE
  5
201
330
1EC
100
AcDbEntity
  8
M-PIPE
100
AcDbLine
 10
1494.083162545685
 20
1639.982558850059
 30
0.0
 11
1488.083162545684
 21
1639.982558850059
 31
0.0
1001
REVIT
1002
{
1070
     3
1000
790271
1002
}
  0
LINE
  5
202
330
1EC
100
AcDbEntity
  8
M-PIPE
100
AcDbLine
 10
1494.083162545685
 20
1645.982558850059
 30
0.0
 11
1488.083162545684
 21
1645.982558850059
 31
0.0
1001
REVIT
1002
{
1070
     3
1000
790271
1002
}
  0
LINE
  5
203
330
1EC
100
AcDbEntity
  8
M-PIPE
100
AcDbLine
 10
1509.083392443799
 20
1590.194369521383
 30
0.0
 11
1508.083162545687
 21
1590.771852522309
 31
0.0
1001
REVIT
1002
{
1070
     3
1000
790271
1002
}
  0
LINE
  5
204
330
1EC
100
AcDbEntity
  8
M-PIPE
100
AcDbLine
 10
1474.083162545687
 20
1590.77185252231
 30
0.0
 11
1473.082932647543
 21
1590.194369521365
 31
0.0
1001
REVIT
1002
{
1070
     3
1000
790271
1002
}
  0
LINE
  5
205
330
1EC
100
AcDbEntity
  8
M-PIPE
100
AcDbLine
 10
1508.083162545687
 20
1590.771852522309
 30
0.0
 11
1508.083162545687
 21
1597.896822804526
 31
0.0
1001
REVIT
1002
{
1070
     3
1000
790271
1002
}
  0
LINE
  5
206
330
1EC
100
AcDbEntity
  8
M-PIPE
100
AcDbLine
 10
1474.083162545687
 20
1597.896822804526
 30
0.0
 11
1474.083162545687
 21
1590.77185252231
 31
0.0
1001
REVIT
1002
{
1070
     3
1000
790271
1002
}
  0
LINE
  5
207
330
1EC
100
AcDbEntity
  8
M-PIPE
100
AcDbLine
 10
1508.083162545687
 20
1597.896822804526
 30
0.0
 11
1513.513802554683
 21
1601.032204275592
 31
0.0
1001
REVIT
1002
{
1070
     3
1000
790271
1002
}
  0
LINE
  5
208
330
1EC
100
AcDbEntity
  8
M-PIPE
100
AcDbLine
 10
1513.523238980902
 20
1601.037652398809
 30
0.0
 11
1513.583162545688
 21
1601.072249285069
 31
0.0
1001
REVIT
1002
{
1070
     3
1000
790271
1002
}
  0
LINE
  5
209
330
1EC
100
AcDbEntity
  8
M-PIPE
100
AcDbLine
 10
1468.583162545687
 20
1601.07224928507
 30
0.0
 11
1468.643086110471
 21
1601.03765239881
 31
0.0
1001
REVIT
1002
{
1070
     3
1000
790271
1002
}
  0
LINE
  5
20A
330
1EC
100
AcDbEntity
  8
M-PIPE
100
AcDbLine
 10
1468.652522536691
 20
1601.032204275593
 30
0.0
 11
1474.083162545687
 21
1597.896822804526
 31
0.0
1001
REVIT
1002
{
1070
     3
1000
790271
1002
}
  0
LINE
  5
20B
330
1EC
100
AcDbEntity
  8
M-PIPE
100
AcDbLine
 10
1513.583162545688
 20
1601.072249285069
 30
0.0
 11
1513.583162545688
 21
1628.982558849797
 31
0.0
1001
REVIT
1002
{
1070
     3
1000
790271
1002
}
  0
LINE
  5
20C
330
1EC
100
AcDbEntity
  8
M-PIPE
100
AcDbLine
 10
1468.583162545687
 20
1628.982558849798
 30
0.0
 11
1468.583162545686
 21
1601.07224928507
 31
0.0
1001
REVIT
1002
{
1070
     3
1000
790271
1002
}
  0
LINE
  5
20D
330
1EC
100
AcDbEntity
  8
M-PIPE
100
AcDbLine
 10
1514.583162545688
 20
1628.982558849797
 30
0.0
 11
1514.583162545688
 21
1631.910762080137
 31
0.0
1001
REVIT
1002
{
1070
     3
1000
790271
1002
}
  0
LINE
  5
20E
330
1EC
100
AcDbEntity
  8
M-PIPE
100
AcDbLine
 10
1467.583162545687
 20
1631.910762080137
 30
0.0
 11
1467.583162545687
 21
1628.982558849798
 31
0.0
1001
REVIT
1002
{
1070
     3
1000
790271
1002
}
  0
LINE
  5
20F
330
1EC
100
AcDbEntity
  8
M-PIPE
100
AcDbLine
 10
1514.583162545688
 20
1631.910762080137
 30
0.0
 11
1510.583162545688
 21
1632.982558849861
 31
0.0
1001
REVIT
1002
{
1070
     3
1000
790271
1002
}
  0
LINE
  5
210
330
1EC
100
AcDbEntity
  8
M-PIPE
100
AcDbLine
 10
1471.583162545687
 20
1632.982558849861
 30
0.0
 11
1467.583162545687
 21
1631.910762080137
 31
0.0
1001
REVIT
1002
{
1070
     3
1000
790271
1002
}
  0
LINE
  5
211
330
1EC
100
AcDbEntity
  8
M-PIPE
100
AcDbLine
 10
1509.083163066582
 20
1574.982558849995
 30
0.0
 11
1491.083162545685
 21
1574.982558849995
 31
0.0
1001
REVIT
1002
{
1070
     3
1000
790271
1002
}
  0
SPLINE
  5
212
330
1EC
100
AcDbEntity
  8
M-PIPE
100
AcDbSpline
210
0.0
220
0.0
230
1.0
 70
    24
 71
     3
 72
     9
 73
     5
 74
     0
 42
0.000000001
 43
0.0000000001
 40
-1.0
 40
-1.0
 40
-1.0
 40
-1.0
 40
-0.5
 40
0.0
 40
0.0
 40
0.0
 40
0.0
 10
1509.083162545669
 20
1574.982558849995
 30
0.0
 10
1509.083162545669
 20
1575.04472534253
 30
0.0
 10
1509.083162545668
 20
1575.539904386587
 30
0.0
 10
1509.083162545668
 20
1576.776775548617
 30
0.0
 10
1509.083162545668
 20
1577.580634159126
 30
0.0
1001
REVIT
1002
{
1070
     3
1000
790271
1002
}
  0
SPLINE
  5
213
330
1EC
100
AcDbEntity
  8
M-PIPE
100
AcDbSpline
210
0.0
220
0.0
230
1.0
 70
     8
 71
     3
 72
    13
 73
     9
 74
     0
 42
0.000000001
 43
0.0000000001
 40
-1.0
 40
-1.0
 40
-1.0
 40
-1.0
 40
-0.8333333333333332
 40
-0.75
 40
-0.6666666666666666
 40
-0.3333333333333333
 40
-0.1666666666666666
 40
0.0
 40
0.0
 40
0.0
 40
0.0
 10
1506.578353074095
 20
1577.580634159126
 30
0.0
 10
1505.899752015255
 20
1577.010429096196
 30
0.0
 10
1504.861457873443
 20
1576.298479213684
 30
0.0
 10
1503.431484949008
 20
1575.636330109824
 30
0.0
 10
1501.260127339994
 20
1574.928615930633
 30
0.0
 10
1498.426085996017
 20
1574.954444539807
 30
0.0
 10
1495.609107820741
 20
1576.081782793909
 30
0.0
 10
1494.248545326255
 20
1577.019163528351
 30
0.0
 10
1493.587972017255
 20
1577.580634159126
 30
0.0
1001
REVIT
1002
{
1070
     3
1000
790271
1002
}
  0
SPLINE
  5
214
330
1EC
100
AcDbEntity
  8
M-PIPE
100
AcDbSpline
210
0.0
220
0.0
230
1.0
 70
     8
 71
     3
 72
     8
 73
     4
 74
     0
 42
0.000000001
 43
0.0000000001
 40
-0.5056742803493881
 40
-0.5056742803493881
 40
-0.5056742803493881
 40
-0.5056742803493881
 40
-0.5
 40
-0.5
 40
-0.5
 40
-0.5
 10
1500.041242793602
 20
1575.033957000751
 30
0.0
 10
1500.067626297463
 20
1575.03389006936
 30
0.0
 10
1500.094002018058
 20
1575.033975040898
 30
0.0
 10
1500.12036944274
 20
1575.034207615408
 30
0.0
1001
REVIT
1002
{
1070
     3
1000
790271
1002
}
  0
SPLINE
  5
215
330
1EC
100
AcDbEntity
  8
M-PIPE
100
AcDbSpline
210
0.0
220
0.0
230
1.0
 70
    24
 71
     3
 72
     8
 73
     4
 74
     0
 42
0.000000001
 43
0.0000000001
 40
-0.1406195710602671
 40
-0.1406195710602671
 40
-0.1406195710602671
 40
-0.1406195710602671
 40
0.0
 40
0.0
 40
0.0
 40
0.0
 10
1509.083162545669
 20
1575.079729658512
 30
0.0
 10
1509.083162545669
 20
1575.032712622818
 30
0.0
 10
1509.083162545669
 20
1575.000322353313
 30
0.0
 10
1509.083162545669
 20
1574.982558849995
 30
0.0
1001
REVIT
1002
{
1070
     3
1000
790271
1002
}
  0
LINE
  5
216
330
1EC
100
AcDbEntity
  8
M-PIPE
100
AcDbLine
 10
1499.458690387401
 20
1574.982558849995
 30
0.0
 11
1500.712739219182
 21
1574.982558849995
 31
0.0
1001
REVIT
1002
{
1070
     3
1000
790271
1002
}
  0
LINE
  5
217
330
1EC
100
AcDbEntity
  8
M-PIPE
100
AcDbLine
 10
1509.042469515297
 20
1574.982558849995
 30
0.0
 11
1509.083162545669
 21
1574.982558849995
 31
0.0
1001
REVIT
1002
{
1070
     3
1000
790271
1002
}
  0
SPLINE
  5
218
330
1EC
100
AcDbEntity
  8
M-PIPE
100
AcDbSpline
210
0.0
220
0.0
230
1.0
 70
     8
 71
     3
 72
    13
 73
     9
 74
     0
 42
0.000000001
 43
0.0000000001
 40
-1.0
 40
-1.0
 40
-1.0
 40
-1.0
 40
-0.8333333333333332
 40
-0.75
 40
-0.6666666666666666
 40
-0.3333333333333333
 40
-0.1666666666666666
 40
0.0
 40
0.0
 40
0.0
 40
0.0
 10
1488.578353074072
 20
1577.580634159126
 30
0.0
 10
1487.899752015235
 20
1577.010429096202
 30
0.0
 10
1486.861457873427
 20
1576.298479213698
 30
0.0
 10
1485.431484948999
 20
1575.636330109844
 30
0.0
 10
1483.260127339996
 20
1574.92861593066
 30
0.0
 10
1480.426085996037
 20
1574.954444539837
 30
0.0
 10
1477.609107820775
 20
1576.081782793925
 30
0.0
 10
1476.248545326295
 20
1577.019163528357
 30
0.0
 10
1475.587972017297
 20
1577.580634159126
 30
0.0
1001
REVIT
1002
{
1070
     3
1000
790271
1002
}
  0
SPLINE
  5
219
330
1EC
100
AcDbEntity
  8
M-PIPE
100
AcDbSpline
210
0.0
220
0.0
230
1.0
 70
    24
 71
     3
 72
     9
 73
     5
 74
     0
 42
0.000000001
 43
0.0000000001
 40
-1.0
 40
-1.0
 40
-1.0
 40
-1.0
 40
-0.5
 40
0.0
 40
0.0
 40
0.0
 40
0.0
 10
1473.083162545668
 20
1577.580634159126
 30
0.0
 10
1473.083162545668
 20
1576.77777060228
 30
0.0
 10
1473.083162545668
 20
1575.541894493912
 30
0.0
 10
1473.083162545668
 20
1575.045720396192
 30
0.0
 10
1473.083162545669
 20
1574.982558849995
 30
0.0
1001
REVIT
1002
{
1070
     3
1000
790271
1002
}
  0
LINE
  5
21A
330
1EC
100
AcDbEntity
  8
M-PIPE
100
AcDbLine
 10
1491.083162545685
 20
1574.982558849995
 30
0.0
 11
1473.083162545669
 21
1574.982558849995
 31
0.0
1001
REVIT
1002
{
1070
     3
1000
790271
1002
}
  0
LINE
  5
21B
330
1EC
100
AcDbEntity
  8
M-PIPE
100
AcDbLine
 10
1473.083162024786
 20
1574.982558849995
 30
0.0
 11
1473.125506471481
 21
1574.982558849995
 31
0.0
1001
REVIT
1002
{
1070
     3
1000
790271
1002
}
  0
LINE
  5
21C
330
1EC
100
AcDbEntity
  8
M-PIPE
100
AcDbLine
 10
1481.622293669725
 20
1574.982558849995
 30
0.0
 11
1482.87704880053
 21
1574.982558849995
 31
0.0
1001
REVIT
1002
{
1070
     3
1000
790271
1002
}
  0
SPLINE
  5
21D
330
1EC
100
AcDbEntity
  8
M-PIPE
100
AcDbSpline
210
0.0
220
0.0
230
1.0
 70
    24
 71
     3
 72
     8
 73
     4
 74
     0
 42
0.000000001
 43
0.0000000001
 40
-1.0
 40
-1.0
 40
-1.0
 40
-1.0
 40
-0.8812923035739963
 40
-0.8812923035739963
 40
-0.8812923035739963
 40
-0.8812923035739963
 10
1473.083162545669
 20
1574.982558849995
 30
0.0
 10
1473.083162545669
 20
1574.99731813584
 30
0.0
 10
1473.083162545669
 20
1575.022528988489
 30
0.0
 10
1473.083162545669
 20
1575.058191407941
 30
0.0
1001
REVIT
1002
{
1070
     3
1000
790271
1002
}
  0
SPLINE
  5
21E
330
1EC
100
AcDbEntity
  8
M-PIPE
100
AcDbSpline
210
0.0
220
0.0
230
1.0
 70
     8
 71
     3
 72
     8
 73
     4
 74
     0
 42
0.000000001
 43
0.0000000001
 40
-0.505674280348026
 40
-0.505674280348026
 40
-0.505674280348026
 40
-0.505674280348026
 40
-0.5
 40
-0.5
 40
-0.5
 40
-0.5
 10
1482.041242793612
 20
1575.033957000778
 30
0.0
 10
1482.067626297467
 20
1575.033890069386
 30
0.0
 10
1482.094002018055
 20
1575.033975040924
 30
0.0
 10
1482.12036944273
 20
1575.034207615435
 30
0.0
1001
REVIT
1002
{
1070
     3
1000
790271
1002
}
  0
LINE
  5
21F
330
1EC
100
AcDbEntity
  8
M-PIPE
100
AcDbLine
 10
1509.083162545668
 20
1577.580634159126
 30
0.0
 11
1506.578353074095
 21
1577.580634159126
 31
0.0
1001
REVIT
1002
{
1070
     3
1000
790271
1002
}
  0
LINE
  5
220
330
1EC
100
AcDbEntity
  8
M-PIPE
100
AcDbLine
 10
1509.083162545668
 20
1577.580634159126
 30
0.0
 11
1509.083162545669
 21
1589.328476849335
 31
0.0
1001
REVIT
1002
{
1070
     3
1000
790271
1002
}
  0
LINE
  5
221
330
1EC
100
AcDbEntity
  8
M-PIPE
100
AcDbLine
 10
1506.578353074095
 20
1589.328476849336
 30
0.0
 11
1506.578353074095
 21
1577.580634159126
 31
0.0
1001
REVIT
1002
{
1070
     3
1000
790271
1002
}
  0
LINE
  5
222
330
1EC
100
AcDbEntity
  8
M-PIPE
100
AcDbLine
 10
1493.587972017255
 20
1577.580634159126
 30
0.0
 11
1491.083162545685
 21
1577.580634159126
 31
0.0
1001
REVIT
1002
{
1070
     3
1000
790271
1002
}
  0
LINE
  5
223
330
1EC
100
AcDbEntity
  8
M-PIPE
100
AcDbLine
 10
1493.587972017255
 20
1577.580634159126
 30
0.0
 11
1493.587972017255
 21
1580.982558849932
 31
0.0
1001
REVIT
1002
{
1070
     3
1000
790271
1002
}
  0
LINE
  5
224
330
1EC
100
AcDbEntity
  8
M-PIPE
100
AcDbLine
 10
1488.578353074072
 20
1580.982558849932
 30
0.0
 11
1488.578353074072
 21
1577.580634159126
 31
0.0
1001
REVIT
1002
{
1070
     3
1000
790271
1002
}
  0
LINE
  5
225
330
1EC
100
AcDbEntity
  8
M-PIPE
100
AcDbLine
 10
1491.083162545685
 20
1577.580634159126
 30
0.0
 11
1488.578353074072
 21
1577.580634159126
 31
0.0
1001
REVIT
1002
{
1070
     3
1000
790271
1002
}
  0
LINE
  5
226
330
1EC
100
AcDbEntity
  8
M-PIPE
100
AcDbLine
 10
1475.587972017298
 20
1577.580634159126
 30
0.0
 11
1473.083162545668
 21
1577.580634159126
 31
0.0
1001
REVIT
1002
{
1070
     3
1000
790271
1002
}
  0
LINE
  5
227
330
1EC
100
AcDbEntity
  8
M-PIPE
100
AcDbLine
 10
1475.587972017297
 20
1577.580634159126
 30
0.0
 11
1475.587972017297
 21
1589.328476849336
 31
0.0
1001
REVIT
1002
{
1070
     3
1000
790271
1002
}
  0
LINE
  5
228
330
1EC
100
AcDbEntity
  8
M-PIPE
100
AcDbLine
 10
1473.083162545668
 20
1589.328476849336
 30
0.0
 11
1473.083162545668
 21
1577.580634159126
 31
0.0
1001
REVIT
1002
{
1070
     3
1000
790271
1002
}
  0
SPLINE
  5
229
330
1EC
100
AcDbEntity
  8
M-PIPE
100
AcDbSpline
210
0.0
220
0.0
230
1.0
 70
     8
 71
     3
 72
     9
 73
     5
 74
     0
 42
0.000000001
 43
0.0000000001
 40
-0.9634467282710993
 40
-0.9634467282710993
 40
-0.9634467282710993
 40
-0.9634467282710993
 40
-0.5
 40
0.0
 40
0.0
 40
0.0
 40
0.0
 10
1494.055097244224
 20
1589.450463529713
 30
0.0
 10
1496.030509336885
 20
1589.946446578603
 30
0.0
 10
1500.169747777834
 20
1590.461989376276
 30
0.0
 10
1504.376774656245
 20
1589.90578435181
 30
0.0
 10
1506.578353074096
 20
1589.328476849336
 30
0.0
1001
REVIT
1002
{
1070
     3
1000
790271
1002
}
  0
LINE
  5
22A
330
1EC
100
AcDbEntity
  8
M-PIPE
100
AcDbLine
 10
1509.083162545668
 20
1589.328476849335
 30
0.0
 11
1506.578353074096
 21
1589.328476849335
 31
0.0
1001
REVIT
1002
{
1070
     3
1000
790271
1002
}
  0
SPLINE
  5
22B
330
1EC
100
AcDbEntity
  8
M-PIPE
100
AcDbSpline
210
0.0
220
0.0
230
1.0
 70
    24
 71
     3
 72
     9
 73
     5
 74
     0
 42
0.000000001
 43
0.0000000001
 40
-1.0
 40
-1.0
 40
-1.0
 40
-1.0
 40
-0.5
 40
-0.4955503609475271
 40
-0.4955503609475271
 40
-0.4955503609475271
 40
-0.4955503609475271
 10
1509.083162545668
 20
1589.328476849335
 30
0.0
 10
1509.083162545668
 20
1589.90578435181
 30
0.0
 10
1509.083162545668
 20
1590.197006913055
 30
0.0
 10
1509.083162545669
 20
1590.194415242492
 30
0.0
 10
1509.083162545669
 20
1590.194369521383
 30
0.0
1001
REVIT
1002
{
1070
     3
1000
790271
1002
}
  0
SPLINE
  5
22C
330
1EC
100
AcDbEntity
  8
M-PIPE
100
AcDbSpline
210
0.0
220
0.0
230
1.0
 70
    24
 71
     3
 72
     8
 73
     4
 74
     0
 42
0.000000001
 43
0.0000000001
 40
-0.5
 40
-0.5
 40
-0.5
 40
-0.5
 40
0.0
 40
0.0
 40
0.0
 40
0.0
 10
1473.083162545669
 20
1590.194438103029
 30
0.0
 10
1473.083162545668
 20
1590.194438103029
 30
0.0
 10
1473.083162545668
 20
1589.905784351798
 30
0.0
 10
1473.083162545668
 20
1589.328476849336
 30
0.0
1001
REVIT
1002
{
1070
     3
1000
790271
1002
}
  0
LINE
  5
22D
330
1EC
100
AcDbEntity
  8
M-PIPE
100
AcDbLine
 10
1475.587972017298
 20
1589.328476849336
 30
0.0
 11
1473.083162545668
 21
1589.328476849336
 31
0.0
1001
REVIT
1002
{
1070
     3
1000
790271
1002
}
  0
SPLINE
  5
22E
330
1EC
100
AcDbEntity
  8
M-PIPE
100
AcDbSpline
210
0.0
220
0.0
230
1.0
 70
     8
 71
     3
 72
     9
 73
     5
 74
     0
 42
0.000000001
 43
0.0000000001
 40
-1.0
 40
-1.0
 40
-1.0
 40
-1.0
 40
-0.5
 40
-0.0356126893515616
 40
-0.0356126893515616
 40
-0.0356126893515616
 40
-0.0356126893515616
 10
1475.587972017298
 20
1589.328476849336
 30
0.0
 10
1477.716520618384
 20
1589.905784351805
 30
0.0
 10
1481.857225654643
 20
1590.462532381527
 30
0.0
 10
1486.065851552362
 20
1589.945438941064
 30
0.0
 10
1488.10820616759
 20
1589.447440617113
 30
0.0
1001
REVIT
1002
{
1070
     3
1000
790271
1002
}
  0
LINE
  5
22F
330
1EC
100
AcDbEntity
  8
M-PIPE
100
AcDbLine
 10
1508.083162545685
 20
1590.771852522309
 30
0.0
 11
1494.085152193266
 21
1590.771852522309
 31
0.0
1001
REVIT
1002
{
1070
     3
1000
790271
1002
}
  0
LINE
  5
230
330
1EC
100
AcDbEntity
  8
M-PIPE
100
AcDbLine
 10
1488.081172898101
 20
1590.771852522309
 30
0.0
 11
1474.083162545685
 21
1590.771852522309
 31
0.0
1001
REVIT
1002
{
1070
     3
1000
790271
1002
}
  0
LINE
  5
231
330
1EC
100
AcDbEntity
  8
M-PIPE
100
AcDbLine
 10
1508.083162545685
 20
1597.896822804526
 30
0.0
 11
1494.085152193267
 21
1597.896822804526
 31
0.0
1001
REVIT
1002
{
1070
     3
1000
790271
1002
}
  0
LINE
  5
232
330
1EC
100
AcDbEntity
  8
M-PIPE
100
AcDbLine
 10
1488.081172898101
 20
1597.896822804526
 30
0.0
 11
1474.083162545685
 21
1597.896822804526
 31
0.0
1001
REVIT
1002
{
1070
     3
1000
790271
1002
}
  0
LINE
  5
233
330
1EC
100
AcDbEntity
  8
M-PIPE
100
AcDbLine
 10
1513.583162545685
 20
1601.072249285069
 30
0.0
 11
1500.360590076331
 21
1601.072249285069
 31
0.0
1001
REVIT
1002
{
1070
     3
1000
790271
1002
}
  0
LINE
  5
234
330
1EC
100
AcDbEntity
  8
M-PIPE
100
AcDbLine
 10
1481.805735015038
 20
1601.072249285069
 30
0.0
 11
1468.583162545684
 21
1601.07224928507
 31
0.0
1001
REVIT
1002
{
1070
     3
1000
790271
1002
}
  0
LINE
  5
235
330
1EC
100
AcDbEntity
  8
M-PIPE
100
AcDbLine
 10
1514.583162545686
 20
1628.982558849797
 30
0.0
 11
1494.085203371142
 21
1628.982558849797
 31
0.0
1001
REVIT
1002
{
1070
     3
1000
790271
1002
}
  0
LINE
  5
236
330
1EC
100
AcDbEntity
  8
M-PIPE
100
AcDbLine
 10
1488.081121720226
 20
1628.982558849797
 30
0.0
 11
1467.583162545684
 21
1628.982558849798
 31
0.0
1001
REVIT
1002
{
1070
     3
1000
790271
1002
}
  0
LINE
  5
237
330
1EC
100
AcDbEntity
  8
M-PIPE
100
AcDbLine
 10
1514.583162545686
 20
1631.910762080136
 30
0.0
 11
1494.085203371142
 21
1631.910762080136
 31
0.0
1001
REVIT
1002
{
1070
     3
1000
790271
1002
}
  0
LINE
  5
238
330
1EC
100
AcDbEntity
  8
M-PIPE
100
AcDbLine
 10
1510.583162545686
 20
1632.98255884986
 30
0.0
 11
1509.083162545659
 21
1632.98255884986
 31
0.0
1001
REVIT
1002
{
1070
     3
1000
790271
1002
}
  0
LINE
  5
239
330
1EC
100
AcDbEntity
  8
M-PIPE
100
AcDbLine
 10
1506.578353074084
 20
1632.98255884986
 30
0.0
 11
1494.086270885314
 21
1632.98255884986
 31
0.0
1001
REVIT
1002
{
1070
     3
1000
790271
1002
}
  0
LINE
  5
23A
330
1EC
100
AcDbEntity
  8
M-PIPE
100
AcDbLine
 10
1488.081121720226
 20
1631.910762080136
 30
0.0
 11
1467.583162545684
 21
1631.910762080137
 31
0.0
1001
REVIT
1002
{
1070
     3
1000
790271
1002
}
  0
LINE
  5
23B
330
1EC
100
AcDbEntity
  8
M-PIPE
100
AcDbLine
 10
1488.080054206056
 20
1632.98255884986
 30
0.0
 11
1475.587972017282
 21
1632.982558849861
 31
0.0
1001
REVIT
1002
{
1070
     3
1000
790271
1002
}
  0
LINE
  5
23C
330
1EC
100
AcDbEntity
  8
M-PIPE
100
AcDbLine
 10
1473.083162545659
 20
1632.982558849861
 30
0.0
 11
1471.583162545685
 21
1632.982558849861
 31
0.0
1001
REVIT
1002
{
1070
     3
1000
790271
1002
}
  0
LINE
  5
23D
330
1EC
100
AcDbEntity
  8
M-PIPE
100
AcDbLine
 10
1509.083162545659
 20
1632.98255884986
 30
0.0
 11
1506.578353074084
 21
1632.98255884986
 31
0.0
1001
REVIT
1002
{
1070
     3
1000
790271
1002
}
  0
LINE
  5
23E
330
1EC
100
AcDbEntity
  8
M-PIPE
100
AcDbLine
 10
1509.08316254566
 20
1632.98255884986
 30
0.0
 11
1509.08316254566
 21
1647.116533446206
 31
0.0
1001
REVIT
1002
{
1070
     3
1000
790271
1002
}
  0
LINE
  5
23F
330
1EC
100
AcDbEntity
  8
M-PIPE
100
AcDbLine
 10
1506.578353074083
 20
1647.116533446206
 30
0.0
 11
1506.578353074082
 21
1632.98255884986
 31
0.0
1001
REVIT
1002
{
1070
     3
1000
790271
1002
}
  0
LINE
  5
240
330
1EC
100
AcDbEntity
  8
M-PIPE
100
AcDbLine
 10
1493.587972017229
 20
1645.982558850059
 30
0.0
 11
1493.587972017229
 21
1647.116533446207
 31
0.0
1001
REVIT
1002
{
1070
     3
1000
790271
1002
}
  0
LINE
  5
241
330
1EC
100
AcDbEntity
  8
M-PIPE
100
AcDbLine
 10
1488.57835307405
 20
1647.116533446207
 30
0.0
 11
1488.57835307405
 21
1645.982558850059
 31
0.0
1001
REVIT
1002
{
1070
     3
1000
790271
1002
}
  0
LINE
  5
242
330
1EC
100
AcDbEntity
  8
M-PIPE
100
AcDbLine
 10
1475.587972017282
 20
1632.982558849861
 30
0.0
 11
1473.083162545659
 21
1632.982558849861
 31
0.0
1001
REVIT
1002
{
1070
     3
1000
790271
1002
}
  0
LINE
  5
243
330
1EC
100
AcDbEntity
  8
M-PIPE
100
AcDbLine
 10
1475.587972017281
 20
1632.982558849861
 30
0.0
 11
1475.587972017281
 21
1647.116533446207
 31
0.0
1001
REVIT
1002
{
1070
     3
1000
790271
1002
}
  0
LINE
  5
244
330
1EC
100
AcDbEntity
  8
M-PIPE
100
AcDbLine
 10
1473.08316254566
 20
1647.116533446207
 30
0.0
 11
1473.083162545659
 21
1632.982558849861
 31
0.0
1001
REVIT
1002
{
1070
     3
1000
790271
1002
}
  0
LINE
  5
245
330
1EC
100
AcDbEntity
  8
M-PIPE
100
AcDbLine
 10
1493.587972017227
 20
1647.116533446207
 30
0.0
 11
1491.083162545685
 21
1647.116533446207
 31
0.0
1001
REVIT
1002
{
1070
     3
1000
790271
1002
}
  0
SPLINE
  5
246
330
1EC
100
AcDbEntity
  8
M-PIPE
100
AcDbSpline
210
0.0
220
0.0
230
1.0
 70
     8
 71
     3
 72
     9
 73
     5
 74
     0
 42
0.000000001
 43
0.0000000001
 40
-1.0
 40
-1.0
 40
-1.0
 40
-1.0
 40
-0.5
 40
0.0
 40
0.0
 40
0.0
 40
0.0
 10
1493.587972017227
 20
1647.116533446207
 30
0.0
 10
1495.716520618327
 20
1647.693840948682
 30
0.0
 10
1500.010132728902
 20
1648.271148451158
 30
0.0
 10
1504.376774656231
 20
1647.693840948682
 30
0.0
 10
1506.578353074084
 20
1647.116533446206
 30
0.0
1001
REVIT
1002
{
1070
     3
1000
790271
1002
}
  0
LINE
  5
247
330
1EC
100
AcDbEntity
  8
M-PIPE
100
AcDbLine
 10
1509.083162545659
 20
1647.116533446206
 30
0.0
 11
1506.578353074084
 21
1647.116533446206
 31
0.0
1001
REVIT
1002
{
1070
     3
1000
790271
1002
}
  0
SPLINE
  5
248
330
1EC
100
AcDbEntity
  8
M-PIPE
100
AcDbSpline
210
0.0
220
0.0
230
1.0
 70
    24
 71
     3
 72
     9
 73
     5
 74
     0
 42
0.000000001
 43
0.0000000001
 40
-1.0
 40
-1.0
 40
-1.0
 40
-1.0
 40
-0.5
 40
0.0
 40
0.0
 40
0.0
 40
0.0
 10
1509.083162545659
 20
1647.116533446206
 30
0.0
 10
1509.08316254566
 20
1647.398959293562
 30
0.0
 10
1509.083162545663
 20
1647.825722708213
 30
0.0
 10
1509.083162545667
 20
1647.976309562742
 30
0.0
 10
1509.083162545669
 20
1647.982558849976
 30
0.0
1001
REVIT
1002
{
1070
     3
1000
790271
1002
}
  0
SPLINE
  5
249
330
1EC
100
AcDbEntity
  8
M-PIPE
100
AcDbSpline
210
0.0
220
0.0
230
1.0
 70
    24
 71
     3
 72
     8
 73
     4
 74
     0
 42
0.000000001
 43
0.0000000001
 40
-1.0
 40
-1.0
 40
-1.0
 40
-1.0
 40
-0.8010821838729263
 40
-0.8010821838729263
 40
-0.8010821838729263
 40
-0.8010821838729263
 10
1509.083162545669
 20
1647.982558849976
 30
0.0
 10
1509.083162545669
 20
1647.980072660834
 30
0.0
 10
1509.08316254567
 20
1647.966658635379
 30
0.0
 10
1509.083162545671
 20
1647.942316773611
 30
0.0
1001
REVIT
1002
{
1070
     3
1000
790271
1002
}
  0
SPLINE
  5
24A
330
1EC
100
AcDbEntity
  8
M-PIPE
100
AcDbSpline
210
0.0
220
0.0
230
1.0
 70
    24
 71
     3
 72
     9
 73
     5
 74
     0
 42
0.000000001
 43
0.0000000001
 40
-1.0
 40
-1.0
 40
-1.0
 40
-1.0
 40
-0.5
 40
0.0
 40
0.0
 40
0.0
 40
0.0
 10
1473.083162545669
 20
1647.982558849976
 30
0.0
 10
1473.083162545667
 20
1647.976309562726
 30
0.0
 10
1473.083162545664
 20
1647.82572270818
 30
0.0
 10
1473.08316254566
 20
1647.398959293546
 30
0.0
 10
1473.083162545659
 20
1647.116533446207
 30
0.0
1001
REVIT
1002
{
1070
     3
1000
790271
1002
}
  0
LINE
  5
24B
330
1EC
100
AcDbEntity
  8
M-PIPE
100
AcDbLine
 10
1475.587972017282
 20
1647.116533446207
 30
0.0
 11
1473.083162545659
 21
1647.116533446207
 31
0.0
1001
REVIT
1002
{
1070
     3
1000
790271
1002
}
  0
SPLINE
  5
24C
330
1EC
100
AcDbEntity
  8
M-PIPE
100
AcDbSpline
210
0.0
220
0.0
230
1.0
 70
     8
 71
     3
 72
     8
 73
     4
 74
     0
 42
0.000000001
 43
0.0000000001
 40
-1.0
 40
-1.0
 40
-1.0
 40
-1.0
 40
-0.5833333333331743
 40
-0.5833333333331743
 40
-0.5833333333331743
 40
-0.5833333333331743
 10
1475.587972017282
 20
1647.116533446207
 30
0.0
 10
1477.361762518187
 20
1647.597623031598
 30
0.0
 10
1479.148231806722
 20
1647.878258623076
 30
0.0
 10
1480.947379882888
 20
1647.958440220642
 30
0.0
1001
REVIT
1002
{
1070
     3
1000
790271
1002
}
  0
SPLINE
  5
24D
330
1EC
100
AcDbEntity
  8
M-PIPE
100
AcDbSpline
210
0.0
220
0.0
230
1.0
 70
     8
 71
     3
 72
     9
 73
     5
 74
     0
 42
0.000000001
 43
0.0000000001
 40
-0.5765535706502581
 40
-0.5765535706502581
 40
-0.5765535706502581
 40
-0.5765535706502581
 40
-0.5
 40
0.0
 40
0.0
 40
0.0
 40
0.0
 10
1481.035214091687
 20
1647.962195012236
 30
0.0
 10
1481.365844801295
 20
1647.975728137353
 30
0.0
 10
1483.859171661276
 20
1648.026689650588
 30
0.0
 10
1486.376774656211
 20
1647.693840948674
 30
0.0
 10
1488.578353074049
 20
1647.116533446207
 30
0.0
1001
REVIT
1002
{
1070
     3
1000
790271
1002
}
  0
LINE
  5
24E
330
1EC
100
AcDbEntity
  8
M-PIPE
100
AcDbLine
 10
1491.083162545685
 20
1647.116533446207
 30
0.0
 11
1488.578353074049
 21
1647.116533446207
 31
0.0
1001
REVIT
1002
{
1070
     3
1000
790271
1002
}
  0
LINE
  5
24F
330
1EC
100
AcDbEntity
  8
M-PIPE
100
AcDbLine
 10
1509.083162545713
 20
1647.982558849976
 30
0.0
 11
1491.083162545685
 21
1647.982558849976
 31
0.0
1001
REVIT
1002
{
1070
     3
1000
790271
1002
}
  0
LINE
  5
250
330
1EC
100
AcDbEntity
  8
M-PIPE
100
AcDbLine
 10
1491.083162545685
 20
1647.982558849976
 30
0.0
 11
1480.996350570998
 21
1647.982558849976
 31
0.0
1001
REVIT
1002
{
1070
     3
1000
790271
1002
}
  0
LINE
  5
251
330
1EC
100
AcDbEntity
  8
M-PIPE
100
AcDbLine
 10
1480.718615100157
 20
1647.982558849976
 30
0.0
 11
1473.083162545658
 21
1647.982558849976
 31
0.0
1001
REVIT
1002
{
1070
     3
1000
790271
1002
}
  0
LWPOLYLINE
  5
252
330
1EC
100
AcDbEntity
  8
P-SANR-FIXT
100
AcDbPolyline
 90
       18
 70
   128
 43
0.0
 10
1379.6135139834
 20
2122.059793902519
 10
1383.873151680379
 20
2125.233810304544
 10
1388.256308924153
 20
2128.234947756613
 10
1392.755973598154
 20
2131.058405079011
 10
1397.364947198782
 20
2133.699665342327
 10
1402.075856351471
 20
2136.154503093579
 10
1406.881164606516
 20
2138.418991116035
 10
1411.773184495788
 20
2140.489506711925
 10
1416.744089831039
 20
2142.362737497982
 10
1421.785928224135
 20
2144.035686704549
 10
1426.890633809184
 20
2145.505677969773
 10
1432.050040146193
 20
2146.770359621211
 10
1437.255893285639
 20
2147.827708438004
 10
1442.499864973022
 20
2148.676032887602
 10
1447.773565972295
 20
2149.313975831851
 10
1453.068559486857
 20
2149.740516698128
 10
1458.376374656622
 20
2149.954973112038
 10
1461.0831625457
 20
2149.982558850012
  0
LWPOLYLINE
  5
253
330
1EC
100
AcDbEntity
  8
P-SANR-FIXT
100
AcDbPolyline
 90
       41
 70
   128
 43
0.0
 10
1490.836299557665
 20
2149.982558850012
 10
1489.636857613537
 20
2149.982558850012
 10
1488.439729448772
 20
2149.982558850012
 10
1487.246830213059
 20
2149.982558850012
 10
1486.060068290705
 20
2149.982558850012
 10
1484.881342247622
 20
2149.982558850012
 10
1483.712537794033
 20
2149.982558850012
 10
1482.555524767729
 20
2149.982558850012
 10
1481.412154142737
 20
2149.982558850012
 10
1480.284255068152
 20
2149.982558850012
 10
1479.173631941888
 20
2149.982558850012
 10
1478.082061524025
 20
2149.982558850012
 10
1477.011290094376
 20
2149.982558850012
 10
1475.96303065881
 20
2149.982558850012
 10
1474.938960208807
 20
2149.982558850012
 10
1473.94071703863
 20
2149.982558850012
 10
1472.969898124405
 20
2149.982558850012
 10
1472.028056569296
 20
2149.982558850012
 10
1471.116699118878
 20
2149.982558850012
 10
1470.237283750657
 20
2149.982558850012
 10
1469.391217341625
 20
2149.982558850012
 10
1468.579853417551
 20
2149.982558850012
 10
1467.804489987632
 20
2149.982558850012
 10
1467.066367467954
 20
2149.982558850012
 10
1466.366666697091
 20
2149.982558850012
 10
1465.706507047014
 20
2149.982558850012
 10
1465.086944632338
 20
2149.982558850012
 10
1464.508970620759
 20
2149.982558850012
 10
1463.973509647401
 20
2149.982558850012
 10
1463.481418335596
 20
2149.982558850012
 10
1463.033483926469
 20
2149.982558850012
 10
1462.630423019521
 20
2149.982558850012
 10
1462.27288042622
 20
2149.982558850012
 10
1461.961428138446
 20
2149.982558850012
 10
1461.696564413417
 20
2149.982558850012
 10
1461.478712976593
 20
2149.982558850012
 10
1461.308222343801
 20
2149.982558850012
 10
1461.185365263683
 20
2149.982558850012
 10
1461.11033828136
 20
2149.982558850012
 10
1461.083261423999
 20
2149.982558850012
 10
1461.0831625457
 20
2149.982558850012
  0
LWPOLYLINE
  5
254
330
1EC
100
AcDbEntity
  8
P-SANR-FIXT
100
AcDbPolyline
 90
       29
 70
   128
 43
0.0
 10
1461.0831625457
 20
2149.982558850012
 10
1461.107159345871
 20
2149.982558850012
 10
1461.179111356622
 20
2149.982558850012
 10
1461.298903470084
 20
2149.982558850012
 10
1461.466344044431
 20
2149.982558850012
 10
1461.681165210463
 20
2149.982558850012
 10
1461.94302330014
 20
2149.982558850012
 10
1462.251499396377
 20
2149.982558850012
 10
1462.606100003227
 20
2149.982558850012
 10
1463.006257835362
 20
2149.982558850012
 10
1463.451332725614
 20
2149.982558850012
 10
1463.940612649101
 20
2149.982558850012
 10
1464.473314862322
 20
2149.982558850012
 10
1465.048587155371
 20
2149.982558850012
 10
1465.665509215298
 20
2149.982558850012
 10
1466.32309409841
 20
2149.982558850012
 10
1467.020289809172
 20
2149.982558850012
 10
1467.755980983173
 20
2149.982558850012
 10
1468.528990671473
 20
2149.982558850012
 10
1469.338082223473
 20
2149.982558850012
 10
1470.181961265285
 20
2149.982558850012
 10
1471.059277770461
 20
2149.982558850012
 10
1471.968628219743
 20
2149.982558850012
 10
1472.908557846397
 20
2149.982558850012
 10
1473.877562963527
 20
2149.982558850012
 10
1474.874093369656
 20
2149.982558850012
 10
1475.896554828717
 20
2149.982558850012
 10
1476.943311620489
 20
2149.982558850012
 10
1477.633162545701
 20
2149.982558850012
  0
LWPOLYLINE
  5
255
330
1EC
100
AcDbEntity
  8
P-SANR-FIXT
100
AcDbPolyline
 90
       24
 70
   128
 43
0.0
 10
1366.083162545701
 20
2094.418263723976
 10
1366.111158812566
 20
2095.817890420509
 10
1366.195102825108
 20
2097.215278012897
 10
1366.334860290815
 20
2098.608190979089
 10
1366.530207627553
 20
2099.994400955475
 10
1366.780832321257
 20
2101.371690301804
 10
1367.08633342588
 20
2102.737855648926
 10
1367.446222204823
 20
2104.090711423721
 10
1367.859922912815
 20
2105.42809334554
 10
1368.326773716973
 20
2106.747861888604
 10
1368.846027755599
 20
2108.047905704779
 10
1369.416854333001
 20
2109.326145001286
 10
1370.038340248425
 20
2110.580534867928
 10
1370.709491256982
 20
2111.809068548507
 10
1371.429233660231
 20
2113.009780651207
 10
1372.196416023861
 20
2114.180750292803
 10
1373.00981101975
 20
2115.32010417166
 10
1373.868117389418
 20
2116.426019564622
 10
1374.769962025769
 20
2117.496727242977
 10
1375.713902169769
 20
2118.530514302845
 10
1376.69842771855
 20
2119.52572690546
 10
1377.721963641254
 20
2120.480772922956
 10
1378.78287249875
 20
2121.39412448544
 10
1379.6135139834
 20
2122.059793902519
  0
LINE
  5
256
330
1EC
100
AcDbEntity
  8
P-SANR-FIXT
100
AcDbLine
 10
1366.083162545701
 20
2094.418263723976
 30
0.0
 11
1366.083162545701
 21
1999.982558850011
 31
0.0
  0
LINE
  5
257
330
1EC
100
AcDbEntity
  8
P-SANR-FIXT
100
AcDbLine
 10
1366.083162545701
 20
1999.982558850011
 30
0.0
 11
1366.083162545701
 21
1744.096126615527
 31
0.0
  0
LWPOLYLINE
  5
258
330
1EC
100
AcDbEntity
  8
P-SANR-FIXT
100
AcDbPolyline
 90
       29
 70
   128
 43
0.0
 10
1385.745690665588
 20
1712.635644160123
 10
1384.4998752606
 20
1713.274144479073
 10
1383.28058957769
 20
1713.961953394437
 10
1382.089784213848
 20
1714.697970558673
 10
1380.929364203633
 20
1715.481018501328
 10
1379.801185971517
 20
1716.309844512735
 10
1378.707054362007
 20
1717.183122648082
 10
1377.648719752276
 20
1718.099455848643
 10
1376.627875251934
 20
1719.05737817677
 10
1375.646153994411
 20
1720.055357161083
 10
1374.705126524299
 20
1721.091796248101
 10
1373.806298284806
 20
1722.165037356377
 10
1372.951107209377
 20
1723.273363529086
 10
1372.1409214213
 20
1724.415001680779
 10
1371.377037045008
 20
1725.588125433953
 10
1370.660676132547
 20
1726.790858040854
 10
1369.992984708564
 20
1728.021275385881
 10
1369.375030936902
 20
1729.277409063756
 10
1368.807803411774
 20
1730.557249528557
 10
1368.292209576217
 20
1731.858749308557
 10
1367.82907427038
 20
1733.179826281747
 10
1367.419138411958
 20
1734.518367006784
 10
1367.063057810874
 20
1735.872230104049
 10
1366.761402120131
 20
1737.239249681395
 10
1366.514653924483
 20
1738.617238799112
 10
1366.323207968408
 20
1740.00399296857
 10
1366.187370524594
 20
1741.39729367892
 10
1366.107358903975
 20
1742.794911946248
 10
1366.083162545699
 20
1744.096126615527
  0
LWPOLYLINE
  5
259
330
1EC
100
AcDbEntity
  8
P-SANR-FIXT
100
AcDbPolyline
 90
       13
 70
   128
 43
0.0
 10
1477.76048555042
 20
1690.013285132725
 10
1475.34612398859
 20
1690.061578803289
 10
1466.362918037519
 20
1690.60121888392
 10
1457.408477540576
 20
1691.499659734889
 10
1448.497127692378
 20
1692.755464042494
 10
1439.643124751694
 20
1694.36662278773
 10
1430.860633234478
 20
1696.330558460303
 10
1422.163703253657
 20
1698.644129182087
 10
1413.566248041957
 20
1701.303633733461
 10
1405.082021693688
 20
1704.304817474474
 10
1396.724597161137
 20
1707.642879151361
 10
1388.507344540733
 20
1711.312478577518
 10
1385.745690665588
 20
1712.635644160123
  0
LWPOLYLINE
  5
25A
330
1EC
100
AcDbEntity
  8
P-SANR-FIXT
100
AcDbPolyline
 90
       14
 70
   128
 43
0.0
 10
1485.239541150854
 20
1689.881602802009
 10
1485.109955331093
 20
1689.881602802009
 10
1484.98992536866
 20
1689.881602802009
 10
1484.879643285889
 20
1689.881602802009
 10
1484.779285510586
 20
1689.881602802009
 10
1484.689012593785
 20
1689.881602802009
 10
1484.608968952893
 20
1689.881602802009
 10
1484.539282640663
 20
1689.881602802009
 10
1484.480065140328
 20
1689.881602802009
 10
1484.431411187255
 20
1689.881602802009
 10
1484.393398617391
 20
1689.881602802009
 10
1484.36608824274
 20
1689.881602802009
 10
1484.349523754073
 20
1689.881602802009
 10
1484.34373165104
 20
1689.881602802009
  0
LWPOLYLINE
  5
25B
330
1EC
100
AcDbEntity
  8
P-SANR-FIXT
100
AcDbPolyline
 90
       15
 70
   128
 43
0.0
 10
1484.343724180585
 20
1689.881602802009
 10
1484.349115012442
 20
1689.881602802009
 10
1484.365278883832
 20
1689.881602802009
 10
1484.392189936009
 20
1689.881602802009
 10
1484.42980511703
 20
1689.881602802009
 10
1484.478064250629
 20
1689.881602802009
 10
1484.536890132489
 20
1689.881602802009
 10
1484.606188653746
 20
1689.881602802009
 10
1484.685848951549
 20
1689.881602802009
 10
1484.775743586415
 20
1689.881602802009
 10
1484.875728746106
 20
1689.881602802009
 10
1484.985644475694
 20
1689.881602802009
 10
1485.105314933459
 20
1689.881602802009
 10
1485.234548672198
 20
1689.881602802009
 10
1485.239541150881
 20
1689.881602802009
  0
SPLINE
  5
25C
330
1EC
100
AcDbEntity
  8
P-SANR-FIXT
100
AcDbSpline
210
0.0
220
0.0
230
1.0
 70
    24
 71
     3
 72
    12
 73
     8
 74
     0
 42
0.000000001
 43
0.0000000001
 40
-1.0
 40
-1.0
 40
-1.0
 40
-1.0
 40
-0.85
 40
-0.7
 40
-0.4
 40
-0.2
 40
0.0
 40
0.0
 40
0.0
 40
0.0
 10
1490.836299557662
 20
2122.059793902518
 30
0.0
 10
1490.836299557662
 20
2124.762974673453
 30
0.0
 10
1490.836299557662
 20
2129.790585726122
 30
0.0
 10
1490.836299557662
 20
2138.382271094816
 30
0.0
 10
1490.836299557663
 20
2145.171656127983
 30
0.0
 10
1490.836299557663
 20
2149.209846645759
 30
0.0
 10
1490.836299557663
 20
2149.979049538527
 30
0.0
 10
1490.836299557663
 20
2149.982558850011
 30
0.0
  0
SPLINE
  5
25D
330
1EC
100
AcDbEntity
  8
P-SANR-FIXT
100
AcDbSpline
210
0.0
220
0.0
230
1.0
 70
    24
 71
     3
 72
    11
 73
     7
 74
     0
 42
0.000000001
 43
0.0000000001
 40
-1.0
 40
-1.0
 40
-1.0
 40
-1.0
 40
-0.75
 40
-0.5
 40
-0.25
 40
0.0
 40
0.0
 40
0.0
 40
0.0
 10
1490.836299557662
 20
2094.418263723975
 30
0.0
 10
1490.836299557662
 20
2097.113217286043
 30
0.0
 10
1490.836299557662
 20
2102.351685390629
 30
0.0
 10
1490.836299557662
 20
2109.934118613976
 30
0.0
 10
1490.836299557662
 20
2116.704138528453
 30
0.0
 10
1490.836299557662
 20
2120.395946857486
 30
0.0
 10
1490.836299557662
 20
2122.059793902518
 30
0.0
  0
LINE
  5
25E
330
1EC
100
AcDbEntity
  8
P-SANR-FIXT
100
AcDbLine
 10
1490.836299557662
 20
2092.471780579184
 30
0.0
 11
1490.836299557662
 21
2094.418263723975
 31
0.0
  0
LINE
  5
25F
330
1EC
100
AcDbEntity
  8
P-SANR-FIXT
100
AcDbLine
 10
1490.836299557662
 20
1744.096126615526
 30
0.0
 11
1490.836299557662
 21
1907.493337120837
 31
0.0
  0
SPLINE
  5
260
330
1EC
100
AcDbEntity
  8
P-SANR-FIXT
100
AcDbSpline
210
0.0
220
0.0
230
1.0
 70
    24
 71
     3
 72
    12
 73
     8
 74
     0
 42
0.000000001
 43
0.0000000001
 40
-1.0
 40
-1.0
 40
-1.0
 40
-1.0
 40
-0.85
 40
-0.7
 40
-0.4
 40
-0.2
 40
0.0
 40
0.0
 40
0.0
 40
0.0
 10
1490.836299557662
 20
1712.635644160123
 30
0.0
 10
1490.836299557662
 20
1713.509278846254
 30
0.0
 10
1490.836299557662
 20
1715.503568194109
 30
0.0
 10
1490.836299557662
 20
1720.577577665937
 30
0.0
 10
1490.836299557662
 20
1727.58983020997
 30
0.0
 10
1490.836299557662
 20
1736.290423490259
 30
0.0
 10
1490.836299557662
 20
1741.444760714135
 30
0.0
 10
1490.836299557662
 20
1744.096126615526
 30
0.0
  0
SPLINE
  5
261
330
1EC
100
AcDbEntity
  8
P-SANR-FIXT
100
AcDbSpline
210
0.0
220
0.0
230
1.0
 70
    24
 71
     3
 72
    11
 73
     7
 74
     0
 42
0.000000001
 43
0.0000000001
 40
-0.8285684791173803
 40
-0.8285684791173803
 40
-0.8285684791173803
 40
-0.8285684791173803
 40
-0.75
 40
-0.5
 40
-0.25
 40
0.0
 40
0.0
 40
0.0
 40
0.0
 10
1490.836299557664
 20
1690.193107350582
 30
0.0
 10
1490.836299557663
 20
1690.343966818573
 30
0.0
 10
1490.836299557663
 20
1691.200552910537
 30
0.0
 10
1490.836299557663
 20
1694.374337301969
 30
0.0
 10
1490.836299557663
 20
1701.709713124895
 30
0.0
 10
1490.836299557662
 20
1708.646923804304
 30
0.0
 10
1490.836299557662
 20
1712.635644160123
 30
0.0
  0
LINE
  5
262
330
1EC
100
AcDbEntity
  8
P-SANR-FIXT
100
AcDbLine
 10
1507.933162545697
 20
1712.822130310572
 30
0.0
 11
1510.083162545698
 21
1713.1434031881
 31
0.0
  0
LINE
  5
263
330
1EC
100
AcDbEntity
  8
P-SANR-FIXT
100
AcDbLine
 10
1510.083162545698
 20
1713.1434031881
 30
0.0
 11
1510.083162545698
 21
1714.816009578886
 31
0.0
  0
LINE
  5
264
330
1EC
100
AcDbEntity
  8
P-SANR-FIXT
100
AcDbLine
 10
1510.083162545698
 20
1703.484144925228
 30
0.0
 11
1507.933162545697
 21
1703.1628720477
 31
0.0
  0
LINE
  5
265
330
1EC
100
AcDbEntity
  8
P-SANR-FIXT
100
AcDbLine
 10
1510.083162545698
 20
1703.484144925228
 30
0.0
 11
1510.083162545698
 21
1713.1434031881
 31
0.0
  0
LINE
  5
266
330
1EC
100
AcDbEntity
  8
P-SANR-FIXT
100
AcDbLine
 10
1506.583162545652
 20
2169.982558850038
 30
0.0
 11
1506.583162545652
 21
2186.482558849963
 31
0.0
  0
LINE
  5
267
330
1EC
100
AcDbEntity
  8
P-SANR-FIXT
100
AcDbLine
 10
1475.583162545723
 20
2186.482558849963
 30
0.0
 11
1475.583162545723
 21
2169.982558850038
 31
0.0
  0
LINE
  5
268
330
1EC
100
AcDbEntity
  8
P-SANR-FIXT
100
AcDbLine
 10
1486.491637256399
 20
2194.982558850026
 30
0.0
 11
1485.583162545698
 21
2194.982558850026
 31
0.0
  0
LINE
  5
269
330
1EC
100
AcDbEntity
  8
P-SANR-FIXT
100
AcDbLine
 10
1485.583162545698
 20
2194.982558850026
 30
0.0
 11
1484.65674478851
 21
2194.982558850026
 31
0.0
  0
LINE
  5
26A
330
1EC
100
AcDbEntity
  8
P-SANR-FIXT
100
AcDbLine
 10
1480.083162545698
 20
2194.982558850026
 30
0.0
 11
1485.583162545698
 21
2194.982558850026
 31
0.0
  0
LINE
  5
26B
330
1EC
100
AcDbEntity
  8
P-SANR-FIXT
100
AcDbLine
 10
1485.583162545698
 20
2194.982558850026
 30
0.0
 11
1491.083162545698
 21
2194.982558850026
 31
0.0
  0
LINE
  5
26C
330
1EC
100
AcDbEntity
  8
P-SANR-FIXT
100
AcDbLine
 10
1491.083162545698
 20
2194.982558850026
 30
0.0
 11
1496.583162545698
 21
2194.982558850026
 31
0.0
  0
LINE
  5
26D
330
1EC
100
AcDbEntity
  8
P-SANR-FIXT
100
AcDbLine
 10
1496.583162545698
 20
2194.982558850026
 30
0.0
 11
1502.083162545698
 21
2194.982558850026
 31
0.0
  0
LINE
  5
26E
330
1EC
100
AcDbEntity
  8
P-SANR-FIXT
100
AcDbLine
 10
1497.50958030233
 20
2194.982558850026
 30
0.0
 11
1496.583162545699
 21
2194.982558850026
 31
0.0
  0
LINE
  5
26F
330
1EC
100
AcDbEntity
  8
P-SANR-FIXT
100
AcDbLine
 10
1496.583162545699
 20
2194.982558850026
 30
0.0
 11
1495.674687835544
 21
2194.982558850026
 31
0.0
  0
LINE
  5
270
330
1EC
100
AcDbEntity
  8
P-SANR-FIXT
100
AcDbLine
 10
1491.083162545685
 20
2194.000078477785
 30
0.0
 11
1491.083162545685
 21
2186.482558849963
 31
0.0
  0
SPLINE
  5
271
330
1EC
100
AcDbEntity
  8
P-SANR-FIXT
100
AcDbSpline
210
0.0
220
0.0
230
1.0
 70
     8
 71
     3
 72
     9
 73
     5
 74
     0
 42
0.000000001
 43
0.0000000001
 40
0.0
 40
0.0
 40
0.0
 40
0.0
 40
0.5
 40
1.0
 40
1.0
 40
1.0
 40
1.0
 10
1502.083162545673
 20
2194.000078477792
 30
0.0
 10
1501.173150159082
 20
2194.317203308363
 30
0.0
 10
1499.346471105829
 20
2194.79807486764
 30
0.0
 10
1497.506483492427
 20
2194.972190223186
 30
0.0
 10
1496.58316254569
 20
2194.982558850026
 30
0.0
  0
SPLINE
  5
272
330
1EC
100
AcDbEntity
  8
P-SANR-FIXT
100
AcDbSpline
210
0.0
220
0.0
230
1.0
 70
     8
 71
     3
 72
     9
 73
     5
 74
     0
 42
0.000000001
 43
0.0000000001
 40
0.0
 40
0.0
 40
0.0
 40
0.0
 40
0.5
 40
1.0
 40
1.0
 40
1.0
 40
1.0
 10
1496.58316254569
 20
2194.982558850026
 30
0.0
 10
1495.659841598948
 20
2194.972190223185
 30
0.0
 10
1493.819853985539
 20
2194.798074867638
 30
0.0
 10
1491.993174932279
 20
2194.317203308358
 30
0.0
 10
1491.083162545685
 20
2194.000078477785
 30
0.0
  0
LINE
  5
273
330
1EC
100
AcDbEntity
  8
P-SANR-FIXT
100
AcDbLine
 10
1502.083162545673
 20
2186.482558849963
 30
0.0
 11
1502.083162545673
 21
2194.000078477792
 31
0.0
  0
SPLINE
  5
274
330
1EC
100
AcDbEntity
  8
P-SANR-FIXT
100
AcDbSpline
210
0.0
220
0.0
230
1.0
 70
    24
 71
     3
 72
     9
 73
     5
 74
     0
 42
0.000000001
 43
0.0000000001
 40
0.0
 40
0.0
 40
0.0
 40
0.0
 40
0.5
 40
1.0
 40
1.0
 40
1.0
 40
1.0
 10
1502.083162545673
 20
2194.982558850026
 30
0.0
 10
1502.083162545673
 20
2194.972190223188
 30
0.0
 10
1502.083162545673
 20
2194.798074867644
 30
0.0
 10
1502.083162545673
 20
2194.317203308365
 30
0.0
 10
1502.083162545673
 20
2194.000078477792
 30
0.0
  0
SPLINE
  5
275
330
1EC
100
AcDbEntity
  8
P-SANR-FIXT
100
AcDbSpline
210
0.0
220
0.0
230
1.0
 70
    24
 71
     3
 72
     9
 73
     5
 74
     0
 42
0.000000001
 43
0.0000000001
 40
0.0
 40
0.0
 40
0.0
 40
0.0
 40
0.5
 40
1.0
 40
1.0
 40
1.0
 40
1.0
 10
1480.083162545698
 20
2194.000078477779
 30
0.0
 10
1480.083162545698
 20
2194.31720330835
 30
0.0
 10
1480.083162545698
 20
2194.798074867628
 30
0.0
 10
1480.083162545698
 20
2194.972190223181
 30
0.0
 10
1480.083162545698
 20
2194.982558850026
 30
0.0
  0
SPLINE
  5
276
330
1EC
100
AcDbEntity
  8
P-SANR-FIXT
100
AcDbSpline
210
0.0
220
0.0
230
1.0
 70
     8
 71
     3
 72
     9
 73
     5
 74
     0
 42
0.000000001
 43
0.0000000001
 40
0.0
 40
0.0
 40
0.0
 40
0.0
 40
0.5
 40
1.0
 40
1.0
 40
1.0
 40
1.0
 10
1491.083162545685
 20
2194.000078477785
 30
0.0
 10
1490.173150159094
 20
2194.317203308355
 30
0.0
 10
1488.346471105839
 20
2194.798074867632
 30
0.0
 10
1486.506483492438
 20
2194.972190223182
 30
0.0
 10
1485.5831625457
 20
2194.982558850026
 30
0.0
  0
SPLINE
  5
277
330
1EC
100
AcDbEntity
  8
P-SANR-FIXT
100
AcDbSpline
210
0.0
220
0.0
230
1.0
 70
     8
 71
     3
 72
     9
 73
     5
 74
     0
 42
0.000000001
 43
0.0000000001
 40
0.0
 40
0.0
 40
0.0
 40
0.0
 40
0.5
 40
1.0
 40
1.0
 40
1.0
 40
1.0
 10
1485.5831625457
 20
2194.982558850026
 30
0.0
 10
1484.65984159896
 20
2194.972190223182
 30
0.0
 10
1482.819853985552
 20
2194.79807486763
 30
0.0
 10
1480.993174932291
 20
2194.317203308351
 30
0.0
 10
1480.083162545698
 20
2194.000078477779
 30
0.0
  0
LINE
  5
278
330
1EC
100
AcDbEntity
  8
P-SANR-FIXT
100
AcDbLine
 10
1480.083162545698
 20
2186.482558849963
 30
0.0
 11
1480.083162545698
 21
2194.000078477779
 31
0.0
  0
LINE
  5
279
330
1EC
100
AcDbEntity
  8
P-SANR-FIXT
100
AcDbLine
 10
1491.083162545685
 20
2169.982558850037
 30
0.0
 11
1475.583162545721
 21
2169.982558850037
 31
0.0
  0
LINE
  5
27A
330
1EC
100
AcDbEntity
  8
P-SANR-FIXT
100
AcDbLine
 10
1506.58316254565
 20
2169.982558850037
 30
0.0
 11
1491.083162545685
 21
2169.982558850037
 31
0.0
  0
LINE
  5
27B
330
1EC
100
AcDbEntity
  8
P-SANR-FIXT
100
AcDbLine
 10
1491.083162545685
 20
2186.482558849963
 30
0.0
 11
1506.58316254565
 21
2186.482558849963
 31
0.0
  0
LINE
  5
27C
330
1EC
100
AcDbEntity
  8
P-SANR-FIXT
100
AcDbLine
 10
1475.583162545721
 20
2186.482558849963
 30
0.0
 11
1491.083162545685
 21
2186.482558849963
 31
0.0
  0
LINE
  5
27D
330
1EC
100
AcDbEntity
  8
P-SANR-FIXT
100
AcDbLine
 10
1477.633162545701
 20
2169.982558850038
 30
0.0
 11
1477.633162545701
 21
2149.982558850012
 31
0.0
  0
LINE
  5
27E
330
1EC
100
AcDbEntity
  8
P-SANR-FIXT
100
AcDbLine
 10
1504.5331625457
 20
2095.170608945146
 30
0.0
 11
1504.5331625457
 21
2169.982558850038
 31
0.0
  0
LINE
  5
27F
330
1EC
100
AcDbEntity
  8
P-SANR-FIXT
100
AcDbLine
 10
1474.233162545701
 20
1690.12527428148
 30
0.0
 11
1474.233162545701
 21
1647.982558849977
 31
0.0
  0
LINE
  5
280
330
1EC
100
AcDbEntity
  8
P-SANR-FIXT
100
AcDbLine
 10
1507.933162545699
 20
1647.982558849977
 30
0.0
 11
1507.933162545699
 21
1719.949753339998
 31
0.0
  0
LINE
  5
281
330
1EC
100
AcDbEntity
  8
P-SANR-FIXT
100
AcDbLine
 10
1491.083162545701
 20
2095.176213153777
 30
0.0
 11
1490.836299557664
 21
2095.176213153777
 31
0.0
  0
LWPOLYLINE
  5
282
330
1EC
100
AcDbEntity
  8
P-SANR-FIXT
100
AcDbPolyline
 90
        3
 70
   128
 43
0.0
 10
1472.053390364222
 20
2095.176213153777
 10
1472.029923479774
 20
2095.176213153777
 10
1472.028812996664
 20
2095.176213153777
  0
LWPOLYLINE
  5
283
330
1EC
100
AcDbEntity
  8
P-SANR-FIXT
100
AcDbPolyline
 90
       14
 70
   128
 43
0.0
 10
1510.137512094736
 20
2095.176213153777
 10
1513.98877061614
 20
2095.099177711683
 10
1517.833867945469
 20
2094.868194625674
 10
1521.666652747237
 20
2094.483633419415
 10
1525.480993383381
 20
2093.946109308799
 10
1529.270787722564
 20
2093.256482217739
 10
1533.02997290229
 20
2092.415855402467
 10
1536.752535028188
 20
2091.425573686564
 10
1540.432518794963
 20
2090.287221309525
 10
1544.064037013606
 20
2089.00261939232
 10
1547.641280029652
 20
2087.573823023982
 10
1551.15852501738
 20
2086.003117973906
 10
1554.610145135114
 20
2084.293017035106
 10
1557.179013313741
 20
2082.905746391433
  0
LWPOLYLINE
  5
284
330
1EC
100
AcDbEntity
  8
P-SANR-FIXT
100
AcDbPolyline
 90
       22
 70
   128
 43
0.0
 10
1504.533021555671
 20
2095.176213153777
 10
1504.751916252829
 20
2095.176213153777
 10
1505.27185284291
 20
2095.176213153777
 10
1505.769090555273
 20
2095.176213153777
 10
1506.242833915653
 20
2095.176213153777
 10
1506.692325035731
 20
2095.176213153777
 10
1507.116844825602
 20
2095.176213153777
 10
1507.515714144161
 20
2095.176213153777
 10
1507.888294885587
 20
2095.176213153777
 10
1508.233991000173
 20
2095.176213153777
 10
1508.55224944788
 20
2095.176213153777
 10
1508.842561083084
 20
2095.176213153777
 10
1509.104461469097
 20
2095.176213153777
 10
1509.337531621171
 20
2095.176213153777
 10
1509.541398676784
 20
2095.176213153777
 10
1509.715736492132
 20
2095.176213153777
 10
1509.860266163903
 20
2095.176213153777
 10
1509.974756475454
 20
2095.176213153777
 10
1510.059024266709
 20
2095.176213153777
 10
1510.112934727179
 20
2095.176213153777
 10
1510.136401611626
 20
2095.176213153777
 10
1510.137512094736
 20
2095.176213153777
  0
LWPOLYLINE
  5
285
330
1EC
100
AcDbEntity
  8
P-SANR-FIXT
100
AcDbPolyline
 90
       41
 70
   128
 43
0.0
 10
1510.137512094736
 20
2095.176213153777
 10
1510.122270647452
 20
2095.176213153777
 10
1510.076570688666
 20
2095.176213153777
 10
1510.000485328562
 20
2095.176213153777
 10
1509.894136287484
 20
2095.176213153777
 10
1509.757693701215
 20
2095.176213153777
 10
1509.591375848784
 20
2095.176213153777
 10
1509.395448803276
 20
2095.176213153777
 10
1509.170226006168
 20
2095.176213153777
 10
1508.916067765892
 20
2095.176213153777
 10
1508.633380681414
 20
2095.176213153777
 10
1508.322616991765
 20
2095.176213153777
 10
1507.984273852557
 20
2095.176213153777
 10
1507.618892540636
 20
2095.176213153777
 10
1507.227057588158
 20
2095.176213153777
 10
1506.809395847458
 20
2095.176213153777
 10
1506.366575488226
 20
2095.176213153777
 10
1505.899304928575
 20
2095.176213153777
 10
1505.408331701719
 20
2095.176213153777
 10
1504.894441260087
 20
2095.176213153777
 10
1504.35845571876
 20
2095.176213153777
 10
1503.801232540268
 20
2095.176213153777
 10
1503.223663162828
 20
2095.176213153777
 10
1502.626671574237
 20
2095.176213153777
 10
1502.011212833683
 20
2095.176213153777
 10
1501.378271543862
 20
2095.176213153777
 10
1500.728860275817
 20
2095.176213153777
 10
1500.064017949042
 20
2095.176213153777
 10
1499.384808169436
 20
2095.176213153777
 10
1498.692317527755
 20
2095.176213153777
 10
1497.987653861303
 20
2095.176213153777
 10
1497.271944481625
 20
2095.176213153777
 10
1496.546334371053
 20
2095.176213153777
 10
1495.811984350974
 20
2095.176213153777
 10
1495.07006922477
 20
2095.176213153777
 10
1494.321775898373
 20
2095.176213153777
 10
1493.568301481479
 20
2095.176213153777
 10
1492.810851372422
 20
2095.176213153777
 10
1492.050637329797
 20
2095.176213153777
 10
1491.288875533901
 20
2095.176213153777
 10
1491.083162545701
 20
2095.176213153777
  0
LWPOLYLINE
  5
286
330
1EC
100
AcDbEntity
  8
P-SANR-FIXT
100
AcDbPolyline
 90
       28
 70
   128
 43
0.0
 10
1557.179013313741
 20
2082.905746391433
 10
1558.386639098114
 20
2082.197665431712
 10
1559.564983224538
 20
2081.441858710169
 10
1560.712160593775
 20
2080.639535356331
 10
1561.826335966753
 20
2079.791978916409
 10
1562.905726900554
 20
2078.900545299906
 10
1563.948606599942
 20
2077.966660610445
 10
1564.953306679865
 20
2076.991818864311
 10
1565.918219834522
 20
2075.977579600343
 10
1566.841802408702
 20
2074.925565385004
 10
1567.722576867306
 20
2073.837459216621
 10
1568.55913415909
 20
2072.715001832945
 10
1569.350135970842
 20
2071.559988926347
 10
1570.094316868402
 20
2070.374268271086
 10
1570.790486321084
 20
2069.159736767272
 10
1571.437530606272
 20
2067.918337406224
 10
1572.034414591137
 20
2066.652056162103
 10
1572.580183388634
 20
2065.362918814772
 10
1573.07396388511
 20
2064.052987708987
 10
1573.514966137105
 20
2062.724358455079
 10
1573.902484635092
 20
2061.379156576429
 10
1574.235899432139
 20
2060.019534109082
 10
1574.514677135697
 20
2058.64766615895
 10
1574.738371760909
 20
2057.2657474221
 10
1574.906625444094
 20
2055.87598867372
 10
1575.01916901525
 20
2054.480613231341
 10
1575.075822428673
 20
2053.081853398006
 10
1575.0831625457
 20
2052.365086828861
  0
LINE
  5
287
330
1EC
100
AcDbEntity
  8
P-SANR-FIXT
100
AcDbLine
 10
1575.0831625457
 20
2038.672709802896
 30
0.0
 11
1575.0831625457
 21
2052.365086828861
 31
0.0
  0
LINE
  5
288
330
1EC
100
AcDbEntity
  8
P-SANR-FIXT
100
AcDbLine
 10
1575.0831625457
 20
1762.471112200972
 30
0.0
 11
1575.0831625457
 21
1961.292407897127
 31
0.0
  0
LWPOLYLINE
  5
289
330
1EC
100
AcDbEntity
  8
P-SANR-FIXT
100
AcDbPolyline
 90
       28
 70
   128
 43
0.0
 10
1575.083162545701
 20
1762.471112200972
 10
1575.055166278835
 20
1761.07148550444
 10
1574.971222266293
 20
1759.674097912051
 10
1574.831464800586
 20
1758.28118494586
 10
1574.636117463848
 20
1756.894974969474
 10
1574.385492770144
 20
1755.517685623145
 10
1574.079991665522
 20
1754.151520276022
 10
1573.720102886578
 20
1752.798664501228
 10
1573.306402178587
 20
1751.461282579408
 10
1572.839551374429
 20
1750.141514036344
 10
1572.320297335802
 20
1748.841470220169
 10
1571.7494707584
 20
1747.563230923662
 10
1571.127984842976
 20
1746.30884105702
 10
1570.456833834419
 20
1745.080307376441
 10
1569.737091431171
 20
1743.879595273741
 10
1568.96990906754
 20
1742.708625632146
 10
1568.156514071651
 20
1741.569271753288
 10
1567.298207701983
 20
1740.463356360325
 10
1566.396363065632
 20
1739.39264868197
 10
1565.452422921633
 20
1738.358861622103
 10
1564.467897372852
 20
1737.363649019489
 10
1563.444361450147
 20
1736.408603001992
 10
1562.383452592651
 20
1735.495251439508
 10
1561.286868028222
 20
1734.625055499699
 10
1560.156362058237
 20
1733.799407310437
 10
1558.993743251086
 20
1733.019627732696
 10
1557.800871548848
 20
1732.286964247455
 10
1557.244246671675
 20
1731.967060148478
  0
LWPOLYLINE
  5
28A
330
1EC
100
AcDbEntity
  8
P-SANR-FIXT
100
AcDbPolyline
 90
        3
 70
   128
 43
0.0
 10
1470.982985530046
 20
1719.906590933983
 10
1470.958198657829
 20
1719.906590933983
 10
1470.957025711202
 20
1719.906590933983
  0
LWPOLYLINE
  5
28B
330
1EC
100
AcDbEntity
  8
P-SANR-FIXT
100
AcDbPolyline
 90
        3
 70
   128
 43
0.0
 10
1490.836299557664
 20
1719.906590933983
 10
1490.865878416505
 20
1719.906590933983
 10
1491.083162545701
 20
1719.906590933983
  0
LWPOLYLINE
  5
28C
330
1EC
100
AcDbEntity
  8
P-SANR-FIXT
100
AcDbPolyline
 90
       14
 70
   128
 43
0.0
 10
1557.244246671675
 20
1731.967060148478
 10
1553.935187486094
 20
1730.191606707092
 10
1550.557775993915
 20
1728.549900512703
 10
1547.117415333047
 20
1727.04456794501
 10
1543.619609346644
 20
1725.678017215001
 10
1540.069953778126
 20
1724.452434512329
 10
1536.474127319183
 20
1723.369780507874
 10
1532.837882525079
 20
1722.43178721709
 10
1529.167036611795
 20
1721.639955229146
 10
1525.467462149721
 20
1720.995551306309
 10
1521.745077668794
 20
1720.49960635739
 10
1518.005838190118
 20
1720.152913788512
 10
1514.255725699198
 20
1719.956028233826
 10
1511.209299380199
 20
1719.906590933983
  0
LWPOLYLINE
  5
28D
330
1EC
100
AcDbEntity
  8
P-SANR-FIXT
100
AcDbPolyline
 90
       41
 70
   128
 43
0.0
 10
1491.083162545701
 20
1719.906590933983
 10
1491.887993357461
 20
1719.906590933983
 10
1492.691536611611
 20
1719.906590933983
 10
1493.492506810357
 20
1719.906590933983
 10
1494.289622572245
 20
1719.906590933983
 10
1495.0816086821
 20
1719.906590933983
 10
1495.867198131093
 20
1719.906590933983
 10
1496.645134143688
 20
1719.906590933983
 10
1497.414172188218
 20
1719.906590933983
 10
1498.173081967863
 20
1719.906590933983
 10
1498.920649388868
 20
1719.906590933983
 10
1499.655678502832
 20
1719.906590933983
 10
1500.37699341997
 20
1719.906590933983
 10
1501.083440190288
 20
1719.906590933983
 10
1501.773888649653
 20
1719.906590933983
 10
1502.447234227819
 20
1719.906590933983
 10
1503.102399715498
 20
1719.906590933983
 10
1503.738336987674
 20
1719.906590933983
 10
1504.354028680369
 20
1719.906590933983
 10
1504.948489818216
 20
1719.906590933983
 10
1505.520769390205
 20
1719.906590933983
 10
1506.069951871102
 20
1719.906590933983
 10
1506.595158686089
 20
1719.906590933983
 10
1507.095549616301
 20
1719.906590933983
 10
1507.570324142994
 20
1719.906590933983
 10
1508.018722728204
 20
1719.906590933983
 10
1508.44002802985
 20
1719.906590933983
 10
1508.833566049321
 20
1719.906590933983
 10
1509.198707209737
 20
1719.906590933983
 10
1509.534867363135
 20
1719.906590933983
 10
1509.841508724977
 20
1719.906590933983
 10
1510.118140734501
 20
1719.906590933983
 10
1510.364320839501
 20
1719.906590933983
 10
1510.579655204325
 20
1719.906590933983
 10
1510.763799339926
 20
1719.906590933983
 10
1510.916458654968
 20
1719.906590933983
 10
1511.037388927112
 20
1719.906590933983
 10
1511.126396693721
 20
1719.906590933983
 10
1511.183339561354
 20
1719.906590933983
 10
1511.208126433572
 20
1719.906590933983
 10
1511.209299380199
 20
1719.906590933983
  0
LWPOLYLINE
  5
28E
330
1EC
100
AcDbEntity
  8
P-SANR-FIXT
100
AcDbPolyline
 90
       16
 70
   128
 43
0.0
 10
1511.209299380199
 20
1719.906590933983
 10
1511.193200617405
 20
1719.906590933983
 10
1511.144930083609
 20
1719.906590933983
 10
1511.064565001367
 20
1719.906590933983
 10
1510.952233937668
 20
1719.906590933983
 10
1510.808116598252
 20
1719.906590933983
 10
1510.632443540117
 20
1719.906590933983
 10
1510.425495802682
 20
1719.906590933983
 10
1510.18760445818
 20
1719.906590933983
 10
1509.919150082015
 20
1719.906590933983
 10
1509.620562143921
 20
1719.906590933983
 10
1509.292318320906
 20
1719.906590933983
 10
1508.934943733061
 20
1719.906590933983
 10
1508.549010103495
 20
1719.906590933983
 10
1508.135134843684
 20
1719.906590933983
 10
1507.933162545699
 20
1719.906590933983
  0
LINE
  5
28F
330
1EC
100
AcDbEntity
  8
P-SANR-FIXT
100
AcDbLine
 10
1512.083162545701
 20
1717.519722675079
 30
0.0
 11
1512.083162545701
 21
1719.941995444084
 31
0.0
  0
LWPOLYLINE
  5
290
330
1EC
100
AcDbEntity
  8
P-SANR-FIXT
100
AcDbPolyline
 90
       14
 70
   128
 43
0.0
 10
1512.083162545701
 20
1717.519722675079
 10
1512.058086192732
 20
1717.194617267682
 10
1511.984549515355
 20
1716.87721527653
 10
1511.866829063822
 20
1716.573082891919
 10
1511.710053202676
 20
1716.284793466644
 10
1511.518739265623
 20
1716.012429431509
 10
1511.296167670314
 20
1715.754645081445
 10
1511.044420813968
 20
1715.509591039413
 10
1510.76470072626
 20
1715.275466421683
 10
1510.457665480201
 20
1715.050758342049
 10
1510.123685647714
 20
1714.83429803789
 10
1509.763011539729
 20
1714.625233209413
 10
1509.375872102888
 20
1714.422972686196
 10
1509.349595806449
 20
1714.409951229788
  0
LINE
  5
291
330
1EC
100
AcDbEntity
  8
P-SANR-FIXT
100
AcDbLine
 10
1508.22133952544
 20
1713.85261439788
 30
0.0
 11
1509.349595806449
 21
1714.409951229788
 31
0.0
  0
LINE
  5
292
330
1EC
100
AcDbEntity
  8
P-SANR-FIXT
100
AcDbLine
 10
1508.221339525441
 20
1713.85261439788
 30
0.0
 11
1507.933162545699
 21
1713.716910643227
 31
0.0
  0
LINE
  5
293
330
1EC
100
AcDbEntity
  8
P-SANR-FIXT
100
AcDbLine
 10
1480.987143426726
 20
1647.982558849976
 30
0.0
 11
1483.061963689475
 21
1647.982558849976
 31
0.0
  0
LINE
  5
294
330
1EC
100
AcDbEntity
  8
P-SANR-FIXT
100
AcDbLine
 10
1498.999800243062
 20
1647.982558849976
 30
0.0
 11
1501.076049252919
 21
1647.982558849976
 31
0.0
  0
ARC
  5
295
330
1EC
100
AcDbEntity
  8
P-SANR-FIXT
100
AcDbCircle
 10
1491.083162545697
 20
1999.982558850011
 30
0.0
 40
92.50000000000026
100
AcDbArc
 50
90.00000000000035
 51
270.0
  0
ARC
  5
296
330
1EC
100
AcDbEntity
  8
P-SANR-FIXT
100
AcDbCircle
 10
1491.083162545697
 20
1999.982558850011
 30
0.0
 40
92.50000000000026
100
AcDbArc
 50
270.0
 51
90.00000000000005
  0
ARC
  5
297
330
1EC
100
AcDbEntity
  8
P-SANR-FIXT
100
AcDbCircle
 10
1491.083162545697
 20
1999.982558850011
 30
0.0
 40
60.99999999999977
100
AcDbArc
 50
90.00000000000021
 51
270.0000000000001
  0
ARC
  5
298
330
1EC
100
AcDbEntity
  8
P-SANR-FIXT
100
AcDbCircle
 10
1491.083162545697
 20
1999.982558850011
 30
0.0
 40
31.75000000000037
100
AcDbArc
 50
90.00000000000081
 51
270.0000000000001
  0
ARC
  5
299
330
1EC
100
AcDbEntity
  8
P-SANR-FIXT
100
AcDbCircle
 10
1491.083162545697
 20
1999.982558850011
 30
0.0
 40
61.0
100
AcDbArc
 50
270.0000000000001
 51
90.00000000000021
  0
ARC
  5
29A
330
1EC
100
AcDbEntity
  8
P-SANR-FIXT
100
AcDbCircle
 10
1491.083162545697
 20
1999.982558850011
 30
0.0
 40
31.75000000000023
100
AcDbArc
 50
269.9999999999997
 51
89.9999999999992
  0
ENDBLK
  5
29C
330
1EC
100
AcDbEntity
  8
0
100
AcDbBlockEnd
  0
ENDSEC
  0
SECTION
  2
ENTITIES
  0
INSERT
  5
1AB
330
71
100
AcDbEntity
  8
P-SANR-FIXT
100
AcDbBlockReference
  2
Automatic flow rate regulator valve_Caleffi_121 DN15 - 1_2__-859151-Est - Idraulica
 10
0.0
 20
0.0
 30
0.0
1001
REVIT
1002
{
1070
     1
1000
863131
1002
}
1002
{
1070
     5
1000
859151
1002
}
1002
{
1070
     2
1000
-2001160
1002
}
  0
INSERT
  5
1EB
330
71
100
AcDbEntity
  8
P-SANR-FIXT
100
AcDbBlockReference
  2
Automatic flow rate regulator valve_Caleffi_121 DN15 - 1_2__-V1-Est - Idraulica
 10
0.0
 20
0.0
 30
0.0
1001
REVIT
1002
{
1070
     1
1000
863152
1002
}
1002
{
1070
     5
1000
859151
1002
}
1002
{
1070
     2
1000
-2001160
1002
}
  0
INSERT
  5
29D
330
71
100
AcDbEntity
  8
P-SANR-FIXT
100
AcDbBlockReference
  2
Automatic flow rate regulator valve_Caleffi_121 DN15 - 1_2__-V2-Est - Idraulica
 10
0.0
 20
0.0
 30
0.0
1001
REVIT
1002
{
1070
     1
1000
863172
1002
}
1002
{
1070
     5
1000
859151
1002
}
1002
{
1070
     2
1000
-2001160
1002
}
  0
ENDSEC
  0
SECTION
  2
OBJECTS
  0
DICTIONARY
  5
C
330
0
100
AcDbDictionary
281
     1
  3
ACAD_CIP_PREVIOUS_PRODUCT_INFO
350
7A
  3
ACAD_COLOR
350
63
  3
ACAD_DETAILVIEWSTYLE
350
6B
  3
ACAD_GROUP
350
D
  3
ACAD_IMAGE_VARS
350
7B
  3
ACAD_LAYOUT
350
62
  3
ACAD_MATERIAL
350
10
  3
ACAD_MLEADERSTYLE
350
66
  3
ACAD_MLINESTYLE
350
5F
  3
ACAD_PLOTSETTINGS
350
61
  3
ACAD_PLOTSTYLENAME
350
E
  3
ACAD_SCALELIST
350
42
  3
ACAD_SECTIONVIEWSTYLE
350
68
  3
ACAD_TABLESTYLE
350
64
  3
ACAD_VISUALSTYLE
350
29
  3
ACDB_RECOMPOSE_DATA
350
2A8
  3
AcDbVariableDictionary
350
7C
  3
REVIT_DICTIONARY
350
29F
  0
DICTIONARY
  5
2A4
330
71
100
AcDbDictionary
280
     1
281
     1
  3
ACAD_SORTENTS
360
2A5
  0
XRECORD
  5
7A
102
{ACAD_REACTORS
330
C
102
}
330
C
100
AcDbXrecord
280
     1
300
RVT
300
2013
300
RVT2013
  0
DICTIONARY
  5
63
102
{ACAD_REACTORS
330
C
102
}
330
C
100
AcDbDictionary
281
     1
  0
DICTIONARY
  5
6B
102
{ACAD_REACTORS
330
C
102
}
330
C
100
AcDbDictionary
281
     1
  3
Imperial24
350
6C
  0
DICTIONARY
  5
D
102
{ACAD_REACTORS
330
C
102
}
330
C
100
AcDbDictionary
281
     1
  0
RASTERVARIABLES
  5
7B
102
{ACAD_REACTORS
330
C
102
}
330
C
100
AcDbRasterVariables
 90
        0
 70
     0
 71
     1
 72
     1
  0
DICTIONARY
  5
62
102
{ACAD_REACTORS
330
C
102
}
330
C
100
AcDbDictionary
281
     1
  3
Layout1
350
70
  3
Layout2
350
78
  3
Model
350
74
  0
DICTIONARY
  5
10
102
{ACAD_REACTORS
330
C
102
}
330
C
100
AcDbDictionary
281
     1
  3
ByBlock
350
19
  3
ByLayer
350
11
  3
Global
350
21
  0
DICTIONARY
  5
66
102
{ACAD_REACTORS
330
C
102
}
330
C
100
AcDbDictionary
281
     1
  3
Standard
350
67
  0
DICTIONARY
  5
5F
102
{ACAD_REACTORS
330
C
102
}
330
C
100
AcDbDictionary
281
     1
  3
Standard
350
60
  0
DICTIONARY
  5
61
102
{ACAD_REACTORS
330
C
102
}
330
C
100
AcDbDictionary
281
     1
  0
ACDBDICTIONARYWDFLT
  5
E
102
{ACAD_REACTORS
330
C
102
}
330
C
100
AcDbDictionary
281
     1
  3
Normal
350
F
100
AcDbDictionaryWithDefault
340
F
  0
DICTIONARY
  5
42
102
{ACAD_REACTORS
330
C
102
}
330
C
100
AcDbDictionary
281
     1
  3
A0
350
43
  3
A1
350
44
  3
A2
350
45
  3
A3
350
46
  3
A4
350
47
  3
A5
350
48
  3
A6
350
49
  3
A7
350
4A
  3
A8
350
4B
  3
A9
350
4C
  3
B0
350
4D
  3
B1
350
4E
  3
B2
350
4F
  3
B3
350
50
  3
B4
350
51
  3
B5
350
52
  3
B6
350
53
  0
DICTIONARY
  5
68
102
{ACAD_REACTORS
330
C
102
}
330
C
100
AcDbDictionary
281
     1
  3
Imperial24
350
6A
  0
DICTIONARY
  5
64
102
{ACAD_REACTORS
330
C
102
}
330
C
100
AcDbDictionary
281
     1
  3
Standard
350
65
  0
DICTIONARY
  5
29
102
{ACAD_REACTORS
330
C
102
}
330
C
100
AcDbDictionary
281
     1
  3
2dWireframe
350
2F
  3
Basic
350
2E
  3
Brighten
350
35
  3
ColorChange
350
39
  3
Conceptual
350
32
  3
Dim
350
34
  3
EdgeColorOff
350
41
  3
Facepattern
350
38
  3
Flat
350
2A
  3
FlatWithEdges
350
2B
  3
Gouraud
350
2C
  3
GouraudWithEdges
350
2D
  3
Hidden
350
31
  3
JitterOff
350
3F
  3
Linepattern
350
37
  3
OverhangOff
350
40
  3
Realistic
350
33
  3
Shaded
350
3E
  3
Shaded with edges
350
3D
  3
Shades of Gray
350
3A
  3
Sketchy
350
3B
  3
Thicken
350
36
  3
Wireframe
350
30
  3
X-Ray
350
3C
  0
XRECORD
  5
2A8
102
{ACAD_REACTORS
330
C
102
}
330
C
100
AcDbXrecord
280
     1
 90
        1
330
65
  0
DICTIONARY
  5
7C
102
{ACAD_REACTORS
330
C
102
}
330
C
100
AcDbDictionary
281
     1
  3
CANNOSCALE
350
81
  3
CMLEADERSTYLE
350
7E
  3
CTABLESTYLE
350
7D
  3
CVIEWDETAILSTYLE
350
7F
  3
CVIEWSECTIONSTYLE
350
80
  0
DICTIONARY
  5
29F
102
{ACAD_REACTORS
330
C
102
}
330
C
100
AcDbDictionary
281
     1
  3
DRAWING_TOOL
350
2A3
  3
REVIT_CATEGORY_MAPPING
350
2A1
  3
REVIT_SUB_CATEGORY_MAPPING
350
2A2
  3
REVIT_TYPE_MAPPING
350
2A0
  0
SORTENTSTABLE
  5
2A5
102
{ACAD_REACTORS
330
2A4
102
}
330
2A4
100
AcDbSortentsTable
330
71
  0
ACDBDETAILVIEWSTYLE
  5
6C
102
{ACAD_REACTORS
330
6B
102
}
330
6B
100
AcDbModelDocViewStyle
 70
     0
  3
Imperial24
290
     1
100
AcDbDetailViewStyle
 70
     0
 71
     0
 90
        3
 71
     1
340
55
 62
   256
 40
0.24
340
0
 62
   256
 40
0.24
300

 40
0.36
280
     3
 71
     2
340
5D
 90
       25
 62
   256
 71
     3
340
55
 62
   256
 40
0.24
 90
        1
 40
0.75
 90
        1
300
%<\AcVar ViewType \f "%tc1">% %<\AcVar ViewDetailId>%\PSCALA %<\AcVar ViewScale \f "%sn">%
 71
     4
340
5D
 90
       25
 62
   256
340
5D
 90
       25
 62
   256
280
     0
  0
LAYOUT
  5
70
102
{ACAD_REACTORS
330
62
102
}
330
62
100
AcDbPlotSettings
  1

  2

  4

  6

 40
0.0
 41
0.0
 42
0.0
 43
0.0
 44
0.0
 45
0.0
 46
0.0
 47
0.0
 48
0.0
 49
0.0
140
0.0
141
0.0
142
1.0
143
1.0
 70
   688
 72
     0
 73
     0
 74
     5
  7

 75
    16
147
1.0
 76
     0
 77
     2
 78
   300
148
0.0
149
0.0
100
AcDbLayout
  1
Layout1
 70
     1
 71
     1
 10
0.0
 20
0.0
 11
12.0
 21
9.0
 12
0.0
 22
0.0
 32
0.0
 14
0.0
 24
0.0
 34
0.0
 15
0.0
 25
0.0
 35
0.0
146
0.0
 13
0.0
 23
0.0
 33
0.0
 16
1.0
 26
0.0
 36
0.0
 17
0.0
 27
1.0
 37
0.0
 76
     0
330
6D
  0
LAYOUT
  5
78
102
{ACAD_REACTORS
330
62
102
}
330
62
100
AcDbPlotSettings
  1

  2

  4

  6

 40
0.0
 41
0.0
 42
0.0
 43
0.0
 44
0.0
 45
0.0
 46
0.0
 47
0.0
 48
0.0
 49
0.0
140
0.0
141
0.0
142
1.0
143
1.0
 70
   688
 72
     0
 73
     0
 74
     5
  7

 75
    16
147
1.0
 76
     0
 77
     2
 78
   300
148
0.0
149
0.0
100
AcDbLayout
  1
Layout2
 70
     1
 71
     2
 10
0.0
 20
0.0
 11
12.0
 21
9.0
 12
0.0
 22
0.0
 32
0.0
 14
0.0
 24
0.0
 34
0.0
 15
0.0
 25
0.0
 35
0.0
146
0.0
 13
0.0
 23
0.0
 33
0.0
 16
1.0
 26
0.0
 36
0.0
 17
0.0
 27
1.0
 37
0.0
 76
     0
330
75
  0
LAYOUT
  5
74
102
{ACAD_REACTORS
330
62
102
}
330
62
100
AcDbPlotSettings
  1

  2

  4

  6

 40
0.0
 41
0.0
 42
0.0
 43
0.0
 44
0.0
 45
0.0
 46
0.0
 47
0.0
 48
0.0
 49
0.0
140
0.0
141
0.0
142
1.0
143
1.0
 70
  1712
 72
     0
 73
     0
 74
     0
  7

 75
     0
147
1.0
 76
     0
 77
     2
 78
   300
148
0.0
149
0.0
100
AcDbLayout
  1
Model
 70
     1
 71
     0
 10
0.0
 20
0.0
 11
12.0
 21
9.0
 12
0.0
 22
0.0
 32
0.0
 14
0.0
 24
0.0
 34
0.0
 15
0.0
 25
0.0
 35
0.0
146
0.0
 13
0.0
 23
0.0
 33
0.0
 16
1.0
 26
0.0
 36
0.0
 17
0.0
 27
1.0
 37
0.0
 76
     0
330
71
  0
MATERIAL
  5
19
102
{ACAD_XDICTIONARY
360
1A
102
}
102
{ACAD_REACTORS
330
10
102
}
330
10
100
AcDbMaterial
  1
ByBlock
 72
     0
 43
0.0208333333333333
 43
0.0
 43
0.0
 43
0.0
 43
0.0
 43
0.0208333333333333
 43
0.0
 43
0.0
 43
0.0
 43
0.0
 43
1.0
 43
0.0
 43
0.0
 43
0.0
 43
0.0
 43
1.0
 77
     0
 47
0.0208333333333333
 47
0.0
 47
0.0
 47
0.0
 47
0.0
 47
0.0208333333333333
 47
0.0
 47
0.0
 47
0.0
 47
0.0
 47
1.0
 47
0.0
 47
0.0
 47
0.0
 47
0.0
 47
1.0
171
     0
 49
0.0208333333333333
 49
0.0
 49
0.0
 49
0.0
 49
0.0
 49
0.0208333333333333
 49
0.0
 49
0.0
 49
0.0
 49
0.0
 49
1.0
 49
0.0
 49
0.0
 49
0.0
 49
0.0
 49
1.0
175
     0
142
0.0208333333333333
142
0.0
142
0.0
142
0.0
142
0.0
142
0.0208333333333333
142
0.0
142
0.0
142
0.0
142
0.0
142
1.0
142
0.0
142
0.0
142
0.0
142
0.0
142
1.0
179
     0
144
0.0208333333333333
144
0.0
144
0.0
144
0.0
144
0.0
144
0.0208333333333333
144
0.0
144
0.0
144
0.0
144
0.0
144
1.0
144
0.0
144
0.0
144
0.0
144
0.0
144
1.0
147
0.0208333333333333
147
0.0
147
0.0
147
0.0
147
0.0
147
0.0208333333333333
147
0.0
147
0.0
147
0.0
147
0.0
147
1.0
147
0.0
147
0.0
147
0.0
147
0.0
147
1.0
  0
MATERIAL
  5
11
102
{ACAD_XDICTIONARY
360
12
102
}
102
{ACAD_REACTORS
330
10
102
}
330
10
100
AcDbMaterial
  1
ByLayer
 72
     0
 43
0.0208333333333333
 43
0.0
 43
0.0
 43
0.0
 43
0.0
 43
0.0208333333333333
 43
0.0
 43
0.0
 43
0.0
 43
0.0
 43
1.0
 43
0.0
 43
0.0
 43
0.0
 43
0.0
 43
1.0
 77
     0
 47
0.0208333333333333
 47
0.0
 47
0.0
 47
0.0
 47
0.0
 47
0.0208333333333333
 47
0.0
 47
0.0
 47
0.0
 47
0.0
 47
1.0
 47
0.0
 47
0.0
 47
0.0
 47
0.0
 47
1.0
171
     0
 49
0.0208333333333333
 49
0.0
 49
0.0
 49
0.0
 49
0.0
 49
0.0208333333333333
 49
0.0
 49
0.0
 49
0.0
 49
0.0
 49
1.0
 49
0.0
 49
0.0
 49
0.0
 49
0.0
 49
1.0
175
     0
142
0.0208333333333333
142
0.0
142
0.0
142
0.0
142
0.0
142
0.0208333333333333
142
0.0
142
0.0
142
0.0
142
0.0
142
1.0
142
0.0
142
0.0
142
0.0
142
0.0
142
1.0
179
     0
144
0.0208333333333333
144
0.0
144
0.0
144
0.0
144
0.0
144
0.0208333333333333
144
0.0
144
0.0
144
0.0
144
0.0
144
1.0
144
0.0
144
0.0
144
0.0
144
0.0
144
1.0
147
0.0208333333333333
147
0.0
147
0.0
147
0.0
147
0.0
147
0.0208333333333333
147
0.0
147
0.0
147
0.0
147
0.0
147
1.0
147
0.0
147
0.0
147
0.0
147
0.0
147
1.0
  0
MATERIAL
  5
21
102
{ACAD_XDICTIONARY
360
22
102
}
102
{ACAD_REACTORS
330
10
102
}
330
10
100
AcDbMaterial
  1
Global
 72
     0
 43
0.0208333333333333
 43
0.0
 43
0.0
 43
0.0
 43
0.0
 43
0.0208333333333333
 43
0.0
 43
0.0
 43
0.0
 43
0.0
 43
1.0
 43
0.0
 43
0.0
 43
0.0
 43
0.0
 43
1.0
 77
     0
 47
0.0208333333333333
 47
0.0
 47
0.0
 47
0.0
 47
0.0
 47
0.0208333333333333
 47
0.0
 47
0.0
 47
0.0
 47
0.0
 47
1.0
 47
0.0
 47
0.0
 47
0.0
 47
0.0
 47
1.0
171
     0
 49
0.0208333333333333
 49
0.0
 49
0.0
 49
0.0
 49
0.0
 49
0.0208333333333333
 49
0.0
 49
0.0
 49
0.0
 49
0.0
 49
1.0
 49
0.0
 49
0.0
 49
0.0
 49
0.0
 49
1.0
175
     0
142
0.0208333333333333
142
0.0
142
0.0
142
0.0
142
0.0
142
0.0208333333333333
142
0.0
142
0.0
142
0.0
142
0.0
142
1.0
142
0.0
142
0.0
142
0.0
142
0.0
142
1.0
179
     0
144
0.0208333333333333
144
0.0
144
0.0
144
0.0
144
0.0
144
0.0208333333333333
144
0.0
144
0.0
144
0.0
144
0.0
144
1.0
144
0.0
144
0.0
144
0.0
144
0.0
144
1.0
147
0.0208333333333333
147
0.0
147
0.0
147
0.0
147
0.0
147
0.0208333333333333
147
0.0
147
0.0
147
0.0
147
0.0
147
1.0
147
0.0
147
0.0
147
0.0
147
0.0
147
1.0
  0
MLEADERSTYLE
  5
67
102
{ACAD_REACTORS
330
66
102
}
330
66
100
AcDbMLeaderStyle
179
     2
170
     2
171
     1
172
     0
 90
        2
 40
0.0
 41
0.0
173
     1
 91
-1056964608
340
5B
 92
       -2
290
     1
 42
0.09
291
     1
 43
0.36
  3
Standard
 44
0.18
300

342
55
174
     1
178
     6
175
     1
176
     0
 93
-1056964608
 45
0.18
292
     0
297
     0
 46
0.18
 94
-1056964608
 47
1.0
 49
1.0
140
1.0
293
     1
141
0.0
294
     1
177
     0
142
1.0
295
     1
296
     0
143
0.125
271
     0
272
     9
273
     9
298
     1
  0
MLINESTYLE
  5
60
102
{ACAD_REACTORS
330
5F
102
}
330
5F
100
AcDbMlineStyle
  2
STANDARD
 70
     0
  3

 62
   256
 51
90.0
 52
90.0
 71
     2
 49
0.5
 62
   256
  6
BYLAYER
 49
-0.5
 62
   256
  6
BYLAYER
  0
ACDBPLACEHOLDER
  5
F
102
{ACAD_REACTORS
330
E
102
}
330
E
  0
SCALE
  5
43
102
{ACAD_REACTORS
330
42
102
}
330
42
100
AcDbScale
 70
     0
300
1:1
140
1.0
141
1.0
290
     1
  0
SCALE
  5
44
102
{ACAD_REACTORS
330
42
102
}
330
42
100
AcDbScale
 70
     0
300
1/128" = 1'-0"
140
0.0078125
141
12.0
290
     0
  0
SCALE
  5
45
102
{ACAD_REACTORS
330
42
102
}
330
42
100
AcDbScale
 70
     0
300
1/64" = 1'-0"
140
0.015625
141
12.0
290
     0
  0
SCALE
  5
46
102
{ACAD_REACTORS
330
42
102
}
330
42
100
AcDbScale
 70
     0
300
1/32" = 1'-0"
140
0.03125
141
12.0
290
     0
  0
SCALE
  5
47
102
{ACAD_REACTORS
330
42
102
}
330
42
100
AcDbScale
 70
     0
300
1/16" = 1'-0"
140
0.0625
141
12.0
290
     0
  0
SCALE
  5
48
102
{ACAD_REACTORS
330
42
102
}
330
42
100
AcDbScale
 70
     0
300
3/32" = 1'-0"
140
0.09375
141
12.0
290
     0
  0
SCALE
  5
49
102
{ACAD_REACTORS
330
42
102
}
330
42
100
AcDbScale
 70
     0
300
1/8" = 1'-0"
140
0.125
141
12.0
290
     0
  0
SCALE
  5
4A
102
{ACAD_REACTORS
330
42
102
}
330
42
100
AcDbScale
 70
     0
300
3/16" = 1'-0"
140
0.1875
141
12.0
290
     0
  0
SCALE
  5
4B
102
{ACAD_REACTORS
330
42
102
}
330
42
100
AcDbScale
 70
     0
300
1/4" = 1'-0"
140
0.25
141
12.0
290
     0
  0
SCALE
  5
4C
102
{ACAD_REACTORS
330
42
102
}
330
42
100
AcDbScale
 70
     0
300
3/8" = 1'-0"
140
0.375
141
12.0
290
     0
  0
SCALE
  5
4D
102
{ACAD_REACTORS
330
42
102
}
330
42
100
AcDbScale
 70
     0
300
1/2" = 1'-0"
140
0.5
141
12.0
290
     0
  0
SCALE
  5
4E
102
{ACAD_REACTORS
330
42
102
}
330
42
100
AcDbScale
 70
     0
300
3/4" = 1'-0"
140
0.75
141
12.0
290
     0
  0
SCALE
  5
4F
102
{ACAD_REACTORS
330
42
102
}
330
42
100
AcDbScale
 70
     0
300
1" = 1'-0"
140
1.0
141
12.0
290
     0
  0
SCALE
  5
50
102
{ACAD_REACTORS
330
42
102
}
330
42
100
AcDbScale
 70
     0
300
1-1/2" = 1'-0"
140
1.5
141
12.0
290
     0
  0
SCALE
  5
51
102
{ACAD_REACTORS
330
42
102
}
330
42
100
AcDbScale
 70
     0
300
3" = 1'-0"
140
3.0
141
12.0
290
     0
  0
SCALE
  5
52
102
{ACAD_REACTORS
330
42
102
}
330
42
100
AcDbScale
 70
     0
300
6" = 1'-0"
140
6.0
141
12.0
290
     0
  0
SCALE
  5
53
102
{ACAD_REACTORS
330
42
102
}
330
42
100
AcDbScale
 70
     0
300
1'-0" = 1'-0"
140
12.0
141
12.0
290
     0
  0
ACDBSECTIONVIEWSTYLE
  5
6A
102
{ACAD_REACTORS
330
68
102
}
330
68
100
AcDbModelDocViewStyle
 70
     0
  3
Imperial24
290
     1
100
AcDbSectionViewStyle
 70
     0
 71
     0
 90
       78
 71
     1
340
55
 62
   256
 40
0.24
340
0
340
0
 62
   256
 40
0.24
300
I, O, Q, S, X, Z
 40
0.48
 90
        3
 40
0.18
 90
        1
 71
     2
340
69
 90
       25
 62
   256
340
5D
 90
       50
 62
   256
 40
0.24
 40
0.0
 40
0.24
 71
     3
340
55
 62
   256
 40
0.24
 90
        1
 40
0.75
 90
        1
300
%<\AcVar ViewType \f "%tc1">% %<\AcVar ViewSectionStartId>%-%<\AcVar ViewSectionEndId>%\PSCALA %<\AcVar ViewScale \f "%sn">%
 71
     4
 62
   256
 62
   257
300
ANSI31
 40
1.0
 90
        0
290
     0
290
     0
 90
        6
 40
0.0
 40
1.570796326794896
 40
0.2617993877991494
 40
1.308996938995747
 40
-0.2617993877991494
 40
1.832595714594046
  0
TABLESTYLE
  5
65
102
{ACAD_XDICTIONARY
360
2A6
102
}
102
{ACAD_REACTORS
330
64
102
}
330
64
100
AcDbTableStyle
280
     0
  3
Standard
 70
     0
 71
     0
 40
0.06
 41
0.06
280
     0
281
     0
  7
Standard
140
0.18
170
     2
 62
     0
 63
     7
283
     0
 90
      512
 91
        0
  1

274
    -2
284
     1
 64
     0
275
    -2
285
     1
 65
     0
276
    -2
286
     1
 66
     0
277
    -2
287
     1
 67
     0
278
    -2
288
     1
 68
     0
279
    -2
289
     1
 69
     0
  7
Standard
140
0.25
170
     5
 62
     0
 63
     7
283
     0
 90
      512
 91
        0
  1

274
    -2
284
     1
 64
     0
275
    -2
285
     1
 65
     0
276
    -2
286
     1
 66
     0
277
    -2
287
     1
 67
     0
278
    -2
288
     1
 68
     0
279
    -2
289
     1
 69
     0
  7
Standard
140
0.18
170
     5
 62
     0
 63
     7
283
     0
 90
      512
 91
        0
  1

274
    -2
284
     1
 64
     0
275
    -2
285
     1
 65
     0
276
    -2
286
     1
 66
     0
277
    -2
287
     1
 67
     0
278
    -2
288
     1
 68
     0
279
    -2
289
     1
 69
     0
  0
VISUALSTYLE
  5
2F
102
{ACAD_REACTORS
330
29
102
}
330
29
100
AcDbVisualStyle
  2
2dWireframe
 70
     4
177
     3
291
     0
 70
    58
 90
        0
176
     1
 90
        2
176
     1
 90
        0
176
     1
 90
        0
176
     1
 40
0.6
176
     1
 40
30.0
176
     1
 62
     7
420
 16777215
176
     1
 90
        1
176
     1
 90
        4
176
     1
 62
     7
176
     1
 62
   257
176
     1
 90
        1
176
     1
 90
        1
176
     1
 40
1.0
176
     1
 90
        0
176
     1
 62
   257
176
     1
 40
1.0
176
     1
 90
        1
176
     1
 90
        6
176
     1
 90
        2
176
     1
 62
     7
176
     1
 90
        5
176
     1
 90
        0
176
     1
 90
        0
176
     1
290
     0
176
     1
 90
        1
176
     1
 40
0.0
176
     1
 90
        0
176
     1
290
     1
176
     1
290
     1
176
     1
290
     0
176
     1
290
     0
176
     1
290
     0
176
     1
290
     0
176
     1
290
     0
176
     1
290
     0
176
     1
290
     0
176
     1
 90
       50
176
     1
 40
0.0
176
     1
 40
1.0
176
     1
 90
        0
176
     1
 62
    18
420
        0
176
     1
 90
       50
176
     1
 90
        3
176
     1
 62
     5
420
      255
176
     1
290
     0
176
     1
 90
       50
176
     1
 90
       50
176
     1
 90
       50
176
     1
290
     0
176
     1
 90
       50
176
     1
 62
   256
176
     0
 40
1.0
176
     0
 90
        2
176
     1
  1
strokes_ogs.tif
176
     1
290
     0
176
     1
 40
1.0
176
     1
 40
1.0
176
     1
  0
VISUALSTYLE
  5
2E
102
{ACAD_REACTORS
330
29
102
}
330
29
100
AcDbVisualStyle
  2
Basic
 70
     7
177
     3
291
     1
 70
    58
 90
        1
176
     1
 90
        0
176
     1
 90
        1
176
     1
 90
        0
176
     1
 40
0.6
176
     1
 40
30.0
176
     1
 62
     7
420
 16777215
176
     1
 90
        0
176
     1
 90
        4
176
     1
 62
     7
176
     1
 62
   257
176
     1
 90
        1
176
     1
 90
        1
176
     1
 40
1.0
176
     1
 90
        8
176
     1
 62
     7
176
     1
 40
1.0
176
     1
 90
        1
176
     1
 90
        6
176
     1
 90
        2
176
     1
 62
     7
176
     1
 90
        5
176
     1
 90
        0
176
     1
 90
        0
176
     1
290
     0
176
     1
 90
        1
176
     1
 40
0.0
176
     1
 90
        0
176
     1
290
     0
176
     1
290
     1
176
     1
290
     1
176
     1
290
     0
176
     1
290
     0
176
     1
290
     0
176
     1
290
     0
176
     1
290
     0
176
     1
290
     0
176
     1
 90
       50
176
     1
 40
0.0
176
     1
 40
1.0
176
     1
 90
        0
176
     1
 62
    18
420
        0
176
     1
 90
       50
176
     1
 90
        3
176
     1
 62
     5
420
      255
176
     1
290
     0
176
     1
 90
       50
176
     1
 90
       50
176
     1
 90
       50
176
     1
290
     0
176
     1
 90
       50
176
     1
 62
   256
176
     0
 40
1.0
176
     0
 90
        2
176
     1
  1
strokes_ogs.tif
176
     1
290
     0
176
     1
 40
1.0
176
     1
 40
1.0
176
     1
  0
VISUALSTYLE
  5
35
102
{ACAD_REACTORS
330
29
102
}
330
29
100
AcDbVisualStyle
  2
Brighten
 70
    12
177
     3
291
     1
 70
    58
 90
        2
176
     1
 90
        2
176
     1
 90
        0
176
     1
 90
        0
176
     1
 40
0.6
176
     1
 40
30.0
176
     1
 62
     7
420
 16777215
176
     1
 90
        1
176
     1
 90
        4
176
     1
 62
     7
176
     1
 62
   257
176
     1
 90
        1
176
     1
 90
        1
176
     1
 40
1.0
176
     1
 90
        8
176
     1
 62
     7
176
     1
 40
1.0
176
     1
 90
        1
176
     1
 90
        6
176
     1
 90
        2
176
     1
 62
     7
176
     1
 90
        5
176
     1
 90
        0
176
     1
 90
        0
176
     1
290
     0
176
     1
 90
        1
176
     1
 40
50.0
176
     1
 90
        0
176
     1
290
     0
176
     1
290
     1
176
     1
290
     1
176
     1
290
     0
176
     1
290
     0
176
     1
290
     0
176
     1
290
     0
176
     1
290
     0
176
     1
290
     0
176
     1
 90
       50
176
     1
 40
0.0
176
     1
 40
1.0
176
     1
 90
        0
176
     1
 62
    18
420
        0
176
     1
 90
       50
176
     1
 90
        3
176
     1
 62
     5
420
      255
176
     1
290
     0
176
     1
 90
       50
176
     1
 90
       50
176
     1
 90
       50
176
     1
290
     0
176
     1
 90
       50
176
     1
 62
   256
176
     0
 40
1.0
176
     0
 90
        2
176
     1
  1
strokes_ogs.tif
176
     1
290
     0
176
     1
 40
1.0
176
     1
 40
1.0
176
     1
  0
VISUALSTYLE
  5
39
102
{ACAD_REACTORS
330
29
102
}
330
29
100
AcDbVisualStyle
  2
ColorChange
 70
    16
177
     3
291
     1
 70
    58
 90
        2
176
     1
 90
        2
176
     1
 90
        3
176
     1
 90
        0
176
     1
 40
0.6
176
     1
 40
30.0
176
     1
 62
     8
420
  8421504
176
     1
 90
        1
176
     1
 90
        4
176
     1
 62
     7
176
     1
 62
   257
176
     1
 90
        1
176
     1
 90
        1
176
     1
 40
1.0
176
     1
 90
        8
176
     1
 62
     8
420
  8421504
176
     1
 40
1.0
176
     1
 90
        1
176
     1
 90
        6
176
     1
 90
        2
176
     1
 62
     7
176
     1
 90
        5
176
     1
 90
        0
176
     1
 90
        0
176
     1
290
     0
176
     1
 90
        1
176
     1
 40
0.0
176
     1
 90
        0
176
     1
290
     0
176
     1
290
     1
176
     1
290
     1
176
     1
290
     0
176
     1
290
     0
176
     1
290
     0
176
     1
290
     0
176
     1
290
     0
176
     1
290
     0
176
     1
 90
       50
176
     1
 40
0.0
176
     1
 40
1.0
176
     1
 90
        0
176
     1
 62
    18
420
        0
176
     1
 90
       50
176
     1
 90
        3
176
     1
 62
     5
420
      255
176
     1
290
     0
176
     1
 90
       50
176
     1
 90
       50
176
     1
 90
       50
176
     1
290
     0
176
     1
 90
       50
176
     1
 62
   256
176
     0
 40
1.0
176
     0
 90
        2
176
     1
  1
strokes_ogs.tif
176
     1
290
     0
176
     1
 40
1.0
176
     1
 40
1.0
176
     1
  0
VISUALSTYLE
  5
32
102
{ACAD_REACTORS
330
29
102
}
330
29
100
AcDbVisualStyle
  2
Conceptual
 70
     9
177
     3
291
     0
 70
    58
 90
        3
176
     1
 90
        2
176
     1
 90
        0
176
     1
 90
        0
176
     1
 40
0.6
176
     1
 40
30.0
176
     1
 62
     7
420
 16777215
176
     1
 90
        2
176
     1
 90
        2
176
     1
 62
     7
176
     1
 62
   257
176
     1
 90
        1
176
     1
 90
        1
176
     1
 40
179.0
176
     1
 90
        8
176
     1
 62
     7
176
     1
 40
1.0
176
     1
 90
        1
176
     1
 90
        6
176
     1
 90
        2
176
     1
 62
     7
176
     1
 90
        3
176
     1
 90
        0
176
     1
 90
        0
176
     1
290
     0
176
     1
 90
        1
176
     1
 40
0.0
176
     1
 90
        0
176
     1
290
     0
176
     1
290
     1
176
     1
290
     1
176
     1
290
     0
176
     1
290
     0
176
     1
290
     0
176
     1
290
     0
176
     1
290
     0
176
     1
290
     0
176
     1
 90
       50
176
     1
 40
0.0
176
     1
 40
1.0
176
     1
 90
        0
176
     1
 62
    18
420
        0
176
     1
 90
       50
176
     1
 90
        3
176
     1
 62
     5
420
      255
176
     1
290
     0
176
     1
 90
       50
176
     1
 90
       50
176
     1
 90
       50
176
     1
290
     0
176
     1
 90
       50
176
     1
 62
   256
176
     0
 40
1.0
176
     0
 90
        2
176
     1
  1
strokes_ogs.tif
176
     1
290
     0
176
     1
 40
1.0
176
     1
 40
1.0
176
     1
  0
VISUALSTYLE
  5
34
102
{ACAD_REACTORS
330
29
102
}
330
29
100
AcDbVisualStyle
  2
Dim
 70
    11
177
     3
291
     1
 70
    58
 90
        2
176
     1
 90
        2
176
     1
 90
        0
176
     1
 90
        0
176
     1
 40
0.6
176
     1
 40
30.0
176
     1
 62
     7
420
 16777215
176
     1
 90
        1
176
     1
 90
        4
176
     1
 62
     7
176
     1
 62
   257
176
     1
 90
        1
176
     1
 90
        1
176
     1
 40
1.0
176
     1
 90
        8
176
     1
 62
     7
176
     1
 40
1.0
176
     1
 90
        1
176
     1
 90
        6
176
     1
 90
        2
176
     1
 62
     7
176
     1
 90
        5
176
     1
 90
        0
176
     1
 90
        0
176
     1
290
     0
176
     1
 90
        1
176
     1
 40
-50.0
176
     1
 90
        0
176
     1
290
     0
176
     1
290
     1
176
     1
290
     1
176
     1
290
     0
176
     1
290
     0
176
     1
290
     0
176
     1
290
     0
176
     1
290
     0
176
     1
290
     0
176
     1
 90
       50
176
     1
 40
0.0
176
     1
 40
1.0
176
     1
 90
        0
176
     1
 62
    18
420
        0
176
     1
 90
       50
176
     1
 90
        3
176
     1
 62
     5
420
      255
176
     1
290
     0
176
     1
 90
       50
176
     1
 90
       50
176
     1
 90
       50
176
     1
290
     0
176
     1
 90
       50
176
     1
 62
   256
176
     0
 40
1.0
176
     0
 90
        2
176
     1
  1
strokes_ogs.tif
176
     1
290
     0
176
     1
 40
1.0
176
     1
 40
1.0
176
     1
  0
VISUALSTYLE
  5
41
102
{ACAD_REACTORS
330
29
102
}
330
29
100
AcDbVisualStyle
  2
EdgeColorOff
 70
    22
177
     3
291
     1
 70
    58
 90
        2
176
     0
 90
        2
176
     0
 90
        0
176
     0
 90
        0
176
     0
 40
0.6
176
     0
 40
30.0
176
     0
 62
     7
420
 16777215
176
     0
 90
        1
176
     0
 90
        4
176
     0
 62
     7
176
     0
 62
   257
176
     0
 90
        1
176
     0
 90
        1
176
     0
 40
1.0
176
     0
 90
        8
176
     2
 62
     7
176
     0
 40
1.0
176
     0
 90
        1
176
     0
 90
        6
176
     0
 90
        2
176
     0
 62
     7
176
     0
 90
        5
176
     0
 90
        0
176
     0
 90
        0
176
     0
290
     0
176
     0
 90
        1
176
     0
 40
0.0
176
     0
 90
        0
176
     0
290
     0
176
     0
290
     1
176
     0
290
     1
176
     0
290
     0
176
     0
290
     0
176
     0
290
     0
176
     0
290
     0
176
     0
290
     0
176
     0
290
     0
176
     0
 90
       50
176
     0
 40
0.0
176
     0
 40
1.0
176
     0
 90
        0
176
     0
 62
    18
420
        0
176
     0
 90
       50
176
     0
 90
        3
176
     0
 62
     5
420
      255
176
     0
290
     0
176
     0
 90
       50
176
     0
 90
       50
176
     0
 90
       50
176
     0
290
     0
176
     0
 90
       50
176
     0
 62
   256
176
     0
 40
1.0
176
     0
 90
        2
176
     0
  1
strokes_ogs.tif
176
     0
290
     0
176
     0
 40
1.0
176
     0
 40
1.0
176
     0
  0
VISUALSTYLE
  5
38
102
{ACAD_REACTORS
330
29
102
}
330
29
100
AcDbVisualStyle
  2
Facepattern
 70
    15
177
     3
291
     1
 70
    58
 90
        2
176
     1
 90
        2
176
     1
 90
        0
176
     1
 90
        0
176
     1
 40
0.6
176
     1
 40
30.0
176
     1
 62
     7
420
 16777215
176
     1
 90
        1
176
     1
 90
        4
176
     1
 62
     7
176
     1
 62
   257
176
     1
 90
        1
176
     1
 90
        1
176
     1
 40
1.0
176
     1
 90
        8
176
     1
 62
     7
176
     1
 40
1.0
176
     1
 90
        1
176
     1
 90
        6
176
     1
 90
        2
176
     1
 62
     7
176
     1
 90
        5
176
     1
 90
        0
176
     1
 90
        0
176
     1
290
     0
176
     1
 90
        1
176
     1
 40
0.0
176
     1
 90
        0
176
     1
290
     0
176
     1
290
     1
176
     1
290
     1
176
     1
290
     0
176
     1
290
     0
176
     1
290
     0
176
     1
290
     0
176
     1
290
     0
176
     1
290
     0
176
     1
 90
       50
176
     1
 40
0.0
176
     1
 40
1.0
176
     1
 90
        0
176
     1
 62
    18
420
        0
176
     1
 90
       50
176
     1
 90
        3
176
     1
 62
     5
420
      255
176
     1
290
     0
176
     1
 90
       50
176
     1
 90
       50
176
     1
 90
       50
176
     1
290
     0
176
     1
 90
       50
176
     1
 62
   256
176
     0
 40
1.0
176
     0
 90
        2
176
     1
  1
strokes_ogs.tif
176
     1
290
     0
176
     1
 40
1.0
176
     1
 40
1.0
176
     1
  0
VISUALSTYLE
  5
2A
102
{ACAD_REACTORS
330
29
102
}
330
29
100
AcDbVisualStyle
  2
Flat
 70
     0
177
     3
291
     1
 70
    58
 90
        2
176
     1
 90
        1
176
     1
 90
        1
176
     1
 90
        2
176
     1
 40
0.6
176
     1
 40
30.0
176
     1
 62
     7
420
 16777215
176
     1
 90
        0
176
     1
 90
        0
176
     1
 62
     7
176
     1
 62
   257
176
     1
 90
        1
176
     1
 90
        1
176
     1
 40
1.0
176
     1
 90
        8
176
     1
 62
     7
176
     1
 40
1.0
176
     1
 90
        1
176
     1
 90
        6
176
     1
 90
        2
176
     1
 62
     7
176
     1
 90
        5
176
     1
 90
        0
176
     1
 90
        0
176
     1
290
     0
176
     1
 90
       13
176
     1
 40
0.0
176
     1
 90
        0
176
     1
290
     0
176
     1
290
     1
176
     1
290
     1
176
     1
290
     0
176
     1
290
     0
176
     1
290
     0
176
     1
290
     0
176
     1
290
     0
176
     1
290
     0
176
     1
 90
       50
176
     1
 40
0.0
176
     1
 40
1.0
176
     1
 90
        0
176
     1
 62
    18
420
        0
176
     1
 90
       50
176
     1
 90
        3
176
     1
 62
     5
420
      255
176
     1
290
     0
176
     1
 90
       50
176
     1
 90
       50
176
     1
 90
       50
176
     1
290
     0
176
     1
 90
       50
176
     1
 62
   256
176
     0
 40
1.0
176
     0
 90
        2
176
     1
  1
strokes_ogs.tif
176
     1
290
     0
176
     1
 40
1.0
176
     1
 40
1.0
176
     1
  0
VISUALSTYLE
  5
2B
102
{ACAD_REACTORS
330
29
102
}
330
29
100
AcDbVisualStyle
  2
FlatWithEdges
 70
     1
177
     3
291
     1
 70
    58
 90
        2
176
     1
 90
        1
176
     1
 90
        1
176
     1
 90
        2
176
     1
 40
0.6
176
     1
 40
30.0
176
     1
 62
     7
420
 16777215
176
     1
 90
        1
176
     1
 90
        0
176
     1
 62
     7
176
     1
 62
   257
176
     1
 90
        1
176
     1
 90
        1
176
     1
 40
1.0
176
     1
 90
        0
176
     1
 62
   257
176
     1
 40
1.0
176
     1
 90
        1
176
     1
 90
        6
176
     1
 90
        2
176
     1
 62
     7
176
     1
 90
        5
176
     1
 90
        0
176
     1
 90
        0
176
     1
290
     0
176
     1
 90
       13
176
     1
 40
0.0
176
     1
 90
        0
176
     1
290
     0
176
     1
290
     1
176
     1
290
     1
176
     1
290
     0
176
     1
290
     0
176
     1
290
     0
176
     1
290
     0
176
     1
290
     0
176
     1
290
     0
176
     1
 90
       50
176
     1
 40
0.0
176
     1
 40
1.0
176
     1
 90
        0
176
     1
 62
    18
420
        0
176
     1
 90
       50
176
     1
 90
        3
176
     1
 62
     5
420
      255
176
     1
290
     0
176
     1
 90
       50
176
     1
 90
       50
176
     1
 90
       50
176
     1
290
     0
176
     1
 90
       50
176
     1
 62
   256
176
     0
 40
1.0
176
     0
 90
        2
176
     1
  1
strokes_ogs.tif
176
     1
290
     0
176
     1
 40
1.0
176
     1
 40
1.0
176
     1
  0
VISUALSTYLE
  5
2C
102
{ACAD_REACTORS
330
29
102
}
330
29
100
AcDbVisualStyle
  2
Gouraud
 70
     2
177
     3
291
     1
 70
    58
 90
        2
176
     1
 90
        2
176
     1
 90
        1
176
     1
 90
        2
176
     1
 40
0.6
176
     1
 40
30.0
176
     1
 62
     7
420
 16777215
176
     1
 90
        0
176
     1
 90
        0
176
     1
 62
     7
176
     1
 62
   257
176
     1
 90
        1
176
     1
 90
        1
176
     1
 40
1.0
176
     1
 90
        0
176
     1
 62
     7
176
     1
 40
1.0
176
     1
 90
        1
176
     1
 90
        6
176
     1
 90
        2
176
     1
 62
     7
176
     1
 90
        5
176
     1
 90
        0
176
     1
 90
        0
176
     1
290
     0
176
     1
 90
       13
176
     1
 40
0.0
176
     1
 90
        0
176
     1
290
     0
176
     1
290
     1
176
     1
290
     1
176
     1
290
     0
176
     1
290
     0
176
     1
290
     0
176
     1
290
     0
176
     1
290
     0
176
     1
290
     0
176
     1
 90
       50
176
     1
 40
0.0
176
     1
 40
1.0
176
     1
 90
        0
176
     1
 62
    18
420
        0
176
     1
 90
       50
176
     1
 90
        3
176
     1
 62
     5
420
      255
176
     1
290
     0
176
     1
 90
       50
176
     1
 90
       50
176
     1
 90
       50
176
     1
290
     0
176
     1
 90
       50
176
     1
 62
   256
176
     0
 40
1.0
176
     0
 90
        2
176
     1
  1
strokes_ogs.tif
176
     1
290
     0
176
     1
 40
1.0
176
     1
 40
1.0
176
     1
  0
VISUALSTYLE
  5
2D
102
{ACAD_REACTORS
330
29
102
}
330
29
100
AcDbVisualStyle
  2
GouraudWithEdges
 70
     3
177
     3
291
     1
 70
    58
 90
        2
176
     1
 90
        2
176
     1
 90
        1
176
     1
 90
        2
176
     1
 40
0.6
176
     1
 40
30.0
176
     1
 62
     7
420
 16777215
176
     1
 90
        1
176
     1
 90
        0
176
     1
 62
     7
176
     1
 62
   257
176
     1
 90
        1
176
     1
 90
        1
176
     1
 40
1.0
176
     1
 90
        0
176
     1
 62
   257
176
     1
 40
1.0
176
     1
 90
        1
176
     1
 90
        6
176
     1
 90
        2
176
     1
 62
     7
176
     1
 90
        5
176
     1
 90
        0
176
     1
 90
        0
176
     1
290
     0
176
     1
 90
       13
176
     1
 40
0.0
176
     1
 90
        0
176
     1
290
     0
176
     1
290
     1
176
     1
290
     1
176
     1
290
     0
176
     1
290
     0
176
     1
290
     0
176
     1
290
     0
176
     1
290
     0
176
     1
290
     0
176
     1
 90
       50
176
     1
 40
0.0
176
     1
 40
1.0
176
     1
 90
        0
176
     1
 62
    18
420
        0
176
     1
 90
       50
176
     1
 90
        3
176
     1
 62
     5
420
      255
176
     1
290
     0
176
     1
 90
       50
176
     1
 90
       50
176
     1
 90
       50
176
     1
290
     0
176
     1
 90
       50
176
     1
 62
   256
176
     0
 40
1.0
176
     0
 90
        2
176
     1
  1
strokes_ogs.tif
176
     1
290
     0
176
     1
 40
1.0
176
     1
 40
1.0
176
     1
  0
VISUALSTYLE
  5
31
102
{ACAD_REACTORS
330
29
102
}
330
29
100
AcDbVisualStyle
  2
Hidden
 70
     6
177
     3
291
     0
 70
    58
 90
        1
176
     1
 90
        2
176
     1
 90
        2
176
     1
 90
        0
176
     1
 40
0.6
176
     1
 40
30.0
176
     1
 62
     7
420
 16777215
176
     1
 90
        2
176
     1
 90
        2
176
     1
 62
     7
176
     1
 62
   257
176
     1
 90
        2
176
     1
 90
        1
176
     1
 40
40.0
176
     1
 90
        0
176
     1
 62
   257
176
     1
 40
1.0
176
     1
 90
        1
176
     1
 90
        6
176
     1
 90
        2
176
     1
 62
     7
176
     1
 90
        3
176
     1
 90
        0
176
     1
 90
        0
176
     1
290
     0
176
     1
 90
        1
176
     1
 40
0.0
176
     1
 90
        0
176
     1
290
     0
176
     1
290
     1
176
     1
290
     1
176
     1
290
     0
176
     1
290
     0
176
     1
290
     0
176
     1
290
     0
176
     1
290
     0
176
     1
290
     0
176
     1
 90
       50
176
     1
 40
0.0
176
     1
 40
1.0
176
     1
 90
        0
176
     1
 62
    18
420
        0
176
     1
 90
       50
176
     1
 90
        3
176
     1
 62
     5
420
      255
176
     1
290
     0
176
     1
 90
       50
176
     1
 90
       50
176
     1
 90
       50
176
     1
290
     0
176
     1
 90
       50
176
     1
 62
   256
176
     0
 40
1.0
176
     0
 90
        2
176
     1
  1
strokes_ogs.tif
176
     1
290
     0
176
     1
 40
1.0
176
     1
 40
1.0
176
     1
  0
VISUALSTYLE
  5
3F
102
{ACAD_REACTORS
330
29
102
}
330
29
100
AcDbVisualStyle
  2
JitterOff
 70
    20
177
     3
291
     1
 70
    58
 90
        2
176
     0
 90
        2
176
     0
 90
        0
176
     0
 90
        0
176
     0
 40
0.6
176
     0
 40
30.0
176
     0
 62
     7
420
 16777215
176
     0
 90
        1
176
     0
 90
        4
176
     0
 62
     7
176
     0
 62
   257
176
     0
 90
        1
176
     0
 90
        1
176
     0
 40
1.0
176
     0
 90
       10
176
     2
 62
     7
176
     0
 40
1.0
176
     0
 90
        1
176
     0
 90
        6
176
     0
 90
        2
176
     0
 62
     7
176
     0
 90
        5
176
     0
 90
        0
176
     0
 90
        0
176
     0
290
     0
176
     0
 90
        1
176
     0
 40
0.0
176
     0
 90
        0
176
     0
290
     0
176
     0
290
     1
176
     0
290
     1
176
     0
290
     0
176
     0
290
     0
176
     0
290
     0
176
     0
290
     0
176
     0
290
     0
176
     0
290
     0
176
     0
 90
       50
176
     0
 40
0.0
176
     0
 40
1.0
176
     0
 90
        0
176
     0
 62
    18
420
        0
176
     0
 90
       50
176
     0
 90
        3
176
     0
 62
     5
420
      255
176
     0
290
     0
176
     0
 90
       50
176
     0
 90
       50
176
     0
 90
       50
176
     0
290
     0
176
     0
 90
       50
176
     0
 62
   256
176
     0
 40
1.0
176
     0
 90
        2
176
     0
  1
strokes_ogs.tif
176
     0
290
     0
176
     0
 40
1.0
176
     0
 40
1.0
176
     0
  0
VISUALSTYLE
  5
37
102
{ACAD_REACTORS
330
29
102
}
330
29
100
AcDbVisualStyle
  2
Linepattern
 70
    14
177
     3
291
     1
 70
    58
 90
        2
176
     1
 90
        2
176
     1
 90
        0
176
     1
 90
        0
176
     1
 40
0.6
176
     1
 40
30.0
176
     1
 62
     7
420
 16777215
176
     1
 90
        1
176
     1
 90
        4
176
     1
 62
     7
176
     1
 62
   257
176
     1
 90
        7
176
     1
 90
        7
176
     1
 40
1.0
176
     1
 90
        8
176
     1
 62
     7
176
     1
 40
1.0
176
     1
 90
        1
176
     1
 90
        6
176
     1
 90
        2
176
     1
 62
     7
176
     1
 90
        5
176
     1
 90
        0
176
     1
 90
        0
176
     1
290
     0
176
     1
 90
        1
176
     1
 40
0.0
176
     1
 90
        0
176
     1
290
     0
176
     1
290
     1
176
     1
290
     1
176
     1
290
     0
176
     1
290
     0
176
     1
290
     0
176
     1
290
     0
176
     1
290
     0
176
     1
290
     0
176
     1
 90
       50
176
     1
 40
0.0
176
     1
 40
1.0
176
     1
 90
        0
176
     1
 62
    18
420
        0
176
     1
 90
       50
176
     1
 90
        3
176
     1
 62
     5
420
      255
176
     1
290
     0
176
     1
 90
       50
176
     1
 90
       50
176
     1
 90
       50
176
     1
290
     0
176
     1
 90
       50
176
     1
 62
   256
176
     0
 40
1.0
176
     0
 90
        2
176
     1
  1
strokes_ogs.tif
176
     1
290
     0
176
     1
 40
1.0
176
     1
 40
1.0
176
     1
  0
VISUALSTYLE
  5
40
102
{ACAD_REACTORS
330
29
102
}
330
29
100
AcDbVisualStyle
  2
OverhangOff
 70
    21
177
     3
291
     1
 70
    58
 90
        2
176
     0
 90
        2
176
     0
 90
        0
176
     0
 90
        0
176
     0
 40
0.6
176
     0
 40
30.0
176
     0
 62
     7
420
 16777215
176
     0
 90
        1
176
     0
 90
        4
176
     0
 62
     7
176
     0
 62
   257
176
     0
 90
        1
176
     0
 90
        1
176
     0
 40
1.0
176
     0
 90
        9
176
     2
 62
     7
176
     0
 40
1.0
176
     0
 90
        1
176
     0
 90
        6
176
     0
 90
        2
176
     0
 62
     7
176
     0
 90
        5
176
     0
 90
        0
176
     0
 90
        0
176
     0
290
     0
176
     0
 90
        1
176
     0
 40
0.0
176
     0
 90
        0
176
     0
290
     0
176
     0
290
     1
176
     0
290
     1
176
     0
290
     0
176
     0
290
     0
176
     0
290
     0
176
     0
290
     0
176
     0
290
     0
176
     0
290
     0
176
     0
 90
       50
176
     0
 40
0.0
176
     0
 40
1.0
176
     0
 90
        0
176
     0
 62
    18
420
        0
176
     0
 90
       50
176
     0
 90
        3
176
     0
 62
     5
420
      255
176
     0
290
     0
176
     0
 90
       50
176
     0
 90
       50
176
     0
 90
       50
176
     0
290
     0
176
     0
 90
       50
176
     0
 62
   256
176
     0
 40
1.0
176
     0
 90
        2
176
     0
  1
strokes_ogs.tif
176
     0
290
     0
176
     0
 40
1.0
176
     0
 40
1.0
176
     0
  0
VISUALSTYLE
  5
33
102
{ACAD_REACTORS
330
29
102
}
330
29
100
AcDbVisualStyle
  2
Realistic
 70
     8
177
     3
291
     0
 70
    58
 90
        2
176
     1
 90
        3
176
     1
 90
        0
176
     1
 90
        2
176
     1
 40
0.6
176
     1
 40
30.0
176
     1
 62
     7
420
 16777215
176
     1
 90
        0
176
     1
 90
        0
176
     1
 62
     7
176
     1
 62
   257
176
     1
 90
        1
176
     1
 90
        1
176
     1
 40
1.0
176
     1
 90
        8
176
     1
 62
   257
176
     1
 40
1.0
176
     1
 90
        1
176
     1
 90
        6
176
     1
 90
        2
176
     1
 62
     7
176
     1
 90
        3
176
     1
 90
        0
176
     1
 90
        0
176
     1
290
     0
176
     1
 90
       13
176
     1
 40
0.0
176
     1
 90
        0
176
     1
290
     0
176
     1
290
     1
176
     1
290
     1
176
     1
290
     0
176
     1
290
     0
176
     1
290
     0
176
     1
290
     0
176
     1
290
     0
176
     1
290
     0
176
     1
 90
       50
176
     1
 40
0.0
176
     1
 40
1.0
176
     1
 90
        0
176
     1
 62
    18
420
        0
176
     1
 90
       50
176
     1
 90
        3
176
     1
 62
     5
420
      255
176
     1
290
     0
176
     1
 90
       50
176
     1
 90
       50
176
     1
 90
       50
176
     1
290
     0
176
     1
 90
       50
176
     1
 62
   256
176
     0
 40
1.0
176
     0
 90
        2
176
     1
  1
strokes_ogs.tif
176
     1
290
     0
176
     1
 40
1.0
176
     1
 40
1.0
176
     1
  0
VISUALSTYLE
  5
3E
102
{ACAD_REACTORS
330
29
102
}
330
29
100
AcDbVisualStyle
  2
Shaded
 70
    27
177
     3
291
     0
 70
    58
 90
        2
176
     1
 90
        2
176
     1
 90
        1
176
     1
 90
        2
176
     1
 40
0.6
176
     1
 40
30.0
176
     1
 62
     7
420
 16777215
176
     1
 90
        0
176
     1
 90
        4
176
     1
 62
     7
176
     1
 62
   257
176
     1
 90
        1
176
     1
 90
        1
176
     1
 40
1.0
176
     1
 90
        8
176
     1
 62
   257
176
     1
 40
1.0
176
     1
 90
        1
176
     1
 90
        6
176
     1
 90
        2
176
     1
 62
     8
420
  7895160
176
     1
 90
        3
176
     1
 90
        0
176
     1
 90
        0
176
     1
290
     0
176
     1
 90
        5
176
     1
 40
0.0
176
     1
 90
        0
176
     1
290
     0
176
     1
290
     1
176
     1
290
     1
176
     1
290
     0
176
     1
290
     0
176
     1
290
     0
176
     1
290
     0
176
     1
290
     0
176
     1
290
     0
176
     1
 90
       50
176
     1
 40
0.0
176
     1
 40
1.0
176
     1
 90
        0
176
     1
 62
    18
420
        0
176
     1
 90
       50
176
     1
 90
        3
176
     1
 62
     5
420
      255
176
     1
290
     0
176
     1
 90
       50
176
     1
 90
       50
176
     1
 90
       50
176
     1
290
     0
176
     1
 90
       50
176
     1
 62
   256
176
     0
 40
1.0
176
     0
 90
        2
176
     1
  1
strokes_ogs.tif
176
     1
290
     0
176
     1
 40
1.0
176
     1
 40
1.0
176
     1
  0
VISUALSTYLE
  5
3D
102
{ACAD_REACTORS
330
29
102
}
330
29
100
AcDbVisualStyle
  2
Shaded with edges
 70
    26
177
     3
291
     0
 70
    58
 90
        2
176
     1
 90
        2
176
     1
 90
        1
176
     1
 90
        2
176
     1
 40
0.6
176
     1
 40
30.0
176
     1
 62
     7
420
 16777215
176
     1
 90
        1
176
     1
 90
       10
176
     1
 62
     7
176
     1
 62
   257
176
     1
 90
        2
176
     1
 90
        1
176
     1
 40
1.0
176
     1
 90
        8
176
     1
 62
   257
176
     1
 40
1.0
176
     1
 90
        1
176
     1
 90
        6
176
     1
 90
        2
176
     1
 62
     7
176
     1
 90
        3
176
     1
 90
        0
176
     1
 90
        0
176
     1
290
     0
176
     1
 90
        5
176
     1
 40
0.0
176
     1
 90
        0
176
     1
290
     0
176
     1
290
     1
176
     1
290
     1
176
     1
290
     0
176
     1
290
     0
176
     1
290
     0
176
     1
290
     0
176
     1
290
     0
176
     1
290
     0
176
     1
 90
       50
176
     1
 40
0.0
176
     1
 40
1.0
176
     1
 90
        0
176
     1
 62
    18
420
        0
176
     1
 90
       50
176
     1
 90
        3
176
     1
 62
     5
420
      255
176
     1
290
     0
176
     1
 90
       50
176
     1
 90
       50
176
     1
 90
       50
176
     1
290
     0
176
     1
 90
       50
176
     1
 62
   256
176
     0
 40
1.0
176
     0
 90
        2
176
     1
  1
strokes_ogs.tif
176
     1
290
     0
176
     1
 40
1.0
176
     1
 40
1.0
176
     1
  0
VISUALSTYLE
  5
3A
102
{ACAD_REACTORS
330
29
102
}
330
29
100
AcDbVisualStyle
  2
Shades of Gray
 70
    23
177
     3
291
     0
 70
    58
 90
        2
176
     1
 90
        2
176
     1
 90
        3
176
     1
 90
        0
176
     1
 40
0.6
176
     1
 40
30.0
176
     1
 62
     7
420
 16777215
176
     1
 90
        2
176
     1
 90
        2
176
     1
 62
     7
176
     1
 62
     7
176
     1
 90
        1
176
     1
 90
        1
176
     1
 40
40.0
176
     1
 90
        8
176
     1
 62
     7
176
     1
 40
1.0
176
     1
 90
        1
176
     1
 90
        6
176
     1
 90
        2
176
     1
 62
     7
176
     1
 90
        3
176
     1
 90
        0
176
     1
 90
        0
176
     1
290
     0
176
     1
 90
        1
176
     1
 40
0.0
176
     1
 90
        0
176
     1
290
     0
176
     1
290
     1
176
     1
290
     1
176
     1
290
     0
176
     1
290
     0
176
     1
290
     0
176
     1
290
     0
176
     1
290
     0
176
     1
290
     0
176
     1
 90
       50
176
     1
 40
0.0
176
     1
 40
1.0
176
     1
 90
        0
176
     1
 62
    18
420
        0
176
     1
 90
       50
176
     1
 90
        3
176
     1
 62
     5
420
      255
176
     1
290
     0
176
     1
 90
       50
176
     1
 90
       50
176
     1
 90
       50
176
     1
290
     0
176
     1
 90
       50
176
     1
 62
   256
176
     0
 40
1.0
176
     0
 90
        2
176
     1
  1
strokes_ogs.tif
176
     1
290
     0
176
     1
 40
1.0
176
     1
 40
1.0
176
     1
  0
VISUALSTYLE
  5
3B
102
{ACAD_REACTORS
330
29
102
}
330
29
100
AcDbVisualStyle
  2
Sketchy
 70
    24
177
     3
291
     0
 70
    58
 90
        1
176
     1
 90
        2
176
     1
 90
        2
176
     1
 90
        0
176
     1
 40
0.6
176
     1
 40
30.0
176
     1
 62
     7
420
 16777215
176
     1
 90
        2
176
     1
 90
        2
176
     1
 62
     7
176
     1
 62
     7
176
     1
 90
        1
176
     1
 90
        1
176
     1
 40
40.0
176
     1
 90
       11
176
     1
 62
     7
176
     1
 40
1.0
176
     1
 90
        1
176
     1
 90
        6
176
     1
 90
        2
176
     1
 62
     7
176
     1
 90
        6
176
     1
 90
        0
176
     1
 90
        0
176
     1
290
     0
176
     1
 90
        1
176
     1
 40
0.0
176
     1
 90
        0
176
     1
290
     0
176
     1
290
     1
176
     1
290
     1
176
     1
290
     0
176
     1
290
     0
176
     1
290
     0
176
     1
290
     0
176
     1
290
     0
176
     1
290
     0
176
     1
 90
       50
176
     1
 40
0.0
176
     1
 40
1.0
176
     1
 90
        0
176
     1
 62
    18
420
        0
176
     1
 90
       50
176
     1
 90
        3
176
     1
 62
     5
420
      255
176
     1
290
     0
176
     1
 90
       50
176
     1
 90
       50
176
     1
 90
       50
176
     1
290
     0
176
     1
 90
       50
176
     1
 62
   256
176
     0
 40
1.0
176
     0
 90
        2
176
     1
  1
strokes_ogs.tif
176
     1
290
     0
176
     1
 40
1.0
176
     1
 40
1.0
176
     1
  0
VISUALSTYLE
  5
36
102
{ACAD_REACTORS
330
29
102
}
330
29
100
AcDbVisualStyle
  2
Thicken
 70
    13
177
     3
291
     1
 70
    58
 90
        2
176
     1
 90
        2
176
     1
 90
        0
176
     1
 90
        0
176
     1
 40
0.6
176
     1
 40
30.0
176
     1
 62
     7
420
 16777215
176
     1
 90
        1
176
     1
 90
        4
176
     1
 62
     7
176
     1
 62
   257
176
     1
 90
        1
176
     1
 90
        1
176
     1
 40
1.0
176
     1
 90
       12
176
     1
 62
     7
176
     1
 40
1.0
176
     1
 90
        1
176
     1
 90
        6
176
     1
 90
        2
176
     1
 62
     7
176
     1
 90
        5
176
     1
 90
        0
176
     1
 90
        0
176
     1
290
     0
176
     1
 90
        1
176
     1
 40
0.0
176
     1
 90
        0
176
     1
290
     0
176
     1
290
     1
176
     1
290
     1
176
     1
290
     0
176
     1
290
     0
176
     1
290
     0
176
     1
290
     0
176
     1
290
     0
176
     1
290
     0
176
     1
 90
       50
176
     1
 40
0.0
176
     1
 40
1.0
176
     1
 90
        0
176
     1
 62
    18
420
        0
176
     1
 90
       50
176
     1
 90
        3
176
     1
 62
     5
420
      255
176
     1
290
     0
176
     1
 90
       50
176
     1
 90
       50
176
     1
 90
       50
176
     1
290
     0
176
     1
 90
       50
176
     1
 62
   256
176
     0
 40
1.0
176
     0
 90
        2
176
     1
  1
strokes_ogs.tif
176
     1
290
     0
176
     1
 40
1.0
176
     1
 40
1.0
176
     1
  0
VISUALSTYLE
  5
30
102
{ACAD_REACTORS
330
29
102
}
330
29
100
AcDbVisualStyle
  2
Wireframe
 70
     5
177
     3
291
     0
 70
    58
 90
        0
176
     1
 90
        2
176
     1
 90
        0
176
     1
 90
        0
176
     1
 40
0.6
176
     1
 40
30.0
176
     1
 62
     7
420
 16777215
176
     1
 90
        1
176
     1
 90
        4
176
     1
 62
     7
176
     1
 62
   257
176
     1
 90
        1
176
     1
 90
        1
176
     1
 40
1.0
176
     1
 90
        0
176
     1
 62
   257
176
     1
 40
1.0
176
     1
 90
        1
176
     1
 90
        6
176
     1
 90
        2
176
     1
 62
     7
176
     1
 90
        3
176
     1
 90
        0
176
     1
 90
        0
176
     1
290
     0
176
     1
 90
        1
176
     1
 40
0.0
176
     1
 90
        0
176
     1
290
     0
176
     1
290
     1
176
     1
290
     1
176
     1
290
     0
176
     1
290
     0
176
     1
290
     0
176
     1
290
     0
176
     1
290
     0
176
     1
290
     0
176
     1
 90
       50
176
     1
 40
0.0
176
     1
 40
1.0
176
     1
 90
        0
176
     1
 62
    18
420
        0
176
     1
 90
       50
176
     1
 90
        3
176
     1
 62
     5
420
      255
176
     1
290
     0
176
     1
 90
       50
176
     1
 90
       50
176
     1
 90
       50
176
     1
290
     0
176
     1
 90
       50
176
     1
 62
   256
176
     0
 40
1.0
176
     0
 90
        2
176
     1
  1
strokes_ogs.tif
176
     1
290
     0
176
     1
 40
1.0
176
     1
 40
1.0
176
     1
  0
VISUALSTYLE
  5
3C
102
{ACAD_REACTORS
330
29
102
}
330
29
100
AcDbVisualStyle
  2
X-Ray
 70
    25
177
     3
291
     0
 70
    58
 90
        2
176
     1
 90
        2
176
     1
 90
        1
176
     1
 90
        1
176
     1
 40
0.5
176
     1
 40
30.0
176
     1
 62
     7
420
 16777215
176
     1
 90
        1
176
     1
 90
        0
176
     1
 62
     7
176
     1
 62
   257
176
     1
 90
        1
176
     1
 90
        1
176
     1
 40
1.0
176
     1
 90
        8
176
     1
 62
     7
176
     1
 40
1.0
176
     1
 90
        1
176
     1
 90
        6
176
     1
 90
        2
176
     1
 62
     7
176
     1
 90
        3
176
     1
 90
        0
176
     1
 90
        0
176
     1
290
     0
176
     1
 90
       13
176
     1
 40
0.0
176
     1
 90
        0
176
     1
290
     0
176
     1
290
     1
176
     1
290
     1
176
     1
290
     0
176
     1
290
     0
176
     1
290
     0
176
     1
290
     0
176
     1
290
     0
176
     1
290
     0
176
     1
 90
       50
176
     1
 40
0.0
176
     1
 40
1.0
176
     1
 90
        0
176
     1
 62
    18
420
        0
176
     1
 90
       50
176
     1
 90
        3
176
     1
 62
     5
420
      255
176
     1
290
     0
176
     1
 90
       50
176
     1
 90
       50
176
     1
 90
       50
176
     1
290
     0
176
     1
 90
       50
176
     1
 62
   256
176
     0
 40
1.0
176
     0
 90
        2
176
     1
  1
strokes_ogs.tif
176
     1
290
     0
176
     1
 40
1.0
176
     1
 40
1.0
176
     1
  0
DICTIONARYVAR
  5
81
102
{ACAD_REACTORS
330
7C
102
}
330
7C
100
DictionaryVariables
280
     0
  1
1:1
  0
DICTIONARYVAR
  5
7E
102
{ACAD_REACTORS
330
7C
102
}
330
7C
100
DictionaryVariables
280
     0
  1
STANDARD
  0
DICTIONARYVAR
  5
7D
102
{ACAD_REACTORS
330
7C
102
}
330
7C
100
DictionaryVariables
280
     0
  1
STANDARD
  0
DICTIONARYVAR
  5
7F
102
{ACAD_REACTORS
330
7C
102
}
330
7C
100
DictionaryVariables
280
     0
  1
Imperial24
  0
DICTIONARYVAR
  5
80
102
{ACAD_REACTORS
330
7C
102
}
330
7C
100
DictionaryVariables
280
     0
  1
Imperial24
  0
XRECORD
  5
2A3
102
{ACAD_REACTORS
330
29F
102
}
330
29F
100
AcDbXrecord
280
     1
  1
BUILDING_ID
  1
Progetto per messa in tavola DXF, DWG
  1
FLOOR_ID
  1
694395
  0
XRECORD
  5
2A1
102
{ACAD_REACTORS
330
29F
102
}
330
29F
100
AcDbXrecord
280
     1
  1
-2001160
  1
Apparecchi idraulici
  0
XRECORD
  5
2A2
102
{ACAD_REACTORS
330
29F
102
}
330
29F
100
AcDbXrecord
280
     1
  1
790271
  1
Body
  1
924063
  1
Handle
  0
XRECORD
  5
2A0
102
{ACAD_REACTORS
330
29F
102
}
330
29F
100
AcDbXrecord
280
     1
  1
859151
  1
Automatic flow rate regulator valve_Caleffi_121 DN15 : 1/2''
  0
DICTIONARY
  5
1A
330
19
100
AcDbDictionary
280
     1
281
     1
  3
BUMPTILE
360
1C
  3
DIFFUSETILE
360
1B
  3
OPACITYTILE
360
1F
  3
REFLECTIONTILE
360
1E
  3
REFRACTIONTILE
360
20
  3
SPECULARTILE
360
1D
  0
DICTIONARY
  5
12
330
11
100
AcDbDictionary
280
     1
281
     1
  3
BUMPTILE
360
14
  3
DIFFUSETILE
360
13
  3
OPACITYTILE
360
17
  3
REFLECTIONTILE
360
16
  3
REFRACTIONTILE
360
18
  3
SPECULARTILE
360
15
  0
DICTIONARY
  5
22
330
21
100
AcDbDictionary
280
     1
281
     1
  3
BUMPTILE
360
24
  3
DIFFUSETILE
360
23
  3
OPACITYTILE
360
27
  3
REFLECTIONTILE
360
26
  3
REFRACTIONTILE
360
28
  3
SPECULARTILE
360
25
  0
DICTIONARY
  5
2A6
330
65
100
AcDbDictionary
280
     1
281
     1
  3
ACAD_ROUNDTRIP_2008_TABLESTYLE_CELLSTYLEMAP
360
2A7
  0
XRECORD
  5
1C
102
{ACAD_REACTORS
330
1A
102
}
330
1A
100
AcDbXrecord
280
     1
270
     1
271
     1
  0
XRECORD
  5
1B
102
{ACAD_REACTORS
330
1A
102
}
330
1A
100
AcDbXrecord
280
     1
270
     1
271
     1
  0
XRECORD
  5
1F
102
{ACAD_REACTORS
330
1A
102
}
330
1A
100
AcDbXrecord
280
     1
270
     1
271
     1
  0
XRECORD
  5
1E
102
{ACAD_REACTORS
330
1A
102
}
330
1A
100
AcDbXrecord
280
     1
270
     1
271
     1
  0
XRECORD
  5
20
102
{ACAD_REACTORS
330
1A
102
}
330
1A
100
AcDbXrecord
280
     1
270
     1
271
     1
  0
XRECORD
  5
1D
102
{ACAD_REACTORS
330
1A
102
}
330
1A
100
AcDbXrecord
280
     1
270
     1
271
     1
  0
XRECORD
  5
14
102
{ACAD_REACTORS
330
12
102
}
330
12
100
AcDbXrecord
280
     1
270
     1
271
     1
  0
XRECORD
  5
13
102
{ACAD_REACTORS
330
12
102
}
330
12
100
AcDbXrecord
280
     1
270
     1
271
     1
  0
XRECORD
  5
17
102
{ACAD_REACTORS
330
12
102
}
330
12
100
AcDbXrecord
280
     1
270
     1
271
     1
  0
XRECORD
  5
16
102
{ACAD_REACTORS
330
12
102
}
330
12
100
AcDbXrecord
280
     1
270
     1
271
     1
  0
XRECORD
  5
18
102
{ACAD_REACTORS
330
12
102
}
330
12
100
AcDbXrecord
280
     1
270
     1
271
     1
  0
XRECORD
  5
15
102
{ACAD_REACTORS
330
12
102
}
330
12
100
AcDbXrecord
280
     1
270
     1
271
     1
  0
XRECORD
  5
24
102
{ACAD_REACTORS
330
22
102
}
330
22
100
AcDbXrecord
280
     1
270
     1
271
     1
  0
XRECORD
  5
23
102
{ACAD_REACTORS
330
22
102
}
330
22
100
AcDbXrecord
280
     1
270
     1
271
     1
  0
XRECORD
  5
27
102
{ACAD_REACTORS
330
22
102
}
330
22
100
AcDbXrecord
280
     1
270
     1
271
     1
  0
XRECORD
  5
26
102
{ACAD_REACTORS
330
22
102
}
330
22
100
AcDbXrecord
280
     1
270
     1
271
     1
  0
XRECORD
  5
28
102
{ACAD_REACTORS
330
22
102
}
330
22
100
AcDbXrecord
280
     1
270
     1
271
     1
  0
XRECORD
  5
25
102
{ACAD_REACTORS
330
22
102
}
330
22
100
AcDbXrecord
280
     1
270
     1
271
     1
  0
CELLSTYLEMAP
  5
2A7
102
{ACAD_REACTORS
330
2A6
102
}
330
2A6
100
AcDbCellStyleMap
 90
        3
300
CELLSTYLE
  1
TABLEFORMAT_BEGIN
 90
        5
170
     1
 91
        0
 92
    32768
 62
   257
 93
        1
300
CONTENTFORMAT
  1
CONTENTFORMAT_BEGIN
 90
        0
 91
        0
 92
      512
 93
        0
300

 40
0.0
140
1.0
 94
        5
 62
     0
340
55
144
0.25
309
CONTENTFORMAT_END
171
     0
 94
        0
309
TABLEFORMAT_END
  1
CELLSTYLE_BEGIN
 90
        1
 91
        1
300
_TITLE
309
CELLSTYLE_END
300
CELLSTYLE
  1
TABLEFORMAT_BEGIN
 90
        5
170
     1
 91
        0
 92
        0
 62
   257
 93
        1
300
CONTENTFORMAT
  1
CONTENTFORMAT_BEGIN
 90
        0
 91
        0
 92
      512
 93
        0
300

 40
0.0
140
1.0
 94
        5
 62
     0
340
55
144
0.18
309
CONTENTFORMAT_END
171
     0
 94
        0
309
TABLEFORMAT_END
  1
CELLSTYLE_BEGIN
 90
        2
 91
        1
300
_HEADER
309
CELLSTYLE_END
300
CELLSTYLE
  1
TABLEFORMAT_BEGIN
 90
        5
170
     1
 91
        0
 92
        0
 62
   257
 93
        1
300
CONTENTFORMAT
  1
CONTENTFORMAT_BEGIN
 90
        0
 91
        0
 92
      512
 93
        0
300

 40
0.0
140
1.0
 94
        2
 62
     0
340
55
144
0.18
309
CONTENTFORMAT_END
171
     0
 94
        0
309
TABLEFORMAT_END
  1
CELLSTYLE_BEGIN
 90
        3
 91
        2
300
_DATA
309
CELLSTYLE_END
  0
ENDSEC
  0
EOF
