  0
SECTION
  2
HEADER
  9
$ACADVER
  1
AC1027
  9
$ACADMAINTVER
 70
    20
  9
$DWGCODEPAGE
  3
ANSI_1252
  9
$LASTSAVEDBY
  1
sparenzan
  9
$REQUIREDVERSIONS
160
                 0
  9
$INSBASE
 10
0.0
 20
0.0
 30
0.0
  9
$EXTMIN
 10
640.6664074431877
 20
1052.781994768022
 30
0.0
  9
$EXTMAX
 10
1575.5831625457
 20
2195.000000000011
 30
0.0
  9
$LIMMIN
 10
0.0
 20
0.0
  9
$LIMMAX
 10
12.0
 20
9.0
  9
$ORTHOMODE
 70
     0
  9
$REGENMODE
 70
     1
  9
$FILLMODE
 70
     1
  9
$QTEXTMODE
 70
     0
  9
$MIRRTEXT
 70
     0
  9
$LTSCALE
 40
1.0
  9
$ATTMODE
 70
     1
  9
$TEXTSIZE
 40
0.2
  9
$TRACEWID
 40
0.05
  9
$TEXTSTYLE
  7
Standard
  9
$CLAYER
  8
P-SANR-FIXT
  9
$CELTYPE
  6
ByLayer
  9
$CECOLOR
 62
   256
  9
$CELTSCALE
 40
1.0
  9
$DISPSILH
 70
     0
  9
$DIMSCALE
 40
1.0
  9
$DIMASZ
 40
0.18
  9
$DIMEXO
 40
0.0625
  9
$DIMDLI
 40
0.38
  9
$DIMRND
 40
0.0
  9
$DIMDLE
 40
0.0
  9
$DIMEXE
 40
0.18
  9
$DIMTP
 40
0.0
  9
$DIMTM
 40
0.0
  9
$DIMTXT
 40
0.18
  9
$DIMCEN
 40
0.09
  9
$DIMTSZ
 40
0.0
  9
$DIMTOL
 70
     0
  9
$DIMLIM
 70
     0
  9
$DIMTIH
 70
     1
  9
$DIMTOH
 70
     1
  9
$DIMSE1
 70
     0
  9
$DIMSE2
 70
     0
  9
$DIMTAD
 70
     0
  9
$DIMZIN
 70
     0
  9
$DIMBLK
  1

  9
$DIMASO
 70
     1
  9
$DIMSHO
 70
     1
  9
$DIMPOST
  1

  9
$DIMAPOST
  1

  9
$DIMALT
 70
     0
  9
$DIMALTD
 70
     2
  9
$DIMALTF
 40
25.4
  9
$DIMLFAC
 40
1.0
  9
$DIMTOFL
 70
     0
  9
$DIMTVP
 40
0.0
  9
$DIMTIX
 70
     0
  9
$DIMSOXD
 70
     0
  9
$DIMSAH
 70
     0
  9
$DIMBLK1
  1

  9
$DIMBLK2
  1

  9
$DIMSTYLE
  2
Standard
  9
$DIMCLRD
 70
     0
  9
$DIMCLRE
 70
     0
  9
$DIMCLRT
 70
     0
  9
$DIMTFAC
 40
1.0
  9
$DIMGAP
 40
0.09
  9
$DIMJUST
 70
     0
  9
$DIMSD1
 70
     0
  9
$DIMSD2
 70
     0
  9
$DIMTOLJ
 70
     1
  9
$DIMTZIN
 70
     0
  9
$DIMALTZ
 70
     0
  9
$DIMALTTZ
 70
     0
  9
$DIMUPT
 70
     0
  9
$DIMDEC
 70
     4
  9
$DIMTDEC
 70
     4
  9
$DIMALTU
 70
     2
  9
$DIMALTTD
 70
     2
  9
$DIMTXSTY
  7
Standard
  9
$DIMAUNIT
 70
     0
  9
$DIMADEC
 70
     0
  9
$DIMALTRND
 40
0.0
  9
$DIMAZIN
 70
     0
  9
$DIMDSEP
 70
    46
  9
$DIMATFIT
 70
     3
  9
$DIMFRAC
 70
     0
  9
$DIMLDRBLK
  1

  9
$DIMLUNIT
 70
     2
  9
$DIMLWD
 70
    -2
  9
$DIMLWE
 70
    -2
  9
$DIMTMOVE
 70
     0
  9
$DIMFXL
 40
1.0
  9
$DIMFXLON
 70
     0
  9
$DIMJOGANG
 40
0.7853981633974483
  9
$DIMTFILL
 70
     0
  9
$DIMTFILLCLR
 70
     0
  9
$DIMARCSYM
 70
     0
  9
$DIMLTYPE
  6

  9
$DIMLTEX1
  6

  9
$DIMLTEX2
  6

  9
$DIMTXTDIRECTION
 70
     0
  9
$LUNITS
 70
     2
  9
$LUPREC
 70
     4
  9
$SKETCHINC
 40
0.1
  9
$FILLETRAD
 40
0.0
  9
$AUNITS
 70
     0
  9
$AUPREC
 70
     0
  9
$MENU
  1
.
  9
$ELEVATION
 40
0.0
  9
$PELEVATION
 40
0.0
  9
$THICKNESS
 40
0.0
  9
$LIMCHECK
 70
     0
  9
$CHAMFERA
 40
0.0
  9
$CHAMFERB
 40
0.0
  9
$CHAMFERC
 40
0.0
  9
$CHAMFERD
 40
0.0
  9
$SKPOLY
 70
     0
  9
$TDCREATE
 40
2457588.435503495
  9
$TDUCREATE
 40
2457588.352170162
  9
$TDUPDATE
 40
2457588.438525000
  9
$TDUUPDATE
 40
2457588.355191667
  9
$TDINDWG
 40
0.0017728125
  9
$TDUSRTIMER
 40
0.0017727315
  9
$USRTIMER
 70
     1
  9
$ANGBASE
 50
0.0
  9
$ANGDIR
 70
     0
  9
$PDMODE
 70
     0
  9
$PDSIZE
 40
0.0
  9
$PLINEWID
 40
0.0
  9
$SPLFRAME
 70
     0
  9
$SPLINETYPE
 70
     6
  9
$SPLINESEGS
 70
     8
  9
$HANDSEED
  5
2C0
  9
$SURFTAB1
 70
     6
  9
$SURFTAB2
 70
     6
  9
$SURFTYPE
 70
     6
  9
$SURFU
 70
     6
  9
$SURFV
 70
     6
  9
$UCSBASE
  2

  9
$UCSNAME
  2

  9
$UCSORG
 10
0.0
 20
0.0
 30
0.0
  9
$UCSXDIR
 10
1.0
 20
0.0
 30
0.0
  9
$UCSYDIR
 10
0.0
 20
1.0
 30
0.0
  9
$UCSORTHOREF
  2

  9
$UCSORTHOVIEW
 70
     0
  9
$UCSORGTOP
 10
0.0
 20
0.0
 30
0.0
  9
$UCSORGBOTTOM
 10
0.0
 20
0.0
 30
0.0
  9
$UCSORGLEFT
 10
0.0
 20
0.0
 30
0.0
  9
$UCSORGRIGHT
 10
0.0
 20
0.0
 30
0.0
  9
$UCSORGFRONT
 10
0.0
 20
0.0
 30
0.0
  9
$UCSORGBACK
 10
0.0
 20
0.0
 30
0.0
  9
$PUCSBASE
  2

  9
$PUCSNAME
  2

  9
$PUCSORG
 10
0.0
 20
0.0
 30
0.0
  9
$PUCSXDIR
 10
1.0
 20
0.0
 30
0.0
  9
$PUCSYDIR
 10
0.0
 20
1.0
 30
0.0
  9
$PUCSORTHOREF
  2

  9
$PUCSORTHOVIEW
 70
     0
  9
$PUCSORGTOP
 10
0.0
 20
0.0
 30
0.0
  9
$PUCSORGBOTTOM
 10
0.0
 20
0.0
 30
0.0
  9
$PUCSORGLEFT
 10
0.0
 20
0.0
 30
0.0
  9
$PUCSORGRIGHT
 10
0.0
 20
0.0
 30
0.0
  9
$PUCSORGFRONT
 10
0.0
 20
0.0
 30
0.0
  9
$PUCSORGBACK
 10
0.0
 20
0.0
 30
0.0
  9
$USERI1
 70
     0
  9
$USERI2
 70
     0
  9
$USERI3
 70
     0
  9
$USERI4
 70
     0
  9
$USERI5
 70
     0
  9
$USERR1
 40
0.0
  9
$USERR2
 40
0.0
  9
$USERR3
 40
0.0
  9
$USERR4
 40
0.0
  9
$USERR5
 40
0.0
  9
$WORLDVIEW
 70
     1
  9
$SHADEDGE
 70
     3
  9
$SHADEDIF
 70
    70
  9
$TILEMODE
 70
     1
  9
$MAXACTVP
 70
    64
  9
$PINSBASE
 10
0.0
 20
0.0
 30
0.0
  9
$PLIMCHECK
 70
     0
  9
$PEXTMIN
 10
1.000000000000000E+20
 20
1.000000000000000E+20
 30
1.000000000000000E+20
  9
$PEXTMAX
 10
-1.000000000000000E+20
 20
-1.000000000000000E+20
 30
-1.000000000000000E+20
  9
$PLIMMIN
 10
0.0
 20
0.0
  9
$PLIMMAX
 10
12.0
 20
9.0
  9
$UNITMODE
 70
     0
  9
$VISRETAIN
 70
     1
  9
$PLINEGEN
 70
     0
  9
$PSLTSCALE
 70
     1
  9
$TREEDEPTH
 70
  3020
  9
$CMLSTYLE
  2
Standard
  9
$CMLJUST
 70
     0
  9
$CMLSCALE
 40
1.0
  9
$PROXYGRAPHICS
 70
     1
  9
$MEASUREMENT
 70
     1
  9
$CELWEIGHT
370
    -1
  9
$ENDCAPS
280
     0
  9
$JOINSTYLE
280
     0
  9
$LWDISPLAY
290
     0
  9
$INSUNITS
 70
     4
  9
$HYPERLINKBASE
  1

  9
$STYLESHEET
  1

  9
$XEDIT
290
     1
  9
$CEPSNTYPE
380
     0
  9
$PSTYLEMODE
290
     1
  9
$FINGERPRINTGUID
  2
{08D16956-FE42-495D-BBF2-2C471385414A}
  9
$VERSIONGUID
  2
{CB0CC8DB-24E8-4A49-BC1C-A1E040B4C967}
  9
$EXTNAMES
290
     1
  9
$PSVPSCALE
 40
0.0
  9
$OLESTARTUP
290
     0
  9
$SORTENTS
280
   127
  9
$INDEXCTL
280
     0
  9
$HIDETEXT
280
     1
  9
$XCLIPFRAME
280
     2
  9
$HALOGAP
280
     0
  9
$OBSCOLOR
 70
   257
  9
$OBSLTYPE
280
     0
  9
$INTERSECTIONDISPLAY
280
     0
  9
$INTERSECTIONCOLOR
 70
   257
  9
$DIMASSOC
280
     2
  9
$PROJECTNAME
  1

  9
$CAMERADISPLAY
290
     0
  9
$LENSLENGTH
 40
50.0
  9
$CAMERAHEIGHT
 40
0.0
  9
$STEPSPERSEC
 40
2.0
  9
$STEPSIZE
 40
6.0
  9
$3DDWFPREC
 40
2.0
  9
$PSOLWIDTH
 40
0.25
  9
$PSOLHEIGHT
 40
4.0
  9
$LOFTANG1
 40
1.570796326794896
  9
$LOFTANG2
 40
1.570796326794896
  9
$LOFTMAG1
 40
0.0
  9
$LOFTMAG2
 40
0.0
  9
$LOFTPARAM
 70
     7
  9
$LOFTNORMALS
280
     1
  9
$LATITUDE
 40
37.795
  9
$LONGITUDE
 40
-122.394
  9
$NORTHDIRECTION
 40
0.0
  9
$TIMEZONE
 70
 -8000
  9
$LIGHTGLYPHDISPLAY
280
     1
  9
$TILEMODELIGHTSYNCH
280
     1
  9
$CMATERIAL
347
11
  9
$SOLIDHIST
280
     0
  9
$SHOWHIST
280
     1
  9
$DWFFRAME
280
     2
  9
$DGNFRAME
280
     0
  9
$REALWORLDSCALE
290
     1
  9
$INTERFERECOLOR
 62
     1
  9
$INTERFEREOBJVS
345
33
  9
$INTERFEREVPVS
346
30
  9
$CSHADOW
280
     0
  9
$SHADOWPLANELOCATION
 40
0.0
  0
ENDSEC
  0
SECTION
  2
CLASSES
  0
CLASS
  1
ACDBDICTIONARYWDFLT
  2
AcDbDictionaryWithDefault
  3
ObjectDBX Classes
 90
        0
 91
        1
280
     0
281
     0
  0
CLASS
  1
MATERIAL
  2
AcDbMaterial
  3
ObjectDBX Classes
 90
     1153
 91
        3
280
     0
281
     0
  0
CLASS
  1
VISUALSTYLE
  2
AcDbVisualStyle
  3
ObjectDBX Classes
 90
     4095
 91
       24
280
     0
281
     0
  0
CLASS
  1
SCALE
  2
AcDbScale
  3
ObjectDBX Classes
 90
     1153
 91
       17
280
     0
281
     0
  0
CLASS
  1
TABLESTYLE
  2
AcDbTableStyle
  3
ObjectDBX Classes
 90
     4095
 91
        1
280
     0
281
     0
  0
CLASS
  1
MLEADERSTYLE
  2
AcDbMLeaderStyle
  3
ACDB_MLEADERSTYLE_CLASS
 90
     4095
 91
        1
280
     0
281
     0
  0
CLASS
  1
ACDBSECTIONVIEWSTYLE
  2
AcDbSectionViewStyle
  3
ObjectDBX Classes
 90
     1025
 91
        2
280
     0
281
     0
  0
CLASS
  1
ACDBDETAILVIEWSTYLE
  2
AcDbDetailViewStyle
  3
ObjectDBX Classes
 90
     1025
 91
        2
280
     0
281
     0
  0
CLASS
  1
RASTERVARIABLES
  2
AcDbRasterVariables
  3
ISM
 90
        0
 91
        1
280
     0
281
     0
  0
CLASS
  1
DICTIONARYVAR
  2
AcDbDictionaryVar
  3
ObjectDBX Classes
 90
        0
 91
        5
280
     0
281
     0
  0
CLASS
  1
CELLSTYLEMAP
  2
AcDbCellStyleMap
  3
ObjectDBX Classes
 90
     1152
 91
        2
280
     0
281
     0
  0
CLASS
  1
SORTENTSTABLE
  2
AcDbSortentsTable
  3
ObjectDBX Classes
 90
        0
 91
        1
280
     0
281
     0
  0
ENDSEC
  0
SECTION
  2
TABLES
  0
TABLE
  2
VPORT
  5
8
330
0
100
AcDbSymbolTable
 70
     1
  0
VPORT
  5
57
330
8
100
AcDbSymbolTableRecord
100
AcDbViewportTableRecord
  2
*Active
 70
     0
 10
0.0
 20
0.0
 11
1.0
 21
1.0
 12
1145.495981116272
 22
1739.383676250697
 13
0.0
 23
0.0
 14
1.0
 24
1.0
 15
0.0
 25
0.0
 16
0.0
 26
0.0
 36
1.0
 17
0.0
 27
0.0
 37
0.0
 40
1339.600100627217
 41
2.401774397972116
 42
50.0
 43
0.0
 44
0.0
 50
0.0
 51
0.0
 71
     0
 72
  1000
 73
     1
 74
     1
 75
     0
 76
     0
 77
     0
 78
     0
281
     0
 65
     1
110
0.0
120
0.0
130
0.0
111
1.0
121
0.0
131
0.0
112
0.0
122
1.0
132
0.0
 79
     0
146
0.0
348
2F
 60
     3
 61
     5
292
     1
282
     1
141
0.0
142
0.0
 63
   250
421
  3355443
1001
ACAD_NAV_VCDISPLAY
1070
     3
  0
ENDTAB
  0
TABLE
  2
LTYPE
  5
5
330
0
100
AcDbSymbolTable
 70
     4
  0
LTYPE
  5
5B
330
5
100
AcDbSymbolTableRecord
100
AcDbLinetypeTableRecord
  2
ByBlock
 70
     0
  3

 72
    65
 73
     0
 40
0.0
  0
LTYPE
  5
5C
330
5
100
AcDbSymbolTableRecord
100
AcDbLinetypeTableRecord
  2
ByLayer
 70
     0
  3

 72
    65
 73
     0
 40
0.0
  0
LTYPE
  5
5D
330
5
100
AcDbSymbolTableRecord
100
AcDbLinetypeTableRecord
  2
Continuous
 70
     0
  3
Solid line
 72
    65
 73
     0
 40
0.0
  0
LTYPE
  5
69
330
5
100
AcDbSymbolTableRecord
100
AcDbLinetypeTableRecord
  2
PHANTOM2
 70
     0
  3
___ _ _ ___ _ _ ___ _ _ ___ _ _
 72
    65
 73
     6
 40
1.25
 49
0.625
 74
     0
 49
-0.125
 74
     0
 49
0.125
 74
     0
 49
-0.125
 74
     0
 49
0.125
 74
     0
 49
-0.125
 74
     0
  0
LTYPE
  5
86
330
5
100
AcDbSymbolTableRecord
100
AcDbLinetypeTableRecord
  2
Nascosto 1_5 mm
 70
     0
  3

 72
    65
 73
     2
 40
2.2
 49
1.5
 74
     0
 49
-0.7000000000000001
 74
     0
  0
ENDTAB
  0
TABLE
  2
LAYER
  5
2
330
0
100
AcDbSymbolTable
 70
     3
  0
LAYER
  5
54
330
2
100
AcDbSymbolTableRecord
100
AcDbLayerTableRecord
  2
0
 70
     0
 62
     7
  6
Continuous
370
    -3
390
F
347
21
348
0
  0
LAYER
  5
85
330
2
100
AcDbSymbolTableRecord
100
AcDbLayerTableRecord
  2
P-SANR-FIXT
 70
     0
 62
     6
  6
Continuous
370
    18
390
F
347
21
348
0
  0
LAYER
  5
88
330
2
100
AcDbSymbolTableRecord
100
AcDbLayerTableRecord
  2
M-PIPE
 70
     0
 62
     3
  6
Continuous
370
    18
390
F
347
21
348
0
  0
ENDTAB
  0
TABLE
  2
STYLE
  5
3
330
0
100
AcDbSymbolTable
 70
     2
  0
STYLE
  5
55
330
3
100
AcDbSymbolTableRecord
100
AcDbTextStyleTableRecord
  2
Standard
 70
     0
 40
0.0
 41
1.0
 50
0.0
 71
     0
 42
0.2
  3
txt
  4

  0
STYLE
  5
5A
330
3
100
AcDbSymbolTableRecord
100
AcDbTextStyleTableRecord
  2
Annotative
 70
     0
 40
0.0
 41
1.0
 50
0.0
 71
     0
 42
0.2
  3
txt
  4

1001
AcadAnnotative
1000
AnnotativeData
1002
{
1070
     1
1070
     1
1002
}
  0
ENDTAB
  0
TABLE
  2
VIEW
  5
6
330
0
100
AcDbSymbolTable
 70
     0
  0
ENDTAB
  0
TABLE
  2
UCS
  5
7
330
0
100
AcDbSymbolTable
 70
     0
  0
ENDTAB
  0
TABLE
  2
APPID
  5
9
330
0
100
AcDbSymbolTable
 70
     5
  0
APPID
  5
56
330
9
100
AcDbSymbolTableRecord
100
AcDbRegAppTableRecord
  2
ACAD
 70
     0
  0
APPID
  5
5E
330
9
100
AcDbSymbolTableRecord
100
AcDbRegAppTableRecord
  2
AcadAnnotative
 70
     0
  0
APPID
  5
79
330
9
100
AcDbSymbolTableRecord
100
AcDbRegAppTableRecord
  2
REVIT
 70
     0
  0
APPID
  5
2B0
330
9
100
AcDbSymbolTableRecord
100
AcDbRegAppTableRecord
  2
ACAD_EXEMPT_FROM_CAD_STANDARDS
 70
     0
  0
APPID
  5
2BD
330
9
100
AcDbSymbolTableRecord
100
AcDbRegAppTableRecord
  2
ACAD_NAV_VCDISPLAY
 70
     0
  0
ENDTAB
  0
TABLE
  2
DIMSTYLE
  5
A
330
0
100
AcDbSymbolTable
 70
     3
100
AcDbDimStyleTable
 71
     1
340
58
  0
DIMSTYLE
105
58
330
A
100
AcDbSymbolTableRecord
100
AcDbDimStyleTableRecord
  2
Standard
 70
     0
340
55
  0
DIMSTYLE
105
59
330
A
100
AcDbSymbolTableRecord
100
AcDbDimStyleTableRecord
  2
Annotative
 70
     0
340
55
1001
AcadAnnotative
1000
AnnotativeData
1002
{
1070
     1
1070
     1
1002
}
  0
ENDTAB
  0
TABLE
  2
BLOCK_RECORD
  5
1
330
0
100
AcDbSymbolTable
 70
     5
  0
BLOCK_RECORD
  5
71
102
{ACAD_XDICTIONARY
360
2A5
102
}
330
1
100
AcDbSymbolTableRecord
100
AcDbBlockTableRecord
  2
*Model_Space
340
74
 70
     0
280
     1
281
     0
  0
BLOCK_RECORD
  5
6D
330
1
100
AcDbSymbolTableRecord
100
AcDbBlockTableRecord
  2
*Paper_Space
340
70
 70
     0
280
     1
281
     0
  0
BLOCK_RECORD
  5
75
330
1
100
AcDbSymbolTableRecord
100
AcDbBlockTableRecord
  2
*Paper_Space0
340
78
 70
     0
280
     1
281
     0
  0
BLOCK_RECORD
  5
87
330
1
100
AcDbSymbolTableRecord
100
AcDbBlockTableRecord
  2
Automatic flow rate regulator valve_Caleffi_121 DN15 - 1_2__-859151-Est - Idraulica
340
0
102
{BLKREFS
331
1AE
102
}
 70
     0
280
     1
281
     0
  0
BLOCK_RECORD
  5
1AF
330
1
100
AcDbSymbolTableRecord
100
AcDbBlockTableRecord
  2
Automatic flow rate regulator valve_Caleffi_121 DN15 - 1_2__-V1-Est - Idraulica
340
0
102
{BLKREFS
331
1EC
102
}
 70
     0
280
     1
281
     0
  0
BLOCK_RECORD
  5
1ED
330
1
100
AcDbSymbolTableRecord
100
AcDbBlockTableRecord
  2
Automatic flow rate regulator valve_Caleffi_121 DN15 - 1_2__-V2-Est - Idraulica
340
0
102
{BLKREFS
331
29E
102
}
 70
     0
280
     1
281
     0
  0
ENDTAB
  0
ENDSEC
  0
SECTION
  2
BLOCKS
  0
BLOCK
  5
72
330
71
100
AcDbEntity
  8
0
100
AcDbBlockBegin
  2
*Model_Space
 70
     0
 10
0.0
 20
0.0
 30
0.0
  3
*Model_Space
  1

  0
ENDBLK
  5
73
330
71
100
AcDbEntity
  8
0
100
AcDbBlockEnd
  0
BLOCK
  5
6E
330
6D
100
AcDbEntity
 67
     1
  8
0
100
AcDbBlockBegin
  2
*Paper_Space
 70
     0
 10
0.0
 20
0.0
 30
0.0
  3
*Paper_Space
  1

  0
ENDBLK
  5
6F
330
6D
100
AcDbEntity
 67
     1
  8
0
100
AcDbBlockEnd
  0
BLOCK
  5
76
330
75
100
AcDbEntity
 67
     1
  8
0
100
AcDbBlockBegin
  2
*Paper_Space0
 70
     0
 10
0.0
 20
0.0
 30
0.0
  3
*Paper_Space0
  1

  0
ENDBLK
  5
77
330
75
100
AcDbEntity
 67
     1
  8
0
100
AcDbBlockEnd
  0
BLOCK
  5
1AC
330
87
100
AcDbEntity
  8
0
100
AcDbBlockBegin
  2
Automatic flow rate regulator valve_Caleffi_121 DN15 - 1_2__-859151-Est - Idraulica
 70
     0
 10
0.0
 20
0.0
 30
0.0
  3
Automatic flow rate regulator valve_Caleffi_121 DN15 - 1_2__-859151-Est - Idraulica
  1

  0
LINE
  5
89
330
87
100
AcDbEntity
  8
M-PIPE
100
AcDbLine
 10
796.1664074431905
 20
1577.598075309111
 30
0.0
 11
797.6664069222921
 21
1574.999999999979
 31
0.0
1001
REVIT
1002
{
1070
     3
1000
790271
1002
}
  0
LINE
  5
8A
330
87
100
AcDbEntity
  8
M-PIPE
100
AcDbLine
 10
833.6664079640884
 20
1574.999999999979
 30
0.0
 11
835.1664074431903
 21
1577.598075309111
 31
0.0
1001
REVIT
1002
{
1070
     3
1000
790271
1002
}
  0
LINE
  5
8B
330
87
100
AcDbEntity
  8
M-PIPE
100
AcDbLine
 10
796.1664074431905
 20
1589.34591799932
 30
0.0
 11
796.1664074431905
 21
1577.598075309111
 31
0.0
1001
REVIT
1002
{
1070
     3
1000
790271
1002
}
  0
LINE
  5
8C
330
87
100
AcDbEntity
  8
M-PIPE
100
AcDbLine
 10
835.1664074431903
 20
1577.598075309111
 30
0.0
 11
835.1664074431903
 21
1589.34591799932
 31
0.0
1001
REVIT
1002
{
1070
     3
1000
790271
1002
}
  0
LINE
  5
8D
330
87
100
AcDbEntity
  8
M-PIPE
100
AcDbLine
 10
835.1664074431901
 20
1589.34591799932
 30
0.0
 11
832.6664074431905
 21
1590.789293672294
 31
0.0
1001
REVIT
1002
{
1070
     3
1000
790271
1002
}
  0
LINE
  5
8E
330
87
100
AcDbEntity
  8
M-PIPE
100
AcDbLine
 10
798.6664074431903
 20
1590.789293672294
 30
0.0
 11
796.1664074431905
 21
1589.34591799932
 31
0.0
1001
REVIT
1002
{
1070
     3
1000
790271
1002
}
  0
LINE
  5
8F
330
87
100
AcDbEntity
  8
M-PIPE
100
AcDbLine
 10
832.6664074431905
 20
1590.789293672294
 30
0.0
 11
832.6664074431905
 21
1597.914263954511
 31
0.0
1001
REVIT
1002
{
1070
     3
1000
790271
1002
}
  0
LINE
  5
90
330
87
100
AcDbEntity
  8
M-PIPE
100
AcDbLine
 10
798.6664074431903
 20
1597.914263954511
 30
0.0
 11
798.6664074431903
 21
1590.789293672294
 31
0.0
1001
REVIT
1002
{
1070
     3
1000
790271
1002
}
  0
LINE
  5
91
330
87
100
AcDbEntity
  8
M-PIPE
100
AcDbLine
 10
832.6664074431905
 20
1597.914263954511
 30
0.0
 11
838.0970474521864
 21
1601.049645425575
 31
0.0
1001
REVIT
1002
{
1070
     3
1000
790271
1002
}
  0
LINE
  5
92
330
87
100
AcDbEntity
  8
M-PIPE
100
AcDbLine
 10
838.1064838784057
 20
1601.055093548794
 30
0.0
 11
838.1664074431908
 21
1601.089690435054
 31
0.0
1001
REVIT
1002
{
1070
     3
1000
790271
1002
}
  0
LINE
  5
93
330
87
100
AcDbEntity
  8
M-PIPE
100
AcDbLine
 10
793.1664074431896
 20
1601.089690435054
 30
0.0
 11
798.6664074431903
 21
1597.914263954511
 31
0.0
1001
REVIT
1002
{
1070
     3
1000
790271
1002
}
  0
LINE
  5
94
330
87
100
AcDbEntity
  8
M-PIPE
100
AcDbLine
 10
838.166407443191
 20
1601.089690435054
 30
0.0
 11
838.166407443191
 21
1628.999999999782
 31
0.0
1001
REVIT
1002
{
1070
     3
1000
790271
1002
}
  0
LINE
  5
95
330
87
100
AcDbEntity
  8
M-PIPE
100
AcDbLine
 10
793.1664074431896
 20
1628.999999999782
 30
0.0
 11
793.1664074431896
 21
1624.499999999917
 31
0.0
1001
REVIT
1002
{
1070
     3
1000
790271
1002
}
  0
LINE
  5
96
330
87
100
AcDbEntity
  8
M-PIPE
100
AcDbLine
 10
793.1664074431896
 20
1602.499999999916
 30
0.0
 11
793.1664074431896
 21
1601.089690435054
 31
0.0
1001
REVIT
1002
{
1070
     3
1000
790271
1002
}
  0
LINE
  5
97
330
87
100
AcDbEntity
  8
M-PIPE
100
AcDbLine
 10
839.1664074431909
 20
1628.999999999782
 30
0.0
 11
839.1664074431909
 21
1631.92820323012
 31
0.0
1001
REVIT
1002
{
1070
     3
1000
790271
1002
}
  0
LINE
  5
98
330
87
100
AcDbEntity
  8
M-PIPE
100
AcDbLine
 10
792.1664074431896
 20
1631.92820323012
 30
0.0
 11
792.1664074431896
 21
1628.999999999782
 31
0.0
1001
REVIT
1002
{
1070
     3
1000
790271
1002
}
  0
LINE
  5
99
330
87
100
AcDbEntity
  8
M-PIPE
100
AcDbLine
 10
839.1664074431909
 20
1631.92820323012
 30
0.0
 11
835.1664074431912
 21
1632.999999999846
 31
0.0
1001
REVIT
1002
{
1070
     3
1000
790271
1002
}
  0
LINE
  5
9A
330
87
100
AcDbEntity
  8
M-PIPE
100
AcDbLine
 10
796.1664074431896
 20
1632.999999999846
 30
0.0
 11
792.1664074431896
 21
1631.92820323012
 31
0.0
1001
REVIT
1002
{
1070
     3
1000
790271
1002
}
  0
LINE
  5
9B
330
87
100
AcDbEntity
  8
M-PIPE
100
AcDbLine
 10
796.1664074431896
 20
1647.133974596192
 30
0.0
 11
796.1664074431896
 21
1632.999999999846
 31
0.0
1001
REVIT
1002
{
1070
     3
1000
790271
1002
}
  0
LINE
  5
9C
330
87
100
AcDbEntity
  8
M-PIPE
100
AcDbLine
 10
835.1664074431912
 20
1632.999999999846
 30
0.0
 11
835.1664074431912
 21
1647.133974596192
 31
0.0
1001
REVIT
1002
{
1070
     3
1000
790271
1002
}
  0
LINE
  5
9D
330
87
100
AcDbEntity
  8
M-PIPE
100
AcDbLine
 10
797.6664074431635
 20
1647.999999999961
 30
0.0
 11
796.1664074431896
 21
1647.133974596192
 31
0.0
1001
REVIT
1002
{
1070
     3
1000
790271
1002
}
  0
LINE
  5
9E
330
87
100
AcDbEntity
  8
M-PIPE
100
AcDbLine
 10
835.1664074431912
 20
1647.133974596192
 30
0.0
 11
833.6664074432173
 21
1647.999999999961
 31
0.0
1001
REVIT
1002
{
1070
     3
1000
790271
1002
}
  0
LINE
  5
9F
330
87
100
AcDbEntity
  8
M-PIPE
100
AcDbLine
 10
786.5101574431896
 20
1602.499999999916
 30
0.0
 11
793.1664074431896
 21
1602.499999999916
 31
0.0
1001
REVIT
1002
{
1070
     3
1000
790271
1002
}
  0
LINE
  5
A0
330
87
100
AcDbEntity
  8
M-PIPE
100
AcDbLine
 10
793.1664074431896
 20
1624.499999999917
 30
0.0
 11
786.5101574431896
 21
1624.499999999917
 31
0.0
1001
REVIT
1002
{
1070
     3
1000
790271
1002
}
  0
SPLINE
  5
A1
330
87
100
AcDbEntity
  8
M-PIPE
100
AcDbSpline
210
0.0
220
0.0
230
1.0
 70
     8
 71
     3
 72
     8
 73
     4
 74
     0
 42
0.000000001
 43
0.0000000001
 40
-0.5056742803469776
 40
-0.5056742803469776
 40
-0.5056742803469776
 40
-0.5056742803469776
 40
-0.5
 40
-0.5
 40
-0.5
 40
-0.5
 10
800.0537477949404
 20
1575.051398150729
 30
0.0
 10
800.0689803179906
 20
1575.051331219338
 30
0.0
 10
800.0842083473692
 20
1575.051416190875
 30
0.0
 10
800.0994315871007
 20
1575.051648765386
 30
0.0
1001
REVIT
1002
{
1070
     3
1000
790271
1002
}
  0
LINE
  5
A2
330
87
100
AcDbEntity
  8
M-PIPE
100
AcDbLine
 10
799.7114425706317
 20
1574.999999999979
 30
0.0
 11
800.4213279445876
 21
1574.999999999979
 31
0.0
1001
REVIT
1002
{
1070
     3
1000
790271
1002
}
  0
LINE
  5
A3
330
87
100
AcDbEntity
  8
M-PIPE
100
AcDbLine
 10
815.0020271106493
 20
1574.999999999979
 30
0.0
 11
815.6620771130727
 21
1574.999999999979
 31
0.0
1001
REVIT
1002
{
1070
     3
1000
790271
1002
}
  0
LINE
  5
A4
330
87
100
AcDbEntity
  8
M-PIPE
100
AcDbLine
 10
815.6620771130727
 20
1574.999999999979
 30
0.0
 11
816.3257510159782
 21
1574.999999999979
 31
0.0
1001
REVIT
1002
{
1070
     3
1000
790271
1002
}
  0
LINE
  5
A5
330
87
100
AcDbEntity
  8
M-PIPE
100
AcDbLine
 10
831.0094766645816
 20
1574.999999999979
 30
0.0
 11
831.7207584151898
 21
1574.999999999979
 31
0.0
1001
REVIT
1002
{
1070
     3
1000
790271
1002
}
  0
SPLINE
  5
A6
330
87
100
AcDbEntity
  8
M-PIPE
100
AcDbSpline
210
0.0
220
0.0
230
1.0
 70
     8
 71
     3
 72
     8
 73
     4
 74
     0
 42
0.000000001
 43
0.0000000001
 40
-0.5056742803504121
 40
-0.5056742803504121
 40
-0.5056742803504121
 40
-0.5056742803504121
 40
-0.5
 40
-0.5
 40
-0.5
 40
-0.5
 10
831.2306623311666
 20
1575.051398150762
 30
0.0
 10
831.2458948542259
 20
1575.051331219371
 30
0.0
 10
831.2611228836136
 20
1575.051416190909
 30
0.0
 10
831.2763461233545
 20
1575.05164876542
 30
0.0
1001
REVIT
1002
{
1070
     3
1000
790271
1002
}
  0
LINE
  5
A7
330
87
100
AcDbEntity
  8
M-PIPE
100
AcDbLine
 10
815.670737905024
 20
1574.999999999979
 30
0.0
 11
797.6664069222907
 21
1574.999999999979
 31
0.0
1001
REVIT
1002
{
1070
     3
1000
790271
1002
}
  0
SPLINE
  5
A8
330
87
100
AcDbEntity
  8
M-PIPE
100
AcDbSpline
210
0.0
220
0.0
230
1.0
 70
     8
 71
     3
 72
     9
 73
     5
 74
     0
 42
0.000000001
 43
0.0000000001
 40
-1.0
 40
-1.0
 40
-1.0
 40
-1.0
 40
-0.5
 40
0.0
 40
0.0
 40
0.0
 40
0.0
 10
815.670737905024
 20
1574.999999999979
 30
0.0
 10
814.2835879049705
 20
1575.062166492514
 30
0.0
 10
811.6457161612716
 20
1575.557345536571
 30
0.0
 10
809.2807009303879
 20
1576.794216698601
 30
0.0
 10
808.1664074431502
 20
1577.59807530911
 30
0.0
1001
REVIT
1002
{
1070
     3
1000
790271
1002
}
  0
SPLINE
  5
A9
330
87
100
AcDbEntity
  8
M-PIPE
100
AcDbSpline
210
0.0
220
0.0
230
1.0
 70
     8
 71
     3
 72
    13
 73
     9
 74
     0
 42
0.000000001
 43
0.0000000001
 40
-1.0
 40
-1.0
 40
-1.0
 40
-1.0
 40
-0.8333333333333332
 40
-0.75
 40
-0.6666666666666666
 40
-0.3333333333333333
 40
-0.1666666666666666
 40
0.0
 40
0.0
 40
0.0
 40
0.0
 10
803.8279501751047
 20
1577.59807530911
 30
0.0
 10
803.4361596711114
 20
1577.02787024618
 30
0.0
 10
802.8367002688382
 20
1576.315920363669
 30
0.0
 10
802.0111050159814
 20
1575.653771259809
 30
0.0
 10
800.7574711159103
 20
1574.946057080617
 30
0.0
 10
799.1212365830714
 20
1574.971885689791
 30
0.0
 10
797.4948534752748
 20
1576.099223943893
 30
0.0
 10
796.7093323528337
 20
1577.036604678335
 30
0.0
 10
796.3279501750628
 20
1577.598075309111
 30
0.0
1001
REVIT
1002
{
1070
     3
1000
790271
1002
}
  0
SPLINE
  5
AA
330
87
100
AcDbEntity
  8
M-PIPE
100
AcDbSpline
210
0.0
220
0.0
230
1.0
 70
     8
 71
     3
 72
    11
 73
     7
 74
     0
 42
0.000000001
 43
0.0000000001
 40
-1.0
 40
-1.0
 40
-1.0
 40
-1.0
 40
-0.8333333333333332
 40
-0.75
 40
-0.6666666666666666
 40
-0.463541666666676
 40
-0.463541666666676
 40
-0.463541666666676
 40
-0.463541666666676
 10
835.0048647113077
 20
1577.59807530911
 30
0.0
 10
834.613074207316
 20
1577.027870246188
 30
0.0
 10
834.0136148050461
 20
1576.315920363686
 30
0.0
 10
833.1880195521945
 20
1575.653771259833
 30
0.0
 10
832.260852813606
 20
1575.130357648147
 30
0.0
 10
831.4839948698018
 20
1575.012371046248
 30
0.0
 10
830.9399906054151
 20
1575.0679771155
 30
0.0
1001
REVIT
1002
{
1070
     3
1000
790271
1002
}
  0
SPLINE
  5
AB
330
87
100
AcDbEntity
  8
M-PIPE
100
AcDbSpline
210
0.0
220
0.0
230
1.0
 70
     8
 71
     3
 72
    10
 73
     6
 74
     0
 42
0.000000001
 43
0.0000000001
 40
-0.4613426592610857
 40
-0.4613426592610857
 40
-0.4613426592610857
 40
-0.4613426592610857
 40
-0.3333333333333333
 40
-0.1666666666666666
 40
0.0
 40
0.0
 40
0.0
 40
0.0
 10
830.9223250840933
 20
1575.069832030115
 30
0.0
 10
830.5795899977626
 20
1575.106774892658
 30
0.0
 10
829.7972478734033
 20
1575.319090101872
 30
0.0
 10
828.6717680115176
 20
1576.099223943913
 30
0.0
 10
827.886246889081
 20
1577.036604678342
 30
0.0
 10
827.5048647113122
 20
1577.59807530911
 30
0.0
1001
REVIT
1002
{
1070
     3
1000
790271
1002
}
  0
SPLINE
  5
AC
330
87
100
AcDbEntity
  8
M-PIPE
100
AcDbSpline
210
0.0
220
0.0
230
1.0
 70
     8
 71
     3
 72
     9
 73
     5
 74
     0
 42
0.000000001
 43
0.0000000001
 40
-1.0
 40
-1.0
 40
-1.0
 40
-1.0
 40
-0.5
 40
0.0
 40
0.0
 40
0.0
 40
0.0
 10
823.1664074432256
 20
1577.59807530911
 30
0.0
 10
822.053347852487
 20
1576.795211767377
 30
0.0
 10
819.6910100053813
 20
1575.559335674123
 30
0.0
 10
817.0562348270191
 20
1575.06316156129
 30
0.0
 10
815.670737905024
 20
1574.999999999979
 30
0.0
1001
REVIT
1002
{
1070
     3
1000
790271
1002
}
  0
LINE
  5
AD
330
87
100
AcDbEntity
  8
M-PIPE
100
AcDbLine
 10
833.6664079640867
 20
1574.999999999979
 30
0.0
 11
831.6445286819771
 21
1574.999999999979
 31
0.0
1001
REVIT
1002
{
1070
     3
1000
790271
1002
}
  0
LINE
  5
AE
330
87
100
AcDbEntity
  8
M-PIPE
100
AcDbLine
 10
831.6202721450324
 20
1574.999999999979
 30
0.0
 11
830.9081088975121
 21
1574.999999999979
 31
0.0
1001
REVIT
1002
{
1070
     3
1000
790271
1002
}
  0
LINE
  5
AF
330
87
100
AcDbEntity
  8
M-PIPE
100
AcDbLine
 10
830.8746045961818
 20
1574.999999999979
 30
0.0
 11
815.670737905024
 21
1574.999999999979
 31
0.0
1001
REVIT
1002
{
1070
     3
1000
790271
1002
}
  0
LINE
  5
B0
330
87
100
AcDbEntity
  8
M-PIPE
100
AcDbLine
 10
796.327950175063
 20
1577.598075309111
 30
0.0
 11
796.1664074431889
 21
1577.598075309111
 31
0.0
1001
REVIT
1002
{
1070
     3
1000
790271
1002
}
  0
LINE
  5
B1
330
87
100
AcDbEntity
  8
M-PIPE
100
AcDbLine
 10
796.327950175063
 20
1577.598075309111
 30
0.0
 11
796.327950175063
 21
1589.34591799932
 31
0.0
1001
REVIT
1002
{
1070
     3
1000
790271
1002
}
  0
LINE
  5
B2
330
87
100
AcDbEntity
  8
M-PIPE
100
AcDbLine
 10
827.5048647113122
 20
1577.59807530911
 30
0.0
 11
823.1664074432256
 21
1577.59807530911
 31
0.0
1001
REVIT
1002
{
1070
     3
1000
790271
1002
}
  0
LINE
  5
B3
330
87
100
AcDbEntity
  8
M-PIPE
100
AcDbLine
 10
827.5048647113125
 20
1577.59807530911
 30
0.0
 11
827.5048647113125
 21
1589.34591799932
 31
0.0
1001
REVIT
1002
{
1070
     3
1000
790271
1002
}
  0
LINE
  5
B4
330
87
100
AcDbEntity
  8
M-PIPE
100
AcDbLine
 10
823.1664074432249
 20
1589.34591799932
 30
0.0
 11
823.1664074432249
 21
1577.59807530911
 31
0.0
1001
REVIT
1002
{
1070
     3
1000
790271
1002
}
  0
LINE
  5
B5
330
87
100
AcDbEntity
  8
M-PIPE
100
AcDbLine
 10
808.1664074431502
 20
1577.59807530911
 30
0.0
 11
803.827950175105
 21
1577.59807530911
 31
0.0
1001
REVIT
1002
{
1070
     3
1000
790271
1002
}
  0
LINE
  5
B6
330
87
100
AcDbEntity
  8
M-PIPE
100
AcDbLine
 10
808.1664074431508
 20
1577.59807530911
 30
0.0
 11
808.1664074431508
 21
1589.34591799932
 31
0.0
1001
REVIT
1002
{
1070
     3
1000
790271
1002
}
  0
LINE
  5
B7
330
87
100
AcDbEntity
  8
M-PIPE
100
AcDbLine
 10
803.8279501751047
 20
1589.34591799932
 30
0.0
 11
803.8279501751047
 21
1577.59807530911
 31
0.0
1001
REVIT
1002
{
1070
     3
1000
790271
1002
}
  0
LINE
  5
B8
330
87
100
AcDbEntity
  8
M-PIPE
100
AcDbLine
 10
835.0048647113077
 20
1589.34591799932
 30
0.0
 11
835.0048647113077
 21
1577.59807530911
 31
0.0
1001
REVIT
1002
{
1070
     3
1000
790271
1002
}
  0
LINE
  5
B9
330
87
100
AcDbEntity
  8
M-PIPE
100
AcDbLine
 10
835.1664074431885
 20
1577.598075309111
 30
0.0
 11
835.0048647113077
 21
1577.59807530911
 31
0.0
1001
REVIT
1002
{
1070
     3
1000
790271
1002
}
  0
LINE
  5
BA
330
87
100
AcDbEntity
  8
M-PIPE
100
AcDbLine
 10
796.327950175063
 20
1589.34591799932
 30
0.0
 11
796.1664074431889
 21
1589.34591799932
 31
0.0
1001
REVIT
1002
{
1070
     3
1000
790271
1002
}
  0
SPLINE
  5
BB
330
87
100
AcDbEntity
  8
M-PIPE
100
AcDbSpline
210
0.0
220
0.0
230
1.0
 70
     8
 71
     3
 72
     9
 73
     5
 74
     0
 42
0.000000001
 43
0.0000000001
 40
-1.0
 40
-1.0
 40
-1.0
 40
-1.0
 40
-0.5
 40
0.0
 40
0.0
 40
0.0
 40
0.0
 10
796.3279501750628
 20
1589.34591799932
 30
0.0
 10
797.5568682828893
 20
1589.923225501795
 30
0.0
 10
800.0357863907227
 20
1590.50053300427
 30
0.0
 10
802.5568682829176
 20
1589.923225501795
 30
0.0
 10
803.8279501751052
 20
1589.34591799932
 30
0.0
1001
REVIT
1002
{
1070
     3
1000
790271
1002
}
  0
LINE
  5
BC
330
87
100
AcDbEntity
  8
M-PIPE
100
AcDbLine
 10
808.1664074431499
 20
1589.34591799932
 30
0.0
 11
803.8279501751054
 21
1589.34591799932
 31
0.0
1001
REVIT
1002
{
1070
     3
1000
790271
1002
}
  0
SPLINE
  5
BD
330
87
100
AcDbEntity
  8
M-PIPE
100
AcDbSpline
210
0.0
220
0.0
230
1.0
 70
     8
 71
     3
 72
     9
 73
     5
 74
     0
 42
0.000000001
 43
0.0000000001
 40
-1.0
 40
-1.0
 40
-1.0
 40
-1.0
 40
-0.5
 40
0.0
 40
0.0
 40
0.0
 40
0.0
 10
808.1664074431499
 20
1589.34591799932
 30
0.0
 10
810.6242436588011
 20
1589.923225501794
 30
0.0
 10
815.5820798744652
 20
1590.500533004268
 30
0.0
 10
820.6242436588521
 20
1589.923225501794
 30
0.0
 10
823.1664074432258
 20
1589.34591799932
 30
0.0
1001
REVIT
1002
{
1070
     3
1000
790271
1002
}
  0
LINE
  5
BE
330
87
100
AcDbEntity
  8
M-PIPE
100
AcDbLine
 10
827.5048647113122
 20
1589.34591799932
 30
0.0
 11
823.1664074432258
 21
1589.34591799932
 31
0.0
1001
REVIT
1002
{
1070
     3
1000
790271
1002
}
  0
SPLINE
  5
BF
330
87
100
AcDbEntity
  8
M-PIPE
100
AcDbSpline
210
0.0
220
0.0
230
1.0
 70
     8
 71
     3
 72
     9
 73
     5
 74
     0
 42
0.000000001
 43
0.0000000001
 40
-1.0
 40
-1.0
 40
-1.0
 40
-1.0
 40
-0.5
 40
0.0
 40
0.0
 40
0.0
 40
0.0
 10
827.5048647113122
 20
1589.34591799932
 30
0.0
 10
828.733782819131
 20
1589.923225501787
 30
0.0
 10
831.212700926949
 20
1590.500533004254
 30
0.0
 10
833.733782819128
 20
1589.923225501787
 30
0.0
 10
835.0048647113077
 20
1589.34591799932
 30
0.0
1001
REVIT
1002
{
1070
     3
1000
790271
1002
}
  0
LINE
  5
C0
330
87
100
AcDbEntity
  8
M-PIPE
100
AcDbLine
 10
835.1664074431885
 20
1589.34591799932
 30
0.0
 11
835.0048647113077
 21
1589.34591799932
 31
0.0
1001
REVIT
1002
{
1070
     3
1000
790271
1002
}
  0
LINE
  5
C1
330
87
100
AcDbEntity
  8
M-PIPE
100
AcDbLine
 10
832.6664074431889
 20
1590.789293672294
 30
0.0
 11
798.6664074431887
 21
1590.789293672294
 31
0.0
1001
REVIT
1002
{
1070
     3
1000
790271
1002
}
  0
LINE
  5
C2
330
87
100
AcDbEntity
  8
M-PIPE
100
AcDbLine
 10
832.6664074431889
 20
1597.91426395451
 30
0.0
 11
798.6664074431887
 21
1597.91426395451
 31
0.0
1001
REVIT
1002
{
1070
     3
1000
790271
1002
}
  0
LINE
  5
C3
330
87
100
AcDbEntity
  8
M-PIPE
100
AcDbLine
 10
838.1664074431894
 20
1601.089690435054
 30
0.0
 11
793.1664074431881
 21
1601.089690435054
 31
0.0
1001
REVIT
1002
{
1070
     3
1000
790271
1002
}
  0
SPLINE
  5
C4
330
87
100
AcDbEntity
  8
M-PIPE
100
AcDbSpline
210
0.0
220
0.0
230
1.0
 70
     8
 71
     3
 72
    25
 73
    21
 74
     0
 42
0.000000001
 43
0.0000000001
 40
0.0
 40
0.0
 40
0.0
 40
0.0
 40
0.1111111111111111
 40
0.2222222222222222
 40
0.2777777777777778
 40
0.3333333333333333
 40
0.3611111111111111
 40
0.3888888888888888
 40
0.4444444444444445
 40
0.4791666666666666
 40
0.513888888888889
 40
0.5486111111111111
 40
0.5833333333333333
 40
0.6180555555555555
 40
0.6527777777777777
 40
0.6875
 40
0.7222222222222224
 40
0.7916666666666669
 40
0.8611111111111108
 40
1.0
 40
1.0
 40
1.0
 40
1.0
 10
793.1664074431881
 20
1624.499999999916
 30
0.0
 10
793.1664074431881
 20
1624.47813897382
 30
0.0
 10
793.4024278837096
 20
1624.038449511874
 30
0.0
 10
794.1385516459346
 20
1622.399479555306
 30
0.0
 10
794.8043029079025
 20
1620.613680001135
 30
0.0
 10
795.2086067976281
 20
1619.317032178062
 30
0.0
 10
795.4861036582132
 20
1618.200179544663
 30
0.0
 10
795.7413646694142
 20
1617.001836282465
 30
0.0
 10
795.9407235416064
 20
1615.683761370123
 30
0.0
 10
796.0313434371263
 20
1614.248211075833
 30
0.0
 10
796.0388606735515
 20
1613.003671119758
 30
0.0
 10
795.97626345345
 20
1611.789012600181
 30
0.0
 10
795.8409639332684
 20
1610.627837706413
 30
0.0
 10
795.634858147008
 20
1609.467089234439
 30
0.0
 10
795.3847182542143
 20
1608.366558028851
 30
0.0
 10
795.1113666707582
 20
1607.363866227321
 30
0.0
 10
794.7000595645952
 20
1606.089759764507
 30
0.0
 10
794.1843348250658
 20
1604.737861968601
 30
0.0
 10
793.4439782577704
 20
1603.038139568608
 30
0.0
 10
793.1664074431881
 20
1602.527015069027
 30
0.0
 10
793.1664074431881
 20
1602.499999999916
 30
0.0
1001
REVIT
1002
{
1070
     3
1000
790271
1002
}
  0
LINE
  5
C5
330
87
100
AcDbEntity
  8
M-PIPE
100
AcDbLine
 10
839.1664074431892
 20
1628.999999999782
 30
0.0
 11
792.1664074431882
 21
1628.999999999782
 31
0.0
1001
REVIT
1002
{
1070
     3
1000
790271
1002
}
  0
LINE
  5
C6
330
87
100
AcDbEntity
  8
M-PIPE
100
AcDbLine
 10
839.1664074431892
 20
1631.92820323012
 30
0.0
 11
792.1664074431882
 21
1631.92820323012
 31
0.0
1001
REVIT
1002
{
1070
     3
1000
790271
1002
}
  0
LINE
  5
C7
330
87
100
AcDbEntity
  8
M-PIPE
100
AcDbLine
 10
835.0048647113057
 20
1632.999999999845
 30
0.0
 11
827.5048647112907
 21
1632.999999999845
 31
0.0
1001
REVIT
1002
{
1070
     3
1000
790271
1002
}
  0
LINE
  5
C8
330
87
100
AcDbEntity
  8
M-PIPE
100
AcDbLine
 10
823.1664074432067
 20
1632.999999999845
 30
0.0
 11
808.1664074431234
 21
1632.999999999845
 31
0.0
1001
REVIT
1002
{
1070
     3
1000
790271
1002
}
  0
LINE
  5
C9
330
87
100
AcDbEntity
  8
M-PIPE
100
AcDbLine
 10
803.8279501750874
 20
1632.999999999845
 30
0.0
 11
796.3279501750587
 21
1632.999999999845
 31
0.0
1001
REVIT
1002
{
1070
     3
1000
790271
1002
}
  0
LINE
  5
CA
330
87
100
AcDbEntity
  8
M-PIPE
100
AcDbLine
 10
827.5048647112907
 20
1632.999999999845
 30
0.0
 11
823.1664074432067
 21
1632.999999999845
 31
0.0
1001
REVIT
1002
{
1070
     3
1000
790271
1002
}
  0
LINE
  5
CB
330
87
100
AcDbEntity
  8
M-PIPE
100
AcDbLine
 10
827.5048647112917
 20
1632.999999999845
 30
0.0
 11
827.5048647112917
 21
1647.133974596191
 31
0.0
1001
REVIT
1002
{
1070
     3
1000
790271
1002
}
  0
LINE
  5
CC
330
87
100
AcDbEntity
  8
M-PIPE
100
AcDbLine
 10
823.1664074432043
 20
1647.133974596191
 30
0.0
 11
823.1664074432043
 21
1632.999999999845
 31
0.0
1001
REVIT
1002
{
1070
     3
1000
790271
1002
}
  0
LINE
  5
CD
330
87
100
AcDbEntity
  8
M-PIPE
100
AcDbLine
 10
808.166407443123
 20
1632.999999999845
 30
0.0
 11
803.8279501750874
 21
1632.999999999845
 31
0.0
1001
REVIT
1002
{
1070
     3
1000
790271
1002
}
  0
LINE
  5
CE
330
87
100
AcDbEntity
  8
M-PIPE
100
AcDbLine
 10
808.1664074431254
 20
1632.999999999845
 30
0.0
 11
808.1664074431254
 21
1647.133974596191
 31
0.0
1001
REVIT
1002
{
1070
     3
1000
790271
1002
}
  0
LINE
  5
CF
330
87
100
AcDbEntity
  8
M-PIPE
100
AcDbLine
 10
803.827950175086
 20
1647.133974596191
 30
0.0
 11
803.827950175086
 21
1632.999999999845
 31
0.0
1001
REVIT
1002
{
1070
     3
1000
790271
1002
}
  0
LINE
  5
D0
330
87
100
AcDbEntity
  8
M-PIPE
100
AcDbLine
 10
796.3279501750584
 20
1632.999999999845
 30
0.0
 11
796.1664074431881
 21
1632.999999999845
 31
0.0
1001
REVIT
1002
{
1070
     3
1000
790271
1002
}
  0
LINE
  5
D1
330
87
100
AcDbEntity
  8
M-PIPE
100
AcDbLine
 10
796.3279501750587
 20
1632.999999999845
 30
0.0
 11
796.3279501750587
 21
1647.133974596191
 31
0.0
1001
REVIT
1002
{
1070
     3
1000
790271
1002
}
  0
LINE
  5
D2
330
87
100
AcDbEntity
  8
M-PIPE
100
AcDbLine
 10
835.0048647113057
 20
1647.133974596191
 30
0.0
 11
835.0048647113055
 21
1632.999999999845
 31
0.0
1001
REVIT
1002
{
1070
     3
1000
790271
1002
}
  0
LINE
  5
D3
330
87
100
AcDbEntity
  8
M-PIPE
100
AcDbLine
 10
835.1664074431896
 20
1632.999999999845
 30
0.0
 11
835.0048647113057
 21
1632.999999999845
 31
0.0
1001
REVIT
1002
{
1070
     3
1000
790271
1002
}
  0
LINE
  5
D4
330
87
100
AcDbEntity
  8
M-PIPE
100
AcDbLine
 10
796.3279501750584
 20
1647.133974596191
 30
0.0
 11
796.1664074431881
 21
1647.133974596191
 31
0.0
1001
REVIT
1002
{
1070
     3
1000
790271
1002
}
  0
SPLINE
  5
D5
330
87
100
AcDbEntity
  8
M-PIPE
100
AcDbSpline
210
0.0
220
0.0
230
1.0
 70
     8
 71
     3
 72
     8
 73
     4
 74
     0
 42
0.000000001
 43
0.0000000001
 40
-1.0
 40
-1.0
 40
-1.0
 40
-1.0
 40
-0.6249999999999205
 40
-0.6249999999999205
 40
-0.6249999999999205
 40
-0.6249999999999205
 10
796.3279501750584
 20
1647.133974596191
 30
0.0
 10
797.2496387559268
 20
1647.566955223048
 30
0.0
 10
798.1772566189711
 20
1647.837568114833
 30
0.0
 10
799.110803764191
 20
1647.945813271547
 30
0.0
1001
REVIT
1002
{
1070
     3
1000
790271
1002
}
  0
SPLINE
  5
D6
330
87
100
AcDbEntity
  8
M-PIPE
100
AcDbSpline
210
0.0
220
0.0
230
1.0
 70
     8
 71
     3
 72
     9
 73
     5
 74
     0
 42
0.000000001
 43
0.0000000001
 40
-0.5851103724680914
 40
-0.5851103724680914
 40
-0.5851103724680914
 40
-0.5851103724680914
 40
-0.5
 40
0.0
 40
0.0
 40
0.0
 40
0.0
 10
799.4089158182536
 20
1647.974844534244
 30
0.0
 10
799.6210808994482
 20
1647.991572078018
 30
0.0
 10
801.08175711794
 20
1648.049070706469
 30
0.0
 10
802.5568682829021
 20
1647.711282098667
 30
0.0
 10
803.8279501750874
 20
1647.133974596191
 30
0.0
1001
REVIT
1002
{
1070
     3
1000
790271
1002
}
  0
LINE
  5
D7
330
87
100
AcDbEntity
  8
M-PIPE
100
AcDbLine
 10
808.1664074431227
 20
1647.133974596191
 30
0.0
 11
803.8279501750876
 21
1647.133974596191
 31
0.0
1001
REVIT
1002
{
1070
     3
1000
790271
1002
}
  0
SPLINE
  5
D8
330
87
100
AcDbEntity
  8
M-PIPE
100
AcDbSpline
210
0.0
220
0.0
230
1.0
 70
     8
 71
     3
 72
     9
 73
     5
 74
     0
 42
0.000000001
 43
0.0000000001
 40
-1.0
 40
-1.0
 40
-1.0
 40
-1.0
 40
-0.5
 40
0.0
 40
0.0
 40
0.0
 40
0.0
 10
808.1664074431227
 20
1647.133974596191
 30
0.0
 10
809.4008941366817
 20
1647.416400443547
 30
0.0
 10
811.8853808302699
 20
1647.843163858198
 30
0.0
 10
814.4008941367966
 20
1647.993750712726
 30
0.0
 10
815.6664074432944
 20
1647.99999999996
 30
0.0
1001
REVIT
1002
{
1070
     3
1000
790271
1002
}
  0
SPLINE
  5
D9
330
87
100
AcDbEntity
  8
M-PIPE
100
AcDbSpline
210
0.0
220
0.0
230
1.0
 70
     8
 71
     3
 72
     9
 73
     5
 74
     0
 42
0.000000001
 43
0.0000000001
 40
-1.0
 40
-1.0
 40
-1.0
 40
-1.0
 40
-0.5
 40
0.0
 40
0.0
 40
0.0
 40
0.0
 10
815.6664074432944
 20
1647.99999999996
 30
0.0
 10
816.9319207497562
 20
1647.993750712716
 30
0.0
 10
819.4474340562035
 20
1647.843163858176
 30
0.0
 10
821.931920749698
 20
1647.416400443536
 30
0.0
 10
823.1664074432071
 20
1647.133974596191
 30
0.0
1001
REVIT
1002
{
1070
     3
1000
790271
1002
}
  0
LINE
  5
DA
330
87
100
AcDbEntity
  8
M-PIPE
100
AcDbLine
 10
827.5048647112907
 20
1647.133974596191
 30
0.0
 11
823.1664074432073
 21
1647.133974596191
 31
0.0
1001
REVIT
1002
{
1070
     3
1000
790271
1002
}
  0
SPLINE
  5
DB
330
87
100
AcDbEntity
  8
M-PIPE
100
AcDbSpline
210
0.0
220
0.0
230
1.0
 70
     8
 71
     3
 72
     8
 73
     4
 74
     0
 42
0.000000001
 43
0.0000000001
 40
-1.0
 40
-1.0
 40
-1.0
 40
-1.0
 40
-0.5833333333333886
 40
-0.5833333333333886
 40
-0.5833333333333886
 40
-0.5833333333333886
 10
827.5048647112905
 20
1647.133974596191
 30
0.0
 10
828.5289631344753
 20
1647.61506418158
 30
0.0
 10
829.5603816591119
 20
1647.895699773058
 30
0.0
 10
830.5991202851997
 20
1647.975881370623
 30
0.0
1001
REVIT
1002
{
1070
     3
1000
790271
1002
}
  0
SPLINE
  5
DC
330
87
100
AcDbEntity
  8
M-PIPE
100
AcDbSpline
210
0.0
220
0.0
230
1.0
 70
     8
 71
     3
 72
     9
 73
     5
 74
     0
 42
0.000000001
 43
0.0000000001
 40
-0.582794401459493
 40
-0.582794401459493
 40
-0.582794401459493
 40
-0.582794401459493
 40
-0.5
 40
-0.4162430945513063
 40
-0.4162430945513063
 40
-0.4162430945513063
 40
-0.4162430945513063
 10
830.6031509492894
 20
1647.976191493972
 30
0.0
 10
830.809558894799
 20
1647.992021064586
 30
0.0
 10
831.2249404837382
 20
1648.019314149746
 30
0.0
 10
831.6431623637772
 20
1647.968828573149
 30
0.0
 10
831.8539701531403
 20
1647.930065751332
 30
0.0
1001
REVIT
1002
{
1070
     3
1000
790271
1002
}
  0
SPLINE
  5
DD
330
87
100
AcDbEntity
  8
M-PIPE
100
AcDbSpline
210
0.0
220
0.0
230
1.0
 70
     8
 71
     3
 72
     8
 73
     4
 74
     0
 42
0.000000001
 43
0.0000000001
 40
-0.3958333333342487
 40
-0.3958333333342487
 40
-0.3958333333342487
 40
-0.3958333333342487
 40
0.0
 40
0.0
 40
0.0
 40
0.0
 10
832.005864392044
 20
1647.962350726035
 30
0.0
 10
832.9989247735712
 20
1647.867135078927
 30
0.0
 10
833.9985915466582
 20
1647.591009702313
 30
0.0
 10
835.0048647113057
 20
1647.133974596191
 30
0.0
1001
REVIT
1002
{
1070
     3
1000
790271
1002
}
  0
LINE
  5
DE
330
87
100
AcDbEntity
  8
M-PIPE
100
AcDbLine
 10
835.1664074431896
 20
1647.133974596191
 30
0.0
 11
835.0048647113057
 21
1647.133974596191
 31
0.0
1001
REVIT
1002
{
1070
     3
1000
790271
1002
}
  0
LINE
  5
DF
330
87
100
AcDbEntity
  8
M-PIPE
100
AcDbLine
 10
815.6664074433063
 20
1647.99999999996
 30
0.0
 11
797.6664074431619
 21
1647.99999999996
 31
0.0
1001
REVIT
1002
{
1070
     3
1000
790271
1002
}
  0
LINE
  5
E0
330
87
100
AcDbEntity
  8
M-PIPE
100
AcDbLine
 10
833.6664074432158
 20
1647.99999999996
 30
0.0
 11
815.6664074433063
 21
1647.99999999996
 31
0.0
1001
REVIT
1002
{
1070
     3
1000
790271
1002
}
  0
LINE
  5
E1
330
87
100
AcDbEntity
  8
M-PIPE
100
AcDbLine
 10
786.5101574431896
 20
1628.999999999917
 30
0.0
 11
774.56640744319
 21
1628.999999999917
 31
0.0
1001
REVIT
1002
{
1070
     3
1000
790271
1002
}
  0
LINE
  5
E2
330
87
100
AcDbEntity
  8
M-PIPE
100
AcDbLine
 10
774.56640744319
 20
1597.999999999917
 30
0.0
 11
786.5101574431896
 21
1597.999999999917
 31
0.0
1001
REVIT
1002
{
1070
     3
1000
790271
1002
}
  0
LINE
  5
E3
330
87
100
AcDbEntity
  8
M-PIPE
100
AcDbLine
 10
760.8645395993216
 20
1624.698132156049
 30
0.0
 11
758.1664074431897
 21
1621.999999999917
 31
0.0
1001
REVIT
1002
{
1070
     3
1000
790271
1002
}
  0
LINE
  5
E4
330
87
100
AcDbEntity
  8
M-PIPE
100
AcDbLine
 10
758.1664074431897
 20
1604.999999999917
 30
0.0
 11
760.8645395993026
 21
1602.301867843804
 31
0.0
1001
REVIT
1002
{
1070
     3
1000
790271
1002
}
  0
LINE
  5
E5
330
87
100
AcDbEntity
  8
M-PIPE
100
AcDbLine
 10
786.5101574431883
 20
1597.999999999916
 30
0.0
 11
786.5101574431883
 21
1628.999999999916
 31
0.0
1001
REVIT
1002
{
1070
     3
1000
790271
1002
}
  0
LINE
  5
E6
330
87
100
AcDbEntity
  8
M-PIPE
100
AcDbLine
 10
774.5664074431885
 20
1628.706906325662
 30
0.0
 11
774.1664074431882
 21
1628.706906325662
 31
0.0
1001
REVIT
1002
{
1070
     3
1000
790271
1002
}
  0
LINE
  5
E7
330
87
100
AcDbEntity
  8
M-PIPE
100
AcDbLine
 10
774.1664074431882
 20
1598.293093674171
 30
0.0
 11
774.5664074431882
 21
1598.293093674171
 31
0.0
1001
REVIT
1002
{
1070
     3
1000
790271
1002
}
  0
LINE
  5
E8
330
87
100
AcDbEntity
  8
M-PIPE
100
AcDbLine
 10
774.1664074431882
 20
1628.706906325662
 30
0.0
 11
774.1664074431882
 21
1598.293093674171
 31
0.0
1001
REVIT
1002
{
1070
     3
1000
790271
1002
}
  0
ARC
  5
E9
330
87
100
AcDbEntity
  8
M-PIPE
100
AcDbCircle
 10
1292.77338402876
 20
1119.376690285583
 30
0.0
 40
726.8909582149595
100
AcDbArc
 50
135.5170596040587
 51
135.9688475438157
1001
REVIT
1002
{
1070
     3
1000
790271
1002
}
  0
ARC
  5
EA
330
87
100
AcDbEntity
  8
M-PIPE
100
AcDbCircle
 10
1292.773384042101
 20
2107.623309727241
 30
0.0
 40
726.8909582335795
100
AcDbArc
 50
224.0311524561884
 51
224.4829403959337
1001
REVIT
1002
{
1070
     3
1000
790271
1002
}
  0
LINE
  5
EB
330
87
100
AcDbEntity
  8
M-PIPE
100
AcDbLine
 10
770.1664074432516
 20
1624.601801655568
 30
0.0
 11
770.1664074432516
 21
1602.398198344263
 31
0.0
1001
REVIT
1002
{
1070
     3
1000
790271
1002
}
  0
LINE
  5
EC
330
87
100
AcDbEntity
  8
M-PIPE
100
AcDbLine
 10
770.1664074432516
 20
1624.601801655568
 30
0.0
 11
761.1664074432516
 21
1624.601801655568
 31
0.0
1001
REVIT
1002
{
1070
     3
1000
790271
1002
}
  0
LINE
  5
ED
330
87
100
AcDbEntity
  8
M-PIPE
100
AcDbLine
 10
761.1664074432516
 20
1602.398198344263
 30
0.0
 11
770.1664074432516
 21
1602.398198344263
 31
0.0
1001
REVIT
1002
{
1070
     3
1000
790271
1002
}
  0
LINE
  5
EE
330
87
100
AcDbEntity
  8
M-PIPE
100
AcDbLine
 10
760.9255522351809
 20
1602.64788769645
 30
0.0
 11
761.1664074432497
 21
1602.398198344265
 31
0.0
1001
REVIT
1002
{
1070
     3
1000
790271
1002
}
  0
LINE
  5
EF
330
87
100
AcDbEntity
  8
M-PIPE
100
AcDbLine
 10
761.1664074432516
 20
1624.601801655568
 30
0.0
 11
761.1664074432516
 21
1602.398198344263
 31
0.0
1001
REVIT
1002
{
1070
     3
1000
790271
1002
}
  0
LINE
  5
F0
330
87
100
AcDbEntity
  8
M-PIPE
100
AcDbLine
 10
761.1664074432534
 20
1624.601801655571
 30
0.0
 11
760.9255522352039
 21
1624.352112303407
 31
0.0
1001
REVIT
1002
{
1070
     3
1000
790271
1002
}
  0
LINE
  5
F1
330
87
100
AcDbEntity
  8
M-PIPE
100
AcDbLine
 10
758.1664074431882
 20
1621.999999999916
 30
0.0
 11
758.1664074431882
 21
1604.999999999916
 31
0.0
1001
REVIT
1002
{
1070
     3
1000
790271
1002
}
  0
LINE
  5
F2
330
87
100
AcDbEntity
  8
M-PIPE
100
AcDbLine
 10
774.5664074431886
 20
1646.000000000043
 30
0.0
 11
758.1664074431885
 21
1646.000000000043
 31
0.0
1001
REVIT
1002
{
1070
     3
1000
790271
1002
}
  0
LINE
  5
F3
330
87
100
AcDbEntity
  8
M-PIPE
100
AcDbLine
 10
758.1664074431885
 20
1646.000000000043
 30
0.0
 11
758.1664074431885
 21
1640.000000000043
 31
0.0
1001
REVIT
1002
{
1070
     3
1000
790271
1002
}
  0
LINE
  5
F4
330
87
100
AcDbEntity
  8
M-PIPE
100
AcDbLine
 10
758.1664074431885
 20
1640.000000000043
 30
0.0
 11
760.9255522352017
 21
1624.352112303405
 31
0.0
1001
REVIT
1002
{
1070
     3
1000
790271
1002
}
  0
LINE
  5
F5
330
87
100
AcDbEntity
  8
M-PIPE
100
AcDbLine
 10
774.5664074431885
 20
1628.706906325662
 30
0.0
 11
774.5664074431886
 21
1646.000000000043
 31
0.0
1001
REVIT
1002
{
1070
     3
1000
790271
1002
}
  0
LINE
  5
F6
330
87
100
AcDbEntity
  8
M-PIPE
100
AcDbLine
 10
758.1664074431882
 20
1586.999999999916
 30
0.0
 11
758.1664074431882
 21
1580.999999999916
 31
0.0
1001
REVIT
1002
{
1070
     3
1000
790271
1002
}
  0
LINE
  5
F7
330
87
100
AcDbEntity
  8
M-PIPE
100
AcDbLine
 10
758.1664074431882
 20
1580.999999999916
 30
0.0
 11
774.5664074431882
 21
1580.999999999916
 31
0.0
1001
REVIT
1002
{
1070
     3
1000
790271
1002
}
  0
LINE
  5
F8
330
87
100
AcDbEntity
  8
M-PIPE
100
AcDbLine
 10
774.5664074431882
 20
1580.999999999916
 30
0.0
 11
774.5664074431882
 21
1598.293093674171
 31
0.0
1001
REVIT
1002
{
1070
     3
1000
790271
1002
}
  0
LINE
  5
F9
330
87
100
AcDbEntity
  8
M-PIPE
100
AcDbLine
 10
760.925552235183
 20
1602.647887696447
 30
0.0
 11
758.1664074431882
 21
1586.999999999916
 31
0.0
1001
REVIT
1002
{
1070
     3
1000
790271
1002
}
  0
LINE
  5
FA
330
87
100
AcDbEntity
  8
M-PIPE
100
AcDbLine
 10
885.8765869277121
 20
1677.14811426597
 30
0.0
 11
883.4178059992423
 21
1686.324409615702
 31
0.0
1001
REVIT
1002
{
1070
     3
1000
924063
1002
}
  0
LINE
  5
FB
330
87
100
AcDbEntity
  8
M-PIPE
100
AcDbLine
 10
866.9970669523527
 20
1681.924485848966
 30
0.0
 11
869.4531970869272
 21
1672.758083396731
 31
0.0
1001
REVIT
1002
{
1070
     3
1000
924063
1002
}
  0
LINE
  5
FC
330
87
100
AcDbEntity
  8
M-PIPE
100
AcDbLine
 10
883.4178059992423
 20
1686.324409615702
 30
0.0
 11
882.8054335635359
 21
1686.677963006301
 31
0.0
1001
REVIT
1002
{
1070
     3
1000
924063
1002
}
  0
LINE
  5
FD
330
87
100
AcDbEntity
  8
M-PIPE
100
AcDbLine
 10
867.350620342952
 20
1682.536858284672
 30
0.0
 11
866.9970669523527
 21
1681.924485848966
 31
0.0
1001
REVIT
1002
{
1070
     3
1000
924063
1002
}
  0
LINE
  5
FE
330
87
100
AcDbEntity
  8
M-PIPE
100
AcDbLine
 10
893.2476484808328
 20
1668.955929824236
 30
0.0
 11
890.70583487277
 21
1678.442107352898
 31
0.0
1001
REVIT
1002
{
1070
     3
1000
924063
1002
}
  0
LINE
  5
FF
330
87
100
AcDbEntity
  8
M-PIPE
100
AcDbLine
 10
864.6265999357646
 20
1671.454197412306
 30
0.0
 11
867.1684135438276
 21
1661.968019883644
 31
0.0
1001
REVIT
1002
{
1070
     3
1000
924063
1002
}
  0
LINE
  5
100
330
87
100
AcDbEntity
  8
M-PIPE
100
AcDbLine
 10
867.3506203429502
 20
1682.536858284671
 30
0.0
 11
882.8054335635341
 21
1686.677963006301
 31
0.0
1001
REVIT
1002
{
1070
     3
1000
924063
1002
}
  0
LINE
  5
101
330
87
100
AcDbEntity
  8
M-PIPE
100
AcDbLine
 10
883.4178059992407
 20
1686.324409615701
 30
0.0
 11
866.9970669523509
 21
1681.924485848965
 31
0.0
1001
REVIT
1002
{
1070
     3
1000
924063
1002
}
  0
LINE
  5
102
330
87
100
AcDbEntity
  8
M-PIPE
100
AcDbLine
 10
881.6108428498537
 20
1665.837857152937
 30
0.0
 11
878.8052191747857
 21
1665.086092554937
 31
0.0
1001
REVIT
1002
{
1070
     3
1000
924063
1002
}
  0
SPLINE
  5
103
330
87
100
AcDbEntity
  8
M-PIPE
100
AcDbSpline
210
0.0
220
0.0
230
1.0
 70
    24
 71
     3
 72
     8
 73
     4
 74
     0
 42
0.000000001
 43
0.0000000001
 40
0.0043677869019033
 40
0.0043677869019033
 40
0.0043677869019033
 40
0.0043677869019033
 40
0.0185301883273134
 40
0.0185301883273134
 40
0.0185301883273134
 40
0.0185301883273134
 10
878.8052191747857
 20
1665.086092554937
 30
0.0
 10
877.1144399377051
 20
1664.633049623782
 30
0.0
 10
874.857560974436
 20
1664.028320728158
 30
0.0
 10
872.0345822849786
 20
1663.271905868069
 30
0.0
1001
REVIT
1002
{
1070
     3
1000
924063
1002
}
  0
LINE
  5
104
330
87
100
AcDbEntity
  8
M-PIPE
100
AcDbLine
 10
872.0345822849786
 20
1663.271905868069
 30
0.0
 11
870.0029549287632
 21
1662.72753295865
 31
0.0
1001
REVIT
1002
{
1070
     3
1000
924063
1002
}
  0
SPLINE
  5
105
330
87
100
AcDbEntity
  8
M-PIPE
100
AcDbSpline
210
0.0
220
0.0
230
1.0
 70
    24
 71
     3
 72
     8
 73
     4
 74
     0
 42
0.000000001
 43
0.0000000001
 40
0.0033094438410981
 40
0.0033094438410981
 40
0.0033094438410981
 40
0.0033094438410981
 40
0.0174718452665524
 40
0.0174718452665524
 40
0.0174718452665524
 40
0.0174718452665524
 10
870.0029549287632
 20
1662.72753295865
 30
0.0
 10
869.8861283983703
 20
1662.696229384177
 30
0.0
 10
869.0244812108064
 20
1662.465351716108
 30
0.0
 10
867.418013366071
 20
1662.034899954445
 30
0.0
1001
REVIT
1002
{
1070
     3
1000
924063
1002
}
  0
LINE
  5
106
330
87
100
AcDbEntity
  8
M-PIPE
100
AcDbLine
 10
867.418013366071
 20
1662.034899954445
 30
0.0
 11
867.1964031128975
 21
1661.975519666073
 31
0.0
1001
REVIT
1002
{
1070
     3
1000
924063
1002
}
  0
LINE
  5
107
330
87
100
AcDbEntity
  8
M-PIPE
100
AcDbLine
 10
893.2196589117593
 20
1668.948430041806
 30
0.0
 11
892.9980486585916
 21
1668.889049753435
 31
0.0
1001
REVIT
1002
{
1070
     3
1000
924063
1002
}
  0
SPLINE
  5
108
330
87
100
AcDbEntity
  8
M-PIPE
100
AcDbSpline
210
0.0
220
0.0
230
1.0
 70
    24
 71
     3
 72
     8
 73
     4
 74
     0
 42
0.000000001
 43
0.0000000001
 40
0.0043677869018712
 40
0.0043677869018712
 40
0.0043677869018712
 40
0.0043677869018712
 40
0.0185301883275437
 40
0.0185301883275437
 40
0.0185301883275437
 40
0.0185301883275437
 10
892.9980486585916
 20
1668.889049753435
 30
0.0
 10
891.3915808138272
 20
1668.458597991764
 30
0.0
 10
890.529933626257
 20
1668.227720323694
 30
0.0
 10
890.4131070958811
 20
1668.196416749225
 30
0.0
1001
REVIT
1002
{
1070
     3
1000
924063
1002
}
  0
LINE
  5
109
330
87
100
AcDbEntity
  8
M-PIPE
100
AcDbLine
 10
890.4131070958811
 20
1668.196416749226
 30
0.0
 11
888.3814797397636
 21
1667.652043839833
 31
0.0
1001
REVIT
1002
{
1070
     3
1000
924063
1002
}
  0
SPLINE
  5
10A
330
87
100
AcDbEntity
  8
M-PIPE
100
AcDbSpline
210
0.0
220
0.0
230
1.0
 70
    24
 71
     3
 72
     8
 73
     4
 74
     0
 42
0.000000001
 43
0.0000000001
 40
0.0033094438410097
 40
0.0033094438410097
 40
0.0033094438410097
 40
0.0033094438410097
 40
0.017471845266611
 40
0.017471845266611
 40
0.017471845266611
 40
0.017471845266611
 10
888.3814797397636
 20
1667.652043839833
 30
0.0
 10
885.5585010502569
 20
1666.895628979729
 30
0.0
 10
883.3016220869536
 20
1666.290900084097
 30
0.0
 10
881.6108428498537
 20
1665.837857152937
 30
0.0
1001
REVIT
1002
{
1070
     3
1000
924063
1002
}
  0
LINE
  5
10B
330
87
100
AcDbEntity
  8
M-PIPE
100
AcDbLine
 10
876.2634055667227
 20
1674.572270083599
 30
0.0
 11
879.0690292417908
 21
1675.324034681599
 31
0.0
1001
REVIT
1002
{
1070
     3
1000
924063
1002
}
  0
SPLINE
  5
10C
330
87
100
AcDbEntity
  8
M-PIPE
100
AcDbSpline
210
0.0
220
0.0
230
1.0
 70
    24
 71
     3
 72
     8
 73
     4
 74
     0
 42
0.000000001
 43
0.0000000001
 40
-0.017471845266611
 40
-0.017471845266611
 40
-0.017471845266611
 40
-0.017471845266611
 40
-0.0033094438410097
 40
-0.0033094438410097
 40
-0.0033094438410097
 40
-0.0033094438410097
 10
879.0690292417908
 20
1675.324034681599
 30
0.0
 10
880.7598084788905
 20
1675.777077612759
 30
0.0
 10
883.0166874421937
 20
1676.381806508391
 30
0.0
 10
885.8396661317005
 20
1677.138221368495
 30
0.0
1001
REVIT
1002
{
1070
     3
1000
924063
1002
}
  0
LINE
  5
10D
330
87
100
AcDbEntity
  8
M-PIPE
100
AcDbLine
 10
885.8396661317005
 20
1677.138221368495
 30
0.0
 11
887.8712934878183
 21
1677.682594277887
 31
0.0
1001
REVIT
1002
{
1070
     3
1000
924063
1002
}
  0
SPLINE
  5
10E
330
87
100
AcDbEntity
  8
M-PIPE
100
AcDbSpline
210
0.0
220
0.0
230
1.0
 70
    24
 71
     3
 72
     8
 73
     4
 74
     0
 42
0.000000001
 43
0.0000000001
 40
-0.0185301883275437
 40
-0.0185301883275437
 40
-0.0185301883275437
 40
-0.0185301883275437
 40
-0.0043677869018712
 40
-0.0043677869018712
 40
-0.0043677869018712
 40
-0.0043677869018712
 10
887.8712934878183
 20
1677.682594277887
 30
0.0
 10
887.9881200181941
 20
1677.713897852356
 30
0.0
 10
888.8497672057644
 20
1677.944775520426
 30
0.0
 10
890.4562350505287
 20
1678.375227282097
 30
0.0
1001
REVIT
1002
{
1070
     3
1000
924063
1002
}
  0
LINE
  5
10F
330
87
100
AcDbEntity
  8
M-PIPE
100
AcDbLine
 10
890.4562350505287
 20
1678.375227282097
 30
0.0
 11
890.677845303696
 21
1678.434607570468
 31
0.0
1001
REVIT
1002
{
1070
     3
1000
924063
1002
}
  0
LINE
  5
110
330
87
100
AcDbEntity
  8
M-PIPE
100
AcDbLine
 10
864.6545895048346
 20
1671.461697194734
 30
0.0
 11
864.8761997580081
 21
1671.521077483107
 31
0.0
1001
REVIT
1002
{
1070
     3
1000
924063
1002
}
  0
SPLINE
  5
111
330
87
100
AcDbEntity
  8
M-PIPE
100
AcDbSpline
210
0.0
220
0.0
230
1.0
 70
    24
 71
     3
 72
     8
 73
     4
 74
     0
 42
0.000000001
 43
0.0000000001
 40
-0.0174718452665524
 40
-0.0174718452665524
 40
-0.0174718452665524
 40
-0.0174718452665524
 40
-0.0033094438410981
 40
-0.0033094438410981
 40
-0.0033094438410981
 40
-0.0033094438410981
 10
864.8761997580081
 20
1671.521077483107
 30
0.0
 10
866.4826676027434
 20
1671.95152924477
 30
0.0
 10
867.3443147903075
 20
1672.182406912838
 30
0.0
 10
867.4611413207001
 20
1672.213710487312
 30
0.0
1001
REVIT
1002
{
1070
     3
1000
924063
1002
}
  0
LINE
  5
112
330
87
100
AcDbEntity
  8
M-PIPE
100
AcDbLine
 10
867.4611413207001
 20
1672.213710487312
 30
0.0
 11
869.4927686769155
 21
1672.758083396731
 31
0.0
1001
REVIT
1002
{
1070
     3
1000
924063
1002
}
  0
SPLINE
  5
113
330
87
100
AcDbEntity
  8
M-PIPE
100
AcDbSpline
210
0.0
220
0.0
230
1.0
 70
    24
 71
     3
 72
     8
 73
     4
 74
     0
 42
0.000000001
 43
0.0000000001
 40
-0.0185301883273134
 40
-0.0185301883273134
 40
-0.0185301883273134
 40
-0.0185301883273134
 40
-0.0043677869019033
 40
-0.0043677869019033
 40
-0.0043677869019033
 40
-0.0043677869019033
 10
869.4927686769155
 20
1672.758083396731
 30
0.0
 10
872.3157473663729
 20
1673.514498256821
 30
0.0
 10
874.5726263296417
 20
1674.119227152443
 30
0.0
 10
876.2634055667229
 20
1674.572270083598
 30
0.0
1001
REVIT
1002
{
1070
     3
1000
924063
1002
}
  0
LINE
  5
114
330
87
100
AcDbEntity
  8
M-PIPE
100
AcDbLine
 10
879.0690292417908
 20
1675.324034681599
 30
0.0
 11
881.6108428498537
 21
1665.837857152937
 31
0.0
1001
REVIT
1002
{
1070
     3
1000
924063
1002
}
  0
LINE
  5
115
330
87
100
AcDbEntity
  8
M-PIPE
100
AcDbLine
 10
888.3814797397636
 20
1667.652043839833
 30
0.0
 11
885.8396661317005
 21
1677.138221368495
 31
0.0
1001
REVIT
1002
{
1070
     3
1000
924063
1002
}
  0
LINE
  5
116
330
87
100
AcDbEntity
  8
M-PIPE
100
AcDbLine
 10
878.8052191747857
 20
1665.086092554937
 30
0.0
 11
876.2634055667229
 21
1674.572270083599
 31
0.0
1001
REVIT
1002
{
1070
     3
1000
924063
1002
}
  0
LINE
  5
117
330
87
100
AcDbEntity
  8
M-PIPE
100
AcDbLine
 10
869.4927686769155
 20
1672.758083396731
 30
0.0
 11
872.0345822849786
 21
1663.271905868069
 31
0.0
1001
REVIT
1002
{
1070
     3
1000
924063
1002
}
  0
LINE
  5
118
330
87
100
AcDbEntity
  8
M-PIPE
100
AcDbLine
 10
864.8761997580081
 20
1671.521077483107
 30
0.0
 11
867.418013366071
 21
1662.034899954445
 31
0.0
1001
REVIT
1002
{
1070
     3
1000
924063
1002
}
  0
LINE
  5
119
330
87
100
AcDbEntity
  8
M-PIPE
100
AcDbLine
 10
870.0029549287632
 20
1662.72753295865
 30
0.0
 11
867.4611413207001
 21
1672.213710487312
 31
0.0
1001
REVIT
1002
{
1070
     3
1000
924063
1002
}
  0
LINE
  5
11A
330
87
100
AcDbEntity
  8
M-PIPE
100
AcDbLine
 10
892.9980486585916
 20
1668.889049753435
 30
0.0
 11
890.4562350505287
 21
1678.375227282097
 31
0.0
1001
REVIT
1002
{
1070
     3
1000
924063
1002
}
  0
LINE
  5
11B
330
87
100
AcDbEntity
  8
M-PIPE
100
AcDbLine
 10
887.8712934878183
 20
1677.682594277887
 30
0.0
 11
890.4131070958811
 21
1668.196416749225
 31
0.0
1001
REVIT
1002
{
1070
     3
1000
924063
1002
}
  0
LWPOLYLINE
  5
11C
330
87
100
AcDbEntity
  8
P-SANR-FIXT
100
AcDbPolyline
 90
       15
 70
   128
 43
0.0
 10
835.6664074431897
 20
2149.999999999996
 10
842.5665703517328
 20
2149.861978338447
 10
849.4556944715785
 20
2149.448134159012
 10
856.3227586737365
 20
2148.759129524099
 10
863.1567771203789
 20
2147.796066694143
 10
869.946816839837
 20
2146.560486364229
 10
876.6820152170247
 20
2145.054365199309
 10
883.3515973713037
 20
2143.280112671957
 10
889.9448933939957
 20
2141.240567207731
 10
896.4513554179596
 20
2138.938991644295
 10
902.8605744919277
 20
2136.379068011571
 10
909.1622972326089
 20
2133.564891641285
 10
915.3464422279139
 20
2130.500964615305
 10
921.4031161650639
 20
2127.192188563268
 10
925.7804583189313
 20
2124.599463200379
  0
LWPOLYLINE
  5
11D
330
87
100
AcDbEntity
  8
P-SANR-FIXT
100
AcDbPolyline
 90
       15
 70
   128
 43
0.0
 10
705.5523565674477
 20
2124.599463200379
 10
711.5088505504388
 20
2128.085360154404
 10
717.5999786718039
 20
2131.330272534208
 10
723.8159964259198
 20
2134.329009172196
 10
730.1469595103927
 20
2137.076772729442
 10
736.5827397348219
 20
2139.569167370412
 10
743.1130412237405
 20
2141.802205795366
 10
749.7274168878236
 20
2143.772315619177
 10
756.4152851370001
 20
2145.476345086396
 10
763.16594680874
 20
2146.911568113382
 10
769.9686022844332
 20
2148.075688649457
 10
776.8123687664746
 20
2148.966844350095
 10
783.6862976884177
 20
2149.583609556279
 10
790.5793922303488
 20
2149.924997575247
 10
795.6664074431897
 20
2149.999999999996
  0
LWPOLYLINE
  5
11E
330
87
100
AcDbEntity
  8
P-SANR-FIXT
100
AcDbPolyline
 90
       10
 70
   128
 43
0.0
 10
795.6664074431894
 20
2149.999999999996
 10
795.6824053099694
 20
2149.999999999996
 10
795.7303733171366
 20
2149.999999999996
 10
795.8102347261117
 20
2149.999999999996
 10
795.9218617756767
 20
2149.999999999996
 10
796.0650758863644
 20
2149.999999999996
 10
796.2396479461487
 20
2149.999999999996
 10
796.4452986769737
 20
2149.999999999996
 10
796.6816990815402
 20
2149.999999999996
 10
796.855917655193
 20
2149.999999999996
  0
LWPOLYLINE
  5
11F
330
87
100
AcDbEntity
  8
P-SANR-FIXT
100
AcDbPolyline
 90
       11
 70
   128
 43
0.0
 10
834.4817666366008
 20
2149.999999999996
 10
834.5108542565633
 20
2149.999999999996
 10
834.7636997707827
 20
2149.999999999996
 10
834.9859936911496
 20
2149.999999999996
 10
835.1773803948114
 20
2149.999999999996
 10
835.3375537038701
 20
2149.999999999996
 10
835.4662573751991
 20
2149.999999999996
 10
835.5632855103792
 20
2149.999999999996
 10
835.6284828850929
 20
2149.999999999996
 10
835.6617451974486
 20
2149.999999999996
 10
835.66640744319
 20
2149.999999999996
  0
LWPOLYLINE
  5
120
330
87
100
AcDbEntity
  8
P-SANR-FIXT
100
AcDbPolyline
 90
        4
 70
   128
 43
0.0
 10
835.66640744319
 20
2149.999999999996
 10
835.6504095764092
 20
2149.999999999996
 10
835.6024415692424
 20
2149.999999999996
 10
835.560120545068
 20
2149.999999999996
  0
LWPOLYLINE
  5
121
330
87
100
AcDbEntity
  8
P-SANR-FIXT
100
AcDbPolyline
 90
        4
 70
   128
 43
0.0
 10
795.7726943413108
 20
2149.999999999996
 10
795.7062623727201
 20
2149.999999999996
 10
795.671762378305
 20
2149.999999999996
 10
795.6664074431894
 20
2149.999999999996
  0
LWPOLYLINE
  5
122
330
87
100
AcDbEntity
  8
P-SANR-FIXT
100
AcDbPolyline
 90
       27
 70
   128
 43
0.0
 10
925.7804583189324
 20
2124.599463200378
 10
926.9594295054773
 20
2123.844634993499
 10
928.1072725634045
 20
2123.043264295898
 10
929.2221511886818
 20
2122.196633129744
 10
930.3022818133372
 20
2121.306095924297
 10
931.3459364587863
 20
2120.373077349114
 10
932.3514455002307
 20
2119.399070034882
 10
933.3172003377015
 20
2118.385632185527
 10
934.2416559694752
 20
2117.334385085419
 10
935.1233334637482
 20
2116.247010505664
 10
935.9608223246105
 20
2115.125248013629
 10
936.7527827485393
 20
2113.970892190006
 10
937.4979477677992
 20
2112.785789757861
 10
938.1951252773191
 20
2111.571836628278
 10
938.8431999418076
 20
2110.330974867302
 10
939.4411349800494
 20
2109.065189589047
 10
939.9879738235362
 20
2107.776505779939
 10
940.4828416467717
 20
2106.466985059167
 10
940.924946766804
 20
2105.138722380536
 10
941.3135819097526
 20
2103.793842680982
 10
941.6481253422924
 20
2102.434497481135
 10
941.9280418662973
 20
2101.062861443335
 10
942.1528836750411
 20
2099.681128892642
 10
942.3222910695939
 20
2098.291510306383
 10
942.4359930342619
 20
2096.896228777861
 10
942.4938076701575
 20
2095.497516459877
 10
942.5017549013363
 20
2094.751699442074
  0
LWPOLYLINE
  5
123
330
87
100
AcDbEntity
  8
P-SANR-FIXT
100
AcDbPolyline
 90
       27
 70
   128
 43
0.0
 10
688.8310599850427
 20
2094.751699442074
 10
688.8590562519087
 20
2096.151326138606
 10
688.9430002644511
 20
2097.548713730995
 10
689.0827577301576
 20
2098.941626697186
 10
689.2781050668959
 20
2100.327836673572
 10
689.5287297605995
 20
2101.705126019901
 10
689.8342308652217
 20
2103.071291367023
 10
690.194119644166
 20
2104.424147141818
 10
690.6078203521575
 20
2105.761529063638
 10
691.0746711563152
 20
2107.081297606702
 10
691.593925194942
 20
2108.381341422876
 10
692.1647517723442
 20
2109.659580719384
 10
692.7862376877681
 20
2110.913970586025
 10
693.4573886963252
 20
2112.142504266604
 10
694.1771310995732
 20
2113.343216369305
 10
694.9443134632041
 20
2114.5141860109
 10
695.7577084590926
 20
2115.653539889757
 10
696.6160148287602
 20
2116.75945528272
 10
697.5178594651116
 20
2117.830162961075
 10
698.4617996091111
 20
2118.863950020943
 10
699.4463251578922
 20
2119.859162623557
 10
700.4698610805972
 20
2120.814208641053
 10
701.5307699380928
 20
2121.727560203538
 10
702.6273545025218
 20
2122.597756143346
 10
703.7578604725069
 20
2123.423404332609
 10
704.9204792796579
 20
2124.20318391035
 10
705.5523565674469
 20
2124.599463200378
  0
LINE
  5
124
330
87
100
AcDbEntity
  8
P-SANR-FIXT
100
AcDbLine
 10
942.5017549013361
 20
2030.046193227796
 30
0.0
 11
942.5017549013361
 21
2094.751699442074
 31
0.0
  0
LINE
  5
125
330
87
100
AcDbEntity
  8
P-SANR-FIXT
100
AcDbLine
 10
688.8310599850432
 20
2094.751699442074
 30
0.0
 11
688.8310599850432
 21
2030.046193227796
 31
0.0
  0
LINE
  5
126
330
87
100
AcDbEntity
  8
P-SANR-FIXT
100
AcDbLine
 10
942.5017549013361
 20
1744.24692345492
 30
0.0
 11
942.5017549013361
 21
1969.953806772196
 31
0.0
  0
LINE
  5
127
330
87
100
AcDbEntity
  8
P-SANR-FIXT
100
AcDbLine
 10
688.8310599850432
 20
1969.953806772195
 30
0.0
 11
688.8310599850432
 21
1744.24692345492
 31
0.0
  0
LWPOLYLINE
  5
128
330
87
100
AcDbEntity
  8
P-SANR-FIXT
100
AcDbPolyline
 90
       28
 70
   128
 43
0.0
 10
942.501754901337
 20
1744.24692345492
 10
942.4737586344713
 20
1742.847296758388
 10
942.3898146219285
 20
1741.449909165999
 10
942.2500571562224
 20
1740.056996199808
 10
942.0547098194839
 20
1738.670786223422
 10
941.8040851257803
 20
1737.293496877093
 10
941.498584021158
 20
1735.92733152997
 10
941.1386952422139
 20
1734.574475755177
 10
940.7249945342224
 20
1733.237093833356
 10
940.2581437300646
 20
1731.917325290292
 10
939.738889691438
 20
1730.617281474118
 10
939.1680631140358
 20
1729.33904217761
 10
938.5465771986121
 20
1728.084652310968
 10
937.8754261900548
 20
1726.856118630389
 10
937.1556837868068
 20
1725.655406527689
 10
936.3885014231756
 20
1724.484436886094
 10
935.5751064272872
 20
1723.345083007236
 10
934.7168000576196
 20
1722.239167614274
 10
933.8149554212684
 20
1721.168459935919
 10
932.8710152772687
 20
1720.134672876051
 10
931.886489728488
 20
1719.139460273437
 10
930.8629538057827
 20
1718.18441425594
 10
929.8020449482871
 20
1717.271062693456
 10
928.7054603838582
 20
1716.400866753648
 10
927.5749544138733
 20
1715.575218564385
 10
926.4123356067219
 20
1714.795438986644
 10
925.2194639044844
 20
1714.062775501403
 10
925.0034737055333
 20
1713.937026739509
  0
LWPOLYLINE
  5
129
330
87
100
AcDbEntity
  8
P-SANR-FIXT
100
AcDbPolyline
 90
       28
 70
   128
 43
0.0
 10
706.329341180846
 20
1713.937026739509
 10
705.1312681002244
 20
1714.661153506099
 10
703.9631106975417
 20
1715.432611193315
 10
702.8267377754493
 20
1716.250165633422
 10
701.7239672882092
 20
1717.112508913721
 10
700.6565634333561
 20
1718.018261468919
 10
699.6262338293567
 20
1718.965974288146
 10
698.634626783785
 20
1719.954131233057
 10
697.6833286563835
 20
1720.981151463338
 10
696.7738613212222
 20
1722.045391965705
 10
695.9076797320287
 20
1723.145150182382
 10
695.0861695945701
 20
1724.278666734822
 10
694.3106451498199
 20
1725.444128238347
 10
693.5823470714532
 20
1726.63967020317
 10
692.9024404810339
 20
1727.863380017181
 10
692.2720130840676
 20
1729.113300005724
 10
691.6920734299049
 20
1730.387430563451
 10
691.163549298279
 20
1731.68373335327
 10
690.6872862150544
 20
1733.000134567248
 10
690.2640460995676
 20
1734.334528244259
 10
689.8945060457163
 20
1735.684779639075
 10
689.5792572387559
 20
1737.048728637503
 10
689.3188040095281
 20
1738.424193212107
 10
689.1135630276387
 20
1739.808972912982
 10
688.9638626348772
 20
1741.200852388013
 10
688.8699423199373
 20
1742.597604926956
 10
688.8319523352873
 20
1743.996996023709
 10
688.8310599850424
 20
1744.24692345492
  0
LWPOLYLINE
  5
12A
330
87
100
AcDbEntity
  8
P-SANR-FIXT
100
AcDbPolyline
 90
        7
 70
   128
 43
0.0
 10
925.0034737055326
 20
1713.937026739509
 10
917.9871684817154
 20
1710.070632411583
 10
910.8218610188343
 20
1706.487908161075
 10
903.5190142803129
 20
1703.194585582514
 10
896.0903112630747
 20
1700.195933289488
 10
888.5476363072424
 20
1697.496748485987
 10
882.8629338353588
 20
1695.715469289271
  0
LWPOLYLINE
  5
12B
330
87
100
AcDbEntity
  8
P-SANR-FIXT
100
AcDbPolyline
 90
        7
 70
   128
 43
0.0
 10
863.0901524463636
 20
1690.815635425984
 10
857.4808782975866
 20
1689.77372068624
 10
849.5523094272513
 20
1688.62683805879
 10
841.5842194936812
 20
1687.797931005294
 10
833.5893557410027
 20
1687.288325600211
 10
825.5805082457381
 20
1687.098837103478
 10
825.1250683212814
 20
1687.098004676247
  0
LWPOLYLINE
  5
12C
330
87
100
AcDbEntity
  8
P-SANR-FIXT
100
AcDbPolyline
 90
       15
 70
   128
 43
0.0
 10
801.5129760190896
 20
1687.196941920806
 10
798.4749770098203
 20
1687.257710003619
 10
790.4783038235507
 20
1687.738086985569
 10
782.5072370785639
 20
1688.537861353599
 10
774.5745287812483
 20
1689.655753639328
 10
766.6928695726586
 20
1691.08997545357
 10
758.8748684261978
 20
1692.838232347374
 10
751.1330324759492
 20
1694.897727482651
 10
743.4797470079294
 20
1697.265166106521
 10
735.9272556462732
 20
1699.93676082221
 10
728.4876407660471
 20
1702.908237648085
 10
721.1728041640261
 20
1706.174842855105
 10
713.9944480183591
 20
1709.731350571778
 10
706.9640561675774
 20
1713.572071144438
 10
706.3293411808464
 20
1713.937026739509
  0
LWPOLYLINE
  5
12D
330
87
100
AcDbEntity
  8
P-SANR-FIXT
100
AcDbPolyline
 90
       15
 70
   128
 43
0.0
 10
824.8483512202371
 20
1687.097498908443
 10
824.8410066445705
 20
1687.097498908443
 10
824.8189846673252
 20
1687.097498908443
 10
824.782320518967
 20
1687.097498908443
 10
824.7310728543117
 20
1687.097498908443
 10
824.6653236586912
 20
1687.097498908443
 10
824.5851781167919
 20
1687.097498908443
 10
824.4907644443848
 20
1687.097498908443
 10
824.3822336832048
 20
1687.097498908443
 10
824.2597594593174
 20
1687.097498908443
 10
824.1235377053554
 20
1687.097498908443
 10
823.9737863470656
 20
1687.097498908443
 10
823.8107449546756
 20
1687.097498908443
 10
823.6346743596334
 20
1687.097498908443
 10
823.5485909374594
 20
1687.097498908443
  0
LWPOLYLINE
  5
12E
330
87
100
AcDbEntity
  8
P-SANR-FIXT
100
AcDbPolyline
 90
       15
 70
   128
 43
0.0
 10
807.7814076291385
 20
1687.097498908443
 10
807.6155148708798
 20
1687.097498908443
 10
807.4454063658716
 20
1687.097498908443
 10
807.2884497088676
 20
1687.097498908443
 10
807.1448959970354
 20
1687.097498908443
 10
807.0149748856916
 20
1687.097498908443
 10
806.8988942208997
 20
1687.097498908443
 10
806.7968397069604
 20
1687.097498908443
 10
806.7089746093255
 20
1687.097498908443
 10
806.6354394934077
 20
1687.097498908443
 10
806.5763519997052
 20
1687.097498908443
 10
806.5318066556047
 20
1687.097498908443
 10
806.5018747241527
 20
1687.097498908443
 10
806.4866040900557
 20
1687.097498908443
 10
806.4844636661423
 20
1687.097498908443
  0
LWPOLYLINE
  5
12F
330
87
100
AcDbEntity
  8
P-SANR-FIXT
100
AcDbPolyline
 90
       24
 70
   128
 43
0.0
 10
821.4867621791906
 20
1687.097498908443
 10
821.7660915050387
 20
1687.097498908443
 10
822.0356626375837
 20
1687.097498908443
 10
822.2950443205199
 20
1687.097498908443
 10
822.5438215984862
 20
1687.097498908443
 10
822.7815964809073
 20
1687.097498908443
 10
823.0079885786942
 20
1687.097498908443
 10
823.2226357127846
 20
1687.097498908443
 10
823.4251944935532
 20
1687.097498908443
 10
823.6153408701607
 20
1687.097498908443
 10
823.7927706489672
 20
1687.097498908443
 10
823.9571999801762
 20
1687.097498908443
 10
824.108365811934
 20
1687.097498908443
 10
824.2460263111567
 20
1687.097498908443
 10
824.3699612504121
 20
1687.097498908443
 10
824.479972360235
 20
1687.097498908443
 10
824.5758836463174
 20
1687.097498908443
 10
824.6575416710616
 20
1687.097498908443
 10
824.7248157990478
 20
1687.097498908443
 10
824.7775984060217
 20
1687.097498908443
 10
824.8158050510728
 20
1687.097498908443
 10
824.8393746117177
 20
1687.097498908443
 10
824.8482693816889
 20
1687.097498908443
 10
824.8483512202371
 20
1687.097498908443
  0
LWPOLYLINE
  5
130
330
87
100
AcDbEntity
  8
P-SANR-FIXT
100
AcDbPolyline
 90
       24
 70
   128
 43
0.0
 10
806.4844636661423
 20
1687.097498908443
 10
806.4918082418088
 20
1687.097498908443
 10
806.513830219054
 20
1687.097498908443
 10
806.5504943674122
 20
1687.097498908443
 10
806.6017420320672
 20
1687.097498908443
 10
806.6674912276877
 20
1687.097498908443
 10
806.7476367695871
 20
1687.097498908443
 10
806.8420504419943
 20
1687.097498908443
 10
806.9505812031744
 20
1687.097498908443
 10
807.0730554270612
 20
1687.097498908443
 10
807.2092771810236
 20
1687.097498908443
 10
807.3590285393137
 20
1687.097498908443
 10
807.5220699317037
 20
1687.097498908443
 10
807.698140526746
 20
1687.097498908443
 10
807.8869586490483
 20
1687.097498908443
 10
808.0882222298942
 20
1687.097498908443
 10
808.3016092904879
 20
1687.097498908443
 10
808.5267784570527
 20
1687.097498908443
 10
808.7633695069557
 20
1687.097498908443
 10
809.0110039449871
 20
1687.097498908443
 10
809.2692856088723
 20
1687.097498908443
 10
809.5378013030455
 20
1687.097498908443
 10
809.8161214596768
 20
1687.097498908443
 10
809.8460527071821
 20
1687.097498908443
  0
LINE
  5
131
330
87
100
AcDbEntity
  8
P-SANR-FIXT
100
AcDbLine
 10
795.7726943413098
 20
2149.999999999995
 30
0.0
 11
802.3910659482217
 21
2149.999999999995
 31
0.0
  0
LINE
  5
132
330
87
100
AcDbEntity
  8
P-SANR-FIXT
100
AcDbLine
 10
828.9417489381541
 20
2149.999999999995
 30
0.0
 11
835.5601205450662
 21
2149.999999999995
 31
0.0
  0
SPLINE
  5
133
330
87
100
AcDbEntity
  8
P-SANR-FIXT
100
AcDbSpline
210
0.0
220
0.0
230
1.0
 70
     8
 71
     3
 72
     9
 73
     5
 74
     0
 42
0.000000001
 43
0.0000000001
 40
-1.0
 40
-1.0
 40
-1.0
 40
-1.0
 40
-0.75
 40
-0.5
 40
-0.5
 40
-0.5
 40
-0.5
 10
835.5601205450662
 20
2149.999999999995
 30
0.0
 10
843.5175483986578
 20
2149.996771259709
 30
0.0
 10
859.2630214267551
 20
2148.919550911091
 30
0.0
 10
874.7969327485501
 20
2145.6822224105
 30
0.0
 10
882.4155952439681
 20
2143.537467934123
 30
0.0
  0
SPLINE
  5
134
330
87
100
AcDbEntity
  8
P-SANR-FIXT
100
AcDbSpline
210
0.0
220
0.0
230
1.0
 70
     8
 71
     3
 72
     9
 73
     5
 74
     0
 42
0.000000001
 43
0.0000000001
 40
-0.4992969303035835
 40
-0.4992969303035835
 40
-0.4992969303035835
 40
-0.4992969303035835
 40
-0.25
 40
0.0
 40
0.0
 40
0.0
 40
0.0
 10
882.4798691322305
 20
2143.519360509989
 30
0.0
 10
890.0762733927235
 20
2141.377687266148
 30
0.0
 10
904.9946759619608
 20
2136.040759393579
 30
0.0
 10
918.9704528929846
 20
2128.751136646081
 30
0.0
 10
925.7612030569919
 20
2124.599463200377
 30
0.0
  0
SPLINE
  5
135
330
87
100
AcDbEntity
  8
P-SANR-FIXT
100
AcDbSpline
210
0.0
220
0.0
230
1.0
 70
     8
 71
     3
 72
     9
 73
     5
 74
     0
 42
0.000000001
 43
0.0000000001
 40
-1.0
 40
-1.0
 40
-1.0
 40
-1.0
 40
-0.75
 40
-0.5007030696964167
 40
-0.5007030696964167
 40
-0.5007030696964167
 40
-0.5007030696964167
 10
705.5716118293839
 20
2124.599463200377
 30
0.0
 10
712.3623619933916
 20
2128.751136646081
 30
0.0
 10
726.3381389244152
 20
2136.040759393579
 30
0.0
 10
741.2565414936526
 20
2141.377687266148
 30
0.0
 10
748.8529457541456
 20
2143.519360509989
 30
0.0
  0
SPLINE
  5
136
330
87
100
AcDbEntity
  8
P-SANR-FIXT
100
AcDbSpline
210
0.0
220
0.0
230
1.0
 70
     8
 71
     3
 72
     9
 73
     5
 74
     0
 42
0.000000001
 43
0.0000000001
 40
-0.5
 40
-0.5
 40
-0.5
 40
-0.5
 40
-0.25
 40
0.0
 40
0.0
 40
0.0
 40
0.0
 10
748.9172196424078
 20
2143.537467934123
 30
0.0
 10
756.5358821378261
 20
2145.6822224105
 30
0.0
 10
772.0697934596211
 20
2148.919550911091
 30
0.0
 10
787.815266487718
 20
2149.996771259709
 30
0.0
 10
795.7726943413098
 20
2149.999999999995
 30
0.0
  0
SPLINE
  5
137
330
87
100
AcDbEntity
  8
P-SANR-FIXT
100
AcDbSpline
210
0.0
220
0.0
230
1.0
 70
     8
 71
     3
 72
     9
 73
     5
 74
     0
 42
0.000000001
 43
0.0000000001
 40
-0.999355022138509
 40
-0.999355022138509
 40
-0.999355022138509
 40
-0.999355022138509
 40
-0.85
 40
-0.8322560068851574
 40
-0.8322560068851574
 40
-0.8322560068851574
 40
-0.8322560068851574
 10
925.7811231909315
 20
2124.587196586714
 30
0.0
 10
927.3183184005324
 20
2123.639941709036
 30
0.0
 10
928.9251563639115
 20
2122.470987415459
 30
0.0
 10
930.4357641130788
 20
2121.176870301272
 30
0.0
 10
930.5949871250003
 20
2121.038027891423
 30
0.0
  0
SPLINE
  5
138
330
87
100
AcDbEntity
  8
P-SANR-FIXT
100
AcDbSpline
210
0.0
220
0.0
230
1.0
 70
     8
 71
     3
 72
    11
 73
     7
 74
     0
 42
0.000000001
 43
0.0000000001
 40
-0.8200483448798578
 40
-0.8200483448798578
 40
-0.8200483448798578
 40
-0.8200483448798578
 40
-0.7
 40
-0.4
 40
-0.2
 40
0.0
 40
0.0
 40
0.0
 40
0.0
 10
930.9179791827416
 20
2120.747571944986
 30
0.0
 10
931.97795052667
 20
2119.792141793467
 30
0.0
 10
935.4833103542716
 20
2116.219034788264
 30
0.0
 10
939.4684337180986
 20
2109.899798701859
 30
0.0
 10
941.9978456220659
 20
2101.888445650079
 30
0.0
 10
942.4797179237536
 20
2097.168658618248
 30
0.0
 10
942.4850385105854
 20
2094.751699442073
 30
0.0
  0
SPLINE
  5
139
330
87
100
AcDbEntity
  8
P-SANR-FIXT
100
AcDbSpline
210
0.0
220
0.0
230
1.0
 70
     8
 71
     3
 72
    12
 73
     8
 74
     0
 42
0.000000001
 43
0.0000000001
 40
-1.0
 40
-1.0
 40
-1.0
 40
-1.0
 40
-0.85
 40
-0.7
 40
-0.4
 40
-0.2
 40
-0.1799516551200719
 40
-0.1799516551200719
 40
-0.1799516551200719
 40
-0.1799516551200719
 10
688.8477763757905
 20
2094.751699442073
 30
0.0
 10
688.8517668159146
 20
2096.564418824204
 30
0.0
 10
689.1243565815925
 20
2100.125277067
 30
0.0
 10
690.7571492759083
 20
2107.090441904469
 30
0.0
 10
694.2240286846469
 20
2114.11213548057
 30
0.0
 10
698.3196501740795
 20
2118.824609819368
 30
0.0
 10
700.2417843997311
 20
2120.592292229335
 30
0.0
 10
700.4184937030389
 20
2120.751481138738
 30
0.0
  0
SPLINE
  5
13A
330
87
100
AcDbEntity
  8
P-SANR-FIXT
100
AcDbSpline
210
0.0
220
0.0
230
1.0
 70
     8
 71
     3
 72
     8
 73
     4
 74
     0
 42
0.000000001
 43
0.0000000001
 40
-0.1677439931148421
 40
-0.1677439931148421
 40
-0.1677439931148421
 40
-0.1677439931148421
 40
-0.000644977861491
 40
-0.000644977861491
 40
-0.000644977861491
 40
-0.000644977861491
 10
700.7430621536485
 20
2121.040208741683
 30
0.0
 10
702.2320459512825
 20
2122.348161046649
 30
0.0
 10
703.8327938900375
 20
2123.526482767792
 30
0.0
 10
705.5517023390017
 20
2124.587185976997
 30
0.0
  0
LINE
  5
13B
330
87
100
AcDbEntity
  8
P-SANR-FIXT
100
AcDbLine
 10
942.485038510585
 20
2094.751699442072
 30
0.0
 11
942.485038510585
 21
2030.069321078766
 31
0.0
  0
LINE
  5
13C
330
87
100
AcDbEntity
  8
P-SANR-FIXT
100
AcDbLine
 10
688.8477763757911
 20
2030.069321078768
 30
0.0
 11
688.8477763757911
 21
2094.751699442072
 31
0.0
  0
LINE
  5
13D
330
87
100
AcDbEntity
  8
P-SANR-FIXT
100
AcDbLine
 10
942.485038510585
 20
1969.930678921224
 30
0.0
 11
942.485038510585
 21
1744.24692345492
 31
0.0
  0
LINE
  5
13E
330
87
100
AcDbEntity
  8
P-SANR-FIXT
100
AcDbLine
 10
688.8477763757911
 20
1744.24692345492
 30
0.0
 11
688.8477763757911
 21
1969.930678921222
 31
0.0
  0
SPLINE
  5
13F
330
87
100
AcDbEntity
  8
P-SANR-FIXT
100
AcDbSpline
210
0.0
220
0.0
230
1.0
 70
     8
 71
     3
 72
    10
 73
     6
 74
     0
 42
0.000000001
 43
0.0000000001
 40
-1.0
 40
-1.0
 40
-1.0
 40
-1.0
 40
-0.85
 40
-0.7
 40
-0.6668338866621826
 40
-0.6668338866621826
 40
-0.6668338866621826
 40
-0.6668338866621826
 10
942.485038510585
 20
1744.24692345492
 30
0.0
 10
942.4806257321744
 20
1742.386169751842
 30
0.0
 10
942.1939108534491
 20
1738.734359603811
 30
0.0
 10
941.2401373870379
 20
1734.772368566265
 30
0.0
 10
940.5114184348235
 20
1732.659128339452
 30
0.0
 10
940.3728662174332
 20
1732.278832538947
 30
0.0
  0
SPLINE
  5
140
330
87
100
AcDbEntity
  8
P-SANR-FIXT
100
AcDbSpline
210
0.0
220
0.0
230
1.0
 70
     8
 71
     3
 72
    10
 73
     6
 74
     0
 42
0.000000001
 43
0.0000000001
 40
-0.6666666666666669
 40
-0.6666666666666669
 40
-0.6666666666666669
 40
-0.6666666666666669
 40
-0.4
 40
-0.2
 40
-0.1801669266730568
 40
-0.1801669266730568
 40
-0.1801669266730568
 40
-0.1801669266730568
 10
940.3707700175742
 20
1732.273080486051
 30
0.0
 10
939.2562284896929
 20
1729.215565470035
 30
0.0
 10
936.5044236644912
 20
1724.192879220939
 30
0.0
 10
932.6347294204705
 20
1719.583966797801
 30
0.0
 10
930.5248697949137
 20
1717.935624453301
 30
0.0
 10
930.3322122728967
 20
1717.789694831975
 30
0.0
  0
SPLINE
  5
141
330
87
100
AcDbEntity
  8
P-SANR-FIXT
100
AcDbSpline
210
0.0
220
0.0
230
1.0
 70
     8
 71
     3
 72
     8
 73
     4
 74
     0
 42
0.000000001
 43
0.0000000001
 40
-0.1678602298119269
 40
-0.1678602298119269
 40
-0.1678602298119269
 40
-0.1678602298119269
 40
-0.0004680847922962
 40
-0.0004680847922962
 40
-0.0004680847922962
 40
-0.0004680847922962
 10
930.0185572213086
 20
1717.467168636461
 30
0.0
 10
928.4621124525058
 20
1716.158117455011
 30
0.0
 10
926.7916993051192
 20
1714.988301228663
 30
0.0
 10
924.9991223968264
 20
1713.94576956243
 30
0.0
  0
SPLINE
  5
142
330
87
100
AcDbEntity
  8
P-SANR-FIXT
100
AcDbSpline
210
0.0
220
0.0
230
1.0
 70
     8
 71
     3
 72
     9
 73
     5
 74
     0
 42
0.000000001
 43
0.0000000001
 40
-0.9995319152077035
 40
-0.9995319152077035
 40
-0.9995319152077035
 40
-0.9995319152077035
 40
-0.85
 40
-0.8321397701880689
 40
-0.8321397701880689
 40
-0.8321397701880689
 40
-0.8321397701880689
 10
706.3336867265475
 20
1713.945763548575
 30
0.0
 10
704.7317621839712
 20
1714.876422492295
 30
0.0
 10
703.0548558863686
 20
1716.035802514061
 30
0.0
 10
701.4758095990298
 20
1717.329827740534
 30
0.0
 10
701.3085535667231
 20
1717.469441482505
 30
0.0
  0
SPLINE
  5
143
330
87
100
AcDbEntity
  8
P-SANR-FIXT
100
AcDbSpline
210
0.0
220
0.0
230
1.0
 70
     8
 71
     3
 72
    10
 73
     6
 74
     0
 42
0.000000001
 43
0.0000000001
 40
-0.8198330733266502
 40
-0.8198330733266502
 40
-0.8198330733266502
 40
-0.8198330733266502
 40
-0.7
 40
-0.4
 40
-0.3333333333333334
 40
-0.3333333333333334
 40
-0.3333333333333334
 40
-0.3333333333333334
 10
700.9687119577537
 20
1717.762279499654
 30
0.0
 10
699.8643159608757
 20
1718.716364942902
 30
0.0
 10
696.1813846617067
 20
1722.3006076258
 30
0.0
 10
693.0442622777327
 20
1727.372130215407
 30
0.0
 10
691.1827212707033
 20
1731.495818948135
 30
0.0
 10
690.8788231309191
 20
1732.256721284191
 30
0.0
  0
SPLINE
  5
144
330
87
100
AcDbEntity
  8
P-SANR-FIXT
100
AcDbSpline
210
0.0
220
0.0
230
1.0
 70
     8
 71
     3
 72
     9
 73
     5
 74
     0
 42
0.000000001
 43
0.0000000001
 40
-0.3331661133378199
 40
-0.3331661133378199
 40
-0.3331661133378199
 40
-0.3331661133378199
 40
-0.2
 40
0.0
 40
0.0
 40
0.0
 40
0.0
 10
690.9576327264712
 20
1732.280200496321
 30
0.0
 10
690.4008211908453
 20
1733.811126962548
 30
0.0
 10
689.2756987740757
 20
1737.735596409387
 30
0.0
 10
688.8536600803387
 20
1741.765918517483
 30
0.0
 10
688.847776375791
 20
1744.24692345492
 30
0.0
  0
SPLINE
  5
145
330
87
100
AcDbEntity
  8
P-SANR-FIXT
100
AcDbSpline
210
0.0
220
0.0
230
1.0
 70
     8
 71
     3
 72
     9
 73
     5
 74
     0
 42
0.000000001
 43
0.0000000001
 40
-1.0
 40
-1.0
 40
-1.0
 40
-1.0
 40
-0.8
 40
-0.6357836631166294
 40
-0.6357836631166294
 40
-0.6357836631166294
 40
-0.6357836631166294
 10
924.9840815852769
 20
1713.937026739509
 30
0.0
 10
918.3685063744452
 20
1710.121005309651
 30
0.0
 10
906.0212157729187
 20
1703.899169931534
 30
0.0
 10
893.0536063219504
 20
1698.976191787716
 30
0.0
 10
887.1179671377994
 20
1697.033548389423
 30
0.0
  0
SPLINE
  5
146
330
87
100
AcDbEntity
  8
P-SANR-FIXT
100
AcDbSpline
210
0.0
220
0.0
230
1.0
 70
     8
 71
     3
 72
     9
 73
     5
 74
     0
 42
0.000000001
 43
0.0000000001
 40
-0.3763232535002243
 40
-0.3763232535002243
 40
-0.3763232535002243
 40
-0.3763232535002243
 40
-0.2
 40
-0.1896545839363299
 40
-0.1896545839363299
 40
-0.1896545839363299
 40
-0.1896545839363299
 10
858.4121979723956
 20
1689.93982728335
 30
0.0
 10
851.7965895888066
 20
1688.819301743319
 30
0.0
 10
844.7349411584644
 20
1687.812914786502
 30
0.0
 10
837.6536742887665
 20
1687.532075652688
 30
0.0
 10
837.2611685021173
 20
1687.51848949151
 30
0.0
  0
SPLINE
  5
147
330
87
100
AcDbEntity
  8
P-SANR-FIXT
100
AcDbSpline
210
0.0
220
0.0
230
1.0
 70
     8
 71
     3
 72
    11
 73
     7
 74
     0
 42
0.000000001
 43
0.0000000001
 40
-0.8053122732271646
 40
-0.8053122732271646
 40
-0.8053122732271646
 40
-0.8053122732271646
 40
-0.7
 40
-0.4
 40
-0.2
 40
0.0
 40
0.0
 40
0.0
 40
0.0
 10
793.4902624593894
 20
1687.522618470967
 30
0.0
 10
789.4979276399125
 20
1687.789203339029
 30
0.0
 10
774.1519712396809
 20
1689.260044833894
 30
0.0
 10
751.5579693402969
 20
1694.067270337775
 30
0.0
 10
726.5262913887558
 20
1703.288880326591
 30
0.0
 10
712.9643085119306
 20
1710.121005309651
 30
0.0
 10
706.3487333010994
 20
1713.937026739509
 30
0.0
  0
LINE
  5
148
330
87
100
AcDbEntity
  8
P-SANR-FIXT
100
AcDbLine
 10
889.297992228446
 20
1711.711352916716
 30
0.0
 11
879.8504716190793
 21
1709.179897398956
 31
0.0
  0
LINE
  5
149
330
87
100
AcDbEntity
  8
P-SANR-FIXT
100
AcDbLine
 10
879.8504716190793
 20
1709.179897398956
 30
0.0
 11
858.6587252577235
 21
1703.501586075218
 31
0.0
  0
LINE
  5
14A
330
87
100
AcDbEntity
  8
P-SANR-FIXT
100
AcDbLine
 10
858.6587252577235
 20
1703.501586075218
 30
0.0
 11
849.2112046483569
 21
1700.970130557458
 31
0.0
  0
LINE
  5
14B
330
87
100
AcDbEntity
  8
P-SANR-FIXT
100
AcDbLine
 10
846.6230141973323
 20
1710.629388820333
 30
0.0
 11
856.0705348066989
 21
1713.160844338093
 31
0.0
  0
LINE
  5
14C
330
87
100
AcDbEntity
  8
P-SANR-FIXT
100
AcDbLine
 10
856.0705348066989
 20
1713.160844338093
 30
0.0
 11
877.2622811680546
 21
1718.839155661832
 31
0.0
  0
LINE
  5
14D
330
87
100
AcDbEntity
  8
P-SANR-FIXT
100
AcDbLine
 10
877.2622811680546
 20
1718.839155661832
 30
0.0
 11
886.7098017774214
 21
1721.370611179591
 31
0.0
  0
LINE
  5
14E
330
87
100
AcDbEntity
  8
P-SANR-FIXT
100
AcDbLine
 10
858.6587252577235
 20
1703.501586075218
 30
0.0
 11
856.0705348066989
 21
1713.160844338093
 31
0.0
  0
LINE
  5
14F
330
87
100
AcDbEntity
  8
P-SANR-FIXT
100
AcDbLine
 10
879.8504716190793
 20
1709.179897398956
 30
0.0
 11
877.2622811680546
 21
1718.839155661832
 31
0.0
  0
LINE
  5
150
330
87
100
AcDbEntity
  8
P-SANR-FIXT
100
AcDbLine
 10
858.1250642202377
 20
1689.921179326545
 30
0.0
 11
858.4124409191783
 21
1688.848674885187
 31
0.0
  0
LINE
  5
151
330
87
100
AcDbEntity
  8
P-SANR-FIXT
100
AcDbLine
 10
887.3902157078513
 20
1696.613246238262
 30
0.0
 11
887.2452288367647
 21
1697.154344607588
 31
0.0
  0
LINE
  5
152
330
87
100
AcDbEntity
  8
P-SANR-FIXT
100
AcDbLine
 10
865.173921702836
 20
1690.660408200806
 30
0.0
 11
867.350620342564
 21
1682.536858284574
 31
0.0
  0
LINE
  5
153
330
87
100
AcDbEntity
  8
P-SANR-FIXT
100
AcDbLine
 10
882.8054335639219
 20
1686.677963006411
 30
0.0
 11
880.6287349241937
 21
1694.801512922643
 31
0.0
  0
LINE
  5
154
330
87
100
AcDbEntity
  8
P-SANR-FIXT
100
AcDbLine
 10
856.8851784118807
 20
1700.955813269236
 30
0.0
 11
882.6592946453912
 21
1707.86196689963
 31
0.0
  0
LINE
  5
155
330
87
100
AcDbEntity
  8
P-SANR-FIXT
100
AcDbLine
 10
857.7910450697229
 20
1697.575072877285
 30
0.0
 11
883.5651613032338
 21
1704.481226507679
 31
0.0
  0
LINE
  5
156
330
87
100
AcDbEntity
  8
P-SANR-FIXT
100
AcDbLine
 10
860.2678928630815
 20
1696.16818988247
 30
0.0
 11
882.1235896902852
 21
1702.024406197338
 31
0.0
  0
LINE
  5
157
330
87
100
AcDbEntity
  8
P-SANR-FIXT
100
AcDbLine
 10
857.6208185720378
 20
1692.353079922649
 30
0.0
 11
886.3235782519442
 21
1700.043961199424
 31
0.0
  0
LINE
  5
158
330
87
100
AcDbEntity
  8
P-SANR-FIXT
100
AcDbLine
 10
858.4124409191767
 20
1688.848674885186
 30
0.0
 11
887.3902157078493
 21
1696.613246238262
 31
0.0
  0
LINE
  5
159
330
87
100
AcDbEntity
  8
P-SANR-FIXT
100
AcDbLine
 10
867.3506203425624
 20
1682.536858284574
 30
0.0
 11
882.8054335639201
 21
1686.677963006411
 31
0.0
  0
LINE
  5
15A
330
87
100
AcDbEntity
  8
P-SANR-FIXT
100
AcDbLine
 10
804.6664074431891
 20
2195.000000000011
 30
0.0
 11
803.7650756679138
 21
2194.479641881653
 31
0.0
  0
LINE
  5
15B
330
87
100
AcDbEntity
  8
P-SANR-FIXT
100
AcDbLine
 10
803.593840558433
 20
2194.38078418928
 30
0.0
 11
802.9647015210146
 21
2194.017568762202
 31
0.0
  0
LINE
  5
15C
330
87
100
AcDbEntity
  8
P-SANR-FIXT
100
AcDbLine
 10
828.3681133653598
 20
2194.017568762204
 30
0.0
 11
827.7229903274101
 21
2194.390012094777
 31
0.0
  0
LINE
  5
15D
330
87
100
AcDbEntity
  8
P-SANR-FIXT
100
AcDbLine
 10
827.567739218461
 20
2194.479641881656
 30
0.0
 11
826.6664074431899
 21
2195.000000000011
 31
0.0
  0
LINE
  5
15E
330
87
100
AcDbEntity
  8
P-SANR-FIXT
100
AcDbLine
 10
831.1664074431648
 20
2170.000000000022
 30
0.0
 11
831.1664074431648
 21
2186.499999999949
 31
0.0
  0
LINE
  5
15F
330
87
100
AcDbEntity
  8
P-SANR-FIXT
100
AcDbLine
 10
800.1664074432099
 20
2186.499999999949
 30
0.0
 11
800.1664074432099
 21
2170.000000000022
 31
0.0
  0
LINE
  5
160
330
87
100
AcDbEntity
  8
P-SANR-FIXT
100
AcDbLine
 10
825.7169765672262
 20
2195.00000000001
 30
0.0
 11
825.1926868848173
 21
2195.00000000001
 31
0.0
  0
LINE
  5
161
330
87
100
AcDbEntity
  8
P-SANR-FIXT
100
AcDbLine
 10
825.1926868848173
 20
2195.00000000001
 30
0.0
 11
824.6807619713054
 21
2195.00000000001
 31
0.0
  0
LINE
  5
162
330
87
100
AcDbEntity
  8
P-SANR-FIXT
100
AcDbLine
 10
816.7265152278988
 20
2195.00000000001
 30
0.0
 11
815.6664074431883
 21
2195.00000000001
 31
0.0
  0
LINE
  5
163
330
87
100
AcDbEntity
  8
P-SANR-FIXT
100
AcDbLine
 10
815.6664074431883
 20
2195.00000000001
 30
0.0
 11
814.6062996584753
 21
2195.00000000001
 31
0.0
  0
LINE
  5
164
330
87
100
AcDbEntity
  8
P-SANR-FIXT
100
AcDbLine
 10
806.6520529150531
 20
2195.00000000001
 30
0.0
 11
806.1401280015589
 21
2195.00000000001
 31
0.0
  0
LINE
  5
165
330
87
100
AcDbEntity
  8
P-SANR-FIXT
100
AcDbLine
 10
806.1401280015589
 20
2195.00000000001
 30
0.0
 11
805.6158383191498
 21
2195.00000000001
 31
0.0
  0
LINE
  5
166
330
87
100
AcDbEntity
  8
P-SANR-FIXT
100
AcDbLine
 10
804.6664074431877
 20
2195.00000000001
 30
0.0
 11
806.1401280015589
 21
2195.00000000001
 31
0.0
  0
LINE
  5
167
330
87
100
AcDbEntity
  8
P-SANR-FIXT
100
AcDbLine
 10
806.1401280015589
 20
2195.00000000001
 30
0.0
 11
815.666407443188
 21
2195.00000000001
 31
0.0
  0
LINE
  5
168
330
87
100
AcDbEntity
  8
P-SANR-FIXT
100
AcDbLine
 10
815.666407443188
 20
2195.00000000001
 30
0.0
 11
825.1926868848173
 21
2195.00000000001
 31
0.0
  0
LINE
  5
169
330
87
100
AcDbEntity
  8
P-SANR-FIXT
100
AcDbLine
 10
825.1926868848173
 20
2195.00000000001
 30
0.0
 11
826.6664074431883
 21
2195.00000000001
 31
0.0
  0
LINE
  5
16A
330
87
100
AcDbEntity
  8
P-SANR-FIXT
100
AcDbLine
 10
802.964701521013
 20
2194.017568762201
 30
0.0
 11
802.964701521013
 21
2186.499999999947
 31
0.0
  0
SPLINE
  5
16B
330
87
100
AcDbEntity
  8
P-SANR-FIXT
100
AcDbSpline
210
0.0
220
0.0
230
1.0
 70
     8
 71
     3
 72
     9
 73
     5
 74
     0
 42
0.000000001
 43
0.0000000001
 40
0.0
 40
0.0
 40
0.0
 40
0.0
 40
0.5
 40
1.0
 40
1.0
 40
1.0
 40
1.0
 10
809.3155544820993
 20
2194.017568762201
 30
0.0
 10
808.7901559165027
 20
2194.334678590823
 30
0.0
 10
807.7355196041489
 20
2194.81552695908
 30
0.0
 10
806.6732049294742
 20
2194.989632749363
 30
0.0
 10
806.1401280015566
 20
2195.00000000001
 30
0.0
  0
SPLINE
  5
16C
330
87
100
AcDbEntity
  8
P-SANR-FIXT
100
AcDbSpline
210
0.0
220
0.0
230
1.0
 70
     8
 71
     3
 72
     9
 73
     5
 74
     0
 42
0.000000001
 43
0.0000000001
 40
0.0
 40
0.0
 40
0.0
 40
0.0
 40
0.5
 40
1.0
 40
1.0
 40
1.0
 40
1.0
 10
806.1401280015566
 20
2195.00000000001
 30
0.0
 10
805.607051073639
 20
2194.989632749363
 30
0.0
 10
804.5447363989641
 20
2194.81552695908
 30
0.0
 10
803.4901000866097
 20
2194.334678590823
 30
0.0
 10
802.964701521013
 20
2194.017568762201
 30
0.0
  0
LINE
  5
16D
330
87
100
AcDbEntity
  8
P-SANR-FIXT
100
AcDbLine
 10
809.3155544820993
 20
2186.499999999947
 30
0.0
 11
809.3155544820993
 21
2194.017568762201
 31
0.0
  0
SPLINE
  5
16E
330
87
100
AcDbEntity
  8
P-SANR-FIXT
100
AcDbSpline
210
0.0
220
0.0
230
1.0
 70
     8
 71
     3
 72
     9
 73
     5
 74
     0
 42
0.000000001
 43
0.0000000001
 40
0.0
 40
0.0
 40
0.0
 40
0.0
 40
0.5
 40
1.0
 40
1.0
 40
1.0
 40
1.0
 10
822.0172604042717
 20
2194.017568762203
 30
0.0
 10
820.9664632730786
 20
2194.334678590825
 30
0.0
 10
818.8571906483717
 20
2194.815526959082
 30
0.0
 10
816.7325612990227
 20
2194.989632749363
 30
0.0
 10
815.666407443188
 20
2195.00000000001
 30
0.0
  0
SPLINE
  5
16F
330
87
100
AcDbEntity
  8
P-SANR-FIXT
100
AcDbSpline
210
0.0
220
0.0
230
1.0
 70
     8
 71
     3
 72
     9
 73
     5
 74
     0
 42
0.000000001
 43
0.0000000001
 40
0.0
 40
0.0
 40
0.0
 40
0.0
 40
0.5
 40
1.0
 40
1.0
 40
1.0
 40
1.0
 10
815.666407443188
 20
2195.00000000001
 30
0.0
 10
814.6002535873522
 20
2194.989632749363
 30
0.0
 10
812.4756242380017
 20
2194.815526959081
 30
0.0
 10
810.3663516132932
 20
2194.334678590824
 30
0.0
 10
809.3155544820993
 20
2194.017568762201
 30
0.0
  0
LINE
  5
170
330
87
100
AcDbEntity
  8
P-SANR-FIXT
100
AcDbLine
 10
822.0172604042717
 20
2186.499999999947
 30
0.0
 11
822.0172604042717
 21
2194.017568762203
 31
0.0
  0
SPLINE
  5
171
330
87
100
AcDbEntity
  8
P-SANR-FIXT
100
AcDbSpline
210
0.0
220
0.0
230
1.0
 70
     8
 71
     3
 72
     9
 73
     5
 74
     0
 42
0.000000001
 43
0.0000000001
 40
0.0
 40
0.0
 40
0.0
 40
0.0
 40
0.5
 40
1.0
 40
1.0
 40
1.0
 40
1.0
 10
828.3681133653582
 20
2194.017568762204
 30
0.0
 10
827.8427147997616
 20
2194.334678590826
 30
0.0
 10
826.788078487408
 20
2194.815526959083
 30
0.0
 10
825.7257638127333
 20
2194.989632749364
 30
0.0
 10
825.1926868848157
 20
2195.00000000001
 30
0.0
  0
SPLINE
  5
172
330
87
100
AcDbEntity
  8
P-SANR-FIXT
100
AcDbSpline
210
0.0
220
0.0
230
1.0
 70
     8
 71
     3
 72
     9
 73
     5
 74
     0
 42
0.000000001
 43
0.0000000001
 40
0.0
 40
0.0
 40
0.0
 40
0.0
 40
0.5
 40
1.0
 40
1.0
 40
1.0
 40
1.0
 10
825.1926868848157
 20
2195.00000000001
 30
0.0
 10
824.6596099568979
 20
2194.989632749364
 30
0.0
 10
823.5972952822226
 20
2194.815526959083
 30
0.0
 10
822.5426589698686
 20
2194.334678590826
 30
0.0
 10
822.0172604042717
 20
2194.017568762203
 30
0.0
  0
LINE
  5
173
330
87
100
AcDbEntity
  8
P-SANR-FIXT
100
AcDbLine
 10
828.3681133653582
 20
2186.499999999947
 30
0.0
 11
828.3681133653582
 21
2194.017568762204
 31
0.0
  0
LINE
  5
174
330
87
100
AcDbEntity
  8
P-SANR-FIXT
100
AcDbLine
 10
800.1664074432083
 20
2186.499999999947
 30
0.0
 11
831.1664074431631
 21
2186.499999999947
 31
0.0
  0
LINE
  5
175
330
87
100
AcDbEntity
  8
P-SANR-FIXT
100
AcDbLine
 10
831.1664074431631
 20
2170.000000000021
 30
0.0
 11
800.1664074432083
 21
2170.000000000021
 31
0.0
  0
LINE
  5
176
330
87
100
AcDbEntity
  8
P-SANR-FIXT
100
AcDbLine
 10
802.2164074431897
 20
2170.000000000022
 30
0.0
 11
802.2164074431897
 21
2149.999999999996
 31
0.0
  0
LINE
  5
177
330
87
100
AcDbEntity
  8
P-SANR-FIXT
100
AcDbLine
 10
829.1164074431895
 20
2149.999999999996
 30
0.0
 11
829.1164074431895
 21
2170.000000000022
 31
0.0
  0
LINE
  5
178
330
87
100
AcDbEntity
  8
P-SANR-FIXT
100
AcDbLine
 10
798.8164074431908
 20
1687.24990362674
 30
0.0
 11
798.8164074431908
 21
1647.999999999961
 31
0.0
  0
LINE
  5
179
330
87
100
AcDbEntity
  8
P-SANR-FIXT
100
AcDbLine
 10
832.5164074431883
 20
1647.999999999961
 30
0.0
 11
832.5164074431883
 21
1687.249903626636
 31
0.0
  0
LWPOLYLINE
  5
17A
330
87
100
AcDbEntity
  8
P-SANR-FIXT
100
AcDbPolyline
 90
       14
 70
   128
 43
0.0
 10
836.0410062815855
 20
2095.177247130292
 10
839.0720155136301
 20
2095.116618861667
 10
842.9171128429581
 20
2094.885635775658
 10
846.7498976447267
 20
2094.501074569398
 10
850.5642382808701
 20
2093.963550458783
 10
854.3540326200531
 20
2093.273923367723
 10
858.1132177997798
 20
2092.433296552451
 10
861.8357799256783
 20
2091.443014836547
 10
865.5157636924522
 20
2090.304662459509
 10
869.1472819110959
 20
2089.020060542305
 10
872.7245249271421
 20
2087.591264173966
 10
876.2417699148695
 20
2086.020559123889
 10
879.6933900326035
 20
2084.31045818509
 10
882.2622582112286
 20
2082.923187541418
  0
LWPOLYLINE
  5
17B
330
87
100
AcDbEntity
  8
P-SANR-FIXT
100
AcDbPolyline
 90
       14
 70
   128
 43
0.0
 10
749.0705566751509
 20
2082.923187541418
 10
752.4687555840524
 20
2084.737125476841
 10
755.9367744665755
 20
2086.413720743592
 10
759.4690652323129
 20
2087.950291146897
 10
763.0599769695544
 20
2089.344378501897
 10
766.7037649855407
 20
2090.593752566212
 10
770.3945999967459
 20
2091.696414607859
 10
774.1265774544888
 20
2092.650600602793
 10
777.8937269909495
 20
2093.45478405697
 10
781.6900219704854
 20
2094.107678448414
 10
785.509389130962
 20
2094.608239285376
 10
789.3457182996781
 20
2094.955665777297
 10
793.1928721683362
 20
2095.149402115904
 10
794.6982146310156
 20
2095.172221731956
  0
LWPOLYLINE
  5
17C
330
87
100
AcDbEntity
  8
P-SANR-FIXT
100
AcDbPolyline
 90
       11
 70
   128
 43
0.0
 10
796.1120578941534
 20
2095.193654303761
 10
796.1276992881066
 20
2095.193654303761
 10
796.1745984470724
 20
2095.193654303761
 10
796.2526803424013
 20
2095.193654303761
 10
796.3618200597172
 20
2095.193654303761
 10
796.5018429987544
 20
2095.193654303761
 10
796.6725251526802
 20
2095.193654303761
 10
796.8735934664587
 20
2095.193654303761
 10
797.1047262736801
 20
2095.193654303761
 10
797.3655538111586
 20
2095.193654303761
 10
797.4237427140458
 20
2095.193654303761
  0
LWPOLYLINE
  5
17D
330
87
100
AcDbEntity
  8
P-SANR-FIXT
100
AcDbPolyline
 90
       10
 70
   128
 43
0.0
 10
834.2272765471101
 20
2095.193654303761
 10
834.3381639238833
 20
2095.193654303761
 10
834.5555045749572
 20
2095.193654303761
 10
834.7426267000797
 20
2095.193654303761
 10
834.8992309437672
 20
2095.193654303761
 10
835.0250667726378
 20
2095.193654303761
 10
835.119932876208
 20
2095.193654303761
 10
835.1836774889495
 20
2095.193654303761
 10
835.2161986330802
 20
2095.193654303761
 10
835.2207569922258
 20
2095.193654303761
  0
LWPOLYLINE
  5
17E
330
87
100
AcDbEntity
  8
P-SANR-FIXT
100
AcDbPolyline
 90
       80
 70
   128
 43
0.0
 10
835.2207569922258
 20
2095.193654303761
 10
835.2051155982724
 20
2095.193654303761
 10
835.1582164393068
 20
2095.193654303761
 10
835.0801345439778
 20
2095.193654303761
 10
834.9709948266617
 20
2095.193654303761
 10
834.8309718876247
 20
2095.193654303761
 10
834.6602897336991
 20
2095.193654303761
 10
834.4592214199204
 20
2095.193654303761
 10
834.2280886126991
 20
2095.193654303761
 10
833.9672610752206
 20
2095.193654303761
 10
833.6771560759046
 20
2095.193654303761
 10
833.3582377208644
 20
2095.193654303761
 10
833.0110162114362
 20
2095.193654303761
 10
832.6360470279643
 20
2095.193654303761
 10
832.2339300411533
 20
2095.193654303761
 10
831.8053085524022
 20
2095.193654303761
 10
831.3508682646581
 20
2095.193654303761
 10
830.8713361854396
 20
2095.193654303761
 10
830.3674794637785
 20
2095.193654303761
 10
829.8401041629462
 20
2095.193654303761
 10
829.2900539709227
 20
2095.193654303761
 10
828.7182088506778
 20
2095.193654303761
 10
828.1254836324167
 20
2095.193654303761
 10
827.5128265500477
 20
2095.193654303761
 10
826.8812177242086
 20
2095.193654303761
 10
826.2316675942852
 20
2095.193654303761
 10
825.5652153019223
 20
2095.193654303761
 10
824.8829270286183
 20
2095.193654303761
 10
824.1858942900632
 20
2095.193654303761
 10
823.4752321899474
 20
2095.193654303761
 10
822.7520776360304
 20
2095.193654303761
 10
822.0175875213334
 20
2095.193654303761
 10
821.272936873358
 20
2095.193654303761
 10
820.51931697429
 20
2095.193654303761
 10
819.7579334552044
 20
2095.193654303761
 10
818.9900043673118
 20
2095.193654303761
 10
818.2167582333368
 20
2095.193654303761
 10
817.4394320821434
 20
2095.193654303761
 10
816.6592694697527
 20
2095.193654303761
 10
815.8775184899191
 20
2095.193654303761
 10
815.0954297774452
 20
2095.193654303761
 10
814.3142545074345
 20
2095.193654303761
 10
813.5352423936769
 20
2095.193654303761
 10
812.7596396893743
 20
2095.193654303761
 10
811.9886871934005
 20
2095.193654303761
 10
811.2236182652877
 20
2095.193654303761
 10
810.465656852115
 20
2095.193654303761
 10
809.7160155304539
 20
2095.193654303761
 10
808.9758935665042
 20
2095.193654303761
 10
808.2464749975232
 20
2095.193654303761
 10
807.5289267376208
 20
2095.193654303761
 10
806.8243967109442
 20
2095.193654303761
 10
806.1340120152445
 20
2095.193654303761
 10
805.4588771187599
 20
2095.193654303761
 10
804.8000720933041
 20
2095.193654303761
 10
804.1586508863801
 20
2095.193654303761
 10
803.53563963509
 20
2095.193654303761
 10
802.9320350245336
 20
2095.193654303761
 10
802.3488026933257
 20
2095.193654303761
 10
801.7868756887807
 20
2095.193654303761
 10
801.2471529742336
 20
2095.193654303761
 10
800.7304979908932
 20
2095.193654303761
 10
800.2377372765192
 20
2095.193654303761
 10
799.7696591431372
 20
2095.193654303761
 10
799.3270124159103
 20
2095.193654303761
 10
798.9105052351755
 20
2095.193654303761
 10
798.5208039235713
 20
2095.193654303761
 10
798.1585319200651
 20
2095.193654303761
 10
797.8242687825813
 20
2095.193654303761
 10
797.5185492608351
 20
2095.193654303761
 10
797.2418624408436
 20
2095.193654303761
 10
796.9946509624958
 20
2095.193654303761
 10
796.7773103114218
 20
2095.193654303761
 10
796.5901881862994
 20
2095.193654303761
 10
796.4335839426117
 20
2095.193654303761
 10
796.3077481137413
 20
2095.193654303761
 10
796.2128820101712
 20
2095.193654303761
 10
796.1491373974296
 20
2095.193654303761
 10
796.1166162532991
 20
2095.193654303761
 10
796.1120578941534
 20
2095.193654303761
  0
LWPOLYLINE
  5
17F
330
87
100
AcDbEntity
  8
P-SANR-FIXT
100
AcDbPolyline
 90
       28
 70
   128
 43
0.0
 10
882.2622582112291
 20
2082.923187541418
 10
883.4698839956027
 20
2082.215106581696
 10
884.6482281220257
 20
2081.459299860155
 10
885.795405491263
 20
2080.656976506316
 10
886.9095808642413
 20
2079.809420066394
 10
887.9889717980425
 20
2078.917986449891
 10
889.0318514974302
 20
2077.98410176043
 10
890.0365515773538
 20
2077.009260014296
 10
891.0014647320108
 20
2075.995020750328
 10
891.9250473061902
 20
2074.943006534989
 10
892.8058217647944
 20
2073.854900366606
 10
893.6423790565781
 20
2072.73244298293
 10
894.4333808683305
 20
2071.577430076331
 10
895.1775617658906
 20
2070.391709421071
 10
895.8737312185723
 20
2069.177177917257
 10
896.5207755037598
 20
2067.93577855621
 10
897.1176594886257
 20
2066.669497312088
 10
897.6634282861223
 20
2065.380359964757
 10
898.1572087825982
 20
2064.070428858971
 10
898.5982110345933
 20
2062.741799605063
 10
898.9857295325803
 20
2061.396597726414
 10
899.3191443296279
 20
2060.036975259068
 10
899.5979220331856
 20
2058.665107308934
 10
899.8216166583977
 20
2057.283188572085
 10
899.9898703415825
 20
2055.893429823705
 10
900.1024139127387
 20
2054.498054381325
 10
900.1590673261611
 20
2053.09929454799
 10
900.1664074431891
 20
2052.382527978846
  0
LWPOLYLINE
  5
180
330
87
100
AcDbEntity
  8
P-SANR-FIXT
100
AcDbPolyline
 90
       28
 70
   128
 43
0.0
 10
731.1664074431901
 20
2052.382527978846
 10
731.1944037100556
 20
2053.782154675378
 10
731.2783477225982
 20
2055.179542267767
 10
731.4181051883046
 20
2056.572455233958
 10
731.6134525250431
 20
2057.958665210344
 10
731.8640772187466
 20
2059.335954556673
 10
732.169578323369
 20
2060.702119903796
 10
732.5294671023129
 20
2062.05497567859
 10
732.9431678103047
 20
2063.39235760041
 10
733.4100186144624
 20
2064.712126143474
 10
733.9292726530891
 20
2066.012169959648
 10
734.5000992304915
 20
2067.290409256155
 10
735.1215851459151
 20
2068.544799122797
 10
735.7927361544723
 20
2069.773332803376
 10
736.5124785577204
 20
2070.974044906076
 10
737.2796609213516
 20
2072.145014547672
 10
738.0930559172399
 20
2073.284368426529
 10
738.9513622869078
 20
2074.390283819492
 10
739.8532069232587
 20
2075.460991497847
 10
740.7971470672585
 20
2076.494778557715
 10
741.7816726160392
 20
2077.489991160329
 10
742.8052085387442
 20
2078.445037177825
 10
743.8661173962398
 20
2079.35838874031
 10
744.9627019606689
 20
2080.228584680118
 10
746.0932079306541
 20
2081.054232869381
 10
747.2558267378054
 20
2081.834012447122
 10
748.4486984400429
 20
2082.566675932362
 10
749.0705566751503
 20
2082.923187541418
  0
LINE
  5
181
330
87
100
AcDbEntity
  8
P-SANR-FIXT
100
AcDbLine
 10
731.1664074431903
 20
2052.382527978846
 30
0.0
 11
731.1664074431903
 21
2030.159999999997
 31
0.0
  0
LINE
  5
182
330
87
100
AcDbEntity
  8
P-SANR-FIXT
100
AcDbLine
 10
900.1664074431888
 20
2030.159999999995
 30
0.0
 11
900.1664074431888
 21
2052.382527978846
 31
0.0
  0
LINE
  5
183
330
87
100
AcDbEntity
  8
P-SANR-FIXT
100
AcDbLine
 10
731.1664074431903
 20
1969.839999999995
 30
0.0
 11
731.1664074431903
 21
1762.488553350956
 31
0.0
  0
LINE
  5
184
330
87
100
AcDbEntity
  8
P-SANR-FIXT
100
AcDbLine
 10
900.1664074431888
 20
1762.488553350956
 30
0.0
 11
900.1664074431888
 21
1969.839999999996
 31
0.0
  0
LWPOLYLINE
  5
185
330
87
100
AcDbEntity
  8
P-SANR-FIXT
100
AcDbPolyline
 90
       27
 70
   128
 43
0.0
 10
900.1664074431896
 20
1762.488553350956
 10
900.138411176324
 20
1761.088926654424
 10
900.0544671637813
 20
1759.691539062036
 10
899.9147096980751
 20
1758.298626095844
 10
899.7193623613368
 20
1756.912416119458
 10
899.468737667633
 20
1755.535126773129
 10
899.1632365630108
 20
1754.168961426007
 10
898.8033477840668
 20
1752.816105651212
 10
898.389647076075
 20
1751.478723729392
 10
897.9227962719173
 20
1750.158955186328
 10
897.4035422332907
 20
1748.858911370154
 10
896.8327156558883
 20
1747.580672073646
 10
896.2112297404646
 20
1746.326282207004
 10
895.5400787319073
 20
1745.097748526426
 10
894.8203363286593
 20
1743.897036423726
 10
894.0531539650285
 20
1742.72606678213
 10
893.2397589691399
 20
1741.586712903273
 10
892.3814525994723
 20
1740.48079751031
 10
891.479607963121
 20
1739.410089831955
 10
890.5356678191212
 20
1738.376302772087
 10
889.5511422703405
 20
1737.381090169473
 10
888.5276063476354
 20
1736.426044151976
 10
887.4666974901399
 20
1735.512692589492
 10
886.3701129257107
 20
1734.642496649684
 10
885.2396069557256
 20
1733.816848460421
 10
884.0769881485746
 20
1733.03706888268
 10
883.8763934895021
 20
1732.909229116843
  0
LWPOLYLINE
  5
186
330
87
100
AcDbEntity
  8
P-SANR-FIXT
100
AcDbPolyline
 90
       28
 70
   128
 43
0.0
 10
749.0053233172168
 20
1731.984501298462
 10
747.7992136225258
 20
1732.695161614631
 10
746.6224875198222
 20
1733.453485001993
 10
745.4770275198487
 20
1734.258258304895
 10
744.3646661142537
 20
1735.10819405773
 10
743.2871828439949
 20
1736.001932544602
 10
742.2463014524537
 20
1736.938043974586
 10
741.2436871278141
 20
1737.915030769088
 10
740.2809438391154
 20
1738.93132995765
 10
739.3596117702458
 20
1739.985315678367
 10
738.4811648559748
 20
1741.075301778926
 10
737.6470084239729
 20
1742.199544514084
 10
736.8584769465883
 20
1743.356245335289
 10
736.1168319059729
 20
1744.543553767978
 10
735.4232597759828
 20
1745.759570371937
 10
734.7788701240716
 20
1747.002349780004
 10
734.1846938362205
 20
1748.269903810237
 10
733.6416814677387
 20
1749.560204646584
 10
733.1507017225797
 20
1750.871188082959
 10
732.7125400635982
 20
1752.200756825522
 10
732.3278974559801
 20
1753.546783847914
 10
731.9973892458445
 20
1754.907115794035
 10
731.7215441758227
 20
1756.27957642296
 10
731.5008035391829
 20
1757.661970090459
 10
731.3355204738552
 20
1759.052085261558
 10
731.2259593974856
 20
1760.447698048525
 10
731.1722955844243
 20
1761.846575768618
 10
731.1664074431895
 20
1762.488553350956
  0
LWPOLYLINE
  5
187
330
87
100
AcDbEntity
  8
P-SANR-FIXT
100
AcDbPolyline
 90
        3
 70
   128
 43
0.0
 10
843.7937462584116
 20
1720.22416626857
 10
840.0452219913759
 20
1719.999058659534
 10
838.1375760845539
 20
1719.960919455824
  0
LWPOLYLINE
  5
188
330
87
100
AcDbEntity
  8
P-SANR-FIXT
100
AcDbPolyline
 90
       14
 70
   128
 43
0.0
 10
793.6207610739963
 20
1719.952426060627
 10
791.2857443369448
 20
1719.999132623076
 10
787.5372245063113
 20
1720.224314095555
 10
783.8007079488768
 20
1720.599216259087
 10
780.0821722940527
 20
1721.123239350185
 10
776.3875664056412
 20
1721.795545043688
 10
772.7228008649232
 20
1722.615057793905
 10
769.0937385149891
 20
1723.580466555256
 10
765.50618508144
 20
1724.690226879664
 10
761.9658798844652
 20
1725.942563387348
 10
758.4784866571557
 20
1727.335472607045
 10
755.0495844847374
 20
1728.866726181142
 10
751.684658879226
 20
1730.533874430572
 10
749.0053233172168
 20
1731.984501298462
  0
LWPOLYLINE
  5
189
330
87
100
AcDbEntity
  8
P-SANR-FIXT
100
AcDbPolyline
 90
       10
 70
   128
 43
0.0
 10
836.2925442776887
 20
1719.924032083969
 10
836.2760455682249
 20
1719.924032083969
 10
836.2265758342497
 20
1719.924032083969
 10
836.1442142167835
 20
1719.924032083969
 10
836.029092476846
 20
1719.924032083969
 10
835.8813947846623
 20
1719.924032083969
 10
835.7013574250327
 20
1719.924032083969
 10
835.4892684193268
 20
1719.924032083969
 10
835.2454670647109
 20
1719.924032083969
 10
835.1676476848517
 20
1719.924032083969
  0
LWPOLYLINE
  5
18A
330
87
100
AcDbEntity
  8
P-SANR-FIXT
100
AcDbPolyline
 90
       10
 70
   128
 43
0.0
 10
796.0544220235948
 20
1719.924032083969
 10
795.9712392073221
 20
1719.924032083969
 10
795.7419859663737
 20
1719.924032083969
 10
795.544607549472
 20
1719.924032083969
 10
795.3794197199778
 20
1719.924032083969
 10
795.2466867431812
 20
1719.924032083969
 10
795.1466209635302
 20
1719.924032083969
 10
795.0793824649255
 20
1719.924032083969
 10
795.0450788146214
 20
1719.924032083969
 10
795.0402706086906
 20
1719.924032083969
  0
LWPOLYLINE
  5
18B
330
87
100
AcDbEntity
  8
P-SANR-FIXT
100
AcDbPolyline
 90
       80
 70
   128
 43
0.0
 10
795.0402706086906
 20
1719.924032083969
 10
795.0567693181543
 20
1719.924032083969
 10
795.1062390521298
 20
1719.924032083969
 10
795.1886006695956
 20
1719.924032083969
 10
795.303722409533
 20
1719.924032083969
 10
795.4514201017169
 20
1719.924032083969
 10
795.6314574613465
 20
1719.924032083969
 10
795.8435464670523
 20
1719.924032083969
 10
796.0873478216682
 20
1719.924032083969
 10
796.3624714950354
 20
1719.924032083969
 10
796.6684773479665
 20
1719.924032083969
 10
797.0048758363742
 20
1719.924032083969
 10
797.3711287944382
 20
1719.924032083969
 10
797.7666502955559
 20
1719.924032083969
 10
798.1908075896981
 20
1719.924032083969
 10
798.6429221156771
 20
1719.924032083969
 10
799.1222705866972
 20
1719.924032083969
 10
799.6280861474597
 20
1719.924032083969
 10
800.1595596009689
 20
1719.924032083969
 10
800.7158407030754
 20
1719.924032083969
 10
801.2960395226816
 20
1719.924032083969
 10
801.8992278654453
 20
1719.924032083969
 10
802.5244407586921
 20
1719.924032083969
 10
803.1706779951639
 20
1719.924032083969
 10
803.836905733139
 20
1719.924032083969
 10
804.5220581503578
 20
1719.924032083969
 10
805.225039149111
 20
1719.924032083969
 10
805.9447241097615
 20
1719.924032083969
 10
806.6799616898967
 20
1719.924032083969
 10
807.4295756662314
 20
1719.924032083969
 10
808.1923668163121
 20
1719.924032083969
 10
808.9671148370186
 20
1719.924032083969
 10
809.7525802967888
 20
1719.924032083969
 10
810.5475066184441
 20
1719.924032083969
 10
811.3506220894452
 20
1719.924032083969
 10
812.1606418963603
 20
1719.924032083969
 10
812.9762701802937
 20
1719.924032083969
 10
813.7962021099824
 20
1719.924032083969
 10
814.6191259692482
 20
1719.924032083969
 10
815.4437252554647
 20
1719.924032083969
 10
816.2686807856779
 20
1719.924032083969
 10
817.0926728070218
 20
1719.924032083969
 10
817.9143831080367
 20
1719.924032083969
 10
818.7324971275307
 20
1719.924032083969
 10
819.5457060575941
 20
1719.924032083969
 10
820.3527089374141
 20
1719.924032083969
 10
821.1522147345341
 20
1719.924032083969
 10
821.9429444102313
 20
1719.924032083969
 10
822.7236329657042
 20
1719.924032083969
 10
823.4930314658024
 20
1719.924032083969
 10
824.2499090370547
 20
1719.924032083969
 10
824.9930548368068
 20
1719.924032083969
 10
825.7212799903072
 20
1719.924032083969
 10
826.4334194926579
 20
1719.924032083969
 10
827.1283340725688
 20
1719.924032083969
 10
827.8049120149539
 20
1719.924032083969
 10
828.4620709394335
 20
1719.924032083969
 10
829.0987595319151
 20
1719.924032083969
 10
829.7139592264704
 20
1719.924032083969
 10
830.3066858348236
 20
1719.924032083969
 10
830.8759911208431
 20
1719.924032083969
 10
831.4209643175162
 20
1719.924032083969
 10
831.9407335839837
 20
1719.924032083969
 10
832.4344674002967
 20
1719.924032083969
 10
832.9013758976739
 20
1719.924032083969
 10
833.3407121221208
 20
1719.924032083969
 10
833.7517732293989
 20
1719.924032083969
 10
834.1339016094249
 20
1719.924032083969
 10
834.4864859383061
 20
1719.924032083969
 10
834.8089621563318
 20
1719.924032083969
 10
835.1008143703431
 20
1719.924032083969
 10
835.3615756790571
 20
1719.924032083969
 10
835.5908289200051
 20
1719.924032083969
 10
835.7882073369074
 20
1719.924032083969
 10
835.9533951664012
 20
1719.924032083969
 10
836.0861281431976
 20
1719.924032083969
 10
836.1861939228488
 20
1719.924032083969
 10
836.2534324214536
 20
1719.924032083969
 10
836.2877360717577
 20
1719.924032083969
 10
836.2925442776887
 20
1719.924032083969
  0
LWPOLYLINE
  5
18C
330
87
100
AcDbEntity
  8
P-SANR-FIXT
100
AcDbPolyline
 90
        8
 70
   128
 43
0.0
 10
884.9687753481774
 20
1720.949952409228
 10
884.9157095309507
 20
1720.921960641373
 10
884.8615667885585
 20
1720.896113330645
 10
884.8064337378387
 20
1720.872451827229
 10
884.7503985799113
 20
1720.85101398448
 10
884.6935509590759
 20
1720.831834098378
 10
884.6359818193986
 20
1720.814942852645
 10
884.6307701192209
 20
1720.813536325762
  0
LWPOLYLINE
  5
18D
330
87
100
AcDbEntity
  8
P-SANR-FIXT
100
AcDbPolyline
 90
        7
 70
   128
 43
0.0
 10
848.6776562800077
 20
1711.18044860269
 10
848.6437952180983
 20
1711.172097628748
 10
848.5850166863556
 20
1711.160072478778
 10
848.5258042934285
 20
1711.150407461995
 10
848.4662527665138
 20
1711.143118040363
 10
848.4064573753508
 20
1711.138215875402
 10
848.3465137798106
 20
1711.13570880953
  0
LWPOLYLINE
  5
18E
330
87
100
AcDbEntity
  8
P-SANR-FIXT
100
AcDbPolyline
 90
        3
 70
   128
 43
0.0
 10
848.7361103803113
 20
1711.195591236131
 10
848.7062335690863
 20
1711.187585768691
 10
848.702045855544
 20
1711.186463674229
  0
LWPOLYLINE
  5
18F
330
87
100
AcDbEntity
  8
P-SANR-FIXT
100
AcDbPolyline
 90
        3
 70
   128
 43
0.0
 10
848.702045855544
 20
1711.186463674229
 10
848.716415429153
 20
1711.190313989873
 10
848.7455200980662
 20
1711.198112562404
  0
LWPOLYLINE
  5
190
330
87
100
AcDbEntity
  8
P-SANR-FIXT
100
AcDbPolyline
 90
        3
 70
   128
 43
0.0
 10
884.5967055944537
 20
1720.80440876386
 10
884.6265824056784
 20
1720.812414231299
 10
884.6307701192209
 20
1720.813536325762
  0
LINE
  5
191
330
87
100
AcDbEntity
  8
P-SANR-FIXT
100
AcDbLine
 10
990.6664074431899
 20
2050.519999999996
 30
0.0
 11
988.6664074431896
 21
2050.519999999996
 31
0.0
  0
LINE
  5
192
330
87
100
AcDbEntity
  8
P-SANR-FIXT
100
AcDbLine
 10
988.6664074431896
 20
1949.479999999996
 30
0.0
 11
990.6664074431899
 21
1949.479999999996
 31
0.0
  0
LINE
  5
193
330
87
100
AcDbEntity
  8
P-SANR-FIXT
100
AcDbLine
 10
988.6664074431896
 20
2082.499999999995
 30
0.0
 11
972.6664074431896
 21
2082.499999999995
 31
0.0
  0
LINE
  5
194
330
87
100
AcDbEntity
  8
P-SANR-FIXT
100
AcDbLine
 10
972.6664074431896
 20
1917.499999999997
 30
0.0
 11
988.6664074431896
 21
1917.499999999997
 31
0.0
  0
LINE
  5
195
330
87
100
AcDbEntity
  8
P-SANR-FIXT
100
AcDbLine
 10
972.6664074431896
 20
2030.159999999995
 30
0.0
 11
942.4850385105868
 21
2030.159999999995
 31
0.0
  0
LINE
  5
196
330
87
100
AcDbEntity
  8
P-SANR-FIXT
100
AcDbLine
 10
942.4850385105868
 20
1969.839999999996
 30
0.0
 11
972.6664074431896
 21
1969.839999999996
 31
0.0
  0
LINE
  5
197
330
87
100
AcDbEntity
  8
P-SANR-FIXT
100
AcDbLine
 10
688.8477763757926
 20
2030.159999999997
 30
0.0
 11
658.6664074431894
 21
2030.159999999997
 31
0.0
  0
LINE
  5
198
330
87
100
AcDbEntity
  8
P-SANR-FIXT
100
AcDbLine
 10
658.6664074431894
 20
1969.839999999995
 30
0.0
 11
688.8477763757922
 21
1969.839999999995
 31
0.0
  0
LINE
  5
199
330
87
100
AcDbEntity
  8
P-SANR-FIXT
100
AcDbLine
 10
658.6664074431894
 20
2082.499999999996
 30
0.0
 11
642.6664074431894
 21
2082.499999999996
 31
0.0
  0
LINE
  5
19A
330
87
100
AcDbEntity
  8
P-SANR-FIXT
100
AcDbLine
 10
642.6664074431894
 20
1917.499999999996
 30
0.0
 11
658.6664074431894
 21
1917.499999999996
 31
0.0
  0
LINE
  5
19B
330
87
100
AcDbEntity
  8
P-SANR-FIXT
100
AcDbLine
 10
642.6664074431894
 20
2050.519999999996
 30
0.0
 11
640.6664074431894
 21
2050.519999999996
 31
0.0
  0
LINE
  5
19C
330
87
100
AcDbEntity
  8
P-SANR-FIXT
100
AcDbLine
 10
640.6664074431894
 20
1949.479999999996
 30
0.0
 11
642.6664074431894
 21
1949.479999999996
 31
0.0
  0
LINE
  5
19D
330
87
100
AcDbEntity
  8
P-SANR-FIXT
100
AcDbLine
 10
799.4384608061251
 20
1647.99999999996
 30
0.0
 11
800.631358903546
 21
1647.99999999996
 31
0.0
  0
LINE
  5
19E
330
87
100
AcDbEntity
  8
P-SANR-FIXT
100
AcDbLine
 10
814.1470313789371
 20
1647.99999999996
 30
0.0
 11
817.1857835076297
 21
1647.99999999996
 31
0.0
  0
LINE
  5
19F
330
87
100
AcDbEntity
  8
P-SANR-FIXT
100
AcDbLine
 10
830.6380448758417
 20
1647.99999999996
 30
0.0
 11
831.8266434176326
 21
1647.99999999996
 31
0.0
  0
SPLINE
  5
1A0
330
87
100
AcDbEntity
  8
P-SANR-FIXT
100
AcDbSpline
210
0.0
220
0.0
230
1.0
 70
     8
 71
     3
 72
    15
 73
    11
 74
     0
 42
0.000000001
 43
0.0000000001
 40
0.0476190476190476
 40
0.0476190476190476
 40
0.0476190476190476
 40
0.0476190476190476
 40
0.1428571428571428
 40
0.2857142857142857
 40
0.5714285714285714
 40
0.6785714285714288
 40
0.7857142857142857
 40
0.8392857142857142
 40
0.8928571428571427
 40
1.0
 40
1.0
 40
1.0
 40
1.0
 10
731.1972876925737
 20
2030.069141871428
 30
0.0
 10
731.2382127940134
 20
2029.95398411477
 30
0.0
 10
731.4409740681593
 20
2029.391888387451
 30
0.0
 10
732.3985026071511
 20
2026.605162070052
 30
0.0
 10
734.0355949586307
 20
2021.249480112718
 30
0.0
 10
735.4162759784768
 20
2014.694746073198
 30
0.0
 10
736.0169271113002
 20
2010.844550902173
 30
0.0
 10
736.3824206169291
 20
2007.579530417074
 30
0.0
 10
736.6442331088119
 20
2004.289573426663
 30
0.0
 10
736.7287315299789
 20
2001.736193487681
 30
0.0
 10
736.732103113576
 20
1999.999999999995
 30
0.0
  0
SPLINE
  5
1A1
330
87
100
AcDbEntity
  8
P-SANR-FIXT
100
AcDbSpline
210
0.0
220
0.0
230
1.0
 70
     8
 71
     3
 72
    13
 73
     9
 74
     0
 42
0.000000001
 43
0.0000000001
 40
0.0
 40
0.0
 40
0.0
 40
0.0
 40
0.1428571428571428
 40
0.2857142857142857
 40
0.5714285714285714
 40
0.7857142857142857
 40
0.8928571428571427
 40
0.9523809523809527
 40
0.9523809523809527
 40
0.9523809523809527
 40
0.9523809523809527
 10
894.6007117728008
 20
1999.999999999995
 30
0.0
 10
894.6052072175966
 20
2002.314924650243
 30
0.0
 10
894.79942757751
 20
2006.801889995109
 30
0.0
 10
895.9070575049782
 20
2015.410432406502
 30
0.0
 10
897.9092908870578
 20
2023.434827957222
 30
0.0
 10
899.4612102304767
 20
2028.147988817857
 30
0.0
 10
899.9936644490366
 20
2029.674398745552
 30
0.0
 10
900.1096669378744
 20
2029.996888166692
 30
0.0
 10
900.1353630366102
 20
2030.069018782592
 30
0.0
  0
SPLINE
  5
1A2
330
87
100
AcDbEntity
  8
P-SANR-FIXT
100
AcDbSpline
210
0.0
220
0.0
230
1.0
 70
     8
 71
     3
 72
    15
 73
    11
 74
     0
 42
0.000000001
 43
0.0000000001
 40
0.0476190476190476
 40
0.0476190476190476
 40
0.0476190476190476
 40
0.0476190476190476
 40
0.1428571428571428
 40
0.2857142857142857
 40
0.5714285714285714
 40
0.6785714285714288
 40
0.7857142857142857
 40
0.8392857142857142
 40
0.8928571428571427
 40
1.0
 40
1.0
 40
1.0
 40
1.0
 10
900.1355271938022
 20
1969.930858128563
 30
0.0
 10
900.0946020923628
 20
1970.046015885221
 30
0.0
 10
899.8918408182166
 20
1970.608111612541
 30
0.0
 10
898.9343122792252
 20
1973.394837929939
 30
0.0
 10
897.2972199277455
 20
1978.750519887272
 30
0.0
 10
895.9165389078993
 20
1985.305253926792
 30
0.0
 10
895.3158877750761
 20
1989.155449097817
 30
0.0
 10
894.9503942694471
 20
1992.420469582916
 30
0.0
 10
894.6885817775646
 20
1995.710426573327
 30
0.0
 10
894.6040833563975
 20
1998.263806512309
 30
0.0
 10
894.6007117728008
 20
1999.999999999995
 30
0.0
  0
SPLINE
  5
1A3
330
87
100
AcDbEntity
  8
P-SANR-FIXT
100
AcDbSpline
210
0.0
220
0.0
230
1.0
 70
     8
 71
     3
 72
    13
 73
     9
 74
     0
 42
0.000000001
 43
0.0000000001
 40
0.0
 40
0.0
 40
0.0
 40
0.0
 40
0.1428571428571428
 40
0.2857142857142857
 40
0.5714285714285714
 40
0.7857142857142857
 40
0.8928571428571427
 40
0.9523809523809527
 40
0.9523809523809527
 40
0.9523809523809527
 40
0.9523809523809527
 10
736.732103113576
 20
1999.999999999995
 30
0.0
 10
736.7276076687799
 20
1997.685075349747
 30
0.0
 10
736.5333873088664
 20
1993.19811000488
 30
0.0
 10
735.4257573813978
 20
1984.589567593487
 30
0.0
 10
733.4235239993184
 20
1976.565172042767
 30
0.0
 10
731.8716046558997
 20
1971.852011182132
 30
0.0
 10
731.3391504373395
 20
1970.325601254437
 30
0.0
 10
731.2231479485017
 20
1970.003111833297
 30
0.0
 10
731.1974518497658
 20
1969.930981217397
 30
0.0
  0
SPLINE
  5
1A4
330
87
100
AcDbEntity
  8
P-SANR-FIXT
100
AcDbSpline
210
0.0
220
0.0
230
1.0
 70
     8
 71
     3
 72
     9
 73
     5
 74
     0
 42
0.000000001
 43
0.0000000001
 40
-1.0
 40
-1.0
 40
-1.0
 40
-1.0
 40
-0.5
 40
-0.2011603086722218
 40
-0.2011603086722218
 40
-0.2011603086722218
 40
-0.2011603086722218
 10
881.6000338408652
 20
1731.984501298462
 30
0.0
 10
882.3437443158239
 20
1732.283176633106
 30
0.0
 10
883.2586148013243
 20
1732.649628750163
 30
0.0
 10
883.6907496153839
 20
1732.826828897611
 30
0.0
 10
883.7834303540795
 20
1732.866252447624
 30
0.0
  0
SPLINE
  5
1A5
330
87
100
AcDbEntity
  8
P-SANR-FIXT
100
AcDbSpline
210
0.0
220
0.0
230
1.0
 70
     8
 71
     3
 72
    17
 73
    13
 74
     0
 42
0.000000001
 43
0.0000000001
 40
-0.9644004731823168
 40
-0.9644004731823168
 40
-0.9644004731823168
 40
-0.9644004731823168
 40
-0.8888888888888889
 40
-0.8333333333333332
 40
-0.7777777777777778
 40
-0.6666666666666666
 40
-0.5555555555555556
 40
-0.4444444444444445
 40
-0.3333333333333333
 40
-0.2222222222222222
 40
-0.1111111111111111
 40
0.0
 40
0.0
 40
0.0
 40
0.0
 10
843.8891037883594
 20
1720.229348470208
 30
0.0
 10
844.0210056724023
 20
1720.246751857613
 30
0.0
 10
844.486919449724
 20
1720.325798225776
 30
0.0
 10
845.7292654704202
 20
1720.531604593436
 30
0.0
 10
847.7445854846797
 20
1720.91884515125
 30
0.0
 10
851.1832322472942
 20
1721.702977577318
 30
0.0
 10
856.3823096680826
 20
1723.134980768996
 30
0.0
 10
862.1937933625849
 20
1724.948392435163
 30
0.0
 10
868.1164730033914
 20
1726.961529574245
 30
0.0
 10
873.6618151930914
 20
1728.96043656441
 30
0.0
 10
878.3711999204752
 20
1730.737078466208
 30
0.0
 10
880.6960050789811
 20
1731.623623868661
 30
0.0
 10
881.6000338408652
 20
1731.984501298462
 30
0.0
  0
LINE
  5
1A6
330
87
100
AcDbEntity
  8
P-SANR-FIXT
100
AcDbLine
 10
990.666407443188
 20
2050.519999999995
 30
0.0
 11
990.666407443188
 21
1949.479999999995
 31
0.0
  0
LINE
  5
1A7
330
87
100
AcDbEntity
  8
P-SANR-FIXT
100
AcDbLine
 10
988.666407443188
 20
2082.499999999993
 30
0.0
 11
988.666407443188
 21
1917.499999999996
 31
0.0
  0
LINE
  5
1A8
330
87
100
AcDbEntity
  8
P-SANR-FIXT
100
AcDbLine
 10
972.6664074431882
 20
2082.499999999993
 30
0.0
 11
972.6664074431882
 21
1917.499999999996
 31
0.0
  0
LINE
  5
1A9
330
87
100
AcDbEntity
  8
P-SANR-FIXT
100
AcDbLine
 10
658.666407443188
 20
2082.499999999995
 30
0.0
 11
658.666407443188
 21
1917.499999999995
 31
0.0
  0
LINE
  5
1AA
330
87
100
AcDbEntity
  8
P-SANR-FIXT
100
AcDbLine
 10
642.666407443188
 20
2082.499999999995
 30
0.0
 11
642.666407443188
 21
1917.499999999995
 31
0.0
  0
LINE
  5
1AB
330
87
100
AcDbEntity
  8
P-SANR-FIXT
100
AcDbLine
 10
640.666407443188
 20
2050.519999999995
 30
0.0
 11
640.666407443188
 21
1949.479999999995
 31
0.0
  0
ENDBLK
  5
1AD
330
87
100
AcDbEntity
  8
0
100
AcDbBlockEnd
  0
BLOCK
  5
1EA
330
1AF
100
AcDbEntity
  8
0
100
AcDbBlockBegin
  2
Automatic flow rate regulator valve_Caleffi_121 DN15 - 1_2__-V1-Est - Idraulica
 70
     0
 10
0.0
 20
0.0
 30
0.0
  3
Automatic flow rate regulator valve_Caleffi_121 DN15 - 1_2__-V1-Est - Idraulica
  1

  0
LWPOLYLINE
  5
1B0
330
1AF
100
AcDbEntity
  8
P-SANR-FIXT
100
AcDbPolyline
 90
       80
 70
   128
 43
0.0
 10
942.5017549013361
 20
1137.277070127454
 10
942.4003001517514
 20
1142.349131223636
 10
942.0960982089551
 20
1147.413078104045
 10
941.5896357311627
 20
1152.460809533926
 10
940.8817229502988
 20
1157.484250219781
 10
939.9734923757998
 20
1162.475363728123
 10
938.8663969828387
 20
1167.426165342054
 10
937.5622078878771
 20
1172.328734835105
 10
936.0630115152543
 20
1177.175229141913
 10
934.3712062593557
 20
1181.957894905452
 10
932.4894986476913
 20
1186.669080880747
 10
930.4208990110291
 20
1191.301250175237
 10
928.1687166675114
 20
1195.846992306194
 10
925.7365546284475
 20
1200.299035055916
 10
923.1283038342663
 20
1204.650256105721
 10
920.3481369298414
 20
1208.893694430141
 10
917.400501589149
 20
1213.022561433074
 10
914.2901133999387
 20
1217.030251808095
 10
911.0219483197996
 20
1220.910354105532
 10
907.6012347156888
 20
1224.65666098942
 10
904.0334449996588
 20
1228.263179167913
 10
900.3242868741677
 20
1231.724138981276
 10
896.4796942009717
 20
1235.034003632107
 10
892.5058175082114
 20
1238.187478043031
 10
888.4090141508805
 20
1241.179517327695
 10
884.1958381404124
 20
1244.005334861512
 10
879.8730296596609
 20
1246.660409939237
 10
875.447504280045
 20
1249.140495007132
 10
870.9263418981111
 20
1251.441622458142
 10
866.3167754092063
 20
1253.56011097923
 10
861.6261791363916
 20
1255.492571440681
 10
856.8620570330963
 20
1257.235912317992
 10
852.0320306783931
 20
1258.787344637653
 10
847.1438270841
 20
1260.144386438908
 10
842.2052663332062
 20
1261.30486674436
 10
837.2242490694091
 20
1262.266929033077
 10
832.2087438577716
 20
1263.029034210627
 10
827.1667744367141
 20
1263.589963071298
 10
822.1064068817478
 20
1263.948818248573
 10
817.0357367014728
 20
1264.105025650719
 10
811.962875886493
 20
1264.058335379215
 10
806.8959399319592
 20
1263.808822128536
 10
801.8430348545097
 20
1263.356885066656
 10
796.8122442243736
 20
1262.703247196466
 10
791.8116162333803
 20
1261.848954199123
 10
786.8491508195723
 20
1260.795372761183
 10
781.9327868690085
 20
1259.544188388195
 10
777.0703895152413
 20
1258.097402708251
 10
772.2697375567807
 20
1256.457330269807
 10
767.538511012676
 20
1254.626594838902
 10
762.8842788361231
 20
1252.608125201688
 10
758.314486805755
 20
1250.405150479002
 10
753.8364456139824
 20
1248.021194960457
 10
749.4573191714484
 20
1245.460072466332
 10
745.1841131462968
 20
1242.725880246275
 10
741.0236637565994
 20
1239.822992424574
 10
736.9826268338644
 20
1236.756053002494
 10
733.0674671751268
 20
1233.529968428866
 10
729.2844482006501
 20
1230.149899750811
 10
725.6396219337929
 20
1226.621254357173
 10
722.1388193190611
 20
1222.949677327844
 10
718.7876408938397
 20
1219.141042402842
 10
715.5914478287294
 20
1215.201442585582
 10
712.555353350816
 20
1211.137180395369
 10
709.6842145635987
 20
1206.95475778471
 10
706.9826246766601
 20
1202.66086573758
 10
704.4549056575107
 20
1198.262373565273
 10
702.1051013173633
 20
1193.76631791697
 10
699.9369708418977
 20
1189.179891522601
 10
697.9539827773642
 20
1184.510431686011
 10
696.1593094816513
 20
1179.76540854684
 10
694.5558220491887
 20
1174.952413129893
 10
693.14608571781
 20
1170.07914520112
 10
691.9323557649171
 20
1165.153400949633
 10
690.9165738995193
 20
1160.183060515463
 10
690.1003651559132
 20
1155.176075383024
 10
689.4850352939728
 20
1150.140455660425
 10
689.0715687102144
 20
1145.084257265017
 10
688.8606268629699
 20
1140.015569035633
 10
688.8310599850423
 20
1137.277070127454
  0
LINE
  5
1B1
330
1AF
100
AcDbEntity
  8
P-SANR-FIXT
100
AcDbLine
 10
942.4850385105864
 20
1135.217900629776
 30
0.0
 11
942.5017549013361
 21
1137.277070127454
 31
0.0
  0
LINE
  5
1B2
330
1AF
100
AcDbEntity
  8
P-SANR-FIXT
100
AcDbLine
 10
688.8310599850423
 20
1137.277070127454
 30
0.0
 11
688.8477763757918
 21
1135.217900629779
 31
0.0
  0
LINE
  5
1B3
330
1AF
100
AcDbEntity
  8
P-SANR-FIXT
100
AcDbLine
 10
795.7726943413097
 20
1135.217900629777
 30
0.0
 11
800.3186332263279
 21
1135.217900629777
 31
0.0
  0
LINE
  5
1B4
330
1AF
100
AcDbEntity
  8
P-SANR-FIXT
100
AcDbLine
 10
831.0141816600427
 20
1135.217900629777
 30
0.0
 11
835.5601205450659
 21
1135.217900629777
 31
0.0
  0
SPLINE
  5
1B5
330
1AF
100
AcDbEntity
  8
P-SANR-FIXT
100
AcDbSpline
210
0.0
220
0.0
230
1.0
 70
    24
 71
     3
 72
    11
 73
     7
 74
     0
 42
0.000000001
 43
0.0000000001
 40
-1.0
 40
-1.0
 40
-1.0
 40
-1.0
 40
-0.75
 40
-0.5
 40
-0.25
 40
0.0
 40
0.0
 40
0.0
 40
0.0
 10
835.5601205450659
 20
1135.217900629777
 30
0.0
 10
843.5175483986578
 20
1135.217900629777
 30
0.0
 10
859.2630214267547
 20
1135.217900629777
 30
0.0
 10
882.5638884094471
 20
1135.217900629776
 30
0.0
 10
904.9749963992642
 20
1135.217900629776
 30
0.0
 10
918.9704528929842
 20
1135.217900629776
 30
0.0
 10
925.7612030569916
 20
1135.217900629776
 30
0.0
  0
SPLINE
  5
1B6
330
1AF
100
AcDbEntity
  8
P-SANR-FIXT
100
AcDbSpline
210
0.0
220
0.0
230
1.0
 70
    24
 71
     3
 72
    11
 73
     7
 74
     0
 42
0.000000001
 43
0.0000000001
 40
-1.0
 40
-1.0
 40
-1.0
 40
-1.0
 40
-0.75
 40
-0.5
 40
-0.25
 40
0.0
 40
0.0
 40
0.0
 40
0.0
 10
705.5716118293839
 20
1135.217900629779
 30
0.0
 10
712.3623619933912
 20
1135.217900629779
 30
0.0
 10
726.3578184871113
 20
1135.217900629778
 30
0.0
 10
748.7689264769284
 20
1135.217900629778
 30
0.0
 10
772.069793459621
 20
1135.217900629778
 30
0.0
 10
787.8152664877177
 20
1135.217900629778
 30
0.0
 10
795.7726943413097
 20
1135.217900629777
 30
0.0
  0
SPLINE
  5
1B7
330
1AF
100
AcDbEntity
  8
P-SANR-FIXT
100
AcDbSpline
210
0.0
220
0.0
230
1.0
 70
    24
 71
     3
 72
    12
 73
     8
 74
     0
 42
0.000000001
 43
0.0000000001
 40
-1.0
 40
-1.0
 40
-1.0
 40
-1.0
 40
-0.85
 40
-0.7
 40
-0.4
 40
-0.2
 40
0.0
 40
0.0
 40
0.0
 40
0.0
 10
925.7612030569916
 20
1135.217900629776
 30
0.0
 10
927.3058685127603
 20
1135.217900629776
 30
0.0
 10
930.2016681899912
 20
1135.217900629776
 30
0.0
 10
935.2908075573683
 20
1135.217900629776
 30
0.0
 10
939.4684337180985
 20
1135.217900629776
 30
0.0
 10
941.9978456220658
 20
1135.217900629776
 30
0.0
 10
942.4797179237533
 20
1135.217900629776
 30
0.0
 10
942.485038510585
 20
1135.217900629776
 30
0.0
  0
SPLINE
  5
1B8
330
1AF
100
AcDbEntity
  8
P-SANR-FIXT
100
AcDbSpline
210
0.0
220
0.0
230
1.0
 70
    24
 71
     3
 72
    12
 73
     8
 74
     0
 42
0.000000001
 43
0.0000000001
 40
-1.0
 40
-1.0
 40
-1.0
 40
-1.0
 40
-0.85
 40
-0.7
 40
-0.4
 40
-0.2
 40
0.0
 40
0.0
 40
0.0
 40
0.0
 10
688.8477763757904
 20
1135.217900629779
 30
0.0
 10
688.8517668159143
 20
1135.217900629779
 30
0.0
 10
689.1243565815925
 20
1135.217900629779
 30
0.0
 10
690.7571492759078
 20
1135.217900629779
 30
0.0
 10
694.2240286846468
 20
1135.217900629779
 30
0.0
 10
699.7368527726932
 20
1135.217900629779
 30
0.0
 10
703.5120578883589
 20
1135.217900629779
 30
0.0
 10
705.5716118293839
 20
1135.217900629779
 30
0.0
  0
ARC
  5
1B9
330
1AF
100
AcDbEntity
  8
P-SANR-FIXT
100
AcDbCircle
 10
815.6664074431876
 20
1137.277070127454
 30
0.0
 40
11.00000000000052
100
AcDbArc
 50
0.0000000000005979
 51
29.99999999999984
  0
ARC
  5
1BA
330
1AF
100
AcDbEntity
  8
P-SANR-FIXT
100
AcDbCircle
 10
815.6664074431876
 20
1137.277070127454
 30
0.0
 40
11.00000000000027
100
AcDbArc
 50
30.00000000000003
 51
89.99999999999941
  0
ARC
  5
1BB
330
1AF
100
AcDbEntity
  8
P-SANR-FIXT
100
AcDbCircle
 10
815.6664074431876
 20
1137.277070127454
 30
0.0
 40
11.00000000000032
100
AcDbArc
 50
89.99999999999911
 51
150.0000000000003
  0
ARC
  5
1BC
330
1AF
100
AcDbEntity
  8
P-SANR-FIXT
100
AcDbCircle
 10
815.6664074431876
 20
1137.277070127454
 30
0.0
 40
11.00000000000042
100
AcDbArc
 50
149.9999999999994
 51
180.0
  0
ARC
  5
1BD
330
1AF
100
AcDbEntity
  8
P-SANR-FIXT
100
AcDbCircle
 10
815.6664074431876
 20
1137.277070127454
 30
0.0
 40
11.00000000000034
100
AcDbArc
 50
180.0
 51
209.9999999999989
  0
ARC
  5
1BE
330
1AF
100
AcDbEntity
  8
P-SANR-FIXT
100
AcDbCircle
 10
815.6664074431876
 20
1137.277070127454
 30
0.0
 40
11.00000000000031
100
AcDbArc
 50
209.9999999999991
 51
269.999999999999
  0
ARC
  5
1BF
330
1AF
100
AcDbEntity
  8
P-SANR-FIXT
100
AcDbCircle
 10
815.6664074431876
 20
1137.277070127454
 30
0.0
 40
11.0000000000002
100
AcDbArc
 50
269.9999999999988
 51
329.9999999999989
  0
ARC
  5
1C0
330
1AF
100
AcDbEntity
  8
P-SANR-FIXT
100
AcDbCircle
 10
815.6664074431876
 20
1137.277070127454
 30
0.0
 40
11.00000000000028
100
AcDbArc
 50
329.9999999999988
 51
0.0
  0
SPLINE
  5
1C1
330
1AF
100
AcDbEntity
  8
P-SANR-FIXT
100
AcDbSpline
210
0.0
220
0.0
230
1.0
 70
    24
 71
     3
 72
     9
 73
     5
 74
     0
 42
0.000000001
 43
0.0000000001
 40
0.0
 40
0.0
 40
0.0
 40
0.0
 40
0.5
 40
1.0
 40
1.0
 40
1.0
 40
1.0
 10
809.3155544820991
 20
1126.277070127453
 30
0.0
 10
808.7901559165025
 20
1127.18708713729
 30
0.0
 10
807.7355196041485
 20
1129.013770813794
 30
0.0
 10
806.673204929474
 20
1130.853753803957
 30
0.0
 10
806.1401280015564
 20
1131.777070127452
 30
0.0
  0
SPLINE
  5
1C2
330
1AF
100
AcDbEntity
  8
P-SANR-FIXT
100
AcDbSpline
210
0.0
220
0.0
230
1.0
 70
    24
 71
     3
 72
     9
 73
     5
 74
     0
 42
0.000000001
 43
0.0000000001
 40
0.0
 40
0.0
 40
0.0
 40
0.0
 40
0.5
 40
1.0
 40
1.0
 40
1.0
 40
1.0
 10
806.1401280015564
 20
1131.777070127452
 30
0.0
 10
805.6070510736388
 20
1132.700386450949
 30
0.0
 10
804.5447363989637
 20
1134.540369441112
 30
0.0
 10
803.4901000866096
 20
1136.367053117616
 30
0.0
 10
802.9647015210127
 20
1137.277070127454
 30
0.0
  0
SPLINE
  5
1C3
330
1AF
100
AcDbEntity
  8
P-SANR-FIXT
100
AcDbSpline
210
0.0
220
0.0
230
1.0
 70
    24
 71
     3
 72
     9
 73
     5
 74
     0
 42
0.000000001
 43
0.0000000001
 40
0.0
 40
0.0
 40
0.0
 40
0.0
 40
0.5
 40
1.0
 40
1.0
 40
1.0
 40
1.0
 10
822.0172604042717
 20
1126.277070127453
 30
0.0
 10
820.9664632730786
 20
1126.277070127453
 30
0.0
 10
818.8571906483714
 20
1126.277070127453
 30
0.0
 10
816.7325612990225
 20
1126.277070127453
 30
0.0
 10
815.6664074431876
 20
1126.277070127453
 30
0.0
  0
SPLINE
  5
1C4
330
1AF
100
AcDbEntity
  8
P-SANR-FIXT
100
AcDbSpline
210
0.0
220
0.0
230
1.0
 70
    24
 71
     3
 72
     9
 73
     5
 74
     0
 42
0.000000001
 43
0.0000000001
 40
0.0
 40
0.0
 40
0.0
 40
0.0
 40
0.5
 40
1.0
 40
1.0
 40
1.0
 40
1.0
 10
815.6664074431876
 20
1126.277070127453
 30
0.0
 10
814.6002535873519
 20
1126.277070127453
 30
0.0
 10
812.4756242380014
 20
1126.277070127453
 30
0.0
 10
810.3663516132929
 20
1126.277070127453
 30
0.0
 10
809.3155544820991
 20
1126.277070127453
 30
0.0
  0
SPLINE
  5
1C5
330
1AF
100
AcDbEntity
  8
P-SANR-FIXT
100
AcDbSpline
210
0.0
220
0.0
230
1.0
 70
    24
 71
     3
 72
     9
 73
     5
 74
     0
 42
0.000000001
 43
0.0000000001
 40
0.0
 40
0.0
 40
0.0
 40
0.0
 40
0.5
 40
1.0
 40
1.0
 40
1.0
 40
1.0
 10
828.368113365358
 20
1137.277070127454
 30
0.0
 10
827.8427147997613
 20
1136.367053117616
 30
0.0
 10
826.7880784874076
 20
1134.540369441113
 30
0.0
 10
825.7257638127331
 20
1132.700386450951
 30
0.0
 10
825.1926868848155
 20
1131.777070127455
 30
0.0
  0
SPLINE
  5
1C6
330
1AF
100
AcDbEntity
  8
P-SANR-FIXT
100
AcDbSpline
210
0.0
220
0.0
230
1.0
 70
    24
 71
     3
 72
     9
 73
     5
 74
     0
 42
0.000000001
 43
0.0000000001
 40
0.0
 40
0.0
 40
0.0
 40
0.0
 40
0.5
 40
1.0
 40
1.0
 40
1.0
 40
1.0
 10
825.1926868848155
 20
1131.777070127455
 30
0.0
 10
824.6596099568977
 20
1130.853753803958
 30
0.0
 10
823.5972952822224
 20
1129.013770813795
 30
0.0
 10
822.5426589698683
 20
1127.187087137291
 30
0.0
 10
822.0172604042717
 20
1126.277070127453
 30
0.0
  0
SPLINE
  5
1C7
330
1AF
100
AcDbEntity
  8
P-SANR-FIXT
100
AcDbSpline
210
0.0
220
0.0
230
1.0
 70
    24
 71
     3
 72
     9
 73
     5
 74
     0
 42
0.000000001
 43
0.0000000001
 40
0.0
 40
0.0
 40
0.0
 40
0.0
 40
0.5
 40
1.0
 40
1.0
 40
1.0
 40
1.0
 10
822.0172604042717
 20
1148.277070127454
 30
0.0
 10
822.5426589698683
 20
1147.367053117617
 30
0.0
 10
823.5972952822224
 20
1145.540369441113
 30
0.0
 10
824.6596099568973
 20
1143.70038645095
 30
0.0
 10
825.1926868848151
 20
1142.777070127453
 30
0.0
  0
SPLINE
  5
1C8
330
1AF
100
AcDbEntity
  8
P-SANR-FIXT
100
AcDbSpline
210
0.0
220
0.0
230
1.0
 70
    24
 71
     3
 72
     9
 73
     5
 74
     0
 42
0.000000001
 43
0.0000000001
 40
0.0
 40
0.0
 40
0.0
 40
0.0
 40
0.5
 40
1.0
 40
1.0
 40
1.0
 40
1.0
 10
825.1926868848151
 20
1142.777070127453
 30
0.0
 10
825.7257638127327
 20
1141.853753803957
 30
0.0
 10
826.7880784874076
 20
1140.013770813794
 30
0.0
 10
827.8427147997613
 20
1138.187087137291
 30
0.0
 10
828.368113365358
 20
1137.277070127454
 30
0.0
  0
SPLINE
  5
1C9
330
1AF
100
AcDbEntity
  8
P-SANR-FIXT
100
AcDbSpline
210
0.0
220
0.0
230
1.0
 70
    24
 71
     3
 72
     9
 73
     5
 74
     0
 42
0.000000001
 43
0.0000000001
 40
0.0
 40
0.0
 40
0.0
 40
0.0
 40
0.5
 40
1.0
 40
1.0
 40
1.0
 40
1.0
 10
809.3155544820991
 20
1148.277070127454
 30
0.0
 10
810.3663516132929
 20
1148.277070127454
 30
0.0
 10
812.4756242380014
 20
1148.277070127454
 30
0.0
 10
814.6002535873519
 20
1148.277070127454
 30
0.0
 10
815.666407443188
 20
1148.277070127454
 30
0.0
  0
SPLINE
  5
1CA
330
1AF
100
AcDbEntity
  8
P-SANR-FIXT
100
AcDbSpline
210
0.0
220
0.0
230
1.0
 70
    24
 71
     3
 72
     9
 73
     5
 74
     0
 42
0.000000001
 43
0.0000000001
 40
0.0
 40
0.0
 40
0.0
 40
0.0
 40
0.5
 40
1.0
 40
1.0
 40
1.0
 40
1.0
 10
815.666407443188
 20
1148.277070127454
 30
0.0
 10
816.7325612990227
 20
1148.277070127454
 30
0.0
 10
818.8571906483716
 20
1148.277070127454
 30
0.0
 10
820.9664632730786
 20
1148.277070127454
 30
0.0
 10
822.0172604042717
 20
1148.277070127454
 30
0.0
  0
SPLINE
  5
1CB
330
1AF
100
AcDbEntity
  8
P-SANR-FIXT
100
AcDbSpline
210
0.0
220
0.0
230
1.0
 70
    24
 71
     3
 72
     9
 73
     5
 74
     0
 42
0.000000001
 43
0.0000000001
 40
0.0
 40
0.0
 40
0.0
 40
0.0
 40
0.5
 40
1.0
 40
1.0
 40
1.0
 40
1.0
 10
802.9647015210127
 20
1137.277070127454
 30
0.0
 10
803.4901000866096
 20
1138.187087137291
 30
0.0
 10
804.5447363989639
 20
1140.013770813796
 30
0.0
 10
805.607051073639
 20
1141.853753803959
 30
0.0
 10
806.1401280015568
 20
1142.777070127455
 30
0.0
  0
SPLINE
  5
1CC
330
1AF
100
AcDbEntity
  8
P-SANR-FIXT
100
AcDbSpline
210
0.0
220
0.0
230
1.0
 70
    24
 71
     3
 72
     9
 73
     5
 74
     0
 42
0.000000001
 43
0.0000000001
 40
0.0
 40
0.0
 40
0.0
 40
0.0
 40
0.5
 40
1.0
 40
1.0
 40
1.0
 40
1.0
 10
806.1401280015568
 20
1142.777070127455
 30
0.0
 10
806.6732049294742
 20
1143.700386450951
 30
0.0
 10
807.7355196041489
 20
1145.540369441114
 30
0.0
 10
808.7901559165025
 20
1147.367053117617
 30
0.0
 10
809.3155544820991
 20
1148.277070127454
 30
0.0
  0
ARC
  5
1CD
330
1AF
100
AcDbEntity
  8
P-SANR-FIXT
100
AcDbCircle
 10
815.6664074431851
 20
1137.277070127454
 30
0.0
 40
15.49999999997737
100
AcDbArc
 50
180.0
 51
359.9999999999988
  0
ARC
  5
1CE
330
1AF
100
AcDbEntity
  8
P-SANR-FIXT
100
AcDbCircle
 10
815.6664074431851
 20
1137.277070127454
 30
0.0
 40
15.49999999997749
100
AcDbArc
 50
0.0
 51
180.0
  0
LINE
  5
1CF
330
1AF
100
AcDbEntity
  8
P-SANR-FIXT
100
AcDbLine
 10
990.6664074431894
 20
1187.797070127453
 30
0.0
 11
988.6664074431891
 21
1187.797070127453
 31
0.0
  0
LWPOLYLINE
  5
1D0
330
1AF
100
AcDbEntity
  8
P-SANR-FIXT
100
AcDbPolyline
 90
       79
 70
   128
 43
0.0
 10
731.2075963251403
 20
1135.217900629778
 10
731.2339984303369
 20
1133.897971388683
 10
731.4366632606181
 20
1130.524278487058
 10
731.7740777135377
 20
1127.16138861154
 10
732.245701997949
 20
1123.81468166855
 10
732.8507816156046
 20
1120.489511675271
 10
733.5883485681929
 20
1117.19119819436
 10
734.4572229059291
 20
1113.925017823786
 10
735.4560146152229
 20
1110.696195755392
 10
736.5831258424042
 20
1107.509897415708
 10
737.8367534499457
 20
1104.371220202373
 10
739.2148919011026
 20
1101.285185329377
 10
740.71533646834
 20
1098.256729794198
 10
742.3356867604281
 20
1095.290698479658
 10
744.0733505625557
 20
1092.391836403139
 10
745.9255479833217
 20
1089.564781125573
 10
747.8893159019667
 20
1086.814055332331
 10
749.9615127087361
 20
1084.144059597893
 10
752.1388233307837
 20
1081.559065345864
 10
754.417764535583
 20
1079.063208015612
 10
756.7946905033542
 20
1076.660480446444
 10
759.2657986595987
 20
1074.354726489916
 10
761.8271357584094
 20
1072.149634860491
 10
764.4746042068167
 20
1070.048733234381
 10
767.2039686200666
 20
1068.055382606019
 10
770.0108625973316
 20
1066.172771911187
 10
772.8907957070198
 20
1064.403912925392
 10
775.8391606705084
 20
1062.751635445676
 10
778.8512407328073
 20
1061.218582763539
 10
781.9222172083592
 20
1059.80720743624
 10
785.0471771899105
 20
1058.519767363223
 10
788.2211214081129
 20
1057.358322173968
 10
791.4389722292892
 20
1056.324729933014
 10
794.695581778564
 20
1055.42064416746
 10
797.9857401753646
 20
1054.64751122167
 10
801.3041838681189
 20
1054.006567943429
 10
804.6456040548161
 20
1053.498839705257
 10
808.0046551759552
 20
1053.125138764023
 10
811.3759634663017
 20
1052.886062961517
 10
814.7541355517658
 20
1052.781994768022
 10
818.1337670776484
 20
1052.813100670447
 10
821.5094513544574
 20
1052.979330905984
 10
824.8757880074585
 20
1053.280419541717
 10
828.2273916161196
 20
1053.715884900057
 10
831.5589003296375
 20
1054.285030329324
 10
834.8649844447551
 20
1054.986945318247
 10
838.1403549321481
 20
1055.820506952572
 10
841.3797718977452
 20
1056.784381711504
 10
844.5780529654401
 20
1057.877027601044
 10
847.7300815677882
 20
1059.096696620854
 10
850.8308151314226
 20
1060.441437560684
 10
853.8752931440964
 20
1061.909099121894
 10
856.8586450904426
 20
1063.497333359069
 10
859.7760982437618
 20
1065.203599436236
 10
862.6229853013658
 20
1067.025167691656
 10
865.3947518512657
 20
1068.959124004699
 10
868.0869636582604
 20
1071.002374457821
 10
870.6953137577666
 20
1073.151650286166
 10
873.2156293460434
 20
1075.403513106898
 10
875.6438784557881
 20
1077.754360419874
 10
877.9761764064241
 20
1080.200431370882
 10
880.2087920187608
 20
1082.7378127682
 10
882.3381535840843
 20
1085.362445342872
 10
884.3608545781297
 20
1088.070130242669
 10
886.2736591107926
 20
1090.856535749362
 10
888.0735071028649
 20
1093.717204208541
 10
889.7575191815057
 20
1096.647559160913
 10
891.3230012866259
 20
1099.642912663665
 10
892.7674489808094
 20
1102.698472790168
 10
894.0885514558774
 20
1105.809351296037
 10
895.2841952296902
 20
1108.97057143928
 10
896.3524675272671
 20
1112.177075942027
 10
897.2916593408175
 20
1115.42373508109
 10
898.1002681637901
 20
1118.705354894432
 10
898.7770003945623
 20
1122.016685490391
 10
899.3207734059261
 20
1125.352429446396
 10
899.730717277063
 20
1128.707250283701
 10
900.0061761852286
 20
1132.075781004627
 10
900.136940692335
 20
1135.217900629776
  0
LINE
  5
1D1
330
1AF
100
AcDbEntity
  8
P-SANR-FIXT
100
AcDbLine
 10
988.6664074431887
 20
1086.757070127453
 30
0.0
 11
990.6664074431892
 21
1086.757070127453
 31
0.0
  0
LINE
  5
1D2
330
1AF
100
AcDbEntity
  8
P-SANR-FIXT
100
AcDbLine
 10
988.6664074431894
 20
1219.777070127452
 30
0.0
 11
972.6664074431896
 21
1219.777070127452
 31
0.0
  0
LINE
  5
1D3
330
1AF
100
AcDbEntity
  8
P-SANR-FIXT
100
AcDbLine
 10
972.6664074431887
 20
1054.777070127454
 30
0.0
 11
988.6664074431887
 21
1054.777070127454
 31
0.0
  0
LINE
  5
1D4
330
1AF
100
AcDbEntity
  8
P-SANR-FIXT
100
AcDbLine
 10
972.6664074431894
 20
1167.437070127452
 30
0.0
 11
938.8419210086352
 21
1167.437070127453
 31
0.0
  0
LINE
  5
1D5
330
1AF
100
AcDbEntity
  8
P-SANR-FIXT
100
AcDbLine
 10
894.6007117728017
 20
1107.117070127454
 30
0.0
 11
972.6664074431893
 21
1107.117070127453
 31
0.0
  0
LINE
  5
1D6
330
1AF
100
AcDbEntity
  8
P-SANR-FIXT
100
AcDbLine
 10
692.4908938777432
 20
1167.437070127455
 30
0.0
 11
658.6664074431888
 21
1167.437070127455
 31
0.0
  0
LINE
  5
1D7
330
1AF
100
AcDbEntity
  8
P-SANR-FIXT
100
AcDbLine
 10
658.6664074431886
 20
1107.117070127453
 30
0.0
 11
736.7321031135768
 21
1107.117070127453
 31
0.0
  0
LINE
  5
1D8
330
1AF
100
AcDbEntity
  8
P-SANR-FIXT
100
AcDbLine
 10
658.6664074431888
 20
1219.777070127454
 30
0.0
 11
642.6664074431892
 21
1219.777070127455
 31
0.0
  0
LINE
  5
1D9
330
1AF
100
AcDbEntity
  8
P-SANR-FIXT
100
AcDbLine
 10
642.6664074431885
 20
1054.777070127454
 30
0.0
 11
658.6664074431884
 21
1054.777070127454
 31
0.0
  0
LINE
  5
1DA
330
1AF
100
AcDbEntity
  8
P-SANR-FIXT
100
AcDbLine
 10
642.6664074431889
 20
1187.797070127454
 30
0.0
 11
640.666407443189
 21
1187.797070127454
 31
0.0
  0
LINE
  5
1DB
330
1AF
100
AcDbEntity
  8
P-SANR-FIXT
100
AcDbLine
 10
640.6664074431886
 20
1086.757070127454
 30
0.0
 11
642.6664074431887
 21
1086.757070127454
 31
0.0
  0
LINE
  5
1DC
330
1AF
100
AcDbEntity
  8
P-SANR-FIXT
100
AcDbLine
 10
990.6664074431876
 20
1137.277070127453
 30
0.0
 11
990.666407443188
 21
1187.797070127453
 31
0.0
  0
SPLINE
  5
1DD
330
1AF
100
AcDbEntity
  8
P-SANR-FIXT
100
AcDbSpline
210
0.0
220
0.0
230
1.0
 70
     8
 71
     3
 72
    15
 73
    11
 74
     0
 42
0.000000001
 43
0.0000000001
 40
0.0427221809992021
 40
0.0427221809992021
 40
0.0427221809992021
 40
0.0427221809992021
 40
0.1428571428571428
 40
0.2857142857142857
 40
0.5714285714285714
 40
0.6785714285714288
 40
0.7857142857142857
 40
0.8392857142857142
 40
0.8928571428571427
 40
1.0
 40
1.0
 40
1.0
 40
1.0
 10
731.1912940170782
 20
1135.217916658073
 30
0.0
 10
731.2299708141446
 20
1133.622015427835
 30
0.0
 10
731.4320225517644
 20
1129.820594027207
 30
0.0
 10
732.3985026071507
 20
1121.849536911024
 30
0.0
 10
734.0355949586305
 20
1115.169148898822
 30
0.0
 10
735.4162759784767
 20
1110.775240488444
 30
0.0
 10
736.0169271112997
 20
1109.049526983808
 30
0.0
 10
736.3824206169288
 20
1108.045987890234
 30
0.0
 10
736.6442331088117
 20
1107.34533162679
 30
0.0
 10
736.7287315299789
 20
1107.125894185998
 30
0.0
 10
736.7321031135757
 20
1107.117070127453
 30
0.0
  0
SPLINE
  5
1DE
330
1AF
100
AcDbEntity
  8
P-SANR-FIXT
100
AcDbSpline
210
0.0
220
0.0
230
1.0
 70
     8
 71
     3
 72
    13
 73
     9
 74
     0
 42
0.000000001
 43
0.0000000001
 40
0.0
 40
0.0
 40
0.0
 40
0.0
 40
0.1428571428571428
 40
0.2857142857142857
 40
0.5714285714285714
 40
0.7857142857142857
 40
0.8928571428571427
 40
0.9572778190007531
 40
0.9572778190007531
 40
0.9572778190007531
 40
0.9572778190007531
 10
894.6007117728004
 20
1107.117070127455
 30
0.0
 10
894.6052072175962
 20
1107.128835538847
 30
0.0
 10
894.7994275775096
 20
1107.62936785046
 30
0.0
 10
895.9070575049782
 20
1110.663874202894
 30
0.0
 10
897.9092908870573
 20
1117.080620970346
 30
0.0
 10
899.4612102304762
 20
1125.553551358178
 30
0.0
 10
900.0005087619213
 20
1131.486636891572
 30
0.0
 10
900.1163825680517
 20
1134.190702959747
 30
0.0
 10
900.1413849860949
 20
1135.217719589764
 30
0.0
  0
LINE
  5
1DF
330
1AF
100
AcDbEntity
  8
P-SANR-FIXT
100
AcDbLine
 10
990.6664074431876
 20
1137.277070127454
 30
0.0
 11
990.6664074431876
 21
1086.757070127453
 31
0.0
  0
LINE
  5
1E0
330
1AF
100
AcDbEntity
  8
P-SANR-FIXT
100
AcDbLine
 10
988.666407443188
 20
1219.777070127452
 30
0.0
 11
988.6664074431875
 21
1137.277070127454
 31
0.0
  0
LINE
  5
1E1
330
1AF
100
AcDbEntity
  8
P-SANR-FIXT
100
AcDbLine
 10
988.6664074431875
 20
1137.277070127453
 30
0.0
 11
988.6664074431875
 21
1054.777070127455
 31
0.0
  0
LINE
  5
1E2
330
1AF
100
AcDbEntity
  8
P-SANR-FIXT
100
AcDbLine
 10
972.6664074431882
 20
1219.777070127452
 30
0.0
 11
972.6664074431877
 21
1137.277070127454
 31
0.0
  0
LINE
  5
1E3
330
1AF
100
AcDbEntity
  8
P-SANR-FIXT
100
AcDbLine
 10
972.6664074431877
 20
1137.277070127453
 30
0.0
 11
972.6664074431877
 21
1054.777070127455
 31
0.0
  0
LINE
  5
1E4
330
1AF
100
AcDbEntity
  8
P-SANR-FIXT
100
AcDbLine
 10
658.666407443188
 20
1219.777070127454
 30
0.0
 11
658.6664074431876
 21
1137.277070127455
 31
0.0
  0
LINE
  5
1E5
330
1AF
100
AcDbEntity
  8
P-SANR-FIXT
100
AcDbLine
 10
658.6664074431876
 20
1137.277070127455
 30
0.0
 11
658.6664074431872
 21
1054.777070127454
 31
0.0
  0
LINE
  5
1E6
330
1AF
100
AcDbEntity
  8
P-SANR-FIXT
100
AcDbLine
 10
642.666407443188
 20
1219.777070127454
 30
0.0
 11
642.6664074431877
 21
1137.277070127455
 31
0.0
  0
LINE
  5
1E7
330
1AF
100
AcDbEntity
  8
P-SANR-FIXT
100
AcDbLine
 10
642.6664074431877
 20
1137.277070127455
 30
0.0
 11
642.6664074431876
 21
1054.777070127454
 31
0.0
  0
LINE
  5
1E8
330
1AF
100
AcDbEntity
  8
P-SANR-FIXT
100
AcDbLine
 10
640.6664074431878
 20
1187.797070127454
 30
0.0
 11
640.6664074431877
 21
1137.277070127455
 31
0.0
  0
LINE
  5
1E9
330
1AF
100
AcDbEntity
  8
P-SANR-FIXT
100
AcDbLine
 10
640.6664074431877
 20
1137.277070127455
 30
0.0
 11
640.6664074431877
 21
1086.757070127454
 31
0.0
  0
ENDBLK
  5
1EB
330
1AF
100
AcDbEntity
  8
0
100
AcDbBlockEnd
  0
BLOCK
  5
29C
330
1ED
100
AcDbEntity
  8
0
100
AcDbBlockBegin
  2
Automatic flow rate regulator valve_Caleffi_121 DN15 - 1_2__-V2-Est - Idraulica
 70
     0
 10
0.0
 20
0.0
 30
0.0
  3
Automatic flow rate regulator valve_Caleffi_121 DN15 - 1_2__-V2-Est - Idraulica
  1

  0
LINE
  5
1EE
330
1ED
100
AcDbEntity
  8
M-PIPE
100
AcDbLine
 10
1474.0831625457
 20
1590.77185252231
 30
0.0
 11
1473.082932647556
 21
1590.194369521365
 31
0.0
1001
REVIT
1002
{
1070
     3
1000
790271
1002
}
  0
LINE
  5
1EF
330
1ED
100
AcDbEntity
  8
M-PIPE
100
AcDbLine
 10
1509.083392443812
 20
1590.194369521383
 30
0.0
 11
1508.0831625457
 21
1590.77185252231
 31
0.0
1001
REVIT
1002
{
1070
     3
1000
790271
1002
}
  0
LINE
  5
1F0
330
1ED
100
AcDbEntity
  8
M-PIPE
100
AcDbLine
 10
1508.0831625457
 20
1590.77185252231
 30
0.0
 11
1508.0831625457
 21
1597.896822804526
 31
0.0
1001
REVIT
1002
{
1070
     3
1000
790271
1002
}
  0
LINE
  5
1F1
330
1ED
100
AcDbEntity
  8
M-PIPE
100
AcDbLine
 10
1474.0831625457
 20
1597.896822804527
 30
0.0
 11
1474.0831625457
 21
1590.77185252231
 31
0.0
1001
REVIT
1002
{
1070
     3
1000
790271
1002
}
  0
LINE
  5
1F2
330
1ED
100
AcDbEntity
  8
M-PIPE
100
AcDbLine
 10
1508.0831625457
 20
1597.896822804526
 30
0.0
 11
1513.513802554696
 21
1601.032204275592
 31
0.0
1001
REVIT
1002
{
1070
     3
1000
790271
1002
}
  0
LINE
  5
1F3
330
1ED
100
AcDbEntity
  8
M-PIPE
100
AcDbLine
 10
1513.523238980915
 20
1601.037652398809
 30
0.0
 11
1513.583162545701
 21
1601.072249285069
 31
0.0
1001
REVIT
1002
{
1070
     3
1000
790271
1002
}
  0
LINE
  5
1F4
330
1ED
100
AcDbEntity
  8
M-PIPE
100
AcDbLine
 10
1468.5831625457
 20
1601.07224928507
 30
0.0
 11
1468.643086110485
 21
1601.037652398809
 31
0.0
1001
REVIT
1002
{
1070
     3
1000
790271
1002
}
  0
LINE
  5
1F5
330
1ED
100
AcDbEntity
  8
M-PIPE
100
AcDbLine
 10
1468.652522536704
 20
1601.032204275593
 30
0.0
 11
1474.0831625457
 21
1597.896822804527
 31
0.0
1001
REVIT
1002
{
1070
     3
1000
790271
1002
}
  0
LINE
  5
1F6
330
1ED
100
AcDbEntity
  8
M-PIPE
100
AcDbLine
 10
1513.583162545701
 20
1601.072249285069
 30
0.0
 11
1513.583162545701
 21
1628.982558849798
 31
0.0
1001
REVIT
1002
{
1070
     3
1000
790271
1002
}
  0
LINE
  5
1F7
330
1ED
100
AcDbEntity
  8
M-PIPE
100
AcDbLine
 10
1468.5831625457
 20
1628.982558849799
 30
0.0
 11
1468.5831625457
 21
1601.07224928507
 31
0.0
1001
REVIT
1002
{
1070
     3
1000
790271
1002
}
  0
LINE
  5
1F8
330
1ED
100
AcDbEntity
  8
M-PIPE
100
AcDbLine
 10
1514.583162545701
 20
1628.982558849798
 30
0.0
 11
1514.583162545701
 21
1631.910762080137
 31
0.0
1001
REVIT
1002
{
1070
     3
1000
790271
1002
}
  0
LINE
  5
1F9
330
1ED
100
AcDbEntity
  8
M-PIPE
100
AcDbLine
 10
1467.5831625457
 20
1631.910762080137
 30
0.0
 11
1467.5831625457
 21
1628.982558849799
 31
0.0
1001
REVIT
1002
{
1070
     3
1000
790271
1002
}
  0
LINE
  5
1FA
330
1ED
100
AcDbEntity
  8
M-PIPE
100
AcDbLine
 10
1514.583162545701
 20
1631.910762080137
 30
0.0
 11
1510.583162545701
 21
1632.982558849861
 31
0.0
1001
REVIT
1002
{
1070
     3
1000
790271
1002
}
  0
LINE
  5
1FB
330
1ED
100
AcDbEntity
  8
M-PIPE
100
AcDbLine
 10
1471.5831625457
 20
1632.982558849862
 30
0.0
 11
1467.5831625457
 21
1631.910762080137
 31
0.0
1001
REVIT
1002
{
1070
     3
1000
790271
1002
}
  0
SPLINE
  5
1FC
330
1ED
100
AcDbEntity
  8
M-PIPE
100
AcDbSpline
210
0.0
220
0.0
230
1.0
 70
     8
 71
     3
 72
    13
 73
     9
 74
     0
 42
0.000000001
 43
0.0000000001
 40
-1.0
 40
-1.0
 40
-1.0
 40
-1.0
 40
-0.8333333333333332
 40
-0.75
 40
-0.6666666666666666
 40
-0.3333333333333333
 40
-0.1666666666666666
 40
0.0
 40
0.0
 40
0.0
 40
0.0
 10
1488.578353074085
 20
1577.580634159126
 30
0.0
 10
1487.899752015248
 20
1577.010429096202
 30
0.0
 10
1486.861457873441
 20
1576.298479213698
 30
0.0
 10
1485.431484949012
 20
1575.636330109844
 30
0.0
 10
1483.260127340009
 20
1574.928615930661
 30
0.0
 10
1480.42608599605
 20
1574.954444539836
 30
0.0
 10
1477.609107820789
 20
1576.081782793925
 30
0.0
 10
1476.248545326308
 20
1577.019163528357
 30
0.0
 10
1475.587972017311
 20
1577.580634159126
 30
0.0
1001
REVIT
1002
{
1070
     3
1000
790271
1002
}
  0
SPLINE
  5
1FD
330
1ED
100
AcDbEntity
  8
M-PIPE
100
AcDbSpline
210
0.0
220
0.0
230
1.0
 70
    24
 71
     3
 72
     9
 73
     5
 74
     0
 42
0.000000001
 43
0.0000000001
 40
-1.0
 40
-1.0
 40
-1.0
 40
-1.0
 40
-0.5
 40
0.0
 40
0.0
 40
0.0
 40
0.0
 10
1473.083162545681
 20
1577.580634159126
 30
0.0
 10
1473.083162545681
 20
1576.77777060228
 30
0.0
 10
1473.083162545682
 20
1575.541894493911
 30
0.0
 10
1473.083162545682
 20
1575.045720396192
 30
0.0
 10
1473.083162545682
 20
1574.982558849995
 30
0.0
1001
REVIT
1002
{
1070
     3
1000
790271
1002
}
  0
LINE
  5
1FE
330
1ED
100
AcDbEntity
  8
M-PIPE
100
AcDbLine
 10
1491.083162545698
 20
1574.982558849995
 30
0.0
 11
1473.083162545682
 21
1574.982558849995
 31
0.0
1001
REVIT
1002
{
1070
     3
1000
790271
1002
}
  0
LINE
  5
1FF
330
1ED
100
AcDbEntity
  8
M-PIPE
100
AcDbLine
 10
1473.083162024799
 20
1574.982558849995
 30
0.0
 11
1473.125506471494
 21
1574.982558849995
 31
0.0
1001
REVIT
1002
{
1070
     3
1000
790271
1002
}
  0
LINE
  5
200
330
1ED
100
AcDbEntity
  8
M-PIPE
100
AcDbLine
 10
1481.622293669738
 20
1574.982558849995
 30
0.0
 11
1482.877048800543
 21
1574.982558849995
 31
0.0
1001
REVIT
1002
{
1070
     3
1000
790271
1002
}
  0
SPLINE
  5
201
330
1ED
100
AcDbEntity
  8
M-PIPE
100
AcDbSpline
210
0.0
220
0.0
230
1.0
 70
    24
 71
     3
 72
     8
 73
     4
 74
     0
 42
0.000000001
 43
0.0000000001
 40
-1.0
 40
-1.0
 40
-1.0
 40
-1.0
 40
-0.8812923035740018
 40
-0.8812923035740018
 40
-0.8812923035740018
 40
-0.8812923035740018
 10
1473.083162545682
 20
1574.982558849995
 30
0.0
 10
1473.083162545682
 20
1574.99731813584
 30
0.0
 10
1473.083162545682
 20
1575.022528988489
 30
0.0
 10
1473.083162545682
 20
1575.058191407941
 30
0.0
1001
REVIT
1002
{
1070
     3
1000
790271
1002
}
  0
SPLINE
  5
202
330
1ED
100
AcDbEntity
  8
M-PIPE
100
AcDbSpline
210
0.0
220
0.0
230
1.0
 70
     8
 71
     3
 72
     8
 73
     4
 74
     0
 42
0.000000001
 43
0.0000000001
 40
-0.5056742803480276
 40
-0.5056742803480276
 40
-0.5056742803480276
 40
-0.5056742803480276
 40
-0.5
 40
-0.5
 40
-0.5
 40
-0.5
 10
1482.041242793625
 20
1575.033957000778
 30
0.0
 10
1482.06762629748
 20
1575.033890069386
 30
0.0
 10
1482.094002018068
 20
1575.033975040924
 30
0.0
 10
1482.120369442744
 20
1575.034207615435
 30
0.0
1001
REVIT
1002
{
1070
     3
1000
790271
1002
}
  0
SPLINE
  5
203
330
1ED
100
AcDbEntity
  8
M-PIPE
100
AcDbSpline
210
0.0
220
0.0
230
1.0
 70
    24
 71
     3
 72
     8
 73
     4
 74
     0
 42
0.000000001
 43
0.0000000001
 40
-0.5
 40
-0.5
 40
-0.5
 40
-0.5
 40
0.0
 40
0.0
 40
0.0
 40
0.0
 10
1473.083162545682
 20
1590.194438103029
 30
0.0
 10
1473.083162545682
 20
1590.194438103029
 30
0.0
 10
1473.083162545682
 20
1589.905784351798
 30
0.0
 10
1473.083162545681
 20
1589.328476849336
 30
0.0
1001
REVIT
1002
{
1070
     3
1000
790271
1002
}
  0
LINE
  5
204
330
1ED
100
AcDbEntity
  8
M-PIPE
100
AcDbLine
 10
1473.083162545681
 20
1589.328476849336
 30
0.0
 11
1475.587972017311
 21
1589.328476849336
 31
0.0
1001
REVIT
1002
{
1070
     3
1000
790271
1002
}
  0
SPLINE
  5
205
330
1ED
100
AcDbEntity
  8
M-PIPE
100
AcDbSpline
210
0.0
220
0.0
230
1.0
 70
     8
 71
     3
 72
     9
 73
     5
 74
     0
 42
0.000000001
 43
0.0000000001
 40
-1.0
 40
-1.0
 40
-1.0
 40
-1.0
 40
-0.5
 40
-0.0356126893515616
 40
-0.0356126893515616
 40
-0.0356126893515616
 40
-0.0356126893515616
 10
1475.587972017311
 20
1589.328476849336
 30
0.0
 10
1477.716520618397
 20
1589.905784351805
 30
0.0
 10
1481.857225654656
 20
1590.462532381528
 30
0.0
 10
1486.065851552375
 20
1589.945438941064
 30
0.0
 10
1488.108206167604
 20
1589.447440617113
 30
0.0
1001
REVIT
1002
{
1070
     3
1000
790271
1002
}
  0
LINE
  5
206
330
1ED
100
AcDbEntity
  8
M-PIPE
100
AcDbLine
 10
1509.083163066596
 20
1574.982558849995
 30
0.0
 11
1491.083162545698
 21
1574.982558849995
 31
0.0
1001
REVIT
1002
{
1070
     3
1000
790271
1002
}
  0
SPLINE
  5
207
330
1ED
100
AcDbEntity
  8
M-PIPE
100
AcDbSpline
210
0.0
220
0.0
230
1.0
 70
    24
 71
     3
 72
     9
 73
     5
 74
     0
 42
0.000000001
 43
0.0000000001
 40
-1.0
 40
-1.0
 40
-1.0
 40
-1.0
 40
-0.5
 40
0.0
 40
0.0
 40
0.0
 40
0.0
 10
1509.083162545682
 20
1574.982558849995
 30
0.0
 10
1509.083162545682
 20
1575.04472534253
 30
0.0
 10
1509.083162545682
 20
1575.539904386587
 30
0.0
 10
1509.083162545682
 20
1576.776775548617
 30
0.0
 10
1509.083162545682
 20
1577.580634159126
 30
0.0
1001
REVIT
1002
{
1070
     3
1000
790271
1002
}
  0
SPLINE
  5
208
330
1ED
100
AcDbEntity
  8
M-PIPE
100
AcDbSpline
210
0.0
220
0.0
230
1.0
 70
     8
 71
     3
 72
    13
 73
     9
 74
     0
 42
0.000000001
 43
0.0000000001
 40
-1.0
 40
-1.0
 40
-1.0
 40
-1.0
 40
-0.8333333333333332
 40
-0.75
 40
-0.6666666666666666
 40
-0.3333333333333333
 40
-0.1666666666666666
 40
0.0
 40
0.0
 40
0.0
 40
0.0
 10
1506.578353074108
 20
1577.580634159126
 30
0.0
 10
1505.899752015269
 20
1577.010429096196
 30
0.0
 10
1504.861457873457
 20
1576.298479213684
 30
0.0
 10
1503.431484949021
 20
1575.636330109824
 30
0.0
 10
1501.260127340007
 20
1574.928615930633
 30
0.0
 10
1498.42608599603
 20
1574.954444539807
 30
0.0
 10
1495.609107820754
 20
1576.081782793909
 30
0.0
 10
1494.248545326268
 20
1577.019163528351
 30
0.0
 10
1493.587972017268
 20
1577.580634159126
 30
0.0
1001
REVIT
1002
{
1070
     3
1000
790271
1002
}
  0
SPLINE
  5
209
330
1ED
100
AcDbEntity
  8
M-PIPE
100
AcDbSpline
210
0.0
220
0.0
230
1.0
 70
     8
 71
     3
 72
     8
 73
     4
 74
     0
 42
0.000000001
 43
0.0000000001
 40
-0.5056742803493881
 40
-0.5056742803493881
 40
-0.5056742803493881
 40
-0.5056742803493881
 40
-0.5
 40
-0.5
 40
-0.5
 40
-0.5
 10
1500.041242793616
 20
1575.033957000751
 30
0.0
 10
1500.067626297477
 20
1575.03389006936
 30
0.0
 10
1500.094002018071
 20
1575.033975040898
 30
0.0
 10
1500.120369442753
 20
1575.034207615408
 30
0.0
1001
REVIT
1002
{
1070
     3
1000
790271
1002
}
  0
SPLINE
  5
20A
330
1ED
100
AcDbEntity
  8
M-PIPE
100
AcDbSpline
210
0.0
220
0.0
230
1.0
 70
    24
 71
     3
 72
     8
 73
     4
 74
     0
 42
0.000000001
 43
0.0000000001
 40
-0.140619571060315
 40
-0.140619571060315
 40
-0.140619571060315
 40
-0.140619571060315
 40
0.0
 40
0.0
 40
0.0
 40
0.0
 10
1509.083162545682
 20
1575.079729658512
 30
0.0
 10
1509.083162545682
 20
1575.032712622818
 30
0.0
 10
1509.083162545682
 20
1575.000322353313
 30
0.0
 10
1509.083162545682
 20
1574.982558849995
 30
0.0
1001
REVIT
1002
{
1070
     3
1000
790271
1002
}
  0
LINE
  5
20B
330
1ED
100
AcDbEntity
  8
M-PIPE
100
AcDbLine
 10
1499.458690387414
 20
1574.982558849995
 30
0.0
 11
1500.712739219195
 21
1574.982558849995
 31
0.0
1001
REVIT
1002
{
1070
     3
1000
790271
1002
}
  0
LINE
  5
20C
330
1ED
100
AcDbEntity
  8
M-PIPE
100
AcDbLine
 10
1509.04246951531
 20
1574.982558849995
 30
0.0
 11
1509.083162545682
 21
1574.982558849995
 31
0.0
1001
REVIT
1002
{
1070
     3
1000
790271
1002
}
  0
LINE
  5
20D
330
1ED
100
AcDbEntity
  8
M-PIPE
100
AcDbLine
 10
1493.587972017268
 20
1577.580634159126
 30
0.0
 11
1491.083162545698
 21
1577.580634159126
 31
0.0
1001
REVIT
1002
{
1070
     3
1000
790271
1002
}
  0
LINE
  5
20E
330
1ED
100
AcDbEntity
  8
M-PIPE
100
AcDbLine
 10
1493.587972017268
 20
1577.580634159126
 30
0.0
 11
1493.587972017268
 21
1580.982558849932
 31
0.0
1001
REVIT
1002
{
1070
     3
1000
790271
1002
}
  0
LINE
  5
20F
330
1ED
100
AcDbEntity
  8
M-PIPE
100
AcDbLine
 10
1509.083162545682
 20
1577.580634159126
 30
0.0
 11
1506.578353074108
 21
1577.580634159126
 31
0.0
1001
REVIT
1002
{
1070
     3
1000
790271
1002
}
  0
LINE
  5
210
330
1ED
100
AcDbEntity
  8
M-PIPE
100
AcDbLine
 10
1509.083162545682
 20
1577.580634159126
 30
0.0
 11
1509.083162545682
 21
1589.328476849335
 31
0.0
1001
REVIT
1002
{
1070
     3
1000
790271
1002
}
  0
LINE
  5
211
330
1ED
100
AcDbEntity
  8
M-PIPE
100
AcDbLine
 10
1506.578353074108
 20
1589.328476849336
 30
0.0
 11
1506.578353074108
 21
1577.580634159126
 31
0.0
1001
REVIT
1002
{
1070
     3
1000
790271
1002
}
  0
LINE
  5
212
330
1ED
100
AcDbEntity
  8
M-PIPE
100
AcDbLine
 10
1488.578353074085
 20
1580.982558849932
 30
0.0
 11
1488.578353074085
 21
1577.580634159126
 31
0.0
1001
REVIT
1002
{
1070
     3
1000
790271
1002
}
  0
LINE
  5
213
330
1ED
100
AcDbEntity
  8
M-PIPE
100
AcDbLine
 10
1491.083162545698
 20
1577.580634159126
 30
0.0
 11
1488.578353074085
 21
1577.580634159126
 31
0.0
1001
REVIT
1002
{
1070
     3
1000
790271
1002
}
  0
LINE
  5
214
330
1ED
100
AcDbEntity
  8
M-PIPE
100
AcDbLine
 10
1475.587972017311
 20
1577.580634159126
 30
0.0
 11
1473.083162545681
 21
1577.580634159126
 31
0.0
1001
REVIT
1002
{
1070
     3
1000
790271
1002
}
  0
LINE
  5
215
330
1ED
100
AcDbEntity
  8
M-PIPE
100
AcDbLine
 10
1475.587972017311
 20
1577.580634159126
 30
0.0
 11
1475.587972017311
 21
1589.328476849336
 31
0.0
1001
REVIT
1002
{
1070
     3
1000
790271
1002
}
  0
LINE
  5
216
330
1ED
100
AcDbEntity
  8
M-PIPE
100
AcDbLine
 10
1473.083162545682
 20
1589.328476849336
 30
0.0
 11
1473.083162545682
 21
1577.580634159126
 31
0.0
1001
REVIT
1002
{
1070
     3
1000
790271
1002
}
  0
SPLINE
  5
217
330
1ED
100
AcDbEntity
  8
M-PIPE
100
AcDbSpline
210
0.0
220
0.0
230
1.0
 70
     8
 71
     3
 72
     9
 73
     5
 74
     0
 42
0.000000001
 43
0.0000000001
 40
-0.9634467282710993
 40
-0.9634467282710993
 40
-0.9634467282710993
 40
-0.9634467282710993
 40
-0.5
 40
0.0
 40
0.0
 40
0.0
 40
0.0
 10
1494.055097244237
 20
1589.450463529713
 30
0.0
 10
1496.030509336899
 20
1589.946446578603
 30
0.0
 10
1500.169747777847
 20
1590.461989376276
 30
0.0
 10
1504.376774656259
 20
1589.90578435181
 30
0.0
 10
1506.578353074109
 20
1589.328476849336
 30
0.0
1001
REVIT
1002
{
1070
     3
1000
790271
1002
}
  0
LINE
  5
218
330
1ED
100
AcDbEntity
  8
M-PIPE
100
AcDbLine
 10
1509.083162545682
 20
1589.328476849336
 30
0.0
 11
1506.578353074109
 21
1589.328476849336
 31
0.0
1001
REVIT
1002
{
1070
     3
1000
790271
1002
}
  0
SPLINE
  5
219
330
1ED
100
AcDbEntity
  8
M-PIPE
100
AcDbSpline
210
0.0
220
0.0
230
1.0
 70
    24
 71
     3
 72
     9
 73
     5
 74
     0
 42
0.000000001
 43
0.0000000001
 40
-1.0
 40
-1.0
 40
-1.0
 40
-1.0
 40
-0.5
 40
-0.4955503609475278
 40
-0.4955503609475278
 40
-0.4955503609475278
 40
-0.4955503609475278
 10
1509.083162545682
 20
1589.328476849335
 30
0.0
 10
1509.083162545682
 20
1589.90578435181
 30
0.0
 10
1509.083162545682
 20
1590.197006913055
 30
0.0
 10
1509.083162545682
 20
1590.194415242492
 30
0.0
 10
1509.083162545682
 20
1590.194369521383
 30
0.0
1001
REVIT
1002
{
1070
     3
1000
790271
1002
}
  0
LINE
  5
21A
330
1ED
100
AcDbEntity
  8
M-PIPE
100
AcDbLine
 10
1508.083162545698
 20
1590.771852522309
 30
0.0
 11
1494.08515219328
 21
1590.771852522309
 31
0.0
1001
REVIT
1002
{
1070
     3
1000
790271
1002
}
  0
LINE
  5
21B
330
1ED
100
AcDbEntity
  8
M-PIPE
100
AcDbLine
 10
1488.081172898114
 20
1590.771852522309
 30
0.0
 11
1474.083162545698
 21
1590.771852522309
 31
0.0
1001
REVIT
1002
{
1070
     3
1000
790271
1002
}
  0
LINE
  5
21C
330
1ED
100
AcDbEntity
  8
M-PIPE
100
AcDbLine
 10
1508.083162545698
 20
1597.896822804526
 30
0.0
 11
1494.08515219328
 21
1597.896822804526
 31
0.0
1001
REVIT
1002
{
1070
     3
1000
790271
1002
}
  0
LINE
  5
21D
330
1ED
100
AcDbEntity
  8
M-PIPE
100
AcDbLine
 10
1488.081172898114
 20
1597.896822804526
 30
0.0
 11
1474.083162545698
 21
1597.896822804526
 31
0.0
1001
REVIT
1002
{
1070
     3
1000
790271
1002
}
  0
LINE
  5
21E
330
1ED
100
AcDbEntity
  8
M-PIPE
100
AcDbLine
 10
1513.583162545699
 20
1601.072249285069
 30
0.0
 11
1500.360590076344
 21
1601.072249285069
 31
0.0
1001
REVIT
1002
{
1070
     3
1000
790271
1002
}
  0
LINE
  5
21F
330
1ED
100
AcDbEntity
  8
M-PIPE
100
AcDbLine
 10
1481.805735015052
 20
1601.072249285069
 30
0.0
 11
1468.583162545697
 21
1601.07224928507
 31
0.0
1001
REVIT
1002
{
1070
     3
1000
790271
1002
}
  0
LINE
  5
220
330
1ED
100
AcDbEntity
  8
M-PIPE
100
AcDbLine
 10
1514.583162545699
 20
1628.982558849797
 30
0.0
 11
1494.085203371156
 21
1628.982558849797
 31
0.0
1001
REVIT
1002
{
1070
     3
1000
790271
1002
}
  0
LINE
  5
221
330
1ED
100
AcDbEntity
  8
M-PIPE
100
AcDbLine
 10
1488.081121720239
 20
1628.982558849797
 30
0.0
 11
1467.583162545698
 21
1628.982558849798
 31
0.0
1001
REVIT
1002
{
1070
     3
1000
790271
1002
}
  0
LINE
  5
222
330
1ED
100
AcDbEntity
  8
M-PIPE
100
AcDbLine
 10
1514.583162545699
 20
1631.910762080136
 30
0.0
 11
1494.085203371156
 21
1631.910762080136
 31
0.0
1001
REVIT
1002
{
1070
     3
1000
790271
1002
}
  0
LINE
  5
223
330
1ED
100
AcDbEntity
  8
M-PIPE
100
AcDbLine
 10
1510.583162545699
 20
1632.98255884986
 30
0.0
 11
1509.083162545672
 21
1632.98255884986
 31
0.0
1001
REVIT
1002
{
1070
     3
1000
790271
1002
}
  0
LINE
  5
224
330
1ED
100
AcDbEntity
  8
M-PIPE
100
AcDbLine
 10
1506.578353074097
 20
1632.98255884986
 30
0.0
 11
1494.086270885327
 21
1632.98255884986
 31
0.0
1001
REVIT
1002
{
1070
     3
1000
790271
1002
}
  0
LINE
  5
225
330
1ED
100
AcDbEntity
  8
M-PIPE
100
AcDbLine
 10
1488.081121720239
 20
1631.910762080137
 30
0.0
 11
1467.583162545698
 21
1631.910762080137
 31
0.0
1001
REVIT
1002
{
1070
     3
1000
790271
1002
}
  0
LINE
  5
226
330
1ED
100
AcDbEntity
  8
M-PIPE
100
AcDbLine
 10
1488.080054206069
 20
1632.98255884986
 30
0.0
 11
1475.587972017295
 21
1632.982558849861
 31
0.0
1001
REVIT
1002
{
1070
     3
1000
790271
1002
}
  0
LINE
  5
227
330
1ED
100
AcDbEntity
  8
M-PIPE
100
AcDbLine
 10
1473.083162545672
 20
1632.982558849861
 30
0.0
 11
1471.583162545698
 21
1632.982558849861
 31
0.0
1001
REVIT
1002
{
1070
     3
1000
790271
1002
}
  0
LINE
  5
228
330
1ED
100
AcDbEntity
  8
M-PIPE
100
AcDbLine
 10
1509.083162545672
 20
1632.98255884986
 30
0.0
 11
1506.578353074097
 21
1632.98255884986
 31
0.0
1001
REVIT
1002
{
1070
     3
1000
790271
1002
}
  0
LINE
  5
229
330
1ED
100
AcDbEntity
  8
M-PIPE
100
AcDbLine
 10
1509.083162545673
 20
1632.98255884986
 30
0.0
 11
1509.083162545673
 21
1647.116533446206
 31
0.0
1001
REVIT
1002
{
1070
     3
1000
790271
1002
}
  0
LINE
  5
22A
330
1ED
100
AcDbEntity
  8
M-PIPE
100
AcDbLine
 10
1506.578353074096
 20
1647.116533446206
 30
0.0
 11
1506.578353074096
 21
1632.98255884986
 31
0.0
1001
REVIT
1002
{
1070
     3
1000
790271
1002
}
  0
LINE
  5
22B
330
1ED
100
AcDbEntity
  8
M-PIPE
100
AcDbLine
 10
1493.587972017242
 20
1645.982558850059
 30
0.0
 11
1493.587972017242
 21
1647.116533446206
 31
0.0
1001
REVIT
1002
{
1070
     3
1000
790271
1002
}
  0
LINE
  5
22C
330
1ED
100
AcDbEntity
  8
M-PIPE
100
AcDbLine
 10
1488.578353074063
 20
1647.116533446206
 30
0.0
 11
1488.578353074063
 21
1645.982558850059
 31
0.0
1001
REVIT
1002
{
1070
     3
1000
790271
1002
}
  0
LINE
  5
22D
330
1ED
100
AcDbEntity
  8
M-PIPE
100
AcDbLine
 10
1475.587972017295
 20
1632.982558849861
 30
0.0
 11
1473.083162545672
 21
1632.982558849861
 31
0.0
1001
REVIT
1002
{
1070
     3
1000
790271
1002
}
  0
LINE
  5
22E
330
1ED
100
AcDbEntity
  8
M-PIPE
100
AcDbLine
 10
1475.587972017294
 20
1632.982558849861
 30
0.0
 11
1475.587972017295
 21
1647.116533446206
 31
0.0
1001
REVIT
1002
{
1070
     3
1000
790271
1002
}
  0
LINE
  5
22F
330
1ED
100
AcDbEntity
  8
M-PIPE
100
AcDbLine
 10
1473.083162545673
 20
1647.116533446206
 30
0.0
 11
1473.083162545673
 21
1632.982558849861
 31
0.0
1001
REVIT
1002
{
1070
     3
1000
790271
1002
}
  0
LINE
  5
230
330
1ED
100
AcDbEntity
  8
M-PIPE
100
AcDbLine
 10
1493.58797201724
 20
1647.116533446206
 30
0.0
 11
1491.083162545699
 21
1647.116533446206
 31
0.0
1001
REVIT
1002
{
1070
     3
1000
790271
1002
}
  0
SPLINE
  5
231
330
1ED
100
AcDbEntity
  8
M-PIPE
100
AcDbSpline
210
0.0
220
0.0
230
1.0
 70
     8
 71
     3
 72
     9
 73
     5
 74
     0
 42
0.000000001
 43
0.0000000001
 40
-1.0
 40
-1.0
 40
-1.0
 40
-1.0
 40
-0.5
 40
0.0
 40
0.0
 40
0.0
 40
0.0
 10
1493.58797201724
 20
1647.116533446206
 30
0.0
 10
1495.71652061834
 20
1647.693840948682
 30
0.0
 10
1500.010132728916
 20
1648.271148451158
 30
0.0
 10
1504.376774656244
 20
1647.693840948682
 30
0.0
 10
1506.578353074097
 20
1647.116533446206
 30
0.0
1001
REVIT
1002
{
1070
     3
1000
790271
1002
}
  0
LINE
  5
232
330
1ED
100
AcDbEntity
  8
M-PIPE
100
AcDbLine
 10
1509.083162545672
 20
1647.116533446206
 30
0.0
 11
1506.578353074097
 21
1647.116533446206
 31
0.0
1001
REVIT
1002
{
1070
     3
1000
790271
1002
}
  0
SPLINE
  5
233
330
1ED
100
AcDbEntity
  8
M-PIPE
100
AcDbSpline
210
0.0
220
0.0
230
1.0
 70
    24
 71
     3
 72
     9
 73
     5
 74
     0
 42
0.000000001
 43
0.0000000001
 40
-1.0
 40
-1.0
 40
-1.0
 40
-1.0
 40
-0.5
 40
0.0
 40
0.0
 40
0.0
 40
0.0
 10
1509.083162545672
 20
1647.116533446206
 30
0.0
 10
1509.083162545674
 20
1647.398959293563
 30
0.0
 10
1509.083162545677
 20
1647.825722708213
 30
0.0
 10
1509.08316254568
 20
1647.976309562742
 30
0.0
 10
1509.083162545682
 20
1647.982558849976
 30
0.0
1001
REVIT
1002
{
1070
     3
1000
790271
1002
}
  0
SPLINE
  5
234
330
1ED
100
AcDbEntity
  8
M-PIPE
100
AcDbSpline
210
0.0
220
0.0
230
1.0
 70
    24
 71
     3
 72
     8
 73
     4
 74
     0
 42
0.000000001
 43
0.0000000001
 40
-1.0
 40
-1.0
 40
-1.0
 40
-1.0
 40
-0.8010821838736529
 40
-0.8010821838736529
 40
-0.8010821838736529
 40
-0.8010821838736529
 10
1509.083162545682
 20
1647.982558849976
 30
0.0
 10
1509.083162545683
 20
1647.980072660834
 30
0.0
 10
1509.083162545683
 20
1647.966658635379
 30
0.0
 10
1509.083162545684
 20
1647.942316773612
 30
0.0
1001
REVIT
1002
{
1070
     3
1000
790271
1002
}
  0
SPLINE
  5
235
330
1ED
100
AcDbEntity
  8
M-PIPE
100
AcDbSpline
210
0.0
220
0.0
230
1.0
 70
    24
 71
     3
 72
     9
 73
     5
 74
     0
 42
0.000000001
 43
0.0000000001
 40
-1.0
 40
-1.0
 40
-1.0
 40
-1.0
 40
-0.5
 40
0.0
 40
0.0
 40
0.0
 40
0.0
 10
1473.083162545682
 20
1647.982558849976
 30
0.0
 10
1473.08316254568
 20
1647.976309562726
 30
0.0
 10
1473.083162545677
 20
1647.82572270818
 30
0.0
 10
1473.083162545673
 20
1647.398959293546
 30
0.0
 10
1473.083162545672
 20
1647.116533446206
 30
0.0
1001
REVIT
1002
{
1070
     3
1000
790271
1002
}
  0
LINE
  5
236
330
1ED
100
AcDbEntity
  8
M-PIPE
100
AcDbLine
 10
1475.587972017295
 20
1647.116533446206
 30
0.0
 11
1473.083162545672
 21
1647.116533446206
 31
0.0
1001
REVIT
1002
{
1070
     3
1000
790271
1002
}
  0
SPLINE
  5
237
330
1ED
100
AcDbEntity
  8
M-PIPE
100
AcDbSpline
210
0.0
220
0.0
230
1.0
 70
     8
 71
     3
 72
     8
 73
     4
 74
     0
 42
0.000000001
 43
0.0000000001
 40
-1.0
 40
-1.0
 40
-1.0
 40
-1.0
 40
-0.5833333333331743
 40
-0.5833333333331743
 40
-0.5833333333331743
 40
-0.5833333333331743
 10
1475.587972017295
 20
1647.116533446206
 30
0.0
 10
1477.3617625182
 20
1647.597623031598
 30
0.0
 10
1479.148231806735
 20
1647.878258623076
 30
0.0
 10
1480.947379882902
 20
1647.958440220642
 30
0.0
1001
REVIT
1002
{
1070
     3
1000
790271
1002
}
  0
SPLINE
  5
238
330
1ED
100
AcDbEntity
  8
M-PIPE
100
AcDbSpline
210
0.0
220
0.0
230
1.0
 70
     8
 71
     3
 72
     9
 73
     5
 74
     0
 42
0.000000001
 43
0.0000000001
 40
-0.5765535706502855
 40
-0.5765535706502855
 40
-0.5765535706502855
 40
-0.5765535706502855
 40
-0.5
 40
0.0
 40
0.0
 40
0.0
 40
0.0
 10
1481.0352140917
 20
1647.962195012236
 30
0.0
 10
1481.365844801308
 20
1647.975728137353
 30
0.0
 10
1483.859171661289
 20
1648.026689650588
 30
0.0
 10
1486.376774656224
 20
1647.693840948678
 30
0.0
 10
1488.578353074062
 20
1647.116533446206
 30
0.0
1001
REVIT
1002
{
1070
     3
1000
790271
1002
}
  0
LINE
  5
239
330
1ED
100
AcDbEntity
  8
M-PIPE
100
AcDbLine
 10
1491.083162545699
 20
1647.116533446206
 30
0.0
 11
1488.578353074062
 21
1647.116533446206
 31
0.0
1001
REVIT
1002
{
1070
     3
1000
790271
1002
}
  0
LINE
  5
23A
330
1ED
100
AcDbEntity
  8
M-PIPE
100
AcDbLine
 10
1509.083162545726
 20
1647.982558849976
 30
0.0
 11
1491.083162545699
 21
1647.982558849976
 31
0.0
1001
REVIT
1002
{
1070
     3
1000
790271
1002
}
  0
LINE
  5
23B
330
1ED
100
AcDbEntity
  8
M-PIPE
100
AcDbLine
 10
1491.083162545699
 20
1647.982558849976
 30
0.0
 11
1480.996350571011
 21
1647.982558849976
 31
0.0
1001
REVIT
1002
{
1070
     3
1000
790271
1002
}
  0
LINE
  5
23C
330
1ED
100
AcDbEntity
  8
M-PIPE
100
AcDbLine
 10
1480.71861510017
 20
1647.982558849976
 30
0.0
 11
1473.083162545672
 21
1647.982558849976
 31
0.0
1001
REVIT
1002
{
1070
     3
1000
790271
1002
}
  0
ARC
  5
23D
330
1ED
100
AcDbEntity
  8
M-PIPE
100
AcDbCircle
 10
1491.083162545698
 20
1613.482558849932
 30
0.0
 40
15.49999999999978
100
AcDbArc
 50
281.1599368721831
 51
78.84006312781611
1001
REVIT
1002
{
1070
     3
1000
790271
1002
}
  0
ARC
  5
23E
330
1ED
100
AcDbEntity
  8
M-PIPE
100
AcDbCircle
 10
1491.083162545698
 20
1613.482558849932
 30
0.0
 40
15.50000000000005
100
AcDbArc
 50
101.159936872188
 51
258.8400631278108
1001
REVIT
1002
{
1070
     3
1000
790271
1002
}
  0
SPLINE
  5
23F
330
1ED
100
AcDbEntity
  8
M-PIPE
100
AcDbSpline
210
0.0
220
0.0
230
1.0
 70
     8
 71
     3
 72
     9
 73
     5
 74
     0
 42
0.000000001
 43
0.0000000001
 40
-1.0
 40
-1.0
 40
-1.0
 40
-1.0
 40
-0.5
 40
0.0
 40
0.0
 40
0.0
 40
0.0
 10
1491.083162545698
 20
1602.284426693819
 30
0.0
 10
1491.589991253301
 20
1602.284658007038
 30
0.0
 10
1492.596819960904
 20
1602.342559295698
 30
0.0
 10
1493.589991253301
 20
1602.515337908801
 30
0.0
 10
1494.083162545697
 20
1602.630446546463
 30
0.0
1001
REVIT
1002
{
1070
     3
1000
790271
1002
}
  0
ARC
  5
240
330
1ED
100
AcDbEntity
  8
M-PIPE
100
AcDbCircle
 10
1491.083162545698
 20
1613.482558849932
 30
0.0
 40
11.50000000006306
100
AcDbArc
 50
285.1216653148203
 51
74.87833468517827
1001
REVIT
1002
{
1070
     3
1000
790271
1002
}
  0
SPLINE
  5
241
330
1ED
100
AcDbEntity
  8
M-PIPE
100
AcDbSpline
210
0.0
220
0.0
230
1.0
 70
     8
 71
     3
 72
     9
 73
     5
 74
     0
 42
0.000000001
 43
0.0000000001
 40
-1.0
 40
-1.0
 40
-1.0
 40
-1.0
 40
-0.5
 40
0.0
 40
0.0
 40
0.0
 40
0.0
 10
1494.083162545697
 20
1624.33467115342
 30
0.0
 10
1493.589991253301
 20
1624.449779791082
 30
0.0
 10
1492.596819960905
 20
1624.622558404185
 30
0.0
 10
1491.589991253301
 20
1624.680459692844
 30
0.0
 10
1491.083162545698
 20
1624.680691006064
 30
0.0
1001
REVIT
1002
{
1070
     3
1000
790271
1002
}
  0
SPLINE
  5
242
330
1ED
100
AcDbEntity
  8
M-PIPE
100
AcDbSpline
210
0.0
220
0.0
230
1.0
 70
     8
 71
     3
 72
     9
 73
     5
 74
     0
 42
0.000000001
 43
0.0000000001
 40
-1.0
 40
-1.0
 40
-1.0
 40
-1.0
 40
-0.5
 40
0.0
 40
0.0
 40
0.0
 40
0.0
 10
1491.083162545698
 20
1624.680691006064
 30
0.0
 10
1490.576333838095
 20
1624.680459692844
 30
0.0
 10
1489.569505130491
 20
1624.622558404185
 30
0.0
 10
1488.576333838094
 20
1624.449779791082
 30
0.0
 10
1488.083162545697
 20
1624.33467115342
 30
0.0
1001
REVIT
1002
{
1070
     3
1000
790271
1002
}
  0
ARC
  5
243
330
1ED
100
AcDbEntity
  8
M-PIPE
100
AcDbCircle
 10
1491.083162545698
 20
1613.482558849932
 30
0.0
 40
11.50000000006342
100
AcDbArc
 50
105.1216653148274
 51
254.8783346851714
1001
REVIT
1002
{
1070
     3
1000
790271
1002
}
  0
SPLINE
  5
244
330
1ED
100
AcDbEntity
  8
M-PIPE
100
AcDbSpline
210
0.0
220
0.0
230
1.0
 70
     8
 71
     3
 72
     9
 73
     5
 74
     0
 42
0.000000001
 43
0.0000000001
 40
-1.0
 40
-1.0
 40
-1.0
 40
-1.0
 40
-0.5
 40
0.0
 40
0.0
 40
0.0
 40
0.0
 10
1488.083162545697
 20
1602.630446546464
 30
0.0
 10
1488.576333838094
 20
1602.515337908801
 30
0.0
 10
1489.56950513049
 20
1602.342559295698
 30
0.0
 10
1490.576333838094
 20
1602.284658007039
 30
0.0
 10
1491.083162545698
 20
1602.284426693819
 30
0.0
1001
REVIT
1002
{
1070
     3
1000
790271
1002
}
  0
ARC
  5
245
330
1ED
100
AcDbEntity
  8
M-PIPE
100
AcDbCircle
 10
1491.083162545698
 20
1613.482558849932
 30
0.0
 40
8.5
100
AcDbArc
 50
269.9999999999981
 51
90.0
1001
REVIT
1002
{
1070
     3
1000
790271
1002
}
  0
ARC
  5
246
330
1ED
100
AcDbEntity
  8
M-PIPE
100
AcDbCircle
 10
1491.083162545698
 20
1613.482558849932
 30
0.0
 40
8.5
100
AcDbArc
 50
90.0
 51
269.9999999999981
1001
REVIT
1002
{
1070
     3
1000
790271
1002
}
  0
LINE
  5
247
330
1ED
100
AcDbEntity
  8
M-PIPE
100
AcDbLine
 10
1488.083162545697
 20
1580.982558849932
 30
0.0
 11
1488.083162545697
 21
1586.982558849932
 31
0.0
1001
REVIT
1002
{
1070
     3
1000
790271
1002
}
  0
LINE
  5
248
330
1ED
100
AcDbEntity
  8
M-PIPE
100
AcDbLine
 10
1488.083162545697
 20
1586.982558849932
 30
0.0
 11
1488.083162545697
 21
1602.630446546464
 31
0.0
1001
REVIT
1002
{
1070
     3
1000
790271
1002
}
  0
LINE
  5
249
330
1ED
100
AcDbEntity
  8
M-PIPE
100
AcDbLine
 10
1488.083162545698
 20
1639.982558850059
 30
0.0
 11
1488.083162545698
 21
1645.982558850059
 31
0.0
1001
REVIT
1002
{
1070
     3
1000
790271
1002
}
  0
LINE
  5
24A
330
1ED
100
AcDbEntity
  8
M-PIPE
100
AcDbLine
 10
1488.083162545697
 20
1624.33467115342
 30
0.0
 11
1488.083162545698
 21
1639.982558850059
 31
0.0
1001
REVIT
1002
{
1070
     3
1000
790271
1002
}
  0
LINE
  5
24B
330
1ED
100
AcDbEntity
  8
M-PIPE
100
AcDbLine
 10
1494.083162545698
 20
1645.982558850059
 30
0.0
 11
1494.083162545698
 21
1639.982558850059
 31
0.0
1001
REVIT
1002
{
1070
     3
1000
790271
1002
}
  0
LINE
  5
24C
330
1ED
100
AcDbEntity
  8
M-PIPE
100
AcDbLine
 10
1494.083162545698
 20
1639.982558850059
 30
0.0
 11
1494.083162545697
 21
1624.33467115342
 31
0.0
1001
REVIT
1002
{
1070
     3
1000
790271
1002
}
  0
LINE
  5
24D
330
1ED
100
AcDbEntity
  8
M-PIPE
100
AcDbLine
 10
1494.083162545697
 20
1586.982558849932
 30
0.0
 11
1494.083162545697
 21
1580.982558849932
 31
0.0
1001
REVIT
1002
{
1070
     3
1000
790271
1002
}
  0
LINE
  5
24E
330
1ED
100
AcDbEntity
  8
M-PIPE
100
AcDbLine
 10
1494.083162545697
 20
1602.630446546463
 30
0.0
 11
1494.083162545697
 21
1586.982558849932
 31
0.0
1001
REVIT
1002
{
1070
     3
1000
790271
1002
}
  0
LINE
  5
24F
330
1ED
100
AcDbEntity
  8
M-PIPE
100
AcDbLine
 10
1494.083162545697
 20
1580.982558849932
 30
0.0
 11
1488.083162545697
 21
1580.982558849932
 31
0.0
1001
REVIT
1002
{
1070
     3
1000
790271
1002
}
  0
LINE
  5
250
330
1ED
100
AcDbEntity
  8
M-PIPE
100
AcDbLine
 10
1494.083162545697
 20
1586.982558849932
 30
0.0
 11
1488.083162545697
 21
1586.982558849932
 31
0.0
1001
REVIT
1002
{
1070
     3
1000
790271
1002
}
  0
LINE
  5
251
330
1ED
100
AcDbEntity
  8
M-PIPE
100
AcDbLine
 10
1494.083162545698
 20
1639.982558850059
 30
0.0
 11
1488.083162545698
 21
1639.982558850059
 31
0.0
1001
REVIT
1002
{
1070
     3
1000
790271
1002
}
  0
LINE
  5
252
330
1ED
100
AcDbEntity
  8
M-PIPE
100
AcDbLine
 10
1494.083162545698
 20
1645.982558850059
 30
0.0
 11
1488.083162545698
 21
1645.982558850059
 31
0.0
1001
REVIT
1002
{
1070
     3
1000
790271
1002
}
  0
LWPOLYLINE
  5
253
330
1ED
100
AcDbEntity
  8
P-SANR-FIXT
100
AcDbPolyline
 90
       15
 70
   128
 43
0.0
 10
1380.969111669959
 20
2124.582022050395
 10
1386.925605652949
 20
2128.06791900442
 10
1393.016733774314
 20
2131.312831384224
 10
1399.23275152843
 20
2134.311568022212
 10
1405.563714612904
 20
2137.059331579457
 10
1411.999494837332
 20
2139.551726220429
 10
1418.529796326251
 20
2141.784764645381
 10
1425.144171990334
 20
2143.754874469193
 10
1431.83204023951
 20
2145.458903936412
 10
1438.58270191125
 20
2146.894126963398
 10
1445.385357386944
 20
2148.058247499473
 10
1452.229123868985
 20
2148.949403200111
 10
1459.103052790928
 20
2149.566168406295
 10
1465.99614733286
 20
2149.907556425263
 10
1471.0831625457
 20
2149.982558850012
  0
LWPOLYLINE
  5
254
330
1ED
100
AcDbEntity
  8
P-SANR-FIXT
100
AcDbPolyline
 90
       41
 70
   128
 43
0.0
 10
1491.0831625457
 20
2149.982558850012
 10
1490.283375861967
 20
2149.982558850012
 10
1489.484868666315
 20
2149.982558850012
 10
1488.688918399922
 20
2149.982558850012
 10
1487.896798413415
 20
2149.982558850012
 10
1487.109775929799
 20
2149.982558850012
 10
1486.329110017157
 20
2149.982558850012
 10
1485.556049574418
 20
2149.982558850012
 10
1484.791831333377
 20
2149.982558850012
 10
1484.037677880198
 20
2149.982558850012
 10
1483.294795699527
 20
2149.982558850012
 10
1482.56437324438
 20
2149.982558850012
 10
1481.84757903487
 20
2149.982558850012
 10
1481.145559788825
 20
2149.982558850012
 10
1480.459438587282
 20
2149.982558850012
 10
1479.790313077799
 20
2149.982558850012
 10
1479.139253718452
 20
2149.982558850012
 10
1478.507302065331
 20
2149.982558850012
 10
1477.89546910627
 20
2149.982558850012
 10
1477.304733643489
 20
2149.982558850012
 10
1476.73604072771
 20
2149.982558850012
 10
1476.190300146283
 20
2149.982558850012
 10
1475.668384967721
 20
2149.982558850012
 10
1475.171130144973
 20
2149.982558850012
 10
1474.69933117968
 20
2149.982558850012
 10
1474.253742849542
 20
2149.982558850012
 10
1473.835078000833
 20
2149.982558850012
 10
1473.444006408001
 20
2149.982558850012
 10
1473.081153702169
 20
2149.982558850012
 10
1472.747100370265
 20
2149.982558850012
 10
1472.442380826355
 20
2149.982558850012
 10
1472.167482556709
 20
2149.982558850012
 10
1471.922845339916
 20
2149.982558850012
 10
1471.708860543335
 20
2149.982558850012
 10
1471.525870496994
 20
2149.982558850012
 10
1471.374167945931
 20
2149.982558850012
 10
1471.253995581866
 20
2149.982558850012
 10
1471.165545654947
 20
2149.982558850012
 10
1471.108959666188
 20
2149.982558850012
 10
1471.0843281411
 20
2149.982558850012
 10
1471.0831625457
 20
2149.982558850012
  0
LWPOLYLINE
  5
255
330
1ED
100
AcDbEntity
  8
P-SANR-FIXT
100
AcDbPolyline
 90
       22
 70
   128
 43
0.0
 10
1471.0831625457
 20
2149.982558850012
 10
1471.099160412481
 20
2149.982558850012
 10
1471.147128419648
 20
2149.982558850012
 10
1471.226989828622
 20
2149.982558850012
 10
1471.338616878188
 20
2149.982558850012
 10
1471.481830988875
 20
2149.982558850012
 10
1471.656403048659
 20
2149.982558850012
 10
1471.862053779485
 20
2149.982558850012
 10
1472.098454184051
 20
2149.982558850012
 10
1472.365226072141
 20
2149.982558850012
 10
1472.661942665642
 20
2149.982558850012
 10
1472.9881292813
 20
2149.982558850012
 10
1473.343264090114
 20
2149.982558850012
 10
1473.726778952147
 20
2149.982558850012
 10
1474.13806032543
 20
2149.982558850012
 10
1474.576450247506
 20
2149.982558850012
 10
1475.041247388014
 20
2149.982558850012
 10
1475.531708170681
 20
2149.982558850012
 10
1476.047047962882
 20
2149.982558850012
 10
1476.586442330882
 20
2149.982558850012
 10
1477.149028358756
 20
2149.982558850012
 10
1477.6331625457
 20
2149.982558850012
  0
LWPOLYLINE
  5
256
330
1ED
100
AcDbEntity
  8
P-SANR-FIXT
100
AcDbPolyline
 90
        4
 70
   128
 43
0.0
 10
1493.142332043377
 20
2149.982558850012
 10
1492.345148585968
 20
2149.982558850012
 10
1491.545946220103
 20
2149.982558850012
 10
1491.0831625457
 20
2149.982558850012
  0
LWPOLYLINE
  5
257
330
1ED
100
AcDbEntity
  8
P-SANR-FIXT
100
AcDbPolyline
 90
       27
 70
   128
 43
0.0
 10
1364.247815087553
 20
2094.734258292089
 10
1364.275811354419
 20
2096.133884988621
 10
1364.359755366962
 20
2097.531272581011
 10
1364.499512832668
 20
2098.924185547201
 10
1364.694860169406
 20
2100.310395523588
 10
1364.94548486311
 20
2101.687684869916
 10
1365.250985967732
 20
2103.053850217039
 10
1365.610874746677
 20
2104.406705991833
 10
1366.024575454668
 20
2105.744087913654
 10
1366.491426258826
 20
2107.063856456718
 10
1367.010680297452
 20
2108.363900272892
 10
1367.581506874855
 20
2109.642139569399
 10
1368.202992790278
 20
2110.896529436041
 10
1368.874143798836
 20
2112.12506311662
 10
1369.593886202084
 20
2113.32577521932
 10
1370.361068565715
 20
2114.496744860915
 10
1371.174463561603
 20
2115.636098739773
 10
1372.032769931271
 20
2116.742014132736
 10
1372.934614567622
 20
2117.812721811091
 10
1373.878554711622
 20
2118.846508870959
 10
1374.863080260403
 20
2119.841721473573
 10
1375.886616183108
 20
2120.796767491069
 10
1376.947525040603
 20
2121.710119053553
 10
1378.044109605032
 20
2122.580314993362
 10
1379.174615575017
 20
2123.405963182625
 10
1380.337234382169
 20
2124.185742760365
 10
1380.969111669957
 20
2124.582022050394
  0
LINE
  5
258
330
1ED
100
AcDbEntity
  8
P-SANR-FIXT
100
AcDbLine
 10
1364.247815087553
 20
2094.734258292089
 30
0.0
 11
1364.247815087553
 21
2020.278094744414
 31
0.0
  0
LINE
  5
259
330
1ED
100
AcDbEntity
  8
P-SANR-FIXT
100
AcDbLine
 10
1364.247815087553
 20
2020.278094744414
 30
0.0
 11
1364.247815087553
 21
1744.229482304936
 31
0.0
  0
LWPOLYLINE
  5
25A
330
1ED
100
AcDbEntity
  8
P-SANR-FIXT
100
AcDbPolyline
 90
       28
 70
   128
 43
0.0
 10
1381.746096283356
 20
1713.919585589525
 10
1380.548023202735
 20
1714.643712356116
 10
1379.379865800052
 20
1715.41517004333
 10
1378.24349287796
 20
1716.232724483438
 10
1377.14072239072
 20
1717.095067763737
 10
1376.073318535867
 20
1718.000820318935
 10
1375.042988931867
 20
1718.948533138161
 10
1374.051381886296
 20
1719.936690083073
 10
1373.100083758894
 20
1720.963710313354
 10
1372.190616423733
 20
1722.027950815721
 10
1371.324434834539
 20
1723.127709032397
 10
1370.502924697081
 20
1724.261225584838
 10
1369.72740025233
 20
1725.426687088363
 10
1368.999102173964
 20
1726.622229053185
 10
1368.319195583544
 20
1727.845938867197
 10
1367.688768186578
 20
1729.095858855739
 10
1367.108828532415
 20
1730.369989413467
 10
1366.58030440079
 20
1731.666292203286
 10
1366.104041317565
 20
1732.982693417263
 10
1365.680801202078
 20
1734.317087094274
 10
1365.311261148227
 20
1735.667338489091
 10
1364.996012341266
 20
1737.031287487519
 10
1364.735559112038
 20
1738.406752062122
 10
1364.530318130149
 20
1739.791531762998
 10
1364.380617737388
 20
1741.183411238029
 10
1364.286697422448
 20
1742.580163776972
 10
1364.248707437798
 20
1743.979554873725
 10
1364.247815087553
 20
1744.229482304936
  0
LWPOLYLINE
  5
25B
330
1ED
100
AcDbEntity
  8
P-SANR-FIXT
100
AcDbPolyline
 90
       15
 70
   128
 43
0.0
 10
1476.9297311216
 20
1687.179500770822
 10
1473.89173211233
 20
1687.240268853634
 10
1465.895058926061
 20
1687.720645835585
 10
1457.923992181074
 20
1688.520420203614
 10
1449.991283883758
 20
1689.638312489343
 10
1442.109624675169
 20
1691.072534303586
 10
1434.291623528708
 20
1692.82079119739
 10
1426.54978757846
 20
1694.880286332667
 10
1418.89650211044
 20
1697.247724956536
 10
1411.344010748783
 20
1699.919319672226
 10
1403.904395868558
 20
1702.890796498101
 10
1396.589559266536
 20
1706.157401705121
 10
1389.41120312087
 20
1709.713909421794
 10
1382.380811270087
 20
1713.554629994454
 10
1381.746096283357
 20
1713.919585589525
  0
LWPOLYLINE
  5
25C
330
1ED
100
AcDbEntity
  8
P-SANR-FIXT
100
AcDbPolyline
 90
       16
 70
   128
 43
0.0
 10
1483.199131270603
 20
1687.080057758459
 10
1483.164615418064
 20
1687.080057758459
 10
1482.985075549155
 20
1687.080057758459
 10
1482.81849089194
 20
1687.080057758459
 10
1482.665127946335
 20
1687.080057758459
 10
1482.525232060338
 20
1687.080057758459
 10
1482.399027037524
 20
1687.080057758459
 10
1482.286714779004
 20
1687.080057758459
 10
1482.188474960437
 20
1687.080057758459
 10
1482.104464744574
 20
1687.080057758459
 10
1482.03481852984
 20
1687.080057758459
 10
1481.979647735319
 20
1687.080057758459
 10
1481.939040622517
 20
1687.080057758459
 10
1481.913062154149
 20
1687.080057758459
 10
1481.901753890224
 20
1687.080057758459
 10
1481.901218768653
 20
1687.080057758459
  0
LWPOLYLINE
  5
25D
330
1ED
100
AcDbEntity
  8
P-SANR-FIXT
100
AcDbPolyline
 90
       41
 70
   128
 43
0.0
 10
1481.901218768653
 20
1687.080057758459
 10
1481.908563344318
 20
1687.080057758459
 10
1481.930585321565
 20
1687.080057758459
 10
1481.967249469923
 20
1687.080057758459
 10
1482.018497134578
 20
1687.080057758459
 10
1482.084246330198
 20
1687.080057758459
 10
1482.164391872098
 20
1687.080057758459
 10
1482.258805544505
 20
1687.080057758459
 10
1482.367336305685
 20
1687.080057758459
 10
1482.489810529572
 20
1687.080057758459
 10
1482.626032283534
 20
1687.080057758459
 10
1482.775783641824
 20
1687.080057758459
 10
1482.938825034214
 20
1687.080057758459
 10
1483.114895629256
 20
1687.080057758459
 10
1483.303713751559
 20
1687.080057758459
 10
1483.504977332404
 20
1687.080057758459
 10
1483.718364392998
 20
1687.080057758459
 10
1483.943533559563
 20
1687.080057758459
 10
1484.180124609466
 20
1687.080057758459
 10
1484.427759047498
 20
1687.080057758459
 10
1484.686040711383
 20
1687.080057758459
 10
1484.954556405556
 20
1687.080057758459
 10
1485.232876562188
 20
1687.080057758459
 10
1485.520555928398
 20
1687.080057758459
 10
1485.81713427857
 20
1687.080057758459
 10
1486.12213715061
 20
1687.080057758459
 10
1486.435076604986
 20
1687.080057758459
 10
1486.75545200533
 20
1687.080057758459
 10
1487.082750819341
 20
1687.080057758459
 10
1487.41644943874
 20
1687.080057758459
 10
1487.756014016918
 20
1687.080057758459
 10
1488.100901322989
 20
1687.080057758459
 10
1488.450559610835
 20
1687.080057758459
 10
1488.804429501785
 20
1687.080057758459
 10
1489.161944879501
 20
1687.080057758459
 10
1489.522533795645
 20
1687.080057758459
 10
1489.885619384873
 20
1687.080057758459
 10
1490.250620787696
 20
1687.080057758459
 10
1490.616954079732
 20
1687.080057758459
 10
1490.984033205861
 20
1687.080057758459
 10
1491.083162545701
 20
1687.080057758459
  0
LWPOLYLINE
  5
25E
330
1ED
100
AcDbEntity
  8
P-SANR-FIXT
100
AcDbPolyline
 90
       10
 70
   128
 43
0.0
 10
1495.960484350153
 20
1687.080057758459
 10
1496.267677990547
 20
1687.080057758459
 10
1496.566577512199
 20
1687.080057758459
 10
1496.856704739637
 20
1687.080057758459
 10
1497.137595531189
 20
1687.080057758459
 10
1497.408800521507
 20
1687.080057758459
 10
1497.669885840462
 20
1687.080057758459
 10
1497.920433807238
 20
1687.080057758459
 10
1498.160043598535
 20
1687.080057758459
 10
1498.184680853209
 20
1687.080057758459
  0
SPLINE
  5
25F
330
1ED
100
AcDbEntity
  8
P-SANR-FIXT
100
AcDbSpline
210
0.0
220
0.0
230
1.0
 70
    24
 71
     3
 72
    11
 73
     7
 74
     0
 42
0.000000001
 43
0.0000000001
 40
-1.0
 40
-1.0
 40
-1.0
 40
-1.0
 40
-0.75
 40
-0.5
 40
-0.25
 40
0.0
 40
0.0
 40
0.0
 40
0.0
 10
1493.142332043373
 20
2124.582022050393
 30
0.0
 10
1493.142332043373
 20
2128.733695496097
 30
0.0
 10
1493.142332043374
 20
2136.03358290284
 30
0.0
 10
1493.142332043374
 20
2144.04611701022
 30
0.0
 10
1493.142332043374
 20
2148.902109761106
 30
0.0
 10
1493.142332043375
 20
2149.979330109725
 30
0.0
 10
1493.142332043375
 20
2149.982558850011
 30
0.0
  0
SPLINE
  5
260
330
1ED
100
AcDbEntity
  8
P-SANR-FIXT
100
AcDbSpline
210
0.0
220
0.0
230
1.0
 70
    24
 71
     3
 72
    12
 73
     8
 74
     0
 42
0.000000001
 43
0.0000000001
 40
-1.0
 40
-1.0
 40
-1.0
 40
-1.0
 40
-0.85
 40
-0.7
 40
-0.4
 40
-0.2
 40
0.0
 40
0.0
 40
0.0
 40
0.0
 10
1493.142332043373
 20
2094.734258292088
 30
0.0
 10
1493.142332043373
 20
2096.546977674219
 30
0.0
 10
1493.142332043373
 20
2100.107835917015
 30
0.0
 10
1493.142332043373
 20
2107.073000754485
 30
0.0
 10
1493.142332043373
 20
2114.094694330585
 30
0.0
 10
1493.142332043373
 20
2120.437820060407
 30
0.0
 10
1493.142332043373
 20
2123.314661538877
 30
0.0
 10
1493.142332043373
 20
2124.582022050393
 30
0.0
  0
LINE
  5
261
330
1ED
100
AcDbEntity
  8
P-SANR-FIXT
100
AcDbLine
 10
1493.142332043374
 20
2082.415148620391
 30
0.0
 11
1493.142332043374
 21
2094.734258292088
 31
0.0
  0
LINE
  5
262
330
1ED
100
AcDbEntity
  8
P-SANR-FIXT
100
AcDbLine
 10
1493.142332043374
 20
1744.229482304935
 30
0.0
 11
1493.142332043374
 21
1917.54996907963
 31
0.0
  0
SPLINE
  5
263
330
1ED
100
AcDbEntity
  8
P-SANR-FIXT
100
AcDbSpline
210
0.0
220
0.0
230
1.0
 70
    24
 71
     3
 72
    12
 73
     8
 74
     0
 42
0.000000001
 43
0.0000000001
 40
-1.0
 40
-1.0
 40
-1.0
 40
-1.0
 40
-0.85
 40
-0.7
 40
-0.4
 40
-0.2
 40
0.0
 40
0.0
 40
0.0
 40
0.0
 10
1493.142332043373
 20
1713.919585589525
 30
0.0
 10
1493.142332043373
 20
1714.852514777453
 30
0.0
 10
1493.142332043373
 20
1716.924402460667
 30
0.0
 10
1493.142332043373
 20
1721.975216999008
 30
0.0
 10
1493.142332043373
 20
1728.708755494767
 30
0.0
 10
1493.142332043373
 20
1736.909663398433
 30
0.0
 10
1493.142332043373
 20
1741.748477367499
 30
0.0
 10
1493.142332043373
 20
1744.229482304935
 30
0.0
  0
SPLINE
  5
264
330
1ED
100
AcDbEntity
  8
P-SANR-FIXT
100
AcDbSpline
210
0.0
220
0.0
230
1.0
 70
    24
 71
     3
 72
    11
 73
     7
 74
     0
 42
0.000000001
 43
0.0000000001
 40
-0.8103454160161106
 40
-0.8103454160161106
 40
-0.8103454160161106
 40
-0.8103454160161106
 40
-0.7
 40
-0.4
 40
-0.2
 40
0.0
 40
0.0
 40
0.0
 40
0.0
 10
1493.142332043375
 20
1687.467746763464
 30
0.0
 10
1493.142332043375
 20
1687.735502107861
 30
0.0
 10
1493.142332043374
 20
1689.202631832273
 30
0.0
 10
1493.142332043374
 20
1694.04982918779
 30
0.0
 10
1493.142332043374
 20
1703.271439176607
 30
0.0
 10
1493.142332043374
 20
1710.103564159667
 30
0.0
 10
1493.142332043373
 20
1713.919585589525
 30
0.0
  0
LINE
  5
265
330
1ED
100
AcDbEntity
  8
P-SANR-FIXT
100
AcDbLine
 10
1510.083162545698
 20
1703.484144925234
 30
0.0
 11
1507.933162545697
 21
1703.162872047706
 31
0.0
  0
LINE
  5
266
330
1ED
100
AcDbEntity
  8
P-SANR-FIXT
100
AcDbLine
 10
1507.933162545697
 20
1712.822130310582
 30
0.0
 11
1510.083162545698
 21
1713.143403188109
 31
0.0
  0
LINE
  5
267
330
1ED
100
AcDbEntity
  8
P-SANR-FIXT
100
AcDbLine
 10
1510.083162545698
 20
1713.143403188109
 30
0.0
 11
1510.083162545698
 21
1714.816009578886
 31
0.0
  0
LINE
  5
268
330
1ED
100
AcDbEntity
  8
P-SANR-FIXT
100
AcDbLine
 10
1510.083162545698
 20
1703.484144925234
 30
0.0
 11
1510.083162545698
 21
1713.143403188109
 31
0.0
  0
LINE
  5
269
330
1ED
100
AcDbEntity
  8
P-SANR-FIXT
100
AcDbLine
 10
1506.583162545678
 20
2169.982558850037
 30
0.0
 11
1506.583162545678
 21
2186.482558849963
 31
0.0
  0
LINE
  5
26A
330
1ED
100
AcDbEntity
  8
P-SANR-FIXT
100
AcDbLine
 10
1475.583162545723
 20
2186.482558849963
 30
0.0
 11
1475.583162545723
 21
2169.982558850037
 31
0.0
  0
LINE
  5
26B
330
1ED
100
AcDbEntity
  8
P-SANR-FIXT
100
AcDbLine
 10
1486.491635968489
 20
2194.982558850026
 30
0.0
 11
1485.583162545698
 21
2194.982558850026
 31
0.0
  0
LINE
  5
26C
330
1ED
100
AcDbEntity
  8
P-SANR-FIXT
100
AcDbLine
 10
1485.583162545698
 20
2194.982558850026
 30
0.0
 11
1484.656746029245
 21
2194.982558850026
 31
0.0
  0
LINE
  5
26D
330
1ED
100
AcDbEntity
  8
P-SANR-FIXT
100
AcDbLine
 10
1480.083162545698
 20
2194.982558850026
 30
0.0
 11
1485.583162545698
 21
2194.982558850026
 31
0.0
  0
LINE
  5
26E
330
1ED
100
AcDbEntity
  8
P-SANR-FIXT
100
AcDbLine
 10
1485.583162545698
 20
2194.982558850026
 30
0.0
 11
1491.083162545698
 21
2194.982558850026
 31
0.0
  0
LINE
  5
26F
330
1ED
100
AcDbEntity
  8
P-SANR-FIXT
100
AcDbLine
 10
1491.083162545698
 20
2194.982558850026
 30
0.0
 11
1496.583162545698
 21
2194.982558850026
 31
0.0
  0
LINE
  5
270
330
1ED
100
AcDbEntity
  8
P-SANR-FIXT
100
AcDbLine
 10
1496.583162545698
 20
2194.982558850026
 30
0.0
 11
1502.083162545698
 21
2194.982558850026
 31
0.0
  0
LINE
  5
271
330
1ED
100
AcDbEntity
  8
P-SANR-FIXT
100
AcDbLine
 10
1497.509579061603
 20
2194.982558850026
 30
0.0
 11
1496.583162545699
 21
2194.982558850026
 31
0.0
  0
LINE
  5
272
330
1ED
100
AcDbEntity
  8
P-SANR-FIXT
100
AcDbLine
 10
1496.583162545699
 20
2194.982558850026
 30
0.0
 11
1495.674689123459
 21
2194.982558850026
 31
0.0
  0
LINE
  5
273
330
1ED
100
AcDbEntity
  8
P-SANR-FIXT
100
AcDbLine
 10
1491.083162545698
 20
2194.000127612216
 30
0.0
 11
1491.083162545698
 21
2186.482558849963
 31
0.0
  0
SPLINE
  5
274
330
1ED
100
AcDbEntity
  8
P-SANR-FIXT
100
AcDbSpline
210
0.0
220
0.0
230
1.0
 70
     8
 71
     3
 72
     9
 73
     5
 74
     0
 42
0.000000001
 43
0.0000000001
 40
0.0
 40
0.0
 40
0.0
 40
0.0
 40
0.5
 40
1.0
 40
1.0
 40
1.0
 40
1.0
 10
1502.083162545699
 20
2194.000127612217
 30
0.0
 10
1501.173145535862
 20
2194.317237440839
 30
0.0
 10
1499.346461859358
 20
2194.798085809096
 30
0.0
 10
1497.506478869196
 20
2194.972191599378
 30
0.0
 10
1496.5831625457
 20
2194.982558850026
 30
0.0
  0
SPLINE
  5
275
330
1ED
100
AcDbEntity
  8
P-SANR-FIXT
100
AcDbSpline
210
0.0
220
0.0
230
1.0
 70
     8
 71
     3
 72
     9
 73
     5
 74
     0
 42
0.000000001
 43
0.0000000001
 40
0.0
 40
0.0
 40
0.0
 40
0.0
 40
0.5
 40
1.0
 40
1.0
 40
1.0
 40
1.0
 10
1496.5831625457
 20
2194.982558850026
 30
0.0
 10
1495.659846222203
 20
2194.972191599378
 30
0.0
 10
1493.81986323204
 20
2194.798085809096
 30
0.0
 10
1491.993179555536
 20
2194.317237440839
 30
0.0
 10
1491.083162545698
 20
2194.000127612216
 30
0.0
  0
LINE
  5
276
330
1ED
100
AcDbEntity
  8
P-SANR-FIXT
100
AcDbLine
 10
1502.083162545699
 20
2186.482558849963
 30
0.0
 11
1502.083162545699
 21
2194.000127612217
 31
0.0
  0
SPLINE
  5
277
330
1ED
100
AcDbEntity
  8
P-SANR-FIXT
100
AcDbSpline
210
0.0
220
0.0
230
1.0
 70
    24
 71
     3
 72
     9
 73
     5
 74
     0
 42
0.000000001
 43
0.0000000001
 40
0.0
 40
0.0
 40
0.0
 40
0.0
 40
0.5
 40
1.0
 40
1.0
 40
1.0
 40
1.0
 10
1502.083162545699
 20
2194.982558850026
 30
0.0
 10
1502.083162545699
 20
2194.972191599379
 30
0.0
 10
1502.083162545699
 20
2194.798085809097
 30
0.0
 10
1502.083162545699
 20
2194.31723744084
 30
0.0
 10
1502.083162545699
 20
2194.000127612217
 30
0.0
  0
SPLINE
  5
278
330
1ED
100
AcDbEntity
  8
P-SANR-FIXT
100
AcDbSpline
210
0.0
220
0.0
230
1.0
 70
    24
 71
     3
 72
     9
 73
     5
 74
     0
 42
0.000000001
 43
0.0000000001
 40
0.0
 40
0.0
 40
0.0
 40
0.0
 40
0.5
 40
1.0
 40
1.0
 40
1.0
 40
1.0
 10
1480.083162545698
 20
2194.000127612217
 30
0.0
 10
1480.083162545698
 20
2194.31723744084
 30
0.0
 10
1480.083162545698
 20
2194.798085809097
 30
0.0
 10
1480.083162545698
 20
2194.972191599379
 30
0.0
 10
1480.083162545698
 20
2194.982558850026
 30
0.0
  0
SPLINE
  5
279
330
1ED
100
AcDbEntity
  8
P-SANR-FIXT
100
AcDbSpline
210
0.0
220
0.0
230
1.0
 70
     8
 71
     3
 72
     9
 73
     5
 74
     0
 42
0.000000001
 43
0.0000000001
 40
0.0
 40
0.0
 40
0.0
 40
0.0
 40
0.5
 40
1.0
 40
1.0
 40
1.0
 40
1.0
 10
1491.083162545698
 20
2194.000127612216
 30
0.0
 10
1490.173145535861
 20
2194.317237440839
 30
0.0
 10
1488.346461859356
 20
2194.798085809096
 30
0.0
 10
1486.506478869193
 20
2194.972191599378
 30
0.0
 10
1485.583162545697
 20
2194.982558850025
 30
0.0
  0
SPLINE
  5
27A
330
1ED
100
AcDbEntity
  8
P-SANR-FIXT
100
AcDbSpline
210
0.0
220
0.0
230
1.0
 70
     8
 71
     3
 72
     9
 73
     5
 74
     0
 42
0.000000001
 43
0.0000000001
 40
0.0
 40
0.0
 40
0.0
 40
0.0
 40
0.5
 40
1.0
 40
1.0
 40
1.0
 40
1.0
 10
1485.583162545697
 20
2194.982558850026
 30
0.0
 10
1484.659846222201
 20
2194.972191599378
 30
0.0
 10
1482.819863232039
 20
2194.798085809096
 30
0.0
 10
1480.993179555535
 20
2194.317237440839
 30
0.0
 10
1480.083162545698
 20
2194.000127612217
 30
0.0
  0
LINE
  5
27B
330
1ED
100
AcDbEntity
  8
P-SANR-FIXT
100
AcDbLine
 10
1480.083162545698
 20
2186.482558849963
 30
0.0
 11
1480.083162545698
 21
2194.000127612217
 31
0.0
  0
LINE
  5
27C
330
1ED
100
AcDbEntity
  8
P-SANR-FIXT
100
AcDbLine
 10
1491.083162545698
 20
2186.482558849963
 30
0.0
 11
1506.583162545676
 21
2186.482558849963
 31
0.0
  0
LINE
  5
27D
330
1ED
100
AcDbEntity
  8
P-SANR-FIXT
100
AcDbLine
 10
1475.583162545721
 20
2186.482558849963
 30
0.0
 11
1491.083162545698
 21
2186.482558849963
 31
0.0
  0
LINE
  5
27E
330
1ED
100
AcDbEntity
  8
P-SANR-FIXT
100
AcDbLine
 10
1491.083162545698
 20
2169.982558850037
 30
0.0
 11
1475.583162545721
 21
2169.982558850037
 31
0.0
  0
LINE
  5
27F
330
1ED
100
AcDbEntity
  8
P-SANR-FIXT
100
AcDbLine
 10
1506.583162545676
 20
2169.982558850037
 30
0.0
 11
1491.083162545698
 21
2169.982558850037
 31
0.0
  0
LINE
  5
280
330
1ED
100
AcDbEntity
  8
P-SANR-FIXT
100
AcDbLine
 10
1477.6331625457
 20
2169.982558850037
 30
0.0
 11
1477.6331625457
 21
2149.982558850012
 31
0.0
  0
LINE
  5
281
330
1ED
100
AcDbEntity
  8
P-SANR-FIXT
100
AcDbLine
 10
1504.5331625457
 20
2095.174622886034
 30
0.0
 11
1504.5331625457
 21
2169.982558850037
 31
0.0
  0
LINE
  5
282
330
1ED
100
AcDbEntity
  8
P-SANR-FIXT
100
AcDbLine
 10
1474.233162545701
 20
1687.278777724036
 30
0.0
 11
1474.233162545701
 21
1647.982558849977
 31
0.0
  0
LINE
  5
283
330
1ED
100
AcDbEntity
  8
P-SANR-FIXT
100
AcDbLine
 10
1507.933162545699
 20
1647.982558849977
 30
0.0
 11
1507.933162545699
 21
1719.918275791741
 31
0.0
  0
LWPOLYLINE
  5
284
330
1ED
100
AcDbEntity
  8
P-SANR-FIXT
100
AcDbPolyline
 90
        3
 70
   128
 43
0.0
 10
1471.554035292234
 20
2095.176213153777
 10
1471.529952619659
 20
2095.176213153777
 10
1471.528812996664
 20
2095.176213153777
  0
LWPOLYLINE
  5
285
330
1ED
100
AcDbEntity
  8
P-SANR-FIXT
100
AcDbPolyline
 90
       14
 70
   128
 43
0.0
 10
1510.637512094736
 20
2095.176213153777
 10
1514.488770616141
 20
2095.099177711682
 10
1518.333867945469
 20
2094.868194625675
 10
1522.166652747237
 20
2094.483633419415
 10
1525.980993383381
 20
2093.9461093088
 10
1529.770787722564
 20
2093.256482217738
 10
1533.52997290229
 20
2092.415855402466
 10
1537.252535028189
 20
2091.425573686563
 10
1540.932518794963
 20
2090.287221309525
 10
1544.564037013606
 20
2089.002619392319
 10
1548.141280029653
 20
2087.573823023981
 10
1551.65852501738
 20
2086.003117973905
 10
1555.110145135112
 20
2084.293017035105
 10
1557.679013313739
 20
2082.905746391433
  0
LWPOLYLINE
  5
286
330
1ED
100
AcDbEntity
  8
P-SANR-FIXT
100
AcDbPolyline
 90
       23
 70
   128
 43
0.0
 10
1504.532995317653
 20
2095.176213153777
 10
1504.554573295219
 20
2095.176213153777
 10
1505.11059429828
 20
2095.176213153777
 10
1505.644174402895
 20
2095.176213153777
 10
1506.154459994723
 20
2095.176213153777
 10
1506.640634725671
 20
2095.176213153777
 10
1507.101920819881
 20
2095.176213153777
 10
1507.537580318005
 20
2095.176213153777
 10
1507.946916257783
 20
2095.176213153777
 10
1508.329273789029
 20
2095.176213153777
 10
1508.684041221261
 20
2095.176213153777
 10
1509.010651002266
 20
2095.176213153777
 10
1509.308580626067
 20
2095.176213153777
 10
1509.577353468822
 20
2095.176213153777
 10
1509.816539551316
 20
2095.176213153777
 10
1510.025756226842
 20
2095.176213153777
 10
1510.20466879335
 20
2095.176213153777
 10
1510.352991028898
 20
2095.176213153777
 10
1510.47048564955
 20
2095.176213153777
 10
1510.556964688978
 20
2095.176213153777
 10
1510.612289799167
 20
2095.176213153777
 10
1510.636372471742
 20
2095.176213153777
 10
1510.637512094736
 20
2095.176213153777
  0
LWPOLYLINE
  5
287
330
1ED
100
AcDbEntity
  8
P-SANR-FIXT
100
AcDbPolyline
 90
       38
 70
   128
 43
0.0
 10
1510.637512094736
 20
2095.176213153777
 10
1510.621870700783
 20
2095.176213153777
 10
1510.574971541817
 20
2095.176213153777
 10
1510.496889646488
 20
2095.176213153777
 10
1510.387749929172
 20
2095.176213153777
 10
1510.247726990136
 20
2095.176213153777
 10
1510.07704483621
 20
2095.176213153777
 10
1509.875976522431
 20
2095.176213153777
 10
1509.64484371521
 20
2095.176213153777
 10
1509.384016177731
 20
2095.176213153777
 10
1509.093911178416
 20
2095.176213153777
 10
1508.774992823375
 20
2095.176213153777
 10
1508.427771313947
 20
2095.176213153777
 10
1508.052802130475
 20
2095.176213153777
 10
1507.650685143664
 20
2095.176213153777
 10
1507.222063654913
 20
2095.176213153777
 10
1506.767623367169
 20
2095.176213153777
 10
1506.28809128795
 20
2095.176213153777
 10
1505.78423456629
 20
2095.176213153777
 10
1505.256859265457
 20
2095.176213153777
 10
1504.706809073434
 20
2095.176213153777
 10
1504.134963953189
 20
2095.176213153777
 10
1503.542238734928
 20
2095.176213153777
 10
1502.929581652558
 20
2095.176213153777
 10
1502.29797282672
 20
2095.176213153777
 10
1501.648422696796
 20
2095.176213153777
 10
1500.981970404433
 20
2095.176213153777
 10
1500.299682131129
 20
2095.176213153777
 10
1499.602649392573
 20
2095.176213153777
 10
1498.891987292458
 20
2095.176213153777
 10
1498.168832738541
 20
2095.176213153777
 10
1497.434342623844
 20
2095.176213153777
 10
1496.689691975868
 20
2095.176213153777
 10
1495.936072076801
 20
2095.176213153777
 10
1495.174688557715
 20
2095.176213153777
 10
1494.406759469822
 20
2095.176213153777
 10
1493.633513335848
 20
2095.176213153777
 10
1493.142332043375
 20
2095.176213153777
  0
LWPOLYLINE
  5
288
330
1ED
100
AcDbEntity
  8
P-SANR-FIXT
100
AcDbPolyline
 90
       28
 70
   128
 43
0.0
 10
1557.679013313739
 20
2082.905746391433
 10
1558.886639098113
 20
2082.197665431712
 10
1560.064983224536
 20
2081.441858710169
 10
1561.212160593774
 20
2080.639535356332
 10
1562.326335966752
 20
2079.79197891641
 10
1563.405726900553
 20
2078.900545299907
 10
1564.44860659994
 20
2077.966660610446
 10
1565.453306679864
 20
2076.991818864312
 10
1566.418219834521
 20
2075.977579600344
 10
1567.341802408701
 20
2074.925565385004
 10
1568.222576867305
 20
2073.837459216622
 10
1569.059134159089
 20
2072.715001832946
 10
1569.850135970841
 20
2071.559988926347
 10
1570.594316868401
 20
2070.374268271087
 10
1571.290486321083
 20
2069.159736767273
 10
1571.93753060627
 20
2067.918337406225
 10
1572.534414591136
 20
2066.652056162103
 10
1573.080183388633
 20
2065.362918814773
 10
1573.573963885109
 20
2064.052987708987
 10
1574.014966137104
 20
2062.72435845508
 10
1574.402484635091
 20
2061.37915657643
 10
1574.735899432138
 20
2060.019534109084
 10
1575.014677135696
 20
2058.64766615895
 10
1575.238371760908
 20
2057.265747422101
 10
1575.406625444093
 20
2055.875988673721
 10
1575.519169015249
 20
2054.480613231342
 10
1575.575822428672
 20
2053.081853398006
 10
1575.583162545699
 20
2052.365086828862
  0
LINE
  5
289
330
1ED
100
AcDbEntity
  8
P-SANR-FIXT
100
AcDbLine
 10
1575.583162545699
 20
1999.982558850011
 30
0.0
 11
1575.583162545699
 21
2052.365086828862
 31
0.0
  0
LINE
  5
28A
330
1ED
100
AcDbEntity
  8
P-SANR-FIXT
100
AcDbLine
 10
1575.583162545699
 20
1762.471112200972
 30
0.0
 11
1575.583162545699
 21
1999.982558850011
 31
0.0
  0
LWPOLYLINE
  5
28B
330
1ED
100
AcDbEntity
  8
P-SANR-FIXT
100
AcDbPolyline
 90
       28
 70
   128
 43
0.0
 10
1575.5831625457
 20
1762.471112200972
 10
1575.555166278835
 20
1761.07148550444
 10
1575.471222266292
 20
1759.674097912051
 10
1575.331464800586
 20
1758.28118494586
 10
1575.136117463847
 20
1756.894974969474
 10
1574.885492770144
 20
1755.517685623145
 10
1574.579991665521
 20
1754.151520276022
 10
1574.220102886577
 20
1752.798664501228
 10
1573.806402178585
 20
1751.461282579407
 10
1573.339551374428
 20
1750.141514036344
 10
1572.820297335801
 20
1748.84147022017
 10
1572.249470758399
 20
1747.563230923662
 10
1571.627984842975
 20
1746.30884105702
 10
1570.956833834418
 20
1745.080307376441
 10
1570.23709143117
 20
1743.879595273741
 10
1569.469909067539
 20
1742.708625632146
 10
1568.656514071651
 20
1741.569271753289
 10
1567.798207701983
 20
1740.463356360326
 10
1566.896363065632
 20
1739.39264868197
 10
1565.952422921632
 20
1738.358861622103
 10
1564.967897372851
 20
1737.363649019489
 10
1563.944361450146
 20
1736.408603001992
 10
1562.883452592651
 20
1735.495251439508
 10
1561.786868028221
 20
1734.625055499699
 10
1560.656362058236
 20
1733.799407310437
 10
1559.493743251085
 20
1733.019627732696
 10
1558.300871548848
 20
1732.286964247455
 10
1557.744246671673
 20
1731.967060148478
  0
LWPOLYLINE
  5
28C
330
1ED
100
AcDbEntity
  8
P-SANR-FIXT
100
AcDbPolyline
 90
        3
 70
   128
 43
0.0
 10
1470.483630458058
 20
1719.906590933985
 10
1470.458227797712
 20
1719.906590933985
 10
1470.457025711201
 20
1719.906590933985
  0
LWPOLYLINE
  5
28D
330
1ED
100
AcDbEntity
  8
P-SANR-FIXT
100
AcDbPolyline
 90
       14
 70
   128
 43
0.0
 10
1557.744246671673
 20
1731.967060148478
 10
1554.435187486093
 20
1730.191606707092
 10
1551.057775993912
 20
1728.549900512703
 10
1547.617415333046
 20
1727.04456794501
 10
1544.119609346643
 20
1725.678017215001
 10
1540.569953778125
 20
1724.45243451233
 10
1536.97412731918
 20
1723.369780507874
 10
1533.337882525077
 20
1722.43178721709
 10
1529.667036611793
 20
1721.639955229147
 10
1525.967462149719
 20
1720.99555130631
 10
1522.245077668792
 20
1720.499606357391
 10
1518.505838190117
 20
1720.152913788512
 10
1514.755725699196
 20
1719.956028233826
 10
1511.709299380199
 20
1719.906590933985
  0
LWPOLYLINE
  5
28E
330
1ED
100
AcDbEntity
  8
P-SANR-FIXT
100
AcDbPolyline
 90
       39
 70
   128
 43
0.0
 10
1493.142332043375
 20
1719.906590933985
 10
1493.552362914001
 20
1719.906590933985
 10
1494.369281675553
 20
1719.906590933985
 10
1495.180943347497
 20
1719.906590933985
 10
1495.986049444306
 20
1719.906590933985
 10
1496.78331196797
 20
1719.906590933985
 10
1497.571455468526
 20
1719.906590933985
 10
1498.349219084501
 20
1719.906590933985
 10
1499.115358560022
 20
1719.906590933985
 10
1499.868648235365
 20
1719.906590933985
 10
1500.607883007741
 20
1719.906590933985
 10
1501.33188025921
 20
1719.906590933985
 10
1502.039481748613
 20
1719.906590933985
 10
1502.729555464516
 20
1719.906590933985
 10
1503.40099743618
 20
1719.906590933985
 10
1504.052733499684
 20
1719.906590933985
 10
1504.683721016355
 20
1719.906590933985
 10
1505.292950540771
 20
1719.906590933985
 10
1505.879447435655
 20
1719.906590933985
 10
1506.442273431088
 20
1719.906590933985
 10
1506.980528125539
 20
1719.906590933985
 10
1507.49335042632
 20
1719.906590933985
 10
1507.979919927145
 20
1719.906590933985
 10
1508.439458220609
 20
1719.906590933985
 10
1508.871230143472
 20
1719.906590933985
 10
1509.274544952764
 20
1719.906590933985
 10
1509.648757430826
 20
1719.906590933985
 10
1509.993268917521
 20
1719.906590933985
 10
1510.307528267962
 20
1719.906590933985
 10
1510.591032734226
 20
1719.906590933985
 10
1510.843328769646
 20
1719.906590933985
 10
1511.064012754385
 20
1719.906590933985
 10
1511.252731641144
 20
1719.906590933985
 10
1511.409183519962
 20
1719.906590933985
 10
1511.533118101208
 20
1719.906590933985
 10
1511.62433711599
 20
1719.906590933985
 10
1511.682694633343
 20
1719.906590933985
 10
1511.708097293688
 20
1719.906590933985
 10
1511.709299380199
 20
1719.906590933985
  0
LWPOLYLINE
  5
28F
330
1ED
100
AcDbEntity
  8
P-SANR-FIXT
100
AcDbPolyline
 90
       17
 70
   128
 43
0.0
 10
1511.709299380199
 20
1719.906590933985
 10
1511.692800670736
 20
1719.906590933985
 10
1511.64333093676
 20
1719.906590933985
 10
1511.560969319294
 20
1719.906590933985
 10
1511.445847579356
 20
1719.906590933985
 10
1511.298149887173
 20
1719.906590933985
 10
1511.118112527543
 20
1719.906590933985
 10
1510.906023521837
 20
1719.906590933985
 10
1510.662222167221
 20
1719.906590933985
 10
1510.387098493854
 20
1719.906590933985
 10
1510.081092640924
 20
1719.906590933985
 10
1509.744694152516
 20
1719.906590933985
 10
1509.378441194451
 20
1719.906590933985
 10
1508.982919693334
 20
1719.906590933985
 10
1508.558762399191
 20
1719.906590933985
 10
1508.106647873212
 20
1719.906590933985
 10
1507.933162545699
 20
1719.906590933985
  0
LINE
  5
290
330
1ED
100
AcDbEntity
  8
P-SANR-FIXT
100
AcDbLine
 10
1512.0831625457
 20
1717.519722675079
 30
0.0
 11
1512.0831625457
 21
1719.90890575072
 31
0.0
  0
LWPOLYLINE
  5
291
330
1ED
100
AcDbEntity
  8
P-SANR-FIXT
100
AcDbPolyline
 90
       14
 70
   128
 43
0.0
 10
1512.0831625457
 20
1717.51972267508
 10
1512.058086192731
 20
1717.194617267682
 10
1511.984549515354
 20
1716.877215276531
 10
1511.866829063821
 20
1716.57308289192
 10
1511.710053202676
 20
1716.284793466645
 10
1511.518739265622
 20
1716.012429431509
 10
1511.296167670314
 20
1715.754645081445
 10
1511.044420813968
 20
1715.509591039413
 10
1510.76470072626
 20
1715.275466421684
 10
1510.457665480201
 20
1715.050758342049
 10
1510.123685647714
 20
1714.83429803789
 10
1509.763011539728
 20
1714.625233209413
 10
1509.375872102888
 20
1714.422972686196
 10
1509.349595806449
 20
1714.409951229788
  0
LINE
  5
292
330
1ED
100
AcDbEntity
  8
P-SANR-FIXT
100
AcDbLine
 10
1508.22133952544
 20
1713.85261439788
 30
0.0
 11
1509.349595806449
 21
1714.409951229788
 31
0.0
  0
LINE
  5
293
330
1ED
100
AcDbEntity
  8
P-SANR-FIXT
100
AcDbLine
 10
1508.22133952544
 20
1713.85261439788
 30
0.0
 11
1507.933162545699
 21
1713.716910643227
 31
0.0
  0
LINE
  5
294
330
1ED
100
AcDbEntity
  8
P-SANR-FIXT
100
AcDbLine
 10
1480.987143426739
 20
1647.982558849976
 30
0.0
 11
1483.061963689488
 21
1647.982558849976
 31
0.0
  0
LINE
  5
295
330
1ED
100
AcDbEntity
  8
P-SANR-FIXT
100
AcDbLine
 10
1498.999800243075
 20
1647.982558849976
 30
0.0
 11
1501.076049252933
 21
1647.982558849976
 31
0.0
  0
ARC
  5
296
330
1ED
100
AcDbEntity
  8
P-SANR-FIXT
100
AcDbCircle
 10
1491.083162545697
 20
1999.982558850011
 30
0.0
 40
82.5
100
AcDbArc
 50
90.0000000000003
 51
269.9999999999999
  0
ARC
  5
297
330
1ED
100
AcDbEntity
  8
P-SANR-FIXT
100
AcDbCircle
 10
1491.083162545697
 20
1999.982558850011
 30
0.0
 40
82.50000000000024
100
AcDbArc
 50
269.9999999999999
 51
90.0
  0
ARC
  5
298
330
1ED
100
AcDbEntity
  8
P-SANR-FIXT
100
AcDbCircle
 10
1491.083162545697
 20
1999.982558850011
 30
0.0
 40
50.51999999999998
100
AcDbArc
 50
90.00000000000026
 51
270.0000000000002
  0
ARC
  5
299
330
1ED
100
AcDbEntity
  8
P-SANR-FIXT
100
AcDbCircle
 10
1491.083162545697
 20
1999.982558850011
 30
0.0
 40
25.40000000000009
100
AcDbArc
 50
90.00000000000055
 51
269.9999999999997
  0
ARC
  5
29A
330
1ED
100
AcDbEntity
  8
P-SANR-FIXT
100
AcDbCircle
 10
1491.083162545697
 20
1999.982558850011
 30
0.0
 40
50.52000000000024
100
AcDbArc
 50
270.0000000000003
 51
90.00000000000012
  0
ARC
  5
29B
330
1ED
100
AcDbEntity
  8
P-SANR-FIXT
100
AcDbCircle
 10
1491.083162545697
 20
1999.982558850011
 30
0.0
 40
25.40000000000032
100
AcDbArc
 50
269.9999999999997
 51
89.99999999999898
  0
ENDBLK
  5
29D
330
1ED
100
AcDbEntity
  8
0
100
AcDbBlockEnd
  0
ENDSEC
  0
SECTION
  2
ENTITIES
  0
INSERT
  5
1AE
330
71
100
AcDbEntity
  8
P-SANR-FIXT
100
AcDbBlockReference
  2
Automatic flow rate regulator valve_Caleffi_121 DN15 - 1_2__-859151-Est - Idraulica
 10
0.0
 20
0.0
 30
0.0
1001
REVIT
1002
{
1070
     1
1000
863131
1002
}
1002
{
1070
     5
1000
859151
1002
}
1002
{
1070
     2
1000
-2001160
1002
}
  0
INSERT
  5
1EC
330
71
100
AcDbEntity
  8
P-SANR-FIXT
100
AcDbBlockReference
  2
Automatic flow rate regulator valve_Caleffi_121 DN15 - 1_2__-V1-Est - Idraulica
 10
0.0
 20
0.0
 30
0.0
1001
REVIT
1002
{
1070
     1
1000
863152
1002
}
1002
{
1070
     5
1000
859151
1002
}
1002
{
1070
     2
1000
-2001160
1002
}
  0
INSERT
  5
29E
330
71
100
AcDbEntity
  8
P-SANR-FIXT
100
AcDbBlockReference
  2
Automatic flow rate regulator valve_Caleffi_121 DN15 - 1_2__-V2-Est - Idraulica
 10
0.0
 20
0.0
 30
0.0
1001
REVIT
1002
{
1070
     1
1000
863172
1002
}
1002
{
1070
     5
1000
859151
1002
}
1002
{
1070
     2
1000
-2001160
1002
}
  0
LINE
  5
2B7
330
71
100
AcDbEntity
  8
P-SANR-FIXT
100
AcDbLine
 10
942.5017549013361
 20
2030.159999999995
 30
0.0
 11
900.1664074431888
 21
2030.159999999995
 31
0.0
  0
LINE
  5
2B8
330
71
100
AcDbEntity
  8
P-SANR-FIXT
100
AcDbLine
 10
688.8310599850432
 20
2030.159999999997
 30
0.0
 11
731.1664074431903
 21
2030.159999999997
 31
0.0
  0
LINE
  5
2B9
330
71
100
AcDbEntity
  8
P-SANR-FIXT
100
AcDbLine
 10
688.8310599850432
 20
1969.839999999995
 30
0.0
 11
731.1664074431903
 21
1969.839999999995
 31
0.0
  0
LINE
  5
2BA
330
71
100
AcDbEntity
  8
P-SANR-FIXT
100
AcDbLine
 10
900.1664074431888
 20
1969.839999999996
 30
0.0
 11
942.485038510585
 21
1969.839999999996
 31
0.0
  0
LINE
  5
2BB
330
71
100
AcDbEntity
  8
P-SANR-FIXT
100
AcDbLine
 10
802.3910659482217
 20
2149.999999999995
 30
0.0
 11
802.3488026933257
 21
2095.193654303761
 31
0.0
  0
LINE
  5
2BC
330
71
100
AcDbEntity
  8
P-SANR-FIXT
100
AcDbLine
 10
828.9417489381541
 20
2149.999999999995
 30
0.0
 11
828.7182088506778
 21
2095.193654303761
 31
0.0
  0
ENDSEC
  0
SECTION
  2
OBJECTS
  0
DICTIONARY
  5
C
330
0
100
AcDbDictionary
281
     1
  3
ACAD_CIP_PREVIOUS_PRODUCT_INFO
350
7A
  3
ACAD_COLOR
350
63
  3
ACAD_DETAILVIEWSTYLE
350
6B
  3
ACAD_GROUP
350
D
  3
ACAD_IMAGE_VARS
350
7B
  3
ACAD_LAYOUT
350
62
  3
ACAD_MATERIAL
350
10
  3
ACAD_MLEADERSTYLE
350
66
  3
ACAD_MLINESTYLE
350
5F
  3
ACAD_PLOTSETTINGS
350
61
  3
ACAD_PLOTSTYLENAME
350
E
  3
ACAD_SCALELIST
350
42
  3
ACAD_SECTIONVIEWSTYLE
350
68
  3
ACAD_TABLESTYLE
350
64
  3
ACAD_VISUALSTYLE
350
29
  3
ACDB_RECOMPOSE_DATA
350
2BF
  3
AcDbVariableDictionary
350
7C
  3
REVIT_DICTIONARY
350
2A0
  0
DICTIONARY
  5
2A5
330
71
100
AcDbDictionary
280
     1
281
     1
  3
ACAD_SORTENTS
360
2A6
  0
XRECORD
  5
7A
102
{ACAD_REACTORS
330
C
102
}
330
C
100
AcDbXrecord
280
     1
300
ACD
300
2013
300
BDSPRM_F_S
  0
DICTIONARY
  5
63
102
{ACAD_REACTORS
330
C
102
}
330
C
100
AcDbDictionary
281
     1
  0
DICTIONARY
  5
6B
102
{ACAD_REACTORS
330
C
102
}
330
C
100
AcDbDictionary
281
     1
  3
Imperial24
350
6C
  3
Metric50
350
2AD
  0
DICTIONARY
  5
D
102
{ACAD_REACTORS
330
C
102
}
330
C
100
AcDbDictionary
281
     1
  0
RASTERVARIABLES
  5
7B
102
{ACAD_REACTORS
330
C
102
}
330
C
100
AcDbRasterVariables
 90
        0
 70
     0
 71
     1
 72
     1
  0
DICTIONARY
  5
62
102
{ACAD_REACTORS
330
C
102
}
330
C
100
AcDbDictionary
281
     1
  3
Layout1
350
70
  3
Layout2
350
78
  3
Model
350
74
  0
DICTIONARY
  5
10
102
{ACAD_REACTORS
330
C
102
}
330
C
100
AcDbDictionary
281
     1
  3
ByBlock
350
19
  3
ByLayer
350
11
  3
Global
350
21
  0
DICTIONARY
  5
66
102
{ACAD_REACTORS
330
C
102
}
330
C
100
AcDbDictionary
281
     1
  3
Standard
350
67
  0
DICTIONARY
  5
5F
102
{ACAD_REACTORS
330
C
102
}
330
C
100
AcDbDictionary
281
     1
  3
Standard
350
60
  0
DICTIONARY
  5
61
102
{ACAD_REACTORS
330
C
102
}
330
C
100
AcDbDictionary
281
     1
  0
ACDBDICTIONARYWDFLT
  5
E
102
{ACAD_REACTORS
330
C
102
}
330
C
100
AcDbDictionary
281
     1
  3
Normal
350
F
100
AcDbDictionaryWithDefault
340
F
  0
DICTIONARY
  5
42
102
{ACAD_REACTORS
330
C
102
}
330
C
100
AcDbDictionary
281
     1
  3
A0
350
43
  3
A1
350
44
  3
A2
350
45
  3
A3
350
46
  3
A4
350
47
  3
A5
350
48
  3
A6
350
49
  3
A7
350
4A
  3
A8
350
4B
  3
A9
350
4C
  3
B0
350
4D
  3
B1
350
4E
  3
B2
350
4F
  3
B3
350
50
  3
B4
350
51
  3
B5
350
52
  3
B6
350
53
  0
DICTIONARY
  5
68
102
{ACAD_REACTORS
330
C
102
}
330
C
100
AcDbDictionary
281
     1
  3
Imperial24
350
6A
  3
Metric50
350
2AC
  0
DICTIONARY
  5
64
102
{ACAD_REACTORS
330
C
102
}
330
C
100
AcDbDictionary
281
     1
  3
Standard
350
65
  0
DICTIONARY
  5
29
102
{ACAD_REACTORS
330
C
102
}
330
C
100
AcDbDictionary
281
     1
  3
2dWireframe
350
2F
  3
Basic
350
2E
  3
Brighten
350
35
  3
ColorChange
350
39
  3
Conceptual
350
32
  3
Dim
350
34
  3
EdgeColorOff
350
41
  3
Facepattern
350
38
  3
Flat
350
2A
  3
FlatWithEdges
350
2B
  3
Gouraud
350
2C
  3
GouraudWithEdges
350
2D
  3
Hidden
350
31
  3
JitterOff
350
3F
  3
Linepattern
350
37
  3
OverhangOff
350
40
  3
Realistic
350
33
  3
Shaded
350
3E
  3
Shaded with edges
350
3D
  3
Shades of Gray
350
3A
  3
Sketchy
350
3B
  3
Thicken
350
36
  3
Wireframe
350
30
  3
X-Ray
350
3C
  0
XRECORD
  5
2BF
102
{ACAD_REACTORS
330
C
102
}
330
C
100
AcDbXrecord
280
     1
 90
        1
330
65
  0
DICTIONARY
  5
7C
102
{ACAD_REACTORS
330
C
102
}
330
C
100
AcDbDictionary
281
     1
  3
CANNOSCALE
350
81
  3
CMLEADERSTYLE
350
7E
  3
CTABLESTYLE
350
7D
  3
CVIEWDETAILSTYLE
350
7F
  3
CVIEWSECTIONSTYLE
350
80
  0
DICTIONARY
  5
2A0
102
{ACAD_REACTORS
330
C
102
}
330
C
100
AcDbDictionary
281
     1
  3
DRAWING_TOOL
350
2A4
  3
REVIT_CATEGORY_MAPPING
350
2A2
  3
REVIT_SUB_CATEGORY_MAPPING
350
2A3
  3
REVIT_TYPE_MAPPING
350
2A1
  0
SORTENTSTABLE
  5
2A6
102
{ACAD_REACTORS
330
2A5
102
}
330
2A5
100
AcDbSortentsTable
330
71
  0
ACDBDETAILVIEWSTYLE
  5
6C
102
{ACAD_REACTORS
330
6B
102
}
330
6B
100
AcDbModelDocViewStyle
 70
     0
  3
Imperial24
290
     0
100
AcDbDetailViewStyle
 70
     0
 71
     0
 90
        3
 71
     1
340
55
 62
   256
 40
0.24
340
0
 62
   256
 40
0.24
300

 40
0.36
280
     3
 71
     2
340
5D
 90
       25
 62
   256
 71
     3
340
55
 62
   256
 40
0.24
 90
        1
 40
0.75
 90
        1
300
%<\AcVar ViewType \f "%tc1">% %<\AcVar ViewDetailId>%\PSCALA %<\AcVar ViewScale \f "%sn">%
 71
     4
340
5D
 90
       25
 62
   256
340
5D
 90
       25
 62
   256
280
     0
  0
ACDBDETAILVIEWSTYLE
  5
2AD
102
{ACAD_REACTORS
330
6B
102
}
330
6B
100
AcDbModelDocViewStyle
 70
     0
  3
Metric50
290
     1
100
AcDbDetailViewStyle
 70
     0
 71
     0
 90
        3
 71
     1
340
55
 62
   256
 40
5.0
340
0
 62
   256
 40
5.0
300

 40
0.0
280
     1
 71
     2
340
5D
 90
       25
 62
   256
 71
     3
340
55
 62
   256
 40
5.0
 90
        0
 40
15.0
 90
        1
300
%<\AcVar ViewDetailId>% (%<\AcVar ViewScale \f "%sn">%)
 71
     4
340
5D
 90
       25
 62
   256
340
5D
 90
       25
 62
   256
280
     0
  0
LAYOUT
  5
70
102
{ACAD_REACTORS
330
62
102
}
330
62
100
AcDbPlotSettings
  1

  2

  4

  6

 40
0.0
 41
0.0
 42
0.0
 43
0.0
 44
0.0
 45
0.0
 46
0.0
 47
0.0
 48
0.0
 49
0.0
140
0.0
141
0.0
142
1.0
143
1.0
 70
   688
 72
     0
 73
     0
 74
     5
  7

 75
    16
147
1.0
 76
     0
 77
     2
 78
   300
148
0.0
149
0.0
100
AcDbLayout
  1
Layout1
 70
     1
 71
     1
 10
0.0
 20
0.0
 11
12.0
 21
9.0
 12
0.0
 22
0.0
 32
0.0
 14
1.000000000000000E+20
 24
1.000000000000000E+20
 34
1.000000000000000E+20
 15
-1.000000000000000E+20
 25
-1.000000000000000E+20
 35
-1.000000000000000E+20
146
0.0
 13
0.0
 23
0.0
 33
0.0
 16
1.0
 26
0.0
 36
0.0
 17
0.0
 27
1.0
 37
0.0
 76
     0
330
6D
  0
LAYOUT
  5
78
102
{ACAD_REACTORS
330
62
102
}
330
62
100
AcDbPlotSettings
  1

  2

  4

  6

 40
0.0
 41
0.0
 42
0.0
 43
0.0
 44
0.0
 45
0.0
 46
0.0
 47
0.0
 48
0.0
 49
0.0
140
0.0
141
0.0
142
1.0
143
1.0
 70
   688
 72
     0
 73
     0
 74
     5
  7

 75
    16
147
1.0
 76
     0
 77
     2
 78
   300
148
0.0
149
0.0
100
AcDbLayout
  1
Layout2
 70
     1
 71
     2
 10
0.0
 20
0.0
 11
12.0
 21
9.0
 12
0.0
 22
0.0
 32
0.0
 14
0.0
 24
0.0
 34
0.0
 15
0.0
 25
0.0
 35
0.0
146
0.0
 13
0.0
 23
0.0
 33
0.0
 16
1.0
 26
0.0
 36
0.0
 17
0.0
 27
1.0
 37
0.0
 76
     0
330
75
  0
LAYOUT
  5
74
102
{ACAD_REACTORS
330
62
102
}
330
62
100
AcDbPlotSettings
  1

  2

  4

  6

 40
0.0
 41
0.0
 42
0.0
 43
0.0
 44
0.0
 45
0.0
 46
0.0
 47
0.0
 48
0.0
 49
0.0
140
0.0
141
0.0
142
1.0
143
1.0
 70
  1712
 72
     0
 73
     0
 74
     0
  7

 75
     0
147
1.0
 76
     0
 77
     2
 78
   300
148
0.0
149
0.0
100
AcDbLayout
  1
Model
 70
     1
 71
     0
 10
0.0
 20
0.0
 11
12.0
 21
9.0
 12
0.0
 22
0.0
 32
0.0
 14
0.0
 24
0.0
 34
0.0
 15
0.0
 25
0.0
 35
0.0
146
0.0
 13
0.0
 23
0.0
 33
0.0
 16
1.0
 26
0.0
 36
0.0
 17
0.0
 27
1.0
 37
0.0
 76
     0
330
71
331
57
  0
MATERIAL
  5
19
102
{ACAD_XDICTIONARY
360
1A
102
}
102
{ACAD_REACTORS
330
10
102
}
330
10
100
AcDbMaterial
  1
ByBlock
 72
     0
 43
0.0208333333333333
 43
0.0
 43
0.0
 43
0.0
 43
0.0
 43
0.0208333333333333
 43
0.0
 43
0.0
 43
0.0
 43
0.0
 43
1.0
 43
0.0
 43
0.0
 43
0.0
 43
0.0
 43
1.0
 77
     0
 47
0.0208333333333333
 47
0.0
 47
0.0
 47
0.0
 47
0.0
 47
0.0208333333333333
 47
0.0
 47
0.0
 47
0.0
 47
0.0
 47
1.0
 47
0.0
 47
0.0
 47
0.0
 47
0.0
 47
1.0
171
     0
 49
0.0208333333333333
 49
0.0
 49
0.0
 49
0.0
 49
0.0
 49
0.0208333333333333
 49
0.0
 49
0.0
 49
0.0
 49
0.0
 49
1.0
 49
0.0
 49
0.0
 49
0.0
 49
0.0
 49
1.0
175
     0
142
0.0208333333333333
142
0.0
142
0.0
142
0.0
142
0.0
142
0.0208333333333333
142
0.0
142
0.0
142
0.0
142
0.0
142
1.0
142
0.0
142
0.0
142
0.0
142
0.0
142
1.0
179
     0
144
0.0208333333333333
144
0.0
144
0.0
144
0.0
144
0.0
144
0.0208333333333333
144
0.0
144
0.0
144
0.0
144
0.0
144
1.0
144
0.0
144
0.0
144
0.0
144
0.0
144
1.0
147
0.0208333333333333
147
0.0
147
0.0
147
0.0
147
0.0
147
0.0208333333333333
147
0.0
147
0.0
147
0.0
147
0.0
147
1.0
147
0.0
147
0.0
147
0.0
147
0.0
147
1.0
  0
MATERIAL
  5
11
102
{ACAD_XDICTIONARY
360
12
102
}
102
{ACAD_REACTORS
330
10
102
}
330
10
100
AcDbMaterial
  1
ByLayer
 72
     0
 43
0.0208333333333333
 43
0.0
 43
0.0
 43
0.0
 43
0.0
 43
0.0208333333333333
 43
0.0
 43
0.0
 43
0.0
 43
0.0
 43
1.0
 43
0.0
 43
0.0
 43
0.0
 43
0.0
 43
1.0
 77
     0
 47
0.0208333333333333
 47
0.0
 47
0.0
 47
0.0
 47
0.0
 47
0.0208333333333333
 47
0.0
 47
0.0
 47
0.0
 47
0.0
 47
1.0
 47
0.0
 47
0.0
 47
0.0
 47
0.0
 47
1.0
171
     0
 49
0.0208333333333333
 49
0.0
 49
0.0
 49
0.0
 49
0.0
 49
0.0208333333333333
 49
0.0
 49
0.0
 49
0.0
 49
0.0
 49
1.0
 49
0.0
 49
0.0
 49
0.0
 49
0.0
 49
1.0
175
     0
142
0.0208333333333333
142
0.0
142
0.0
142
0.0
142
0.0
142
0.0208333333333333
142
0.0
142
0.0
142
0.0
142
0.0
142
1.0
142
0.0
142
0.0
142
0.0
142
0.0
142
1.0
179
     0
144
0.0208333333333333
144
0.0
144
0.0
144
0.0
144
0.0
144
0.0208333333333333
144
0.0
144
0.0
144
0.0
144
0.0
144
1.0
144
0.0
144
0.0
144
0.0
144
0.0
144
1.0
147
0.0208333333333333
147
0.0
147
0.0
147
0.0
147
0.0
147
0.0208333333333333
147
0.0
147
0.0
147
0.0
147
0.0
147
1.0
147
0.0
147
0.0
147
0.0
147
0.0
147
1.0
  0
MATERIAL
  5
21
102
{ACAD_XDICTIONARY
360
22
102
}
102
{ACAD_REACTORS
330
10
102
}
330
10
100
AcDbMaterial
  1
Global
 72
     0
 43
0.0208333333333333
 43
0.0
 43
0.0
 43
0.0
 43
0.0
 43
0.0208333333333333
 43
0.0
 43
0.0
 43
0.0
 43
0.0
 43
1.0
 43
0.0
 43
0.0
 43
0.0
 43
0.0
 43
1.0
 77
     0
 47
0.0208333333333333
 47
0.0
 47
0.0
 47
0.0
 47
0.0
 47
0.0208333333333333
 47
0.0
 47
0.0
 47
0.0
 47
0.0
 47
1.0
 47
0.0
 47
0.0
 47
0.0
 47
0.0
 47
1.0
171
     0
 49
0.0208333333333333
 49
0.0
 49
0.0
 49
0.0
 49
0.0
 49
0.0208333333333333
 49
0.0
 49
0.0
 49
0.0
 49
0.0
 49
1.0
 49
0.0
 49
0.0
 49
0.0
 49
0.0
 49
1.0
175
     0
142
0.0208333333333333
142
0.0
142
0.0
142
0.0
142
0.0
142
0.0208333333333333
142
0.0
142
0.0
142
0.0
142
0.0
142
1.0
142
0.0
142
0.0
142
0.0
142
0.0
142
1.0
179
     0
144
0.0208333333333333
144
0.0
144
0.0
144
0.0
144
0.0
144
0.0208333333333333
144
0.0
144
0.0
144
0.0
144
0.0
144
1.0
144
0.0
144
0.0
144
0.0
144
0.0
144
1.0
147
0.0208333333333333
147
0.0
147
0.0
147
0.0
147
0.0
147
0.0208333333333333
147
0.0
147
0.0
147
0.0
147
0.0
147
1.0
147
0.0
147
0.0
147
0.0
147
0.0
147
1.0
  0
MLEADERSTYLE
  5
67
102
{ACAD_REACTORS
330
66
102
}
330
66
100
AcDbMLeaderStyle
179
     2
170
     2
171
     1
172
     0
 90
        2
 40
0.0
 41
0.0
173
     1
 91
-1056964608
340
5B
 92
       -2
290
     1
 42
0.09
291
     1
 43
0.36
  3
Standard
 44
0.18
300

342
55
174
     1
178
     6
175
     1
176
     0
 93
-1056964608
 45
0.18
292
     0
297
     0
 46
0.18
 94
-1056964608
 47
1.0
 49
1.0
140
1.0
293
     1
141
0.0
294
     1
177
     0
142
1.0
295
     0
296
     0
143
0.125
271
     0
272
     9
273
     9
298
     1
  0
MLINESTYLE
  5
60
102
{ACAD_REACTORS
330
5F
102
}
330
5F
100
AcDbMlineStyle
  2
STANDARD
 70
     0
  3

 62
   256
 51
90.0
 52
90.0
 71
     2
 49
0.5
 62
   256
  6
BYLAYER
 49
-0.5
 62
   256
  6
BYLAYER
  0
ACDBPLACEHOLDER
  5
F
102
{ACAD_REACTORS
330
E
102
}
330
E
  0
SCALE
  5
43
102
{ACAD_REACTORS
330
42
102
}
330
42
100
AcDbScale
 70
     0
300
1:1
140
1.0
141
1.0
290
     1
  0
SCALE
  5
44
102
{ACAD_REACTORS
330
42
102
}
330
42
100
AcDbScale
 70
     0
300
1/128" = 1'-0"
140
0.0078125
141
12.0
290
     0
  0
SCALE
  5
45
102
{ACAD_REACTORS
330
42
102
}
330
42
100
AcDbScale
 70
     0
300
1/64" = 1'-0"
140
0.015625
141
12.0
290
     0
  0
SCALE
  5
46
102
{ACAD_REACTORS
330
42
102
}
330
42
100
AcDbScale
 70
     0
300
1/32" = 1'-0"
140
0.03125
141
12.0
290
     0
  0
SCALE
  5
47
102
{ACAD_REACTORS
330
42
102
}
330
42
100
AcDbScale
 70
     0
300
1/16" = 1'-0"
140
0.0625
141
12.0
290
     0
  0
SCALE
  5
48
102
{ACAD_REACTORS
330
42
102
}
330
42
100
AcDbScale
 70
     0
300
3/32" = 1'-0"
140
0.09375
141
12.0
290
     0
  0
SCALE
  5
49
102
{ACAD_REACTORS
330
42
102
}
330
42
100
AcDbScale
 70
     0
300
1/8" = 1'-0"
140
0.125
141
12.0
290
     0
  0
SCALE
  5
4A
102
{ACAD_REACTORS
330
42
102
}
330
42
100
AcDbScale
 70
     0
300
3/16" = 1'-0"
140
0.1875
141
12.0
290
     0
  0
SCALE
  5
4B
102
{ACAD_REACTORS
330
42
102
}
330
42
100
AcDbScale
 70
     0
300
1/4" = 1'-0"
140
0.25
141
12.0
290
     0
  0
SCALE
  5
4C
102
{ACAD_REACTORS
330
42
102
}
330
42
100
AcDbScale
 70
     0
300
3/8" = 1'-0"
140
0.375
141
12.0
290
     0
  0
SCALE
  5
4D
102
{ACAD_REACTORS
330
42
102
}
330
42
100
AcDbScale
 70
     0
300
1/2" = 1'-0"
140
0.5
141
12.0
290
     0
  0
SCALE
  5
4E
102
{ACAD_REACTORS
330
42
102
}
330
42
100
AcDbScale
 70
     0
300
3/4" = 1'-0"
140
0.75
141
12.0
290
     0
  0
SCALE
  5
4F
102
{ACAD_REACTORS
330
42
102
}
330
42
100
AcDbScale
 70
     0
300
1" = 1'-0"
140
1.0
141
12.0
290
     0
  0
SCALE
  5
50
102
{ACAD_REACTORS
330
42
102
}
330
42
100
AcDbScale
 70
     0
300
1-1/2" = 1'-0"
140
1.5
141
12.0
290
     0
  0
SCALE
  5
51
102
{ACAD_REACTORS
330
42
102
}
330
42
100
AcDbScale
 70
     0
300
3" = 1'-0"
140
3.0
141
12.0
290
     0
  0
SCALE
  5
52
102
{ACAD_REACTORS
330
42
102
}
330
42
100
AcDbScale
 70
     0
300
6" = 1'-0"
140
6.0
141
12.0
290
     0
  0
SCALE
  5
53
102
{ACAD_REACTORS
330
42
102
}
330
42
100
AcDbScale
 70
     0
300
1'-0" = 1'-0"
140
12.0
141
12.0
290
     0
  0
ACDBSECTIONVIEWSTYLE
  5
6A
102
{ACAD_REACTORS
330
68
102
}
330
68
100
AcDbModelDocViewStyle
 70
     0
  3
Imperial24
290
     0
100
AcDbSectionViewStyle
 70
     0
 71
     0
 90
       78
 71
     1
340
55
 62
   256
 40
0.24
340
0
340
0
 62
   256
 40
0.24
300
I, O, Q, S, X, Z
 40
0.48
 90
        3
 40
0.18
 90
        1
 71
     2
340
69
 90
       25
 62
   256
340
5D
 90
       50
 62
   256
 40
0.24
 40
0.0
 40
0.24
 71
     3
340
55
 62
   256
 40
0.24
 90
        1
 40
0.75
 90
        1
300
%<\AcVar ViewType \f "%tc1">% %<\AcVar ViewSectionStartId>%-%<\AcVar ViewSectionEndId>%\PSCALA %<\AcVar ViewScale \f "%sn">%
 71
     4
 62
   256
 62
   257
300
ANSI31
 40
1.0
 90
        0
290
     0
290
     0
 90
        6
 40
0.0
 40
1.570796326794896
 40
0.2617993877991494
 40
1.308996938995747
 40
-0.2617993877991494
 40
1.832595714594045
  0
ACDBSECTIONVIEWSTYLE
  5
2AC
102
{ACAD_REACTORS
330
68
102
}
330
68
100
AcDbModelDocViewStyle
 70
     0
  3
Metric50
290
     1
100
AcDbSectionViewStyle
 70
     0
 71
     0
 90
      102
 71
     1
340
55
 62
   256
 40
5.0
340
0
340
0
 62
   256
 40
5.0
300
I, O, Q, S, X, Z
 40
10.0
 90
        0
 40
2.5
 90
        0
 71
     2
340
5D
 90
       25
 62
   256
340
5D
 90
       50
 62
   256
 40
5.0
 40
2.5
 40
5.0
 71
     3
340
55
 62
   256
 40
5.0
 90
        0
 40
15.0
 90
        1
300
%<\AcVar ViewSectionStartId>%-%<\AcVar ViewSectionEndId>% (%<\AcVar ViewScale \f "%sn">%)
 71
     4
 62
   256
 62
   257
300
ANSI31
 40
1.0
 90
        0
290
     0
290
     0
 90
        6
 40
0.0
 40
1.570796326794896
 40
0.2617993877991494
 40
1.308996938995747
 40
-0.2617993877991494
 40
1.832595714594046
  0
TABLESTYLE
  5
65
102
{ACAD_XDICTIONARY
360
2A7
102
}
102
{ACAD_REACTORS
330
64
102
}
330
64
100
AcDbTableStyle
280
     0
  3
Standard
 70
     0
 71
     0
 40
0.06
 41
0.06
280
     0
281
     0
  7
Standard
140
0.18
170
     2
 62
     0
 63
     7
283
     0
 90
      512
 91
        0
  1

274
    -2
284
     1
 64
     0
275
    -2
285
     1
 65
     0
276
    -2
286
     1
 66
     0
277
    -2
287
     1
 67
     0
278
    -2
288
     1
 68
     0
279
    -2
289
     1
 69
     0
  7
Standard
140
0.25
170
     5
 62
     0
 63
     7
283
     0
 90
      512
 91
        0
  1

274
    -2
284
     1
 64
     0
275
    -2
285
     1
 65
     0
276
    -2
286
     1
 66
     0
277
    -2
287
     1
 67
     0
278
    -2
288
     1
 68
     0
279
    -2
289
     1
 69
     0
  7
Standard
140
0.18
170
     5
 62
     0
 63
     7
283
     0
 90
      512
 91
        0
  1

274
    -2
284
     1
 64
     0
275
    -2
285
     1
 65
     0
276
    -2
286
     1
 66
     0
277
    -2
287
     1
 67
     0
278
    -2
288
     1
 68
     0
279
    -2
289
     1
 69
     0
  0
VISUALSTYLE
  5
2F
102
{ACAD_REACTORS
330
29
102
}
330
29
100
AcDbVisualStyle
  2
2dWireframe
 70
     4
177
     3
291
     0
 70
    58
 90
        0
176
     1
 90
        2
176
     1
 90
        0
176
     1
 90
        0
176
     1
 40
0.6
176
     1
 40
30.0
176
     1
 62
     7
420
 16777215
176
     1
 90
        1
176
     1
 90
        4
176
     1
 62
     7
176
     1
 62
   257
176
     1
 90
        1
176
     1
 90
        1
176
     1
 40
1.0
176
     1
 90
        0
176
     1
 62
   257
176
     1
 40
1.0
176
     1
 90
        1
176
     1
 90
        6
176
     1
 90
        2
176
     1
 62
     7
176
     1
 90
        5
176
     1
 90
        0
176
     1
 90
        0
176
     1
290
     0
176
     1
 90
        1
176
     1
 40
0.0
176
     1
 90
        0
176
     1
290
     1
176
     1
290
     1
176
     1
290
     0
176
     1
290
     0
176
     1
290
     0
176
     1
290
     0
176
     1
290
     0
176
     1
290
     0
176
     1
290
     0
176
     1
 90
       50
176
     1
 40
0.0
176
     1
 40
1.0
176
     1
 90
        0
176
     1
 62
    18
176
     1
 90
       50
176
     1
 90
        3
176
     1
 62
     5
420
      255
176
     1
290
     0
176
     1
 90
       50
176
     1
 90
       50
176
     1
 90
       50
176
     1
290
     0
176
     1
 90
       50
176
     1
 62
   256
176
     0
 40
1.0
176
     0
 90
        2
176
     1
  1
strokes_ogs.tif
176
     1
290
     0
176
     1
 40
1.0
176
     1
 40
1.0
176
     1
  0
VISUALSTYLE
  5
2E
102
{ACAD_REACTORS
330
29
102
}
330
29
100
AcDbVisualStyle
  2
Basic
 70
     7
177
     3
291
     1
 70
    58
 90
        1
176
     1
 90
        0
176
     1
 90
        1
176
     1
 90
        0
176
     1
 40
0.6
176
     1
 40
30.0
176
     1
 62
     7
420
 16777215
176
     1
 90
        0
176
     1
 90
        4
176
     1
 62
     7
176
     1
 62
   257
176
     1
 90
        1
176
     1
 90
        1
176
     1
 40
1.0
176
     1
 90
        8
176
     1
 62
     7
176
     1
 40
1.0
176
     1
 90
        1
176
     1
 90
        6
176
     1
 90
        2
176
     1
 62
     7
176
     1
 90
        5
176
     1
 90
        0
176
     1
 90
        0
176
     1
290
     0
176
     1
 90
        1
176
     1
 40
0.0
176
     1
 90
        0
176
     1
290
     0
176
     1
290
     1
176
     1
290
     1
176
     1
290
     0
176
     1
290
     0
176
     1
290
     0
176
     1
290
     0
176
     1
290
     0
176
     1
290
     0
176
     1
 90
       50
176
     1
 40
0.0
176
     1
 40
1.0
176
     1
 90
        0
176
     1
 62
    18
176
     1
 90
       50
176
     1
 90
        3
176
     1
 62
     5
420
      255
176
     1
290
     0
176
     1
 90
       50
176
     1
 90
       50
176
     1
 90
       50
176
     1
290
     0
176
     1
 90
       50
176
     1
 62
   256
176
     0
 40
1.0
176
     0
 90
        2
176
     1
  1
strokes_ogs.tif
176
     1
290
     0
176
     1
 40
1.0
176
     1
 40
1.0
176
     1
  0
VISUALSTYLE
  5
35
102
{ACAD_REACTORS
330
29
102
}
330
29
100
AcDbVisualStyle
  2
Brighten
 70
    12
177
     3
291
     1
 70
    58
 90
        2
176
     1
 90
        2
176
     1
 90
        0
176
     1
 90
        0
176
     1
 40
0.6
176
     1
 40
30.0
176
     1
 62
     7
420
 16777215
176
     1
 90
        1
176
     1
 90
        4
176
     1
 62
     7
176
     1
 62
   257
176
     1
 90
        1
176
     1
 90
        1
176
     1
 40
1.0
176
     1
 90
        8
176
     1
 62
     7
176
     1
 40
1.0
176
     1
 90
        1
176
     1
 90
        6
176
     1
 90
        2
176
     1
 62
     7
176
     1
 90
        5
176
     1
 90
        0
176
     1
 90
        0
176
     1
290
     0
176
     1
 90
        1
176
     1
 40
50.0
176
     1
 90
        0
176
     1
290
     0
176
     1
290
     1
176
     1
290
     1
176
     1
290
     0
176
     1
290
     0
176
     1
290
     0
176
     1
290
     0
176
     1
290
     0
176
     1
290
     0
176
     1
 90
       50
176
     1
 40
0.0
176
     1
 40
1.0
176
     1
 90
        0
176
     1
 62
    18
176
     1
 90
       50
176
     1
 90
        3
176
     1
 62
     5
420
      255
176
     1
290
     0
176
     1
 90
       50
176
     1
 90
       50
176
     1
 90
       50
176
     1
290
     0
176
     1
 90
       50
176
     1
 62
   256
176
     0
 40
1.0
176
     0
 90
        2
176
     1
  1
strokes_ogs.tif
176
     1
290
     0
176
     1
 40
1.0
176
     1
 40
1.0
176
     1
  0
VISUALSTYLE
  5
39
102
{ACAD_REACTORS
330
29
102
}
330
29
100
AcDbVisualStyle
  2
ColorChange
 70
    16
177
     3
291
     1
 70
    58
 90
        2
176
     1
 90
        2
176
     1
 90
        3
176
     1
 90
        0
176
     1
 40
0.6
176
     1
 40
30.0
176
     1
 62
     8
420
  8421504
176
     1
 90
        1
176
     1
 90
        4
176
     1
 62
     7
176
     1
 62
   257
176
     1
 90
        1
176
     1
 90
        1
176
     1
 40
1.0
176
     1
 90
        8
176
     1
 62
     8
420
  8421504
176
     1
 40
1.0
176
     1
 90
        1
176
     1
 90
        6
176
     1
 90
        2
176
     1
 62
     7
176
     1
 90
        5
176
     1
 90
        0
176
     1
 90
        0
176
     1
290
     0
176
     1
 90
        1
176
     1
 40
0.0
176
     1
 90
        0
176
     1
290
     0
176
     1
290
     1
176
     1
290
     1
176
     1
290
     0
176
     1
290
     0
176
     1
290
     0
176
     1
290
     0
176
     1
290
     0
176
     1
290
     0
176
     1
 90
       50
176
     1
 40
0.0
176
     1
 40
1.0
176
     1
 90
        0
176
     1
 62
    18
176
     1
 90
       50
176
     1
 90
        3
176
     1
 62
     5
420
      255
176
     1
290
     0
176
     1
 90
       50
176
     1
 90
       50
176
     1
 90
       50
176
     1
290
     0
176
     1
 90
       50
176
     1
 62
   256
176
     0
 40
1.0
176
     0
 90
        2
176
     1
  1
strokes_ogs.tif
176
     1
290
     0
176
     1
 40
1.0
176
     1
 40
1.0
176
     1
  0
VISUALSTYLE
  5
32
102
{ACAD_REACTORS
330
29
102
}
330
29
100
AcDbVisualStyle
  2
Conceptual
 70
     9
177
     3
291
     0
 70
    58
 90
        3
176
     1
 90
        2
176
     1
 90
        0
176
     1
 90
        0
176
     1
 40
0.6
176
     1
 40
30.0
176
     1
 62
     7
420
 16777215
176
     1
 90
        2
176
     1
 90
        2
176
     1
 62
     7
176
     1
 62
   257
176
     1
 90
        1
176
     1
 90
        1
176
     1
 40
179.0
176
     1
 90
        8
176
     1
 62
     7
176
     1
 40
1.0
176
     1
 90
        1
176
     1
 90
        6
176
     1
 90
        2
176
     1
 62
     7
176
     1
 90
        3
176
     1
 90
        0
176
     1
 90
        0
176
     1
290
     0
176
     1
 90
        1
176
     1
 40
0.0
176
     1
 90
        0
176
     1
290
     0
176
     1
290
     1
176
     1
290
     1
176
     1
290
     0
176
     1
290
     0
176
     1
290
     0
176
     1
290
     0
176
     1
290
     0
176
     1
290
     0
176
     1
 90
       50
176
     1
 40
0.0
176
     1
 40
1.0
176
     1
 90
        0
176
     1
 62
    18
176
     1
 90
       50
176
     1
 90
        3
176
     1
 62
     5
420
      255
176
     1
290
     0
176
     1
 90
       50
176
     1
 90
       50
176
     1
 90
       50
176
     1
290
     0
176
     1
 90
       50
176
     1
 62
   256
176
     0
 40
1.0
176
     0
 90
        2
176
     1
  1
strokes_ogs.tif
176
     1
290
     0
176
     1
 40
1.0
176
     1
 40
1.0
176
     1
  0
VISUALSTYLE
  5
34
102
{ACAD_REACTORS
330
29
102
}
330
29
100
AcDbVisualStyle
  2
Dim
 70
    11
177
     3
291
     1
 70
    58
 90
        2
176
     1
 90
        2
176
     1
 90
        0
176
     1
 90
        0
176
     1
 40
0.6
176
     1
 40
30.0
176
     1
 62
     7
420
 16777215
176
     1
 90
        1
176
     1
 90
        4
176
     1
 62
     7
176
     1
 62
   257
176
     1
 90
        1
176
     1
 90
        1
176
     1
 40
1.0
176
     1
 90
        8
176
     1
 62
     7
176
     1
 40
1.0
176
     1
 90
        1
176
     1
 90
        6
176
     1
 90
        2
176
     1
 62
     7
176
     1
 90
        5
176
     1
 90
        0
176
     1
 90
        0
176
     1
290
     0
176
     1
 90
        1
176
     1
 40
-50.0
176
     1
 90
        0
176
     1
290
     0
176
     1
290
     1
176
     1
290
     1
176
     1
290
     0
176
     1
290
     0
176
     1
290
     0
176
     1
290
     0
176
     1
290
     0
176
     1
290
     0
176
     1
 90
       50
176
     1
 40
0.0
176
     1
 40
1.0
176
     1
 90
        0
176
     1
 62
    18
176
     1
 90
       50
176
     1
 90
        3
176
     1
 62
     5
420
      255
176
     1
290
     0
176
     1
 90
       50
176
     1
 90
       50
176
     1
 90
       50
176
     1
290
     0
176
     1
 90
       50
176
     1
 62
   256
176
     0
 40
1.0
176
     0
 90
        2
176
     1
  1
strokes_ogs.tif
176
     1
290
     0
176
     1
 40
1.0
176
     1
 40
1.0
176
     1
  0
VISUALSTYLE
  5
41
102
{ACAD_REACTORS
330
29
102
}
330
29
100
AcDbVisualStyle
  2
EdgeColorOff
 70
    22
177
     3
291
     1
 70
    58
 90
        2
176
     0
 90
        2
176
     0
 90
        0
176
     0
 90
        0
176
     0
 40
0.6
176
     0
 40
30.0
176
     0
 62
     7
420
 16777215
176
     0
 90
        1
176
     0
 90
        4
176
     0
 62
     7
176
     0
 62
   257
176
     0
 90
        1
176
     0
 90
        1
176
     0
 40
1.0
176
     0
 90
        8
176
     2
 62
     7
176
     0
 40
1.0
176
     0
 90
        1
176
     0
 90
        6
176
     0
 90
        2
176
     0
 62
     7
176
     0
 90
        5
176
     0
 90
        0
176
     0
 90
        0
176
     0
290
     0
176
     0
 90
        1
176
     0
 40
0.0
176
     0
 90
        0
176
     0
290
     0
176
     0
290
     1
176
     0
290
     1
176
     0
290
     0
176
     0
290
     0
176
     0
290
     0
176
     0
290
     0
176
     0
290
     0
176
     0
290
     0
176
     0
 90
       50
176
     0
 40
0.0
176
     0
 40
1.0
176
     0
 90
        0
176
     0
 62
    18
176
     0
 90
       50
176
     0
 90
        3
176
     0
 62
     5
420
      255
176
     0
290
     0
176
     0
 90
       50
176
     0
 90
       50
176
     0
 90
       50
176
     0
290
     0
176
     0
 90
       50
176
     0
 62
   256
176
     0
 40
1.0
176
     0
 90
        2
176
     0
  1
strokes_ogs.tif
176
     0
290
     0
176
     0
 40
1.0
176
     0
 40
1.0
176
     0
  0
VISUALSTYLE
  5
38
102
{ACAD_REACTORS
330
29
102
}
330
29
100
AcDbVisualStyle
  2
Facepattern
 70
    15
177
     3
291
     1
 70
    58
 90
        2
176
     1
 90
        2
176
     1
 90
        0
176
     1
 90
        0
176
     1
 40
0.6
176
     1
 40
30.0
176
     1
 62
     7
420
 16777215
176
     1
 90
        1
176
     1
 90
        4
176
     1
 62
     7
176
     1
 62
   257
176
     1
 90
        1
176
     1
 90
        1
176
     1
 40
1.0
176
     1
 90
        8
176
     1
 62
     7
176
     1
 40
1.0
176
     1
 90
        1
176
     1
 90
        6
176
     1
 90
        2
176
     1
 62
     7
176
     1
 90
        5
176
     1
 90
        0
176
     1
 90
        0
176
     1
290
     0
176
     1
 90
        1
176
     1
 40
0.0
176
     1
 90
        0
176
     1
290
     0
176
     1
290
     1
176
     1
290
     1
176
     1
290
     0
176
     1
290
     0
176
     1
290
     0
176
     1
290
     0
176
     1
290
     0
176
     1
290
     0
176
     1
 90
       50
176
     1
 40
0.0
176
     1
 40
1.0
176
     1
 90
        0
176
     1
 62
    18
176
     1
 90
       50
176
     1
 90
        3
176
     1
 62
     5
420
      255
176
     1
290
     0
176
     1
 90
       50
176
     1
 90
       50
176
     1
 90
       50
176
     1
290
     0
176
     1
 90
       50
176
     1
 62
   256
176
     0
 40
1.0
176
     0
 90
        2
176
     1
  1
strokes_ogs.tif
176
     1
290
     0
176
     1
 40
1.0
176
     1
 40
1.0
176
     1
  0
VISUALSTYLE
  5
2A
102
{ACAD_REACTORS
330
29
102
}
330
29
100
AcDbVisualStyle
  2
Flat
 70
     0
177
     3
291
     1
 70
    58
 90
        2
176
     1
 90
        1
176
     1
 90
        1
176
     1
 90
        2
176
     1
 40
0.6
176
     1
 40
30.0
176
     1
 62
     7
420
 16777215
176
     1
 90
        0
176
     1
 90
        0
176
     1
 62
     7
176
     1
 62
   257
176
     1
 90
        1
176
     1
 90
        1
176
     1
 40
1.0
176
     1
 90
        8
176
     1
 62
     7
176
     1
 40
1.0
176
     1
 90
        1
176
     1
 90
        6
176
     1
 90
        2
176
     1
 62
     7
176
     1
 90
        5
176
     1
 90
        0
176
     1
 90
        0
176
     1
290
     0
176
     1
 90
       13
176
     1
 40
0.0
176
     1
 90
        0
176
     1
290
     0
176
     1
290
     1
176
     1
290
     1
176
     1
290
     0
176
     1
290
     0
176
     1
290
     0
176
     1
290
     0
176
     1
290
     0
176
     1
290
     0
176
     1
 90
       50
176
     1
 40
0.0
176
     1
 40
1.0
176
     1
 90
        0
176
     1
 62
    18
176
     1
 90
       50
176
     1
 90
        3
176
     1
 62
     5
420
      255
176
     1
290
     0
176
     1
 90
       50
176
     1
 90
       50
176
     1
 90
       50
176
     1
290
     0
176
     1
 90
       50
176
     1
 62
   256
176
     0
 40
1.0
176
     0
 90
        2
176
     1
  1
strokes_ogs.tif
176
     1
290
     0
176
     1
 40
1.0
176
     1
 40
1.0
176
     1
  0
VISUALSTYLE
  5
2B
102
{ACAD_REACTORS
330
29
102
}
330
29
100
AcDbVisualStyle
  2
FlatWithEdges
 70
     1
177
     3
291
     1
 70
    58
 90
        2
176
     1
 90
        1
176
     1
 90
        1
176
     1
 90
        2
176
     1
 40
0.6
176
     1
 40
30.0
176
     1
 62
     7
420
 16777215
176
     1
 90
        1
176
     1
 90
        0
176
     1
 62
     7
176
     1
 62
   257
176
     1
 90
        1
176
     1
 90
        1
176
     1
 40
1.0
176
     1
 90
        0
176
     1
 62
   257
176
     1
 40
1.0
176
     1
 90
        1
176
     1
 90
        6
176
     1
 90
        2
176
     1
 62
     7
176
     1
 90
        5
176
     1
 90
        0
176
     1
 90
        0
176
     1
290
     0
176
     1
 90
       13
176
     1
 40
0.0
176
     1
 90
        0
176
     1
290
     0
176
     1
290
     1
176
     1
290
     1
176
     1
290
     0
176
     1
290
     0
176
     1
290
     0
176
     1
290
     0
176
     1
290
     0
176
     1
290
     0
176
     1
 90
       50
176
     1
 40
0.0
176
     1
 40
1.0
176
     1
 90
        0
176
     1
 62
    18
176
     1
 90
       50
176
     1
 90
        3
176
     1
 62
     5
420
      255
176
     1
290
     0
176
     1
 90
       50
176
     1
 90
       50
176
     1
 90
       50
176
     1
290
     0
176
     1
 90
       50
176
     1
 62
   256
176
     0
 40
1.0
176
     0
 90
        2
176
     1
  1
strokes_ogs.tif
176
     1
290
     0
176
     1
 40
1.0
176
     1
 40
1.0
176
     1
  0
VISUALSTYLE
  5
2C
102
{ACAD_REACTORS
330
29
102
}
330
29
100
AcDbVisualStyle
  2
Gouraud
 70
     2
177
     3
291
     1
 70
    58
 90
        2
176
     1
 90
        2
176
     1
 90
        1
176
     1
 90
        2
176
     1
 40
0.6
176
     1
 40
30.0
176
     1
 62
     7
420
 16777215
176
     1
 90
        0
176
     1
 90
        0
176
     1
 62
     7
176
     1
 62
   257
176
     1
 90
        1
176
     1
 90
        1
176
     1
 40
1.0
176
     1
 90
        0
176
     1
 62
     7
176
     1
 40
1.0
176
     1
 90
        1
176
     1
 90
        6
176
     1
 90
        2
176
     1
 62
     7
176
     1
 90
        5
176
     1
 90
        0
176
     1
 90
        0
176
     1
290
     0
176
     1
 90
       13
176
     1
 40
0.0
176
     1
 90
        0
176
     1
290
     0
176
     1
290
     1
176
     1
290
     1
176
     1
290
     0
176
     1
290
     0
176
     1
290
     0
176
     1
290
     0
176
     1
290
     0
176
     1
290
     0
176
     1
 90
       50
176
     1
 40
0.0
176
     1
 40
1.0
176
     1
 90
        0
176
     1
 62
    18
176
     1
 90
       50
176
     1
 90
        3
176
     1
 62
     5
420
      255
176
     1
290
     0
176
     1
 90
       50
176
     1
 90
       50
176
     1
 90
       50
176
     1
290
     0
176
     1
 90
       50
176
     1
 62
   256
176
     0
 40
1.0
176
     0
 90
        2
176
     1
  1
strokes_ogs.tif
176
     1
290
     0
176
     1
 40
1.0
176
     1
 40
1.0
176
     1
  0
VISUALSTYLE
  5
2D
102
{ACAD_REACTORS
330
29
102
}
330
29
100
AcDbVisualStyle
  2
GouraudWithEdges
 70
     3
177
     3
291
     1
 70
    58
 90
        2
176
     1
 90
        2
176
     1
 90
        1
176
     1
 90
        2
176
     1
 40
0.6
176
     1
 40
30.0
176
     1
 62
     7
420
 16777215
176
     1
 90
        1
176
     1
 90
        0
176
     1
 62
     7
176
     1
 62
   257
176
     1
 90
        1
176
     1
 90
        1
176
     1
 40
1.0
176
     1
 90
        0
176
     1
 62
   257
176
     1
 40
1.0
176
     1
 90
        1
176
     1
 90
        6
176
     1
 90
        2
176
     1
 62
     7
176
     1
 90
        5
176
     1
 90
        0
176
     1
 90
        0
176
     1
290
     0
176
     1
 90
       13
176
     1
 40
0.0
176
     1
 90
        0
176
     1
290
     0
176
     1
290
     1
176
     1
290
     1
176
     1
290
     0
176
     1
290
     0
176
     1
290
     0
176
     1
290
     0
176
     1
290
     0
176
     1
290
     0
176
     1
 90
       50
176
     1
 40
0.0
176
     1
 40
1.0
176
     1
 90
        0
176
     1
 62
    18
176
     1
 90
       50
176
     1
 90
        3
176
     1
 62
     5
420
      255
176
     1
290
     0
176
     1
 90
       50
176
     1
 90
       50
176
     1
 90
       50
176
     1
290
     0
176
     1
 90
       50
176
     1
 62
   256
176
     0
 40
1.0
176
     0
 90
        2
176
     1
  1
strokes_ogs.tif
176
     1
290
     0
176
     1
 40
1.0
176
     1
 40
1.0
176
     1
  0
VISUALSTYLE
  5
31
102
{ACAD_REACTORS
330
29
102
}
330
29
100
AcDbVisualStyle
  2
Hidden
 70
     6
177
     3
291
     0
 70
    58
 90
        1
176
     1
 90
        2
176
     1
 90
        2
176
     1
 90
        0
176
     1
 40
0.6
176
     1
 40
30.0
176
     1
 62
     7
420
 16777215
176
     1
 90
        2
176
     1
 90
        2
176
     1
 62
     7
176
     1
 62
   257
176
     1
 90
        2
176
     1
 90
        1
176
     1
 40
40.0
176
     1
 90
        0
176
     1
 62
   257
176
     1
 40
1.0
176
     1
 90
        1
176
     1
 90
        6
176
     1
 90
        2
176
     1
 62
     7
176
     1
 90
        3
176
     1
 90
        0
176
     1
 90
        0
176
     1
290
     0
176
     1
 90
        1
176
     1
 40
0.0
176
     1
 90
        0
176
     1
290
     0
176
     1
290
     1
176
     1
290
     1
176
     1
290
     0
176
     1
290
     0
176
     1
290
     0
176
     1
290
     0
176
     1
290
     0
176
     1
290
     0
176
     1
 90
       50
176
     1
 40
0.0
176
     1
 40
1.0
176
     1
 90
        0
176
     1
 62
    18
176
     1
 90
       50
176
     1
 90
        3
176
     1
 62
     5
420
      255
176
     1
290
     0
176
     1
 90
       50
176
     1
 90
       50
176
     1
 90
       50
176
     1
290
     0
176
     1
 90
       50
176
     1
 62
   256
176
     0
 40
1.0
176
     0
 90
        2
176
     1
  1
strokes_ogs.tif
176
     1
290
     0
176
     1
 40
1.0
176
     1
 40
1.0
176
     1
  0
VISUALSTYLE
  5
3F
102
{ACAD_REACTORS
330
29
102
}
330
29
100
AcDbVisualStyle
  2
JitterOff
 70
    20
177
     3
291
     1
 70
    58
 90
        2
176
     0
 90
        2
176
     0
 90
        0
176
     0
 90
        0
176
     0
 40
0.6
176
     0
 40
30.0
176
     0
 62
     7
420
 16777215
176
     0
 90
        1
176
     0
 90
        4
176
     0
 62
     7
176
     0
 62
   257
176
     0
 90
        1
176
     0
 90
        1
176
     0
 40
1.0
176
     0
 90
       10
176
     2
 62
     7
176
     0
 40
1.0
176
     0
 90
        1
176
     0
 90
        6
176
     0
 90
        2
176
     0
 62
     7
176
     0
 90
        5
176
     0
 90
        0
176
     0
 90
        0
176
     0
290
     0
176
     0
 90
        1
176
     0
 40
0.0
176
     0
 90
        0
176
     0
290
     0
176
     0
290
     1
176
     0
290
     1
176
     0
290
     0
176
     0
290
     0
176
     0
290
     0
176
     0
290
     0
176
     0
290
     0
176
     0
290
     0
176
     0
 90
       50
176
     0
 40
0.0
176
     0
 40
1.0
176
     0
 90
        0
176
     0
 62
    18
176
     0
 90
       50
176
     0
 90
        3
176
     0
 62
     5
420
      255
176
     0
290
     0
176
     0
 90
       50
176
     0
 90
       50
176
     0
 90
       50
176
     0
290
     0
176
     0
 90
       50
176
     0
 62
   256
176
     0
 40
1.0
176
     0
 90
        2
176
     0
  1
strokes_ogs.tif
176
     0
290
     0
176
     0
 40
1.0
176
     0
 40
1.0
176
     0
  0
VISUALSTYLE
  5
37
102
{ACAD_REACTORS
330
29
102
}
330
29
100
AcDbVisualStyle
  2
Linepattern
 70
    14
177
     3
291
     1
 70
    58
 90
        2
176
     1
 90
        2
176
     1
 90
        0
176
     1
 90
        0
176
     1
 40
0.6
176
     1
 40
30.0
176
     1
 62
     7
420
 16777215
176
     1
 90
        1
176
     1
 90
        4
176
     1
 62
     7
176
     1
 62
   257
176
     1
 90
        7
176
     1
 90
        7
176
     1
 40
1.0
176
     1
 90
        8
176
     1
 62
     7
176
     1
 40
1.0
176
     1
 90
        1
176
     1
 90
        6
176
     1
 90
        2
176
     1
 62
     7
176
     1
 90
        5
176
     1
 90
        0
176
     1
 90
        0
176
     1
290
     0
176
     1
 90
        1
176
     1
 40
0.0
176
     1
 90
        0
176
     1
290
     0
176
     1
290
     1
176
     1
290
     1
176
     1
290
     0
176
     1
290
     0
176
     1
290
     0
176
     1
290
     0
176
     1
290
     0
176
     1
290
     0
176
     1
 90
       50
176
     1
 40
0.0
176
     1
 40
1.0
176
     1
 90
        0
176
     1
 62
    18
176
     1
 90
       50
176
     1
 90
        3
176
     1
 62
     5
420
      255
176
     1
290
     0
176
     1
 90
       50
176
     1
 90
       50
176
     1
 90
       50
176
     1
290
     0
176
     1
 90
       50
176
     1
 62
   256
176
     0
 40
1.0
176
     0
 90
        2
176
     1
  1
strokes_ogs.tif
176
     1
290
     0
176
     1
 40
1.0
176
     1
 40
1.0
176
     1
  0
VISUALSTYLE
  5
40
102
{ACAD_REACTORS
330
29
102
}
330
29
100
AcDbVisualStyle
  2
OverhangOff
 70
    21
177
     3
291
     1
 70
    58
 90
        2
176
     0
 90
        2
176
     0
 90
        0
176
     0
 90
        0
176
     0
 40
0.6
176
     0
 40
30.0
176
     0
 62
     7
420
 16777215
176
     0
 90
        1
176
     0
 90
        4
176
     0
 62
     7
176
     0
 62
   257
176
     0
 90
        1
176
     0
 90
        1
176
     0
 40
1.0
176
     0
 90
        9
176
     2
 62
     7
176
     0
 40
1.0
176
     0
 90
        1
176
     0
 90
        6
176
     0
 90
        2
176
     0
 62
     7
176
     0
 90
        5
176
     0
 90
        0
176
     0
 90
        0
176
     0
290
     0
176
     0
 90
        1
176
     0
 40
0.0
176
     0
 90
        0
176
     0
290
     0
176
     0
290
     1
176
     0
290
     1
176
     0
290
     0
176
     0
290
     0
176
     0
290
     0
176
     0
290
     0
176
     0
290
     0
176
     0
290
     0
176
     0
 90
       50
176
     0
 40
0.0
176
     0
 40
1.0
176
     0
 90
        0
176
     0
 62
    18
176
     0
 90
       50
176
     0
 90
        3
176
     0
 62
     5
420
      255
176
     0
290
     0
176
     0
 90
       50
176
     0
 90
       50
176
     0
 90
       50
176
     0
290
     0
176
     0
 90
       50
176
     0
 62
   256
176
     0
 40
1.0
176
     0
 90
        2
176
     0
  1
strokes_ogs.tif
176
     0
290
     0
176
     0
 40
1.0
176
     0
 40
1.0
176
     0
  0
VISUALSTYLE
  5
33
102
{ACAD_REACTORS
330
29
102
}
330
29
100
AcDbVisualStyle
  2
Realistic
 70
     8
177
     3
291
     0
 70
    58
 90
        2
176
     1
 90
        3
176
     1
 90
        0
176
     1
 90
        2
176
     1
 40
0.6
176
     1
 40
30.0
176
     1
 62
     7
420
 16777215
176
     1
 90
        0
176
     1
 90
        0
176
     1
 62
     7
176
     1
 62
   257
176
     1
 90
        1
176
     1
 90
        1
176
     1
 40
1.0
176
     1
 90
        8
176
     1
 62
   257
176
     1
 40
1.0
176
     1
 90
        1
176
     1
 90
        6
176
     1
 90
        2
176
     1
 62
     7
176
     1
 90
        3
176
     1
 90
        0
176
     1
 90
        0
176
     1
290
     0
176
     1
 90
       13
176
     1
 40
0.0
176
     1
 90
        0
176
     1
290
     0
176
     1
290
     1
176
     1
290
     1
176
     1
290
     0
176
     1
290
     0
176
     1
290
     0
176
     1
290
     0
176
     1
290
     0
176
     1
290
     0
176
     1
 90
       50
176
     1
 40
0.0
176
     1
 40
1.0
176
     1
 90
        0
176
     1
 62
    18
176
     1
 90
       50
176
     1
 90
        3
176
     1
 62
     5
420
      255
176
     1
290
     0
176
     1
 90
       50
176
     1
 90
       50
176
     1
 90
       50
176
     1
290
     0
176
     1
 90
       50
176
     1
 62
   256
176
     0
 40
1.0
176
     0
 90
        2
176
     1
  1
strokes_ogs.tif
176
     1
290
     0
176
     1
 40
1.0
176
     1
 40
1.0
176
     1
  0
VISUALSTYLE
  5
3E
102
{ACAD_REACTORS
330
29
102
}
330
29
100
AcDbVisualStyle
  2
Shaded
 70
    27
177
     3
291
     0
 70
    58
 90
        2
176
     1
 90
        2
176
     1
 90
        1
176
     1
 90
        2
176
     1
 40
0.6
176
     1
 40
30.0
176
     1
 62
     7
420
 16777215
176
     1
 90
        0
176
     1
 90
        4
176
     1
 62
     7
176
     1
 62
   257
176
     1
 90
        1
176
     1
 90
        1
176
     1
 40
1.0
176
     1
 90
        8
176
     1
 62
   257
176
     1
 40
1.0
176
     1
 90
        1
176
     1
 90
        6
176
     1
 90
        2
176
     1
 62
     8
420
  7895160
176
     1
 90
        3
176
     1
 90
        0
176
     1
 90
        0
176
     1
290
     0
176
     1
 90
        5
176
     1
 40
0.0
176
     1
 90
        0
176
     1
290
     0
176
     1
290
     1
176
     1
290
     1
176
     1
290
     0
176
     1
290
     0
176
     1
290
     0
176
     1
290
     0
176
     1
290
     0
176
     1
290
     0
176
     1
 90
       50
176
     1
 40
0.0
176
     1
 40
1.0
176
     1
 90
        0
176
     1
 62
    18
176
     1
 90
       50
176
     1
 90
        3
176
     1
 62
     5
420
      255
176
     1
290
     0
176
     1
 90
       50
176
     1
 90
       50
176
     1
 90
       50
176
     1
290
     0
176
     1
 90
       50
176
     1
 62
   256
176
     0
 40
1.0
176
     0
 90
        2
176
     1
  1
strokes_ogs.tif
176
     1
290
     0
176
     1
 40
1.0
176
     1
 40
1.0
176
     1
  0
VISUALSTYLE
  5
3D
102
{ACAD_REACTORS
330
29
102
}
330
29
100
AcDbVisualStyle
  2
Shaded with edges
 70
    26
177
     3
291
     0
 70
    58
 90
        2
176
     1
 90
        2
176
     1
 90
        1
176
     1
 90
        2
176
     1
 40
0.6
176
     1
 40
30.0
176
     1
 62
     7
420
 16777215
176
     1
 90
        1
176
     1
 90
       10
176
     1
 62
     7
176
     1
 62
   257
176
     1
 90
        2
176
     1
 90
        1
176
     1
 40
1.0
176
     1
 90
        8
176
     1
 62
   257
176
     1
 40
1.0
176
     1
 90
        1
176
     1
 90
        6
176
     1
 90
        2
176
     1
 62
     7
176
     1
 90
        3
176
     1
 90
        0
176
     1
 90
        0
176
     1
290
     0
176
     1
 90
        5
176
     1
 40
0.0
176
     1
 90
        0
176
     1
290
     0
176
     1
290
     1
176
     1
290
     1
176
     1
290
     0
176
     1
290
     0
176
     1
290
     0
176
     1
290
     0
176
     1
290
     0
176
     1
290
     0
176
     1
 90
       50
176
     1
 40
0.0
176
     1
 40
1.0
176
     1
 90
        0
176
     1
 62
    18
176
     1
 90
       50
176
     1
 90
        3
176
     1
 62
     5
420
      255
176
     1
290
     0
176
     1
 90
       50
176
     1
 90
       50
176
     1
 90
       50
176
     1
290
     0
176
     1
 90
       50
176
     1
 62
   256
176
     0
 40
1.0
176
     0
 90
        2
176
     1
  1
strokes_ogs.tif
176
     1
290
     0
176
     1
 40
1.0
176
     1
 40
1.0
176
     1
  0
VISUALSTYLE
  5
3A
102
{ACAD_REACTORS
330
29
102
}
330
29
100
AcDbVisualStyle
  2
Shades of Gray
 70
    23
177
     3
291
     0
 70
    58
 90
        2
176
     1
 90
        2
176
     1
 90
        3
176
     1
 90
        0
176
     1
 40
0.6
176
     1
 40
30.0
176
     1
 62
     7
420
 16777215
176
     1
 90
        2
176
     1
 90
        2
176
     1
 62
     7
176
     1
 62
     7
176
     1
 90
        1
176
     1
 90
        1
176
     1
 40
40.0
176
     1
 90
        8
176
     1
 62
     7
176
     1
 40
1.0
176
     1
 90
        1
176
     1
 90
        6
176
     1
 90
        2
176
     1
 62
     7
176
     1
 90
        3
176
     1
 90
        0
176
     1
 90
        0
176
     1
290
     0
176
     1
 90
        1
176
     1
 40
0.0
176
     1
 90
        0
176
     1
290
     0
176
     1
290
     1
176
     1
290
     1
176
     1
290
     0
176
     1
290
     0
176
     1
290
     0
176
     1
290
     0
176
     1
290
     0
176
     1
290
     0
176
     1
 90
       50
176
     1
 40
0.0
176
     1
 40
1.0
176
     1
 90
        0
176
     1
 62
    18
176
     1
 90
       50
176
     1
 90
        3
176
     1
 62
     5
420
      255
176
     1
290
     0
176
     1
 90
       50
176
     1
 90
       50
176
     1
 90
       50
176
     1
290
     0
176
     1
 90
       50
176
     1
 62
   256
176
     0
 40
1.0
176
     0
 90
        2
176
     1
  1
strokes_ogs.tif
176
     1
290
     0
176
     1
 40
1.0
176
     1
 40
1.0
176
     1
  0
VISUALSTYLE
  5
3B
102
{ACAD_REACTORS
330
29
102
}
330
29
100
AcDbVisualStyle
  2
Sketchy
 70
    24
177
     3
291
     0
 70
    58
 90
        1
176
     1
 90
        2
176
     1
 90
        2
176
     1
 90
        0
176
     1
 40
0.6
176
     1
 40
30.0
176
     1
 62
     7
420
 16777215
176
     1
 90
        2
176
     1
 90
        2
176
     1
 62
     7
176
     1
 62
     7
176
     1
 90
        1
176
     1
 90
        1
176
     1
 40
40.0
176
     1
 90
       11
176
     1
 62
     7
176
     1
 40
1.0
176
     1
 90
        1
176
     1
 90
        6
176
     1
 90
        2
176
     1
 62
     7
176
     1
 90
        6
176
     1
 90
        0
176
     1
 90
        0
176
     1
290
     0
176
     1
 90
        1
176
     1
 40
0.0
176
     1
 90
        0
176
     1
290
     0
176
     1
290
     1
176
     1
290
     1
176
     1
290
     0
176
     1
290
     0
176
     1
290
     0
176
     1
290
     0
176
     1
290
     0
176
     1
290
     0
176
     1
 90
       50
176
     1
 40
0.0
176
     1
 40
1.0
176
     1
 90
        0
176
     1
 62
    18
176
     1
 90
       50
176
     1
 90
        3
176
     1
 62
     5
420
      255
176
     1
290
     0
176
     1
 90
       50
176
     1
 90
       50
176
     1
 90
       50
176
     1
290
     0
176
     1
 90
       50
176
     1
 62
   256
176
     0
 40
1.0
176
     0
 90
        2
176
     1
  1
strokes_ogs.tif
176
     1
290
     0
176
     1
 40
1.0
176
     1
 40
1.0
176
     1
  0
VISUALSTYLE
  5
36
102
{ACAD_REACTORS
330
29
102
}
330
29
100
AcDbVisualStyle
  2
Thicken
 70
    13
177
     3
291
     1
 70
    58
 90
        2
176
     1
 90
        2
176
     1
 90
        0
176
     1
 90
        0
176
     1
 40
0.6
176
     1
 40
30.0
176
     1
 62
     7
420
 16777215
176
     1
 90
        1
176
     1
 90
        4
176
     1
 62
     7
176
     1
 62
   257
176
     1
 90
        1
176
     1
 90
        1
176
     1
 40
1.0
176
     1
 90
       12
176
     1
 62
     7
176
     1
 40
1.0
176
     1
 90
        1
176
     1
 90
        6
176
     1
 90
        2
176
     1
 62
     7
176
     1
 90
        5
176
     1
 90
        0
176
     1
 90
        0
176
     1
290
     0
176
     1
 90
        1
176
     1
 40
0.0
176
     1
 90
        0
176
     1
290
     0
176
     1
290
     1
176
     1
290
     1
176
     1
290
     0
176
     1
290
     0
176
     1
290
     0
176
     1
290
     0
176
     1
290
     0
176
     1
290
     0
176
     1
 90
       50
176
     1
 40
0.0
176
     1
 40
1.0
176
     1
 90
        0
176
     1
 62
    18
176
     1
 90
       50
176
     1
 90
        3
176
     1
 62
     5
420
      255
176
     1
290
     0
176
     1
 90
       50
176
     1
 90
       50
176
     1
 90
       50
176
     1
290
     0
176
     1
 90
       50
176
     1
 62
   256
176
     0
 40
1.0
176
     0
 90
        2
176
     1
  1
strokes_ogs.tif
176
     1
290
     0
176
     1
 40
1.0
176
     1
 40
1.0
176
     1
  0
VISUALSTYLE
  5
30
102
{ACAD_REACTORS
330
29
102
}
330
29
100
AcDbVisualStyle
  2
Wireframe
 70
     5
177
     3
291
     0
 70
    58
 90
        0
176
     1
 90
        2
176
     1
 90
        0
176
     1
 90
        0
176
     1
 40
0.6
176
     1
 40
30.0
176
     1
 62
     7
420
 16777215
176
     1
 90
        1
176
     1
 90
        4
176
     1
 62
     7
176
     1
 62
   257
176
     1
 90
        1
176
     1
 90
        1
176
     1
 40
1.0
176
     1
 90
        0
176
     1
 62
   257
176
     1
 40
1.0
176
     1
 90
        1
176
     1
 90
        6
176
     1
 90
        2
176
     1
 62
     7
176
     1
 90
        3
176
     1
 90
        0
176
     1
 90
        0
176
     1
290
     0
176
     1
 90
        1
176
     1
 40
0.0
176
     1
 90
        0
176
     1
290
     0
176
     1
290
     1
176
     1
290
     1
176
     1
290
     0
176
     1
290
     0
176
     1
290
     0
176
     1
290
     0
176
     1
290
     0
176
     1
290
     0
176
     1
 90
       50
176
     1
 40
0.0
176
     1
 40
1.0
176
     1
 90
        0
176
     1
 62
    18
176
     1
 90
       50
176
     1
 90
        3
176
     1
 62
     5
420
      255
176
     1
290
     0
176
     1
 90
       50
176
     1
 90
       50
176
     1
 90
       50
176
     1
290
     0
176
     1
 90
       50
176
     1
 62
   256
176
     0
 40
1.0
176
     0
 90
        2
176
     1
  1
strokes_ogs.tif
176
     1
290
     0
176
     1
 40
1.0
176
     1
 40
1.0
176
     1
  0
VISUALSTYLE
  5
3C
102
{ACAD_REACTORS
330
29
102
}
330
29
100
AcDbVisualStyle
  2
X-Ray
 70
    25
177
     3
291
     0
 70
    58
 90
        2
176
     1
 90
        2
176
     1
 90
        1
176
     1
 90
        1
176
     1
 40
0.5
176
     1
 40
30.0
176
     1
 62
     7
420
 16777215
176
     1
 90
        1
176
     1
 90
        0
176
     1
 62
     7
176
     1
 62
   257
176
     1
 90
        1
176
     1
 90
        1
176
     1
 40
1.0
176
     1
 90
        8
176
     1
 62
     7
176
     1
 40
1.0
176
     1
 90
        1
176
     1
 90
        6
176
     1
 90
        2
176
     1
 62
     7
176
     1
 90
        3
176
     1
 90
        0
176
     1
 90
        0
176
     1
290
     0
176
     1
 90
       13
176
     1
 40
0.0
176
     1
 90
        0
176
     1
290
     0
176
     1
290
     1
176
     1
290
     1
176
     1
290
     0
176
     1
290
     0
176
     1
290
     0
176
     1
290
     0
176
     1
290
     0
176
     1
290
     0
176
     1
 90
       50
176
     1
 40
0.0
176
     1
 40
1.0
176
     1
 90
        0
176
     1
 62
    18
176
     1
 90
       50
176
     1
 90
        3
176
     1
 62
     5
420
      255
176
     1
290
     0
176
     1
 90
       50
176
     1
 90
       50
176
     1
 90
       50
176
     1
290
     0
176
     1
 90
       50
176
     1
 62
   256
176
     0
 40
1.0
176
     0
 90
        2
176
     1
  1
strokes_ogs.tif
176
     1
290
     0
176
     1
 40
1.0
176
     1
 40
1.0
176
     1
  0
DICTIONARYVAR
  5
81
102
{ACAD_REACTORS
330
7C
102
}
330
7C
100
DictionaryVariables
280
     0
  1
1:1
  0
DICTIONARYVAR
  5
7E
102
{ACAD_REACTORS
330
7C
102
}
330
7C
100
DictionaryVariables
280
     0
  1
STANDARD
  0
DICTIONARYVAR
  5
7D
102
{ACAD_REACTORS
330
7C
102
}
330
7C
100
DictionaryVariables
280
     0
  1
STANDARD
  0
DICTIONARYVAR
  5
7F
102
{ACAD_REACTORS
330
7C
102
}
330
7C
100
DictionaryVariables
280
     0
  1
Imperial24
  0
DICTIONARYVAR
  5
80
102
{ACAD_REACTORS
330
7C
102
}
330
7C
100
DictionaryVariables
280
     0
  1
Imperial24
  0
XRECORD
  5
2A4
102
{ACAD_REACTORS
330
2A0
102
}
330
2A0
100
AcDbXrecord
280
     1
  1
BUILDING_ID
  1
Progetto per messa in tavola DXF, DWG
  1
FLOOR_ID
  1
694395
  0
XRECORD
  5
2A2
102
{ACAD_REACTORS
330
2A0
102
}
330
2A0
100
AcDbXrecord
280
     1
  1
-2001160
  1
Apparecchi idraulici
  0
XRECORD
  5
2A3
102
{ACAD_REACTORS
330
2A0
102
}
330
2A0
100
AcDbXrecord
280
     1
  1
790271
  1
Body
  1
924063
  1
Handle
  0
XRECORD
  5
2A1
102
{ACAD_REACTORS
330
2A0
102
}
330
2A0
100
AcDbXrecord
280
     1
  1
859151
  1
Automatic flow rate regulator valve_Caleffi_121 DN15 : 1/2''
  0
DICTIONARY
  5
1A
330
19
100
AcDbDictionary
280
     1
281
     1
  3
BUMPTILE
360
1C
  3
DIFFUSETILE
360
1B
  3
OPACITYTILE
360
1F
  3
REFLECTIONTILE
360
1E
  3
REFRACTIONTILE
360
20
  3
SPECULARTILE
360
1D
  0
DICTIONARY
  5
12
330
11
100
AcDbDictionary
280
     1
281
     1
  3
BUMPTILE
360
14
  3
DIFFUSETILE
360
13
  3
OPACITYTILE
360
17
  3
REFLECTIONTILE
360
16
  3
REFRACTIONTILE
360
18
  3
SPECULARTILE
360
15
  0
DICTIONARY
  5
22
330
21
100
AcDbDictionary
280
     1
281
     1
  3
BUMPTILE
360
24
  3
DIFFUSETILE
360
23
  3
OPACITYTILE
360
27
  3
REFLECTIONTILE
360
26
  3
REFRACTIONTILE
360
28
  3
SPECULARTILE
360
25
  0
DICTIONARY
  5
2A7
330
65
100
AcDbDictionary
280
     1
281
     1
  3
ACAD_ROUNDTRIP_2008_TABLESTYLE_CELLSTYLEMAP
360
2BE
  0
XRECORD
  5
1C
102
{ACAD_REACTORS
330
1A
102
}
330
1A
100
AcDbXrecord
280
     1
270
     1
271
     1
  0
XRECORD
  5
1B
102
{ACAD_REACTORS
330
1A
102
}
330
1A
100
AcDbXrecord
280
     1
270
     1
271
     1
  0
XRECORD
  5
1F
102
{ACAD_REACTORS
330
1A
102
}
330
1A
100
AcDbXrecord
280
     1
270
     1
271
     1
  0
XRECORD
  5
1E
102
{ACAD_REACTORS
330
1A
102
}
330
1A
100
AcDbXrecord
280
     1
270
     1
271
     1
  0
XRECORD
  5
20
102
{ACAD_REACTORS
330
1A
102
}
330
1A
100
AcDbXrecord
280
     1
270
     1
271
     1
  0
XRECORD
  5
1D
102
{ACAD_REACTORS
330
1A
102
}
330
1A
100
AcDbXrecord
280
     1
270
     1
271
     1
  0
XRECORD
  5
14
102
{ACAD_REACTORS
330
12
102
}
330
12
100
AcDbXrecord
280
     1
270
     1
271
     1
  0
XRECORD
  5
13
102
{ACAD_REACTORS
330
12
102
}
330
12
100
AcDbXrecord
280
     1
270
     1
271
     1
  0
XRECORD
  5
17
102
{ACAD_REACTORS
330
12
102
}
330
12
100
AcDbXrecord
280
     1
270
     1
271
     1
  0
XRECORD
  5
16
102
{ACAD_REACTORS
330
12
102
}
330
12
100
AcDbXrecord
280
     1
270
     1
271
     1
  0
XRECORD
  5
18
102
{ACAD_REACTORS
330
12
102
}
330
12
100
AcDbXrecord
280
     1
270
     1
271
     1
  0
XRECORD
  5
15
102
{ACAD_REACTORS
330
12
102
}
330
12
100
AcDbXrecord
280
     1
270
     1
271
     1
  0
XRECORD
  5
24
102
{ACAD_REACTORS
330
22
102
}
330
22
100
AcDbXrecord
280
     1
270
     1
271
     1
  0
XRECORD
  5
23
102
{ACAD_REACTORS
330
22
102
}
330
22
100
AcDbXrecord
280
     1
270
     1
271
     1
  0
XRECORD
  5
27
102
{ACAD_REACTORS
330
22
102
}
330
22
100
AcDbXrecord
280
     1
270
     1
271
     1
  0
XRECORD
  5
26
102
{ACAD_REACTORS
330
22
102
}
330
22
100
AcDbXrecord
280
     1
270
     1
271
     1
  0
XRECORD
  5
28
102
{ACAD_REACTORS
330
22
102
}
330
22
100
AcDbXrecord
280
     1
270
     1
271
     1
  0
XRECORD
  5
25
102
{ACAD_REACTORS
330
22
102
}
330
22
100
AcDbXrecord
280
     1
270
     1
271
     1
  0
CELLSTYLEMAP
  5
2BE
102
{ACAD_REACTORS
330
2A7
102
}
330
2A7
100
AcDbCellStyleMap
 90
        3
300
CELLSTYLE
  1
TABLEFORMAT_BEGIN
 90
        5
170
     1
 91
        0
 92
    32768
 62
   257
 93
        1
300
CONTENTFORMAT
  1
CONTENTFORMAT_BEGIN
 90
        0
 91
        0
 92
      512
 93
        0
300

 40
0.0
140
1.0
 94
        5
 62
     0
340
55
144
0.25
309
CONTENTFORMAT_END
171
     1
301
MARGIN
  1
CELLMARGIN_BEGIN
 40
0.06
 40
0.06
 40
0.06
 40
0.06
 40
0.18
 40
0.18
309
CELLMARGIN_END
 94
        6
 95
        1
302
GRIDFORMAT
  1
GRIDFORMAT_BEGIN
 90
        0
 91
        1
 62
     0
 92
       -2
340
0
 93
        0
 40
0.045
309
GRIDFORMAT_END
 95
        2
302
GRIDFORMAT
  1
GRIDFORMAT_BEGIN
 90
        0
 91
        1
 62
     0
 92
       -2
340
0
 93
        0
 40
0.045
309
GRIDFORMAT_END
 95
        4
302
GRIDFORMAT
  1
GRIDFORMAT_BEGIN
 90
        0
 91
        1
 62
     0
 92
       -2
340
0
 93
        0
 40
0.045
309
GRIDFORMAT_END
 95
        8
302
GRIDFORMAT
  1
GRIDFORMAT_BEGIN
 90
        0
 91
        1
 62
     0
 92
       -2
340
0
 93
        0
 40
0.045
309
GRIDFORMAT_END
 95
       16
302
GRIDFORMAT
  1
GRIDFORMAT_BEGIN
 90
        0
 91
        1
 62
     0
 92
       -2
340
0
 93
        0
 40
0.045
309
GRIDFORMAT_END
 95
       32
302
GRIDFORMAT
  1
GRIDFORMAT_BEGIN
 90
        0
 91
        1
 62
     0
 92
       -2
340
0
 93
        0
 40
0.045
309
GRIDFORMAT_END
309
TABLEFORMAT_END
  1
CELLSTYLE_BEGIN
 90
        1
 91
        1
300
_TITLE
309
CELLSTYLE_END
300
CELLSTYLE
  1
TABLEFORMAT_BEGIN
 90
        5
170
     1
 91
        0
 92
        0
 62
   257
 93
        1
300
CONTENTFORMAT
  1
CONTENTFORMAT_BEGIN
 90
        0
 91
        0
 92
      512
 93
        0
300

 40
0.0
140
1.0
 94
        5
 62
     0
340
55
144
0.18
309
CONTENTFORMAT_END
171
     1
301
MARGIN
  1
CELLMARGIN_BEGIN
 40
0.06
 40
0.06
 40
0.06
 40
0.06
 40
0.18
 40
0.18
309
CELLMARGIN_END
 94
        6
 95
        1
302
GRIDFORMAT
  1
GRIDFORMAT_BEGIN
 90
        0
 91
        1
 62
     0
 92
       -2
340
0
 93
        0
 40
0.045
309
GRIDFORMAT_END
 95
        2
302
GRIDFORMAT
  1
GRIDFORMAT_BEGIN
 90
        0
 91
        1
 62
     0
 92
       -2
340
0
 93
        0
 40
0.045
309
GRIDFORMAT_END
 95
        4
302
GRIDFORMAT
  1
GRIDFORMAT_BEGIN
 90
        0
 91
        1
 62
     0
 92
       -2
340
0
 93
        0
 40
0.045
309
GRIDFORMAT_END
 95
        8
302
GRIDFORMAT
  1
GRIDFORMAT_BEGIN
 90
        0
 91
        1
 62
     0
 92
       -2
340
0
 93
        0
 40
0.045
309
GRIDFORMAT_END
 95
       16
302
GRIDFORMAT
  1
GRIDFORMAT_BEGIN
 90
        0
 91
        1
 62
     0
 92
       -2
340
0
 93
        0
 40
0.045
309
GRIDFORMAT_END
 95
       32
302
GRIDFORMAT
  1
GRIDFORMAT_BEGIN
 90
        0
 91
        1
 62
     0
 92
       -2
340
0
 93
        0
 40
0.045
309
GRIDFORMAT_END
309
TABLEFORMAT_END
  1
CELLSTYLE_BEGIN
 90
        2
 91
        1
300
_HEADER
309
CELLSTYLE_END
300
CELLSTYLE
  1
TABLEFORMAT_BEGIN
 90
        5
170
     1
 91
        0
 92
        0
 62
   257
 93
        1
300
CONTENTFORMAT
  1
CONTENTFORMAT_BEGIN
 90
        0
 91
        0
 92
      512
 93
        0
300

 40
0.0
140
1.0
 94
        2
 62
     0
340
55
144
0.18
309
CONTENTFORMAT_END
171
     1
301
MARGIN
  1
CELLMARGIN_BEGIN
 40
0.06
 40
0.06
 40
0.06
 40
0.06
 40
0.18
 40
0.18
309
CELLMARGIN_END
 94
        6
 95
        1
302
GRIDFORMAT
  1
GRIDFORMAT_BEGIN
 90
        0
 91
        1
 62
     0
 92
       -2
340
0
 93
        0
 40
0.045
309
GRIDFORMAT_END
 95
        2
302
GRIDFORMAT
  1
GRIDFORMAT_BEGIN
 90
        0
 91
        1
 62
     0
 92
       -2
340
0
 93
        0
 40
0.045
309
GRIDFORMAT_END
 95
        4
302
GRIDFORMAT
  1
GRIDFORMAT_BEGIN
 90
        0
 91
        1
 62
     0
 92
       -2
340
0
 93
        0
 40
0.045
309
GRIDFORMAT_END
 95
        8
302
GRIDFORMAT
  1
GRIDFORMAT_BEGIN
 90
        0
 91
        1
 62
     0
 92
       -2
340
0
 93
        0
 40
0.045
309
GRIDFORMAT_END
 95
       16
302
GRIDFORMAT
  1
GRIDFORMAT_BEGIN
 90
        0
 91
        1
 62
     0
 92
       -2
340
0
 93
        0
 40
0.045
309
GRIDFORMAT_END
 95
       32
302
GRIDFORMAT
  1
GRIDFORMAT_BEGIN
 90
        0
 91
        1
 62
     0
 92
       -2
340
0
 93
        0
 40
0.045
309
GRIDFORMAT_END
309
TABLEFORMAT_END
  1
CELLSTYLE_BEGIN
 90
        3
 91
        2
300
_DATA
309
CELLSTYLE_END
  0
ENDSEC
  0
EOF
